  0
SECTION
  2
HEADER
  9
$ACADVER
  1
AC1015
  9
$ACADMAINTVER
 70
     6
  9
$DWGCODEPAGE
  3
ANSI_1252
  9
$INSBASE
 10
0.0
 20
0.0
 30
0.0
  9
$EXTMIN
 10
0.0
 20
0.0
 30
0.0
  9
$EXTMAX
 10
594.0
 20
420.0
 30
0.0
  9
$LIMMIN
 10
0.0
 20
0.0
  9
$LIMMAX
 10
594.0
 20
420.0
  9
$ORTHOMODE
 70
     0
  9
$REGENMODE
 70
     1
  9
$FILLMODE
 70
     1
  9
$QTEXTMODE
 70
     0
  9
$MIRRTEXT
 70
     1
  9
$LTSCALE
 40
1.0
  9
$ATTMODE
 70
     1
  9
$TEXTSIZE
 40
2.5
  9
$TRACEWID
 40
1.0
  9
$TEXTSTYLE
  7
Standard
  9
$CLAYER
  8
0
  9
$CELTYPE
  6
ByLayer
  9
$CECOLOR
 62
   256
  9
$CELTSCALE
 40
1.0
  9
$DISPSILH
 70
     0
  9
$DIMSCALE
 40
1.0
  9
$DIMASZ
 40
2.5
  9
$DIMEXO
 40
1.0
  9
$DIMDLI
 40
3.75
  9
$DIMRND
 40
0.0
  9
$DIMDLE
 40
0.0
  9
$DIMEXE
 40
1.0
  9
$DIMTP
 40
0.0
  9
$DIMTM
 40
0.0
  9
$DIMTXT
 40
2.5
  9
$DIMCEN
 40
2.5
  9
$DIMTSZ
 40
0.0
  9
$DIMTOL
 70
     0
  9
$DIMLIM
 70
     0
  9
$DIMTIH
 70
     1
  9
$DIMTOH
 70
     1
  9
$DIMSE1
 70
     0
  9
$DIMSE2
 70
     0
  9
$DIMTAD
 70
     1
  9
$DIMZIN
 70
     0
  9
$DIMBLK
  1

  9
$DIMASO
 70
     1
  9
$DIMSHO
 70
     1
  9
$DIMPOST
  1

  9
$DIMAPOST
  1

  9
$DIMALT
 70
     0
  9
$DIMALTD
 70
     3
  9
$DIMALTF
 40
0.0393700787
  9
$DIMLFAC
 40
1.0
  9
$DIMTOFL
 70
     1
  9
$DIMTVP
 40
0.0
  9
$DIMTIX
 70
     0
  9
$DIMSOXD
 70
     0
  9
$DIMSAH
 70
     0
  9
$DIMBLK1
  1

  9
$DIMBLK2
  1

  9
$DIMSTYLE
  2
ISO-25
  9
$DIMCLRD
 70
     0
  9
$DIMCLRE
 70
     0
  9
$DIMCLRT
 70
     0
  9
$DIMTFAC
 40
1.0
  9
$DIMGAP
 40
1.524
  9
$DIMJUST
 70
     0
  9
$DIMSD1
 70
     0
  9
$DIMSD2
 70
     0
  9
$DIMTOLJ
 70
     0
  9
$DIMTZIN
 70
     0
  9
$DIMALTZ
 70
     0
  9
$DIMALTTZ
 70
     0
  9
$DIMUPT
 70
     0
  9
$DIMDEC
 70
     2
  9
$DIMTDEC
 70
     2
  9
$DIMALTU
 70
     2
  9
$DIMALTTD
 70
     3
  9
$DIMTXSTY
  7
Standard
  9
$DIMAUNIT
 70
     0
  9
$DIMADEC
 70
     2
  9
$DIMALTRND
 40
0.0
  9
$DIMAZIN
 70
     0
  9
$DIMDSEP
 70
    44
  9
$DIMATFIT
 70
     3
  9
$DIMFRAC
 70
     0
  9
$DIMLDRBLK
  1

  9
$DIMLUNIT
 70
     2
  9
$DIMLWD
 70
    -2
  9
$DIMLWE
 70
    -2
  9
$DIMTMOVE
 70
     0
  9
$LUNITS
 70
     2
  9
$LUPREC
 70
     2
  9
$SKETCHINC
 40
1.0
  9
$FILLETRAD
 40
10.0
  9
$AUNITS
 70
     0
  9
$AUPREC
 70
     2
  9
$MENU
  1
.
  9
$ELEVATION
 40
0.0
  9
$PELEVATION
 40
0.0
  9
$THICKNESS
 40
0.0
  9
$LIMCHECK
 70
     0
  9
$CHAMFERA
 40
10.0
  9
$CHAMFERB
 40
10.0
  9
$CHAMFERC
 40
20.0
  9
$CHAMFERD
 40
0.0
  9
$SKPOLY
 70
     0
  9
$TDCREATE
 40
2457655.468748935
  9
$TDUCREATE
 40
2457655.385415602
  9
$TDUPDATE
 40
2457655.468749653
  9
$TDUUPDATE
 40
2457655.38541632
  9
$TDINDWG
 40
0.0000000116
  9
$TDUSRTIMER
 40
0.0000000116
  9
$USRTIMER
 70
     1
  9
$ANGBASE
 50
0.0
  9
$ANGDIR
 70
     0
  9
$PDMODE
 70
     0
  9
$PDSIZE
 40
-1.0
  9
$PLINEWID
 40
0.0
  9
$SPLFRAME
 70
     0
  9
$SPLINETYPE
 70
     6
  9
$SPLINESEGS
 70
     8
  9
$HANDSEED
  5
23F
  9
$SURFTAB1
 70
     6
  9
$SURFTAB2
 70
     6
  9
$SURFTYPE
 70
     6
  9
$SURFU
 70
     6
  9
$SURFV
 70
     6
  9
$UCSBASE
  2

  9
$UCSNAME
  2

  9
$UCSORG
 10
0.0
 20
0.0
 30
0.0
  9
$UCSXDIR
 10
1.0
 20
0.0
 30
0.0
  9
$UCSYDIR
 10
0.0
 20
1.0
 30
0.0
  9
$UCSORTHOREF
  2

  9
$UCSORTHOVIEW
 70
     0
  9
$UCSORGTOP
 10
0.0
 20
0.0
 30
0.0
  9
$UCSORGBOTTOM
 10
0.0
 20
0.0
 30
0.0
  9
$UCSORGLEFT
 10
0.0
 20
0.0
 30
0.0
  9
$UCSORGRIGHT
 10
0.0
 20
0.0
 30
0.0
  9
$UCSORGFRONT
 10
0.0
 20
0.0
 30
0.0
  9
$UCSORGBACK
 10
0.0
 20
0.0
 30
0.0
  9
$PUCSBASE
  2

  9
$PUCSNAME
  2

  9
$PUCSORG
 10
0.0
 20
0.0
 30
0.0
  9
$PUCSXDIR
 10
1.0
 20
0.0
 30
0.0
  9
$PUCSYDIR
 10
0.0
 20
1.0
 30
0.0
  9
$PUCSORTHOREF
  2

  9
$PUCSORTHOVIEW
 70
     0
  9
$PUCSORGTOP
 10
0.0
 20
0.0
 30
0.0
  9
$PUCSORGBOTTOM
 10
0.0
 20
0.0
 30
0.0
  9
$PUCSORGLEFT
 10
0.0
 20
0.0
 30
0.0
  9
$PUCSORGRIGHT
 10
0.0
 20
0.0
 30
0.0
  9
$PUCSORGFRONT
 10
0.0
 20
0.0
 30
0.0
  9
$PUCSORGBACK
 10
0.0
 20
0.0
 30
0.0
  9
$USERI1
 70
     0
  9
$USERI2
 70
     0
  9
$USERI3
 70
     0
  9
$USERI4
 70
     0
  9
$USERI5
 70
     0
  9
$USERR1
 40
0.0
  9
$USERR2
 40
0.0
  9
$USERR3
 40
0.0
  9
$USERR4
 40
0.0
  9
$USERR5
 40
0.0
  9
$WORLDVIEW
 70
     1
  9
$SHADEDGE
 70
     3
  9
$SHADEDIF
 70
    70
  9
$TILEMODE
 70
     1
  9
$MAXACTVP
 70
    64
  9
$PINSBASE
 10
0.0
 20
0.0
 30
0.0
  9
$PLIMCHECK
 70
     0
  9
$PEXTMIN
 10
1.0000000000E+20
 20
1.0000000000E+20
 30
1.0000000000E+20
  9
$PEXTMAX
 10
-1.0000000000E+20
 20
-1.0000000000E+20
 30
-1.0000000000E+20
  9
$PLIMMIN
 10
0.0
 20
0.0
  9
$PLIMMAX
 10
420.0
 20
297.0
  9
$UNITMODE
 70
     0
  9
$VISRETAIN
 70
     1
  9
$PLINEGEN
 70
     0
  9
$PSLTSCALE
 70
     1
  9
$TREEDEPTH
 70
  3020
  9
$CMLSTYLE
  2
Standard
  9
$CMLJUST
 70
     0
  9
$CMLSCALE
 40
20.0
  9
$PROXYGRAPHICS
 70
     1
  9
$MEASUREMENT
 70
     1
  9
$CELWEIGHT
370
    -1
  9
$ENDCAPS
280
     0
  9
$JOINSTYLE
280
     0
  9
$LWDISPLAY
290
     1
  9
$INSUNITS
 70
     4
  9
$HYPERLINKBASE
  1

  9
$STYLESHEET
  1

  9
$XEDIT
290
     1
  9
$CEPSNTYPE
380
     0
  9
$PSTYLEMODE
290
     1
  9
$FINGERPRINTGUID
  2
{0A27C2D0-A0BC-427A-A52A-42F0606E266C}
  9
$VERSIONGUID
  2
{FAEB1C32-E019-11D5-929B-00C0DF256EC4}
  9
$EXTNAMES
290
     1
  9
$PSVPSCALE
 40
0.0
  9
$OLESTARTUP
290
     0
  0
ENDSEC
  0
SECTION
  2
CLASSES
  0
CLASS
  1
ACDBDICTIONARYWDFLT
  2
AcDbDictionaryWithDefault
  3
ObjectDBX Classes
 90
        0
280
     0
281
     0
  0
CLASS
  1
VISUALSTYLE
  2
AcDbVisualStyle
  3
ObjectDBX Classes
 90
     4095
280
     0
281
     0
  0
CLASS
  1
MATERIAL
  2
AcDbMaterial
  3
ObjectDBX Classes
 90
     1153
280
     0
281
     0
  0
CLASS
  1
ACDBPLACEHOLDER
  2
AcDbPlaceHolder
  3
ObjectDBX Classes
 90
        0
280
     0
281
     0
  0
CLASS
  1
LAYOUT
  2
AcDbLayout
  3
ObjectDBX Classes
 90
        0
280
     0
281
     0
  0
ENDSEC
  0
SECTION
  2
TABLES
  0
TABLE
  2
VPORT
  5
8
330
0
100
AcDbSymbolTable
 70
     1
  0
VPORT
  5
29
330
8
100
AcDbSymbolTableRecord
100
AcDbViewportTableRecord
  2
*Active
 70
     0
 10
0.0
 20
0.0
 11
1.0
 21
1.0
 12
297.0
 22
210.0
 13
0.0
 23
0.0
 14
10.0
 24
10.0
 15
10.0
 25
10.0
 16
0.0
 26
0.0
 36
1.0
 17
0.0
 27
0.0
 37
0.0
 40
420.0
 41
1.4142857143
 42
50.0
 43
0.0
 44
0.0
 50
0.0
 51
0.0
 71
     0
 72
  2000
 73
     1
 74
     3
 75
     0
 76
     0
 77
     0
 78
     0
281
     0
 65
     1
110
0.0
120
0.0
130
0.0
111
1.0
121
0.0
131
0.0
112
0.0
122
1.0
132
0.0
 79
     0
146
0.0
  0
ENDTAB
  0
TABLE
  2
LTYPE
  5
5
330
0
100
AcDbSymbolTable
 70
     6
  0
LTYPE
  5
14
330
5
100
AcDbSymbolTableRecord
100
AcDbLinetypeTableRecord
  2
ByBlock
 70
     0
  3

 72
    65
 73
     0
 40
0.0
  0
LTYPE
  5
15
330
5
100
AcDbSymbolTableRecord
100
AcDbLinetypeTableRecord
  2
ByLayer
 70
     0
  3

 72
    65
 73
     0
 40
0.0
  0
LTYPE
  5
16
330
5
100
AcDbSymbolTableRecord
100
AcDbLinetypeTableRecord
  2
Continuous
 70
     0
  3
Solid line
 72
    65
 73
     0
 40
0.0
  0
LTYPE
  5
3F
330
5
100
AcDbSymbolTableRecord
100
AcDbLinetypeTableRecord
  2
HIDDEN
 70
     0
  3
Hidden __ __ __ __ __ __ __ __ __ __ __ __ __ __
 72
    65
 73
     2
 40
1.905
 49
1.27
 74
     0
 49
-0.635
 74
     0
  0
LTYPE
  5
40
330
5
100
AcDbSymbolTableRecord
100
AcDbLinetypeTableRecord
  2
PHANTOM
 70
     0
  3
Phantom ______  __  __  ______  __  __  ______
 72
    65
 73
     6
 40
12.7
 49
6.35
 74
     0
 49
-1.27
 74
     0
 49
1.27
 74
     0
 49
-1.27
 74
     0
 49
1.27
 74
     0
 49
-1.27
 74
     0
  0
LTYPE
  5
41
330
5
100
AcDbSymbolTableRecord
100
AcDbLinetypeTableRecord
  2
CENTER
 70
     0
  3
Center ____ _ ____ _ ____ _ ____ _ ____ _ ____
 72
    65
 73
     4
 40
10.16
 49
6.35
 74
     0
 49
-1.27
 74
     0
 49
1.27
 74
     0
 49
-1.27
 74
     0
  0
LTYPE
  5
42
330
5
100
AcDbSymbolTableRecord
100
AcDbLinetypeTableRecord
  2
CENTERX2
 70
     0
  3
Center (2x) ________  __  ________  __  _____
 72
    65
 73
     4
 40
20.32
 49
12.7
 74
     0
 49
-2.54
 74
     0
 49
2.54
 74
     0
 49
-2.54
 74
     0
  0
LTYPE
  5
43
330
5
100
AcDbSymbolTableRecord
100
AcDbLinetypeTableRecord
  2
DOT2
 70
     0
  3
Dot (.5x) ........................................
 72
    65
 73
     2
 40
0.635
 49
0.0
 74
     0
 49
-0.635
 74
     0
  0
ENDTAB
  0
TABLE
  2
LAYER
  5
2
330
0
100
AcDbSymbolTable
 70
     3
  0
LAYER
  5
10
330
2
100
AcDbSymbolTableRecord
100
AcDbLayerTableRecord
  2
0
 70
     0
 62
     7
  6
Continuous
370
    -3
390
F
  0
LAYER
  5
44
330
2
100
AcDbSymbolTableRecord
100
AcDbLayerTableRecord
  2
FORMAT
 70
     0
 62
     7
  6
Continuous
370
    -3
390
F
  0
LAYER
  5
45
330
2
100
AcDbSymbolTableRecord
100
AcDbLayerTableRecord
  2
PROTOTYPE
 70
     0
 62
     7
  6
Continuous
370
    -3
390
F
  0
ENDTAB
  0
TABLE
  2
STYLE
  5
3
330
0
100
AcDbSymbolTable
 70
     1
  0
STYLE
  5
11
330
3
100
AcDbSymbolTableRecord
100
AcDbTextStyleTableRecord
  2
Standard
 70
     0
 40
0.0
 41
1.0
 50
0.0
 71
     0
 42
2.5
  3
txt
  4

  0
ENDTAB
  0
TABLE
  2
VIEW
  5
6
330
0
100
AcDbSymbolTable
 70
     0
  0
ENDTAB
  0
TABLE
  2
UCS
  5
7
330
0
100
AcDbSymbolTable
 70
     0
  0
ENDTAB
  0
TABLE
  2
APPID
  5
9
330
0
100
AcDbSymbolTable
 70
     1
  0
APPID
  5
12
330
9
100
AcDbSymbolTableRecord
100
AcDbRegAppTableRecord
  2
ACAD
 70
     0
  0
ENDTAB
  0
TABLE
  2
DIMSTYLE
  5
A
330
0
100
AcDbSymbolTable
 70
     1
100
AcDbDimStyleTable
  0
DIMSTYLE
105
27
330
A
100
AcDbSymbolTableRecord
100
AcDbDimStyleTableRecord
  2
ISO-25
 70
     0
 41
2.5
 42
0.625
 43
3.75
 44
1.25
 73
     0
 74
     0
 77
     1
 78
     8
140
2.5
141
2.5
143
0.0393700787
147
0.625
171
     3
172
     1
178
     0
271
     2
272
     2
274
     3
278
    44
283
     0
284
     8
340
11
  0
ENDTAB
  0
TABLE
  2
BLOCK_RECORD
  5
1
330
0
100
AcDbSymbolTable
 70
     2
  0
BLOCK_RECORD
  5
1F
330
1
100
AcDbSymbolTableRecord
100
AcDbBlockTableRecord
  2
*Model_Space
340
22
  0
BLOCK_RECORD
  5
1B
330
1
100
AcDbSymbolTableRecord
100
AcDbBlockTableRecord
  2
*Paper_Space
340
1E
  0
BLOCK_RECORD
  5
23
330
1
100
AcDbSymbolTableRecord
100
AcDbBlockTableRecord
  2
*Paper_Space0
340
26
  0
BLOCK_RECORD
  5
233
330
1
100
AcDbSymbolTableRecord
100
AcDbBlockTableRecord
  2
SW_CENTERMARKSYMBOL_0
340
0
102
{BLKREFS
331
23E
102
}
  0
ENDTAB
  0
ENDSEC
  0
SECTION
  2
BLOCKS
  0
BLOCK
  5
20
330
1F
100
AcDbEntity
  8
0
100
AcDbBlockBegin
  2
*Model_Space
 70
     0
 10
0.0
 20
0.0
 30
0.0
  3
*Model_Space
  1

  0
ENDBLK
  5
21
330
1F
100
AcDbEntity
  8
0
100
AcDbBlockEnd
  0
BLOCK
  5
1C
330
1B
100
AcDbEntity
 67
     1
  8
0
100
AcDbBlockBegin
  2
*Paper_Space
 70
     0
 10
0.0
 20
0.0
 30
0.0
  3
*Paper_Space
  1

  0
ENDBLK
  5
1D
330
1B
100
AcDbEntity
 67
     1
  8
0
100
AcDbBlockEnd
  0
BLOCK
  5
24
330
23
100
AcDbEntity
  8
0
100
AcDbBlockBegin
  2
*Paper_Space0
 70
     0
 10
0.0
 20
0.0
 30
0.0
  3
*Paper_Space0
  1

  0
ENDBLK
  5
25
330
23
100
AcDbEntity
  8
0
100
AcDbBlockEnd
  0
BLOCK
  5
234
330
233
100
AcDbEntity
  8
0
100
AcDbBlockBegin
  2
SW_CENTERMARKSYMBOL_0
 70
     0
 10
0.0
 20
0.0
 30
0.0
  3
SW_CENTERMARKSYMBOL_0
  1

  0
LINE
  5
236
330
233
100
AcDbEntity
  8
FORMAT
 62
     0
100
AcDbLine
 10
0.0
 20
0.0
 30
0.0
 11
0.0
 21
2.5
 31
0.0
  0
LINE
  5
237
330
233
100
AcDbEntity
  8
FORMAT
 62
     0
100
AcDbLine
 10
0.0
 20
0.0
 30
0.0
 11
-2.5
 21
0.0
 31
0.0
  0
LINE
  5
238
330
233
100
AcDbEntity
  8
FORMAT
 62
     0
100
AcDbLine
 10
0.0
 20
0.0
 30
0.0
 11
0.0
 21
-2.5
 31
0.0
  0
LINE
  5
239
330
233
100
AcDbEntity
  8
FORMAT
 62
     0
100
AcDbLine
 10
0.0
 20
0.0
 30
0.0
 11
2.5
 21
0.0
 31
0.0
  0
LINE
  5
23A
330
233
100
AcDbEntity
  8
FORMAT
 62
     0
100
AcDbLine
 10
0.0
 20
5.0
 30
0.0
 11
0.0
 21
192.1923826605
 31
0.0
  0
LINE
  5
23B
330
233
100
AcDbEntity
  8
FORMAT
 62
     0
100
AcDbLine
 10
-5.0
 20
0.0
 30
0.0
 11
-192.583350343
 21
0.0
 31
0.0
  0
LINE
  5
23C
330
233
100
AcDbEntity
  8
FORMAT
 62
     0
100
AcDbLine
 10
0.0
 20
-5.0
 30
0.0
 11
0.0
 21
-192.2902433118
 31
0.0
  0
LINE
  5
23D
330
233
100
AcDbEntity
  8
FORMAT
 62
     0
100
AcDbLine
 10
5.0
 20
0.0
 30
0.0
 11
188.4087644476
 21
0.0
 31
0.0
  0
ENDBLK
  5
235
330
233
100
AcDbEntity
  8
0
100
AcDbBlockEnd
  0
ENDSEC
  0
SECTION
  2
ENTITIES
  0
LINE
  5
46
330
1F
100
AcDbEntity
  8
0
  6
Continuous
 62
     7
370
    15
100
AcDbLine
 10
-339.0515737147
 20
1171.9973811392
 30
0.0
 11
-337.9142210888
 21
1158.9973811392
 31
0.0
  0
LINE
  5
47
330
1F
100
AcDbEntity
  8
0
  6
Continuous
 62
     7
370
    15
100
AcDbLine
 10
19.8110736595
 20
1158.9973811392
 30
0.0
 11
20.9484262853
 21
1171.9973811392
 31
0.0
  0
ARC
  5
48
330
1F
100
AcDbEntity
  8
0
  6
Continuous
 62
     7
370
    15
100
AcDbCircle
 10
-328.0515737147
 20
1171.9973811392
 30
0.0
 40
11.0
100
AcDbArc
 50
90.0
 51
180.0
  0
ARC
  5
49
330
1F
100
AcDbEntity
  8
0
  6
Continuous
 62
     7
370
    15
100
AcDbCircle
 10
9.9484262853
 20
1171.9973811392
 30
0.0
 40
10.99999999999998
100
AcDbArc
 50
0.0
 51
90.0
  0
LINE
  5
4A
330
1F
100
AcDbEntity
  8
0
  6
Continuous
 62
     7
370
    15
100
AcDbLine
 10
-6.5515737147
 20
754.1973811392
 30
0.0
 11
-6.5515737147
 21
773.1973811392
 31
0.0
  0
LINE
  5
4B
330
1F
100
AcDbEntity
  8
0
  6
Continuous
 62
     7
370
    15
100
AcDbLine
 10
-311.5515737147
 20
773.1973811392
 30
0.0
 11
-311.5515737147
 21
754.1973811392
 31
0.0
  0
LINE
  5
4C
330
1F
100
AcDbEntity
  8
0
  6
Continuous
 62
     7
370
    15
100
AcDbLine
 10
-237.6015737147
 20
859.2973811392
 30
0.0
 11
-237.6015737147
 21
773.1973811392
 31
0.0
  0
LINE
  5
4D
330
1F
100
AcDbEntity
  8
0
  6
Continuous
 62
     7
370
    15
100
AcDbLine
 10
-80.5015737147
 20
773.1973811392
 30
0.0
 11
-80.5015737147
 21
859.2973811392
 31
0.0
  0
LINE
  5
4E
330
1F
100
AcDbEntity
  8
0
  6
Continuous
 62
     7
370
    15
100
AcDbLine
 10
-94.0015737147
 20
1113.8688082686
 30
0.0
 11
-121.2603679269
 21
1115.2973811392
 31
0.0
  0
LINE
  5
4F
330
1F
100
AcDbEntity
  8
0
  6
Continuous
 62
     7
370
    15
100
AcDbLine
 10
-196.8427795024
 20
1115.2973811392
 30
0.0
 11
-224.1015737147
 21
1113.8688082686
 31
0.0
  0
LINE
  5
50
330
1F
100
AcDbEntity
  8
0
  6
Continuous
 62
     7
370
    15
100
AcDbLine
 10
-119.0515737147
 20
1119.0973811392
 30
0.0
 11
-119.0515737147
 21
1127.0973811392
 31
0.0
  0
LINE
  5
51
330
1F
100
AcDbEntity
  8
0
  6
Continuous
 62
     7
370
    15
100
AcDbLine
 10
-199.0515737147
 20
1127.0973811392
 30
0.0
 11
-199.0515737147
 21
1119.0973811392
 31
0.0
  0
LINE
  5
52
330
1F
100
AcDbEntity
  8
0
  6
Continuous
 62
     7
370
    15
100
AcDbLine
 10
-121.2603679269
 20
1115.2973811392
 30
0.0
 11
-121.5928248483
 21
1119.0973811392
 31
0.0
  0
LINE
  5
53
330
1F
100
AcDbEntity
  8
0
  6
Continuous
 62
     7
370
    15
100
AcDbLine
 10
-196.510322581
 20
1119.0973811392
 30
0.0
 11
-196.8427795024
 21
1115.2973811392
 31
0.0
  0
LINE
  5
54
330
1F
100
AcDbEntity
  8
0
  6
Continuous
 62
     7
370
    15
100
AcDbLine
 10
-151.0515737147
 20
1153.7973811392
 30
0.0
 11
-151.0515737147
 21
1158.9973811392
 31
0.0
  0
LINE
  5
55
330
1F
100
AcDbEntity
  8
0
  6
Continuous
 62
     7
370
    15
100
AcDbLine
 10
-167.0515737147
 20
1158.9973811392
 30
0.0
 11
-167.0515737147
 21
1153.7973811392
 31
0.0
  0
ARC
  5
56
330
1F
100
AcDbEntity
  8
0
  6
Continuous
 62
     7
370
    15
100
AcDbCircle
 10
-159.0515737147
 20
1195.2973811392
 30
0.0
 40
17.50000000000005
100
AcDbArc
 50
180.0
 51
224.611188142
  0
ARC
  5
57
330
1F
100
AcDbEntity
  8
0
  6
Continuous
 62
     7
370
    15
100
AcDbCircle
 10
-159.0515737147
 20
1195.2973811392
 30
0.0
 40
17.5
100
AcDbArc
 50
315.3662066502
 51
180.0
  0
ARC
  5
58
330
1F
100
AcDbEntity
  8
0
  6
Continuous
 62
     7
370
    15
100
AcDbCircle
 10
-159.0515737147
 20
1195.2973811392
 30
0.0
 40
31.50000000000003
100
AcDbArc
 50
337.0080227691
 51
0.0
  0
ARC
  5
59
330
1F
100
AcDbEntity
  8
0
  6
Continuous
 62
     7
370
    15
100
AcDbCircle
 10
-159.0515737147
 20
1195.2973811392
 30
0.0
 40
31.5
100
AcDbArc
 50
0.0
 51
202.996613787
  0
LINE
  5
5A
330
1F
100
AcDbEntity
  8
0
  6
Continuous
 62
     7
370
    15
100
AcDbLine
 10
-263.3515737147
 20
949.6973811392
 30
0.0
 11
-285.0515737147
 21
949.6973811392
 31
0.0
  0
LINE
  5
5B
330
1F
100
AcDbEntity
  8
0
  6
Continuous
 62
     7
370
    15
100
AcDbLine
 10
-285.0515737147
 20
941.6973811392
 30
0.0
 11
-263.3515737147
 21
941.6973811392
 31
0.0
  0
LINE
  5
5C
330
1F
100
AcDbEntity
  8
0
  6
Continuous
 62
     7
370
    15
100
AcDbLine
 10
-263.3515737147
 20
976.6973811392
 30
0.0
 11
-285.0515737147
 21
976.6973811392
 31
0.0
  0
LINE
  5
5D
330
1F
100
AcDbEntity
  8
0
  6
Continuous
 62
     7
370
    15
100
AcDbLine
 10
-285.0515737147
 20
968.6973811392
 30
0.0
 11
-263.3515737147
 21
968.6973811392
 31
0.0
  0
ARC
  5
5E
330
1F
100
AcDbEntity
  8
0
  6
Continuous
 62
     7
370
    15
100
AcDbCircle
 10
-285.0515737147
 20
959.1973811392
 30
0.0
 40
9.5
100
AcDbArc
 50
180.0
 51
270.0
  0
ARC
  5
5F
330
1F
100
AcDbEntity
  8
0
  6
Continuous
 62
     7
370
    15
100
AcDbCircle
 10
-285.0515737147
 20
959.1973811392
 30
0.0
 40
9.5
100
AcDbArc
 50
90.0
 51
180.0
  0
ARC
  5
60
330
1F
100
AcDbEntity
  8
0
  6
Continuous
 62
     7
370
    15
100
AcDbCircle
 10
-285.0515737147
 20
959.1973811392
 30
0.0
 40
17.5
100
AcDbArc
 50
90.0
 51
270.0
  0
LINE
  5
61
330
1F
100
AcDbEntity
  8
0
  6
Continuous
 62
     7
370
    15
100
AcDbLine
 10
-74.5185825206
 20
941.1065685088
 30
0.0
 11
-70.0515737147
 21
941.4973811392
 31
0.0
  0
LINE
  5
62
330
1F
100
AcDbEntity
  8
0
  6
Continuous
 62
     7
370
    15
100
AcDbLine
 10
-70.2926222201
 20
976.9184701508
 30
0.0
 11
-74.012619138
 21
977.2439277095
 31
0.0
  0
LINE
  5
63
330
1F
100
AcDbEntity
  8
0
  6
Continuous
 62
     7
370
    15
100
AcDbLine
 10
-70.6401932406
 20
945.2189083302
 30
0.0
 11
-70.0515737147
 21
967.6973811392
 31
0.0
  0
LINE
  5
64
330
1F
100
AcDbEntity
  8
0
  6
Continuous
 62
     7
370
    15
100
AcDbLine
 10
-70.0515737147
 20
967.6973811392
 30
0.0
 11
-70.2928627298
 21
976.9118368737
 31
0.0
  0
LINE
  5
65
330
1F
100
AcDbEntity
  8
0
  6
Continuous
 62
     7
370
    15
100
AcDbLine
 10
-117.8886228108
 20
1119.0973811392
 30
0.0
 11
-117.8886228108
 21
1127.0973811392
 31
0.0
  0
LINE
  5
66
330
1F
100
AcDbEntity
  8
0
  6
Continuous
 62
     7
370
    15
100
AcDbLine
 10
-339.0515737147
 20
1171.9973811392
 30
0.0
 11
20.9484262853
 21
1171.9973811392
 31
0.0
  0
LINE
  5
67
330
1F
100
AcDbEntity
  8
0
  6
Continuous
 62
     7
370
    15
100
AcDbLine
 10
-337.9142210888
 20
1158.9973811392
 30
0.0
 11
19.8110736595
 21
1158.9973811392
 31
0.0
  0
LINE
  5
68
330
1F
100
AcDbEntity
  8
0
  6
Continuous
 62
     7
370
    15
100
AcDbLine
 10
-328.0515737147
 20
1182.9973811392
 30
0.0
 11
9.9484262853
 21
1182.9973811392
 31
0.0
  0
LINE
  5
69
330
1F
100
AcDbEntity
  8
0
  6
Continuous
 62
     7
370
    15
100
AcDbLine
 10
-6.5515737147
 20
773.1973811392
 30
0.0
 11
-311.5515737147
 21
773.1973811392
 31
0.0
  0
LINE
  5
6A
330
1F
100
AcDbEntity
  8
0
  6
Continuous
 62
     7
370
    15
100
AcDbLine
 10
-6.5515737147
 20
754.1973811392
 30
0.0
 11
-311.5515737147
 21
754.1973811392
 31
0.0
  0
LINE
  5
6B
330
1F
100
AcDbEntity
  8
0
  6
Continuous
 62
     7
370
    15
100
AcDbLine
 10
-217.0515737147
 20
931.1973811392
 30
0.0
 11
-101.0515737147
 21
931.1973811392
 31
0.0
  0
LINE
  5
6C
330
1F
100
AcDbEntity
  8
0
  6
Continuous
 62
     7
370
    15
100
AcDbLine
 10
-217.0515737147
 20
987.1973811392
 30
0.0
 11
-217.0515737147
 21
931.1973811392
 31
0.0
  0
LINE
  5
6D
330
1F
100
AcDbEntity
  8
0
  6
Continuous
 62
     7
370
    15
100
AcDbLine
 10
-101.0515737147
 20
987.1973811392
 30
0.0
 11
-101.0515737147
 21
931.1973811392
 31
0.0
  0
LINE
  5
6E
330
1F
100
AcDbEntity
  8
0
  6
Continuous
 62
     7
370
    15
100
AcDbLine
 10
-101.0515737147
 20
987.1973811392
 30
0.0
 11
-217.0515737147
 21
987.1973811392
 31
0.0
  0
LINE
  5
6F
330
1F
100
AcDbEntity
  8
0
  6
Continuous
 62
     7
370
    15
100
AcDbLine
 10
-195.1640737147
 20
1060.1973811392
 30
0.0
 11
-169.5396407039
 21
1060.1973811392
 31
0.0
  0
SPLINE
  5
70
330
1F
100
AcDbEntity
  8
0
  6
Continuous
 62
     7
370
    15
100
AcDbSpline
210
0.0
220
0.0
230
1.0
 70
     8
 71
     3
 72
    10
 73
     6
 74
     0
 42
0.00000001
 43
0.00000001
 12
1.0
 22
0.0
 32
0.0
 13
1.0
 23
0.0
 33
0.0
 40
0.0
 40
0.0
 40
0.0
 40
0.0
 40
0.5
 40
0.5
 40
1.0
 40
1.0
 40
1.0
 40
1.0
 10
-169.539640703896
 20
1060.197381139221
 30
0.0
 10
-169.4653992478618
 20
1060.197381139221
 30
0.0
 10
-169.39272748209
 20
1060.175136652842
 30
0.0
 10
-169.2705022521914
 20
1060.093645661312
 30
0.0
 10
-169.2216155616625
 20
1060.034522751323
 30
0.0
 10
-169.193185879204
 20
1059.965887426357
 30
0.0
  0
LINE
  5
71
330
1F
100
AcDbEntity
  8
0
  6
Continuous
 62
     7
370
    15
100
AcDbLine
 10
-169.1931858792
 20
1059.9658874264
 30
0.0
 11
-159.3980285394
 21
1036.3182857309
 31
0.0
  0
LINE
  5
72
330
1F
100
AcDbEntity
  8
0
  6
Continuous
 62
     7
370
    15
100
AcDbLine
 10
-158.70511889
 20
1036.3182857309
 30
0.0
 11
-148.9099615501
 21
1059.9658874264
 31
0.0
  0
SPLINE
  5
73
330
1F
100
AcDbEntity
  8
0
  6
Continuous
 62
     7
370
    15
100
AcDbSpline
210
0.0
220
0.0
230
1.0
 70
     8
 71
     3
 72
    10
 73
     6
 74
     0
 42
0.00000001
 43
0.00000001
 12
1.0
 22
0.0
 32
0.0
 13
1.0
 23
0.0
 33
0.0
 40
0.0
 40
0.0
 40
0.0
 40
0.0
 40
0.5
 40
0.5
 40
1.0
 40
1.0
 40
1.0
 40
1.0
 10
-148.9099615501482
 20
1059.965887426358
 30
0.0
 10
-148.8815322134223
 20
1060.034521916651
 30
0.0
 10
-148.833135496092
 20
1060.093159671761
 30
0.0
 10
-148.711048253971
 20
1060.174875373219
 30
0.0
 10
-148.6377471781056
 20
1060.197381139221
 30
0.0
 10
-148.563506725457
 20
1060.197381139221
 30
0.0
  0
LINE
  5
74
330
1F
100
AcDbEntity
  8
0
  6
Continuous
 62
     7
370
    15
100
AcDbLine
 10
-148.5635067255
 20
1060.1973811392
 30
0.0
 11
-120.9140737147
 21
1060.1973811392
 31
0.0
  0
SPLINE
  5
75
330
1F
100
AcDbEntity
  8
0
  6
Continuous
 62
     7
370
    15
100
AcDbSpline
210
0.0
220
0.0
230
1.0
 70
     8
 71
     3
 72
    10
 73
     6
 74
     0
 42
0.00000001
 43
0.00000001
 12
1.0
 22
0.0
 32
0.0
 13
1.0
 23
0.0
 33
0.0
 40
0.0
 40
0.0
 40
0.0
 40
0.0
 40
0.5
 40
0.5
 40
1.0
 40
1.0
 40
1.0
 40
1.0
 10
-120.9140737146762
 20
1060.197381139221
 30
0.0
 10
-120.8155222256108
 20
1060.197381139221
 30
0.0
 10
-120.7190472718164
 20
1060.157287938599
 30
0.0
 10
-120.580284960857
 20
1060.019314999967
 30
0.0
 10
-120.5390737146753
 20
1059.921944335253
 30
0.0
 10
-120.5390737146752
 20
1059.822381139222
 30
0.0
  0
LINE
  5
76
330
1F
100
AcDbEntity
  8
0
  6
Continuous
 62
     7
370
    15
100
AcDbLine
 10
-120.5390737147
 20
1059.8223811392
 30
0.0
 11
-120.5390737147
 21
1053.0723811392
 31
0.0
  0
SPLINE
  5
77
330
1F
100
AcDbEntity
  8
0
  6
Continuous
 62
     7
370
    15
100
AcDbSpline
210
0.0
220
0.0
230
1.0
 70
     8
 71
     3
 72
    10
 73
     6
 74
     0
 42
0.00000001
 43
0.00000001
 12
1.0
 22
0.0
 32
0.0
 13
1.0
 23
0.0
 33
0.0
 40
0.0
 40
0.0
 40
0.0
 40
0.0
 40
0.5
 40
0.5
 40
1.0
 40
1.0
 40
1.0
 40
1.0
 10
-120.5390737146762
 20
1053.072381139221
 30
0.0
 10
-120.5390737146762
 20
1052.97283574695
 30
0.0
 10
-120.5802010739868
 20
1052.875629201774
 30
0.0
 10
-120.7187517709951
 20
1052.737669915317
 30
0.0
 10
-120.8155391237384
 20
1052.69738113922
 30
0.0
 10
-120.9140737146794
 20
1052.697381139221
 30
0.0
  0
LINE
  5
78
330
1F
100
AcDbEntity
  8
0
  6
Continuous
 62
     7
370
    15
100
AcDbLine
 10
-120.9140737147
 20
1052.6973811392
 30
0.0
 11
-143.5521669411
 21
1052.6973811392
 31
0.0
  0
SPLINE
  5
79
330
1F
100
AcDbEntity
  8
0
  6
Continuous
 62
     7
370
    15
100
AcDbSpline
210
0.0
220
0.0
230
1.0
 70
     8
 71
     3
 72
    10
 73
     6
 74
     0
 42
0.00000001
 43
0.00000001
 12
1.0
 22
0.0
 32
0.0
 13
1.0
 23
0.0
 33
0.0
 40
0.0
 40
0.0
 40
0.0
 40
0.0
 40
0.5
 40
0.5
 40
1.0
 40
1.0
 40
1.0
 40
1.0
 10
-143.5521669410617
 20
1052.697381139221
 30
0.0
 10
-143.626384997273
 20
1052.697381139221
 30
0.0
 10
-143.6990411828471
 20
1052.675151598649
 30
0.0
 10
-143.8212663258707
 20
1052.593682744524
 30
0.0
 10
-143.8701789944878
 20
1052.534554350499
 30
0.0
 10
-143.8986217657537
 20
1052.465887426357
 30
0.0
  0
LINE
  5
7A
330
1F
100
AcDbEntity
  8
0
  6
Continuous
 62
     7
370
    15
100
AcDbLine
 10
-143.8986217658
 20
1052.4658874264
 30
0.0
 11
-155.5119326224
 21
1024.4288748521
 31
0.0
  0
SPLINE
  5
7B
330
1F
100
AcDbEntity
  8
0
  6
Continuous
 62
     7
370
    15
100
AcDbSpline
210
0.0
220
0.0
230
1.0
 70
     8
 71
     3
 72
    10
 73
     6
 74
     0
 42
0.00000001
 43
0.00000001
 12
1.0
 22
0.0
 32
0.0
 13
1.0
 23
0.0
 33
0.0
 40
0.0
 40
0.0
 40
0.0
 40
0.0
 40
0.5
 40
0.5
 40
1.0
 40
1.0
 40
1.0
 40
1.0
 10
-155.5119326224426
 20
1024.428874852084
 30
0.0
 10
-155.5403524647699
 20
1024.360263283297
 30
0.0
 10
-155.5887324816166
 20
1024.301628771585
 30
0.0
 10
-155.7108112626431
 20
1024.219901473453
 30
0.0
 10
-155.7841271489005
 20
1024.197381139221
 30
0.0
 10
-155.8583874471346
 20
1024.197381139221
 30
0.0
  0
LINE
  5
7C
330
1F
100
AcDbEntity
  8
0
  6
Continuous
 62
     7
370
    15
100
AcDbLine
 10
-155.8583874471
 20
1024.1973811392
 30
0.0
 11
-162.2447599822
 21
1024.1973811392
 31
0.0
  0
LINE
  5
7D
330
1F
100
AcDbEntity
  8
0
  6
Continuous
 62
     7
370
    15
100
AcDbLine
 10
-162.5912148069
 20
1024.4288748521
 30
0.0
 11
-174.2045256636
 21
1052.4658874264
 31
0.0
  0
SPLINE
  5
7E
330
1F
100
AcDbEntity
  8
0
  6
Continuous
 62
     7
370
    15
100
AcDbSpline
210
0.0
220
0.0
230
1.0
 70
     8
 71
     3
 72
    10
 73
     6
 74
     0
 42
0.00000001
 43
0.00000001
 12
1.0
 22
0.0
 32
0.0
 13
1.0
 23
0.0
 33
0.0
 40
0.0
 40
0.0
 40
0.0
 40
0.0
 40
0.5
 40
0.5
 40
1.0
 40
1.0
 40
1.0
 40
1.0
 10
-174.204525663599
 20
1052.465887426358
 30
0.0
 10
-174.2329676754925
 20
1052.534552517212
 30
0.0
 10
-174.2813861559493
 20
1052.593193913879
 30
0.0
 10
-174.4034834677412
 20
1052.674893964345
 30
0.0
 10
-174.4767646471713
 20
1052.697381139221
 30
0.0
 10
-174.5509804882901
 20
1052.697381139221
 30
0.0
  0
LINE
  5
7F
330
1F
100
AcDbEntity
  8
0
  6
Continuous
 62
     7
370
    15
100
AcDbLine
 10
-174.5509804883
 20
1052.6973811392
 30
0.0
 11
-195.1640737147
 21
1052.6973811392
 31
0.0
  0
SPLINE
  5
80
330
1F
100
AcDbEntity
  8
0
  6
Continuous
 62
     7
370
    15
100
AcDbSpline
210
0.0
220
0.0
230
1.0
 70
     8
 71
     3
 72
    10
 73
     6
 74
     0
 42
0.00000001
 43
0.00000001
 12
1.0
 22
0.0
 32
0.0
 13
1.0
 23
0.0
 33
0.0
 40
0.0
 40
0.0
 40
0.0
 40
0.0
 40
0.5
 40
0.5
 40
1.0
 40
1.0
 40
1.0
 40
1.0
 10
-195.1640737146762
 20
1052.697381139221
 30
0.0
 10
-195.2626761209189
 20
1052.697381139221
 30
0.0
 10
-195.3591903344287
 20
1052.737528181891
 30
0.0
 10
-195.4979104282099
 20
1052.875530822906
 30
0.0
 10
-195.5390737146772
 20
1052.972872594698
 30
0.0
 10
-195.5390737146774
 20
1053.07238113922
 30
0.0
  0
LINE
  5
81
330
1F
100
AcDbEntity
  8
0
  6
Continuous
 62
     7
370
    15
100
AcDbLine
 10
-195.5390737147
 20
1053.0723811392
 30
0.0
 11
-195.5390737147
 21
1059.8223811392
 31
0.0
  0
SPLINE
  5
82
330
1F
100
AcDbEntity
  8
0
  6
Continuous
 62
     7
370
    15
100
AcDbSpline
210
0.0
220
0.0
230
1.0
 70
     8
 71
     3
 72
    10
 73
     6
 74
     0
 42
0.00000001
 43
0.00000001
 12
1.0
 22
0.0
 32
0.0
 13
1.0
 23
0.0
 33
0.0
 40
0.0
 40
0.0
 40
0.0
 40
0.0
 40
0.5
 40
0.5
 40
1.0
 40
1.0
 40
1.0
 40
1.0
 10
-195.5390737146762
 20
1059.822381139221
 30
0.0
 10
-195.5390737146762
 20
1059.921873781292
 30
0.0
 10
-195.4980002054743
 20
1060.019043578872
 30
0.0
 10
-195.3594799265798
 20
1060.157044296404
 30
0.0
 10
-195.2626609327509
 20
1060.197381139222
 30
0.0
 10
-195.1640737146732
 20
1060.197381139221
 30
0.0
  0
SPLINE
  5
83
330
1F
100
AcDbEntity
  8
0
  6
Continuous
 62
     7
370
    15
100
AcDbSpline
210
0.0
220
0.0
230
1.0
 70
     8
 71
     3
 72
    10
 73
     6
 74
     0
 42
0.00000001
 43
0.00000001
 12
1.0
 22
0.0
 32
0.0
 13
1.0
 23
0.0
 33
0.0
 40
0.0
 40
0.0
 40
0.0
 40
0.0
 40
0.5
 40
0.5
 40
1.0
 40
1.0
 40
1.0
 40
1.0
 10
-162.2447599822181
 20
1024.197381139221
 30
0.0
 10
-162.3190203839444
 20
1024.197381139221
 30
0.0
 10
-162.3917037566162
 20
1024.219637464235
 30
0.0
 10
-162.51392819872
 20
1024.301144998004
 30
0.0
 10
-162.5627949330422
 20
1024.360263207152
 30
0.0
 10
-162.5912148069098
 20
1024.428874852084
 30
0.0
  0
SPLINE
  5
84
330
1F
100
AcDbEntity
  8
0
  6
Continuous
 62
     7
370
    15
100
AcDbSpline
210
0.0
220
0.0
230
1.0
 70
     8
 71
     3
 72
    14
 73
    10
 74
     0
 42
0.00000001
 43
0.00000001
 12
1.0
 22
0.0
 32
0.0
 13
1.0
 23
0.0
 33
0.0
 40
0.0
 40
0.0
 40
0.0
 40
0.0
 40
0.25
 40
0.25
 40
0.5
 40
0.5
 40
0.75
 40
0.75
 40
1.0
 40
1.0
 40
1.0
 40
1.0
 10
-159.398028539368
 20
1036.318285730947
 30
0.0
 10
-159.3695820305608
 20
1036.249609783582
 30
0.0
 10
-159.3211386137599
 20
1036.190929544209
 30
0.0
 10
-159.1988885709766
 20
1036.109187356055
 30
0.0
 10
-159.1248673215063
 20
1036.08679477012
 30
0.0
 10
-158.9783082716377
 20
1036.086789266576
 30
0.0
 10
-158.9043210955204
 20
1036.109154158103
 30
0.0
 10
-158.7820058639888
 20
1036.19092310511
 30
0.0
 10
-158.7335653987851
 20
1036.249609783598
 30
0.0
 10
-158.7051188899845
 20
1036.318285730947
 30
0.0
  0
SPLINE
  5
85
330
1F
100
AcDbEntity
  8
0
  6
Continuous
 62
     7
370
    15
100
AcDbSpline
210
0.0
220
0.0
230
1.0
 70
     8
 71
     3
 72
    10
 73
     6
 74
     0
 42
0.00000001
 43
0.00000001
 12
1.0
 22
0.0
 32
0.0
 13
1.0
 23
0.0
 33
0.0
 40
0.0
 40
0.0
 40
0.0
 40
0.0
 40
0.5
 40
0.5
 40
1.0
 40
1.0
 40
1.0
 40
1.0
 10
-176.4001833607611
 20
1049.929853463944
 30
0.0
 10
-176.3259761706204
 20
1049.929853463944
 30
0.0
 10
-176.2533272748983
 20
1049.907630876925
 30
0.0
 10
-176.131102217411
 20
1049.826172374743
 30
0.0
 10
-176.0821774341625
 20
1049.767041466692
 30
0.0
 10
-176.0537285360691
 20
1049.69835975108
 30
0.0
  0
LINE
  5
86
330
1F
100
AcDbEntity
  8
0
  6
Continuous
 62
     7
370
    15
100
AcDbLine
 10
-176.0537285361
 20
1049.6983597511
 30
0.0
 11
-165.7056496776
 21
1024.7158874264
 31
0.0
  0
LINE
  5
87
330
1F
100
AcDbEntity
  8
0
  6
Continuous
 62
     7
370
    15
100
AcDbLine
 10
-166.0521045023
 20
1024.1973811392
 30
0.0
 11
-173.3582518542
 21
1024.1973811392
 31
0.0
  0
SPLINE
  5
88
330
1F
100
AcDbEntity
  8
0
  6
Continuous
 62
     7
370
    15
100
AcDbSpline
210
0.0
220
0.0
230
1.0
 70
     8
 71
     3
 72
    10
 73
     6
 74
     0
 42
0.00000001
 43
0.00000001
 12
1.0
 22
0.0
 32
0.0
 13
1.0
 23
0.0
 33
0.0
 40
0.0
 40
0.0
 40
0.0
 40
0.0
 40
0.5
 40
0.5
 40
1.0
 40
1.0
 40
1.0
 40
1.0
 10
-173.358251854224
 20
1024.197381139221
 30
0.0
 10
-173.4324792523803
 20
1024.197381139221
 30
0.0
 10
-173.5051387741583
 20
1024.219615888311
 30
0.0
 10
-173.627361485756
 20
1024.301089606522
 30
0.0
 10
-173.6762669094199
 20
1024.360215174857
 30
0.0
 10
-173.7047066789156
 20
1024.428874852083
 30
0.0
  0
LINE
  5
89
330
1F
100
AcDbEntity
  8
0
  6
Continuous
 62
     7
370
    15
100
AcDbLine
 10
-173.7047066789
 20
1024.4288748521
 30
0.0
 11
-175.6875522104
 21
1029.2158874264
 31
0.0
  0
SPLINE
  5
8A
330
1F
100
AcDbEntity
  8
0
  6
Continuous
 62
     7
370
    15
100
AcDbSpline
210
0.0
220
0.0
230
1.0
 70
     8
 71
     3
 72
    10
 73
     6
 74
     0
 42
0.00000001
 43
0.00000001
 12
1.0
 22
0.0
 32
0.0
 13
1.0
 23
0.0
 33
0.0
 40
0.0
 40
0.0
 40
0.0
 40
0.0
 40
0.5
 40
0.5
 40
1.0
 40
1.0
 40
1.0
 40
1.0
 10
-175.6875522104305
 20
1029.215887426358
 30
0.0
 10
-175.7159989260983
 20
1029.284563873128
 30
0.0
 10
-175.7644254630971
 20
1029.343206593956
 30
0.0
 10
-175.886526467474
 20
1029.424900830975
 30
0.0
 10
-175.959800262875
 20
1029.447381139221
 30
0.0
 10
-176.0340070351215
 20
1029.447381139221
 30
0.0
  0
LINE
  5
8B
330
1F
100
AcDbEntity
  8
0
  6
Continuous
 62
     7
370
    15
100
AcDbLine
 10
-176.0340070351
 20
1029.4473811392
 30
0.0
 11
-187.2084440208
 21
1029.4473811392
 31
0.0
  0
SPLINE
  5
8C
330
1F
100
AcDbEntity
  8
0
  6
Continuous
 62
     7
370
    15
100
AcDbSpline
210
0.0
220
0.0
230
1.0
 70
     8
 71
     3
 72
    10
 73
     6
 74
     0
 42
0.00000001
 43
0.00000001
 12
1.0
 22
0.0
 32
0.0
 13
1.0
 23
0.0
 33
0.0
 40
0.0
 40
0.0
 40
0.0
 40
0.0
 40
0.5
 40
0.5
 40
1.0
 40
1.0
 40
1.0
 40
1.0
 10
-187.2084440208048
 20
1029.447381139221
 30
0.0
 10
-187.2825695114367
 20
1029.447381139221
 30
0.0
 10
-187.3551572719782
 20
1029.425212471278
 30
0.0
 10
-187.4773763265483
 20
1029.343840421395
 30
0.0
 10
-187.5263988165551
 20
1029.284692582756
 30
0.0
 10
-187.5548988454963
 20
1029.215887426358
 30
0.0
  0
LINE
  5
8D
330
1F
100
AcDbEntity
  8
0
  6
Continuous
 62
     7
370
    15
100
AcDbLine
 10
-187.5548988455
 20
1029.2158874264
 30
0.0
 11
-189.537744377
 21
1024.4288748521
 31
0.0
  0
SPLINE
  5
8E
330
1F
100
AcDbEntity
  8
0
  6
Continuous
 62
     7
370
    15
100
AcDbSpline
210
0.0
220
0.0
230
1.0
 70
     8
 71
     3
 72
    10
 73
     6
 74
     0
 42
0.00000001
 43
0.00000001
 12
1.0
 22
0.0
 32
0.0
 13
1.0
 23
0.0
 33
0.0
 40
0.0
 40
0.0
 40
0.0
 40
0.0
 40
0.5
 40
0.5
 40
1.0
 40
1.0
 40
1.0
 40
1.0
 10
-189.5377443770113
 20
1024.428874852084
 30
0.0
 10
-189.5662563280696
 20
1024.36004091315
 30
0.0
 10
-189.6147940457317
 20
1024.301380639359
 30
0.0
 10
-189.7369450718823
 20
1024.219767143129
 30
0.0
 10
-189.8101165888233
 20
1024.197381139222
 30
0.0
 10
-189.8841992017017
 20
1024.197381139221
 30
0.0
  0
LINE
  5
8F
330
1F
100
AcDbEntity
  8
0
  6
Continuous
 62
     7
370
    15
100
AcDbLine
 10
-189.8841992017
 20
1024.1973811392
 30
0.0
 11
-197.1903465537
 21
1024.1973811392
 31
0.0
  0
SPLINE
  5
90
330
1F
100
AcDbEntity
  8
0
  6
Continuous
 62
     7
370
    15
100
AcDbSpline
210
0.0
220
0.0
230
1.0
 70
     8
 71
     3
 72
    10
 73
     6
 74
     0
 42
0.00000001
 43
0.00000001
 12
1.0
 22
0.0
 32
0.0
 13
1.0
 23
0.0
 33
0.0
 40
0.0
 40
0.0
 40
0.0
 40
0.0
 40
0.5
 40
0.5
 40
1.0
 40
1.0
 40
1.0
 40
1.0
 10
-197.1903465536767
 20
1024.197381139221
 30
0.0
 10
-197.3134582877938
 20
1024.197381139221
 30
0.0
 10
-197.4324730837811
 20
1024.260661743085
 30
0.0
 10
-197.5701455687632
 20
1024.464924419341
 30
0.0
 10
-197.5843258161327
 20
1024.601153284163
 30
0.0
 10
-197.5368013783682
 20
1024.715887426358
 30
0.0
  0
LINE
  5
91
330
1F
100
AcDbEntity
  8
0
  6
Continuous
 62
     7
370
    15
100
AcDbLine
 10
-197.5368013784
 20
1024.7158874263
 30
0.0
 11
-190.4142087385
 21
1041.9113471768
 31
0.0
  0
SPLINE
  5
92
330
1F
100
AcDbEntity
  8
0
  6
Continuous
 62
     7
370
    15
100
AcDbSpline
210
0.0
220
0.0
230
1.0
 70
     8
 71
     3
 72
    10
 73
     6
 74
     0
 42
0.00000001
 43
0.00000001
 12
1.0
 22
0.0
 32
0.0
 13
1.0
 23
0.0
 33
0.0
 40
0.0
 40
0.0
 40
0.0
 40
0.0
 40
0.5
 40
0.5
 40
1.0
 40
1.0
 40
1.0
 40
1.0
 10
-190.4142087384916
 20
1041.911347176807
 30
0.0
 10
-190.3667298596062
 20
1042.025971330138
 30
0.0
 10
-190.3804254518434
 20
1042.161131394533
 30
0.0
 10
-190.5179811471937
 20
1042.366271615013
 30
0.0
 10
-190.6373396649541
 20
1042.429853463944
 30
0.0
 10
-190.760663563182
 20
1042.429853463944
 30
0.0
  0
LINE
  5
93
330
1F
100
AcDbEntity
  8
0
  6
Continuous
 62
     7
370
    15
100
AcDbLine
 10
-190.7606635632
 20
1042.4298534639
 30
0.0
 11
-195.1640737147
 21
1042.4298534639
 31
0.0
  0
SPLINE
  5
94
330
1F
100
AcDbEntity
  8
0
  6
Continuous
 62
     7
370
    15
100
AcDbSpline
210
0.0
220
0.0
230
1.0
 70
     8
 71
     3
 72
    10
 73
     6
 74
     0
 42
0.00000001
 43
0.00000001
 12
1.0
 22
0.0
 32
0.0
 13
1.0
 23
0.0
 33
0.0
 40
0.0
 40
0.0
 40
0.0
 40
0.0
 40
0.5
 40
0.5
 40
1.0
 40
1.0
 40
1.0
 40
1.0
 10
-195.1640737146762
 20
1042.429853463944
 30
0.0
 10
-195.2626761209189
 20
1042.429853463945
 30
0.0
 10
-195.3591903344286
 20
1042.470000506614
 30
0.0
 10
-195.4979104282099
 20
1042.608003147629
 30
0.0
 10
-195.5390737146772
 20
1042.705344919421
 30
0.0
 10
-195.5390737146773
 20
1042.804853463944
 30
0.0
  0
LINE
  5
95
330
1F
100
AcDbEntity
  8
0
  6
Continuous
 62
     7
370
    15
100
AcDbLine
 10
-195.5390737147
 20
1042.8048534639
 30
0.0
 11
-195.5390737147
 21
1049.5548534639
 31
0.0
  0
SPLINE
  5
96
330
1F
100
AcDbEntity
  8
0
  6
Continuous
 62
     7
370
    15
100
AcDbSpline
210
0.0
220
0.0
230
1.0
 70
     8
 71
     3
 72
    10
 73
     6
 74
     0
 42
0.00000001
 43
0.00000001
 12
1.0
 22
0.0
 32
0.0
 13
1.0
 23
0.0
 33
0.0
 40
0.0
 40
0.0
 40
0.0
 40
0.0
 40
0.5
 40
0.5
 40
1.0
 40
1.0
 40
1.0
 40
1.0
 10
-195.5390737146762
 20
1049.554853463944
 30
0.0
 10
-195.5390737146762
 20
1049.654346106016
 30
0.0
 10
-195.4980002054739
 20
1049.751515903596
 30
0.0
 10
-195.3594799265783
 20
1049.889516621128
 30
0.0
 10
-195.2626609327514
 20
1049.929853463945
 30
0.0
 10
-195.1640737146732
 20
1049.929853463944
 30
0.0
  0
LINE
  5
97
330
1F
100
AcDbEntity
  8
0
  6
Continuous
 62
     7
370
    15
100
AcDbLine
 10
-195.1640737147
 20
1049.9298534639
 30
0.0
 11
-176.4001833608
 21
1049.9298534639
 31
0.0
  0
LINE
  5
98
330
1F
100
AcDbEntity
  8
0
  6
Continuous
 62
     7
370
    15
100
AcDbLine
 10
-179.2182737959
 20
1036.3848811392
 30
0.0
 11
-184.0241772601
 21
1036.3848811392
 31
0.0
  0
SPLINE
  5
99
330
1F
100
AcDbEntity
  8
0
  6
Continuous
 62
     7
370
    15
100
AcDbSpline
210
0.0
220
0.0
230
1.0
 70
     8
 71
     3
 72
    10
 73
     6
 74
     0
 42
0.00000001
 43
0.00000001
 12
1.0
 22
0.0
 32
0.0
 13
1.0
 23
0.0
 33
0.0
 40
0.0
 40
0.0
 40
0.0
 40
0.0
 40
0.5
 40
0.5
 40
1.0
 40
1.0
 40
1.0
 40
1.0
 10
-178.8718189711736
 20
1036.903387426358
 30
0.0
 10
-178.8243921785516
 20
1036.78888902039
 30
0.0
 10
-178.8379722638102
 20
1036.654002377788
 30
0.0
 10
-178.9750821454255
 20
1036.448919102048
 30
0.0
 10
-179.0946424959027
 20
1036.384881139221
 30
0.0
 10
-179.2182737958645
 20
1036.384881139221
 30
0.0
  0
LINE
  5
9A
330
1F
100
AcDbEntity
  8
0
  6
Continuous
 62
     7
370
    15
100
AcDbLine
 10
-181.2747707033
 20
1042.7046260878
 30
0.0
 11
-178.8718189712
 21
1036.9033874264
 31
0.0
  0
SPLINE
  5
9B
330
1F
100
AcDbEntity
  8
0
  6
Continuous
 62
     7
370
    15
100
AcDbSpline
210
0.0
220
0.0
230
1.0
 70
     8
 71
     3
 72
    14
 73
    10
 74
     0
 42
0.00000001
 43
0.00000001
 12
1.0
 22
0.0
 32
0.0
 13
1.0
 23
0.0
 33
0.0
 40
0.0
 40
0.0
 40
0.0
 40
0.0
 40
0.25
 40
0.25
 40
0.5
 40
0.5
 40
0.75
 40
0.75
 40
1.0
 40
1.0
 40
1.0
 40
1.0
 10
-181.9676803526553
 20
1042.704626087717
 30
0.0
 10
-181.9391838394448
 20
1042.77342275639
 30
0.0
 10
-181.8906566426371
 20
1042.832114249469
 30
0.0
 10
-181.7683740287423
 20
1042.913793070905
 30
0.0
 10
-181.6944395974623
 20
1042.936115011181
 30
0.0
 10
-181.5480605289729
 20
1042.936124588374
 30
0.0
 10
-181.4741602218951
 20
1042.913835892613
 30
0.0
 10
-181.3518010620106
 20
1042.832131429434
 30
0.0
 10
-181.3032680642795
 20
1042.773424803155
 30
0.0
 10
-181.2747707032713
 20
1042.704626087716
 30
0.0
  0
LINE
  5
9C
330
1F
100
AcDbEntity
  8
0
  6
Continuous
 62
     7
370
    15
100
AcDbLine
 10
-184.3706320848
 20
1036.9033874264
 30
0.0
 11
-181.9676803527
 21
1042.7046260877
 31
0.0
  0
SPLINE
  5
9D
330
1F
100
AcDbEntity
  8
0
  6
Continuous
 62
     7
370
    15
100
AcDbSpline
210
0.0
220
0.0
230
1.0
 70
     8
 71
     3
 72
    10
 73
     6
 74
     0
 42
0.00000001
 43
0.00000001
 12
1.0
 22
0.0
 32
0.0
 13
1.0
 23
0.0
 33
0.0
 40
0.0
 40
0.0
 40
0.0
 40
0.0
 40
0.5
 40
0.5
 40
1.0
 40
1.0
 40
1.0
 40
1.0
 10
-184.0241772600617
 20
1036.384881139221
 30
0.0
 10
-184.1477073169287
 20
1036.384881139221
 30
0.0
 10
-184.2668757109947
 20
1036.448587682468
 30
0.0
 10
-184.4042091268389
 20
1036.653194989528
 30
0.0
 10
-184.4180804457306
 20
1036.788836949775
 30
0.0
 10
-184.3706320847533
 20
1036.903387426358
 30
0.0
  0
SPLINE
  5
9E
330
1F
100
AcDbEntity
  8
0
  6
Continuous
 62
     7
370
    15
100
AcDbSpline
210
0.0
220
0.0
230
1.0
 70
     8
 71
     3
 72
    10
 73
     6
 74
     0
 42
0.00000001
 43
0.00000001
 12
1.0
 22
0.0
 32
0.0
 13
1.0
 23
0.0
 33
0.0
 40
0.0
 40
0.0
 40
0.0
 40
0.0
 40
0.5
 40
0.5
 40
1.0
 40
1.0
 40
1.0
 40
1.0
 10
-165.7056496775586
 20
1024.715887426358
 30
0.0
 10
-165.6582536173467
 20
1024.601463214991
 30
0.0
 10
-165.671765578636
 20
1024.466737488525
 30
0.0
 10
-165.8086140780895
 20
1024.26168725275
 30
0.0
 10
-165.9282891844826
 20
1024.197381139221
 30
0.0
 10
-166.05210450225
 20
1024.197381139221
 30
0.0
  0
SPLINE
  5
9F
330
1F
100
AcDbEntity
  8
0
  6
Continuous
 62
     7
370
    15
100
AcDbSpline
210
0.0
220
0.0
230
1.0
 70
     8
 71
     3
 72
    16
 73
    12
 74
     0
 42
0.00000001
 43
0.00000001
 12
1.0
 22
0.0
 32
0.0
 13
1.0
 23
0.0
 33
0.0
 40
0.0
 40
0.0
 40
0.0
 40
0.0
 40
0.2500000000000377
 40
0.2500000000000377
 40
0.3750000000000319
 40
0.3750000000000319
 40
0.5000000000000261
 40
0.5000000000000261
 40
0.750000000000013
 40
0.750000000000013
 40
1.0
 40
1.0
 40
1.0
 40
1.0
 10
-123.3988617785745
 20
1042.229914439554
 30
0.0
 10
-123.8103048161735
 20
1041.450489003021
 30
0.0
 10
-124.2834977194102
 20
1040.719161711585
 30
0.0
 10
-125.0817683052906
 20
1039.690945006569
 30
0.0
 10
-125.3626950284855
 20
1039.35973817014
 30
0.0
 10
-125.9545712333276
 20
1038.720633835352
 30
0.0
 10
-126.2665432553481
 20
1038.41181777165
 30
0.0
 10
-127.2422376907381
 20
1037.527673407596
 30
0.0
 10
-127.9342174155743
 20
1037.003786522291
 30
0.0
 10
-129.3977887409307
 20
1036.081332852228
 30
0.0
 10
-130.1693777098098
 20
1035.68276369771
 30
0.0
 10
-130.9827948526956
 20
1035.349879963432
 30
0.0
  0
SPLINE
  5
A0
330
1F
100
AcDbEntity
  8
0
  6
Continuous
 62
     7
370
    15
100
AcDbSpline
210
0.0
220
0.0
230
1.0
 70
     8
 71
     3
 72
    10
 73
     6
 74
     0
 42
0.00000001
 43
0.00000001
 12
1.0
 22
0.0
 32
0.0
 13
1.0
 23
0.0
 33
0.0
 40
0.0
 40
0.0
 40
0.0
 40
0.0
 40
0.5
 40
0.5
 40
1.0
 40
1.0
 40
1.0
 40
1.0
 10
-130.9827948526936
 20
1035.349879963433
 30
0.0
 10
-131.0846060064584
 20
1035.308214653877
 30
0.0
 10
-131.1648897490198
 20
1035.220610204899
 30
0.0
 10
-131.2311303962043
 20
1035.013056257117
 30
0.0
 10
-131.216328009196
 20
1034.894402666929
 30
0.0
 10
-131.1570346733241
 20
1034.801330772791
 30
0.0
  0
LINE
  5
A1
330
1F
100
AcDbEntity
  8
0
  6
Continuous
 62
     7
370
    15
100
AcDbLine
 10
-131.1570346733
 20
1034.8013307728
 30
0.0
 11
-124.7688366631
 21
1024.7738684924
 31
0.0
  0
SPLINE
  5
A2
330
1F
100
AcDbEntity
  8
0
  6
Continuous
 62
     7
370
    15
100
AcDbSpline
210
0.0
220
0.0
230
1.0
 70
     8
 71
     3
 72
    12
 73
     8
 74
     0
 42
0.00000001
 43
0.00000001
 12
1.0
 22
0.0
 32
0.0
 13
1.0
 23
0.0
 33
0.0
 40
0.0
 40
0.0
 40
0.0
 40
0.0
 40
0.25
 40
0.25
 40
0.5
 40
0.5
 40
1.0
 40
1.0
 40
1.0
 40
1.0
 10
-124.7688366630871
 20
1024.773868492351
 30
0.0
 10
-124.732582903258
 20
1024.716961488431
 30
0.0
 10
-124.7124279820982
 20
1024.651018704771
 30
0.0
 10
-124.7081708655078
 20
1024.517675972889
 30
0.0
 10
-124.7244466921146
 20
1024.44980946832
 30
0.0
 10
-124.8213988698159
 20
1024.274077364235
 30
0.0
 10
-124.9509261340911
 20
1024.19738113922
 30
0.0
 10
-125.0851084552697
 20
1024.197381139221
 30
0.0
  0
LINE
  5
A3
330
1F
100
AcDbEntity
  8
0
  6
Continuous
 62
     7
370
    15
100
AcDbLine
 10
-125.0851084553
 20
1024.1973811392
 30
0.0
 11
-132.3912558072
 21
1024.1973811392
 31
0.0
  0
SPLINE
  5
A4
330
1F
100
AcDbEntity
  8
0
  6
Continuous
 62
     7
370
    15
100
AcDbSpline
210
0.0
220
0.0
230
1.0
 70
     8
 71
     3
 72
     8
 73
     4
 74
     0
 42
0.00000001
 43
0.00000001
 12
1.0
 22
0.0
 32
0.0
 13
1.0
 23
0.0
 33
0.0
 40
0.0
 40
0.0
 40
0.0
 40
0.0
 40
1.0
 40
1.0
 40
1.0
 40
1.0
 10
-132.3912558072405
 20
1024.197381139221
 30
0.0
 10
-132.5177035626081
 20
1024.197381139221
 30
0.0
 10
-132.6393450630732
 20
1024.263868642175
 30
0.0
 10
-132.7075275994213
 20
1024.370893786092
 30
0.0
  0
LINE
  5
A5
330
1F
100
AcDbEntity
  8
0
  6
Continuous
 62
     7
370
    15
100
AcDbLine
 10
-132.7075275994
 20
1024.3708937861
 30
0.0
 11
-139.4196351842
 21
1034.906792254
 31
0.0
  0
SPLINE
  5
A6
330
1F
100
AcDbEntity
  8
0
  6
Continuous
 62
     7
370
    15
100
AcDbSpline
210
0.0
220
0.0
230
1.0
 70
     8
 71
     3
 72
    14
 73
    10
 74
     0
 42
0.00000001
 43
0.00000001
 12
1.0
 22
0.0
 32
0.0
 13
1.0
 23
0.0
 33
0.0
 40
0.0
 40
0.0
 40
0.0
 40
0.0
 40
0.25
 40
0.25
 40
0.5
 40
0.5
 40
0.75
 40
0.75
 40
1.0
 40
1.0
 40
1.0
 40
1.0
 10
-139.4196351841817
 20
1034.906792253952
 30
0.0
 10
-139.4566357029227
 20
1034.964871434565
 30
0.0
 10
-139.5091067514557
 20
1035.011556869408
 30
0.0
 10
-139.6307947303433
 20
1035.071610819443
 30
0.0
 10
-139.7006303788921
 20
1035.08479240695
 30
0.0
 10
-139.8362091424426
 20
1035.072993194239
 30
0.0
 10
-139.9020461022724
 20
1035.048355714213
 30
0.0
 10
-140.0122893542993
 20
1034.967790806905
 30
0.0
 10
-140.0559981736113
 20
1034.912458614883
 30
0.0
 10
-140.0823618010537
 20
1034.848811187958
 30
0.0
  0
LINE
  5
A7
330
1F
100
AcDbEntity
  8
0
  6
Continuous
 62
     7
370
    15
100
AcDbLine
 10
-140.082361801
 20
1034.848811188
 30
0.0
 11
-144.3984407504
 21
1024.4288748521
 31
0.0
  0
SPLINE
  5
A8
330
1F
100
AcDbEntity
  8
0
  6
Continuous
 62
     7
370
    15
100
AcDbSpline
210
0.0
220
0.0
230
1.0
 70
     8
 71
     3
 72
    10
 73
     6
 74
     0
 42
0.00000001
 43
0.00000001
 12
1.0
 22
0.0
 32
0.0
 13
1.0
 23
0.0
 33
0.0
 40
0.0
 40
0.0
 40
0.0
 40
0.0
 40
0.5
 40
0.5
 40
1.0
 40
1.0
 40
1.0
 40
1.0
 10
-144.3984407504368
 20
1024.428874852084
 30
0.0
 10
-144.4268798737189
 20
1024.360216734955
 30
0.0
 10
-144.4752922763528
 20
1024.301577598527
 30
0.0
 10
-144.5973847138905
 20
1024.219874341868
 30
0.0
 10
-144.670670138256
 20
1024.197381139221
 30
0.0
 10
-144.7448955751297
 20
1024.197381139221
 30
0.0
  0
LINE
  5
A9
330
1F
100
AcDbEntity
  8
0
  6
Continuous
 62
     7
370
    15
100
AcDbLine
 10
-144.7448955751
 20
1024.1973811392
 30
0.0
 11
-152.0510429271
 21
1024.1973811392
 31
0.0
  0
SPLINE
  5
AA
330
1F
100
AcDbEntity
  8
0
  6
Continuous
 62
     7
370
    15
100
AcDbSpline
210
0.0
220
0.0
230
1.0
 70
     8
 71
     3
 72
    10
 73
     6
 74
     0
 42
0.00000001
 43
0.00000001
 12
1.0
 22
0.0
 32
0.0
 13
1.0
 23
0.0
 33
0.0
 40
0.0
 40
0.0
 40
0.0
 40
0.0
 40
0.5
 40
0.5
 40
1.0
 40
1.0
 40
1.0
 40
1.0
 10
-152.0510429271021
 20
1024.197381139221
 30
0.0
 10
-152.1748585680849
 20
1024.197381139221
 30
0.0
 10
-152.2941351086428
 20
1024.261380949089
 30
0.0
 10
-152.4312360536691
 20
1024.46622976853
 30
0.0
 10
-152.444893968497
 20
1024.601462837188
 30
0.0
 10
-152.3974977517938
 20
1024.715887426358
 30
0.0
  0
LINE
  5
AB
330
1F
100
AcDbEntity
  8
0
  6
Continuous
 62
     7
370
    15
100
AcDbLine
 10
-152.3974977518
 20
1024.7158874264
 30
0.0
 11
-142.0494188933
 21
1049.6983597511
 31
0.0
  0
SPLINE
  5
AC
330
1F
100
AcDbEntity
  8
0
  6
Continuous
 62
     7
370
    15
100
AcDbSpline
210
0.0
220
0.0
230
1.0
 70
     8
 71
     3
 72
    10
 73
     6
 74
     0
 42
0.00000001
 43
0.00000001
 12
1.0
 22
0.0
 32
0.0
 13
1.0
 23
0.0
 33
0.0
 40
0.0
 40
0.0
 40
0.0
 40
0.0
 40
0.5
 40
0.5
 40
1.0
 40
1.0
 40
1.0
 40
1.0
 10
-142.0494188932831
 20
1049.698359751081
 30
0.0
 10
-142.0209709489552
 20
1049.767039164099
 30
0.0
 10
-141.9725423088154
 20
1049.825682228994
 30
0.0
 10
-141.8504403427474
 20
1049.907374947179
 30
0.0
 10
-141.7771684760166
 20
1049.929853463944
 30
0.0
 10
-141.7029640685921
 20
1049.929853463944
 30
0.0
  0
LINE
  5
AD
330
1F
100
AcDbEntity
  8
0
  6
Continuous
 62
     7
370
    15
100
AcDbLine
 10
-141.7029640686
 20
1049.9298534639
 30
0.0
 11
-134.3968167166
 21
1049.9298534639
 31
0.0
  0
SPLINE
  5
AE
330
1F
100
AcDbEntity
  8
0
  6
Continuous
 62
     7
370
    15
100
AcDbSpline
210
0.0
220
0.0
230
1.0
 70
     8
 71
     3
 72
    10
 73
     6
 74
     0
 42
0.00000001
 43
0.00000001
 12
1.0
 22
0.0
 32
0.0
 13
1.0
 23
0.0
 33
0.0
 40
0.0
 40
0.0
 40
0.0
 40
0.0
 40
0.5
 40
0.5
 40
1.0
 40
1.0
 40
1.0
 40
1.0
 10
-134.3968167166177
 20
1049.929853463944
 30
0.0
 10
-134.2732787440507
 20
1049.929853463944
 30
0.0
 10
-134.1541074733453
 20
1049.866138871822
 30
0.0
 10
-134.0167804601178
 20
1049.661525042505
 30
0.0
 10
-134.0029149632998
 20
1049.525894195389
 30
0.0
 10
-134.0503618919261
 20
1049.411347176807
 30
0.0
  0
LINE
  5
AF
330
1F
100
AcDbEntity
  8
0
  6
Continuous
 62
     7
370
    15
100
AcDbLine
 10
-134.0503618919
 20
1049.4113471768
 30
0.0
 11
-137.3244011394
 21
1041.5071172219
 31
0.0
  0
SPLINE
  5
B0
330
1F
100
AcDbEntity
  8
0
  6
Continuous
 62
     7
370
    15
100
AcDbSpline
210
0.0
220
0.0
230
1.0
 70
     8
 71
     3
 72
    10
 73
     6
 74
     0
 42
0.00000001
 43
0.00000001
 12
1.0
 22
0.0
 32
0.0
 13
1.0
 23
0.0
 33
0.0
 40
0.0
 40
0.0
 40
0.0
 40
0.0
 40
0.5
 40
0.5
 40
1.0
 40
1.0
 40
1.0
 40
1.0
 10
-137.3244011393753
 20
1041.507117221873
 30
0.0
 10
-137.3708621327337
 20
1041.394950461586
 30
0.0
 10
-137.3587687652177
 20
1041.262989731842
 30
0.0
 10
-137.2288405292227
 20
1041.059962357572
 30
0.0
 10
-137.1138531935135
 20
1040.993733849068
 30
0.0
 10
-136.9928926289705
 20
1040.988908909536
 30
0.0
  0
SPLINE
  5
B1
330
1F
100
AcDbEntity
  8
0
  6
Continuous
 62
     7
370
    15
100
AcDbSpline
210
0.0
220
0.0
230
1.0
 70
     8
 71
     3
 72
    26
 73
    22
 74
     0
 42
0.00000001
 43
0.00000001
 12
1.0
 22
0.0
 32
0.0
 13
1.0
 23
0.0
 33
0.0
 40
0.0
 40
0.0
 40
0.0
 40
0.0
 40
0.1250000000000366
 40
0.1250000000000366
 40
0.1875000000000505
 40
0.1875000000000505
 40
0.2500000000000646
 40
0.2500000000000646
 40
0.3750000000000753
 40
0.3750000000000753
 40
0.4375000000000676
 40
0.4375000000000676
 40
0.5000000000000598
 40
0.5000000000000598
 40
0.6250000000000449
 40
0.6250000000000449
 40
0.7500000000000299
 40
0.7500000000000299
 40
0.875000000000015
 40
0.875000000000015
 40
1.0
 40
1.0
 40
1.0
 40
1.0
 10
-136.9928926289697
 20
1040.988908909536
 30
0.0
 10
-136.4222007188168
 20
1040.966144846157
 30
0.0
 10
-135.859293331966
 20
1041.002409650436
 30
0.0
 10
-135.0261176002969
 20
1041.141686839565
 30
0.0
 10
-134.750271449839
 20
1041.202374158982
 30
0.0
 10
-134.2024339330979
 20
1041.353042813083
 30
0.0
 10
-133.9309126583962
 20
1041.443115042483
 30
0.0
 10
-133.1408064828934
 20
1041.751129887736
 30
0.0
 10
-132.6400567130646
 20
1042.008058059786
 30
0.0
 10
-131.9280533563723
 20
1042.471231116679
 30
0.0
 10
-131.6961070496421
 20
1042.639755085973
 30
0.0
 10
-131.2548063826789
 20
1042.996740175013
 30
0.0
 10
-131.0447406452041
 20
1043.185455796276
 30
0.0
 10
-130.4455966059267
 20
1043.781615473212
 30
0.0
 10
-130.0860025139633
 20
1044.220631311406
 30
0.0
 10
-129.4584260634661
 20
1045.17439565459
 30
0.0
 10
-129.1985538665875
 20
1045.675976907868
 30
0.0
 10
-128.7833737513814
 20
1046.727085234923
 30
0.0
 10
-128.6276624937515
 20
1047.282748723592
 30
0.0
 10
-128.4363477641179
 20
1048.402058553736
 30
0.0
 10
-128.3984142636938
 20
1048.968140138491
 30
0.0
 10
-128.4198429341503
 20
1049.540831724813
 30
0.0
  0
SPLINE
  5
B2
330
1F
100
AcDbEntity
  8
0
  6
Continuous
 62
     7
370
    15
100
AcDbSpline
210
0.0
220
0.0
230
1.0
 70
     8
 71
     3
 72
    10
 73
     6
 74
     0
 42
0.00000001
 43
0.00000001
 12
1.0
 22
0.0
 32
0.0
 13
1.0
 23
0.0
 33
0.0
 40
0.0
 40
0.0
 40
0.0
 40
0.0
 40
0.5
 40
0.5
 40
1.0
 40
1.0
 40
1.0
 40
1.0
 10
-128.4198429341504
 20
1049.540831724814
 30
0.0
 10
-128.4236470660305
 20
1049.64249898996
 30
0.0
 10
-128.3843327306918
 20
1049.74342416564
 30
0.0
 10
-128.2453194271279
 20
1049.887341807085
 30
0.0
 10
-128.1461630323774
 20
1049.929853463944
 30
0.0
 10
-128.0451051714005
 20
1049.929853463944
 30
0.0
  0
LINE
  5
B3
330
1F
100
AcDbEntity
  8
0
  6
Continuous
 62
     7
370
    15
100
AcDbLine
 10
-128.0451051714
 20
1049.9298534639
 30
0.0
 11
-120.9140737147
 21
1049.9298534639
 31
0.0
  0
SPLINE
  5
B4
330
1F
100
AcDbEntity
  8
0
  6
Continuous
 62
     7
370
    15
100
AcDbSpline
210
0.0
220
0.0
230
1.0
 70
     8
 71
     3
 72
    10
 73
     6
 74
     0
 42
0.00000001
 43
0.00000001
 12
1.0
 22
0.0
 32
0.0
 13
1.0
 23
0.0
 33
0.0
 40
0.0
 40
0.0
 40
0.0
 40
0.0
 40
0.5
 40
0.5
 40
1.0
 40
1.0
 40
1.0
 40
1.0
 10
-120.9140737146762
 20
1049.929853463944
 30
0.0
 10
-120.8155222256108
 20
1049.929853463944
 30
0.0
 10
-120.7190472718164
 20
1049.889760263323
 30
0.0
 10
-120.580284960857
 20
1049.75178732469
 30
0.0
 10
-120.5390737146754
 20
1049.654416659977
 30
0.0
 10
-120.5390737146752
 20
1049.554853463945
 30
0.0
  0
LINE
  5
B5
330
1F
100
AcDbEntity
  8
0
  6
Continuous
 62
     7
370
    15
100
AcDbLine
 10
-120.5390737147
 20
1049.5548534639
 30
0.0
 11
-120.5390737147
 21
1042.8048534639
 31
0.0
  0
SPLINE
  5
B6
330
1F
100
AcDbEntity
  8
0
  6
Continuous
 62
     7
370
    15
100
AcDbSpline
210
0.0
220
0.0
230
1.0
 70
     8
 71
     3
 72
    10
 73
     6
 74
     0
 42
0.00000001
 43
0.00000001
 12
1.0
 22
0.0
 32
0.0
 13
1.0
 23
0.0
 33
0.0
 40
0.0
 40
0.0
 40
0.0
 40
0.0
 40
0.5
 40
0.5
 40
1.0
 40
1.0
 40
1.0
 40
1.0
 10
-120.5390737146762
 20
1042.804853463944
 30
0.0
 10
-120.5390737146762
 20
1042.705308071673
 30
0.0
 10
-120.5802010739868
 20
1042.608101526497
 30
0.0
 10
-120.7187517709951
 20
1042.470142240041
 30
0.0
 10
-120.8155391237384
 20
1042.429853463943
 30
0.0
 10
-120.9140737146794
 20
1042.429853463944
 30
0.0
  0
LINE
  5
B7
330
1F
100
AcDbEntity
  8
0
  6
Continuous
 62
     7
370
    15
100
AcDbLine
 10
-120.9140737147
 20
1042.4298534639
 30
0.0
 11
-123.0672314802
 21
1042.4298534639
 31
0.0
  0
SPLINE
  5
B8
330
1F
100
AcDbEntity
  8
0
  6
Continuous
 62
     7
370
    15
100
AcDbSpline
210
0.0
220
0.0
230
1.0
 70
     8
 71
     3
 72
     8
 73
     4
 74
     0
 42
0.00000001
 43
0.00000001
 12
1.0
 22
0.0
 32
0.0
 13
1.0
 23
0.0
 33
0.0
 40
0.0
 40
0.0
 40
0.0
 40
0.0
 40
1.0
 40
1.0
 40
1.0
 40
1.0
 10
-123.067231480172
 20
1042.429853463944
 30
0.0
 10
-123.2037145813422
 20
1042.429853463944
 30
0.0
 10
-123.3346924958485
 20
1042.351474817616
 30
0.0
 10
-123.3988617785753
 20
1042.229914439552
 30
0.0
  0
SPLINE
  5
B9
330
1F
100
AcDbEntity
  8
0
  6
Continuous
 62
     7
370
    15
100
AcDbSpline
210
0.0
220
0.0
230
1.0
 70
     8
 71
     3
 72
    18
 73
    14
 74
     0
 42
0.00000001
 43
0.00000001
 12
1.0
 22
0.0
 32
0.0
 13
1.0
 23
0.0
 33
0.0
 40
0.0
 40
0.0
 40
0.0
 40
0.0
 40
0.2500000000000001
 40
0.2500000000000001
 40
0.3750000000000002
 40
0.3750000000000002
 40
0.5000000000000003
 40
0.5000000000000003
 40
0.7500000000000003
 40
0.7500000000000003
 40
0.8750000000000002
 40
0.8750000000000002
 40
1.0
 40
1.0
 40
1.0
 40
1.0
 10
-159.0515737148058
 20
1114.345719060099
 30
0.0
 10
-153.9270987073
 20
1114.3457190601
 30
0.0
 10
-148.8101400909235
 20
1114.315888878018
 30
0.0
 10
-141.1459699381062
 20
1114.230400770776
 30
0.0
 10
-138.5931254735366
 20
1114.195188717039
 30
0.0
 10
-133.491201175146
 20
1114.112637358456
 30
0.0
 10
-130.9409870170669
 20
1114.065279743349
 30
0.0
 10
-123.3065400539777
 20
1113.907462530196
 30
0.0
 10
-118.2380967282195
 20
1113.781376483575
 30
0.0
 10
-110.6673397617557
 20
1113.569797985444
 30
0.0
 10
-108.1480563077905
 20
1113.495479119276
 30
0.0
 10
-103.1265589366632
 20
1113.340720112569
 30
0.0
 10
-100.6241882281803
 20
1113.260279097283
 30
0.0
 10
-98.13013787426388
 20
1113.177289488504
 30
0.0
  0
SPLINE
  5
BA
330
1F
100
AcDbEntity
  8
0
  6
Continuous
 62
     7
370
    15
100
AcDbSpline
210
0.0
220
0.0
230
1.0
 70
     8
 71
     3
 72
     8
 73
     4
 74
     0
 42
0.00000001
 43
0.00000001
 12
1.0
 22
0.0
 32
0.0
 13
1.0
 23
0.0
 33
0.0
 40
0.0
 40
0.0
 40
0.0
 40
0.0
 40
1.0
 40
1.0
 40
1.0
 40
1.0
 10
-86.44082939841421
 20
1083.450905107752
 30
0.0
 10
-90.29661107488748
 20
1093.398824887013
 30
0.0
 10
-94.1914377905716
 20
1103.308893905492
 30
0.0
 10
-98.1301378742638
 20
1113.177289488504
 30
0.0
  0
SPLINE
  5
BB
330
1F
100
AcDbEntity
  8
0
  6
Continuous
 62
     7
370
    15
100
AcDbSpline
210
0.0
220
0.0
230
1.0
 70
     8
 71
     3
 72
     8
 73
     4
 74
     0
 42
0.00000001
 43
0.00000001
 12
1.0
 22
0.0
 32
0.0
 13
1.0
 23
0.0
 33
0.0
 40
0.0000069159360224
 40
0.0000069159360224
 40
0.0000069159360224
 40
0.0000069159360224
 40
0.0005559619023243
 40
0.0005559619023243
 40
0.0005559619023243
 40
0.0005559619023243
 10
-86.43537320356475
 20
1082.952713351753
 30
0.0
 10
-86.43711138685437
 20
1083.118768995237
 30
0.0
 10
-86.43893013628147
 20
1083.284832950822
 30
0.0
 10
-86.4408293984143
 20
1083.450905107752
 30
0.0
  0
SPLINE
  5
BC
330
1F
100
AcDbEntity
  8
0
  6
Continuous
 62
     7
370
    15
100
AcDbSpline
210
0.0
220
0.0
230
1.0
 70
     8
 71
     3
 72
     8
 73
     4
 74
     0
 42
0.00000001
 43
0.00000001
 12
1.0
 22
0.0
 32
0.0
 13
1.0
 23
0.0
 33
0.0
 40
0.0
 40
0.0
 40
0.0
 40
0.0
 40
1.0
 40
1.0
 40
1.0
 40
1.0
 10
-86.4353732035648
 20
1082.952713351753
 30
0.0
 10
-91.25724134211092
 20
1083.096032545709
 30
0.0
 10
-96.11202028762798
 20
1083.236903568645
 30
0.0
 10
-100.9998786266092
 20
1083.367791797786
 30
0.0
  0
SPLINE
  5
BD
330
1F
100
AcDbEntity
  8
0
  6
Continuous
 62
     7
370
    15
100
AcDbSpline
210
0.0
220
0.0
230
1.0
 70
     8
 71
     3
 72
    21
 73
    17
 74
     0
 42
0.00000001
 43
0.00000001
 12
1.0
 22
0.0
 32
0.0
 13
1.0
 23
0.0
 33
0.0
 40
0.0
 40
0.0
 40
0.0
 40
0.0
 40
0.0556457249796991
 40
0.1112645765036511
 40
0.1668585832000752
 40
0.2224297743765865
 40
0.2779801798354675
 40
0.3335118296883823
 40
0.389026754170627
 40
0.4445269834550213
 40
0.5000145474655422
 40
0.5845985145177375
 40
0.7500167871465799
 40
0.8608312455667245
 40
0.9441594111764295
 40
0.9999999999999999
 40
0.9999999999999999
 40
0.9999999999999999
 40
0.9999999999999999
 10
-100.9998786266092
 20
1083.367791797786
 30
0.0
 10
-101.5292401241285
 20
1083.381890648967
 30
0.0
 10
-102.587707470188
 20
1083.410081542451
 30
0.0
 10
-104.177673382817
 20
1083.451396336593
 30
0.0
 10
-105.768781633231
 20
1083.491956274127
 30
0.0
 10
-107.3612245704483
 20
1083.531670653897
 30
0.0
 10
-108.9549503253791
 20
1083.570534354218
 30
0.0
 10
-110.5499723522014
 20
1083.608517847654
 30
0.0
 10
-112.1462868835197
 20
1083.645603698674
 30
0.0
 10
-113.7438937509998
 20
1083.681750506192
 30
0.0
 10
-115.6223701430749
 20
1083.72316423996
 30
0.0
 10
-118.5602970380261
 20
1083.78516962923
 30
0.0
 10
-122.0377295481345
 20
1083.853333622412
 30
0.0
 10
-125.5102421547685
 20
1083.915304055635
 30
0.0
 10
-127.9275553144632
 20
1083.955562432456
 30
0.0
 10
-129.2747264831499
 20
1083.97651429912
 30
0.0
 10
-129.8152704551926
 20
1083.984921104054
 30
0.0
  0
SPLINE
  5
BE
330
1F
100
AcDbEntity
  8
0
  6
Continuous
 62
     7
370
    15
100
AcDbSpline
210
0.0
220
0.0
230
1.0
 70
     8
 71
     3
 72
    21
 73
    17
 74
     0
 42
0.00000001
 43
0.00000001
 12
1.0
 22
0.0
 32
0.0
 13
1.0
 23
0.0
 33
0.0
 40
0.0
 40
0.0
 40
0.0
 40
0.0
 40
0.0555038854966618
 40
0.1110174399021885
 40
0.1665427224749318
 40
0.2220818012437767
 40
0.2776367527982734
 40
0.3332096620758477
 40
0.3888026221461877
 40
0.4444177339929217
 40
0.5000571062927104
 40
0.5847879288154317
 40
0.7499683130110344
 40
0.8610167668392356
 40
0.9443889828588536
 40
1.0
 40
1.0
 40
1.0
 40
1.0
 10
-129.8152704551926
 20
1083.984921104054
 30
0.0
 10
-130.3541172501572
 20
1083.993070716222
 30
0.0
 10
-131.4319047084796
 20
1084.00937136024
 30
0.0
 10
-133.0500535337223
 20
1084.032256195432
 30
0.0
 10
-134.6694273482262
 20
1084.053976481853
 30
0.0
 10
-136.2901262920135
 20
1084.074404573565
 30
0.0
 10
-137.9121262323458
 20
1084.093554587022
 30
0.0
 10
-139.5354363169965
 20
1084.111401128463
 30
0.0
 10
-141.1600568834791
 20
1084.127935040653
 30
0.0
 10
-142.7859902167422
 20
1084.143121732507
 30
0.0
 10
-144.6965852882772
 20
1084.159430834596
 30
0.0
 10
-147.6765457678206
 20
1084.181237524446
 30
0.0
 10
-151.1991701672625
 20
1084.200063996987
 30
0.0
 10
-154.7099307602493
 20
1084.210975035267
 30
0.0
 10
-157.1513710082121
 20
1084.21491265748
 30
0.0
 10
-158.5085350324906
 20
1084.215258461309
 30
0.0
 10
-159.0515737149352
 20
1084.215396826939
 30
0.0
  0
SPLINE
  5
BF
330
1F
100
AcDbEntity
  8
0
  6
Continuous
 62
     7
370
    15
100
AcDbSpline
210
0.0
220
0.0
230
1.0
 70
     8
 71
     3
 72
    21
 73
    17
 74
     0
 42
0.00000001
 43
0.00000001
 12
1.0
 22
0.0
 32
0.0
 13
1.0
 23
0.0
 33
0.0
 40
0.0
 40
0.0
 40
0.0
 40
0.0
 40
0.0586556703080709
 40
0.1165366648143981
 40
0.1736429973733405
 40
0.2299746824163267
 40
0.2855317349840356
 40
0.3403141707606762
 40
0.3943220061108824
 40
0.4475552581192077
 40
0.5000139446324797
 40
0.6015734218934466
 40
0.7023516203394631
 40
0.8023486839775416
 40
0.9015647602216208
 40
1.0
 40
1.0
 40
1.0
 40
1.0
 10
-217.1032688027433
 20
1083.367791797786
 30
0.0
 10
-216.5452609755401
 20
1083.382651004404
 30
0.0
 10
-215.4366150291029
 20
1083.412173169472
 30
0.0
 10
-213.7818308128162
 20
1083.455130745597
 30
0.0
 10
-212.1472339216615
 20
1083.496739200074
 30
0.0
 10
-210.5327614628451
 20
1083.536927391764
 30
0.0
 10
-208.9386083387522
 20
1083.575713993272
 30
0.0
 10
-207.3648942195243
 20
1083.61309416455
 30
0.0
 10
-205.8117514897316
 20
1083.649068993253
 30
0.0
 10
-204.2793011931195
 20
1083.683638903992
 30
0.0
 10
-202.2885984660921
 20
1083.727310985708
 30
0.0
 10
-199.8378009428363
 20
1083.778795302275
 30
0.0
 10
-196.9248362292313
 20
1083.836415846291
 30
0.0
 10
-194.0298649475798
 20
1083.889995088707
 30
0.0
 10
-191.1536401141271
 20
1083.939872351889
 30
0.0
 10
-189.2406121669745
 20
1083.969944454037
 30
0.0
 10
-188.2878769741599
 20
1083.984921104054
 30
0.0
  0
SPLINE
  5
C0
330
1F
100
AcDbEntity
  8
0
  6
Continuous
 62
     7
370
    15
100
AcDbSpline
210
0.0
220
0.0
230
1.0
 70
     8
 71
     3
 72
     8
 73
     4
 74
     0
 42
0.00000001
 43
0.00000001
 12
1.0
 22
0.0
 32
0.0
 13
1.0
 23
0.0
 33
0.0
 40
0.0
 40
0.0
 40
0.0
 40
0.0
 40
1.0
 40
1.0
 40
1.0
 40
1.0
 10
-231.6677742257877
 20
1082.952713351753
 30
0.0
 10
-226.8459060872416
 20
1083.096032545709
 30
0.0
 10
-221.9911271417245
 20
1083.236903568645
 30
0.0
 10
-217.1032688027432
 20
1083.367791797786
 30
0.0
  0
SPLINE
  5
C1
330
1F
100
AcDbEntity
  8
0
  6
Continuous
 62
     7
370
    15
100
AcDbSpline
210
0.0
220
0.0
230
1.0
 70
     8
 71
     3
 72
     8
 73
     4
 74
     0
 42
0.00000001
 43
0.00000001
 12
1.0
 22
0.0
 32
0.0
 13
1.0
 23
0.0
 33
0.0
 40
0.0000069159360224
 40
0.0000069159360224
 40
0.0000069159360224
 40
0.0000069159360224
 40
0.0005559619023243
 40
0.0005559619023243
 40
0.0005559619023243
 40
0.0005559619023243
 10
-231.6677742257877
 20
1082.952713351753
 30
0.0
 10
-231.6660360424981
 20
1083.118768995237
 30
0.0
 10
-231.664217293071
 20
1083.284832950822
 30
0.0
 10
-231.6623180309382
 20
1083.450905107752
 30
0.0
  0
SPLINE
  5
C2
330
1F
100
AcDbEntity
  8
0
  6
Continuous
 62
     7
370
    15
100
AcDbSpline
210
0.0
220
0.0
230
1.0
 70
     8
 71
     3
 72
     8
 73
     4
 74
     0
 42
0.00000001
 43
0.00000001
 12
1.0
 22
0.0
 32
0.0
 13
1.0
 23
0.0
 33
0.0
 40
0.0
 40
0.0
 40
0.0
 40
0.0
 40
1.0
 40
1.0
 40
1.0
 40
1.0
 10
-231.6623180309383
 20
1083.450905107752
 30
0.0
 10
-227.806536354465
 20
1093.398824887013
 30
0.0
 10
-223.9117096387809
 20
1103.308893905492
 30
0.0
 10
-219.9730095550887
 20
1113.177289488504
 30
0.0
  0
SPLINE
  5
C3
330
1F
100
AcDbEntity
  8
0
  6
Continuous
 62
     7
370
    15
100
AcDbSpline
210
0.0
220
0.0
230
1.0
 70
     8
 71
     3
 72
    18
 73
    14
 74
     0
 42
0.00000001
 43
0.00000001
 12
1.0
 22
0.0
 32
0.0
 13
1.0
 23
0.0
 33
0.0
 40
0.0
 40
0.0
 40
0.0
 40
0.0
 40
0.2500000000000003
 40
0.2500000000000003
 40
0.3750000000000003
 40
0.3750000000000003
 40
0.5000000000000003
 40
0.5000000000000003
 40
0.7500000000000001
 40
0.7500000000000001
 40
0.8750000000000001
 40
0.8750000000000001
 40
1.0
 40
1.0
 40
1.0
 40
1.0
 10
-159.0515737145466
 20
1114.345719060099
 30
0.0
 10
-164.1760487220525
 20
1114.3457190601
 30
0.0
 10
-169.293007338429
 20
1114.315888878018
 30
0.0
 10
-176.9571774912462
 20
1114.230400770776
 30
0.0
 10
-179.5100219558159
 20
1114.195188717039
 30
0.0
 10
-184.6119462542065
 20
1114.112637358456
 30
0.0
 10
-187.1621604122856
 20
1114.065279743349
 30
0.0
 10
-194.7966073753748
 20
1113.907462530196
 30
0.0
 10
-199.865050701133
 20
1113.781376483576
 30
0.0
 10
-207.4358076675967
 20
1113.569797985443
 30
0.0
 10
-209.955091121562
 20
1113.495479119275
 30
0.0
 10
-214.9765884926893
 20
1113.34072011257
 30
0.0
 10
-217.4789592011722
 20
1113.260279097284
 30
0.0
 10
-219.9730095550886
 20
1113.177289488504
 30
0.0
  0
SPLINE
  5
C4
330
1F
100
AcDbEntity
  8
0
  6
Continuous
 62
     7
370
    15
100
AcDbSpline
210
0.0
220
0.0
230
1.0
 70
     8
 71
     3
 72
    21
 73
    17
 74
     0
 42
0.00000001
 43
0.00000001
 12
1.0
 22
0.0
 32
0.0
 13
1.0
 23
0.0
 33
0.0
 40
0.0
 40
0.0
 40
0.0
 40
0.0
 40
0.0570468701304606
 40
0.1137223992238807
 40
0.1700266213305466
 40
0.2259595711794801
 40
0.2815212841965111
 40
0.3367117965229796
 40
0.3915311450349248
 40
0.4459793673632149
 40
0.5000565019140283
 40
0.6002649490888756
 40
0.7003632677687223
 40
0.8003517122499512
 40
0.9002305376681706
 40
1.0
 40
1.0
 40
1.0
 40
1.0
 10
-188.2878769741599
 20
1083.984921104054
 30
0.0
 10
-187.7340467319618
 20
1083.993296528864
 30
0.0
 10
-186.6299913515091
 20
1084.009992859472
 30
0.0
 10
-184.9779481066103
 20
1084.033339757285
 30
0.0
 10
-183.3358206043613
 20
1084.055336024726
 30
0.0
 10
-181.7035862944029
 20
1084.07586790316
 30
0.0
 10
-180.0813496207475
 20
1084.094965573447
 30
0.0
 10
-178.4691781648522
 20
1084.112621038218
 30
0.0
 10
-176.8671464193492
 20
1084.128836390638
 30
0.0
 10
-175.2753232710604
 20
1084.143611187147
 30
0.0
 10
-173.2404416664223
 20
1084.160767212109
 30
0.0
 10
-170.7593645280628
 20
1084.178629222544
 30
0.0
 10
-167.8290965486111
 20
1084.195072969675
 30
0.0
 10
-164.9009874180254
 20
1084.20673356049
 30
0.0
 10
-161.9753867133224
 20
1084.214040319722
 30
0.0
 10
-160.0258220708742
 20
1084.214944823022
 30
0.0
 10
-159.0515737146763
 20
1084.215396826939
 30
0.0
  0
LINE
  5
C5
330
1F
100
AcDbEntity
  8
0
  6
Continuous
 62
     7
370
    15
100
AcDbLine
 10
-231.1733859235
 20
773.1973811392
 30
0.0
 11
-231.1733859235
 21
859.2973811392
 31
0.0
  0
SPLINE
  5
C6
330
1F
100
AcDbEntity
  8
0
  6
Continuous
 62
     7
370
    15
100
AcDbSpline
210
0.0
220
0.0
230
1.0
 70
     8
 71
     3
 72
    20
 73
    16
 74
     0
 42
0.00000001
 43
0.00000001
 12
1.0
 22
0.0
 32
0.0
 13
1.0
 23
0.0
 33
0.0
 40
0.0
 40
0.0
 40
0.0
 40
0.0
 40
0.2500000000000003
 40
0.2500000000000003
 40
0.3750000000000005
 40
0.3750000000000005
 40
0.4375000000000014
 40
0.4375000000000014
 40
0.5000000000000022
 40
0.5000000000000022
 40
0.7500000000000011
 40
0.7500000000000011
 40
0.8750000000000006
 40
0.8750000000000006
 40
1.0
 40
1.0
 40
1.0
 40
1.0
 10
-231.1733859234922
 20
859.2973811392212
 30
0.0
 10
-233.4348157361924
 20
877.8507242599513
 30
0.0
 10
-235.1443297927389
 20
896.443380714968
 30
0.0
 10
-236.8792365196083
 20
924.3924715783728
 30
0.0
 10
-237.3192102282539
 20
933.7188536760013
 30
0.0
 10
-237.7705311339523
 20
947.7236055601397
 30
0.0
 10
-237.8861912145253
 20
952.3943860511181
 30
0.0
 10
-238.0476746247661
 20
961.7410328621096
 30
0.0
 10
-238.0934746135865
 20
966.4170019552218
 30
0.0
 10
-238.1472256095755
 20
989.7849788679667
 30
0.0
 10
-237.62865098153
 20
1008.460968896774
 30
0.0
 10
-236.015130871023
 20
1036.447734475028
 30
0.0
 10
-235.3377711750657
 20
1045.774932575093
 30
0.0
 10
-233.708429308419
 20
1064.388916526922
 30
0.0
 10
-232.7563352356465
 20
1073.679089239449
 30
0.0
 10
-231.6677742257877
 20
1082.952713351754
 30
0.0
  0
SPLINE
  5
C7
330
1F
100
AcDbEntity
  8
0
  6
Continuous
 62
     7
370
    15
100
AcDbSpline
210
0.0
220
0.0
230
1.0
 70
     8
 71
     3
 72
    20
 73
    16
 74
     0
 42
0.00000001
 43
0.00000001
 12
1.0
 22
0.0
 32
0.0
 13
1.0
 23
0.0
 33
0.0
 40
0.0
 40
0.0
 40
0.0
 40
0.0
 40
0.2500000000000003
 40
0.2500000000000003
 40
0.3750000000000005
 40
0.3750000000000005
 40
0.4375000000000014
 40
0.4375000000000014
 40
0.5000000000000022
 40
0.5000000000000022
 40
0.7500000000000011
 40
0.7500000000000011
 40
0.8750000000000006
 40
0.8750000000000006
 40
1.0
 40
1.0
 40
1.0
 40
1.0
 10
-86.92976150586027
 20
859.2973811392212
 30
0.0
 10
-84.66833169316006
 20
877.8507242599513
 30
0.0
 10
-82.9588176366136
 20
896.443380714968
 30
0.0
 10
-81.22391090974419
 20
924.3924715783728
 30
0.0
 10
-80.78393720109861
 20
933.7188536760013
 30
0.0
 10
-80.33261629540011
 20
947.7236055601397
 30
0.0
 10
-80.21695621482715
 20
952.3943860511181
 30
0.0
 10
-80.05547280458633
 20
961.7410328621096
 30
0.0
 10
-80.009672815766
 20
966.4170019552218
 30
0.0
 10
-79.955921819777
 20
989.7849788679667
 30
0.0
 10
-80.47449644782243
 20
1008.460968896774
 30
0.0
 10
-82.08801655832946
 20
1036.447734475028
 30
0.0
 10
-82.76537625428678
 20
1045.774932575093
 30
0.0
 10
-84.39471812093349
 20
1064.388916526922
 30
0.0
 10
-85.34681219370596
 20
1073.679089239449
 30
0.0
 10
-86.43537320356475
 20
1082.952713351754
 30
0.0
  0
LINE
  5
C8
330
1F
100
AcDbEntity
  8
0
  6
Continuous
 62
     7
370
    15
100
AcDbLine
 10
-86.9297615059
 20
773.1973811392
 30
0.0
 11
-86.9297615059
 21
859.2973811392
 31
0.0
  0
SPLINE
  5
C9
330
1F
100
AcDbEntity
  8
0
  6
Continuous
 62
     7
370
    15
100
AcDbSpline
210
0.0
220
0.0
230
1.0
 70
     8
 71
     3
 72
    12
 73
     8
 74
     0
 42
0.00000001
 43
0.00000001
 12
1.0
 22
0.0
 32
0.0
 13
1.0
 23
0.0
 33
0.0
 40
0.0
 40
0.0
 40
0.0
 40
0.0
 40
0.2500000000000001
 40
0.2500000000000001
 40
0.5000000000000001
 40
0.5000000000000001
 40
1.0
 40
1.0
 40
1.0
 40
1.0
 10
-231.6623180309382
 20
1083.450905107752
 30
0.0
 10
-232.7044507434397
 20
1083.568119121243
 30
0.0
 10
-233.6162468839579
 20
1083.676097543321
 30
0.0
 10
-235.1810367433811
 20
1083.865789918153
 30
0.0
 10
-235.8342050100479
 20
1083.947571795179
 30
0.0
 10
-237.4028788829037
 20
1084.150630035079
 30
0.0
 10
-237.925223830569
 20
1084.223894928369
 30
0.0
 10
-237.9252238305689
 20
1084.223894928369
 30
0.0
  0
LINE
  5
CA
330
1F
100
AcDbEntity
  8
0
  6
Continuous
 62
     7
370
    15
100
AcDbLine
 10
-231.1733859235
 20
859.2973811392
 30
0.0
 11
-237.6015737147
 21
859.2973811392
 31
0.0
  0
SPLINE
  5
CB
330
1F
100
AcDbEntity
  8
0
  6
Continuous
 62
     7
370
    15
100
AcDbSpline
210
0.0
220
0.0
230
1.0
 70
     8
 71
     3
 72
     8
 73
     4
 74
     0
 42
0.00000001
 43
0.00000001
 12
1.0
 22
0.0
 32
0.0
 13
1.0
 23
0.0
 33
0.0
 40
0.0
 40
0.0
 40
0.0
 40
0.0
 40
1.0
 40
1.0
 40
1.0
 40
1.0
 10
-243.3238932341191
 20
933.6973811392211
 30
0.0
 10
-242.3396961505026
 20
908.8005044263248
 30
0.0
 10
-240.4283055876448
 20
883.9660268064903
 30
0.0
 10
-237.6015737146762
 20
859.2973811392212
 30
0.0
  0
SPLINE
  5
CC
330
1F
100
AcDbEntity
  8
0
  6
Continuous
 62
     7
370
    15
100
AcDbSpline
210
0.0
220
0.0
230
1.0
 70
     8
 71
     3
 72
     8
 73
     4
 74
     0
 42
0.00000001
 43
0.00000001
 12
1.0
 22
0.0
 32
0.0
 13
1.0
 23
0.0
 33
0.0
 40
0.0
 40
0.0
 40
0.0
 40
0.0
 40
1.0
 40
1.0
 40
1.0
 40
1.0
 10
-243.1645600736479
 20
933.697381139221
 30
0.0
 10
-243.8369341724014
 20
950.6912854613985
 30
0.0
 10
-244.0765942759506
 20
967.6912746681089
 30
0.0
 10
-243.8812377567943
 20
984.6973811392211
 30
0.0
  0
SPLINE
  5
CD
330
1F
100
AcDbEntity
  8
0
  6
Continuous
 62
     7
370
    15
100
AcDbSpline
210
0.0
220
0.0
230
1.0
 70
     8
 71
     3
 72
     8
 73
     4
 74
     0
 42
0.00000001
 43
0.00000001
 12
1.0
 22
0.0
 32
0.0
 13
1.0
 23
0.0
 33
0.0
 40
0.0
 40
0.0
 40
0.0
 40
0.0
 40
1.0
 40
1.0
 40
1.0
 40
1.0
 10
-237.9252238305689
 20
1084.223894928369
 30
0.0
 10
-241.6079131979044
 20
1051.227949629316
 30
0.0
 10
-243.6580529342003
 20
1017.970693498643
 30
0.0
 10
-244.0399437387267
 20
984.6973811392209
 30
0.0
  0
SPLINE
  5
CE
330
1F
100
AcDbEntity
  8
0
  6
Continuous
 62
     7
370
    15
100
AcDbSpline
210
0.0
220
0.0
230
1.0
 70
     8
 71
     3
 72
     8
 73
     4
 74
     0
 42
0.00000001
 43
0.00000001
 12
1.0
 22
0.0
 32
0.0
 13
1.0
 23
0.0
 33
0.0
 40
0.0
 40
0.0
 40
0.0
 40
0.0
 40
1.0
 40
1.0
 40
1.0
 40
1.0
 10
-74.26173756800199
 20
950.2545086426132
 30
0.0
 10
-74.96138117772341
 20
919.8137026244101
 30
0.0
 10
-77.04852817092342
 20
889.4318122843738
 30
0.0
 10
-80.50157371467624
 20
859.2973811392212
 30
0.0
  0
LINE
  5
CF
330
1F
100
AcDbEntity
  8
0
  6
Continuous
 62
     7
370
    15
100
AcDbLine
 10
-86.9297615059
 20
859.2973811392
 30
0.0
 11
-80.5015737147
 21
859.2973811392
 31
0.0
  0
SPLINE
  5
D0
330
1F
100
AcDbEntity
  8
0
  6
Continuous
 62
     7
370
    15
100
AcDbSpline
210
0.0
220
0.0
230
1.0
 70
     8
 71
     3
 72
    12
 73
     8
 74
     0
 42
0.00000001
 43
0.00000001
 12
1.0
 22
0.0
 32
0.0
 13
1.0
 23
0.0
 33
0.0
 40
0.0
 40
0.0
 40
0.0
 40
0.0
 40
0.2500000000000001
 40
0.2500000000000001
 40
0.5000000000000001
 40
0.5000000000000001
 40
1.0
 40
1.0
 40
1.0
 40
1.0
 10
-86.4408293984143
 20
1083.450905107752
 30
0.0
 10
-85.39869668591278
 20
1083.568119121243
 30
0.0
 10
-84.48690054539453
 20
1083.676097543321
 30
0.0
 10
-82.92211068597136
 20
1083.865789918153
 30
0.0
 10
-82.26894241930462
 20
1083.947571795179
 30
0.0
 10
-80.70026854644883
 20
1084.150630035079
 30
0.0
 10
-80.17792359878352
 20
1084.223894928369
 30
0.0
 10
-80.17792359878358
 20
1084.223894928369
 30
0.0
  0
SPLINE
  5
D1
330
1F
100
AcDbEntity
  8
0
  6
Continuous
 62
     7
370
    15
100
AcDbSpline
210
0.0
220
0.0
230
1.0
 70
     8
 71
     3
 72
    10
 73
     6
 74
     0
 42
0.00000001
 43
0.00000001
 12
1.0
 22
0.0
 32
0.0
 13
1.0
 23
0.0
 33
0.0
 40
0.0
 40
0.0
 40
0.0
 40
0.0
 40
0.5
 40
0.5
 40
1.0
 40
1.0
 40
1.0
 40
1.0
 10
-80.17792359878358
 20
1084.223894928369
 30
0.0
 10
-78.03033656831973
 20
1064.982069970047
 30
0.0
 10
-76.4378895355066
 20
1045.651435396729
 30
0.0
 10
-74.3775951221939
 20
1006.909625467748
 30
0.0
 10
-73.91082568991808
 20
987.4982274683263
 30
0.0
 10
-74.01074060278025
 20
968.095802977957
 30
0.0
  0
SPLINE
  5
D2
330
1F
100
AcDbEntity
  8
0
  6
Continuous
 62
     7
370
    15
100
AcDbSpline
210
0.0
220
0.0
230
1.0
 70
     8
 71
     3
 72
    22
 73
    18
 74
     0
 42
0.00000001
 43
0.00000001
 12
1.0
 22
0.0
 32
0.0
 13
1.0
 23
0.0
 33
0.0
 40
0.0
 40
0.0
 40
0.0
 40
0.0
 40
0.2500000000000221
 40
0.2500000000000221
 40
0.3125000000000277
 40
0.3125000000000277
 40
0.3750000000000332
 40
0.3750000000000332
 40
0.5000000000000266
 40
0.5000000000000266
 40
0.6250000000000201
 40
0.6250000000000201
 40
0.6875000000000168
 40
0.6875000000000168
 40
0.7500000000000133
 40
0.7500000000000133
 40
1.0
 40
1.0
 40
1.0
 40
1.0
 10
-74.26173756800198
 20
950.2545086426132
 30
0.0
 10
-74.23034626398479
 20
951.6203134366091
 30
0.0
 10
-74.20310838625488
 20
953.0555979538343
 30
0.0
 10
-74.17107083137007
 20
954.9339636611218
 30
0.0
 10
-74.16477330829369
 20
955.3139161065823
 30
0.0
 10
-74.15235437532044
 20
956.0825857635143
 30
0.0
 10
-74.1462503403326
 20
956.4702925953899
 30
0.0
 10
-74.12840892728755
 20
957.6299448502358
 30
0.0
 10
-74.1170500737035
 20
958.4035549607421
 30
0.0
 10
-74.09527013422911
 20
959.9517697912912
 30
0.0
 10
-74.08484891409829
 20
960.7263744760135
 30
0.0
 10
-74.07002732257318
 20
961.8890504912083
 30
0.0
 10
-74.06521448340239
 20
962.2776202075513
 30
0.0
 10
-74.05604033901652
 20
963.0437336790699
 30
0.0
 10
-74.05166196194197
 20
963.4225654153439
 30
0.0
 10
-74.03091058973592
 20
965.2960547068175
 30
0.0
 10
-74.01777533875216
 20
966.7297312916108
 30
0.0
 10
-74.01074060278023
 20
968.095802977957
 30
0.0
  0
LINE
  5
D3
330
1F
100
AcDbEntity
  8
0
  6
Continuous
 62
     7
370
    15
100
AcDbLine
 10
-224.1015737147
 20
1113.8688082686
 30
0.0
 11
-237.9252238306
 21
1084.2238949284
 31
0.0
  0
SPLINE
  5
D4
330
1F
100
AcDbEntity
  8
0
  6
Continuous
 62
     7
370
    15
100
AcDbSpline
210
0.0
220
0.0
230
1.0
 70
     8
 71
     3
 72
    12
 73
     8
 74
     0
 42
0.00000001
 43
0.00000001
 12
1.0
 22
0.0
 32
0.0
 13
1.0
 23
0.0
 33
0.0
 40
0.0
 40
0.0
 40
0.0
 40
0.0
 40
0.25
 40
0.25
 40
0.5
 40
0.5
 40
1.0
 40
1.0
 40
1.0
 40
1.0
 10
-219.9730095550889
 20
1113.177289488504
 30
0.0
 10
-220.6625406155519
 20
1113.282462510381
 30
0.0
 10
-221.2663077055973
 20
1113.378886534196
 30
0.0
 10
-222.2989679559043
 20
1113.549038378698
 30
0.0
 10
-222.7283681219988
 20
1113.622775894984
 30
0.0
 10
-223.7586250731387
 20
1113.803455295339
 30
0.0
 10
-224.1015737146761
 20
1113.868808268623
 30
0.0
 10
-224.1015737146762
 20
1113.868808268623
 30
0.0
  0
SPLINE
  5
D5
330
1F
100
AcDbEntity
  8
0
  6
Continuous
 62
     7
370
    15
100
AcDbSpline
210
0.0
220
0.0
230
1.0
 70
     8
 71
     3
 72
    12
 73
     8
 74
     0
 42
0.00000001
 43
0.00000001
 12
1.0
 22
0.0
 32
0.0
 13
1.0
 23
0.0
 33
0.0
 40
0.0
 40
0.0
 40
0.0
 40
0.0
 40
0.25
 40
0.25
 40
0.5
 40
0.5
 40
1.0
 40
1.0
 40
1.0
 40
1.0
 10
-98.13013787426354
 20
1113.177289488504
 30
0.0
 10
-97.44060681380054
 20
1113.282462510381
 30
0.0
 10
-96.83683972375515
 20
1113.378886534196
 30
0.0
 10
-95.80417947344819
 20
1113.549038378698
 30
0.0
 10
-95.37477930735372
 20
1113.622775894984
 30
0.0
 10
-94.34452235621376
 20
1113.803455295339
 30
0.0
 10
-94.00157371467635
 20
1113.868808268623
 30
0.0
 10
-94.00157371467624
 20
1113.868808268623
 30
0.0
  0
LINE
  5
D6
330
1F
100
AcDbEntity
  8
0
  6
Continuous
 62
     7
370
    15
100
AcDbLine
 10
-94.0015737147
 20
1113.8688082686
 30
0.0
 11
-80.1779235988
 21
1084.2238949284
 31
0.0
  0
LINE
  5
D7
330
1F
100
AcDbEntity
  8
0
  6
Continuous
 62
     7
370
    15
100
AcDbLine
 10
-121.2603679269
 20
1115.2973811392
 30
0.0
 11
-196.8427795024
 21
1115.2973811392
 31
0.0
  0
LINE
  5
D8
330
1F
100
AcDbEntity
  8
0
  6
Continuous
 62
     7
370
    15
100
AcDbLine
 10
-199.0515737147
 20
1127.0973811392
 30
0.0
 11
-119.0515737147
 21
1127.0973811392
 31
0.0
  0
LINE
  5
D9
330
1F
100
AcDbEntity
  8
0
  6
Continuous
 62
     7
370
    15
100
AcDbLine
 10
-199.0515737147
 20
1119.0973811392
 30
0.0
 11
-119.0515737147
 21
1119.0973811392
 31
0.0
  0
LINE
  5
DA
330
1F
100
AcDbEntity
  8
0
  6
Continuous
 62
     7
370
    15
100
AcDbLine
 10
-159.0515737147
 20
326.0527845814
 30
0.0
 11
-159.0515737147
 21
273.5527845814
 31
0.0
  0
LINE
  5
DB
330
1F
100
AcDbEntity
  8
0
  6
Continuous
 62
     7
370
    15
100
AcDbLine
 10
-159.0515737147
 20
326.0527845814
 30
0.0
 11
-126.0515737147
 21
326.0527845814
 31
0.0
  0
LINE
  5
DC
330
1F
100
AcDbEntity
  8
0
  6
Continuous
 62
     7
370
    15
100
AcDbLine
 10
-126.0515737147
 20
326.0527845814
 30
0.0
 11
-126.0515737147
 21
273.5527845814
 31
0.0
  0
LINE
  5
DD
330
1F
100
AcDbEntity
  8
0
  6
Continuous
 62
     7
370
    15
100
AcDbLine
 10
-159.0515737147
 20
273.5527845814
 30
0.0
 11
-126.0515737147
 21
273.5527845814
 31
0.0
  0
LINE
  5
DE
330
1F
100
AcDbEntity
  8
0
  6
Continuous
 62
     7
370
    15
100
AcDbLine
 10
-192.0515737147
 20
326.0527845814
 30
0.0
 11
-192.0515737147
 21
273.5527845814
 31
0.0
  0
LINE
  5
DF
330
1F
100
AcDbEntity
  8
0
  6
Continuous
 62
     7
370
    15
100
AcDbLine
 10
-192.0515737147
 20
326.0527845814
 30
0.0
 11
-159.0515737147
 21
326.0527845814
 31
0.0
  0
LINE
  5
E0
330
1F
100
AcDbEntity
  8
0
  6
Continuous
 62
     7
370
    15
100
AcDbLine
 10
-192.0515737147
 20
273.5527845814
 30
0.0
 11
-159.0515737147
 21
273.5527845814
 31
0.0
  0
LINE
  5
E1
330
1F
100
AcDbEntity
  8
0
  6
Continuous
 62
     7
370
    15
100
AcDbLine
 10
-187.0515737147
 20
381.0527845814
 30
0.0
 11
-159.0515737147
 21
381.0527845814
 31
0.0
  0
LINE
  5
E2
330
1F
100
AcDbEntity
  8
0
  6
Continuous
 62
     7
370
    15
100
AcDbLine
 10
-159.0515737147
 20
326.0527845814
 30
0.0
 11
-159.0515737147
 21
381.0527845814
 31
0.0
  0
LINE
  5
E3
330
1F
100
AcDbEntity
  8
0
  6
Continuous
 62
     7
370
    15
100
AcDbLine
 10
-187.0515737147
 20
326.0527845814
 30
0.0
 11
-187.0515737147
 21
381.0527845814
 31
0.0
  0
LINE
  5
E4
330
1F
100
AcDbEntity
  8
0
  6
Continuous
 62
     7
370
    15
100
AcDbLine
 10
-159.0515737147
 20
381.0527845814
 30
0.0
 11
-131.0515737147
 21
381.0527845814
 31
0.0
  0
LINE
  5
E5
330
1F
100
AcDbEntity
  8
0
  6
Continuous
 62
     7
370
    15
100
AcDbLine
 10
-131.0515737147
 20
326.0527845814
 30
0.0
 11
-131.0515737147
 21
381.0527845814
 31
0.0
  0
LINE
  5
E6
330
1F
100
AcDbEntity
  8
0
  6
Continuous
 62
     7
370
    15
100
AcDbLine
 10
-143.8845737147
 20
1153.7973811392
 30
0.0
 11
-174.2185737147
 21
1153.7973811392
 31
0.0
  0
LINE
  5
E7
330
1F
100
AcDbEntity
  8
0
  6
Continuous
 62
     7
370
    15
100
AcDbLine
 10
-143.1854096088
 20
1127.0973811392
 30
0.0
 11
-143.8845737147
 21
1153.7973811392
 31
0.0
  0
LINE
  5
E8
330
1F
100
AcDbEntity
  8
0
  6
Continuous
 62
     7
370
    15
100
AcDbLine
 10
-174.9177378206
 20
1127.0973811392
 30
0.0
 11
-174.2185737147
 21
1153.7973811392
 31
0.0
  0
LINE
  5
E9
330
1F
100
AcDbEntity
  8
0
  6
Continuous
 62
     7
370
    15
100
AcDbLine
 10
-146.5515737147
 20
754.1973811392
 30
0.0
 11
-146.5515737147
 21
381.0527845814
 31
0.0
  0
LINE
  5
EA
330
1F
100
AcDbEntity
  8
0
  6
Continuous
 62
     7
370
    15
100
AcDbLine
 10
-171.5515737147
 20
754.1973811392
 30
0.0
 11
-171.5515737147
 21
381.0527845814
 31
0.0
  0
LINE
  5
EB
330
1F
100
AcDbEntity
  8
0
  6
Continuous
 62
     7
370
    15
100
AcDbLine
 10
-263.1157387079
 20
984.6973811392
 30
0.0
 11
-263.1157387079
 21
933.6973811392
 31
0.0
  0
LINE
  5
EC
330
1F
100
AcDbEntity
  8
0
  6
Continuous
 62
     7
370
    15
100
AcDbLine
 10
-243.8812377568
 20
984.6973811392
 30
0.0
 11
-263.1157387079
 21
984.6973811392
 31
0.0
  0
LINE
  5
ED
330
1F
100
AcDbEntity
  8
0
  6
Continuous
 62
     7
370
    15
100
AcDbLine
 10
-243.1645600736
 20
933.6973811392
 30
0.0
 11
-263.1157387079
 21
933.6973811392
 31
0.0
  0
LINE
  5
EE
330
1F
100
AcDbEntity
  8
0
  6
Continuous
 62
     7
370
    15
100
AcDbLine
 10
-263.3515737147
 20
949.6973811392
 30
0.0
 11
-263.3515737147
 21
968.6973811392
 31
0.0
  0
ELLIPSE
  5
EF
330
1F
100
AcDbEntity
  8
0
  6
Continuous
 62
     7
370
    15
100
AcDbEllipse
 10
-263.3515737147
 20
972.6973811392
 30
0.0
 11
0.0
 21
4.0
 31
0.0
210
0.0
220
0.0
230
1.0
 40
0.0261859216
 41
3.141592653589789
 42
6.283185307179586
  0
LINE
  5
F0
330
1F
100
AcDbEntity
  8
0
  6
Continuous
 62
     7
370
    15
100
AcDbLine
 10
-263.3515737147
 20
976.6973811392
 30
0.0
 11
-263.3515737147
 21
984.6973811392
 31
0.0
  0
LINE
  5
F1
330
1F
100
AcDbEntity
  8
0
  6
Continuous
 62
     7
370
    15
100
AcDbLine
 10
-263.3515737147
 20
933.6973811392
 30
0.0
 11
-263.3515737147
 21
941.6973811392
 31
0.0
  0
ELLIPSE
  5
F2
330
1F
100
AcDbEntity
  8
0
  6
Continuous
 62
     7
370
    15
100
AcDbEllipse
 10
-263.3515737147
 20
945.6973811392
 30
0.0
 11
0.0
 21
4.0
 31
0.0
210
0.0
220
0.0
230
1.0
 40
0.0261859216
 41
3.141592653589789
 42
6.283185307179586
  0
LINE
  5
F3
330
1F
100
AcDbEntity
  8
0
  6
Continuous
 62
     7
370
    15
100
AcDbLine
 10
-263.3515737147
 20
984.6973811392
 30
0.0
 11
-263.1157387079
 21
984.6973811392
 31
0.0
  0
LINE
  5
F4
330
1F
100
AcDbEntity
  8
0
  6
Continuous
 62
     7
370
    15
100
AcDbLine
 10
-263.1157387079
 20
933.6973811392
 30
0.0
 11
-263.3515737147
 21
933.6973811392
 31
0.0
  0
SPLINE
  5
F5
330
1F
100
AcDbEntity
  8
0
  6
Continuous
 62
     7
370
    15
100
AcDbSpline
210
0.0
220
0.0
230
1.0
 70
     8
 71
     3
 72
    37
 73
    33
 74
     0
 42
0.00000001
 43
0.00000001
 12
1.0
 22
0.0
 32
0.0
 13
1.0
 23
0.0
 33
0.0
 40
0.0
 40
0.0
 40
0.0
 40
0.0
 40
0.0355805543035857
 40
0.071161106756282
 40
0.1079092108517175
 40
0.1446573124278608
 40
0.1782435844095163
 40
0.2118298544040849
 40
0.2463920737413841
 40
0.2809542906871357
 40
0.3145371794376082
 40
0.3481200660225776
 40
0.38267882633873
 40
0.4172375843800425
 40
0.450816722904652
 40
0.4843958597925699
 40
0.5189507303623512
 40
0.5535055999613807
 40
0.5870815875304055
 40
0.6206575755432477
 40
0.6552090428755505
 40
0.6897605129558488
 40
0.7233362839956888
 40
0.7569120601621535
 40
0.7914629113328903
 40
0.8260137713042219
 40
0.8595963146716696
 40
0.8931788669954586
 40
0.927736245130037
 40
0.9622936304541873
 40
0.9958902147318539
 40
1.0
 40
1.0
 40
1.0
 40
1.0
 10
-70.70622175390591
 20
945.2309570172985
 30
0.0
 10
-70.70324679366477
 20
945.5633385374057
 30
0.0
 10
-70.69729687333725
 20
946.2281015603293
 30
0.0
 10
-70.68692190440773
 20
947.3664913329272
 30
0.0
 10
-70.67544569321052
 20
948.6050392150604
 30
0.0
 10
-70.66313792858469
 20
949.907546139569
 30
0.0
 10
-70.65028099102626
 20
951.2401962244018
 30
0.0
 10
-70.6368766115132
 20
952.600058029224
 30
0.0
 10
-70.62253931281998
 20
954.02031248106
 30
0.0
 10
-70.60743981709503
 20
955.4777219399474
 30
0.0
 10
-70.59178163404968
 20
956.9474308094881
 30
0.0
 10
-70.57549005095218
 20
958.4325755666869
 30
0.0
 10
-70.55844340748489
 20
959.9374674373341
 30
0.0
 10
-70.5408656252595
 20
961.436835980244
 30
0.0
 10
-70.52300274180156
 20
962.90570055414
 30
0.0
 10
-70.50477996037651
 20
964.3486494997017
 30
0.0
 10
-70.48609496100512
 20
965.7684408951288
 30
0.0
 10
-70.46723465072105
 20
967.1406887169892
 30
0.0
 10
-70.44849297330322
 20
968.4430924303588
 30
0.0
 10
-70.42983076597181
 20
969.6811783786148
 30
0.0
 10
-70.41121326154132
 20
970.8558300105393
 30
0.0
 10
-70.39301957538227
 20
971.9463238492721
 30
0.0
 10
-70.37561244099317
 20
972.9355522145709
 30
0.0
 10
-70.35905284915505
 20
973.8293460845539
 30
0.0
 10
-70.34346575852125
 20
974.6266248636554
 30
0.0
 10
-70.32935159281178
 20
975.3125964837706
 30
0.0
 10
-70.31714949324927
 20
975.8775575029234
 30
0.0
 10
-70.3070525906948
 20
976.3258563133752
 30
0.0
 10
-70.29928474511985
 20
976.6587989366569
 30
0.0
 10
-70.29461841974535
 20
976.8532279364316
 30
0.0
 10
-70.29268164482595
 20
976.9334645184316
 30
0.0
 10
-70.29315154990918
 20
976.9139603197309
 30
0.0
 10
-70.29320276695853
 20
976.9118344701875
 30
0.0
  0
SPLINE
  5
F6
330
1F
100
AcDbEntity
  8
0
  6
Continuous
 62
     7
370
    15
100
AcDbSpline
210
0.0
220
0.0
230
1.0
 70
     8
 71
     3
 72
     8
 73
     4
 74
     0
 42
0.00000001
 43
0.00000001
 12
1.0
 22
0.0
 32
0.0
 13
1.0
 23
0.0
 33
0.0
 40
0.0
 40
0.0
 40
0.0
 40
0.0
 40
1.0
 40
1.0
 40
1.0
 40
1.0
 10
-70.05157371467615
 20
945.1114987862799
 30
0.0
 10
-70.26946384393071
 20
945.1511945059045
 30
0.0
 10
-70.48768628910703
 20
945.1910148997381
 30
0.0
 10
-70.70622175390584
 20
945.2309570172986
 30
0.0
  0
LINE
  5
F7
330
1F
100
AcDbEntity
  8
0
  6
Continuous
 62
     7
370
    15
100
AcDbLine
 10
-70.0515737147
 20
945.1114987863
 30
0.0
 11
-70.0515737147
 21
941.4973811392
 31
0.0
  0
LINE
  5
F8
330
1F
100
AcDbEntity
  8
0
  6
Continuous
 62
     7
370
    15
100
AcDbLine
 10
-119.0515737147
 20
1127.0973811392
 30
0.0
 11
-117.8886228108
 21
1127.0973811392
 31
0.0
  0
LINE
  5
F9
330
1F
100
AcDbEntity
  8
0
  6
Continuous
 62
     7
370
    15
100
AcDbLine
 10
-119.0515737147
 20
1119.0973811392
 30
0.0
 11
-117.8886228108
 21
1119.0973811392
 31
0.0
  0
LINE
  5
FA
330
1F
100
AcDbEntity
  8
0
  6
Continuous
 62
     8
370
     0
100
AcDbLine
 10
-159.0515737147
 20
1084.2153968269
 30
0.0
 11
-159.0515737147
 21
1114.3457190601
 31
0.0
  0
LINE
  5
FB
330
1F
100
AcDbEntity
  8
0
  6
Continuous
 62
     8
370
     0
100
AcDbLine
 10
-285.0515737147
 20
941.6973811392
 30
0.0
 11
-285.0515737147
 21
949.6973811392
 31
0.0
  0
LINE
  5
FC
330
1F
100
AcDbEntity
  8
0
  6
Continuous
 62
     8
370
     0
100
AcDbLine
 10
-285.0515737147
 20
976.6973811392
 30
0.0
 11
-285.0515737147
 21
968.6973811392
 31
0.0
  0
LINE
  5
FD
330
1F
100
AcDbEntity
  8
FORMAT
  6
CENTERX2
 62
     7
370
     0
100
AcDbLine
 10
-159.0515737147
 20
1247.1095310656
 30
0.0
 11
-159.0515737147
 21
260.7814458703
 31
0.0
  0
LINE
  5
FE
330
1F
100
AcDbEntity
  8
0
  6
Continuous
 62
     7
370
    15
100
AcDbLine
 10
561.0642686055
 20
1171.9973811392
 30
0.0
 11
562.2016212313
 21
1158.9973811392
 31
0.0
  0
LINE
  5
FF
330
1F
100
AcDbEntity
  8
0
  6
Continuous
 62
     7
370
    15
100
AcDbLine
 10
919.9269159797
 20
1158.9973811392
 30
0.0
 11
921.0642686055
 21
1171.9973811392
 31
0.0
  0
ARC
  5
100
330
1F
100
AcDbEntity
  8
0
  6
Continuous
 62
     7
370
    15
100
AcDbCircle
 10
572.0642686055
 20
1171.9973811392
 30
0.0
 40
11.0
100
AcDbArc
 50
90.0
 51
180.0
  0
ARC
  5
101
330
1F
100
AcDbEntity
  8
0
  6
Continuous
 62
     7
370
    15
100
AcDbCircle
 10
910.0642686055
 20
1171.9973811392
 30
0.0
 40
11.0
100
AcDbArc
 50
0.0
 51
90.0
  0
LINE
  5
102
330
1F
100
AcDbEntity
  8
0
  6
Continuous
 62
     7
370
    15
100
AcDbLine
 10
893.5642686055
 20
754.1973811392
 30
0.0
 11
893.5642686055
 21
773.1973811392
 31
0.0
  0
LINE
  5
103
330
1F
100
AcDbEntity
  8
0
  6
Continuous
 62
     7
370
    15
100
AcDbLine
 10
588.5642686055
 20
773.1973811392
 30
0.0
 11
588.5642686055
 21
754.1973811392
 31
0.0
  0
LINE
  5
104
330
1F
100
AcDbEntity
  8
0
  6
Continuous
 62
     7
370
    15
100
AcDbLine
 10
737.0642686055
 20
972.6973811392
 30
0.0
 11
737.0642686055
 21
945.6973811392
 31
0.0
  0
LINE
  5
105
330
1F
100
AcDbEntity
  8
0
  6
Continuous
 62
     7
370
    15
100
AcDbLine
 10
745.0642686055
 20
945.6973811392
 30
0.0
 11
745.0642686055
 21
972.6973811392
 31
0.0
  0
LINE
  5
106
330
1F
100
AcDbEntity
  8
0
  6
Continuous
 62
     7
370
    15
100
AcDbLine
 10
671.0642686055
 20
931.1973811392
 30
0.0
 11
671.0642686055
 21
773.1973811392
 31
0.0
  0
LINE
  5
107
330
1F
100
AcDbEntity
  8
0
  6
Continuous
 62
     7
370
    15
100
AcDbLine
 10
671.0642686055
 20
1084.220695918
 30
0.0
 11
671.0642686055
 21
987.1973811392
 31
0.0
  0
LINE
  5
108
330
1F
100
AcDbEntity
  8
0
  6
Continuous
 62
     7
370
    15
100
AcDbLine
 10
811.0642686055
 20
1060.1973811392
 30
0.0
 11
811.0642686055
 21
1084.220695918
 31
0.0
  0
LINE
  5
109
330
1F
100
AcDbEntity
  8
0
  6
Continuous
 62
     7
370
    15
100
AcDbLine
 10
811.0642686055
 20
987.1973811392
 30
0.0
 11
811.0642686055
 21
1024.1973811392
 31
0.0
  0
LINE
  5
10A
330
1F
100
AcDbEntity
  8
0
  6
Continuous
 62
     7
370
    15
100
AcDbLine
 10
811.0642686055
 20
773.1973811392
 30
0.0
 11
811.0642686055
 21
931.1973811392
 31
0.0
  0
LINE
  5
10B
330
1F
100
AcDbEntity
  8
0
  6
Continuous
 62
     7
370
    15
100
AcDbLine
 10
797.0142686055
 20
1114.3457190601
 30
0.0
 11
778.8554743933
 21
1115.2973811392
 31
0.0
  0
LINE
  5
10C
330
1F
100
AcDbEntity
  8
0
  6
Continuous
 62
     7
370
    15
100
AcDbLine
 10
703.2730628178
 20
1115.2973811392
 30
0.0
 11
685.1142686055
 21
1114.3457190601
 31
0.0
  0
LINE
  5
10D
330
1F
100
AcDbEntity
  8
0
  6
Continuous
 62
     7
370
    15
100
AcDbLine
 10
781.0642686055
 20
1119.0973811392
 30
0.0
 11
781.0642686055
 21
1127.0973811392
 31
0.0
  0
LINE
  5
10E
330
1F
100
AcDbEntity
  8
0
  6
Continuous
 62
     7
370
    15
100
AcDbLine
 10
701.0642686055
 20
1127.0973811392
 30
0.0
 11
701.0642686055
 21
1119.0973811392
 31
0.0
  0
LINE
  5
10F
330
1F
100
AcDbEntity
  8
0
  6
Continuous
 62
     7
370
    15
100
AcDbLine
 10
778.8554743933
 20
1115.2973811392
 30
0.0
 11
778.5230174719
 21
1119.0973811392
 31
0.0
  0
LINE
  5
110
330
1F
100
AcDbEntity
  8
0
  6
Continuous
 62
     7
370
    15
100
AcDbLine
 10
703.6055197392
 20
1119.0973811392
 30
0.0
 11
703.2730628178
 21
1115.2973811392
 31
0.0
  0
LINE
  5
111
330
1F
100
AcDbEntity
  8
0
  6
Continuous
 62
     7
370
    15
100
AcDbLine
 10
813.0642686055
 20
1024.1973811392
 30
0.0
 11
813.0642686055
 21
1036.0921132459
 31
0.0
  0
ARC
  5
112
330
1F
100
AcDbEntity
  8
0
  6
Continuous
 62
     7
370
    15
100
AcDbCircle
 10
741.0642686055
 20
1219.7973811392
 30
0.0
 40
7.0
100
AcDbArc
 50
0.0
 51
180.0
  0
LINE
  5
113
330
1F
100
AcDbEntity
  8
0
  6
Continuous
 62
     7
370
    15
100
AcDbLine
 10
748.0642686055
 20
1182.9848422634
 30
0.0
 11
748.0642686055
 21
1219.7973811392
 31
0.0
  0
LINE
  5
114
330
1F
100
AcDbEntity
  8
0
  6
Continuous
 62
     7
370
    15
100
AcDbLine
 10
734.0642686055
 20
1219.7973811392
 30
0.0
 11
734.0642686055
 21
1182.9929860924
 31
0.0
  0
LINE
  5
115
330
1F
100
AcDbEntity
  8
0
  6
Continuous
 62
     7
370
    15
100
AcDbLine
 10
749.0642686055
 20
1153.7973811392
 30
0.0
 11
749.0642686055
 21
1158.9973811392
 31
0.0
  0
LINE
  5
116
330
1F
100
AcDbEntity
  8
0
  6
Continuous
 62
     7
370
    15
100
AcDbLine
 10
733.0642686055
 20
1158.9973811392
 30
0.0
 11
733.0642686055
 21
1153.7973811392
 31
0.0
  0
LINE
  5
117
330
1F
100
AcDbEntity
  8
0
  6
Continuous
 62
     7
370
    15
100
AcDbLine
 10
699.9013177016
 20
1127.0973811392
 30
0.0
 11
699.9013177016
 21
1119.0973811392
 31
0.0
  0
LINE
  5
118
330
1F
100
AcDbEntity
  8
0
  6
Continuous
 62
     7
370
    15
100
AcDbLine
 10
741.0642686055
 20
1171.9973811392
 30
0.0
 11
921.0642686055
 21
1171.9973811392
 31
0.0
  0
LINE
  5
119
330
1F
100
AcDbEntity
  8
0
  6
Continuous
 62
     7
370
    15
100
AcDbLine
 10
561.0642686055
 20
1171.9973811392
 30
0.0
 11
741.0642686055
 21
1171.9973811392
 31
0.0
  0
LINE
  5
11A
330
1F
100
AcDbEntity
  8
0
  6
Continuous
 62
     7
370
    15
100
AcDbLine
 10
741.0642686055
 20
1158.9973811392
 30
0.0
 11
919.9269159797
 21
1158.9973811392
 31
0.0
  0
LINE
  5
11B
330
1F
100
AcDbEntity
  8
0
  6
Continuous
 62
     7
370
    15
100
AcDbLine
 10
562.2016212313
 20
1158.9973811392
 30
0.0
 11
741.0642686055
 21
1158.9973811392
 31
0.0
  0
LINE
  5
11C
330
1F
100
AcDbEntity
  8
0
  6
Continuous
 62
     7
370
    15
100
AcDbLine
 10
741.0642686055
 20
1182.9973811392
 30
0.0
 11
910.0642686055
 21
1182.9973811392
 31
0.0
  0
LINE
  5
11D
330
1F
100
AcDbEntity
  8
0
  6
Continuous
 62
     7
370
    15
100
AcDbLine
 10
572.0642686055
 20
1182.9973811392
 30
0.0
 11
741.0642686055
 21
1182.9973811392
 31
0.0
  0
LINE
  5
11E
330
1F
100
AcDbEntity
  8
0
  6
Continuous
 62
     7
370
    15
100
AcDbLine
 10
893.5642686055
 20
773.1973811392
 30
0.0
 11
588.5642686055
 21
773.1973811392
 31
0.0
  0
LINE
  5
11F
330
1F
100
AcDbEntity
  8
0
  6
Continuous
 62
     7
370
    15
100
AcDbLine
 10
893.5642686055
 20
754.1973811392
 30
0.0
 11
588.5642686055
 21
754.1973811392
 31
0.0
  0
ARC
  5
120
330
1F
100
AcDbEntity
  8
0
  6
Continuous
 62
     7
370
    15
100
AcDbCircle
 10
741.0642686055
 20
945.6973811392
 30
0.0
 40
4.0
100
AcDbArc
 50
180.0
 51
0.0
  0
ARC
  5
121
330
1F
100
AcDbEntity
  8
0
  6
Continuous
 62
     7
370
    15
100
AcDbCircle
 10
741.0642686055
 20
972.6973811392
 30
0.0
 40
4.0
100
AcDbArc
 50
360.0
 51
180.0
  0
LINE
  5
122
330
1F
100
AcDbEntity
  8
0
  6
Continuous
 62
     7
370
    15
100
AcDbLine
 10
741.0642686055
 20
976.6973811392
 30
0.0
 11
741.0642686055
 21
984.6973811392
 31
0.0
  0
LINE
  5
123
330
1F
100
AcDbEntity
  8
0
  6
Continuous
 62
     7
370
    15
100
AcDbLine
 10
741.0642686055
 20
984.6973811392
 30
0.0
 11
750.0704441625
 21
984.6973811392
 31
0.0
  0
LINE
  5
124
330
1F
100
AcDbEntity
  8
0
  6
Continuous
 62
     7
370
    15
100
AcDbLine
 10
750.0704441625
 20
984.6973811392
 30
0.0
 11
750.0704441625
 21
933.6973811392
 31
0.0
  0
LINE
  5
125
330
1F
100
AcDbEntity
  8
0
  6
Continuous
 62
     7
370
    15
100
AcDbLine
 10
750.0704441625
 20
933.6973811392
 30
0.0
 11
741.0642686055
 21
933.6973811392
 31
0.0
  0
LINE
  5
126
330
1F
100
AcDbEntity
  8
0
  6
Continuous
 62
     7
370
    15
100
AcDbLine
 10
741.0642686055
 20
933.6973811392
 30
0.0
 11
741.0642686055
 21
941.6973811392
 31
0.0
  0
LINE
  5
127
330
1F
100
AcDbEntity
  8
0
  6
Continuous
 62
     7
370
    15
100
AcDbLine
 10
732.0580930485
 20
984.6973811392
 30
0.0
 11
732.0580930485
 21
933.6973811392
 31
0.0
  0
LINE
  5
128
330
1F
100
AcDbEntity
  8
0
  6
Continuous
 62
     7
370
    15
100
AcDbLine
 10
732.0580930485
 20
933.6973811392
 30
0.0
 11
741.0642686055
 21
933.6973811392
 31
0.0
  0
LINE
  5
129
330
1F
100
AcDbEntity
  8
0
  6
Continuous
 62
     7
370
    15
100
AcDbLine
 10
741.0642686055
 20
984.6973811392
 30
0.0
 11
732.0580930485
 21
984.6973811392
 31
0.0
  0
SPLINE
  5
12A
330
1F
100
AcDbEntity
  8
0
  6
Continuous
 62
     7
370
    15
100
AcDbSpline
210
0.0
220
0.0
230
1.0
 70
     8
 71
     3
 72
     8
 73
     4
 74
     0
 42
0.00000001
 43
0.00000001
 12
1.0
 22
0.0
 32
0.0
 13
1.0
 23
0.0
 33
0.0
 40
0.0
 40
0.0
 40
0.0
 40
0.0
 40
1.0
 40
1.0
 40
1.0
 40
1.0
 10
731.5356530495844
 20
933.697381139221
 30
0.0
 10
731.5532597849996
 20
950.6912854613985
 30
0.0
 10
731.5595355056744
 20
967.6912746681089
 30
0.0
 10
731.5544199151858
 20
984.6973811392211
 30
0.0
  0
LINE
  5
12B
330
1F
100
AcDbEntity
  8
0
  6
Continuous
 62
     7
370
    15
100
AcDbLine
 10
731.5356530496
 20
933.6973811392
 30
0.0
 11
732.0580930485
 21
933.6973811392
 31
0.0
  0
LINE
  5
12C
330
1F
100
AcDbEntity
  8
0
  6
Continuous
 62
     7
370
    15
100
AcDbLine
 10
731.5544199152
 20
984.6973811392
 30
0.0
 11
732.0580930485
 21
984.6973811392
 31
0.0
  0
SPLINE
  5
12D
330
1F
100
AcDbEntity
  8
0
  6
Continuous
 62
     7
370
    15
100
AcDbSpline
210
0.0
220
0.0
230
1.0
 70
     8
 71
     3
 72
     8
 73
     4
 74
     0
 42
0.00000001
 43
0.00000001
 12
1.0
 22
0.0
 32
0.0
 13
1.0
 23
0.0
 33
0.0
 40
0.0
 40
0.0
 40
0.0
 40
0.0
 40
1.0
 40
1.0
 40
1.0
 40
1.0
 10
750.5928841614246
 20
933.697381139221
 30
0.0
 10
750.5752774260096
 20
950.6912854613985
 30
0.0
 10
750.5690017053347
 20
967.6912746681089
 30
0.0
 10
750.5741172958234
 20
984.6973811392211
 30
0.0
  0
LINE
  5
12E
330
1F
100
AcDbEntity
  8
0
  6
Continuous
 62
     7
370
    15
100
AcDbLine
 10
750.5928841614
 20
933.6973811392
 30
0.0
 11
750.0704441625
 21
933.6973811392
 31
0.0
  0
LINE
  5
12F
330
1F
100
AcDbEntity
  8
0
  6
Continuous
 62
     7
370
    15
100
AcDbLine
 10
750.5741172958
 20
984.6973811392
 30
0.0
 11
750.0704441625
 21
984.6973811392
 31
0.0
  0
LINE
  5
130
330
1F
100
AcDbEntity
  8
0
  6
Continuous
 62
     7
370
    15
100
AcDbLine
 10
680.875021703
 20
859.2973811392
 30
0.0
 11
741.0642686055
 21
859.2973811392
 31
0.0
  0
SPLINE
  5
131
330
1F
100
AcDbEntity
  8
0
  6
Continuous
 62
     7
370
    15
100
AcDbSpline
210
0.0
220
0.0
230
1.0
 70
     8
 71
     3
 72
    20
 73
    16
 74
     0
 42
0.00000001
 43
0.00000001
 12
1.0
 22
0.0
 32
0.0
 13
1.0
 23
0.0
 33
0.0
 40
0.0
 40
0.0
 40
0.0
 40
0.0
 40
0.2500000000000003
 40
0.2500000000000003
 40
0.3750000000000005
 40
0.3750000000000005
 40
0.4375000000000014
 40
0.4375000000000014
 40
0.5000000000000022
 40
0.5000000000000022
 40
0.7500000000000011
 40
0.7500000000000011
 40
0.8750000000000006
 40
0.8750000000000006
 40
1.0
 40
1.0
 40
1.0
 40
1.0
 10
680.8750217029542
 20
859.2973811392212
 30
0.0
 10
681.5018670404023
 20
877.8507242599513
 30
0.0
 10
682.0056855129645
 20
896.443380714968
 30
0.0
 10
682.5237124973974
 20
924.3924715783728
 30
0.0
 10
682.6570783442813
 20
933.7188536760013
 30
0.0
 10
682.7943507504579
 20
947.7236055601397
 30
0.0
 10
682.829665556623
 20
952.3943860511181
 30
0.0
 10
682.8790188928926
 20
961.7410328621096
 30
0.0
 10
682.8930501695809
 20
966.4170019552218
 30
0.0
 10
682.9095090643286
 20
989.7849788679667
 30
0.0
 10
682.7487562714961
 20
1008.460968896774
 30
0.0
 10
682.2652614283377
 20
1036.447734475028
 30
0.0
 10
682.0640060237553
 20
1045.774932575093
 30
0.0
 10
681.5896574135121
 20
1064.388916526922
 30
0.0
 10
681.3165342742616
 20
1073.679089239449
 30
0.0
 10
681.0125671626374
 20
1082.952713351754
 30
0.0
  0
SPLINE
  5
132
330
1F
100
AcDbEntity
  8
0
  6
Continuous
 62
     7
370
    15
100
AcDbSpline
210
0.0
220
0.0
230
1.0
 70
     8
 71
     3
 72
     8
 73
     4
 74
     0
 42
0.00000001
 43
0.00000001
 12
1.0
 22
0.0
 32
0.0
 13
1.0
 23
0.0
 33
0.0
 40
0.0000069159360224
 40
0.0000069159360224
 40
0.0000069159360224
 40
0.0000069159360224
 40
0.0005559619023243
 40
0.0005559619023243
 40
0.0005559619023243
 40
0.0005559619023243
 10
681.0125671626374
 20
1082.952713351753
 30
0.0
 10
681.0894907236985
 20
1083.118768995237
 30
0.0
 10
681.1663945659607
 20
1083.284832950822
 30
0.0
 10
681.2432786589585
 20
1083.450905107752
 30
0.0
  0
SPLINE
  5
133
330
1F
100
AcDbEntity
  8
0
  6
Continuous
 62
     7
370
    15
100
AcDbSpline
210
0.0
220
0.0
230
1.0
 70
     8
 71
     3
 72
    12
 73
     8
 74
     0
 42
0.00000001
 43
0.00000001
 12
1.0
 22
0.0
 32
0.0
 13
1.0
 23
0.0
 33
0.0
 40
0.0
 40
0.0
 40
0.0
 40
0.0
 40
0.2500000000000001
 40
0.2500000000000001
 40
0.5000000000000001
 40
0.5000000000000001
 40
1.0
 40
1.0
 40
1.0
 40
1.0
 10
681.2432786589586
 20
1083.450905107752
 30
0.0
 10
686.1581282206431
 20
1083.568119121243
 30
0.0
 10
691.0943623611087
 20
1083.676097543321
 30
0.0
 10
701.0094468438971
 20
1083.865789918153
 30
0.0
 10
705.9900420156462
 20
1083.947571795179
 30
0.0
 10
720.9849801423195
 20
1084.150630035079
 30
0.0
 10
731.010277777547
 20
1084.223894928369
 30
0.0
 10
741.0642686055046
 20
1084.223894928369
 30
0.0
  0
SPLINE
  5
134
330
1F
100
AcDbEntity
  8
0
  6
Continuous
 62
     7
370
    15
100
AcDbSpline
210
0.0
220
0.0
230
1.0
 70
     8
 71
     3
 72
    12
 73
     8
 74
     0
 42
0.00000001
 43
0.00000001
 12
1.0
 22
0.0
 32
0.0
 13
1.0
 23
0.0
 33
0.0
 40
0.0
 40
0.0
 40
0.0
 40
0.0
 40
0.2500000000000001
 40
0.2500000000000001
 40
0.5000000000000001
 40
0.5000000000000001
 40
1.0
 40
1.0
 40
1.0
 40
1.0
 10
800.8852585520505
 20
1083.450905107752
 30
0.0
 10
795.970408990366
 20
1083.568119121243
 30
0.0
 10
791.0341748499004
 20
1083.676097543321
 30
0.0
 10
781.119090367112
 20
1083.865789918153
 30
0.0
 10
776.1384951953629
 20
1083.947571795179
 30
0.0
 10
761.1435570686897
 20
1084.150630035079
 30
0.0
 10
751.1182594334621
 20
1084.223894928369
 30
0.0
 10
741.0642686055046
 20
1084.223894928369
 30
0.0
  0
SPLINE
  5
135
330
1F
100
AcDbEntity
  8
0
  6
Continuous
 62
     7
370
    15
100
AcDbSpline
210
0.0
220
0.0
230
1.0
 70
     8
 71
     3
 72
     8
 73
     4
 74
     0
 42
0.00000001
 43
0.00000001
 12
1.0
 22
0.0
 32
0.0
 13
1.0
 23
0.0
 33
0.0
 40
0.0000069159360224
 40
0.0000069159360224
 40
0.0000069159360224
 40
0.0000069159360224
 40
0.0005559619023243
 40
0.0005559619023243
 40
0.0005559619023243
 40
0.0005559619023243
 10
801.1159700483717
 20
1082.952713351753
 30
0.0
 10
801.0390464873107
 20
1083.118768995237
 30
0.0
 10
800.9621426450485
 20
1083.284832950822
 30
0.0
 10
800.8852585520506
 20
1083.450905107752
 30
0.0
  0
SPLINE
  5
136
330
1F
100
AcDbEntity
  8
0
  6
Continuous
 62
     7
370
    15
100
AcDbSpline
210
0.0
220
0.0
230
1.0
 70
     8
 71
     3
 72
    20
 73
    16
 74
     0
 42
0.00000001
 43
0.00000001
 12
1.0
 22
0.0
 32
0.0
 13
1.0
 23
0.0
 33
0.0
 40
0.0
 40
0.0
 40
0.0
 40
0.0
 40
0.2500000000000003
 40
0.2500000000000003
 40
0.3750000000000005
 40
0.3750000000000005
 40
0.4375000000000014
 40
0.4375000000000014
 40
0.5000000000000022
 40
0.5000000000000022
 40
0.7500000000000011
 40
0.7500000000000011
 40
0.8750000000000006
 40
0.8750000000000006
 40
1.0
 40
1.0
 40
1.0
 40
1.0
 10
801.2535155080549
 20
859.2973811392212
 30
0.0
 10
800.6266701706069
 20
877.8507242599513
 30
0.0
 10
800.1228516980445
 20
896.443380714968
 30
0.0
 10
799.6048247136117
 20
924.3924715783728
 30
0.0
 10
799.4714588667277
 20
933.7188536760013
 30
0.0
 10
799.3341864605513
 20
947.7236055601397
 30
0.0
 10
799.2988716543861
 20
952.3943860511181
 30
0.0
 10
799.2495183181165
 20
961.7410328621096
 30
0.0
 10
799.2354870414282
 20
966.4170019552218
 30
0.0
 10
799.2190281466804
 20
989.7849788679667
 30
0.0
 10
799.379780939513
 20
1008.460968896774
 30
0.0
 10
799.8632757826715
 20
1036.447734475028
 30
0.0
 10
800.0645311872538
 20
1045.774932575093
 30
0.0
 10
800.5388797974971
 20
1064.388916526922
 30
0.0
 10
800.8120029367476
 20
1073.679089239449
 30
0.0
 10
801.1159700483717
 20
1082.952713351754
 30
0.0
  0
LINE
  5
137
330
1F
100
AcDbEntity
  8
0
  6
Continuous
 62
     7
370
    15
100
AcDbLine
 10
801.2535155081
 20
859.2973811392
 30
0.0
 11
741.0642686055
 21
859.2973811392
 31
0.0
  0
SPLINE
  5
138
330
1F
100
AcDbEntity
  8
0
  6
Continuous
 62
     7
370
    15
100
AcDbSpline
210
0.0
220
0.0
230
1.0
 70
     8
 71
     3
 72
    21
 73
    17
 74
     0
 42
0.00000001
 43
0.00000001
 12
1.0
 22
0.0
 32
0.0
 13
1.0
 23
0.0
 33
0.0
 40
0.0
 40
0.0
 40
0.0
 40
0.0
 40
0.0555038854966618
 40
0.1110174399021885
 40
0.1665427224749318
 40
0.2220818012437768
 40
0.2776367527982734
 40
0.3332096620758477
 40
0.3888026221461878
 40
0.4444177339929218
 40
0.5000571062927105
 40
0.5847879288154317
 40
0.7499683130110345
 40
0.8610167668392356
 40
0.9443889828588538
 40
1.0
 40
1.0
 40
1.0
 40
1.0
 10
672.651827441315
 20
1083.984921104054
 30
0.0
 10
672.5940800349208
 20
1083.993070716222
 30
0.0
 10
672.4785751623971
 20
1084.009371360239
 30
0.0
 10
672.317628752538
 20
1084.032256195432
 30
0.0
 10
672.1656958666941
 20
1084.053976481853
 30
0.0
 10
672.023674684079
 20
1084.074404573565
 30
0.0
 10
671.8913424958517
 20
1084.093554587023
 30
0.0
 10
671.7687764324671
 20
1084.111401128462
 30
0.0
 10
671.6559755120835
 20
1084.127935040653
 30
0.0
 10
671.5529512458507
 20
1084.143121732506
 30
0.0
 10
671.4435134620232
 20
1084.159430834596
 30
0.0
 10
671.2954495204758
 20
1084.181237524446
 30
0.0
 10
671.1680985880688
 20
1084.200063996987
 30
0.0
 10
671.0944339704519
 20
1084.210975035267
 30
0.0
 10
671.0676874001166
 20
1084.21491265748
 30
0.0
 10
671.065245626385
 20
1084.215258461309
 30
0.0
 10
671.0642686055046
 20
1084.215396826939
 30
0.0
  0
SPLINE
  5
139
330
1F
100
AcDbEntity
  8
0
  6
Continuous
 62
     7
370
    15
100
AcDbSpline
210
0.0
220
0.0
230
1.0
 70
     8
 71
     3
 72
    21
 73
    17
 74
     0
 42
0.00000001
 43
0.00000001
 12
1.0
 22
0.0
 32
0.0
 13
1.0
 23
0.0
 33
0.0
 40
0.0
 40
0.0
 40
0.0
 40
0.0
 40
0.0556457249796991
 40
0.1112645765036511
 40
0.1668585832000752
 40
0.2224297743765865
 40
0.2779801798354675
 40
0.3335118296883823
 40
0.389026754170627
 40
0.4445269834550213
 40
0.5000145474655422
 40
0.5845985145177375
 40
0.7500167871465799
 40
0.8608312455667245
 40
0.9441594111764295
 40
0.9999999999999999
 40
0.9999999999999999
 40
0.9999999999999999
 40
0.9999999999999999
 10
677.3788486494476
 20
1083.367791797786
 30
0.0
 10
677.2632690363465
 20
1083.381890648967
 30
0.0
 10
677.0321656279742
 20
1083.410081542451
 30
0.0
 10
676.6976894500516
 20
1083.451396336593
 30
0.0
 10
676.3722373353576
 20
1083.491956274127
 30
0.0
 10
676.0566709063831
 20
1083.531670653897
 30
0.0
 10
675.7507529274197
 20
1083.570534354218
 30
0.0
 10
675.454539827071
 20
1083.608517847654
 30
0.0
 10
675.1680115750825
 20
1083.645603698674
 30
0.0
 10
674.8911604762291
 20
1083.681750506192
 30
0.0
 10
674.5772928307061
 20
1083.72316423996
 30
0.0
 10
674.1091344153236
 20
1083.78516962923
 30
0.0
 10
673.6029633664391
 20
1083.853333622412
 30
0.0
 10
673.1510004540321
 20
1083.915304055635
 30
0.0
 10
672.8608841082324
 20
1083.955562432456
 30
0.0
 10
672.7116904570208
 20
1083.97651429912
 30
0.0
 10
672.651827441315
 20
1083.984921104054
 30
0.0
  0
SPLINE
  5
13A
330
1F
100
AcDbEntity
  8
0
  6
Continuous
 62
     7
370
    15
100
AcDbSpline
210
0.0
220
0.0
230
1.0
 70
     8
 71
     3
 72
     8
 73
     4
 74
     0
 42
0.00000001
 43
0.00000001
 12
1.0
 22
0.0
 32
0.0
 13
1.0
 23
0.0
 33
0.0
 40
0.0
 40
0.0
 40
0.0
 40
0.0
 40
1.0
 40
1.0
 40
1.0
 40
1.0
 10
681.0125671626375
 20
1082.952713351753
 30
0.0
 10
679.6661205074375
 20
1083.096032545709
 30
0.0
 10
678.454935685187
 20
1083.236903568645
 30
0.0
 10
677.3788486494476
 20
1083.367791797786
 30
0.0
  0
LINE
  5
13B
330
1F
100
AcDbEntity
  8
0
  6
Continuous
 62
     7
370
    15
100
AcDbLine
 10
680.875021703
 20
773.1973811392
 30
0.0
 11
680.875021703
 21
859.2973811392
 31
0.0
  0
LINE
  5
13C
330
1F
100
AcDbEntity
  8
0
  6
Continuous
 62
     7
370
    15
100
AcDbLine
 10
677.3674730239
 20
931.1973811392
 30
0.0
 11
677.3674730239
 21
987.1973811392
 31
0.0
  0
LINE
  5
13D
330
1F
100
AcDbEntity
  8
0
  6
Continuous
 62
     7
370
    15
100
AcDbLine
 10
808.587468242
 20
1053.0723811392
 30
0.0
 11
808.587468242
 21
1059.8223811392
 31
0.0
  0
SPLINE
  5
13E
330
1F
100
AcDbEntity
  8
0
  6
Continuous
 62
     7
370
    15
100
AcDbSpline
210
0.0
220
0.0
230
1.0
 70
     8
 71
     3
 72
    10
 73
     6
 74
     0
 42
0.00000001
 43
0.00000001
 12
1.0
 22
0.0
 32
0.0
 13
1.0
 23
0.0
 33
0.0
 40
0.0
 40
0.0
 40
0.0
 40
0.0
 40
0.5
 40
0.5
 40
1.0
 40
1.0
 40
1.0
 40
1.0
 10
808.6383468413383
 20
1052.697381139221
 30
0.0
 10
808.6250400835838
 20
1052.697381139221
 30
0.0
 10
808.6119516822162
 20
1052.737521245162
 30
0.0
 10
808.5930892823043
 20
1052.875520020411
 30
0.0
 10
808.5874682420032
 20
1052.97286552465
 30
0.0
 10
808.5874682420032
 20
1053.07238113922
 30
0.0
  0
SPLINE
  5
13F
330
1F
100
AcDbEntity
  8
0
  6
Continuous
 62
     7
370
    15
100
AcDbSpline
210
0.0
220
0.0
230
1.0
 70
     8
 71
     3
 72
    10
 73
     6
 74
     0
 42
0.00000001
 43
0.00000001
 12
1.0
 22
0.0
 32
0.0
 13
1.0
 23
0.0
 33
0.0
 40
0.0
 40
0.0
 40
0.0
 40
0.0
 40
0.5
 40
0.5
 40
1.0
 40
1.0
 40
1.0
 40
1.0
 10
810.6387259400967
 20
1052.465887426358
 30
0.0
 10
810.6371271770298
 20
1052.534553353113
 30
0.0
 10
810.6344014525939
 20
1052.593194853338
 30
0.0
 10
810.6274756056715
 20
1052.674894477422
 30
0.0
 10
810.6232955173849
 20
1052.697381139221
 30
0.0
 10
810.6190281436475
 20
1052.697381139221
 30
0.0
  0
ELLIPSE
  5
140
330
1F
100
AcDbEntity
  8
0
  6
Continuous
 62
     7
370
    15
100
AcDbEllipse
 10
541.0642686055
 20
1015.8834253213
 30
0.0
 11
0.0
 21
651.8376618407409
 31
0.0
210
0.0
220
0.0
230
1.0
 40
0.4142135624
 41
4.76464421148863
 42
4.768540527591442
  0
SPLINE
  5
141
330
1F
100
AcDbEntity
  8
0
  6
Continuous
 62
     7
370
    15
100
AcDbSpline
210
0.0
220
0.0
230
1.0
 70
     8
 71
     3
 72
    10
 73
     6
 74
     0
 42
0.00000001
 43
0.00000001
 12
1.0
 22
0.0
 32
0.0
 13
1.0
 23
0.0
 33
0.0
 40
0.0
 40
0.0
 40
0.0
 40
0.0
 40
0.5
 40
0.5
 40
1.0
 40
1.0
 40
1.0
 40
1.0
 10
808.5874682420148
 20
1059.822381139221
 30
0.0
 10
808.5874682420148
 20
1059.92188060573
 30
0.0
 10
808.5930771289829
 20
1060.019055153392
 30
0.0
 10
808.6119122529416
 20
1060.15705048722
 30
0.0
 10
808.6250421634605
 20
1060.197381139221
 30
0.0
 10
808.6383468413272
 20
1060.197381139221
 30
0.0
  0
SPLINE
  5
142
330
1F
100
AcDbEntity
  8
0
  6
Continuous
 62
     7
370
    15
100
AcDbSpline
210
0.0
220
0.0
230
1.0
 70
     8
 71
     3
 72
    10
 73
     6
 74
     0
 42
0.00000001
 43
0.00000001
 12
1.0
 22
0.0
 32
0.0
 13
1.0
 23
0.0
 33
0.0
 40
0.0
 40
0.0
 40
0.0
 40
0.0
 40
0.5
 40
0.5
 40
1.0
 40
1.0
 40
1.0
 40
1.0
 10
808.5874682420148
 20
1049.554853463944
 30
0.0
 10
808.5874682420148
 20
1049.654352930453
 30
0.0
 10
808.593077128983
 20
1049.751527478116
 30
0.0
 10
808.6119122529418
 20
1049.889522811943
 30
0.0
 10
808.6250421634605
 20
1049.929853463944
 30
0.0
 10
808.6383468413272
 20
1049.929853463944
 30
0.0
  0
LINE
  5
143
330
1F
100
AcDbEntity
  8
0
  6
Continuous
 62
     7
370
    15
100
AcDbLine
 10
808.587468242
 20
1042.8048534639
 30
0.0
 11
808.587468242
 21
1049.5548534639
 31
0.0
  0
SPLINE
  5
144
330
1F
100
AcDbEntity
  8
0
  6
Continuous
 62
     7
370
    15
100
AcDbSpline
210
0.0
220
0.0
230
1.0
 70
     8
 71
     3
 72
    10
 73
     6
 74
     0
 42
0.00000001
 43
0.00000001
 12
1.0
 22
0.0
 32
0.0
 13
1.0
 23
0.0
 33
0.0
 40
0.0
 40
0.0
 40
0.0
 40
0.0
 40
0.5
 40
0.5
 40
1.0
 40
1.0
 40
1.0
 40
1.0
 10
808.6383468413383
 20
1042.429853463944
 30
0.0
 10
808.6250400835838
 20
1042.429853463945
 30
0.0
 10
808.6119516822162
 20
1042.469993569885
 30
0.0
 10
808.5930892823043
 20
1042.607992345134
 30
0.0
 10
808.5874682420033
 20
1042.705337849373
 30
0.0
 10
808.5874682420032
 20
1042.804853463944
 30
0.0
  0
SPLINE
  5
145
330
1F
100
AcDbEntity
  8
0
  6
Continuous
 62
     7
370
    15
100
AcDbSpline
210
0.0
220
0.0
230
1.0
 70
     8
 71
     3
 72
    10
 73
     6
 74
     0
 42
0.00000001
 43
0.00000001
 12
1.0
 22
0.0
 32
0.0
 13
1.0
 23
0.0
 33
0.0
 40
0.0
 40
0.0
 40
0.0
 40
0.0
 40
0.5
 40
0.5
 40
1.0
 40
1.0
 40
1.0
 40
1.0
 10
809.2365735222671
 20
1041.911347176807
 30
0.0
 10
809.2421263094552
 20
1042.025974485376
 30
0.0
 10
809.2405310628446
 20
1042.161141387165
 30
0.0
 10
809.2244244721875
 20
1042.366283057085
 30
0.0
 10
809.2104121955063
 20
1042.429853463944
 30
0.0
 10
809.1958288907111
 20
1042.429853463944
 30
0.0
  0
ELLIPSE
  5
146
330
1F
100
AcDbEntity
  8
0
  6
Continuous
 62
     7
370
    15
100
AcDbEllipse
 10
541.0642686055
 20
1117.6274460031
 30
0.0
 11
0.0
 21
651.8376618407422
 31
0.0
210
0.0
220
0.0
230
1.0
 40
0.4142135624
 41
4.569363975106453
 42
4.595968260844106
  0
SPLINE
  5
147
330
1F
100
AcDbEntity
  8
0
  6
Continuous
 62
     7
370
    15
100
AcDbSpline
210
0.0
220
0.0
230
1.0
 70
     8
 71
     3
 72
    10
 73
     6
 74
     0
 42
0.00000001
 43
0.00000001
 12
1.0
 22
0.0
 32
0.0
 13
1.0
 23
0.0
 33
0.0
 40
0.0
 40
0.0
 40
0.0
 40
0.0
 40
0.5
 40
0.5
 40
1.0
 40
1.0
 40
1.0
 40
1.0
 10
808.3570556506121
 20
1024.197381139221
 30
0.0
 10
808.3394909593819
 20
1024.197381139221
 30
0.0
 10
808.3224070282446
 20
1024.260650588873
 30
0.0
 10
808.3025984394272
 20
1024.464904191406
 30
0.0
 10
808.3005482661888
 20
1024.60114845327
 30
0.0
 10
808.3073924677918
 20
1024.715887426358
 30
0.0
  0
LINE
  5
148
330
1F
100
AcDbEntity
  8
0
  6
Continuous
 62
     7
370
    15
100
AcDbLine
 10
801.2535155081
 20
773.1973811392
 30
0.0
 11
801.2535155081
 21
859.2973811392
 31
0.0
  0
SPLINE
  5
149
330
1F
100
AcDbEntity
  8
0
  6
Continuous
 62
     7
370
    15
100
AcDbSpline
210
0.0
220
0.0
230
1.0
 70
     8
 71
     3
 72
     8
 73
     4
 74
     0
 42
0.00000001
 43
0.00000001
 12
1.0
 22
0.0
 32
0.0
 13
1.0
 23
0.0
 33
0.0
 40
0.0
 40
0.0
 40
0.0
 40
0.0
 40
1.0
 40
1.0
 40
1.0
 40
1.0
 10
801.1159700483715
 20
1082.952713351753
 30
0.0
 10
802.4624167035715
 20
1083.096032545709
 30
0.0
 10
803.6736015258222
 20
1083.236903568645
 30
0.0
 10
804.7496885615615
 20
1083.367791797786
 30
0.0
  0
SPLINE
  5
14A
330
1F
100
AcDbEntity
  8
0
  6
Continuous
 62
     7
370
    15
100
AcDbSpline
210
0.0
220
0.0
230
1.0
 70
     8
 71
     3
 72
    21
 73
    17
 74
     0
 42
0.00000001
 43
0.00000001
 12
1.0
 22
0.0
 32
0.0
 13
1.0
 23
0.0
 33
0.0
 40
0.0
 40
0.0
 40
0.0
 40
0.0
 40
0.0586556703080709
 40
0.1165366648143981
 40
0.1736429973733405
 40
0.2299746824163267
 40
0.2855317349840356
 40
0.3403141707606762
 40
0.3943220061108824
 40
0.4475552581192077
 40
0.5000139446324797
 40
0.6015734218934466
 40
0.7023516203394631
 40
0.8023486839775416
 40
0.9015647602216208
 40
1.0
 40
1.0
 40
1.0
 40
1.0
 10
804.7496885615615
 20
1083.367791797786
 30
0.0
 10
804.8714665998211
 20
1083.382651004404
 30
0.0
 10
805.1134143322719
 20
1083.412173169472
 30
0.0
 10
805.4606970225981
 20
1083.455130745597
 30
0.0
 10
805.7939114788908
 20
1083.496739200074
 30
0.0
 10
806.1125150778853
 20
1083.536927391764
 30
0.0
 10
806.4171485144772
 20
1083.575713993272
 30
0.0
 10
806.708136320251
 20
1083.61309416455
 30
0.0
 10
806.9858809771835
 20
1083.649068993253
 30
0.0
 10
807.2507573360108
 20
1083.683638903992
 30
0.0
 10
807.5831347942601
 20
1083.727310985708
 30
0.0
 10
807.9713322782852
 20
1083.778795302275
 30
0.0
 10
808.4002712135231
 20
1083.836415846291
 30
0.0
 10
808.7938715233164
 20
1083.889995088707
 30
0.0
 10
809.1556366902774
 20
1083.939872351889
 30
0.0
 10
809.369967653446
 20
1083.969944454037
 30
0.0
 10
809.4767097696941
 20
1083.984921104054
 30
0.0
  0
SPLINE
  5
14B
330
1F
100
AcDbEntity
  8
0
  6
Continuous
 62
     7
370
    15
100
AcDbSpline
210
0.0
220
0.0
230
1.0
 70
     8
 71
     3
 72
    21
 73
    17
 74
     0
 42
0.00000001
 43
0.00000001
 12
1.0
 22
0.0
 32
0.0
 13
1.0
 23
0.0
 33
0.0
 40
0.0
 40
0.0
 40
0.0
 40
0.0
 40
0.0570468701304606
 40
0.1137223992238807
 40
0.1700266213305466
 40
0.2259595711794801
 40
0.2815212841965111
 40
0.3367117965229796
 40
0.3915311450349248
 40
0.4459793673632149
 40
0.5000565019140283
 40
0.6002649490888756
 40
0.7003632677687223
 40
0.8003517122499512
 40
0.9002305376681706
 40
1.0
 40
1.0
 40
1.0
 40
1.0
 10
809.4767097696941
 20
1083.984921104054
 30
0.0
 10
809.5360341598135
 20
1083.993296528864
 30
0.0
 10
809.6542967737213
 20
1084.009992859472
 30
0.0
 10
809.8181897077197
 20
1084.033339757285
 30
0.0
 10
809.9716756047773
 20
1084.055336024726
 30
0.0
 10
810.114023477863
 20
1084.07586790316
 30
0.0
 10
810.2456700307686
 20
1084.094965573447
 30
0.0
 10
810.366741101401
 20
1084.112621038218
 30
0.0
 10
810.4774445093219
 20
1084.128836390638
 30
0.0
 10
810.5779635448836
 20
1084.143611187147
 30
0.0
 10
810.6944432466031
 20
1084.160767212109
 30
0.0
 10
810.815602146527
 20
1084.178629222544
 30
0.0
 10
810.9269620286761
 20
1084.195072969675
 30
0.0
 10
811.0058108879934
 20
1084.20673356049
 30
0.0
 10
811.0551311115083
 20
1084.214040319722
 30
0.0
 10
811.0612238866701
 20
1084.214944823022
 30
0.0
 10
811.0642686055045
 20
1084.215396826939
 30
0.0
  0
LINE
  5
14C
330
1F
100
AcDbEntity
  8
0
  6
Continuous
 62
     7
370
    15
100
AcDbLine
 10
804.7610641871
 20
931.1973811392
 30
0.0
 11
804.7610641871
 21
987.1973811392
 31
0.0
  0
SPLINE
  5
14D
330
1F
100
AcDbEntity
  8
0
  6
Continuous
 62
     7
370
    15
100
AcDbSpline
210
0.0
220
0.0
230
1.0
 70
     8
 71
     3
 72
    12
 73
     8
 74
     0
 42
0.00000001
 43
0.00000001
 12
1.0
 22
0.0
 32
0.0
 13
1.0
 23
0.0
 33
0.0
 40
0.0
 40
0.0
 40
0.0
 40
0.0
 40
0.25
 40
0.25
 40
0.5
 40
0.5
 40
1.0
 40
1.0
 40
1.0
 40
1.0
 10
790.1647075415693
 20
1113.177289488504
 30
0.0
 10
786.1111624195817
 20
1113.282462510381
 30
0.0
 10
782.0363143976618
 20
1113.378886534196
 30
0.0
 10
773.8757528310045
 20
1113.549038378698
 30
0.0
 10
769.7891786333993
 20
1113.622775894984
 30
0.0
 10
757.5106979415261
 20
1113.803455295339
 30
0.0
 10
749.3000229943314
 20
1113.868808268623
 30
0.0
 10
741.0642686055062
 20
1113.868808268623
 30
0.0
  0
SPLINE
  5
14E
330
1F
100
AcDbEntity
  8
0
  6
Continuous
 62
     7
370
    15
100
AcDbSpline
210
0.0
220
0.0
230
1.0
 70
     8
 71
     3
 72
     8
 73
     4
 74
     0
 42
0.00000001
 43
0.00000001
 12
1.0
 22
0.0
 32
0.0
 13
1.0
 23
0.0
 33
0.0
 40
0.0
 40
0.0
 40
0.0
 40
0.0
 40
1.0
 40
1.0
 40
1.0
 40
1.0
 10
800.8852585520505
 20
1083.450905107752
 30
0.0
 10
797.376499241875
 20
1093.398824887013
 30
0.0
 10
793.8035224701952
 20
1103.308893905492
 30
0.0
 10
790.1647075415696
 20
1113.177289488504
 30
0.0
  0
SPLINE
  5
14F
330
1F
100
AcDbEntity
  8
0
  6
Continuous
 62
     7
370
    15
100
AcDbSpline
210
0.0
220
0.0
230
1.0
 70
     8
 71
     3
 72
     8
 73
     4
 74
     0
 42
0.00000001
 43
0.00000001
 12
1.0
 22
0.0
 32
0.0
 13
1.0
 23
0.0
 33
0.0
 40
0.0
 40
0.0
 40
0.0
 40
0.0
 40
1.0
 40
1.0
 40
1.0
 40
1.0
 10
681.2432786589586
 20
1083.450905107752
 30
0.0
 10
684.7520379691342
 20
1093.398824887013
 30
0.0
 10
688.325014740814
 20
1103.308893905492
 30
0.0
 10
691.9638296694396
 20
1113.177289488504
 30
0.0
  0
SPLINE
  5
150
330
1F
100
AcDbEntity
  8
0
  6
Continuous
 62
     7
370
    15
100
AcDbSpline
210
0.0
220
0.0
230
1.0
 70
     8
 71
     3
 72
    12
 73
     8
 74
     0
 42
0.00000001
 43
0.00000001
 12
1.0
 22
0.0
 32
0.0
 13
1.0
 23
0.0
 33
0.0
 40
0.0
 40
0.0
 40
0.0
 40
0.0
 40
0.25
 40
0.25
 40
0.5
 40
0.5
 40
1.0
 40
1.0
 40
1.0
 40
1.0
 10
691.9638296694399
 20
1113.177289488504
 30
0.0
 10
696.0173747914274
 20
1113.282462510381
 30
0.0
 10
700.0922228133472
 20
1113.378886534196
 30
0.0
 10
708.2527843800046
 20
1113.549038378698
 30
0.0
 10
712.3393585776099
 20
1113.622775894984
 30
0.0
 10
724.6178392694829
 20
1113.803455295339
 30
0.0
 10
732.8285142166777
 20
1113.868808268623
 30
0.0
 10
741.0642686055029
 20
1113.868808268623
 30
0.0
  0
SPLINE
  5
151
330
1F
100
AcDbEntity
  8
0
  6
Continuous
 62
     7
370
    15
100
AcDbSpline
210
0.0
220
0.0
230
1.0
 70
     8
 71
     3
 72
    18
 73
    14
 74
     0
 42
0.00000001
 43
0.00000001
 12
1.0
 22
0.0
 32
0.0
 13
1.0
 23
0.0
 33
0.0
 40
0.0
 40
0.0
 40
0.0
 40
0.0
 40
0.2500000000000003
 40
0.2500000000000003
 40
0.3750000000000003
 40
0.3750000000000003
 40
0.5000000000000003
 40
0.5000000000000003
 40
0.7500000000000001
 40
0.7500000000000001
 40
0.8750000000000001
 40
0.8750000000000001
 40
1.0
 40
1.0
 40
1.0
 40
1.0
 10
797.0142686055046
 20
1114.345719060099
 30
0.0
 10
797.0142686055098
 20
1114.3457190601
 30
0.0
 10
796.8723057689559
 20
1114.315888878018
 30
0.0
 10
796.4457638976178
 20
1114.230400770776
 30
0.0
 10
796.2679501869428
 20
1114.195188717039
 30
0.0
 10
795.8406663312057
 20
1114.112637358456
 30
0.0
 10
795.5910489436197
 20
1114.065279743349
 30
0.0
 10
794.735313922921
 20
1113.907462530196
 30
0.0
 10
794.022327833445
 20
1113.781376483576
 30
0.0
 10
792.736714251285
 20
1113.569797985443
 30
0.0
 10
792.2719490256144
 20
1113.495479119275
 30
0.0
 10
791.2714509794151
 20
1113.34072011257
 30
0.0
 10
790.735729022314
 20
1113.260279097284
 30
0.0
 10
790.1647075415694
 20
1113.177289488504
 30
0.0
  0
LINE
  5
152
330
1F
100
AcDbEntity
  8
0
  6
Continuous
 62
     7
370
    15
100
AcDbLine
 10
811.0642686055
 20
1084.2153968269
 30
0.0
 11
797.0142686055
 21
1114.3457190601
 31
0.0
  0
LINE
  5
153
330
1F
100
AcDbEntity
  8
0
  6
Continuous
 62
     7
370
    15
100
AcDbLine
 10
671.0642686055
 20
1084.2153968269
 30
0.0
 11
685.1142686055
 21
1114.3457190601
 31
0.0
  0
SPLINE
  5
154
330
1F
100
AcDbEntity
  8
0
  6
Continuous
 62
     7
370
    15
100
AcDbSpline
210
0.0
220
0.0
230
1.0
 70
     8
 71
     3
 72
    18
 73
    14
 74
     0
 42
0.00000001
 43
0.00000001
 12
1.0
 22
0.0
 32
0.0
 13
1.0
 23
0.0
 33
0.0
 40
0.0
 40
0.0
 40
0.0
 40
0.0
 40
0.2500000000000003
 40
0.2500000000000003
 40
0.3750000000000003
 40
0.3750000000000003
 40
0.5000000000000003
 40
0.5000000000000003
 40
0.7500000000000001
 40
0.7500000000000001
 40
0.8750000000000001
 40
0.8750000000000001
 40
1.0
 40
1.0
 40
1.0
 40
1.0
 10
685.1142686055045
 20
1114.345719060099
 30
0.0
 10
685.1142686054994
 20
1114.3457190601
 30
0.0
 10
685.2562314420531
 20
1114.315888878018
 30
0.0
 10
685.6827733133913
 20
1114.230400770776
 30
0.0
 10
685.8605870240663
 20
1114.195188717039
 30
0.0
 10
686.2878708798033
 20
1114.112637358456
 30
0.0
 10
686.5374882673893
 20
1114.065279743349
 30
0.0
 10
687.393223288088
 20
1113.907462530196
 30
0.0
 10
688.106209377564
 20
1113.781376483576
 30
0.0
 10
689.3918229597241
 20
1113.569797985443
 30
0.0
 10
689.8565881853948
 20
1113.495479119275
 30
0.0
 10
690.857086231594
 20
1113.34072011257
 30
0.0
 10
691.3928081886951
 20
1113.260279097284
 30
0.0
 10
691.9638296694397
 20
1113.177289488504
 30
0.0
  0
LINE
  5
155
330
1F
100
AcDbEntity
  8
0
  6
Continuous
 62
     7
370
    15
100
AcDbLine
 10
778.8554743933
 20
1115.2973811392
 30
0.0
 11
703.2730628178
 21
1115.2973811392
 31
0.0
  0
LINE
  5
156
330
1F
100
AcDbEntity
  8
0
  6
Continuous
 62
     7
370
    15
100
AcDbLine
 10
817.5642686055
 20
987.1973811392
 30
0.0
 11
817.5642686055
 21
931.1973811392
 31
0.0
  0
LINE
  5
157
330
1F
100
AcDbEntity
  8
0
  6
Continuous
 62
     7
370
    15
100
AcDbLine
 10
804.7610641871
 20
931.1973811392
 30
0.0
 11
817.5642686055
 21
931.1973811392
 31
0.0
  0
LINE
  5
158
330
1F
100
AcDbEntity
  8
0
  6
Continuous
 62
     7
370
    15
100
AcDbLine
 10
804.7610641871
 20
987.1973811392
 30
0.0
 11
817.5642686055
 21
987.1973811392
 31
0.0
  0
LINE
  5
159
330
1F
100
AcDbEntity
  8
0
  6
Continuous
 62
     7
370
    15
100
AcDbLine
 10
677.3674730239
 20
987.1973811392
 30
0.0
 11
664.5642686055
 21
987.1973811392
 31
0.0
  0
LINE
  5
15A
330
1F
100
AcDbEntity
  8
0
  6
Continuous
 62
     7
370
    15
100
AcDbLine
 10
677.3674730239
 20
931.1973811392
 30
0.0
 11
664.5642686055
 21
931.1973811392
 31
0.0
  0
LINE
  5
15B
330
1F
100
AcDbEntity
  8
0
  6
Continuous
 62
     7
370
    15
100
AcDbLine
 10
664.5642686055
 20
987.1973811392
 30
0.0
 11
664.5642686055
 21
931.1973811392
 31
0.0
  0
LINE
  5
15C
330
1F
100
AcDbEntity
  8
0
  6
Continuous
 62
     7
370
    15
100
AcDbLine
 10
701.0642686055
 20
1119.0973811392
 30
0.0
 11
781.0642686055
 21
1119.0973811392
 31
0.0
  0
LINE
  5
15D
330
1F
100
AcDbEntity
  8
0
  6
Continuous
 62
     7
370
    15
100
AcDbLine
 10
701.0642686055
 20
1127.0973811392
 30
0.0
 11
781.0642686055
 21
1127.0973811392
 31
0.0
  0
SPLINE
  5
15E
330
1F
100
AcDbEntity
  8
0
  6
Continuous
 62
     7
370
    15
100
AcDbSpline
210
0.0
220
0.0
230
1.0
 70
     8
 71
     3
 72
    10
 73
     6
 74
     0
 42
0.00000001
 43
0.00000001
 12
1.0
 22
0.0
 32
0.0
 13
1.0
 23
0.0
 33
0.0
 40
0.0
 40
0.0
 40
0.0
 40
0.0
 40
0.5
 40
0.5
 40
1.0
 40
1.0
 40
1.0
 40
1.0
 10
812.5104432762005
 20
1049.929853463944
 30
0.0
 10
812.5151859902072
 20
1049.929853463944
 30
0.0
 10
812.5197961308893
 20
1049.907630876925
 30
0.0
 10
812.5275137341146
 20
1049.826172374743
 30
0.0
 10
812.530582076374
 20
1049.767041466692
 30
0.0
 10
812.5323638421813
 20
1049.69835975108
 30
0.0
  0
ELLIPSE
  5
15F
330
1F
100
AcDbEntity
  8
0
  6
Continuous
 62
     7
370
    15
100
AcDbEllipse
 10
541.0642686055
 20
1008.6515269917
 30
0.0
 11
0.0
 21
656.6660889654864
 31
0.0
210
0.0
220
0.0
230
1.0
 40
0.4142135624
 41
4.736854935698428
 42
4.774937679839034
  0
SPLINE
  5
160
330
1F
100
AcDbEntity
  8
0
  6
Continuous
 62
     7
370
    15
100
AcDbSpline
210
0.0
220
0.0
230
1.0
 70
     8
 71
     3
 72
    10
 73
     6
 74
     0
 42
0.00000001
 43
0.00000001
 12
1.0
 22
0.0
 32
0.0
 13
1.0
 23
0.0
 33
0.0
 40
0.0
 40
0.0
 40
0.0
 40
0.0
 40
0.5
 40
0.5
 40
1.0
 40
1.0
 40
1.0
 40
1.0
 10
812.9828653823458
 20
1024.715887426358
 30
0.0
 10
812.9840252036627
 20
1024.601463214991
 30
0.0
 10
812.9837010563597
 20
1024.466737488525
 30
0.0
 10
812.980334865367
 20
1024.26168725275
 30
0.0
 10
812.9773542132808
 20
1024.197381139221
 30
0.0
 10
812.974166492088
 20
1024.197381139221
 30
0.0
  0
LINE
  5
161
330
1F
100
AcDbEntity
  8
0
  6
Continuous
 62
     7
370
    15
100
AcDbLine
 10
812.9741664921
 20
1024.1973811392
 30
0.0
 11
812.6877561036
 21
1024.1973811392
 31
0.0
  0
SPLINE
  5
162
330
1F
100
AcDbEntity
  8
0
  6
Continuous
 62
     7
370
    15
100
AcDbSpline
210
0.0
220
0.0
230
1.0
 70
     8
 71
     3
 72
    10
 73
     6
 74
     0
 42
0.00000001
 43
0.00000001
 12
1.0
 22
0.0
 32
0.0
 13
1.0
 23
0.0
 33
0.0
 40
0.0
 40
0.0
 40
0.0
 40
0.0
 40
0.5
 40
0.5
 40
1.0
 40
1.0
 40
1.0
 40
1.0
 10
812.6877561035808
 20
1024.197381139221
 30
0.0
 10
812.683846472995
 20
1024.197381139221
 30
0.0
 10
812.679986490781
 20
1024.219615888311
 30
0.0
 10
812.6734550409328
 20
1024.301089606522
 30
0.0
 10
812.6708207358504
 20
1024.360215174857
 30
0.0
 10
812.6692864058616
 20
1024.428874852083
 30
0.0
  0
ELLIPSE
  5
163
330
1F
100
AcDbEntity
  8
0
  6
Continuous
 62
     7
370
    15
100
AcDbEllipse
 10
541.0642686055
 20
989.0530825186
 30
0.0
 11
0.0
 21
656.666088965488
 31
0.0
210
0.0
220
0.0
230
1.0
 40
0.4142135624
 41
4.76628688438846
 42
4.77358886214368
  0
SPLINE
  5
164
330
1F
100
AcDbEntity
  8
0
  6
Continuous
 62
     7
370
    15
100
AcDbSpline
210
0.0
220
0.0
230
1.0
 70
     8
 71
     3
 72
    10
 73
     6
 74
     0
 42
0.00000001
 43
0.00000001
 12
1.0
 22
0.0
 32
0.0
 13
1.0
 23
0.0
 33
0.0
 40
0.0
 40
0.0
 40
0.0
 40
0.0
 40
0.5
 40
0.5
 40
1.0
 40
1.0
 40
1.0
 40
1.0
 10
812.5550497003604
 20
1029.215887426358
 30
0.0
 10
812.553306587949
 20
1029.284563873128
 30
0.0
 10
812.5503351500472
 20
1029.343206593956
 30
0.0
 10
812.5427909736719
 20
1029.424900830975
 30
0.0
 10
812.5382404760869
 20
1029.447381139221
 30
0.0
 10
812.5335982884664
 20
1029.447381139221
 30
0.0
  0
LINE
  5
165
330
1F
100
AcDbEntity
  8
0
  6
Continuous
 62
     7
370
    15
100
AcDbLine
 10
812.5335982885
 20
1029.4473811392
 30
0.0
 11
811.6029731462
 21
1029.4473811392
 31
0.0
  0
SPLINE
  5
166
330
1F
100
AcDbEntity
  8
0
  6
Continuous
 62
     7
370
    15
100
AcDbSpline
210
0.0
220
0.0
230
1.0
 70
     8
 71
     3
 72
    10
 73
     6
 74
     0
 42
0.00000001
 43
0.00000001
 12
1.0
 22
0.0
 32
0.0
 13
1.0
 23
0.0
 33
0.0
 40
0.0
 40
0.0
 40
0.0
 40
0.0
 40
0.5
 40
0.5
 40
1.0
 40
1.0
 40
1.0
 40
1.0
 10
811.6029731462228
 20
1029.447381139221
 30
0.0
 10
811.5952583838206
 20
1029.447381139221
 30
0.0
 10
811.5876704273172
 20
1029.425212471278
 30
0.0
 10
811.5748553138661
 20
1029.343840421395
 30
0.0
 10
811.5696939793548
 20
1029.284692582756
 30
0.0
 10
811.5666908802168
 20
1029.215887426358
 30
0.0
  0
ELLIPSE
  5
167
330
1F
100
AcDbEntity
  8
0
  6
Continuous
 62
     7
370
    15
100
AcDbEllipse
 10
541.0642686055
 20
1098.0290015299
 30
0.0
 11
0.0
 21
656.6660889654902
 31
0.0
210
0.0
220
0.0
230
1.0
 40
0.4142135624
 41
4.600071467750491
 42
4.607404598707366
  0
SPLINE
  5
168
330
1F
100
AcDbEntity
  8
0
  6
Continuous
 62
     7
370
    15
100
AcDbSpline
210
0.0
220
0.0
230
1.0
 70
     8
 71
     3
 72
    10
 73
     6
 74
     0
 42
0.00000001
 43
0.00000001
 12
1.0
 22
0.0
 32
0.0
 13
1.0
 23
0.0
 33
0.0
 40
0.0
 40
0.0
 40
0.0
 40
0.0
 40
0.5
 40
0.5
 40
1.0
 40
1.0
 40
1.0
 40
1.0
 10
811.3504010621165
 20
1024.428874852084
 30
0.0
 10
811.3471851360976
 20
1024.36004091315
 30
0.0
 10
811.3417063266476
 20
1024.301380639359
 30
0.0
 10
811.3278654193954
 20
1024.219767143129
 30
0.0
 10
811.319550884929
 20
1024.197381139222
 30
0.0
 10
811.3110987544942
 20
1024.197381139221
 30
0.0
  0
LINE
  5
169
330
1F
100
AcDbEntity
  8
0
  6
Continuous
 62
     7
370
    15
100
AcDbLine
 10
811.3110987545
 20
1024.1973811392
 30
0.0
 11
810.3771609934
 21
1024.1973811392
 31
0.0
  0
SPLINE
  5
16A
330
1F
100
AcDbEntity
  8
0
  6
Continuous
 62
     7
370
    15
100
AcDbSpline
210
0.0
220
0.0
230
1.0
 70
     8
 71
     3
 72
    10
 73
     6
 74
     0
 42
0.00000001
 43
0.00000001
 12
1.0
 22
0.0
 32
0.0
 13
1.0
 23
0.0
 33
0.0
 40
0.0
 40
0.0
 40
0.0
 40
0.0
 40
0.5
 40
0.5
 40
1.0
 40
1.0
 40
1.0
 40
1.0
 10
810.3771609934132
 20
1024.197381139221
 30
0.0
 10
810.3597265125768
 20
1024.197381139221
 30
0.0
 10
810.3427701585678
 20
1024.260661743085
 30
0.0
 10
810.3231114637584
 20
1024.464924419341
 30
0.0
 10
810.3210778419633
 20
1024.601153284163
 30
0.0
 10
810.3278704006112
 20
1024.715887426358
 30
0.0
  0
ELLIPSE
  5
16B
330
1F
100
AcDbEntity
  8
0
  6
Continuous
 62
     7
370
    15
100
AcDbEllipse
 10
541.0642686055
 20
1117.6274460031
 30
0.0
 11
0.0
 21
656.6660889654888
 31
0.0
210
0.0
220
0.0
230
1.0
 40
0.4142135624
 41
4.570422779133731
 42
4.596828141003204
  0
SPLINE
  5
16C
330
1F
100
AcDbEntity
  8
0
  6
Continuous
 62
     7
370
    15
100
AcDbSpline
210
0.0
220
0.0
230
1.0
 70
     8
 71
     3
 72
    10
 73
     6
 74
     0
 42
0.00000001
 43
0.00000001
 12
1.0
 22
0.0
 32
0.0
 13
1.0
 23
0.0
 33
0.0
 40
0.0
 40
0.0
 40
0.0
 40
0.0
 40
0.5
 40
0.5
 40
1.0
 40
1.0
 40
1.0
 40
1.0
 10
811.2501030313106
 20
1041.911347176807
 30
0.0
 10
811.2556142852702
 20
1042.025971330138
 30
0.0
 10
811.254031259653
 20
1042.161131394533
 30
0.0
 10
811.2380460110203
 20
1042.366271615013
 30
0.0
 10
811.2241375861845
 20
1042.429853463944
 30
0.0
 10
811.2096620901601
 20
1042.429853463944
 30
0.0
  0
LINE
  5
16D
330
1F
100
AcDbEntity
  8
0
  6
Continuous
 62
     7
370
    15
100
AcDbLine
 10
811.2096620902
 20
1042.4298534639
 30
0.0
 11
810.6563444233
 21
1042.4298534639
 31
0.0
  0
SPLINE
  5
16E
330
1F
100
AcDbEntity
  8
0
  6
Continuous
 62
     7
370
    15
100
AcDbSpline
210
0.0
220
0.0
230
1.0
 70
     8
 71
     3
 72
    10
 73
     6
 74
     0
 42
0.00000001
 43
0.00000001
 12
1.0
 22
0.0
 32
0.0
 13
1.0
 23
0.0
 33
0.0
 40
0.0
 40
0.0
 40
0.0
 40
0.0
 40
0.5
 40
0.5
 40
1.0
 40
1.0
 40
1.0
 40
1.0
 10
810.6563444233152
 20
1042.429853463944
 30
0.0
 10
810.643136396393
 20
1042.429853463945
 30
0.0
 10
810.6301452921189
 20
1042.470000506614
 30
0.0
 10
810.611424848329
 20
1042.608003147629
 30
0.0
 10
810.6058467409565
 20
1042.705344919421
 30
0.0
 10
810.6058467409565
 20
1042.804853463944
 30
0.0
  0
LINE
  5
16F
330
1F
100
AcDbEntity
  8
0
  6
Continuous
 62
     7
370
    15
100
AcDbLine
 10
810.605846741
 20
1042.8048534639
 30
0.0
 11
810.6058467409
 21
1049.5548534639
 31
0.0
  0
SPLINE
  5
170
330
1F
100
AcDbEntity
  8
0
  6
Continuous
 62
     7
370
    15
100
AcDbSpline
210
0.0
220
0.0
230
1.0
 70
     8
 71
     3
 72
    10
 73
     6
 74
     0
 42
0.00000001
 43
0.00000001
 12
1.0
 22
0.0
 32
0.0
 13
1.0
 23
0.0
 33
0.0
 40
0.0
 40
0.0
 40
0.0
 40
0.0
 40
0.5
 40
0.5
 40
1.0
 40
1.0
 40
1.0
 40
1.0
 10
810.605846740968
 20
1049.554853463944
 30
0.0
 10
810.605846740968
 20
1049.654346106016
 30
0.0
 10
810.6114126830856
 20
1049.751515903596
 30
0.0
 10
810.6301062608667
 20
1049.889516621128
 30
0.0
 10
810.6431384308727
 20
1049.929853463945
 30
0.0
 10
810.6563444233042
 20
1049.929853463944
 30
0.0
  0
LINE
  5
171
330
1F
100
AcDbEntity
  8
0
  6
Continuous
 62
     7
370
    15
100
AcDbLine
 10
810.6563444233
 20
1049.9298534639
 30
0.0
 11
812.5104432762
 21
1049.9298534639
 31
0.0
  0
LINE
  5
172
330
1F
100
AcDbEntity
  8
0
  6
Continuous
 62
     7
370
    15
100
AcDbLine
 10
812.3156358055
 20
1036.3848811392
 30
0.0
 11
811.9154622011
 21
1036.3848811392
 31
0.0
  0
SPLINE
  5
173
330
1F
100
AcDbEntity
  8
0
  6
Continuous
 62
     7
370
    15
100
AcDbSpline
210
0.0
220
0.0
230
1.0
 70
     8
 71
     3
 72
    10
 73
     6
 74
     0
 42
0.00000001
 43
0.00000001
 12
1.0
 22
0.0
 32
0.0
 13
1.0
 23
0.0
 33
0.0
 40
0.0
 40
0.0
 40
0.0
 40
0.0
 40
0.5
 40
0.5
 40
1.0
 40
1.0
 40
1.0
 40
1.0
 10
812.3411711939455
 20
1036.903387426358
 30
0.0
 10
812.3446363273664
 20
1036.78888902039
 30
0.0
 10
812.3436507144504
 20
1036.654002377788
 30
0.0
 10
812.33361544876
 20
1036.448919102048
 30
0.0
 10
812.3248274101619
 20
1036.384881139221
 30
0.0
 10
812.3156358054422
 20
1036.384881139221
 30
0.0
  0
ELLIPSE
  5
174
330
1F
100
AcDbEntity
  8
0
  6
Continuous
 62
     7
370
    15
100
AcDbEllipse
 10
541.0642686055
 20
989.0530825186
 30
0.0
 11
0.0
 21
656.6660889654803
 31
0.0
210
0.0
220
0.0
230
1.0
 40
0.4142135624
 41
4.785322170241271
 42
4.794183084165946
  0
SPLINE
  5
175
330
1F
100
AcDbEntity
  8
0
  6
Continuous
 62
     7
370
    15
100
AcDbSpline
210
0.0
220
0.0
230
1.0
 70
     8
 71
     3
 72
    14
 73
    10
 74
     0
 42
0.00000001
 43
0.00000001
 12
1.0
 22
0.0
 32
0.0
 13
1.0
 23
0.0
 33
0.0
 40
0.0
 40
0.0
 40
0.0
 40
0.0
 40
0.25
 40
0.25
 40
0.5
 40
0.5
 40
0.75
 40
0.75
 40
1.0
 40
1.0
 40
1.0
 40
1.0
 10
812.097203977874
 20
1042.704626087717
 30
0.0
 10
812.099613386659
 20
1042.77342275639
 30
0.0
 10
812.1037123321879
 20
1042.832114249469
 30
0.0
 10
812.1139886720471
 20
1042.913793070905
 30
0.0
 10
812.1201780014435
 20
1042.936115011181
 30
0.0
 10
812.1323660918364
 20
1042.936124588374
 30
0.0
 10
812.138486086136
 20
1042.913835892613
 30
0.0
 10
812.1485795286334
 20
1042.832131429434
 30
0.0
 10
812.1525621855279
 20
1042.773424803155
 30
0.0
 10
812.1548983137372
 20
1042.704626087716
 30
0.0
  0
ELLIPSE
  5
176
330
1F
100
AcDbEntity
  8
0
  6
Continuous
 62
     7
370
    15
100
AcDbEllipse
 10
541.0642686055
 20
1098.0290015299
 30
0.0
 11
0.0
 21
656.6660889654831
 31
0.0
210
0.0
220
0.0
230
1.0
 40
0.4142135624
 41
4.619169253660299
 42
4.628038598600885
  0
SPLINE
  5
177
330
1F
100
AcDbEntity
  8
0
  6
Continuous
 62
     7
370
    15
100
AcDbSpline
210
0.0
220
0.0
230
1.0
 70
     8
 71
     3
 72
    10
 73
     6
 74
     0
 42
0.00000001
 43
0.00000001
 12
1.0
 22
0.0
 32
0.0
 13
1.0
 23
0.0
 33
0.0
 40
0.0
 40
0.0
 40
0.0
 40
0.0
 40
0.5
 40
0.5
 40
1.0
 40
1.0
 40
1.0
 40
1.0
 10
811.915462201123
 20
1036.384881139221
 30
0.0
 10
811.9040726735558
 20
1036.384881139221
 30
0.0
 10
811.8929844047134
 20
1036.448587682468
 30
0.0
 10
811.880162957871
 20
1036.653194989528
 30
0.0
 10
811.878859437107
 20
1036.788836949775
 30
0.0
 10
811.8832954172348
 20
1036.903387426358
 30
0.0
  0
LINE
  5
178
330
1F
100
AcDbEntity
  8
0
  6
Continuous
 62
     7
370
    15
100
AcDbLine
 10
808.3570556506
 20
1024.1973811392
 30
0.0
 11
810.3771609934
 21
1024.1973811392
 31
0.0
  0
LINE
  5
179
330
1F
100
AcDbEntity
  8
0
  6
Continuous
 62
     7
370
    15
100
AcDbLine
 10
808.6383468413
 20
1049.9298534639
 30
0.0
 11
810.6563444233
 21
1049.9298534639
 31
0.0
  0
LINE
  5
17A
330
1F
100
AcDbEntity
  8
0
  6
Continuous
 62
     7
370
    15
100
AcDbLine
 10
808.6383468413
 20
1042.4298534639
 30
0.0
 11
810.6563444233
 21
1042.4298534639
 31
0.0
  0
LINE
  5
17B
330
1F
100
AcDbEntity
  8
0
  6
Continuous
 62
     7
370
    15
100
AcDbLine
 10
810.6563444233
 20
1060.1973811392
 30
0.0
 11
812.8619883363
 21
1060.1973811392
 31
0.0
  0
SPLINE
  5
17C
330
1F
100
AcDbEntity
  8
0
  6
Continuous
 62
     7
370
    15
100
AcDbSpline
210
0.0
220
0.0
230
1.0
 70
     8
 71
     3
 72
    10
 73
     6
 74
     0
 42
0.00000001
 43
0.00000001
 12
1.0
 22
0.0
 32
0.0
 13
1.0
 23
0.0
 33
0.0
 40
0.0
 40
0.0
 40
0.0
 40
0.0
 40
0.5
 40
0.5
 40
1.0
 40
1.0
 40
1.0
 40
1.0
 10
812.8619883362555
 20
1060.197381139221
 30
0.0
 10
812.8648531482379
 20
1060.197381139221
 30
0.0
 10
812.8676245061497
 20
1060.175136652842
 30
0.0
 10
812.8722472220993
 20
1060.093645661312
 30
0.0
 10
812.874075378922
 20
1060.034522751323
 30
0.0
 10
812.8751361268461
 20
1059.965887426357
 30
0.0
  0
ELLIPSE
  5
17D
330
1F
100
AcDbEntity
  8
0
  6
Continuous
 62
     7
370
    15
100
AcDbEllipse
 10
541.0642686055
 20
1035.4818697944
 30
0.0
 11
0.0
 21
656.6660889654879
 31
0.0
210
0.0
220
0.0
230
1.0
 40
0.4142135624
 41
4.713662711702242
 42
4.749682963625024
  0
SPLINE
  5
17E
330
1F
100
AcDbEntity
  8
0
  6
Continuous
 62
     7
370
    15
100
AcDbSpline
210
0.0
220
0.0
230
1.0
 70
     8
 71
     3
 72
    11
 73
     7
 74
     0
 42
0.00000001
 43
0.00000001
 12
1.0
 22
0.0
 32
0.0
 13
1.0
 23
0.0
 33
0.0
 40
0.0
 40
0.0
 40
0.0
 40
0.0
 40
0.2863615588630049
 40
0.572723114568417
 40
0.8590846982723911
 40
0.9999999999999999
 40
0.9999999999999999
 40
0.9999999999999999
 40
0.9999999999999999
 10
813.064047960306
 20
1036.318285730947
 30
0.0
 10
813.0640728065667
 20
1036.280797165602
 30
0.0
 10
813.0641224990882
 20
1036.205820035325
 30
0.0
 10
813.0642125282243
 20
1036.128615280068
 30
0.0
 10
813.064267022901
 20
1036.087852614017
 30
0.0
 10
813.0642627353759
 20
1036.091056581908
 30
0.0
 10
813.0642613213562
 20
1036.092113245906
 30
0.0
  0
LINE
  5
17F
330
1F
100
AcDbEntity
  8
0
  6
Continuous
 62
     7
370
    15
100
AcDbLine
 10
813.0642686055
 20
1024.1973811392
 30
0.0
 11
813.0455245065
 21
1024.1973811392
 31
0.0
  0
SPLINE
  5
180
330
1F
100
AcDbEntity
  8
0
  6
Continuous
 62
     7
370
    15
100
AcDbSpline
210
0.0
220
0.0
230
1.0
 70
     8
 71
     3
 72
    10
 73
     6
 74
     0
 42
0.00000001
 43
0.00000001
 12
1.0
 22
0.0
 32
0.0
 13
1.0
 23
0.0
 33
0.0
 40
0.0
 40
0.0
 40
0.0
 40
0.0
 40
0.5
 40
0.5
 40
1.0
 40
1.0
 40
1.0
 40
1.0
 10
813.0455245064709
 20
1024.197381139221
 30
0.0
 10
813.0446526548641
 20
1024.197381139221
 30
0.0
 10
813.0437664846471
 20
1024.219637464235
 30
0.0
 10
813.0422380013996
 20
1024.301144998004
 30
0.0
 10
813.0416061418915
 20
1024.360263207152
 30
0.0
 10
813.0412362717726
 20
1024.428874852084
 30
0.0
  0
ELLIPSE
  5
181
330
1F
100
AcDbEntity
  8
0
  6
Continuous
 62
     7
370
    15
100
AcDbEllipse
 10
541.0642686055
 20
1015.8834253213
 30
0.0
 11
0.0
 21
656.6660889654869
 31
0.0
210
0.0
220
0.0
230
1.0
 40
0.4142135624
 41
4.725402734080174
 42
4.768127218873844
  0
SPLINE
  5
182
330
1F
100
AcDbEntity
  8
0
  6
Continuous
 62
     7
370
    15
100
AcDbSpline
210
0.0
220
0.0
230
1.0
 70
     8
 71
     3
 72
    10
 73
     6
 74
     0
 42
0.00000001
 43
0.00000001
 12
1.0
 22
0.0
 32
0.0
 13
1.0
 23
0.0
 33
0.0
 40
0.0
 40
0.0
 40
0.0
 40
0.0
 40
0.5
 40
0.5
 40
1.0
 40
1.0
 40
1.0
 40
1.0
 10
812.641859815162
 20
1052.465887426358
 30
0.0
 10
812.6402728637584
 20
1052.534552517212
 30
0.0
 10
812.6375672778107
 20
1052.593193913879
 30
0.0
 10
812.630692534693
 20
1052.674893964345
 30
0.0
 10
812.6265432509904
 20
1052.697381139221
 30
0.0
 10
812.622307318532
 20
1052.697381139221
 30
0.0
  0
LINE
  5
183
330
1F
100
AcDbEntity
  8
0
  6
Continuous
 62
     7
370
    15
100
AcDbLine
 10
812.6223073185
 20
1052.6973811392
 30
0.0
 11
810.6563444233
 21
1052.6973811392
 31
0.0
  0
SPLINE
  5
184
330
1F
100
AcDbEntity
  8
0
  6
Continuous
 62
     7
370
    15
100
AcDbSpline
210
0.0
220
0.0
230
1.0
 70
     8
 71
     3
 72
    10
 73
     6
 74
     0
 42
0.00000001
 43
0.00000001
 12
1.0
 22
0.0
 32
0.0
 13
1.0
 23
0.0
 33
0.0
 40
0.0
 40
0.0
 40
0.0
 40
0.0
 40
0.5
 40
0.5
 40
1.0
 40
1.0
 40
1.0
 40
1.0
 10
810.6563444233152
 20
1052.697381139221
 30
0.0
 10
810.643136396393
 20
1052.697381139221
 30
0.0
 10
810.6301452921189
 20
1052.737528181891
 30
0.0
 10
810.611424848329
 20
1052.875530822906
 30
0.0
 10
810.6058467409565
 20
1052.972872594698
 30
0.0
 10
810.6058467409565
 20
1053.07238113922
 30
0.0
  0
LINE
  5
185
330
1F
100
AcDbEntity
  8
0
  6
Continuous
 62
     7
370
    15
100
AcDbLine
 10
810.605846741
 20
1053.0723811392
 30
0.0
 11
810.6058467409
 21
1059.8223811392
 31
0.0
  0
SPLINE
  5
186
330
1F
100
AcDbEntity
  8
0
  6
Continuous
 62
     7
370
    15
100
AcDbSpline
210
0.0
220
0.0
230
1.0
 70
     8
 71
     3
 72
    10
 73
     6
 74
     0
 42
0.00000001
 43
0.00000001
 12
1.0
 22
0.0
 32
0.0
 13
1.0
 23
0.0
 33
0.0
 40
0.0
 40
0.0
 40
0.0
 40
0.0
 40
0.5
 40
0.5
 40
1.0
 40
1.0
 40
1.0
 40
1.0
 10
810.605846740968
 20
1059.822381139221
 30
0.0
 10
810.605846740968
 20
1059.921873781292
 30
0.0
 10
810.6114126830856
 20
1060.019043578872
 30
0.0
 10
810.6301062608666
 20
1060.157044296404
 30
0.0
 10
810.6431384308728
 20
1060.197381139222
 30
0.0
 10
810.6563444233042
 20
1060.197381139221
 30
0.0
  0
LINE
  5
187
330
1F
100
AcDbEntity
  8
0
  6
Continuous
 62
     7
370
    15
100
AcDbLine
 10
808.6383468413
 20
1052.6973811392
 30
0.0
 11
810.6563444233
 21
1052.6973811392
 31
0.0
  0
LINE
  5
188
330
1F
100
AcDbEntity
  8
0
  6
Continuous
 62
     7
370
    15
100
AcDbLine
 10
808.6383468413
 20
1060.1973811392
 30
0.0
 11
810.6563444233
 21
1060.1973811392
 31
0.0
  0
LINE
  5
189
330
1F
100
AcDbEntity
  8
0
  6
Continuous
 62
     7
370
    15
100
AcDbLine
 10
774.0642686055
 20
326.0527845814
 30
0.0
 11
774.0642686055
 21
273.5527845814
 31
0.0
  0
LINE
  5
18A
330
1F
100
AcDbEntity
  8
0
  6
Continuous
 62
     7
370
    15
100
AcDbLine
 10
774.0642686055
 20
326.0527845814
 30
0.0
 11
774.9284040173
 21
326.0527845814
 31
0.0
  0
LINE
  5
18B
330
1F
100
AcDbEntity
  8
0
  6
Continuous
 62
     7
370
    15
100
AcDbLine
 10
774.9284040173
 20
326.0527845814
 30
0.0
 11
774.9284040173
 21
273.5527845814
 31
0.0
  0
LINE
  5
18C
330
1F
100
AcDbEntity
  8
0
  6
Continuous
 62
     7
370
    15
100
AcDbLine
 10
774.0642686055
 20
273.5527845814
 30
0.0
 11
774.9284040173
 21
273.5527845814
 31
0.0
  0
LINE
  5
18D
330
1F
100
AcDbEntity
  8
0
  6
Continuous
 62
     7
370
    15
100
AcDbLine
 10
708.0642686055
 20
326.0527845814
 30
0.0
 11
708.0642686055
 21
273.5527845814
 31
0.0
  0
LINE
  5
18E
330
1F
100
AcDbEntity
  8
0
  6
Continuous
 62
     7
370
    15
100
AcDbLine
 10
708.0642686055
 20
326.0527845814
 30
0.0
 11
774.0642686055
 21
326.0527845814
 31
0.0
  0
LINE
  5
18F
330
1F
100
AcDbEntity
  8
0
  6
Continuous
 62
     7
370
    15
100
AcDbLine
 10
708.0642686055
 20
273.5527845814
 30
0.0
 11
774.0642686055
 21
273.5527845814
 31
0.0
  0
LINE
  5
190
330
1F
100
AcDbEntity
  8
0
  6
Continuous
 62
     7
370
    15
100
AcDbLine
 10
707.3965276055
 20
273.5527845814
 30
0.0
 11
708.0642686055
 21
273.5527845814
 31
0.0
  0
LINE
  5
191
330
1F
100
AcDbEntity
  8
0
  6
Continuous
 62
     7
370
    15
100
AcDbLine
 10
707.3965276055
 20
273.5527845814
 30
0.0
 11
707.3965276055
 21
326.0527845814
 31
0.0
  0
LINE
  5
192
330
1F
100
AcDbEntity
  8
0
  6
Continuous
 62
     7
370
    15
100
AcDbLine
 10
707.3965276055
 20
326.0527845814
 30
0.0
 11
708.0642686055
 21
326.0527845814
 31
0.0
  0
LINE
  5
193
330
1F
100
AcDbEntity
  8
0
  6
Continuous
 62
     7
370
    15
100
AcDbLine
 10
712.3310628016
 20
381.0527845814
 30
0.0
 11
713.0642686055
 21
381.0527845814
 31
0.0
  0
LINE
  5
194
330
1F
100
AcDbEntity
  8
0
  6
Continuous
 62
     7
370
    15
100
AcDbLine
 10
713.0642686055
 20
326.0527845814
 30
0.0
 11
713.0642686055
 21
381.0527845814
 31
0.0
  0
LINE
  5
195
330
1F
100
AcDbEntity
  8
0
  6
Continuous
 62
     7
370
    15
100
AcDbLine
 10
712.3310628016
 20
326.0527845814
 30
0.0
 11
712.3310628016
 21
381.0527845814
 31
0.0
  0
LINE
  5
196
330
1F
100
AcDbEntity
  8
0
  6
Continuous
 62
     7
370
    15
100
AcDbLine
 10
713.0642686055
 20
381.0527845814
 30
0.0
 11
769.0642686055
 21
381.0527845814
 31
0.0
  0
LINE
  5
197
330
1F
100
AcDbEntity
  8
0
  6
Continuous
 62
     7
370
    15
100
AcDbLine
 10
769.0642686055
 20
326.0527845814
 30
0.0
 11
769.0642686055
 21
381.0527845814
 31
0.0
  0
LINE
  5
198
330
1F
100
AcDbEntity
  8
0
  6
Continuous
 62
     7
370
    15
100
AcDbLine
 10
769.7974744094
 20
326.0527845814
 30
0.0
 11
769.7974744094
 21
381.0527845814
 31
0.0
  0
LINE
  5
199
330
1F
100
AcDbEntity
  8
0
  6
Continuous
 62
     7
370
    15
100
AcDbLine
 10
769.0642686055
 20
381.0527845814
 30
0.0
 11
769.7974744094
 21
381.0527845814
 31
0.0
  0
LINE
  5
19A
330
1F
100
AcDbEntity
  8
0
  6
Continuous
 62
     7
370
    15
100
AcDbLine
 10
756.2312686055
 20
1153.7973811392
 30
0.0
 11
725.8972686055
 21
1153.7973811392
 31
0.0
  0
LINE
  5
19B
330
1F
100
AcDbEntity
  8
0
  6
Continuous
 62
     7
370
    15
100
AcDbLine
 10
756.9304327114
 20
1127.0973811392
 30
0.0
 11
756.2312686055
 21
1153.7973811392
 31
0.0
  0
LINE
  5
19C
330
1F
100
AcDbEntity
  8
0
  6
Continuous
 62
     7
370
    15
100
AcDbLine
 10
725.1981044996
 20
1127.0973811392
 30
0.0
 11
725.8972686055
 21
1153.7973811392
 31
0.0
  0
LINE
  5
19D
330
1F
100
AcDbEntity
  8
0
  6
Continuous
 62
     7
370
    15
100
AcDbLine
 10
811.3110987545
 20
1024.1973811392
 30
0.0
 11
812.6877561036
 21
1024.1973811392
 31
0.0
  0
LINE
  5
19E
330
1F
100
AcDbEntity
  8
0
  6
Continuous
 62
     7
370
    15
100
AcDbLine
 10
728.5642686055
 20
754.1973811392
 30
0.0
 11
728.5642686055
 21
381.0527845814
 31
0.0
  0
LINE
  5
19F
330
1F
100
AcDbEntity
  8
0
  6
Continuous
 62
     7
370
    15
100
AcDbLine
 10
753.5642686055
 20
754.1973811392
 30
0.0
 11
753.5642686055
 21
381.0527845814
 31
0.0
  0
LINE
  5
1A0
330
1F
100
AcDbEntity
  8
0
  6
Continuous
 62
     7
370
    15
100
AcDbLine
 10
705.2606630173
 20
326.0527845814
 30
0.0
 11
705.2606630173
 21
273.5527845814
 31
0.0
  0
LINE
  5
1A1
330
1F
100
AcDbEntity
  8
0
  6
Continuous
 62
     7
370
    15
100
AcDbLine
 10
705.2606630173
 20
273.5527845814
 30
0.0
 11
707.3965276055
 21
273.5527845814
 31
0.0
  0
LINE
  5
1A2
330
1F
100
AcDbEntity
  8
0
  6
Continuous
 62
     7
370
    15
100
AcDbLine
 10
707.3965276055
 20
326.0527845814
 30
0.0
 11
705.2606630173
 21
326.0527845814
 31
0.0
  0
LINE
  5
1A3
330
1F
100
AcDbEntity
  8
0
  6
Continuous
 62
     7
370
    15
100
AcDbLine
 10
705.0642686055
 20
326.0527845814
 30
0.0
 11
705.0642686055
 21
273.5527845814
 31
0.0
  0
LINE
  5
1A4
330
1F
100
AcDbEntity
  8
0
  6
Continuous
 62
     7
370
    15
100
AcDbLine
 10
705.2606630173
 20
273.5527845814
 30
0.0
 11
705.0642686055
 21
273.5527845814
 31
0.0
  0
LINE
  5
1A5
330
1F
100
AcDbEntity
  8
0
  6
Continuous
 62
     7
370
    15
100
AcDbLine
 10
705.2606630173
 20
326.0527845814
 30
0.0
 11
705.0642686055
 21
326.0527845814
 31
0.0
  0
LINE
  5
1A6
330
1F
100
AcDbEntity
  8
0
  6
Continuous
 62
     7
370
    15
100
AcDbLine
 10
812.9741664921
 20
1024.1973811392
 30
0.0
 11
813.0455245065
 21
1024.1973811392
 31
0.0
  0
LINE
  5
1A7
330
1F
100
AcDbEntity
  8
0
  6
Continuous
 62
     7
370
    15
100
AcDbLine
 10
699.9013177016
 20
1127.0973811392
 30
0.0
 11
701.0642686055
 21
1127.0973811392
 31
0.0
  0
LINE
  5
1A8
330
1F
100
AcDbEntity
  8
0
  6
Continuous
 62
     7
370
    15
100
AcDbLine
 10
699.9013177016
 20
1119.0973811392
 30
0.0
 11
701.0642686055
 21
1119.0973811392
 31
0.0
  0
SPLINE
  5
1A9
330
1F
100
AcDbEntity
  8
0
  6
Continuous
 62
     8
370
     0
100
AcDbSpline
210
0.0
220
0.0
230
1.0
 70
    24
 71
     3
 72
     8
 73
     4
 74
     0
 42
0.00000001
 43
0.00000001
 12
1.0
 22
0.0
 32
0.0
 13
1.0
 23
0.0
 33
0.0
 40
0.0
 40
0.0
 40
0.0
 40
0.0
 40
1.0
 40
1.0
 40
1.0
 40
1.0
 10
741.0642686055046
 20
933.6973811392211
 30
0.0
 10
741.0642686055046
 20
908.8005044263248
 30
0.0
 10
741.0642686055046
 20
883.9660268064903
 30
0.0
 10
741.0642686055046
 20
859.2973811392212
 30
0.0
  0
SPLINE
  5
1AA
330
1F
100
AcDbEntity
  8
0
  6
Continuous
 62
     8
370
     0
100
AcDbSpline
210
0.0
220
0.0
230
1.0
 70
    24
 71
     3
 72
     8
 73
     4
 74
     0
 42
0.00000001
 43
0.00000001
 12
1.0
 22
0.0
 32
0.0
 13
1.0
 23
0.0
 33
0.0
 40
0.0
 40
0.0
 40
0.0
 40
0.0
 40
1.0
 40
1.0
 40
1.0
 40
1.0
 10
741.0642686055046
 20
1084.223894928369
 30
0.0
 10
741.0642686055046
 20
1051.227949629316
 30
0.0
 10
741.0642686055046
 20
1017.970693498643
 30
0.0
 10
741.0642686055046
 20
984.6973811392209
 30
0.0
  0
LINE
  5
1AB
330
1F
100
AcDbEntity
  8
0
  6
Continuous
 62
     8
370
     0
100
AcDbLine
 10
741.0642686055
 20
1113.8688082686
 30
0.0
 11
741.0642686055
 21
1084.2238949284
 31
0.0
  0
LINE
  5
1AC
330
1F
100
AcDbEntity
  8
0
  6
Continuous
 62
     8
370
     0
100
AcDbLine
 10
808.3073924677
 20
1024.7158874264
 30
0.0
 11
810.3278704005
 21
1024.7158874264
 31
0.0
  0
LINE
  5
1AD
330
1F
100
AcDbEntity
  8
0
  6
Continuous
 62
     8
370
     0
100
AcDbLine
 10
809.2365735223
 20
1041.9113471768
 30
0.0
 11
811.2501030313
 21
1041.9113471768
 31
0.0
  0
LINE
  5
1AE
330
1F
100
AcDbEntity
  8
0
  6
Continuous
 62
     8
370
     0
100
AcDbLine
 10
808.587468242
 20
1049.5548534639
 30
0.0
 11
810.6058467409
 21
1049.5548534639
 31
0.0
  0
LINE
  5
1AF
330
1F
100
AcDbEntity
  8
0
  6
Continuous
 62
     8
370
     0
100
AcDbLine
 10
808.587468242
 20
1042.8048534639
 30
0.0
 11
810.605846741
 21
1042.8048534639
 31
0.0
  0
LINE
  5
1B0
330
1F
100
AcDbEntity
  8
0
  6
Continuous
 62
     8
370
     0
100
AcDbLine
 10
808.587468242
 20
1053.0723811392
 30
0.0
 11
810.605846741
 21
1053.0723811392
 31
0.0
  0
LINE
  5
1B1
330
1F
100
AcDbEntity
  8
0
  6
Continuous
 62
     8
370
     0
100
AcDbLine
 10
808.587468242
 20
1059.8223811392
 30
0.0
 11
810.6058467409
 21
1059.8223811392
 31
0.0
  0
LINE
  5
1B2
330
1F
100
AcDbEntity
  8
0
  6
Continuous
 62
     8
370
     0
100
AcDbLine
 10
812.0972039778
 20
1042.7046260877
 30
0.0
 11
812.1548983135
 21
1042.7046260877
 31
0.0
  0
LINE
  5
1B3
330
1F
100
AcDbEntity
  8
0
  6
Continuous
 62
     8
370
     0
100
AcDbLine
 10
811.8832954172
 20
1036.9033874264
 30
0.0
 11
812.3411711937
 21
1036.9033874264
 31
0.0
  0
LINE
  5
1B4
330
1F
100
AcDbEntity
  8
0
  6
Continuous
 62
     8
370
     0
100
AcDbLine
 10
811.5666908802
 20
1029.2158874264
 30
0.0
 11
812.5550497004
 21
1029.2158874264
 31
0.0
  0
LINE
  5
1B5
330
1F
100
AcDbEntity
  8
0
  6
Continuous
 62
     8
370
     0
100
AcDbLine
 10
811.3504010621
 20
1024.4288748521
 30
0.0
 11
812.6692864058
 21
1024.4288748521
 31
0.0
  0
LINE
  5
1B6
330
1F
100
AcDbEntity
  8
0
  6
Continuous
 62
     8
370
     0
100
AcDbLine
 10
810.6387259401
 20
1052.4658874264
 30
0.0
 11
812.6418598152
 21
1052.4658874264
 31
0.0
  0
LINE
  5
1B7
330
1F
100
AcDbEntity
  8
0
  6
Continuous
 62
     8
370
     0
100
AcDbLine
 10
812.9827365107
 20
1024.4288748521
 30
0.0
 11
813.0412362718
 21
1024.4288748521
 31
0.0
  0
LINE
  5
1B8
330
1F
100
AcDbEntity
  8
FORMAT
  6
CENTERX2
 62
     7
370
     0
100
AcDbLine
 10
741.0642686055
 20
1249.4094720521
 30
0.0
 11
741.0642686055
 21
264.1567015539
 31
0.0
  0
ARC
  5
1B9
330
1F
100
AcDbEntity
  8
0
  6
Continuous
 62
     7
370
    15
100
AcDbCircle
 10
-183.5515737147
 20
-238.8479656675
 30
0.0
 40
7.0
100
AcDbArc
 50
90.0
 51
270.0
  0
ARC
  5
1BA
330
1F
100
AcDbEntity
  8
0
  6
Continuous
 62
     7
370
    15
100
AcDbCircle
 10
-134.5515737147
 20
-238.8479656675
 30
0.0
 40
7.0
100
AcDbArc
 50
270.0
 51
90.0
  0
LINE
  5
1BB
330
1F
100
AcDbEntity
  8
0
  6
Continuous
 62
     7
370
    15
100
AcDbLine
 10
-183.5515737147
 20
-245.8479656675
 30
0.0
 11
-134.5515737147
 21
-245.8479656675
 31
0.0
  0
LINE
  5
1BC
330
1F
100
AcDbEntity
  8
0
  6
Continuous
 62
     7
370
    15
100
AcDbLine
 10
-134.5515737147
 20
-231.8479656675
 30
0.0
 11
-183.5515737147
 21
-231.8479656675
 31
0.0
  0
SPLINE
  5
1BD
330
1F
100
AcDbEntity
  8
0
  6
Continuous
 62
     7
370
    15
100
AcDbSpline
210
0.0
220
0.0
230
1.0
 70
     8
 71
     3
 72
    15
 73
    11
 74
     0
 42
0.00000001
 43
0.00000001
 12
1.0
 22
0.0
 32
0.0
 13
1.0
 23
0.0
 33
0.0
 40
0.0
 40
0.0
 40
0.0
 40
0.0
 40
0.095904435118857
 40
0.2445360061492624
 40
0.3931439404888888
 40
0.5416853756494345
 40
0.690117564149717
 40
0.8357517832911643
 40
0.9811994943005831
 40
1.0
 40
1.0
 40
1.0
 40
1.0
 10
-80.01552848464405
 20
-297.0143566952788
 30
0.0
 10
-79.71407397538164
 20
-295.5725019809267
 30
0.0
 10
-78.94542879604913
 20
-291.8960777065105
 30
0.0
 10
-77.89305083122684
 20
-285.9492068608844
 30
0.0
 10
-76.83731230610776
 20
-279.184001521905
 30
0.0
 10
-75.95248316108433
 20
-272.3971607116332
 30
0.0
 10
-75.22962282299028
 20
-265.636926049958
 30
0.0
 10
-74.68771869698925
 20
-258.908197953286
 30
0.0
 10
-74.37610532858146
 20
-254.1577773300473
 30
0.0
 10
-74.2904215037616
 20
-251.6365548446409
 30
0.0
 10
-74.28061379157361
 20
-251.347965667503
 30
0.0
  0
SPLINE
  5
1BE
330
1F
100
AcDbEntity
  8
0
  6
Continuous
 62
     7
370
    15
100
AcDbSpline
210
0.0
220
0.0
230
1.0
 70
     8
 71
     3
 72
    12
 73
     8
 74
     0
 42
0.00000001
 43
0.00000001
 12
1.0
 22
0.0
 32
0.0
 13
1.0
 23
0.0
 33
0.0
 40
0.0
 40
0.0
 40
0.0
 40
0.0
 40
0.215141595704985
 40
0.4307526260437769
 40
0.6464551846822064
 40
0.8621892548439197
 40
0.9999999999999999
 40
0.9999999999999999
 40
0.9999999999999999
 40
0.9999999999999999
 10
-75.31546422692463
 20
-211.4870722687946
 30
0.0
 10
-75.54468213282667
 20
-209.2628704163067
 30
0.0
 10
-76.00361809349022
 20
-204.8096135476334
 30
0.0
 10
-76.89262772496426
 20
-198.1492658693687
 30
0.0
 10
-77.9338354304539
 20
-191.5056180833618
 30
0.0
 10
-78.96943692155517
 20
-185.6799250333098
 30
0.0
 10
-79.72176296774143
 20
-182.0833912134567
 30
0.0
 10
-80.01501748183202
 20
-180.6814727459281
 30
0.0
  0
SPLINE
  5
1BF
330
1F
100
AcDbEntity
  8
0
  6
Continuous
 62
     7
370
    15
100
AcDbSpline
210
0.0
220
0.0
230
1.0
 70
     8
 71
     3
 72
    13
 73
     9
 74
     0
 42
0.00000001
 43
0.00000001
 12
1.0
 22
0.0
 32
0.0
 13
1.0
 23
0.0
 33
0.0
 40
0.0
 40
0.0
 40
0.0
 40
0.0
 40
0.1188465698403249
 40
0.3164716135273999
 40
0.5143516482324572
 40
0.7124302045452576
 40
0.9071100767727244
 40
1.0
 40
1.0
 40
1.0
 40
1.0
 10
-243.9274918270423
 20
-248.3558128056948
 30
0.0
 10
-243.8838074740677
 20
-249.7230863554259
 30
0.0
 10
-243.7674822179805
 20
-253.3639425197905
 30
0.0
 10
-243.3952454683634
 20
-259.2734270357067
 30
0.0
 10
-242.8315241222063
 20
-266.0827867996875
 30
0.0
 10
-242.0923585616975
 20
-272.8411703393692
 30
0.0
 10
-241.3807302000755
 20
-278.3865200948784
 30
0.0
 10
-240.8586591736414
 20
-281.6551100717397
 30
0.0
 10
-240.690021373945
 20
-282.7109200935535
 30
0.0
  0
SPLINE
  5
1C0
330
1F
100
AcDbEntity
  8
0
  6
Continuous
 62
     7
370
    15
100
AcDbSpline
210
0.0
220
0.0
230
1.0
 70
     8
 71
     3
 72
    13
 73
     9
 74
     0
 42
0.00000001
 43
0.00000001
 12
1.0
 22
0.0
 32
0.0
 13
1.0
 23
0.0
 33
0.0
 40
0.0
 40
0.0
 40
0.0
 40
0.0
 40
0.1035012489006637
 40
0.3017154792946853
 40
0.4997839305486052
 40
0.6941187613313871
 40
0.8882047149856271
 40
1.0
 40
1.0
 40
1.0
 40
1.0
 10
-240.6893577168543
 20
-194.9854934165513
 30
0.0
 10
-240.8763027466211
 20
-196.162057344251
 30
0.0
 10
-241.4212643761373
 20
-199.5918473529439
 30
0.0
 10
-242.1462209632962
 20
-205.2994893354771
 30
0.0
 10
-242.873373934031
 20
-212.0588719288504
 30
0.0
 10
-243.42026538505
 20
-218.7875678145132
 30
0.0
 10
-243.7765801569763
 20
-224.5349202271821
 30
0.0
 10
-243.8873433349324
 20
-228.0539447153202
 30
0.0
 10
-243.9278257165999
 20
-229.3400986073874
 30
0.0
  0
LINE
  5
1C1
330
1F
100
AcDbEntity
  8
0
  6
Continuous
 62
     7
370
    15
100
AcDbLine
 10
-197.5653465537
 20
-306.087683521
 30
0.0
 11
-197.5653465537
 21
-308.1081868237
 31
0.0
  0
LINE
  5
1C2
330
1F
100
AcDbEntity
  8
0
  6
Continuous
 62
     7
370
    15
100
AcDbLine
 10
-70.565606357
 20
-205.4029936386
 30
0.0
 11
-76.0248266926
 21
-204.9253737476
 31
0.0
  0
LINE
  5
1C3
330
1F
100
AcDbEntity
  8
0
  6
Continuous
 62
     7
370
    15
100
AcDbLine
 10
-70.1353686637
 20
-226.3479656675
 30
0.0
 11
-70.0515737147
 21
-223.1479656675
 31
0.0
  0
LINE
  5
1C4
330
1F
100
AcDbEntity
  8
0
  6
Continuous
 62
     7
370
    15
100
AcDbLine
 10
-70.0515737147
 20
-223.1479656675
 30
0.0
 11
-70.4589059506
 21
-207.5925751571
 31
0.0
  0
ARC
  5
1C5
330
1F
100
AcDbEntity
  8
0
  6
Continuous
 62
     7
370
    15
100
AcDbCircle
 10
-298.5515737147
 20
-238.8479656675
 30
0.0
 40
4.0
100
AcDbArc
 50
90.0
 51
270.0
  0
LINE
  5
1C6
330
1F
100
AcDbEntity
  8
0
  6
Continuous
 62
     7
370
    15
100
AcDbLine
 10
-285.0515737147
 20
-234.8479656675
 30
0.0
 11
-298.5515737147
 21
-234.8479656675
 31
0.0
  0
LINE
  5
1C7
330
1F
100
AcDbEntity
  8
0
  6
Continuous
 62
     7
370
    15
100
AcDbLine
 10
-298.5515737147
 20
-242.8479656675
 30
0.0
 11
-285.0515737147
 21
-242.8479656675
 31
0.0
  0
LINE
  5
1C8
330
1F
100
AcDbEntity
  8
0
  6
Continuous
 62
     7
370
    15
100
AcDbLine
 10
-263.2468300284
 20
-234.8479656675
 30
0.0
 11
-285.0515737147
 21
-234.8479656675
 31
0.0
  0
LINE
  5
1C9
330
1F
100
AcDbEntity
  8
0
  6
Continuous
 62
     7
370
    15
100
AcDbLine
 10
-285.0515737147
 20
-242.8479656675
 30
0.0
 11
-263.2468300284
 21
-242.8479656675
 31
0.0
  0
CIRCLE
  5
1CA
330
1F
100
AcDbEntity
  8
0
  6
Continuous
 62
     7
370
    15
100
AcDbCircle
 10
-159.0515737147
 20
-238.8479656675
 30
0.0
 40
179.9999999999999
  0
LINE
  5
1CB
330
1F
100
AcDbEntity
  8
0
  6
Continuous
 62
     7
370
    15
100
AcDbLine
 10
-121.0548633307
 20
-226.3479656675
 30
0.0
 11
-9.5733144259
 21
-226.3479656675
 31
0.0
  0
ARC
  5
1CC
330
1F
100
AcDbEntity
  8
0
  6
Continuous
 62
     7
370
    15
100
AcDbCircle
 10
-159.0515737147
 20
-238.8479656675
 30
0.0
 40
150.0
100
AcDbArc
 50
4.7801918472
 51
67.2198081528
  0
LINE
  5
1CD
330
1F
100
AcDbEntity
  8
0
  6
Continuous
 62
     7
370
    15
100
AcDbLine
 10
-100.9720448512
 20
-100.5484055562
 30
0.0
 11
-135.421738022
 21
-206.5736590888
 31
0.0
  0
ARC
  5
1CE
330
1F
100
AcDbEntity
  8
0
  6
Continuous
 62
     7
370
    15
100
AcDbCircle
 10
-159.0515737147
 20
-238.8479656675
 30
0.0
 40
40.00000000000002
100
AcDbArc
 50
18.2099568643
 51
53.7900431357
  0
LINE
  5
1CF
330
1F
100
AcDbEntity
  8
0
  6
Continuous
 62
     7
370
    15
100
AcDbLine
 10
-135.421738022
 20
-271.1222722462
 30
0.0
 11
-100.9720448512
 21
-377.1475257789
 31
0.0
  0
ARC
  5
1D0
330
1F
100
AcDbEntity
  8
0
  6
Continuous
 62
     7
370
    15
100
AcDbCircle
 10
-159.0515737147
 20
-238.8479656675
 30
0.0
 40
150.0
100
AcDbArc
 50
292.7801918472
 51
355.2198081528
  0
LINE
  5
1D1
330
1F
100
AcDbEntity
  8
0
  6
Continuous
 62
     7
370
    15
100
AcDbLine
 10
-9.5733144259
 20
-251.3479656675
 30
0.0
 11
-121.0548633307
 21
-251.3479656675
 31
0.0
  0
ARC
  5
1D2
330
1F
100
AcDbEntity
  8
0
  6
Continuous
 62
     7
370
    15
100
AcDbCircle
 10
-159.0515737147
 20
-238.8479656675
 30
0.0
 40
40.00000000000001
100
AcDbArc
 50
306.2099568643
 51
341.7900431357
  0
LINE
  5
1D3
330
1F
100
AcDbEntity
  8
0
  6
Continuous
 62
     7
370
    15
100
AcDbLine
 10
-182.444242492
 20
-271.2945840965
 30
0.0
 11
-272.6347101152
 21
-336.8217944455
 31
0.0
  0
ARC
  5
1D4
330
1F
100
AcDbEntity
  8
0
  6
Continuous
 62
     7
370
    15
100
AcDbCircle
 10
-159.0515737147
 20
-238.8479656675
 30
0.0
 40
150.0
100
AcDbArc
 50
220.7801918472
 51
283.2198081528
  0
LINE
  5
1D5
330
1F
100
AcDbEntity
  8
0
  6
Continuous
 62
     7
370
    15
100
AcDbLine
 10
-124.7484577586
 20
-384.8729506382
 30
0.0
 11
-159.1981509294
 21
-278.8476971056
 31
0.0
  0
ARC
  5
1D6
330
1F
100
AcDbEntity
  8
0
  6
Continuous
 62
     7
370
    15
100
AcDbCircle
 10
-159.0515737147
 20
-238.8479656675
 30
0.0
 40
39.99999999999999
100
AcDbArc
 50
234.2099568643
 51
269.7900431357
  0
LINE
  5
1D7
330
1F
100
AcDbEntity
  8
0
  6
Continuous
 62
     7
370
    15
100
AcDbLine
 10
-197.1388737993
 20
-226.6267720979
 30
0.0
 11
-287.3293414225
 21
-161.0995617489
 31
0.0
  0
ARC
  5
1D8
330
1F
100
AcDbEntity
  8
0
  6
Continuous
 62
     7
370
    15
100
AcDbCircle
 10
-159.0515737147
 20
-238.8479656675
 30
0.0
 40
150.0
100
AcDbArc
 50
148.7801918472
 51
211.2198081528
  0
LINE
  5
1D9
330
1F
100
AcDbEntity
  8
0
  6
Continuous
 62
     7
370
    15
100
AcDbLine
 10
-287.3293414225
 20
-316.5963695861
 30
0.0
 11
-197.1388737993
 21
-251.0691592371
 31
0.0
  0
ARC
  5
1DA
330
1F
100
AcDbEntity
  8
0
  6
Continuous
 62
     7
370
    15
100
AcDbCircle
 10
-159.0515737147
 20
-238.8479656675
 30
0.0
 40
40.00000000000001
100
AcDbArc
 50
162.2099568643
 51
197.7900431357
  0
LINE
  5
1DB
330
1F
100
AcDbEntity
  8
0
  6
Continuous
 62
     7
370
    15
100
AcDbLine
 10
-159.1981509294
 20
-198.8482342294
 30
0.0
 11
-124.7484577586
 21
-92.8229806968
 31
0.0
  0
ARC
  5
1DC
330
1F
100
AcDbEntity
  8
0
  6
Continuous
 62
     7
370
    15
100
AcDbCircle
 10
-159.0515737147
 20
-238.8479656675
 30
0.0
 40
150.0
100
AcDbArc
 50
76.7801918472
 51
139.2198081528
  0
LINE
  5
1DD
330
1F
100
AcDbEntity
  8
0
  6
Continuous
 62
     7
370
    15
100
AcDbLine
 10
-272.6347101152
 20
-140.8741368895
 30
0.0
 11
-182.444242492
 21
-206.4013472385
 31
0.0
  0
ARC
  5
1DE
330
1F
100
AcDbEntity
  8
0
  6
Continuous
 62
     7
370
    15
100
AcDbCircle
 10
-159.0515737147
 20
-238.8479656675
 30
0.0
 40
40.00000000000001
100
AcDbArc
 50
90.2099568643
 51
125.7900431357
  0
ARC
  5
1DF
330
1F
100
AcDbEntity
  8
0
  6
Continuous
 62
     7
370
    15
100
AcDbCircle
 10
-132.8886228108
 20
-212.6850147636
 30
0.0
 40
15.00000000000001
100
AcDbArc
 50
315.3097084245
 51
88.6491236843
  0
SPLINE
  5
1E0
330
1F
100
AcDbEntity
  8
0
  6
Continuous
 62
     7
370
    15
100
AcDbSpline
210
0.0
220
0.0
230
1.0
 70
     8
 71
     3
 72
    12
 73
     8
 74
     0
 42
0.00000001
 43
0.00000001
 12
1.0
 22
0.0
 32
0.0
 13
1.0
 23
0.0
 33
0.0
 40
0.0
 40
0.0
 40
0.0
 40
0.0
 40
0.0947519404692561
 40
0.320179896711365
 40
0.5467756277796669
 40
0.7734040239842145
 40
0.9999999999999999
 40
0.9999999999999999
 40
0.9999999999999999
 40
0.9999999999999999
 10
-222.4856396781103
 20
-208.2112687395169
 30
0.0
 10
-222.5913143450351
 20
-209.1748299400002
 30
0.0
 10
-222.9484036434008
 20
-212.4308363512453
 30
0.0
 10
-223.3870337170698
 20
-218.0087249844966
 30
0.0
 10
-223.8012183809213
 20
-224.9399176408604
 30
0.0
 10
-224.053944549587
 20
-231.8920824526363
 30
0.0
 10
-224.0856980834477
 20
-236.5294485030563
 30
0.0
 10
-224.1015737146762
 20
-238.8479656675007
 30
0.0
  0
SPLINE
  5
1E1
330
1F
100
AcDbEntity
  8
0
  6
Continuous
 62
     7
370
    15
100
AcDbSpline
210
0.0
220
0.0
230
1.0
 70
     8
 71
     3
 72
    15
 73
    11
 74
     0
 42
0.00000001
 43
0.00000001
 12
1.0
 22
0.0
 32
0.0
 13
1.0
 23
0.0
 33
0.0
 40
0.0
 40
0.0
 40
0.0
 40
0.0
 40
0.0381273502733269
 40
0.2203820699296862
 40
0.3501228376295426
 40
0.47987422023354
 40
0.6096149869534687
 40
0.739739753585437
 40
0.8698752315046436
 40
0.9999999999999999
 40
0.9999999999999999
 40
0.9999999999999999
 40
0.9999999999999999
 10
-235.1516087753494
 20
-199.008903531971
 30
0.0
 10
-235.2263481936405
 20
-199.5112831025209
 30
0.0
 10
-235.658353764189
 20
-202.4151158854047
 30
0.0
 10
-236.1876796451232
 20
-207.0506526729941
 30
0.0
 10
-236.7766831478734
 20
-212.9060670966975
 30
0.0
 10
-237.1934270335403
 20
-218.0752785943388
 30
0.0
 10
-237.5206951479975
 20
-223.2560180630726
 30
0.0
 10
-237.7526059020262
 20
-228.4470904272611
 30
0.0
 10
-237.8982152209344
 20
-233.6466686030372
 30
0.0
 10
-237.9162212076663
 20
-237.1142475417047
 30
0.0
 10
-237.9252238305689
 20
-238.8479656675023
 30
0.0
  0
SPLINE
  5
1E2
330
1F
100
AcDbEntity
  8
0
  6
Continuous
 62
     7
370
    15
100
AcDbSpline
210
0.0
220
0.0
230
1.0
 70
     8
 71
     3
 72
    14
 73
    10
 74
     0
 42
0.00000001
 43
0.00000001
 12
1.0
 22
0.0
 32
0.0
 13
1.0
 23
0.0
 33
0.0
 40
0.0
 40
0.0
 40
0.0
 40
0.0
 40
0.1046542440924348
 40
0.2093273055908172
 40
0.3971901657511909
 40
0.5850800312142573
 40
0.7729431353440641
 40
0.9617794186989783
 40
1.0
 40
1.0
 40
1.0
 40
1.0
 10
-98.13013787426371
 20
-189.7475267314375
 30
0.0
 10
-97.91963050738084
 20
-191.0146856252614
 30
0.0
 10
-97.4985779232383
 20
-193.5492312550143
 30
0.0
 10
-96.78057917560598
 20
-198.3715277909805
 30
0.0
 10
-96.01579798173996
 20
-204.2194030603168
 30
0.0
 10
-95.27991434341831
 20
-211.0998147469286
 30
0.0
 10
-94.71933144684799
 20
-218.008404064266
 30
0.0
 10
-94.38852300466552
 20
-223.0928196919599
 30
0.0
 10
-94.2950134009956
 20
-225.8789715132648
 30
0.0
 10
-94.2792728885257
 20
-226.3479656675025
 30
0.0
  0
SPLINE
  5
1E3
330
1F
100
AcDbEntity
  8
0
  6
Continuous
 62
     7
370
    15
100
AcDbSpline
210
0.0
220
0.0
230
1.0
 70
     8
 71
     3
 72
     8
 73
     4
 74
     0
 42
0.00000001
 43
0.00000001
 12
1.0
 22
0.0
 32
0.0
 13
1.0
 23
0.0
 33
0.0
 40
0.0
 40
0.0
 40
0.0
 40
0.0
 40
1.0
 40
1.0
 40
1.0
 40
1.0
 10
-86.44082939841421
 20
-179.0269757209564
 30
0.0
 10
-90.29661107488748
 20
-182.535735031132
 30
0.0
 10
-94.1914377905716
 20
-186.1087118028117
 30
0.0
 10
-98.1301378742638
 20
-189.7475267314373
 30
0.0
  0
SPLINE
  5
1E4
330
1F
100
AcDbEntity
  8
0
  6
Continuous
 62
     7
370
    15
100
AcDbSpline
210
0.0
220
0.0
230
1.0
 70
     8
 71
     3
 72
    15
 73
    11
 74
     0
 42
0.00000001
 43
0.00000001
 12
1.0
 22
0.0
 32
0.0
 13
1.0
 23
0.0
 33
0.0
 40
0.0
 40
0.0
 40
0.0
 40
0.0
 40
0.1521398158912809
 40
0.3042796504378082
 40
0.4568125690882839
 40
0.609345493845596
 40
0.7179283541129823
 40
0.8265200982236933
 40
0.9351029576709569
 40
1.0
 40
1.0
 40
1.0
 40
1.0
 10
-86.44082939841424
 20
-179.0269757209563
 30
0.0
 10
-85.95589400649607
 20
-181.3994004146576
 30
0.0
 10
-84.9860231631974
 20
-186.1442500929648
 30
0.0
 10
-83.75887691795882
 20
-193.3118545098019
 30
0.0
 10
-82.69920822356956
 20
-200.5121999422024
 30
0.0
 10
-81.90900769905927
 20
-207.0496922734034
 30
0.0
 10
-81.32734243407583
 20
-212.9062590870815
 30
0.0
 10
-80.91179621493225
 20
-218.0753341262806
 30
0.0
 10
-80.61894906700304
 20
-222.5564808165942
 30
0.0
 10
-80.50283911286196
 20
-225.3157511058855
 30
0.0
 10
-80.45940357634413
 20
-226.3479656675026
 30
0.0
  0
SPLINE
  5
1E5
330
1F
100
AcDbEntity
  8
0
  6
Continuous
 62
     7
370
    15
100
AcDbSpline
210
0.0
220
0.0
230
1.0
 70
     8
 71
     3
 72
    15
 73
    11
 74
     0
 42
0.00000001
 43
0.00000001
 12
1.0
 22
0.0
 32
0.0
 13
1.0
 23
0.0
 33
0.0
 40
0.0
 40
0.0
 40
0.0
 40
0.0
 40
0.140496241948966
 40
0.2810863203800988
 40
0.4219597878515475
 40
0.562928258232358
 40
0.6780599845618247
 40
0.7932436363499109
 40
0.9085842196260766
 40
1.0
 40
1.0
 40
1.0
 40
1.0
 10
-159.0515737145466
 20
-182.8979656675023
 30
0.0
 10
-161.3846815626104
 20
-182.9149743560001
 30
0.0
 10
-166.0524555255637
 20
-182.9490030929827
 30
0.0
 10
-173.0549273654389
 20
-183.2249617261901
 30
0.0
 10
-180.0558546848265
 20
-183.6667356441064
 30
0.0
 10
-186.6215525812257
 20
-184.2536455625462
 30
0.0
 10
-192.7474278183962
 20
-184.9435768818842
 30
0.0
 10
-198.4346515646104
 20
-185.7095486281382
 30
0.0
 10
-203.7174504623296
 20
-186.522157005719
 30
0.0
 10
-207.094145908782
 20
-187.1360166916878
 30
0.0
 10
-208.5871265545672
 20
-187.407430162317
 30
0.0
  0
LINE
  5
1E6
330
1F
100
AcDbEntity
  8
0
  6
Continuous
 62
     7
370
    15
100
AcDbLine
 10
-159.0515737148
 20
-182.8979656675
 30
0.0
 11
-154.0361901424
 21
-182.9613524958
 31
0.0
  0
SPLINE
  5
1E7
330
1F
100
AcDbEntity
  8
0
  6
Continuous
 62
     7
370
    15
100
AcDbSpline
210
0.0
220
0.0
230
1.0
 70
     8
 71
     3
 72
    13
 73
     9
 74
     0
 42
0.00000001
 43
0.00000001
 12
1.0
 22
0.0
 32
0.0
 13
1.0
 23
0.0
 33
0.0
 40
0.0
 40
0.0
 40
0.0
 40
0.0
 40
0.0964315053432383
 40
0.2838214000520561
 40
0.471466603344785
 40
0.6591975191693885
 40
0.8295667976514873
 40
1.0
 40
1.0
 40
1.0
 40
1.0
 10
-128.2928363817634
 20
-184.6331558724456
 30
0.0
 10
-127.3145916750298
 20
-184.7404390069829
 30
0.0
 10
-124.4353793131528
 20
-185.0561993939846
 30
0.0
 10
-119.6685379992675
 20
-185.7111716634288
 30
0.0
 10
-113.9936250956713
 20
-186.5898441970424
 30
0.0
 10
-108.5113276536652
 20
-187.5668085357371
 30
0.0
 10
-103.2207004700384
 20
-188.6117364261065
 30
0.0
 10
-99.82720424404103
 20
-189.3688826240266
 30
0.0
 10
-98.1301378742637
 20
-189.7475267314375
 30
0.0
  0
SPLINE
  5
1E8
330
1F
100
AcDbEntity
  8
0
  6
Continuous
 62
     7
370
    15
100
AcDbSpline
210
0.0
220
0.0
230
1.0
 70
     8
 71
     3
 72
    14
 73
    10
 74
     0
 42
0.00000001
 43
0.00000001
 12
1.0
 22
0.0
 32
0.0
 13
1.0
 23
0.0
 33
0.0
 40
0.0
 40
0.0
 40
0.0
 40
0.0
 40
0.104654244092436
 40
0.2093273055908196
 40
0.3971901657511953
 40
0.5850800312142639
 40
0.7729431353440728
 40
0.9617794186989891
 40
1.0
 40
1.0
 40
1.0
 40
1.0
 10
-98.13013787426371
 20
-287.948404603567
 30
0.0
 10
-97.91963050738084
 20
-286.6812457097432
 30
0.0
 10
-97.49857792323827
 20
-284.1467000799902
 30
0.0
 10
-96.78057917560595
 20
-279.3244035440241
 30
0.0
 10
-96.01579798173998
 20
-273.4765282746877
 30
0.0
 10
-95.27991434341831
 20
-266.596116588076
 30
0.0
 10
-94.71933144684796
 20
-259.6875272707387
 30
0.0
 10
-94.3885230046655
 20
-254.6031116430448
 30
0.0
 10
-94.2950134009956
 20
-251.81695982174
 30
0.0
 10
-94.2792728885257
 20
-251.3479656675025
 30
0.0
  0
LINE
  5
1E9
330
1F
100
AcDbEntity
  8
0
  6
Continuous
 62
     7
370
    15
100
AcDbLine
 10
-159.0515737148
 20
-294.7979656675
 30
0.0
 11
-154.0361901424
 21
-294.7345788392
 31
0.0
  0
SPLINE
  5
1EA
330
1F
100
AcDbEntity
  8
0
  6
Continuous
 62
     7
370
    15
100
AcDbSpline
210
0.0
220
0.0
230
1.0
 70
     8
 71
     3
 72
    13
 73
     9
 74
     0
 42
0.00000001
 43
0.00000001
 12
1.0
 22
0.0
 32
0.0
 13
1.0
 23
0.0
 33
0.0
 40
0.0
 40
0.0
 40
0.0
 40
0.0
 40
0.0964315053432411
 40
0.2838214000520584
 40
0.4714666033447867
 40
0.6591975191693896
 40
0.8295667976514878
 40
1.0
 40
1.0
 40
1.0
 40
1.0
 10
-128.2928363817635
 20
-293.062775462559
 30
0.0
 10
-127.3145916750298
 20
-292.9554923280217
 30
0.0
 10
-124.4353793131528
 20
-292.6397319410199
 30
0.0
 10
-119.6685379992675
 20
-291.9847596715758
 30
0.0
 10
-113.9936250956713
 20
-291.1060871379622
 30
0.0
 10
-108.5113276536652
 20
-290.1291227992675
 30
0.0
 10
-103.2207004700384
 20
-289.084194908898
 30
0.0
 10
-99.82720424404104
 20
-288.3270487109779
 30
0.0
 10
-98.1301378742637
 20
-287.9484046035671
 30
0.0
  0
SPLINE
  5
1EB
330
1F
100
AcDbEntity
  8
0
  6
Continuous
 62
     7
370
    15
100
AcDbSpline
210
0.0
220
0.0
230
1.0
 70
     8
 71
     3
 72
    15
 73
    11
 74
     0
 42
0.00000001
 43
0.00000001
 12
1.0
 22
0.0
 32
0.0
 13
1.0
 23
0.0
 33
0.0
 40
0.0
 40
0.0
 40
0.0
 40
0.0
 40
0.1404962419489639
 40
0.2810863203800946
 40
0.4219597878515413
 40
0.5629282582323497
 40
0.6780599845618147
 40
0.7932436363498993
 40
0.9085842196260633
 40
1.0
 40
1.0
 40
1.0
 40
1.0
 10
-159.0515737145466
 20
-294.7979656675023
 30
0.0
 10
-161.3846815626104
 20
-294.7809569790045
 30
0.0
 10
-166.0524555255637
 20
-294.7469282420218
 30
0.0
 10
-173.0549273654389
 20
-294.4709696088145
 30
0.0
 10
-180.0558546848265
 20
-294.0291956908982
 30
0.0
 10
-186.6215525812257
 20
-293.4422857724584
 30
0.0
 10
-192.7474278183962
 20
-292.7523544531204
 30
0.0
 10
-198.4346515646104
 20
-291.9863827068663
 30
0.0
 10
-203.7174504623298
 20
-291.1737743292855
 30
0.0
 10
-207.0941459087825
 20
-290.5599146433166
 30
0.0
 10
-208.587126554568
 20
-290.2885011726875
 30
0.0
  0
SPLINE
  5
1EC
330
1F
100
AcDbEntity
  8
0
  6
Continuous
 62
     7
370
    15
100
AcDbSpline
210
0.0
220
0.0
230
1.0
 70
     8
 71
     3
 72
    12
 73
     8
 74
     0
 42
0.00000001
 43
0.00000001
 12
1.0
 22
0.0
 32
0.0
 13
1.0
 23
0.0
 33
0.0
 40
0.0
 40
0.0
 40
0.0
 40
0.0
 40
0.094751940469237
 40
0.3201798967113507
 40
0.5467756277796575
 40
0.7734040239842097
 40
0.9999999999999999
 40
0.9999999999999999
 40
0.9999999999999999
 40
0.9999999999999999
 10
-222.4856396781105
 20
-269.484662595487
 30
0.0
 10
-222.5913143450352
 20
-268.521101395004
 30
0.0
 10
-222.9484036434008
 20
-265.2650949837591
 30
0.0
 10
-223.3870337170698
 20
-259.6872063505079
 30
0.0
 10
-223.8012183809213
 20
-252.7560136941442
 30
0.0
 10
-224.053944549587
 20
-245.8038488823683
 30
0.0
 10
-224.0856980834477
 20
-241.1664828319483
 30
0.0
 10
-224.1015737146762
 20
-238.8479656675039
 30
0.0
  0
SPLINE
  5
1ED
330
1F
100
AcDbEntity
  8
0
  6
Continuous
 62
     7
370
    15
100
AcDbSpline
210
0.0
220
0.0
230
1.0
 70
     8
 71
     3
 72
    15
 73
    11
 74
     0
 42
0.00000001
 43
0.00000001
 12
1.0
 22
0.0
 32
0.0
 13
1.0
 23
0.0
 33
0.0
 40
0.0
 40
0.0
 40
0.0
 40
0.0
 40
0.0381273502733108
 40
0.2203820699296729
 40
0.3501228376295316
 40
0.4798742202335312
 40
0.609614986953462
 40
0.7397397535854323
 40
0.8698752315046414
 40
1.0
 40
1.0
 40
1.0
 40
1.0
 10
-235.1516087753495
 20
-278.6870278030329
 30
0.0
 10
-235.2263481936405
 20
-278.1846482324832
 30
0.0
 10
-235.6583537641891
 20
-275.2808154495996
 30
0.0
 10
-236.1876796451232
 20
-270.6452786620105
 30
0.0
 10
-236.7766831478734
 20
-264.7898642383071
 30
0.0
 10
-237.1934270335403
 20
-259.6206527406658
 30
0.0
 10
-237.5206951479975
 20
-254.4399132719321
 30
0.0
 10
-237.7526059020262
 20
-249.2488409077435
 30
0.0
 10
-237.8982152209345
 20
-244.0492627319673
 30
0.0
 10
-237.9162212076663
 20
-240.5816837932999
 30
0.0
 10
-237.9252238305689
 20
-238.8479656675023
 30
0.0
  0
SPLINE
  5
1EE
330
1F
100
AcDbEntity
  8
0
  6
Continuous
 62
     7
370
    15
100
AcDbSpline
210
0.0
220
0.0
230
1.0
 70
     8
 71
     3
 72
     8
 73
     4
 74
     0
 42
0.00000001
 43
0.00000001
 12
1.0
 22
0.0
 32
0.0
 13
1.0
 23
0.0
 33
0.0
 40
0.0
 40
0.0
 40
0.0
 40
0.0
 40
1.0
 40
1.0
 40
1.0
 40
1.0
 10
-86.44082939841421
 20
-298.6689556140482
 30
0.0
 10
-90.29661107488748
 20
-295.1601963038726
 30
0.0
 10
-94.1914377905716
 20
-291.5872195321928
 30
0.0
 10
-98.1301378742638
 20
-287.9484046035672
 30
0.0
  0
SPLINE
  5
1EF
330
1F
100
AcDbEntity
  8
0
  6
Continuous
 62
     7
370
    15
100
AcDbSpline
210
0.0
220
0.0
230
1.0
 70
     8
 71
     3
 72
    15
 73
    11
 74
     0
 42
0.00000001
 43
0.00000001
 12
1.0
 22
0.0
 32
0.0
 13
1.0
 23
0.0
 33
0.0
 40
0.0
 40
0.0
 40
0.0
 40
0.0
 40
0.1521398158912828
 40
0.3042796504378117
 40
0.4568125690882894
 40
0.6093454938456035
 40
0.7179283541129913
 40
0.8265200982237036
 40
0.9351029576709687
 40
0.9999999999999999
 40
0.9999999999999999
 40
0.9999999999999999
 40
0.9999999999999999
 10
-86.44082939841422
 20
-298.6689556140483
 30
0.0
 10
-85.95589400649604
 20
-296.296530920347
 30
0.0
 10
-84.98602316319736
 20
-291.5516812420398
 30
0.0
 10
-83.75887691795889
 20
-284.3840768252026
 30
0.0
 10
-82.69920822356954
 20
-277.1837313928022
 30
0.0
 10
-81.9090076990593
 20
-270.6462390616011
 30
0.0
 10
-81.32734243407579
 20
-264.789672247923
 30
0.0
 10
-80.9117962149323
 20
-259.620597208724
 30
0.0
 10
-80.618949067003
 20
-255.1394505184106
 30
0.0
 10
-80.50283911286196
 20
-252.3801802291194
 30
0.0
 10
-80.45940357634416
 20
-251.3479656675026
 30
0.0
  0
SPLINE
  5
1F0
330
1F
100
AcDbEntity
  8
0
  6
Continuous
 62
     7
370
    15
100
AcDbSpline
210
0.0
220
0.0
230
1.0
 70
     8
 71
     3
 72
    14
 73
    10
 74
     0
 42
0.00000001
 43
0.00000001
 12
1.0
 22
0.0
 32
0.0
 13
1.0
 23
0.0
 33
0.0
 40
0.0
 40
0.0
 40
0.0
 40
0.0
 40
0.0552719611267257
 40
0.2129763524491124
 40
0.3722133662716884
 40
0.5217747749908577
 40
0.6762595338205514
 40
0.8356678726854302
 40
1.0
 40
1.0
 40
1.0
 40
1.0
 10
-123.9119038831188
 20
-171.150032043891
 30
0.0
 10
-123.4866230776245
 20
-171.2043434375034
 30
0.0
 10
-121.8479123665436
 20
-171.4136184889435
 30
0.0
 10
-118.9908427341441
 20
-171.8300993093544
 30
0.0
 10
-115.4158518420725
 20
-172.3887960810247
 30
0.0
 10
-111.8737645501814
 20
-172.9938122315347
 30
0.0
 10
-108.3387817400232
 20
-173.6454829540701
 30
0.0
 10
-104.699880098525
 20
-174.363788729458
 30
0.0
 10
-102.2456546055352
 20
-174.8936073694711
 30
0.0
 10
-100.9998786266092
 20
-175.1625457114453
 30
0.0
  0
SPLINE
  5
1F1
330
1F
100
AcDbEntity
  8
0
  6
Continuous
 62
     7
370
    15
100
AcDbSpline
210
0.0
220
0.0
230
1.0
 70
     8
 71
     3
 72
     8
 73
     4
 74
     0
 42
0.00000001
 43
0.00000001
 12
1.0
 22
0.0
 32
0.0
 13
1.0
 23
0.0
 33
0.0
 40
0.0
 40
0.0
 40
0.0
 40
0.0
 40
1.0
 40
1.0
 40
1.0
 40
1.0
 10
-86.4353732035648
 20
-178.7962642246353
 30
0.0
 10
-91.25724134211092
 20
-177.4498175694353
 30
0.0
 10
-96.11202028762798
 20
-176.2386327471847
 30
0.0
 10
-100.9998786266092
 20
-175.1625457114453
 30
0.0
  0
SPLINE
  5
1F2
330
1F
100
AcDbEntity
  8
0
  6
Continuous
 62
     7
370
    15
100
AcDbSpline
210
0.0
220
0.0
230
1.0
 70
     8
 71
     3
 72
     8
 73
     4
 74
     0
 42
0.00000001
 43
0.00000001
 12
1.0
 22
0.0
 32
0.0
 13
1.0
 23
0.0
 33
0.0
 40
0.0000069159360224
 40
0.0000069159360224
 40
0.0000069159360224
 40
0.0000069159360224
 40
0.0005559619023243
 40
0.0005559619023243
 40
0.0005559619023243
 40
0.0005559619023243
 10
-86.43537320356475
 20
-178.7962642246353
 30
0.0
 10
-86.43711138685437
 20
-178.8731877856962
 30
0.0
 10
-86.43893013628147
 20
-178.9500916279583
 30
0.0
 10
-86.4408293984143
 20
-179.0269757209563
 30
0.0
  0
SPLINE
  5
1F3
330
1F
100
AcDbEntity
  8
0
  6
Continuous
 62
     7
370
    15
100
AcDbSpline
210
0.0
220
0.0
230
1.0
 70
     8
 71
     3
 72
     9
 73
     5
 74
     0
 42
0.00000001
 43
0.00000001
 12
1.0
 22
0.0
 32
0.0
 13
1.0
 23
0.0
 33
0.0
 40
0.0
 40
0.0
 40
0.0
 40
0.0
 40
0.5103836474058009
 40
1.0
 40
1.0
 40
1.0
 40
1.0
 10
-159.0515737146762
 20
-168.8479656675023
 30
0.0
 10
-157.4271852839692
 20
-168.8551368511359
 30
0.0
 10
-154.2445041009738
 20
-168.8691874259731
 30
0.0
 10
-151.0634139432042
 20
-168.9694590445529
 30
0.0
 10
-149.5059001828838
 20
-169.0185536687107
 30
0.0
  0
SPLINE
  5
1F4
330
1F
100
AcDbEntity
  8
0
  6
Continuous
 62
     7
370
    15
100
AcDbSpline
210
0.0
220
0.0
230
1.0
 70
     8
 71
     3
 72
     9
 73
     5
 74
     0
 42
0.00000001
 43
0.00000001
 12
1.0
 22
0.0
 32
0.0
 13
1.0
 23
0.0
 33
0.0
 40
0.0
 40
0.0
 40
0.0
 40
0.0
 40
0.4204170548806851
 40
1.0
 40
1.0
 40
1.0
 40
1.0
 10
-223.4121789672852
 20
-176.6363991045688
 30
0.0
 10
-222.5303491377252
 20
-176.4201502204093
 30
0.0
 10
-220.4328371093174
 20
-175.905782685484
 30
0.0
 10
-218.3249590033515
 20
-175.435255337531
 30
0.0
 10
-217.1032688027432
 20
-175.1625457114453
 30
0.0
  0
SPLINE
  5
1F5
330
1F
100
AcDbEntity
  8
0
  6
Continuous
 62
     7
370
    15
100
AcDbSpline
210
0.0
220
0.0
230
1.0
 70
     8
 71
     3
 72
    21
 73
    17
 74
     0
 42
0.00000001
 43
0.00000001
 12
1.0
 22
0.0
 32
0.0
 13
1.0
 23
0.0
 33
0.0
 40
0.0
 40
0.0
 40
0.0
 40
0.0
 40
0.0556457249796991
 40
0.1112645765036511
 40
0.1668585832000752
 40
0.2224297743765865
 40
0.2779801798354675
 40
0.3335118296883823
 40
0.389026754170627
 40
0.4445269834550213
 40
0.5000145474655422
 40
0.5845985145177375
 40
0.7500167871465799
 40
0.8608312455667245
 40
0.9441594111764295
 40
0.9999999999999999
 40
0.9999999999999999
 40
0.9999999999999999
 40
0.9999999999999999
 10
-217.1032688027432
 20
-175.1625457114453
 30
0.0
 10
-216.573907305224
 20
-175.0469660983442
 30
0.0
 10
-215.5154399591645
 20
-174.815862689972
 30
0.0
 10
-213.9254740465355
 20
-174.4813865120494
 30
0.0
 10
-212.3343657961214
 20
-174.1559343973553
 30
0.0
 10
-210.7419228589041
 20
-173.8403679683809
 30
0.0
 10
-209.1481971039734
 20
-173.5344499894174
 30
0.0
 10
-207.5531750771511
 20
-173.2382368890688
 30
0.0
 10
-205.9568605458328
 20
-172.9517086370801
 30
0.0
 10
-204.3592536783526
 20
-172.6748575382268
 30
0.0
 10
-202.4807772862775
 20
-172.3609898927038
 30
0.0
 10
-199.5428503913263
 20
-171.8928314773213
 30
0.0
 10
-196.065417881218
 20
-171.3866604284368
 30
0.0
 10
-192.592905274584
 20
-170.9346975160298
 30
0.0
 10
-190.1755921148893
 20
-170.6445811702302
 30
0.0
 10
-188.8284209462026
 20
-170.4953875190185
 30
0.0
 10
-188.2878769741599
 20
-170.4355245033127
 30
0.0
  0
SPLINE
  5
1F6
330
1F
100
AcDbEntity
  8
0
  6
Continuous
 62
     7
370
    15
100
AcDbSpline
210
0.0
220
0.0
230
1.0
 70
     8
 71
     3
 72
    21
 73
    17
 74
     0
 42
0.00000001
 43
0.00000001
 12
1.0
 22
0.0
 32
0.0
 13
1.0
 23
0.0
 33
0.0
 40
0.0
 40
0.0
 40
0.0
 40
0.0
 40
0.0555038854966618
 40
0.1110174399021885
 40
0.1665427224749318
 40
0.2220818012437768
 40
0.2776367527982734
 40
0.3332096620758477
 40
0.3888026221461878
 40
0.4444177339929218
 40
0.5000571062927105
 40
0.5847879288154317
 40
0.7499683130110345
 40
0.8610167668392356
 40
0.9443889828588538
 40
1.0
 40
1.0
 40
1.0
 40
1.0
 10
-188.2878769741599
 20
-170.4355245033127
 30
0.0
 10
-187.7490301791953
 20
-170.3777770969186
 30
0.0
 10
-186.6712427208729
 20
-170.2622722243948
 30
0.0
 10
-185.0530938956301
 20
-170.1013258145358
 30
0.0
 10
-183.4337200811263
 20
-169.9493929286919
 30
0.0
 10
-181.813021137339
 20
-169.8073717460767
 30
0.0
 10
-180.1910211970066
 20
-169.6750395578494
 30
0.0
 10
-178.567711112356
 20
-169.5524734944648
 30
0.0
 10
-176.9430905458733
 20
-169.4396725740812
 30
0.0
 10
-175.3171572126103
 20
-169.3366483078485
 30
0.0
 10
-173.4065621410752
 20
-169.2272105240209
 30
0.0
 10
-170.4266016615319
 20
-169.0791465824735
 30
0.0
 10
-166.9039772620899
 20
-168.9517956500666
 30
0.0
 10
-163.3932166691031
 20
-168.8781310324496
 30
0.0
 10
-160.9517764211404
 20
-168.8513844621143
 30
0.0
 10
-159.5946123968618
 20
-168.8489426883828
 30
0.0
 10
-159.0515737144173
 20
-168.8479656675023
 30
0.0
  0
SPLINE
  5
1F7
330
1F
100
AcDbEntity
  8
0
  6
Continuous
 62
     7
370
    15
100
AcDbSpline
210
0.0
220
0.0
230
1.0
 70
     8
 71
     3
 72
     8
 73
     4
 74
     0
 42
0.00000001
 43
0.00000001
 12
1.0
 22
0.0
 32
0.0
 13
1.0
 23
0.0
 33
0.0
 40
0.0000069159360224
 40
0.0000069159360224
 40
0.0000069159360224
 40
0.0000069159360224
 40
0.0005559619023243
 40
0.0005559619023243
 40
0.0005559619023243
 40
0.0005559619023243
 10
-86.43537320356475
 20
-298.8996671103694
 30
0.0
 10
-86.43711138685437
 20
-298.8227435493084
 30
0.0
 10
-86.43893013628147
 20
-298.7458397070462
 30
0.0
 10
-86.4408293984143
 20
-298.6689556140483
 30
0.0
  0
SPLINE
  5
1F8
330
1F
100
AcDbEntity
  8
0
  6
Continuous
 62
     7
370
    15
100
AcDbSpline
210
0.0
220
0.0
230
1.0
 70
     8
 71
     3
 72
     8
 73
     4
 74
     0
 42
0.00000001
 43
0.00000001
 12
1.0
 22
0.0
 32
0.0
 13
1.0
 23
0.0
 33
0.0
 40
0.0
 40
0.0
 40
0.0
 40
0.0
 40
1.0
 40
1.0
 40
1.0
 40
1.0
 10
-86.4353732035648
 20
-298.8996671103693
 30
0.0
 10
-91.25724134211092
 20
-300.2461137655692
 30
0.0
 10
-96.11202028762798
 20
-301.4572985878199
 30
0.0
 10
-100.9998786266092
 20
-302.5333856235592
 30
0.0
  0
SPLINE
  5
1F9
330
1F
100
AcDbEntity
  8
0
  6
Continuous
 62
     7
370
    15
100
AcDbSpline
210
0.0
220
0.0
230
1.0
 70
     8
 71
     3
 72
    14
 73
    10
 74
     0
 42
0.00000001
 43
0.00000001
 12
1.0
 22
0.0
 32
0.0
 13
1.0
 23
0.0
 33
0.0
 40
0.0
 40
0.0
 40
0.0
 40
0.0
 40
0.0552719611267282
 40
0.2129763524491172
 40
0.3722133662716906
 40
0.5217747749908671
 40
0.6762595338205524
 40
0.8356678726854281
 40
1.0
 40
1.0
 40
1.0
 40
1.0
 10
-123.911903883119
 20
-306.5458992911136
 30
0.0
 10
-123.4866230776246
 20
-306.4915878975012
 30
0.0
 10
-121.8479123665437
 20
-306.2823128460612
 30
0.0
 10
-118.9908427341442
 20
-305.8658320256502
 30
0.0
 10
-115.4158518420725
 20
-305.3071352539799
 30
0.0
 10
-111.8737645501814
 20
-304.7021191034699
 30
0.0
 10
-108.3387817400232
 20
-304.0504483809344
 30
0.0
 10
-104.6998800985251
 20
-303.3321426055467
 30
0.0
 10
-102.2456546055353
 20
-302.8023239655334
 30
0.0
 10
-100.9998786266092
 20
-302.5333856235592
 30
0.0
  0
SPLINE
  5
1FA
330
1F
100
AcDbEntity
  8
0
  6
Continuous
 62
     7
370
    15
100
AcDbSpline
210
0.0
220
0.0
230
1.0
 70
     8
 71
     3
 72
     9
 73
     5
 74
     0
 42
0.00000001
 43
0.00000001
 12
1.0
 22
0.0
 32
0.0
 13
1.0
 23
0.0
 33
0.0
 40
0.0
 40
0.0
 40
0.0
 40
0.0
 40
0.51038364740586
 40
1.0
 40
1.0
 40
1.0
 40
1.0
 10
-159.0515737146762
 20
-308.8479656675023
 30
0.0
 10
-157.4271852839693
 20
-308.8407944838687
 30
0.0
 10
-154.2445041009742
 20
-308.8267439090315
 30
0.0
 10
-151.0634139432051
 20
-308.7264722904516
 30
0.0
 10
-149.505900182885
 20
-308.6773776662939
 30
0.0
  0
SPLINE
  5
1FB
330
1F
100
AcDbEntity
  8
0
  6
Continuous
 62
     7
370
    15
100
AcDbSpline
210
0.0
220
0.0
230
1.0
 70
     8
 71
     3
 72
    21
 73
    17
 74
     0
 42
0.00000001
 43
0.00000001
 12
1.0
 22
0.0
 32
0.0
 13
1.0
 23
0.0
 33
0.0
 40
0.0
 40
0.0
 40
0.0
 40
0.0
 40
0.0586556703080709
 40
0.1165366648143981
 40
0.1736429973733405
 40
0.2299746824163267
 40
0.2855317349840356
 40
0.3403141707606762
 40
0.3943220061108824
 40
0.4475552581192077
 40
0.5000139446324797
 40
0.6015734218934466
 40
0.7023516203394631
 40
0.8023486839775416
 40
0.9015647602216208
 40
1.0
 40
1.0
 40
1.0
 40
1.0
 10
-217.1032688027433
 20
-302.5333856235592
 30
0.0
 10
-216.5452609755401
 20
-302.6551636618188
 30
0.0
 10
-215.4366150291029
 20
-302.8971113942696
 30
0.0
 10
-213.7818308128162
 20
-303.2443940845957
 30
0.0
 10
-212.1472339216615
 20
-303.5776085408885
 30
0.0
 10
-210.5327614628451
 20
-303.8962121398829
 30
0.0
 10
-208.9386083387522
 20
-304.2008455764749
 30
0.0
 10
-207.3648942195243
 20
-304.4918333822487
 30
0.0
 10
-205.8117514897316
 20
-304.7695780391812
 30
0.0
 10
-204.2793011931195
 20
-305.0344543980084
 30
0.0
 10
-202.2885984660921
 20
-305.3668318562579
 30
0.0
 10
-199.8378009428363
 20
-305.755029340283
 30
0.0
 10
-196.9248362292313
 20
-306.1839682755208
 30
0.0
 10
-194.0298649475798
 20
-306.5775685853142
 30
0.0
 10
-191.1536401141271
 20
-306.9393337522752
 30
0.0
 10
-189.2406121669745
 20
-307.1536647154438
 30
0.0
 10
-188.2878769741599
 20
-307.2604068316918
 30
0.0
  0
SPLINE
  5
1FC
330
1F
100
AcDbEntity
  8
0
  6
Continuous
 62
     7
370
    15
100
AcDbSpline
210
0.0
220
0.0
230
1.0
 70
     8
 71
     3
 72
     9
 73
     5
 74
     0
 42
0.00000001
 43
0.00000001
 12
1.0
 22
0.0
 32
0.0
 13
1.0
 23
0.0
 33
0.0
 40
0.0
 40
0.0
 40
0.0
 40
0.0
 40
0.4204170548807544
 40
1.0
 40
1.0
 40
1.0
 40
1.0
 10
-223.412178967286
 20
-301.0595322304356
 30
0.0
 10
-222.5303491377257
 20
-301.2757811145951
 30
0.0
 10
-220.4328371093177
 20
-301.7901486495204
 30
0.0
 10
-218.3249590033515
 20
-302.2606759974735
 30
0.0
 10
-217.1032688027432
 20
-302.5333856235593
 30
0.0
  0
SPLINE
  5
1FD
330
1F
100
AcDbEntity
  8
0
  6
Continuous
 62
     7
370
    15
100
AcDbSpline
210
0.0
220
0.0
230
1.0
 70
     8
 71
     3
 72
    21
 73
    17
 74
     0
 42
0.00000001
 43
0.00000001
 12
1.0
 22
0.0
 32
0.0
 13
1.0
 23
0.0
 33
0.0
 40
0.0
 40
0.0
 40
0.0
 40
0.0
 40
0.0570468701304606
 40
0.1137223992238807
 40
0.1700266213305466
 40
0.2259595711794801
 40
0.2815212841965111
 40
0.3367117965229796
 40
0.3915311450349248
 40
0.4459793673632149
 40
0.5000565019140283
 40
0.6002649490888756
 40
0.7003632677687223
 40
0.8003517122499512
 40
0.9002305376681706
 40
1.0
 40
1.0
 40
1.0
 40
1.0
 10
-188.2878769741599
 20
-307.2604068316918
 30
0.0
 10
-187.7340467319618
 20
-307.3197312218113
 30
0.0
 10
-186.6299913515091
 20
-307.4379938357189
 30
0.0
 10
-184.9779481066103
 20
-307.6018867697174
 30
0.0
 10
-183.3358206043613
 20
-307.7553726667749
 30
0.0
 10
-181.7035862944029
 20
-307.8977205398609
 30
0.0
 10
-180.0813496207475
 20
-308.0293670927662
 30
0.0
 10
-178.4691781648522
 20
-308.1504381633987
 30
0.0
 10
-176.8671464193492
 20
-308.2611415713197
 30
0.0
 10
-175.2753232710604
 20
-308.3616606068813
 30
0.0
 10
-173.2404416664223
 20
-308.4781403086009
 30
0.0
 10
-170.7593645280628
 20
-308.5992992085248
 30
0.0
 10
-167.8290965486111
 20
-308.7106590906738
 30
0.0
 10
-164.9009874180254
 20
-308.7895079499912
 30
0.0
 10
-161.9753867133224
 20
-308.838828173506
 30
0.0
 10
-160.0258220708742
 20
-308.8449209486677
 30
0.0
 10
-159.0515737146763
 20
-308.8479656675023
 30
0.0
  0
LINE
  5
1FE
330
1F
100
AcDbEntity
  8
0
  6
Continuous
 62
     7
370
    15
100
AcDbLine
 10
-86.9297615059
 20
-299.0372125701
 30
0.0
 11
-86.5526854321
 21
-298.9315482766
 31
0.0
  0
SPLINE
  5
1FF
330
1F
100
AcDbEntity
  8
0
  6
Continuous
 62
     7
370
    15
100
AcDbSpline
210
0.0
220
0.0
230
1.0
 70
     8
 71
     3
 72
    18
 73
    14
 74
     0
 42
0.00000001
 43
0.00000001
 12
1.0
 22
0.0
 32
0.0
 13
1.0
 23
0.0
 33
0.0
 40
0.0
 40
0.0
 40
0.0
 40
0.0
 40
0.0769313191205744
 40
0.1661441719498904
 40
0.2553570307020975
 40
0.3446988298481086
 40
0.4340406418585013
 40
0.5234250312911386
 40
0.6128094354175716
 40
0.7095743896422898
 40
0.8063525073541585
 40
0.9031697973877888
 40
1.0
 40
1.0
 40
1.0
 40
1.0
 10
-80.00256533535362
 20
-297.0170122474334
 30
0.0
 10
-80.00706531911413
 20
-297.0183882161797
 30
0.0
 10
-80.01678367678988
 20
-297.0213598172206
 30
0.0
 10
-80.1573580376009
 20
-297.0643896190376
 30
0.0
 10
-80.39794936573708
 20
-297.1377933479378
 30
0.0
 10
-80.74471330757925
 20
-297.2432026567448
 30
0.0
 10
-81.1941109563615
 20
-297.3790143239339
 30
0.0
 10
-81.74665872850034
 20
-297.5448694439199
 30
0.0
 10
-82.42007789257265
 20
-297.7452498543097
 30
0.0
 10
-83.22345435451025
 20
-297.9818931802275
 30
0.0
 10
-84.16982561919642
 20
-298.2569874572167
 30
0.0
 10
-85.22717289263127
 20
-298.560448808329
 30
0.0
 10
-86.03262186391414
 20
-298.7865893166091
 30
0.0
 10
-86.43537320356481
 20
-298.8996671103694
 30
0.0
  0
LINE
  5
200
330
1F
100
AcDbEntity
  8
0
  6
Continuous
 62
     7
370
    15
100
AcDbLine
 10
-86.9297615059
 20
-178.658718765
 30
0.0
 11
-86.5526854319
 21
-178.7643830585
 31
0.0
  0
SPLINE
  5
201
330
1F
100
AcDbEntity
  8
0
  6
Continuous
 62
     7
370
    15
100
AcDbSpline
210
0.0
220
0.0
230
1.0
 70
     8
 71
     3
 72
    18
 73
    14
 74
     0
 42
0.00000001
 43
0.00000001
 12
1.0
 22
0.0
 32
0.0
 13
1.0
 23
0.0
 33
0.0
 40
0.0
 40
0.0
 40
0.0
 40
0.0
 40
0.0769313338507112
 40
0.1661441852563872
 40
0.2553570425849542
 40
0.3446988403052675
 40
0.4340406508899622
 40
0.5234250388962222
 40
0.6128094415962775
 40
0.7095743942768409
 40
0.8063525104443446
 40
0.9031697989329849
 40
1.0
 40
1.0
 40
1.0
 40
1.0
 10
-80.00256532891787
 20
-180.6789190895404
 30
0.0
 10
-80.0070653130046
 20
-180.6775431206946
 30
0.0
 10
-80.0167836703024
 20
-180.6745715197697
 30
0.0
 10
-80.15735803694731
 20
-180.6315417161671
 30
0.0
 10
-80.39794936591251
 20
-180.5581379870131
 30
0.0
 10
-80.74471330753218
 20
-180.4527286782741
 30
0.0
 10
-81.1941109563741
 20
-180.3169170110667
 30
0.0
 10
-81.74665872849691
 20
-180.1510618910857
 30
0.0
 10
-82.42007789257367
 20
-179.9506814806946
 30
0.0
 10
-83.22345435450998
 20
-179.7140381547771
 30
0.0
 10
-84.16982561919652
 20
-179.438943877788
 30
0.0
 10
-85.22717289263127
 20
-179.1354825266755
 30
0.0
 10
-86.0326218639141
 20
-178.9093420183954
 30
0.0
 10
-86.43537320356481
 20
-178.7962642246353
 30
0.0
  0
SPLINE
  5
202
330
1F
100
AcDbEntity
  8
0
  6
Continuous
 62
     7
370
    15
100
AcDbSpline
210
0.0
220
0.0
230
1.0
 70
     8
 71
     3
 72
    23
 73
    19
 74
     0
 42
0.00000001
 43
0.00000001
 12
1.0
 22
0.0
 32
0.0
 13
1.0
 23
0.0
 33
0.0
 40
0.0
 40
0.0
 40
0.0
 40
0.0
 40
0.0401764372230682
 40
0.1069537977225441
 40
0.1715493355599043
 40
0.2365912979078036
 40
0.303038922345751
 40
0.3699713137824726
 40
0.4347721143891944
 40
0.5000213328885694
 40
0.5666843639695793
 40
0.6338359092926977
 40
0.6987444368741875
 40
0.7641047030642223
 40
0.8308927920851448
 40
0.8981757665958939
 40
0.962918041288328
 40
1.0
 40
1.0
 40
1.0
 40
1.0
 10
-74.27966175919626
 20
-226.347965667503
 30
0.0
 10
-74.29323088013595
 20
-226.0416301989726
 30
0.0
 10
-74.32935327217875
 20
-225.226133753767
 30
0.0
 10
-74.39692654353001
 20
-223.8968889739733
 30
0.0
 10
-74.48085953725756
 20
-222.3733554207363
 30
0.0
 10
-74.57230321371568
 20
-220.856554401782
 30
0.0
 10
-74.67145119061206
 20
-219.3379292796005
 30
0.0
 10
-74.77635121319146
 20
-217.848223199244
 30
0.0
 10
-74.88523664500417
 20
-216.4048581296453
 30
0.0
 10
-74.99735301578656
 20
-215.010032610821
 30
0.0
 10
-75.11293491447432
 20
-213.6561817180187
 30
0.0
 10
-75.22898435557134
 20
-212.3728448804001
 30
0.0
 10
-75.34339354113153
 20
-211.1739090500204
 30
0.0
 10
-75.45519509395511
 20
-210.0606848090726
 30
0.0
 10
-75.56447016333172
 20
-209.0259354128214
 30
0.0
 10
-75.66736210663788
 20
-208.1018766886319
 30
0.0
 10
-75.7502065723611
 20
-207.3903477431071
 30
0.0
 10
-75.79442708115725
 20
-207.0364996118773
 30
0.0
 10
-75.8105311364157
 20
-206.907636556848
 30
0.0
  0
SPLINE
  5
203
330
1F
100
AcDbEntity
  8
0
  6
Continuous
 62
     7
370
    15
100
AcDbSpline
210
0.0
220
0.0
230
1.0
 70
     8
 71
     3
 72
     8
 73
     4
 74
     0
 42
0.00000001
 43
0.00000001
 12
1.0
 22
0.0
 32
0.0
 13
1.0
 23
0.0
 33
0.0
 40
0.0
 40
0.0
 40
0.0
 40
0.0
 40
1.0
 40
1.0
 40
1.0
 40
1.0
 10
-243.8812377567943
 20
-248.3578143578211
 30
0.0
 10
-243.987170922531
 20
-245.184878489915
 30
0.0
 10
-244.0399437387267
 20
-242.0140497082785
 30
0.0
 10
-244.0399437387267
 20
-238.8479656675023
 30
0.0
  0
SPLINE
  5
204
330
1F
100
AcDbEntity
  8
0
  6
Continuous
 62
     7
370
    15
100
AcDbSpline
210
0.0
220
0.0
230
1.0
 70
     8
 71
     3
 72
     8
 73
     4
 74
     0
 42
0.00000001
 43
0.00000001
 12
1.0
 22
0.0
 32
0.0
 13
1.0
 23
0.0
 33
0.0
 40
0.0
 40
0.0
 40
0.0
 40
0.0
 40
1.0
 40
1.0
 40
1.0
 40
1.0
 10
-243.8812377567943
 20
-229.3381169771835
 30
0.0
 10
-243.987170922531
 20
-232.5110528450896
 30
0.0
 10
-244.0399437387267
 20
-235.681881626726
 30
0.0
 10
-244.0399437387267
 20
-238.8479656675023
 30
0.0
  0
SPLINE
  5
205
330
1F
100
AcDbEntity
  8
0
  6
Continuous
 62
     7
370
    15
100
AcDbSpline
210
0.0
220
0.0
230
1.0
 70
     8
 71
     3
 72
    10
 73
     6
 74
     0
 42
0.00000001
 43
0.00000001
 12
1.0
 22
0.0
 32
0.0
 13
1.0
 23
0.0
 33
0.0
 40
0.0
 40
0.0
 40
0.0
 40
0.0
 40
0.5
 40
0.5
 40
1.0
 40
1.0
 40
1.0
 40
1.0
 10
-169.539640703896
 20
-310.6456853982532
 30
0.0
 10
-169.4653992478618
 20
-310.6485502102356
 30
0.0
 10
-169.39272748209
 20
-310.6513215681475
 30
0.0
 10
-169.2705022521914
 20
-310.655944284097
 30
0.0
 10
-169.2216155616625
 20
-310.6577724409198
 30
0.0
 10
-169.193185879204
 20
-310.6588331888439
 30
0.0
  0
ARC
  5
206
330
1F
100
AcDbEntity
  8
0
  6
Continuous
 62
     7
370
    15
100
AcDbCircle
 10
-159.0515737147
 20
-38.8479656675
 30
0.0
 40
272.0000000000114
100
AcDbArc
 50
262.3705102806
 51
267.7901802129
  0
LINE
  5
207
330
1F
100
AcDbEntity
  8
0
  6
Continuous
 62
     7
370
    15
100
AcDbLine
 10
-123.281622721
 20
-308.4857052477
 30
0.0
 11
-120.9140737147
 21
-308.1610383056
 31
0.0
  0
LINE
  5
208
330
1F
100
AcDbEntity
  8
0
  6
Continuous
 62
     7
370
    15
100
AcDbLine
 10
-120.5390737147
 20
-306.0871606666
 30
0.0
 11
-120.5390737147
 21
-308.1076680809
 31
0.0
  0
SPLINE
  5
209
330
1F
100
AcDbEntity
  8
0
  6
Continuous
 62
     7
370
    15
100
AcDbSpline
210
0.0
220
0.0
230
1.0
 70
     8
 71
     3
 72
    10
 73
     6
 74
     0
 42
0.00000001
 43
0.00000001
 12
1.0
 22
0.0
 32
0.0
 13
1.0
 23
0.0
 33
0.0
 40
0.0
 40
0.0
 40
0.0
 40
0.0
 40
0.5
 40
0.5
 40
1.0
 40
1.0
 40
1.0
 40
1.0
 10
-120.9140737146762
 20
-308.1610383055681
 30
0.0
 10
-120.8155222256108
 20
-308.1470824014696
 30
0.0
 10
-120.7190472718164
 20
-308.1333576369794
 30
0.0
 10
-120.580284960857
 20
-308.1135684712539
 30
0.0
 10
-120.5390737146753
 20
-308.1076680808971
 30
0.0
 10
-120.5390737146752
 20
-308.107668080897
 30
0.0
  0
SPLINE
  5
20A
330
1F
100
AcDbEntity
  8
0
  6
Continuous
 62
     7
370
    15
100
AcDbSpline
210
0.0
220
0.0
230
1.0
 70
     8
 71
     3
 72
    10
 73
     6
 74
     0
 42
0.00000001
 43
0.00000001
 12
1.0
 22
0.0
 32
0.0
 13
1.0
 23
0.0
 33
0.0
 40
0.0
 40
0.0
 40
0.0
 40
0.0
 40
0.5
 40
0.5
 40
1.0
 40
1.0
 40
1.0
 40
1.0
 10
-195.5390737146762
 20
-308.3895438029657
 30
0.0
 10
-195.5390737146762
 20
-308.3895438029657
 30
0.0
 10
-195.4980002054743
 20
-308.3951097450833
 30
0.0
 10
-195.3594799265798
 20
-308.4138033228643
 30
0.0
 10
-195.2626609327509
 20
-308.4268354928704
 30
0.0
 10
-195.1640737146732
 20
-308.4400414853019
 30
0.0
  0
LINE
  5
20B
330
1F
100
AcDbEntity
  8
0
  6
Continuous
 62
     7
370
    15
100
AcDbLine
 10
-195.5390737147
 20
-306.371165304
 30
0.0
 11
-195.5390737147
 21
-308.3895438029
 31
0.0
  0
LINE
  5
20C
330
1F
100
AcDbEntity
  8
0
  6
Continuous
 62
     7
370
    15
100
AcDbLine
 10
-148.9099615501
 20
-310.6588331889
 30
0.0
 11
-148.8626615794
 21
-310.6570625267
 31
0.0
  0
ARC
  5
20D
330
1F
100
AcDbEntity
  8
0
  6
Continuous
 62
     7
370
    15
100
AcDbCircle
 10
-159.0515737147
 20
-38.8479656675
 30
0.0
 40
272.0000000000359
100
AcDbArc
 50
270.0729794287
 51
272.1367878409
  0
ARC
  5
20E
330
1F
100
AcDbEntity
  8
0
  6
Continuous
 62
     7
370
    15
100
AcDbCircle
 10
-159.0515737147
 20
-38.8479656675
 30
0.0
 40
272.0000000000114
100
AcDbArc
 50
267.8632121591
 51
269.9270205713
  0
ARC
  5
20F
330
1F
100
AcDbEntity
  8
0
  6
Continuous
 62
     7
370
    15
100
AcDbCircle
 10
-159.0515737147
 20
-38.8479656675
 30
0.0
 40
272.0
100
AcDbArc
 50
261.8659358348
 51
262.2908049471
  0
SPLINE
  5
210
330
1F
100
AcDbEntity
  8
0
  6
Continuous
 62
     7
370
    15
100
AcDbSpline
210
0.0
220
0.0
230
1.0
 70
     8
 71
     3
 72
    14
 73
    10
 74
     0
 42
0.00000001
 43
0.00000001
 12
1.0
 22
0.0
 32
0.0
 13
1.0
 23
0.0
 33
0.0
 40
0.0
 40
0.0
 40
0.0
 40
0.0
 40
0.25
 40
0.25
 40
0.5
 40
0.5
 40
0.75
 40
0.75
 40
1.0
 40
1.0
 40
1.0
 40
1.0
 10
-159.398028539368
 20
-310.8477450223037
 30
0.0
 10
-159.3695820305608
 20
-310.8477812555324
 30
0.0
 10
-159.3211386137599
 20
-310.8478389598176
 30
0.0
 10
-159.1988885709766
 20
-310.8479326428744
 30
0.0
 10
-159.1248673215063
 20
-310.8479656637082
 30
0.0
 10
-158.9783082716377
 20
-310.8479656712958
 30
0.0
 10
-158.9043210955204
 20
-310.8479326839016
 30
0.0
 10
-158.7820058639888
 20
-310.8478389642191
 30
0.0
 10
-158.7335653987851
 20
-310.8477812555211
 30
0.0
 10
-158.7051188899845
 20
-310.8477450222923
 30
0.0
  0
SPLINE
  5
211
330
1F
100
AcDbEntity
  8
0
  6
Continuous
 62
     7
370
    15
100
AcDbSpline
210
0.0
220
0.0
230
1.0
 70
     8
 71
     3
 72
     9
 73
     5
 74
     0
 42
0.00000001
 43
0.00000001
 12
1.0
 22
0.0
 32
0.0
 13
1.0
 23
0.0
 33
0.0
 40
0.0
 40
0.0
 40
0.0
 40
0.0
 40
0.3148749938998729
 40
0.9999999999999999
 40
0.9999999999999999
 40
0.9999999999999999
 40
0.9999999999999999
 10
-197.5604466635518
 20
-308.1081868236835
 30
0.0
 10
-197.5618456383346
 20
-308.1079867735584
 30
0.0
 10
-197.5662885912838
 20
-308.1073514416683
 30
0.0
 10
-197.5487900598343
 20
-308.1098533456371
 30
0.0
 10
-197.5368013783682
 20
-308.111567462609
 30
0.0
  0
LINE
  5
212
330
1F
100
AcDbEntity
  8
0
  6
Continuous
 62
     7
370
    15
100
AcDbLine
 10
-101.0515737147
 20
-162.3479656675
 30
0.0
 11
-121.0519391499
 21
-162.3479656675
 31
0.0
  0
LINE
  5
213
330
1F
100
AcDbEntity
  8
0
  6
Continuous
 62
     7
370
    15
100
AcDbLine
 10
-147.3384947558
 20
-162.3479656675
 30
0.0
 11
-217.0515737147
 21
-162.3479656675
 31
0.0
  0
LINE
  5
214
330
1F
100
AcDbEntity
  8
0
  6
Continuous
 62
     7
370
    15
100
AcDbLine
 10
-217.0515737147
 20
-175.1511700859
 30
0.0
 11
-217.0515737147
 21
-162.3479656675
 31
0.0
  0
LINE
  5
215
330
1F
100
AcDbEntity
  8
0
  6
Continuous
 62
     7
370
    15
100
AcDbLine
 10
-101.0515737147
 20
-175.1511700859
 30
0.0
 11
-101.0515737147
 21
-162.3479656675
 31
0.0
  0
LINE
  5
216
330
1F
100
AcDbEntity
  8
0
  6
Continuous
 62
     7
370
    15
100
AcDbLine
 10
-101.0515737147
 20
-302.5447612491
 30
0.0
 11
-101.0515737147
 21
-315.3479656675
 31
0.0
  0
LINE
  5
217
330
1F
100
AcDbEntity
  8
0
  6
Continuous
 62
     7
370
    15
100
AcDbLine
 10
-101.0515737147
 20
-315.3479656675
 30
0.0
 11
-121.0519391499
 21
-315.3479656675
 31
0.0
  0
LINE
  5
218
330
1F
100
AcDbEntity
  8
0
  6
Continuous
 62
     7
370
    15
100
AcDbLine
 10
-147.3384947558
 20
-315.3479656675
 30
0.0
 11
-217.0515737147
 21
-315.3479656675
 31
0.0
  0
LINE
  5
219
330
1F
100
AcDbEntity
  8
0
  6
Continuous
 62
     7
370
    15
100
AcDbLine
 10
-217.0515737147
 20
-302.5447612491
 30
0.0
 11
-217.0515737147
 21
-315.3479656675
 31
0.0
  0
LINE
  5
21A
330
1F
100
AcDbEntity
  8
0
  6
Continuous
 62
     7
370
    15
100
AcDbLine
 10
-263.3515737147
 20
-238.8479656675
 30
0.0
 11
-263.1157387079
 21
-247.8541412245
 31
0.0
  0
LINE
  5
21B
330
1F
100
AcDbEntity
  8
0
  6
Continuous
 62
     7
370
    15
100
AcDbLine
 10
-263.3515737147
 20
-238.8479656675
 30
0.0
 11
-263.1157387079
 21
-229.8417901105
 31
0.0
  0
LINE
  5
21C
330
1F
100
AcDbEntity
  8
0
  6
Continuous
 62
     7
370
    15
100
AcDbLine
 10
-243.8812377568
 20
-229.3381169772
 30
0.0
 11
-263.1157387079
 21
-229.8417901105
 31
0.0
  0
LINE
  5
21D
330
1F
100
AcDbEntity
  8
0
  6
Continuous
 62
     7
370
    15
100
AcDbLine
 10
-243.8812377568
 20
-248.3578143578
 30
0.0
 11
-263.1157387079
 21
-247.8541412245
 31
0.0
  0
LINE
  5
21E
330
1F
100
AcDbEntity
  8
0
  6
Continuous
 62
     7
370
    15
100
AcDbLine
 10
-70.3350516095
 20
-212.322381621
 30
0.0
 11
-70.0515737147
 21
-212.429853971
 31
0.0
  0
SPLINE
  5
21F
330
1F
100
AcDbEntity
  8
0
  6
Continuous
 62
     7
370
    15
100
AcDbSpline
210
0.0
220
0.0
230
1.0
 70
     8
 71
     3
 72
    29
 73
    25
 74
     0
 42
0.00000001
 43
0.00000001
 12
1.0
 22
0.0
 32
0.0
 13
1.0
 23
0.0
 33
0.0
 40
0.0
 40
0.0
 40
0.0
 40
0.0
 40
0.0012337363568413
 40
0.0502621238319646
 40
0.0975893090925911
 40
0.1452449627741786
 40
0.19393660602277
 40
0.2429862546034542
 40
0.2903210869055562
 40
0.3379847190366957
 40
0.3866856045879941
 40
0.4357450106445641
 40
0.4830632351919036
 40
0.5307101886387928
 40
0.5793940777313767
 40
0.6284363263134515
 40
0.6757379918799825
 40
0.7233681452716676
 40
0.772034345620205
 40
0.821058546521604
 40
0.8683556620329669
 40
0.9159811504050508
 40
0.9646422630885275
 40
0.9999999999999999
 40
0.9999999999999999
 40
0.9999999999999999
 40
0.9999999999999999
 10
-70.30002001378809
 20
-226.347965667503
 30
0.0
 10
-70.29995455669481
 20
-226.3355065175438
 30
0.0
 10
-70.29728785038436
 20
-225.8279237308159
 30
0.0
 10
-70.29463881458494
 20
-224.8193401944066
 30
0.0
 10
-70.2925109630161
 20
-223.3309699172515
 30
0.0
 10
-70.29370915521535
 20
-221.8417101965204
 30
0.0
 10
-70.29787309262977
 20
-220.3446679495958
 30
0.0
 10
-70.30494009336734
 20
-218.870941434424
 30
0.0
 10
-70.31449611674797
 20
-217.4381983658732
 30
0.0
 10
-70.32621046423331
 20
-216.0486505038919
 30
0.0
 10
-70.33995072011379
 20
-214.6931280668983
 30
0.0
 10
-70.35521222915519
 20
-213.4020077505626
 30
0.0
 10
-70.37156006264779
 20
-212.1895006552652
 30
0.0
 10
-70.38876951868403
 20
-211.0564639001045
 30
0.0
 10
-70.40686583927656
 20
-209.9962409617584
 30
0.0
 10
-70.4253854647009
 20
-209.033719117466
 30
0.0
 10
-70.44403734834324
 20
-208.1783036515937
 30
0.0
 10
-70.46274914208163
 20
-207.4293637848712
 30
0.0
 10
-70.48165861277033
 20
-206.783675474036
 30
0.0
 10
-70.5003707535771
 20
-206.2581845214017
 30
0.0
 10
-70.51869562840751
 20
-205.85496798941
 30
0.0
 10
-70.5366117653074
 20
-205.5775804389626
 30
0.0
 10
-70.55271088220384
 20
-205.4217003721412
 30
0.0
 10
-70.56258955010948
 20
-205.4177087562462
 30
0.0
 10
-70.56674679985198
 20
-205.4160289605177
 30
0.0
  0
LINE
  5
220
330
1F
100
AcDbEntity
  8
0
  6
Continuous
 62
     7
370
    15
100
AcDbLine
 10
-70.0515737147
 20
-212.429853971
 30
0.0
 11
-70.0515737147
 21
-226.3479656675
 31
0.0
  0
CIRCLE
  5
221
330
1F
100
AcDbEntity
  8
0
  6
Continuous
 62
     7
370
    15
100
AcDbCircle
 10
-159.0515737147
 20
-372.3479656675
 30
0.0
 40
9.5
  0
ARC
  5
222
330
1F
100
AcDbEntity
  8
0
  6
Continuous
 62
     7
370
    15
100
AcDbCircle
 10
-292.5515737147
 20
-238.8479656675
 30
0.0
 40
9.500000000000037
100
AcDbArc
 50
24.9010623704
 51
165.2633562775
  0
ARC
  5
223
330
1F
100
AcDbEntity
  8
0
  6
Continuous
 62
     7
370
    15
100
AcDbCircle
 10
-292.5515737147
 20
-238.8479656675
 30
0.0
 40
9.49999999999998
100
AcDbArc
 50
194.7366437225
 51
335.0989376296
  0
CIRCLE
  5
224
330
1F
100
AcDbEntity
  8
0
  6
Continuous
 62
     7
370
    15
100
AcDbCircle
 10
-159.0515737147
 20
-105.3479656675
 30
0.0
 40
9.499999999999972
  0
CIRCLE
  5
225
330
1F
100
AcDbEntity
  8
0
  6
Continuous
 62
     8
370
     0
100
AcDbCircle
 10
-159.0515737147
 20
-238.8479656675
 30
0.0
 40
168.9999999999999
  0
LINE
  5
226
330
1F
100
AcDbEntity
  8
0
  6
Continuous
 62
     8
370
     0
100
AcDbLine
 10
-224.1015737147
 20
-238.8479656675
 30
0.0
 11
-237.9252238306
 21
-238.8479656675
 31
0.0
  0
LINE
  5
227
330
1F
100
AcDbEntity
  8
0
  6
Continuous
 62
     8
370
     0
100
AcDbLine
 10
-159.0515737147
 20
-168.8479656675
 30
0.0
 11
-159.0515737147
 21
-182.8979656675
 31
0.0
  0
LINE
  5
228
330
1F
100
AcDbEntity
  8
0
  6
Continuous
 62
     8
370
     0
100
AcDbLine
 10
-159.0515737147
 20
-308.8479656675
 30
0.0
 11
-159.0515737147
 21
-294.7979656675
 31
0.0
  0
SPLINE
  5
229
330
1F
100
AcDbEntity
  8
0
  6
Continuous
 62
     8
370
     0
100
AcDbSpline
210
0.0
220
0.0
230
1.0
 70
    24
 71
     3
 72
     8
 73
     4
 74
     0
 42
0.00000001
 43
0.00000001
 12
1.0
 22
0.0
 32
0.0
 13
1.0
 23
0.0
 33
0.0
 40
0.0
 40
0.0
 40
0.0
 40
0.0
 40
1.0
 40
1.0
 40
1.0
 40
1.0
 10
-237.9252238305689
 20
-238.8479656675023
 30
0.0
 10
-241.6079131979044
 20
-238.8479656675023
 30
0.0
 10
-243.6580529342003
 20
-238.8479656675023
 30
0.0
 10
-244.0399437387267
 20
-238.8479656675023
 30
0.0
  0
LINE
  5
22A
330
1F
100
AcDbEntity
  8
0
  6
Continuous
 62
     8
370
     0
100
AcDbLine
 10
-169.1931858792
 20
-308.6574312217
 30
0.0
 11
-169.1931858792
 21
-310.6588331888
 31
0.0
  0
LINE
  5
22B
330
1F
100
AcDbEntity
  8
0
  6
Continuous
 62
     8
370
     0
100
AcDbLine
 10
-169.5396407039
 20
-308.6441858983
 30
0.0
 11
-169.5396407039
 21
-310.6456853983
 31
0.0
  0
LINE
  5
22C
330
1F
100
AcDbEntity
  8
0
  6
Continuous
 62
     8
370
     0
100
AcDbLine
 10
-195.1640737147
 20
-306.4220439033
 30
0.0
 11
-195.1640737147
 21
-308.4400414853
 31
0.0
  0
LINE
  5
22D
330
1F
100
AcDbEntity
  8
0
  6
Continuous
 62
     8
370
     0
100
AcDbLine
 10
-120.9140737147
 20
-306.140934325
 30
0.0
 11
-120.9140737147
 21
-308.1610383056
 31
0.0
  0
LINE
  5
22E
330
1F
100
AcDbEntity
  8
0
  6
Continuous
 62
     8
370
     0
100
AcDbLine
 10
-148.9099615501
 20
-310.5114881854
 30
0.0
 11
-148.9099615501
 21
-310.6588331889
 31
0.0
  0
LINE
  5
22F
330
1F
100
AcDbEntity
  8
0
  6
Continuous
 62
     8
370
     0
100
AcDbLine
 10
-158.70511889
 20
-308.8477433879
 30
0.0
 11
-158.70511889
 21
-310.8477450223
 31
0.0
  0
LINE
  5
230
330
1F
100
AcDbEntity
  8
0
  6
Continuous
 62
     8
370
     0
100
AcDbLine
 10
-159.3980285394
 20
-308.8477433879
 30
0.0
 11
-159.3980285394
 21
-310.8477450223
 31
0.0
  0
LINE
  5
231
330
1F
100
AcDbEntity
  8
0
  6
Continuous
 62
     8
370
     0
100
AcDbLine
 10
-197.5368013784
 20
-306.0910895297
 30
0.0
 11
-197.5368013784
 21
-308.1115674625
 31
0.0
  0
LINE
  5
232
330
1F
100
AcDbEntity
  8
0
  6
Continuous
 62
     8
370
     0
100
AcDbLine
 10
-285.0515737147
 20
-234.8479656675
 30
0.0
 11
-285.0515737147
 21
-242.8479656675
 31
0.0
  0
INSERT
  5
23E
330
1F
100
AcDbEntity
  8
FORMAT
 62
     7
100
AcDbBlockReference
  2
SW_CENTERMARKSYMBOL_0
 10
-159.0515737147
 20
-238.8479656675
 30
0.0
  0
ENDSEC
  0
SECTION
  2
OBJECTS
  0
DICTIONARY
  5
C
330
0
100
AcDbDictionary
281
     1
  3
ACAD_GROUP
350
D
  3
ACAD_LAYOUT
350
1A
  3
ACAD_MLINESTYLE
350
17
  3
ACAD_PLOTSETTINGS
350
19
  3
ACAD_PLOTSTYLENAME
350
E
  0
DICTIONARY
  5
D
102
{ACAD_REACTORS
330
C
102
}
330
C
100
AcDbDictionary
281
     1
  0
DICTIONARY
  5
1A
102
{ACAD_REACTORS
330
C
102
}
330
C
100
AcDbDictionary
281
     1
  3
Layout1
350
1E
  3
Layout2
350
26
  3
Model
350
22
  0
DICTIONARY
  5
17
102
{ACAD_REACTORS
330
C
102
}
330
C
100
AcDbDictionary
281
     1
  3
Standard
350
18
  0
DICTIONARY
  5
19
102
{ACAD_REACTORS
330
C
102
}
330
C
100
AcDbDictionary
281
     1
  0
ACDBDICTIONARYWDFLT
  5
E
102
{ACAD_REACTORS
330
C
102
}
330
C
100
AcDbDictionary
281
     1
  3
Normal
350
F
100
AcDbDictionaryWithDefault
340
F
  0
LAYOUT
  5
1E
102
{ACAD_REACTORS
330
1A
102
}
330
1A
100
AcDbPlotSettings
  1

  2
none_device
  4

  6

 40
0.0
 41
0.0
 42
0.0
 43
0.0
 44
0.0
 45
0.0
 46
0.0
 47
0.0
 48
0.0
 49
0.0
140
0.0
141
0.0
142
1.0
143
1.0
 70
   688
 72
     0
 73
     0
 74
     5
  7

 75
    16
147
1.0
148
0.0
149
0.0
100
AcDbLayout
  1
Layout1
 70
     1
 71
     1
 10
0.0
 20
0.0
 11
420.0
 21
297.0
 12
0.0
 22
0.0
 32
0.0
 14
1.0000000000E+20
 24
1.0000000000E+20
 34
1.0000000000E+20
 15
-1.0000000000E+20
 25
-1.0000000000E+20
 35
-1.0000000000E+20
146
0.0
 13
0.0
 23
0.0
 33
0.0
 16
1.0
 26
0.0
 36
0.0
 17
0.0
 27
1.0
 37
0.0
 76
     0
330
1B
  0
LAYOUT
  5
26
102
{ACAD_REACTORS
330
1A
102
}
330
1A
100
AcDbPlotSettings
  1

  2
none_device
  4

  6

 40
0.0
 41
0.0
 42
0.0
 43
0.0
 44
0.0
 45
0.0
 46
0.0
 47
0.0
 48
0.0
 49
0.0
140
0.0
141
0.0
142
1.0
143
1.0
 70
   688
 72
     0
 73
     0
 74
     5
  7

 75
    16
147
1.0
148
0.0
149
0.0
100
AcDbLayout
  1
Layout2
 70
     1
 71
     2
 10
0.0
 20
0.0
 11
0.0
 21
0.0
 12
0.0
 22
0.0
 32
0.0
 14
0.0
 24
0.0
 34
0.0
 15
0.0
 25
0.0
 35
0.0
146
0.0
 13
0.0
 23
0.0
 33
0.0
 16
1.0
 26
0.0
 36
0.0
 17
0.0
 27
1.0
 37
0.0
 76
     0
330
23
  0
LAYOUT
  5
22
102
{ACAD_REACTORS
330
1A
102
}
330
1A
100
AcDbPlotSettings
  1

  2
none_device
  4

  6

 40
0.0
 41
0.0
 42
0.0
 43
0.0
 44
0.0
 45
0.0
 46
0.0
 47
0.0
 48
0.0
 49
0.0
140
0.0
141
0.0
142
1.0
143
1.0
 70
  1712
 72
     0
 73
     0
 74
     0
  7

 75
     0
147
1.0
148
0.0
149
0.0
100
AcDbLayout
  1
Model
 70
     1
 71
     0
 10
0.0
 20
0.0
 11
594.0
 21
420.0
 12
0.0
 22
0.0
 32
0.0
 14
0.0
 24
0.0
 34
0.0
 15
594.0
 25
420.0
 35
0.0
146
0.0
 13
0.0
 23
0.0
 33
0.0
 16
1.0
 26
0.0
 36
0.0
 17
0.0
 27
1.0
 37
0.0
 76
     0
330
1F
331
29
  0
MLINESTYLE
  5
18
102
{ACAD_REACTORS
330
17
102
}
330
17
100
AcDbMlineStyle
  2
Standard
 70
     0
  3

 62
   256
 51
90.0
 52
90.0
 71
     2
 49
0.5
 62
   256
  6
BYLAYER
 49
-0.5
 62
   256
  6
BYLAYER
  0
ACDBPLACEHOLDER
  5
F
102
{ACAD_REACTORS
330
E
102
}
330
E
  0
ENDSEC
  0
EOF
