  0
SECTION
  2
HEADER
  9
$ACADVER
  1
AC1015
  9
$ACADMAINTVER
 70
     6
  9
$DWGCODEPAGE
  3
ANSI_1252
  9
$INSBASE
 10
0.0
 20
0.0
 30
0.0
  9
$EXTMIN
 10
0.0
 20
0.0
 30
0.0
  9
$EXTMAX
 10
594.0
 20
420.0
 30
0.0
  9
$LIMMIN
 10
0.0
 20
0.0
  9
$LIMMAX
 10
594.0
 20
420.0
  9
$ORTHOMODE
 70
     0
  9
$REGENMODE
 70
     1
  9
$FILLMODE
 70
     1
  9
$QTEXTMODE
 70
     0
  9
$MIRRTEXT
 70
     1
  9
$LTSCALE
 40
1.0
  9
$ATTMODE
 70
     1
  9
$TEXTSIZE
 40
2.5
  9
$TRACEWID
 40
1.0
  9
$TEXTSTYLE
  7
Standard
  9
$CLAYER
  8
0
  9
$CELTYPE
  6
ByLayer
  9
$CECOLOR
 62
   256
  9
$CELTSCALE
 40
1.0
  9
$DISPSILH
 70
     0
  9
$DIMSCALE
 40
1.0
  9
$DIMASZ
 40
2.5
  9
$DIMEXO
 40
1.0
  9
$DIMDLI
 40
3.75
  9
$DIMRND
 40
0.0
  9
$DIMDLE
 40
0.0
  9
$DIMEXE
 40
1.0
  9
$DIMTP
 40
0.0
  9
$DIMTM
 40
0.0
  9
$DIMTXT
 40
2.5
  9
$DIMCEN
 40
2.5
  9
$DIMTSZ
 40
0.0
  9
$DIMTOL
 70
     0
  9
$DIMLIM
 70
     0
  9
$DIMTIH
 70
     1
  9
$DIMTOH
 70
     1
  9
$DIMSE1
 70
     0
  9
$DIMSE2
 70
     0
  9
$DIMTAD
 70
     1
  9
$DIMZIN
 70
     0
  9
$DIMBLK
  1

  9
$DIMASO
 70
     1
  9
$DIMSHO
 70
     1
  9
$DIMPOST
  1

  9
$DIMAPOST
  1

  9
$DIMALT
 70
     0
  9
$DIMALTD
 70
     3
  9
$DIMALTF
 40
0.0393700787
  9
$DIMLFAC
 40
1.0
  9
$DIMTOFL
 70
     1
  9
$DIMTVP
 40
0.0
  9
$DIMTIX
 70
     0
  9
$DIMSOXD
 70
     0
  9
$DIMSAH
 70
     0
  9
$DIMBLK1
  1

  9
$DIMBLK2
  1

  9
$DIMSTYLE
  2
ISO-25
  9
$DIMCLRD
 70
     0
  9
$DIMCLRE
 70
     0
  9
$DIMCLRT
 70
     0
  9
$DIMTFAC
 40
1.0
  9
$DIMGAP
 40
1.524
  9
$DIMJUST
 70
     0
  9
$DIMSD1
 70
     0
  9
$DIMSD2
 70
     0
  9
$DIMTOLJ
 70
     0
  9
$DIMTZIN
 70
     0
  9
$DIMALTZ
 70
     0
  9
$DIMALTTZ
 70
     0
  9
$DIMUPT
 70
     0
  9
$DIMDEC
 70
     2
  9
$DIMTDEC
 70
     2
  9
$DIMALTU
 70
     2
  9
$DIMALTTD
 70
     3
  9
$DIMTXSTY
  7
Standard
  9
$DIMAUNIT
 70
     0
  9
$DIMADEC
 70
     2
  9
$DIMALTRND
 40
0.0
  9
$DIMAZIN
 70
     0
  9
$DIMDSEP
 70
    44
  9
$DIMATFIT
 70
     3
  9
$DIMFRAC
 70
     0
  9
$DIMLDRBLK
  1

  9
$DIMLUNIT
 70
     2
  9
$DIMLWD
 70
    -2
  9
$DIMLWE
 70
    -2
  9
$DIMTMOVE
 70
     0
  9
$LUNITS
 70
     2
  9
$LUPREC
 70
     2
  9
$SKETCHINC
 40
1.0
  9
$FILLETRAD
 40
10.0
  9
$AUNITS
 70
     0
  9
$AUPREC
 70
     2
  9
$MENU
  1
.
  9
$ELEVATION
 40
0.0
  9
$PELEVATION
 40
0.0
  9
$THICKNESS
 40
0.0
  9
$LIMCHECK
 70
     0
  9
$CHAMFERA
 40
10.0
  9
$CHAMFERB
 40
10.0
  9
$CHAMFERC
 40
20.0
  9
$CHAMFERD
 40
0.0
  9
$SKPOLY
 70
     0
  9
$TDCREATE
 40
2457655.467930533
  9
$TDUCREATE
 40
2457655.384597199
  9
$TDUPDATE
 40
2457655.467931609
  9
$TDUUPDATE
 40
2457655.384598276
  9
$TDINDWG
 40
0.0000000116
  9
$TDUSRTIMER
 40
0.0000000116
  9
$USRTIMER
 70
     1
  9
$ANGBASE
 50
0.0
  9
$ANGDIR
 70
     0
  9
$PDMODE
 70
     0
  9
$PDSIZE
 40
-1.0
  9
$PLINEWID
 40
0.0
  9
$SPLFRAME
 70
     0
  9
$SPLINETYPE
 70
     6
  9
$SPLINESEGS
 70
     8
  9
$HANDSEED
  5
265
  9
$SURFTAB1
 70
     6
  9
$SURFTAB2
 70
     6
  9
$SURFTYPE
 70
     6
  9
$SURFU
 70
     6
  9
$SURFV
 70
     6
  9
$UCSBASE
  2

  9
$UCSNAME
  2

  9
$UCSORG
 10
0.0
 20
0.0
 30
0.0
  9
$UCSXDIR
 10
1.0
 20
0.0
 30
0.0
  9
$UCSYDIR
 10
0.0
 20
1.0
 30
0.0
  9
$UCSORTHOREF
  2

  9
$UCSORTHOVIEW
 70
     0
  9
$UCSORGTOP
 10
0.0
 20
0.0
 30
0.0
  9
$UCSORGBOTTOM
 10
0.0
 20
0.0
 30
0.0
  9
$UCSORGLEFT
 10
0.0
 20
0.0
 30
0.0
  9
$UCSORGRIGHT
 10
0.0
 20
0.0
 30
0.0
  9
$UCSORGFRONT
 10
0.0
 20
0.0
 30
0.0
  9
$UCSORGBACK
 10
0.0
 20
0.0
 30
0.0
  9
$PUCSBASE
  2

  9
$PUCSNAME
  2

  9
$PUCSORG
 10
0.0
 20
0.0
 30
0.0
  9
$PUCSXDIR
 10
1.0
 20
0.0
 30
0.0
  9
$PUCSYDIR
 10
0.0
 20
1.0
 30
0.0
  9
$PUCSORTHOREF
  2

  9
$PUCSORTHOVIEW
 70
     0
  9
$PUCSORGTOP
 10
0.0
 20
0.0
 30
0.0
  9
$PUCSORGBOTTOM
 10
0.0
 20
0.0
 30
0.0
  9
$PUCSORGLEFT
 10
0.0
 20
0.0
 30
0.0
  9
$PUCSORGRIGHT
 10
0.0
 20
0.0
 30
0.0
  9
$PUCSORGFRONT
 10
0.0
 20
0.0
 30
0.0
  9
$PUCSORGBACK
 10
0.0
 20
0.0
 30
0.0
  9
$USERI1
 70
     0
  9
$USERI2
 70
     0
  9
$USERI3
 70
     0
  9
$USERI4
 70
     0
  9
$USERI5
 70
     0
  9
$USERR1
 40
0.0
  9
$USERR2
 40
0.0
  9
$USERR3
 40
0.0
  9
$USERR4
 40
0.0
  9
$USERR5
 40
0.0
  9
$WORLDVIEW
 70
     1
  9
$SHADEDGE
 70
     3
  9
$SHADEDIF
 70
    70
  9
$TILEMODE
 70
     1
  9
$MAXACTVP
 70
    64
  9
$PINSBASE
 10
0.0
 20
0.0
 30
0.0
  9
$PLIMCHECK
 70
     0
  9
$PEXTMIN
 10
1.0000000000E+20
 20
1.0000000000E+20
 30
1.0000000000E+20
  9
$PEXTMAX
 10
-1.0000000000E+20
 20
-1.0000000000E+20
 30
-1.0000000000E+20
  9
$PLIMMIN
 10
0.0
 20
0.0
  9
$PLIMMAX
 10
420.0
 20
297.0
  9
$UNITMODE
 70
     0
  9
$VISRETAIN
 70
     1
  9
$PLINEGEN
 70
     0
  9
$PSLTSCALE
 70
     1
  9
$TREEDEPTH
 70
  3020
  9
$CMLSTYLE
  2
Standard
  9
$CMLJUST
 70
     0
  9
$CMLSCALE
 40
20.0
  9
$PROXYGRAPHICS
 70
     1
  9
$MEASUREMENT
 70
     1
  9
$CELWEIGHT
370
    -1
  9
$ENDCAPS
280
     0
  9
$JOINSTYLE
280
     0
  9
$LWDISPLAY
290
     1
  9
$INSUNITS
 70
     4
  9
$HYPERLINKBASE
  1

  9
$STYLESHEET
  1

  9
$XEDIT
290
     1
  9
$CEPSNTYPE
380
     0
  9
$PSTYLEMODE
290
     1
  9
$FINGERPRINTGUID
  2
{B5D79589-B4A4-417F-B12B-8A1DC0C0FF4D}
  9
$VERSIONGUID
  2
{FAEB1C32-E019-11D5-929B-00C0DF256EC4}
  9
$EXTNAMES
290
     1
  9
$PSVPSCALE
 40
0.0
  9
$OLESTARTUP
290
     0
  0
ENDSEC
  0
SECTION
  2
CLASSES
  0
CLASS
  1
ACDBDICTIONARYWDFLT
  2
AcDbDictionaryWithDefault
  3
ObjectDBX Classes
 90
        0
280
     0
281
     0
  0
CLASS
  1
VISUALSTYLE
  2
AcDbVisualStyle
  3
ObjectDBX Classes
 90
     4095
280
     0
281
     0
  0
CLASS
  1
MATERIAL
  2
AcDbMaterial
  3
ObjectDBX Classes
 90
     1153
280
     0
281
     0
  0
CLASS
  1
ACDBPLACEHOLDER
  2
AcDbPlaceHolder
  3
ObjectDBX Classes
 90
        0
280
     0
281
     0
  0
CLASS
  1
LAYOUT
  2
AcDbLayout
  3
ObjectDBX Classes
 90
        0
280
     0
281
     0
  0
ENDSEC
  0
SECTION
  2
TABLES
  0
TABLE
  2
VPORT
  5
8
330
0
100
AcDbSymbolTable
 70
     1
  0
VPORT
  5
29
330
8
100
AcDbSymbolTableRecord
100
AcDbViewportTableRecord
  2
*Active
 70
     0
 10
0.0
 20
0.0
 11
1.0
 21
1.0
 12
297.0
 22
210.0
 13
0.0
 23
0.0
 14
10.0
 24
10.0
 15
10.0
 25
10.0
 16
0.0
 26
0.0
 36
1.0
 17
0.0
 27
0.0
 37
0.0
 40
420.0
 41
1.4142857143
 42
50.0
 43
0.0
 44
0.0
 50
0.0
 51
0.0
 71
     0
 72
  2000
 73
     1
 74
     3
 75
     0
 76
     0
 77
     0
 78
     0
281
     0
 65
     1
110
0.0
120
0.0
130
0.0
111
1.0
121
0.0
131
0.0
112
0.0
122
1.0
132
0.0
 79
     0
146
0.0
  0
ENDTAB
  0
TABLE
  2
LTYPE
  5
5
330
0
100
AcDbSymbolTable
 70
     6
  0
LTYPE
  5
14
330
5
100
AcDbSymbolTableRecord
100
AcDbLinetypeTableRecord
  2
ByBlock
 70
     0
  3

 72
    65
 73
     0
 40
0.0
  0
LTYPE
  5
15
330
5
100
AcDbSymbolTableRecord
100
AcDbLinetypeTableRecord
  2
ByLayer
 70
     0
  3

 72
    65
 73
     0
 40
0.0
  0
LTYPE
  5
16
330
5
100
AcDbSymbolTableRecord
100
AcDbLinetypeTableRecord
  2
Continuous
 70
     0
  3
Solid line
 72
    65
 73
     0
 40
0.0
  0
LTYPE
  5
3F
330
5
100
AcDbSymbolTableRecord
100
AcDbLinetypeTableRecord
  2
HIDDEN
 70
     0
  3
Hidden __ __ __ __ __ __ __ __ __ __ __ __ __ __
 72
    65
 73
     2
 40
1.905
 49
1.27
 74
     0
 49
-0.635
 74
     0
  0
LTYPE
  5
40
330
5
100
AcDbSymbolTableRecord
100
AcDbLinetypeTableRecord
  2
PHANTOM
 70
     0
  3
Phantom ______  __  __  ______  __  __  ______
 72
    65
 73
     6
 40
12.7
 49
6.35
 74
     0
 49
-1.27
 74
     0
 49
1.27
 74
     0
 49
-1.27
 74
     0
 49
1.27
 74
     0
 49
-1.27
 74
     0
  0
LTYPE
  5
41
330
5
100
AcDbSymbolTableRecord
100
AcDbLinetypeTableRecord
  2
CENTER
 70
     0
  3
Center ____ _ ____ _ ____ _ ____ _ ____ _ ____
 72
    65
 73
     4
 40
10.16
 49
6.35
 74
     0
 49
-1.27
 74
     0
 49
1.27
 74
     0
 49
-1.27
 74
     0
  0
LTYPE
  5
42
330
5
100
AcDbSymbolTableRecord
100
AcDbLinetypeTableRecord
  2
CENTERX2
 70
     0
  3
Center (2x) ________  __  ________  __  _____
 72
    65
 73
     4
 40
20.32
 49
12.7
 74
     0
 49
-2.54
 74
     0
 49
2.54
 74
     0
 49
-2.54
 74
     0
  0
LTYPE
  5
43
330
5
100
AcDbSymbolTableRecord
100
AcDbLinetypeTableRecord
  2
DOT2
 70
     0
  3
Dot (.5x) ........................................
 72
    65
 73
     2
 40
0.635
 49
0.0
 74
     0
 49
-0.635
 74
     0
  0
ENDTAB
  0
TABLE
  2
LAYER
  5
2
330
0
100
AcDbSymbolTable
 70
     3
  0
LAYER
  5
10
330
2
100
AcDbSymbolTableRecord
100
AcDbLayerTableRecord
  2
0
 70
     0
 62
     7
  6
Continuous
370
    -3
390
F
  0
LAYER
  5
44
330
2
100
AcDbSymbolTableRecord
100
AcDbLayerTableRecord
  2
FORMAT
 70
     0
 62
     7
  6
Continuous
370
    -3
390
F
  0
LAYER
  5
45
330
2
100
AcDbSymbolTableRecord
100
AcDbLayerTableRecord
  2
PROTOTYPE
 70
     0
 62
     7
  6
Continuous
370
    -3
390
F
  0
ENDTAB
  0
TABLE
  2
STYLE
  5
3
330
0
100
AcDbSymbolTable
 70
     1
  0
STYLE
  5
11
330
3
100
AcDbSymbolTableRecord
100
AcDbTextStyleTableRecord
  2
Standard
 70
     0
 40
0.0
 41
1.0
 50
0.0
 71
     0
 42
2.5
  3
txt
  4

  0
ENDTAB
  0
TABLE
  2
VIEW
  5
6
330
0
100
AcDbSymbolTable
 70
     0
  0
ENDTAB
  0
TABLE
  2
UCS
  5
7
330
0
100
AcDbSymbolTable
 70
     0
  0
ENDTAB
  0
TABLE
  2
APPID
  5
9
330
0
100
AcDbSymbolTable
 70
     1
  0
APPID
  5
12
330
9
100
AcDbSymbolTableRecord
100
AcDbRegAppTableRecord
  2
ACAD
 70
     0
  0
ENDTAB
  0
TABLE
  2
DIMSTYLE
  5
A
330
0
100
AcDbSymbolTable
 70
     1
100
AcDbDimStyleTable
  0
DIMSTYLE
105
27
330
A
100
AcDbSymbolTableRecord
100
AcDbDimStyleTableRecord
  2
ISO-25
 70
     0
 41
2.5
 42
0.625
 43
3.75
 44
1.25
 73
     0
 74
     0
 77
     1
 78
     8
140
2.5
141
2.5
143
0.0393700787
147
0.625
171
     3
172
     1
178
     0
271
     2
272
     2
274
     3
278
    44
283
     0
284
     8
340
11
  0
ENDTAB
  0
TABLE
  2
BLOCK_RECORD
  5
1
330
0
100
AcDbSymbolTable
 70
     2
  0
BLOCK_RECORD
  5
1F
330
1
100
AcDbSymbolTableRecord
100
AcDbBlockTableRecord
  2
*Model_Space
340
22
  0
BLOCK_RECORD
  5
1B
330
1
100
AcDbSymbolTableRecord
100
AcDbBlockTableRecord
  2
*Paper_Space
340
1E
  0
BLOCK_RECORD
  5
23
330
1
100
AcDbSymbolTableRecord
100
AcDbBlockTableRecord
  2
*Paper_Space0
340
26
  0
BLOCK_RECORD
  5
259
330
1
100
AcDbSymbolTableRecord
100
AcDbBlockTableRecord
  2
SW_CENTERMARKSYMBOL_0
340
0
102
{BLKREFS
331
264
102
}
  0
ENDTAB
  0
ENDSEC
  0
SECTION
  2
BLOCKS
  0
BLOCK
  5
20
330
1F
100
AcDbEntity
  8
0
100
AcDbBlockBegin
  2
*Model_Space
 70
     0
 10
0.0
 20
0.0
 30
0.0
  3
*Model_Space
  1

  0
ENDBLK
  5
21
330
1F
100
AcDbEntity
  8
0
100
AcDbBlockEnd
  0
BLOCK
  5
1C
330
1B
100
AcDbEntity
 67
     1
  8
0
100
AcDbBlockBegin
  2
*Paper_Space
 70
     0
 10
0.0
 20
0.0
 30
0.0
  3
*Paper_Space
  1

  0
ENDBLK
  5
1D
330
1B
100
AcDbEntity
 67
     1
  8
0
100
AcDbBlockEnd
  0
BLOCK
  5
24
330
23
100
AcDbEntity
  8
0
100
AcDbBlockBegin
  2
*Paper_Space0
 70
     0
 10
0.0
 20
0.0
 30
0.0
  3
*Paper_Space0
  1

  0
ENDBLK
  5
25
330
23
100
AcDbEntity
  8
0
100
AcDbBlockEnd
  0
BLOCK
  5
25A
330
259
100
AcDbEntity
  8
0
100
AcDbBlockBegin
  2
SW_CENTERMARKSYMBOL_0
 70
     0
 10
0.0
 20
0.0
 30
0.0
  3
SW_CENTERMARKSYMBOL_0
  1

  0
LINE
  5
25C
330
259
100
AcDbEntity
  8
FORMAT
 62
     0
100
AcDbLine
 10
0.0
 20
0.0
 30
0.0
 11
0.0
 21
2.5
 31
0.0
  0
LINE
  5
25D
330
259
100
AcDbEntity
  8
FORMAT
 62
     0
100
AcDbLine
 10
0.0
 20
0.0
 30
0.0
 11
-2.5
 21
0.0
 31
0.0
  0
LINE
  5
25E
330
259
100
AcDbEntity
  8
FORMAT
 62
     0
100
AcDbLine
 10
0.0
 20
0.0
 30
0.0
 11
0.0
 21
-2.5
 31
0.0
  0
LINE
  5
25F
330
259
100
AcDbEntity
  8
FORMAT
 62
     0
100
AcDbLine
 10
0.0
 20
0.0
 30
0.0
 11
2.5
 21
0.0
 31
0.0
  0
LINE
  5
260
330
259
100
AcDbEntity
  8
FORMAT
 62
     0
100
AcDbLine
 10
0.0
 20
5.0
 30
0.0
 11
0.0
 21
191.5323827168
 31
0.0
  0
LINE
  5
261
330
259
100
AcDbEntity
  8
FORMAT
 62
     0
100
AcDbLine
 10
-5.0
 20
0.0
 30
0.0
 11
-190.3957658071
 21
0.0
 31
0.0
  0
LINE
  5
262
330
259
100
AcDbEntity
  8
FORMAT
 62
     0
100
AcDbLine
 10
0.0
 20
-5.0
 30
0.0
 11
0.0
 21
-192.3934606247
 31
0.0
  0
LINE
  5
263
330
259
100
AcDbEntity
  8
FORMAT
 62
     0
100
AcDbLine
 10
5.0
 20
0.0
 30
0.0
 11
192.0448711772
 21
0.0
 31
0.0
  0
ENDBLK
  5
25B
330
259
100
AcDbEntity
  8
0
100
AcDbBlockEnd
  0
ENDSEC
  0
SECTION
  2
ENTITIES
  0
ARC
  5
46
330
1F
100
AcDbEntity
  8
0
  6
Continuous
 62
     7
370
    15
100
AcDbCircle
 10
-272.8871074796
 20
962.1264235443
 30
0.0
 40
10.99999999999994
100
AcDbArc
 50
90.0
 51
180.0
  0
ARC
  5
47
330
1F
100
AcDbEntity
  8
0
  6
Continuous
 62
     7
370
    15
100
AcDbCircle
 10
65.1128925204
 20
962.1264235443
 30
0.0
 40
10.99999999999999
100
AcDbArc
 50
0.0
 51
90.0
  0
LINE
  5
48
330
1F
100
AcDbEntity
  8
0
  6
Continuous
 62
     7
370
    15
100
AcDbLine
 10
-283.8871074796
 20
962.1264235443
 30
0.0
 11
-282.7497548538
 21
949.1264235443
 31
0.0
  0
LINE
  5
49
330
1F
100
AcDbEntity
  8
0
  6
Continuous
 62
     7
370
    15
100
AcDbLine
 10
74.9755398946
 20
949.1264235443
 30
0.0
 11
76.1128925204
 21
962.1264235443
 31
0.0
  0
LINE
  5
4A
330
1F
100
AcDbEntity
  8
0
  6
Continuous
 62
     7
370
    15
100
AcDbLine
 10
-143.8871074796
 20
932.6648835792
 30
0.0
 11
-140.1895051046
 21
932.0128965165
 31
0.0
  0
LINE
  5
4B
330
1F
100
AcDbEntity
  8
0
  6
Continuous
 62
     7
370
    15
100
AcDbLine
 10
-67.5847098546
 20
932.0128965165
 30
0.0
 11
29.4709248475
 21
949.1264235443
 31
0.0
  0
LINE
  5
4C
330
1F
100
AcDbEntity
  8
0
  6
Continuous
 62
     7
370
    15
100
AcDbLine
 10
48.6128925204
 20
544.3264235443
 30
0.0
 11
48.6128925204
 21
563.3264235443
 31
0.0
  0
LINE
  5
4D
330
1F
100
AcDbEntity
  8
0
  6
Continuous
 62
     7
370
    15
100
AcDbLine
 10
-256.3871074796
 20
563.3264235443
 30
0.0
 11
-256.3871074796
 21
544.3264235443
 31
0.0
  0
LINE
  5
4E
330
1F
100
AcDbEntity
  8
0
  6
Continuous
 62
     7
370
    15
100
AcDbLine
 10
-25.3371074796
 20
563.3264235443
 30
0.0
 11
-25.3371074796
 21
649.4264235443
 31
0.0
  0
LINE
  5
4F
330
1F
100
AcDbEntity
  8
0
  6
Continuous
 62
     7
370
    15
100
AcDbLine
 10
-182.4371074796
 20
649.4264235443
 30
0.0
 11
-182.4371074796
 21
563.3264235443
 31
0.0
  0
LINE
  5
50
330
1F
100
AcDbEntity
  8
0
  6
Continuous
 62
     7
370
    15
100
AcDbLine
 10
-38.8371074796
 20
903.9978506737
 30
0.0
 11
-66.0959016918
 21
905.4264235443
 31
0.0
  0
LINE
  5
51
330
1F
100
AcDbEntity
  8
0
  6
Continuous
 62
     7
370
    15
100
AcDbLine
 10
-141.6783132673
 20
905.4264235443
 30
0.0
 11
-168.9371074796
 21
903.9978506737
 31
0.0
  0
ARC
  5
52
330
1F
100
AcDbEntity
  8
0
  6
Continuous
 62
     7
370
    15
100
AcDbCircle
 10
-146.4368958762
 20
943.2687461875
 30
0.0
 40
4.999999999999984
100
AcDbArc
 50
331.0608446178
 51
345.0
  0
ARC
  5
53
330
1F
100
AcDbEntity
  8
0
  6
Continuous
 62
     7
370
    15
100
AcDbCircle
 10
-61.337319083
 20
943.2687461875
 30
0.0
 40
4.999999999999984
100
AcDbArc
 50
209.7210064641
 51
258.9325378436
  0
LINE
  5
54
330
1F
100
AcDbEntity
  8
0
  6
Continuous
 62
     7
370
    15
100
AcDbLine
 10
-63.8871074796
 20
909.2264235443
 30
0.0
 11
-63.8871074796
 21
917.2264235443
 31
0.0
  0
LINE
  5
55
330
1F
100
AcDbEntity
  8
0
  6
Continuous
 62
     7
370
    15
100
AcDbLine
 10
-143.8871074796
 20
917.2264235443
 30
0.0
 11
-143.8871074796
 21
909.2264235443
 31
0.0
  0
LINE
  5
56
330
1F
100
AcDbEntity
  8
0
  6
Continuous
 62
     7
370
    15
100
AcDbLine
 10
-66.0959016918
 20
905.4264235443
 30
0.0
 11
-66.4283586132
 21
909.2264235443
 31
0.0
  0
LINE
  5
57
330
1F
100
AcDbEntity
  8
0
  6
Continuous
 62
     7
370
    15
100
AcDbLine
 10
-141.345856346
 20
909.2264235443
 30
0.0
 11
-141.6783132673
 21
905.4264235443
 31
0.0
  0
LINE
  5
58
330
1F
100
AcDbEntity
  8
0
  6
Continuous
 62
     7
370
    15
100
AcDbLine
 10
-139.6909550569
 20
949.1264235443
 30
0.0
 11
-141.6072667448
 21
941.9746509619
 31
0.0
  0
LINE
  5
59
330
1F
100
AcDbEntity
  8
0
  6
Continuous
 62
     7
370
    15
100
AcDbLine
 10
-140.1895051046
 20
932.0128965165
 30
0.0
 11
-138.895856346
 21
917.2264235443
 31
0.0
  0
LINE
  5
5A
330
1F
100
AcDbEntity
  8
0
  6
Continuous
 62
     7
370
    15
100
AcDbLine
 10
-68.8783586132
 20
917.2264235443
 30
0.0
 11
-67.5847098546
 21
932.0128965165
 31
0.0
  0
LINE
  5
5B
330
1F
100
AcDbEntity
  8
0
  6
Continuous
 62
     7
370
    15
100
AcDbLine
 10
-143.8871074796
 20
933.0664675921
 30
0.0
 11
-143.8871074796
 21
932.6648835792
 31
0.0
  0
ARC
  5
5C
330
1F
100
AcDbEntity
  8
0
  6
Continuous
 62
     7
370
    15
100
AcDbCircle
 10
-103.8871074796
 20
985.4264235443
 30
0.0
 40
17.50000000000006
100
AcDbArc
 50
315.3433151739
 51
180.0
  0
ARC
  5
5D
330
1F
100
AcDbEntity
  8
0
  6
Continuous
 62
     7
370
    15
100
AcDbCircle
 10
-103.8871074796
 20
985.4264235443
 30
0.0
 40
17.50000000000006
100
AcDbArc
 50
180.0
 51
224.6566848261
  0
ARC
  5
5E
330
1F
100
AcDbEntity
  8
0
  6
Continuous
 62
     7
370
    15
100
AcDbCircle
 10
-103.8871074796
 20
985.4264235443
 30
0.0
 40
31.50000000000003
100
AcDbArc
 50
337.0158673948
 51
202.9841326052
  0
LINE
  5
5F
330
1F
100
AcDbEntity
  8
0
  6
Continuous
 62
     7
370
    15
100
AcDbLine
 10
-208.1871074796
 20
739.8264235443
 30
0.0
 11
-229.8871074796
 21
739.8264235443
 31
0.0
  0
LINE
  5
60
330
1F
100
AcDbEntity
  8
0
  6
Continuous
 62
     7
370
    15
100
AcDbLine
 10
-229.8871074796
 20
731.8264235443
 30
0.0
 11
-208.1871074796
 21
731.8264235443
 31
0.0
  0
LINE
  5
61
330
1F
100
AcDbEntity
  8
0
  6
Continuous
 62
     7
370
    15
100
AcDbLine
 10
-208.1871074796
 20
766.8264235443
 30
0.0
 11
-229.8871074796
 21
766.8264235443
 31
0.0
  0
LINE
  5
62
330
1F
100
AcDbEntity
  8
0
  6
Continuous
 62
     7
370
    15
100
AcDbLine
 10
-229.8871074796
 20
758.8264235443
 30
0.0
 11
-208.1871074796
 21
758.8264235443
 31
0.0
  0
ARC
  5
63
330
1F
100
AcDbEntity
  8
0
  6
Continuous
 62
     7
370
    15
100
AcDbCircle
 10
-229.8871074796
 20
749.3264235443
 30
0.0
 40
9.500000000000114
100
AcDbArc
 50
180.0
 51
270.0
  0
ARC
  5
64
330
1F
100
AcDbEntity
  8
0
  6
Continuous
 62
     7
370
    15
100
AcDbCircle
 10
-229.8871074796
 20
749.3264235443
 30
0.0
 40
9.500000000000114
100
AcDbArc
 50
90.0
 51
180.0
  0
ARC
  5
65
330
1F
100
AcDbEntity
  8
0
  6
Continuous
 62
     7
370
    15
100
AcDbCircle
 10
-229.8871074796
 20
749.3264235443
 30
0.0
 40
17.50000000000011
100
AcDbArc
 50
90.0
 51
270.0
  0
LINE
  5
66
330
1F
100
AcDbEntity
  8
0
  6
Continuous
 62
     7
370
    15
100
AcDbLine
 10
-19.3541162855
 20
731.2356109139
 30
0.0
 11
-14.8871074796
 21
731.6264235443
 31
0.0
  0
LINE
  5
67
330
1F
100
AcDbEntity
  8
0
  6
Continuous
 62
     7
370
    15
100
AcDbLine
 10
-15.1281559851
 20
767.0475125559
 30
0.0
 11
-18.8481529029
 21
767.3729701145
 31
0.0
  0
LINE
  5
68
330
1F
100
AcDbEntity
  8
0
  6
Continuous
 62
     7
370
    15
100
AcDbLine
 10
-15.4757270056
 20
735.3479507353
 30
0.0
 11
-14.8871074796
 21
757.8264235443
 31
0.0
  0
LINE
  5
69
330
1F
100
AcDbEntity
  8
0
  6
Continuous
 62
     7
370
    15
100
AcDbLine
 10
-14.8871074796
 20
757.8264235443
 30
0.0
 11
-15.1283964948
 21
767.0408792788
 31
0.0
  0
LINE
  5
6A
330
1F
100
AcDbEntity
  8
0
  6
Continuous
 62
     7
370
    15
100
AcDbLine
 10
-62.7241565757
 20
909.2264235443
 30
0.0
 11
-62.7241565757
 21
917.2264235443
 31
0.0
  0
LINE
  5
6B
330
1F
100
AcDbEntity
  8
0
  6
Continuous
 62
     7
370
    15
100
AcDbLine
 10
-272.8871074796
 20
973.1264235443
 30
0.0
 11
65.1128925204
 21
973.1264235443
 31
0.0
  0
LINE
  5
6C
330
1F
100
AcDbEntity
  8
0
  6
Continuous
 62
     7
370
    15
100
AcDbLine
 10
-283.8871074796
 20
962.1264235443
 30
0.0
 11
76.1128925204
 21
962.1264235443
 31
0.0
  0
LINE
  5
6D
330
1F
100
AcDbEntity
  8
0
  6
Continuous
 62
     7
370
    15
100
AcDbLine
 10
-282.7497548538
 20
949.1264235443
 30
0.0
 11
74.9755398946
 21
949.1264235443
 31
0.0
  0
LINE
  5
6E
330
1F
100
AcDbEntity
  8
0
  6
Continuous
 62
     7
370
    15
100
AcDbLine
 10
-140.1895051046
 20
932.0128965165
 30
0.0
 11
-67.5847098546
 21
932.0128965165
 31
0.0
  0
LINE
  5
6F
330
1F
100
AcDbEntity
  8
0
  6
Continuous
 62
     7
370
    15
100
AcDbLine
 10
-143.8871074796
 20
932.6648835792
 30
0.0
 11
-141.9744075642
 21
932.6648835792
 31
0.0
  0
SPLINE
  5
70
330
1F
100
AcDbEntity
  8
0
  6
Continuous
 62
     7
370
    15
100
AcDbSpline
210
0.0
220
0.0
230
1.0
 70
     8
 71
     3
 72
    11
 73
     7
 74
     0
 42
0.00000001
 43
0.00000001
 12
1.0
 22
0.0
 32
0.0
 13
1.0
 23
0.0
 33
0.0
 40
0.0
 40
0.0
 40
0.0
 40
0.0
 40
0.1961095399065826
 40
0.3922200345453599
 40
0.5883306084006384
 40
1.0
 40
1.0
 40
1.0
 40
1.0
 10
-141.9744075641935
 20
932.664883579181
 30
0.0
 10
-146.9890808565089
 20
933.7126698882261
 30
0.0
 10
-157.0184518543836
 20
935.808247607319
 30
0.0
 10
-172.0502147092779
 20
939.0404295679958
 30
0.0
 10
-192.5866155798954
 20
943.4768897054155
 30
0.0
 10
-208.1111538461665
 20
946.8450545462377
 30
0.0
 10
-218.6264350107178
 20
949.126423544294
 30
0.0
  0
LINE
  5
71
330
1F
100
AcDbEntity
  8
0
  6
Continuous
 62
     7
370
    15
100
AcDbLine
 10
-127.2797762569
 20
932.6648835792
 30
0.0
 11
-104.0336846943
 21
932.6648835792
 31
0.0
  0
SPLINE
  5
72
330
1F
100
AcDbEntity
  8
0
  6
Continuous
 62
     7
370
    15
100
AcDbSpline
210
0.0
220
0.0
230
1.0
 70
     8
 71
     3
 72
    11
 73
     7
 74
     0
 42
0.00000001
 43
0.00000001
 12
1.0
 22
0.0
 32
0.0
 13
1.0
 23
0.0
 33
0.0
 40
0.0
 40
0.0
 40
0.0
 40
0.0
 40
0.1735523463168986
 40
0.3471054346137536
 40
0.5206585766804431
 40
1.0
 40
1.0
 40
1.0
 40
1.0
 10
-104.0336846943113
 20
932.664883579181
 30
0.0
 10
-102.3382203189404
 20
933.5917547001045
 30
0.0
 10
-98.94728431966159
 20
935.4455009045585
 30
0.0
 10
-93.86478440427584
 20
938.3000642857811
 30
0.0
 10
-85.7985418701202
 20
942.8543974448023
 30
0.0
 10
-79.4272129145554
 20
946.4711096807379
 30
0.0
 10
-74.74951753782823
 20
949.126423544294
 30
0.0
  0
SPLINE
  5
73
330
1F
100
AcDbEntity
  8
0
  6
Continuous
 62
     7
370
    15
100
AcDbSpline
210
0.0
220
0.0
230
1.0
 70
     8
 71
     3
 72
    11
 73
     7
 74
     0
 42
0.00000001
 43
0.00000001
 12
1.0
 22
0.0
 32
0.0
 13
1.0
 23
0.0
 33
0.0
 40
0.0
 40
0.0
 40
0.0
 40
0.0
 40
0.4116631558503032
 40
0.6077758082970862
 40
0.8038883815249185
 40
0.9999999999999999
 40
0.9999999999999999
 40
0.9999999999999999
 40
0.9999999999999999
 10
-203.9318041721761
 20
949.126423544294
 30
0.0
 10
-193.4166822218392
 20
946.8450891124949
 30
0.0
 10
-177.8922500449834
 20
943.4769473233205
 30
0.0
 10
-157.3559022457617
 20
939.0404979691143
 30
0.0
 10
-142.3239800657149
 20
935.8082811131885
 30
0.0
 10
-132.2945027219028
 20
933.7126810568126
 30
0.0
 10
-127.2797762568816
 20
932.664883579181
 30
0.0
  0
LINE
  5
74
330
1F
100
AcDbEntity
  8
0
  6
Continuous
 62
     7
370
    15
100
AcDbLine
 10
-80.2572717869
 20
932.6648835792
 30
0.0
 11
-65.8903970957
 21
932.6648835792
 31
0.0
  0
SPLINE
  5
75
330
1F
100
AcDbEntity
  8
0
  6
Continuous
 62
     7
370
    15
100
AcDbSpline
210
0.0
220
0.0
230
1.0
 70
     8
 71
     3
 72
    12
 73
     8
 74
     0
 42
0.00000001
 43
0.00000001
 12
1.0
 22
0.0
 32
0.0
 13
1.0
 23
0.0
 33
0.0
 40
0.0
 40
0.0
 40
0.0
 40
0.0
 40
0.1490772727385812
 40
0.2981550813421647
 40
0.4472329193304342
 40
0.8944725134697551
 40
1.0
 40
1.0
 40
1.0
 40
1.0
 10
-65.89039709567116
 20
932.664883579181
 30
0.0
 10
-61.17724728502886
 20
933.4604743734109
 30
0.0
 10
-51.75093072211403
 20
935.0516588216576
 30
0.0
 10
-37.62143054647808
 20
937.4969178584561
 30
0.0
 10
-14.07622648106809
 20
941.5961923257265
 30
0.0
 10
8.08993074049913
 20
945.4755405357874
 30
0.0
 10
25.54599464535226
 20
948.5411710954663
 30
0.0
 10
28.87849148354887
 20
949.126423544294
 30
0.0
  0
SPLINE
  5
76
330
1F
100
AcDbEntity
  8
0
  6
Continuous
 62
     7
370
    15
100
AcDbSpline
210
0.0
220
0.0
230
1.0
 70
     8
 71
     3
 72
    11
 73
     7
 74
     0
 42
0.00000001
 43
0.00000001
 12
1.0
 22
0.0
 32
0.0
 13
1.0
 23
0.0
 33
0.0
 40
0.0
 40
0.0
 40
0.0
 40
0.0
 40
0.4116631558503032
 40
0.6077758082970863
 40
0.8038883815249186
 40
1.0
 40
1.0
 40
1.0
 40
1.0
 10
-50.97880242989505
 20
949.126423544294
 30
0.0
 10
-54.99522161907368
 20
946.8450891124947
 30
0.0
 10
-60.92502705459012
 20
943.4769473233204
 30
0.0
 10
-68.76921390910373
 20
939.0404979691143
 30
0.0
 10
-74.51089726563825
 20
935.8082811131884
 30
0.0
 10
-78.34181672157746
 20
933.7126810568125
 30
0.0
 10
-80.25727178693195
 20
932.664883579181
 30
0.0
  0
SPLINE
  5
77
330
1F
100
AcDbEntity
  8
0
  6
Continuous
 62
     7
370
    15
100
AcDbSpline
210
0.0
220
0.0
230
1.0
 70
     8
 71
     3
 72
    11
 73
     7
 74
     0
 42
0.00000001
 43
0.00000001
 12
1.0
 22
0.0
 32
0.0
 13
1.0
 23
0.0
 33
0.0
 40
0.0
 40
0.0
 40
0.0
 40
0.0
 40
0.2890882608095273
 40
0.5781774133728697
 40
0.8672666314748633
 40
1.0
 40
1.0
 40
1.0
 40
1.0
 10
-130.1785128602231
 20
938.3447074224003
 30
0.0
 10
-135.0313538665189
 20
939.3648909498683
 30
0.0
 10
-144.7370508487238
 20
941.4052611517758
 30
0.0
 10
-159.285941744779
 20
944.5352984049756
 30
0.0
 10
-171.2107034610755
 20
947.1092968947419
 30
0.0
 10
-178.28531956573
 20
948.643622823376
 30
0.0
 10
-180.5114631065524
 20
949.126423544294
 30
0.0
  0
SPLINE
  5
78
330
1F
100
AcDbEntity
  8
0
  6
Continuous
 62
     7
370
    15
100
AcDbSpline
210
0.0
220
0.0
230
1.0
 70
     8
 71
     3
 72
    11
 73
     7
 74
     0
 42
0.00000001
 43
0.00000001
 12
1.0
 22
0.0
 32
0.0
 13
1.0
 23
0.0
 33
0.0
 40
0.0
 40
0.0
 40
0.0
 40
0.0
 40
0.1327266891630611
 40
0.4218181337250237
 40
0.7109095127466146
 40
1.0
 40
1.0
 40
1.0
 40
1.0
 10
-83.70098926451733
 20
949.126423544294
 30
0.0
 10
-84.55125765862999
 20
948.6436471138871
 30
0.0
 10
-87.25349207306147
 20
947.1093373668066
 30
0.0
 10
-91.80833153929501
 20
944.5353466554002
 30
0.0
 10
-97.36555623559022
 20
941.4052848742456
 30
0.0
 10
-101.0728312087009
 20
939.3648988573412
 30
0.0
 10
-102.9264658362683
 20
938.3447074224003
 30
0.0
  0
SPLINE
  5
79
330
1F
100
AcDbEntity
  8
0
  6
Continuous
 62
     7
370
    15
100
AcDbSpline
210
0.0
220
0.0
230
1.0
 70
     8
 71
     3
 72
    11
 73
     7
 74
     0
 42
0.00000001
 43
0.00000001
 12
1.0
 22
0.0
 32
0.0
 13
1.0
 23
0.0
 33
0.0
 40
0.0
 40
0.0
 40
0.0
 40
0.0
 40
0.1327266891630612
 40
0.4218181337250239
 40
0.7109095127466145
 40
1.0
 40
1.0
 40
1.0
 40
1.0
 10
-0.0924125190566449
 20
949.126423544294
 30
0.0
 10
-2.843938841524868
 20
948.643647113887
 30
0.0
 10
-11.58855309776473
 20
947.1093373668065
 30
0.0
 10
-26.32832323709572
 20
944.5353466553998
 30
0.0
 10
-44.31188012054817
 20
941.4052848742459
 30
0.0
 10
-56.30887394481842
 20
939.3648988573412
 30
0.0
 10
-62.30736160507428
 20
938.3447074224003
 30
0.0
  0
LINE
  5
7A
330
1F
100
AcDbEntity
  8
0
  6
Continuous
 62
     7
370
    15
100
AcDbLine
 10
48.6128925204
 20
563.3264235443
 30
0.0
 11
-256.3871074796
 21
563.3264235443
 31
0.0
  0
LINE
  5
7B
330
1F
100
AcDbEntity
  8
0
  6
Continuous
 62
     7
370
    15
100
AcDbLine
 10
48.6128925204
 20
544.3264235443
 30
0.0
 11
-256.3871074796
 21
544.3264235443
 31
0.0
  0
LINE
  5
7C
330
1F
100
AcDbEntity
  8
0
  6
Continuous
 62
     7
370
    15
100
AcDbLine
 10
-104.0336846943
 20
932.6648835792
 30
0.0
 11
-104.0336846943
 21
938.9677487296
 31
0.0
  0
SPLINE
  5
7D
330
1F
100
AcDbEntity
  8
0
  6
Continuous
 62
     7
370
    15
100
AcDbSpline
210
0.0
220
0.0
230
1.0
 70
     8
 71
     3
 72
    10
 73
     6
 74
     0
 42
0.00000001
 43
0.00000001
 12
1.0
 22
0.0
 32
0.0
 13
1.0
 23
0.0
 33
0.0
 40
0.0
 40
0.0
 40
0.0
 40
0.0
 40
0.5
 40
0.5
 40
1.0
 40
1.0
 40
1.0
 40
1.0
 10
-102.9264658362683
 20
938.3447074224003
 30
0.0
 10
-103.1165400747262
 20
938.2408419048328
 30
0.0
 10
-103.3068741280467
 20
938.2429152037594
 30
0.0
 10
-103.6865610933766
 20
938.4563094834338
 30
0.0
 10
-103.865642243671
 20
938.6615117700973
 30
0.0
 10
-104.0336846943113
 20
938.9677487296133
 30
0.0
  0
SPLINE
  5
7E
330
1F
100
AcDbEntity
  8
0
  6
Continuous
 62
     7
370
    15
100
AcDbSpline
210
0.0
220
0.0
230
1.0
 70
     8
 71
     3
 72
    10
 73
     6
 74
     0
 42
0.00000001
 43
0.00000001
 12
1.0
 22
0.0
 32
0.0
 13
1.0
 23
0.0
 33
0.0
 40
0.0
 40
0.0
 40
0.0
 40
0.0
 40
0.5
 40
0.5
 40
1.0
 40
1.0
 40
1.0
 40
1.0
 10
-127.2797762568839
 20
938.9677487296118
 30
0.0
 10
-127.7195658670978
 20
938.6616170442362
 30
0.0
 10
-128.1889629956225
 20
938.456173137146
 30
0.0
 10
-129.1828671907088
 20
938.2429052782148
 30
0.0
 10
-129.6813757717224
 20
938.2409428706181
 30
0.0
 10
-130.178512860223
 20
938.3447074224003
 30
0.0
  0
LINE
  5
7F
330
1F
100
AcDbEntity
  8
0
  6
Continuous
 62
     7
370
    15
100
AcDbLine
 10
-127.2797762569
 20
932.6648835792
 30
0.0
 11
-127.2797762569
 21
938.9677487296
 31
0.0
  0
LINE
  5
80
330
1F
100
AcDbEntity
  8
0
  6
Continuous
 62
     7
370
    15
100
AcDbLine
 10
-161.8871074796
 20
721.3264235443
 30
0.0
 11
-45.8871074796
 21
721.3264235443
 31
0.0
  0
LINE
  5
81
330
1F
100
AcDbEntity
  8
0
  6
Continuous
 62
     7
370
    15
100
AcDbLine
 10
-161.8871074796
 20
777.3264235443
 30
0.0
 11
-161.8871074796
 21
721.3264235443
 31
0.0
  0
LINE
  5
82
330
1F
100
AcDbEntity
  8
0
  6
Continuous
 62
     7
370
    15
100
AcDbLine
 10
-45.8871074796
 20
777.3264235443
 30
0.0
 11
-45.8871074796
 21
721.3264235443
 31
0.0
  0
LINE
  5
83
330
1F
100
AcDbEntity
  8
0
  6
Continuous
 62
     7
370
    15
100
AcDbLine
 10
-45.8871074796
 20
777.3264235443
 30
0.0
 11
-161.8871074796
 21
777.3264235443
 31
0.0
  0
LINE
  5
84
330
1F
100
AcDbEntity
  8
0
  6
Continuous
 62
     7
370
    15
100
AcDbLine
 10
-139.9996074796
 20
850.3264235443
 30
0.0
 11
-114.3751744688
 21
850.3264235443
 31
0.0
  0
SPLINE
  5
85
330
1F
100
AcDbEntity
  8
0
  6
Continuous
 62
     7
370
    15
100
AcDbSpline
210
0.0
220
0.0
230
1.0
 70
     8
 71
     3
 72
    10
 73
     6
 74
     0
 42
0.00000001
 43
0.00000001
 12
1.0
 22
0.0
 32
0.0
 13
1.0
 23
0.0
 33
0.0
 40
0.0
 40
0.0
 40
0.0
 40
0.0
 40
0.5
 40
0.5
 40
1.0
 40
1.0
 40
1.0
 40
1.0
 10
-114.3751744688174
 20
850.3264235442939
 30
0.0
 10
-114.3009330127832
 20
850.3264235442938
 30
0.0
 10
-114.2282612470114
 20
850.3041790579144
 30
0.0
 10
-114.1060360171128
 20
850.2226880663846
 30
0.0
 10
-114.0571493265839
 20
850.1635651563959
 30
0.0
 10
-114.0287196441254
 20
850.0949298314304
 30
0.0
  0
LINE
  5
86
330
1F
100
AcDbEntity
  8
0
  6
Continuous
 62
     7
370
    15
100
AcDbLine
 10
-114.0287196441
 20
850.0949298314
 30
0.0
 11
-104.2335623043
 21
826.447328136
 31
0.0
  0
LINE
  5
87
330
1F
100
AcDbEntity
  8
0
  6
Continuous
 62
     7
370
    15
100
AcDbLine
 10
-103.5406526549
 20
826.447328136
 30
0.0
 11
-93.7454953151
 21
850.0949298314
 31
0.0
  0
SPLINE
  5
88
330
1F
100
AcDbEntity
  8
0
  6
Continuous
 62
     7
370
    15
100
AcDbSpline
210
0.0
220
0.0
230
1.0
 70
     8
 71
     3
 72
    10
 73
     6
 74
     0
 42
0.00000001
 43
0.00000001
 12
1.0
 22
0.0
 32
0.0
 13
1.0
 23
0.0
 33
0.0
 40
0.0
 40
0.0
 40
0.0
 40
0.0
 40
0.5
 40
0.5
 40
1.0
 40
1.0
 40
1.0
 40
1.0
 10
-93.74549531506965
 20
850.0949298314307
 30
0.0
 10
-93.71706597834373
 20
850.1635643217237
 30
0.0
 10
-93.66866926101333
 20
850.2222020768334
 30
0.0
 10
-93.54658201889227
 20
850.3039177782923
 30
0.0
 10
-93.47328094302696
 20
850.3264235442938
 30
0.0
 10
-93.39904049037837
 20
850.3264235442939
 30
0.0
  0
LINE
  5
89
330
1F
100
AcDbEntity
  8
0
  6
Continuous
 62
     7
370
    15
100
AcDbLine
 10
-93.3990404904
 20
850.3264235443
 30
0.0
 11
-65.7496074796
 21
850.3264235443
 31
0.0
  0
SPLINE
  5
8A
330
1F
100
AcDbEntity
  8
0
  6
Continuous
 62
     7
370
    15
100
AcDbSpline
210
0.0
220
0.0
230
1.0
 70
     8
 71
     3
 72
    10
 73
     6
 74
     0
 42
0.00000001
 43
0.00000001
 12
1.0
 22
0.0
 32
0.0
 13
1.0
 23
0.0
 33
0.0
 40
0.0
 40
0.0
 40
0.0
 40
0.0
 40
0.5
 40
0.5
 40
1.0
 40
1.0
 40
1.0
 40
1.0
 10
-65.74960747959766
 20
850.3264235442939
 30
0.0
 10
-65.65105599053217
 20
850.326423544294
 30
0.0
 10
-65.55458103673776
 20
850.2863303436723
 30
0.0
 10
-65.41581872577837
 20
850.1483574050395
 30
0.0
 10
-65.37460747959669
 20
850.0509867403259
 30
0.0
 10
-65.37460747959659
 20
849.9514235442944
 30
0.0
  0
LINE
  5
8B
330
1F
100
AcDbEntity
  8
0
  6
Continuous
 62
     7
370
    15
100
AcDbLine
 10
-65.3746074796
 20
849.9514235443
 30
0.0
 11
-65.3746074796
 21
843.2014235443
 31
0.0
  0
SPLINE
  5
8C
330
1F
100
AcDbEntity
  8
0
  6
Continuous
 62
     7
370
    15
100
AcDbSpline
210
0.0
220
0.0
230
1.0
 70
     8
 71
     3
 72
    10
 73
     6
 74
     0
 42
0.00000001
 43
0.00000001
 12
1.0
 22
0.0
 32
0.0
 13
1.0
 23
0.0
 33
0.0
 40
0.0
 40
0.0
 40
0.0
 40
0.0
 40
0.5
 40
0.5
 40
1.0
 40
1.0
 40
1.0
 40
1.0
 10
-65.37460747959764
 20
843.2014235442938
 30
0.0
 10
-65.37460747959764
 20
843.1018781520227
 30
0.0
 10
-65.41573483890816
 20
843.0046716068465
 30
0.0
 10
-65.55428553591645
 20
842.8667123203905
 30
0.0
 10
-65.65107288865975
 20
842.826423544293
 30
0.0
 10
-65.74960747960084
 20
842.8264235442938
 30
0.0
  0
LINE
  5
8D
330
1F
100
AcDbEntity
  8
0
  6
Continuous
 62
     7
370
    15
100
AcDbLine
 10
-65.7496074796
 20
842.8264235443
 30
0.0
 11
-88.387700706
 21
842.8264235443
 31
0.0
  0
SPLINE
  5
8E
330
1F
100
AcDbEntity
  8
0
  6
Continuous
 62
     7
370
    15
100
AcDbSpline
210
0.0
220
0.0
230
1.0
 70
     8
 71
     3
 72
    10
 73
     6
 74
     0
 42
0.00000001
 43
0.00000001
 12
1.0
 22
0.0
 32
0.0
 13
1.0
 23
0.0
 33
0.0
 40
0.0
 40
0.0
 40
0.0
 40
0.0
 40
0.5
 40
0.5
 40
1.0
 40
1.0
 40
1.0
 40
1.0
 10
-88.38770070598316
 20
842.8264235442938
 30
0.0
 10
-88.46191876219443
 20
842.8264235442938
 30
0.0
 10
-88.5345749477685
 20
842.8041940037216
 30
0.0
 10
-88.65680009079206
 20
842.7227251495972
 30
0.0
 10
-88.70571275940917
 20
842.6635967555724
 30
0.0
 10
-88.73415553067515
 20
842.5949298314301
 30
0.0
  0
LINE
  5
8F
330
1F
100
AcDbEntity
  8
0
  6
Continuous
 62
     7
370
    15
100
AcDbLine
 10
-88.7341555307
 20
842.5949298314
 30
0.0
 11
-100.3474663874
 21
814.5579172572
 31
0.0
  0
SPLINE
  5
90
330
1F
100
AcDbEntity
  8
0
  6
Continuous
 62
     7
370
    15
100
AcDbSpline
210
0.0
220
0.0
230
1.0
 70
     8
 71
     3
 72
    10
 73
     6
 74
     0
 42
0.00000001
 43
0.00000001
 12
1.0
 22
0.0
 32
0.0
 13
1.0
 23
0.0
 33
0.0
 40
0.0
 40
0.0
 40
0.0
 40
0.0
 40
0.5
 40
0.5
 40
1.0
 40
1.0
 40
1.0
 40
1.0
 10
-100.347466387364
 20
814.557917257157
 30
0.0
 10
-100.3758862296913
 20
814.4893056883698
 30
0.0
 10
-100.4242662465379
 20
814.4306711766573
 30
0.0
 10
-100.5463450275644
 20
814.3489438785255
 30
0.0
 10
-100.6196609138219
 20
814.326423544294
 30
0.0
 10
-100.693921212056
 20
814.3264235442939
 30
0.0
  0
SPLINE
  5
91
330
1F
100
AcDbEntity
  8
0
  6
Continuous
 62
     7
370
    15
100
AcDbSpline
210
0.0
220
0.0
230
1.0
 70
     8
 71
     3
 72
    10
 73
     6
 74
     0
 42
0.00000001
 43
0.00000001
 12
1.0
 22
0.0
 32
0.0
 13
1.0
 23
0.0
 33
0.0
 40
0.0
 40
0.0
 40
0.0
 40
0.0
 40
0.5
 40
0.5
 40
1.0
 40
1.0
 40
1.0
 40
1.0
 10
-107.0802937471395
 20
814.3264235442939
 30
0.0
 10
-107.1545541488658
 20
814.3264235442938
 30
0.0
 10
-107.2272375215377
 20
814.3486798693078
 30
0.0
 10
-107.3494619636414
 20
814.4301874030767
 30
0.0
 10
-107.3983286979636
 20
814.4893056122247
 30
0.0
 10
-107.4267485718313
 20
814.5579172571568
 30
0.0
  0
LINE
  5
92
330
1F
100
AcDbEntity
  8
0
  6
Continuous
 62
     7
370
    15
100
AcDbLine
 10
-107.4267485718
 20
814.5579172572
 30
0.0
 11
-119.0400594285
 21
842.5949298314
 31
0.0
  0
SPLINE
  5
93
330
1F
100
AcDbEntity
  8
0
  6
Continuous
 62
     7
370
    15
100
AcDbSpline
210
0.0
220
0.0
230
1.0
 70
     8
 71
     3
 72
    10
 73
     6
 74
     0
 42
0.00000001
 43
0.00000001
 12
1.0
 22
0.0
 32
0.0
 13
1.0
 23
0.0
 33
0.0
 40
0.0
 40
0.0
 40
0.0
 40
0.0
 40
0.5
 40
0.5
 40
1.0
 40
1.0
 40
1.0
 40
1.0
 10
-119.0400594285204
 20
842.5949298314307
 30
0.0
 10
-119.0685014404139
 20
842.663594922285
 30
0.0
 10
-119.1169199208707
 20
842.7222363189513
 30
0.0
 10
-119.2390172326627
 20
842.8039363694185
 30
0.0
 10
-119.3122984120927
 20
842.8264235442937
 30
0.0
 10
-119.3865142532115
 20
842.8264235442938
 30
0.0
  0
LINE
  5
94
330
1F
100
AcDbEntity
  8
0
  6
Continuous
 62
     7
370
    15
100
AcDbLine
 10
-119.3865142532
 20
842.8264235443
 30
0.0
 11
-139.9996074796
 21
842.8264235443
 31
0.0
  0
SPLINE
  5
95
330
1F
100
AcDbEntity
  8
0
  6
Continuous
 62
     7
370
    15
100
AcDbSpline
210
0.0
220
0.0
230
1.0
 70
     8
 71
     3
 72
    10
 73
     6
 74
     0
 42
0.00000001
 43
0.00000001
 12
1.0
 22
0.0
 32
0.0
 13
1.0
 23
0.0
 33
0.0
 40
0.0
 40
0.0
 40
0.0
 40
0.0
 40
0.5
 40
0.5
 40
1.0
 40
1.0
 40
1.0
 40
1.0
 10
-139.9996074795976
 20
842.8264235442938
 30
0.0
 10
-140.0982098858403
 20
842.8264235442937
 30
0.0
 10
-140.19472409935
 20
842.8665705869635
 30
0.0
 10
-140.3334441931313
 20
843.0045732279784
 30
0.0
 10
-140.3746074795986
 20
843.1019149997708
 30
0.0
 10
-140.3746074795988
 20
843.2014235442933
 30
0.0
  0
LINE
  5
96
330
1F
100
AcDbEntity
  8
0
  6
Continuous
 62
     7
370
    15
100
AcDbLine
 10
-140.3746074796
 20
843.2014235443
 30
0.0
 11
-140.3746074796
 21
849.9514235443
 31
0.0
  0
SPLINE
  5
97
330
1F
100
AcDbEntity
  8
0
  6
Continuous
 62
     7
370
    15
100
AcDbSpline
210
0.0
220
0.0
230
1.0
 70
     8
 71
     3
 72
    10
 73
     6
 74
     0
 42
0.00000001
 43
0.00000001
 12
1.0
 22
0.0
 32
0.0
 13
1.0
 23
0.0
 33
0.0
 40
0.0
 40
0.0
 40
0.0
 40
0.0
 40
0.5
 40
0.5
 40
1.0
 40
1.0
 40
1.0
 40
1.0
 10
-140.3746074795976
 20
849.9514235442939
 30
0.0
 10
-140.3746074795976
 20
850.0509161863649
 30
0.0
 10
-140.3335339703958
 20
850.1480859839445
 30
0.0
 10
-140.1950136915014
 20
850.2860867014767
 30
0.0
 10
-140.0981946976723
 20
850.3264235442947
 30
0.0
 10
-139.9996074795946
 20
850.3264235442939
 30
0.0
  0
LINE
  5
98
330
1F
100
AcDbEntity
  8
0
  6
Continuous
 62
     7
370
    15
100
AcDbLine
 10
-100.6939212121
 20
814.3264235443
 30
0.0
 11
-107.0802937471
 21
814.3264235443
 31
0.0
  0
SPLINE
  5
99
330
1F
100
AcDbEntity
  8
0
  6
Continuous
 62
     7
370
    15
100
AcDbSpline
210
0.0
220
0.0
230
1.0
 70
     8
 71
     3
 72
    14
 73
    10
 74
     0
 42
0.00000001
 43
0.00000001
 12
1.0
 22
0.0
 32
0.0
 13
1.0
 23
0.0
 33
0.0
 40
0.0
 40
0.0
 40
0.0
 40
0.0
 40
0.25
 40
0.25
 40
0.5
 40
0.5
 40
0.75
 40
0.75
 40
1.0
 40
1.0
 40
1.0
 40
1.0
 10
-104.2335623042894
 20
826.4473281360196
 30
0.0
 10
-104.2051157954823
 20
826.3786521886552
 30
0.0
 10
-104.1566723786813
 20
826.3199719492824
 30
0.0
 10
-104.034422335898
 20
826.2382297611275
 30
0.0
 10
-103.9604010864277
 20
826.2158371751933
 30
0.0
 10
-103.8138420365591
 20
826.2158316716485
 30
0.0
 10
-103.7398548604418
 20
826.238196563176
 30
0.0
 10
-103.6175396289102
 20
826.3199655101827
 30
0.0
 10
-103.5690991637065
 20
826.3786521886708
 30
0.0
 10
-103.5406526549059
 20
826.4473281360196
 30
0.0
  0
SPLINE
  5
9A
330
1F
100
AcDbEntity
  8
0
  6
Continuous
 62
     7
370
    15
100
AcDbSpline
210
0.0
220
0.0
230
1.0
 70
     8
 71
     3
 72
    10
 73
     6
 74
     0
 42
0.00000001
 43
0.00000001
 12
1.0
 22
0.0
 32
0.0
 13
1.0
 23
0.0
 33
0.0
 40
0.0
 40
0.0
 40
0.0
 40
0.0
 40
0.5
 40
0.5
 40
1.0
 40
1.0
 40
1.0
 40
1.0
 10
-121.2357171256825
 20
840.0588958690171
 30
0.0
 10
-121.1615099355417
 20
840.0588958690172
 30
0.0
 10
-121.0888610398197
 20
840.0366732819973
 30
0.0
 10
-120.9666359823324
 20
839.9552147798162
 30
0.0
 10
-120.9177111990839
 20
839.8960838717654
 30
0.0
 10
-120.8892623009905
 20
839.8274021561533
 30
0.0
  0
LINE
  5
9B
330
1F
100
AcDbEntity
  8
0
  6
Continuous
 62
     7
370
    15
100
AcDbLine
 10
-120.889262301
 20
839.8274021562
 30
0.0
 11
-110.5411834425
 21
814.8449298314
 31
0.0
  0
LINE
  5
9C
330
1F
100
AcDbEntity
  8
0
  6
Continuous
 62
     7
370
    15
100
AcDbLine
 10
-110.8876382672
 20
814.3264235443
 30
0.0
 11
-118.1937856191
 21
814.3264235443
 31
0.0
  0
SPLINE
  5
9D
330
1F
100
AcDbEntity
  8
0
  6
Continuous
 62
     7
370
    15
100
AcDbSpline
210
0.0
220
0.0
230
1.0
 70
     8
 71
     3
 72
    10
 73
     6
 74
     0
 42
0.00000001
 43
0.00000001
 12
1.0
 22
0.0
 32
0.0
 13
1.0
 23
0.0
 33
0.0
 40
0.0
 40
0.0
 40
0.0
 40
0.0
 40
0.5
 40
0.5
 40
1.0
 40
1.0
 40
1.0
 40
1.0
 10
-118.1937856191454
 20
814.3264235442939
 30
0.0
 10
-118.2680130173017
 20
814.3264235442938
 30
0.0
 10
-118.3406725390797
 20
814.3486582933841
 30
0.0
 10
-118.4628952506774
 20
814.4301320115951
 30
0.0
 10
-118.5118006743413
 20
814.4892575799294
 30
0.0
 10
-118.540240443837
 20
814.5579172571565
 30
0.0
  0
LINE
  5
9E
330
1F
100
AcDbEntity
  8
0
  6
Continuous
 62
     7
370
    15
100
AcDbLine
 10
-118.5402404438
 20
814.5579172572
 30
0.0
 11
-120.5230859754
 21
819.3449298314
 31
0.0
  0
SPLINE
  5
9F
330
1F
100
AcDbEntity
  8
0
  6
Continuous
 62
     7
370
    15
100
AcDbSpline
210
0.0
220
0.0
230
1.0
 70
     8
 71
     3
 72
    10
 73
     6
 74
     0
 42
0.00000001
 43
0.00000001
 12
1.0
 22
0.0
 32
0.0
 13
1.0
 23
0.0
 33
0.0
 40
0.0
 40
0.0
 40
0.0
 40
0.0
 40
0.5
 40
0.5
 40
1.0
 40
1.0
 40
1.0
 40
1.0
 10
-120.5230859753519
 20
819.3449298314307
 30
0.0
 10
-120.5515326910198
 20
819.413606278201
 30
0.0
 10
-120.5999592280184
 20
819.4722489990289
 30
0.0
 10
-120.7220602323954
 20
819.5539432360475
 30
0.0
 10
-120.7953340277964
 20
819.5764235442937
 30
0.0
 10
-120.8695408000429
 20
819.5764235442938
 30
0.0
  0
LINE
  5
A0
330
1F
100
AcDbEntity
  8
0
  6
Continuous
 62
     7
370
    15
100
AcDbLine
 10
-120.8695408
 20
819.5764235443
 30
0.0
 11
-132.0439777857
 21
819.5764235443
 31
0.0
  0
SPLINE
  5
A1
330
1F
100
AcDbEntity
  8
0
  6
Continuous
 62
     7
370
    15
100
AcDbSpline
210
0.0
220
0.0
230
1.0
 70
     8
 71
     3
 72
    10
 73
     6
 74
     0
 42
0.00000001
 43
0.00000001
 12
1.0
 22
0.0
 32
0.0
 13
1.0
 23
0.0
 33
0.0
 40
0.0
 40
0.0
 40
0.0
 40
0.0
 40
0.5
 40
0.5
 40
1.0
 40
1.0
 40
1.0
 40
1.0
 10
-132.0439777857262
 20
819.5764235442938
 30
0.0
 10
-132.1181032763581
 20
819.5764235442937
 30
0.0
 10
-132.1906910368996
 20
819.5542548763503
 30
0.0
 10
-132.3129100914696
 20
819.4728828264672
 30
0.0
 10
-132.3619325814765
 20
819.4137349878289
 30
0.0
 10
-132.3904326104177
 20
819.3449298314314
 30
0.0
  0
LINE
  5
A2
330
1F
100
AcDbEntity
  8
0
  6
Continuous
 62
     7
370
    15
100
AcDbLine
 10
-132.3904326104
 20
819.3449298314
 30
0.0
 11
-134.3732781419
 21
814.5579172572
 31
0.0
  0
SPLINE
  5
A3
330
1F
100
AcDbEntity
  8
0
  6
Continuous
 62
     7
370
    15
100
AcDbSpline
210
0.0
220
0.0
230
1.0
 70
     8
 71
     3
 72
    10
 73
     6
 74
     0
 42
0.00000001
 43
0.00000001
 12
1.0
 22
0.0
 32
0.0
 13
1.0
 23
0.0
 33
0.0
 40
0.0
 40
0.0
 40
0.0
 40
0.0
 40
0.5
 40
0.5
 40
1.0
 40
1.0
 40
1.0
 40
1.0
 10
-134.3732781419327
 20
814.557917257157
 30
0.0
 10
-134.401790092991
 20
814.4890833182222
 30
0.0
 10
-134.4503278106531
 20
814.4304230444325
 30
0.0
 10
-134.5724788368037
 20
814.3488095482019
 30
0.0
 10
-134.6456503537447
 20
814.3264235442941
 30
0.0
 10
-134.7197329666232
 20
814.3264235442939
 30
0.0
  0
LINE
  5
A4
330
1F
100
AcDbEntity
  8
0
  6
Continuous
 62
     7
370
    15
100
AcDbLine
 10
-134.7197329666
 20
814.3264235443
 30
0.0
 11
-142.0258803186
 21
814.3264235443
 31
0.0
  0
SPLINE
  5
A5
330
1F
100
AcDbEntity
  8
0
  6
Continuous
 62
     7
370
    15
100
AcDbSpline
210
0.0
220
0.0
230
1.0
 70
     8
 71
     3
 72
    10
 73
     6
 74
     0
 42
0.00000001
 43
0.00000001
 12
1.0
 22
0.0
 32
0.0
 13
1.0
 23
0.0
 33
0.0
 40
0.0
 40
0.0
 40
0.0
 40
0.0
 40
0.5
 40
0.5
 40
1.0
 40
1.0
 40
1.0
 40
1.0
 10
-142.0258803185981
 20
814.3264235442939
 30
0.0
 10
-142.1489920527152
 20
814.3264235442938
 30
0.0
 10
-142.2680068487024
 20
814.3897041481573
 30
0.0
 10
-142.4056793336846
 20
814.5939668244135
 30
0.0
 10
-142.4198595810541
 20
814.7301956892364
 30
0.0
 10
-142.3723351432896
 20
814.8449298314312
 30
0.0
  0
LINE
  5
A6
330
1F
100
AcDbEntity
  8
0
  6
Continuous
 62
     7
370
    15
100
AcDbLine
 10
-142.3723351433
 20
814.8449298314
 30
0.0
 11
-135.2497425034
 21
832.0403895819
 31
0.0
  0
SPLINE
  5
A7
330
1F
100
AcDbEntity
  8
0
  6
Continuous
 62
     7
370
    15
100
AcDbSpline
210
0.0
220
0.0
230
1.0
 70
     8
 71
     3
 72
    10
 73
     6
 74
     0
 42
0.00000001
 43
0.00000001
 12
1.0
 22
0.0
 32
0.0
 13
1.0
 23
0.0
 33
0.0
 40
0.0
 40
0.0
 40
0.0
 40
0.0
 40
0.5
 40
0.5
 40
1.0
 40
1.0
 40
1.0
 40
1.0
 10
-135.249742503413
 20
832.0403895818802
 30
0.0
 10
-135.2022636245277
 20
832.1550137352114
 30
0.0
 10
-135.2159592167648
 20
832.2901737996053
 30
0.0
 10
-135.3535149121151
 20
832.4953140200855
 30
0.0
 10
-135.4728734298756
 20
832.5588958690166
 30
0.0
 10
-135.5961973281035
 20
832.5588958690171
 30
0.0
  0
LINE
  5
A8
330
1F
100
AcDbEntity
  8
0
  6
Continuous
 62
     7
370
    15
100
AcDbLine
 10
-135.5961973281
 20
832.558895869
 30
0.0
 11
-139.9996074796
 21
832.558895869
 31
0.0
  0
SPLINE
  5
A9
330
1F
100
AcDbEntity
  8
0
  6
Continuous
 62
     7
370
    15
100
AcDbSpline
210
0.0
220
0.0
230
1.0
 70
     8
 71
     3
 72
    10
 73
     6
 74
     0
 42
0.00000001
 43
0.00000001
 12
1.0
 22
0.0
 32
0.0
 13
1.0
 23
0.0
 33
0.0
 40
0.0
 40
0.0
 40
0.0
 40
0.0
 40
0.5
 40
0.5
 40
1.0
 40
1.0
 40
1.0
 40
1.0
 10
-139.9996074795976
 20
832.5588958690171
 30
0.0
 10
-140.0982098858403
 20
832.5588958690171
 30
0.0
 10
-140.1947240993501
 20
832.5990429116868
 30
0.0
 10
-140.3334441931313
 20
832.7370455527017
 30
0.0
 10
-140.3746074795986
 20
832.8343873244938
 30
0.0
 10
-140.3746074795987
 20
832.9338958690165
 30
0.0
  0
LINE
  5
AA
330
1F
100
AcDbEntity
  8
0
  6
Continuous
 62
     7
370
    15
100
AcDbLine
 10
-140.3746074796
 20
832.933895869
 30
0.0
 11
-140.3746074796
 21
839.683895869
 31
0.0
  0
SPLINE
  5
AB
330
1F
100
AcDbEntity
  8
0
  6
Continuous
 62
     7
370
    15
100
AcDbSpline
210
0.0
220
0.0
230
1.0
 70
     8
 71
     3
 72
    10
 73
     6
 74
     0
 42
0.00000001
 43
0.00000001
 12
1.0
 22
0.0
 32
0.0
 13
1.0
 23
0.0
 33
0.0
 40
0.0
 40
0.0
 40
0.0
 40
0.0
 40
0.5
 40
0.5
 40
1.0
 40
1.0
 40
1.0
 40
1.0
 10
-140.3746074795976
 20
839.6838958690171
 30
0.0
 10
-140.3746074795976
 20
839.7833885110886
 30
0.0
 10
-140.3335339703953
 20
839.8805583086688
 30
0.0
 10
-140.1950136914996
 20
840.0185590262008
 30
0.0
 10
-140.0981946976728
 20
840.0588958690179
 30
0.0
 10
-139.9996074795946
 20
840.0588958690171
 30
0.0
  0
LINE
  5
AC
330
1F
100
AcDbEntity
  8
0
  6
Continuous
 62
     7
370
    15
100
AcDbLine
 10
-139.9996074796
 20
840.058895869
 30
0.0
 11
-121.2357171257
 21
840.058895869
 31
0.0
  0
LINE
  5
AD
330
1F
100
AcDbEntity
  8
0
  6
Continuous
 62
     7
370
    15
100
AcDbLine
 10
-124.0538075608
 20
826.5139235443
 30
0.0
 11
-128.859711025
 21
826.5139235443
 31
0.0
  0
SPLINE
  5
AE
330
1F
100
AcDbEntity
  8
0
  6
Continuous
 62
     7
370
    15
100
AcDbSpline
210
0.0
220
0.0
230
1.0
 70
     8
 71
     3
 72
    10
 73
     6
 74
     0
 42
0.00000001
 43
0.00000001
 12
1.0
 22
0.0
 32
0.0
 13
1.0
 23
0.0
 33
0.0
 40
0.0
 40
0.0
 40
0.0
 40
0.0
 40
0.5
 40
0.5
 40
1.0
 40
1.0
 40
1.0
 40
1.0
 10
-123.707352736095
 20
827.0324298314308
 30
0.0
 10
-123.659925943473
 20
826.9179314254629
 30
0.0
 10
-123.6735060287317
 20
826.7830447828603
 30
0.0
 10
-123.810615910347
 20
826.5779615071214
 30
0.0
 10
-123.9301762608241
 20
826.5139235442942
 30
0.0
 10
-124.0538075607859
 20
826.5139235442939
 30
0.0
  0
LINE
  5
AF
330
1F
100
AcDbEntity
  8
0
  6
Continuous
 62
     7
370
    15
100
AcDbLine
 10
-126.1103044682
 20
832.8336684928
 30
0.0
 11
-123.7073527361
 21
827.0324298315
 31
0.0
  0
SPLINE
  5
B0
330
1F
100
AcDbEntity
  8
0
  6
Continuous
 62
     7
370
    15
100
AcDbSpline
210
0.0
220
0.0
230
1.0
 70
     8
 71
     3
 72
    14
 73
    10
 74
     0
 42
0.00000001
 43
0.00000001
 12
1.0
 22
0.0
 32
0.0
 13
1.0
 23
0.0
 33
0.0
 40
0.0
 40
0.0
 40
0.0
 40
0.0
 40
0.25
 40
0.25
 40
0.5
 40
0.5
 40
0.75
 40
0.75
 40
1.0
 40
1.0
 40
1.0
 40
1.0
 10
-126.8032141175767
 20
832.83366849279
 30
0.0
 10
-126.7747176043662
 20
832.902465161463
 30
0.0
 10
-126.7261904075586
 20
832.9611566545423
 30
0.0
 10
-126.6039077936638
 20
833.042835475978
 30
0.0
 10
-126.5299733623838
 20
833.0651574162537
 30
0.0
 10
-126.3835942938943
 20
833.0651669934473
 30
0.0
 10
-126.3096939868166
 20
833.0428782976858
 30
0.0
 10
-126.1873348269321
 20
832.9611738345067
 30
0.0
 10
-126.138801829201
 20
832.9024672082277
 30
0.0
 10
-126.1103044681927
 20
832.833668492789
 30
0.0
  0
LINE
  5
B1
330
1F
100
AcDbEntity
  8
0
  6
Continuous
 62
     7
370
    15
100
AcDbLine
 10
-129.2061658497
 20
827.0324298314
 30
0.0
 11
-126.8032141176
 21
832.8336684928
 31
0.0
  0
SPLINE
  5
B2
330
1F
100
AcDbEntity
  8
0
  6
Continuous
 62
     7
370
    15
100
AcDbSpline
210
0.0
220
0.0
230
1.0
 70
     8
 71
     3
 72
    10
 73
     6
 74
     0
 42
0.00000001
 43
0.00000001
 12
1.0
 22
0.0
 32
0.0
 13
1.0
 23
0.0
 33
0.0
 40
0.0
 40
0.0
 40
0.0
 40
0.0
 40
0.5
 40
0.5
 40
1.0
 40
1.0
 40
1.0
 40
1.0
 10
-128.8597110249831
 20
826.5139235442939
 30
0.0
 10
-128.9832410818501
 20
826.5139235442939
 30
0.0
 10
-129.1024094759162
 20
826.5776300875411
 30
0.0
 10
-129.2397428917603
 20
826.7822373946012
 30
0.0
 10
-129.253614210652
 20
826.9178793548473
 30
0.0
 10
-129.2061658496748
 20
827.032429831431
 30
0.0
  0
SPLINE
  5
B3
330
1F
100
AcDbEntity
  8
0
  6
Continuous
 62
     7
370
    15
100
AcDbSpline
210
0.0
220
0.0
230
1.0
 70
     8
 71
     3
 72
    10
 73
     6
 74
     0
 42
0.00000001
 43
0.00000001
 12
1.0
 22
0.0
 32
0.0
 13
1.0
 23
0.0
 33
0.0
 40
0.0
 40
0.0
 40
0.0
 40
0.0
 40
0.5
 40
0.5
 40
1.0
 40
1.0
 40
1.0
 40
1.0
 10
-110.54118344248
 20
814.8449298314307
 30
0.0
 10
-110.4937873822681
 20
814.7305056200643
 30
0.0
 10
-110.5072993435573
 20
814.5957798935979
 30
0.0
 10
-110.6441478430109
 20
814.3907296578227
 30
0.0
 10
-110.763822949404
 20
814.3264235442941
 30
0.0
 10
-110.8876382671714
 20
814.3264235442939
 30
0.0
  0
SPLINE
  5
B4
330
1F
100
AcDbEntity
  8
0
  6
Continuous
 62
     7
370
    15
100
AcDbSpline
210
0.0
220
0.0
230
1.0
 70
     8
 71
     3
 72
    16
 73
    12
 74
     0
 42
0.00000001
 43
0.00000001
 12
1.0
 22
0.0
 32
0.0
 13
1.0
 23
0.0
 33
0.0
 40
0.0
 40
0.0
 40
0.0
 40
0.0
 40
0.250000000000018
 40
0.250000000000018
 40
0.3750000000000147
 40
0.3750000000000147
 40
0.5000000000000113
 40
0.5000000000000113
 40
0.7500000000000057
 40
0.7500000000000057
 40
1.0
 40
1.0
 40
1.0
 40
1.0
 10
-68.23439554349589
 20
832.358956844627
 30
0.0
 10
-68.64583858109494
 20
831.5795314080933
 30
0.0
 10
-69.11903148433159
 20
830.8482041166571
 30
0.0
 10
-69.91730207021195
 20
829.8199874116422
 30
0.0
 10
-70.19822879340698
 20
829.4887805752123
 30
0.0
 10
-70.79010499824913
 20
828.8496762404245
 30
0.0
 10
-71.10207702026955
 20
828.5408601767232
 30
0.0
 10
-72.07777145565946
 20
827.6567158126695
 30
0.0
 10
-72.76975118049572
 20
827.1328289273641
 30
0.0
 10
-74.23332250585219
 20
826.2103752573013
 30
0.0
 10
-75.0049114747312
 20
825.8118061027824
 30
0.0
 10
-75.81832861761698
 20
825.4789223685054
 30
0.0
  0
SPLINE
  5
B5
330
1F
100
AcDbEntity
  8
0
  6
Continuous
 62
     7
370
    15
100
AcDbSpline
210
0.0
220
0.0
230
1.0
 70
     8
 71
     3
 72
    10
 73
     6
 74
     0
 42
0.00000001
 43
0.00000001
 12
1.0
 22
0.0
 32
0.0
 13
1.0
 23
0.0
 33
0.0
 40
0.0
 40
0.0
 40
0.0
 40
0.0
 40
0.5
 40
0.5
 40
1.0
 40
1.0
 40
1.0
 40
1.0
 10
-75.81832861761501
 20
825.4789223685061
 30
0.0
 10
-75.92013977137988
 20
825.4372570589502
 30
0.0
 10
-76.00042351394117
 20
825.3496526099718
 30
0.0
 10
-76.06666416112574
 20
825.1420986621904
 30
0.0
 10
-76.0518617741174
 20
825.0234450720013
 30
0.0
 10
-75.99256843824556
 20
824.9303731778638
 30
0.0
  0
LINE
  5
B6
330
1F
100
AcDbEntity
  8
0
  6
Continuous
 62
     7
370
    15
100
AcDbLine
 10
-75.9925684382
 20
824.9303731779
 30
0.0
 11
-69.604370428
 21
814.9029108974
 31
0.0
  0
SPLINE
  5
B7
330
1F
100
AcDbEntity
  8
0
  6
Continuous
 62
     7
370
    15
100
AcDbSpline
210
0.0
220
0.0
230
1.0
 70
     8
 71
     3
 72
    12
 73
     8
 74
     0
 42
0.00000001
 43
0.00000001
 12
1.0
 22
0.0
 32
0.0
 13
1.0
 23
0.0
 33
0.0
 40
0.0
 40
0.0
 40
0.0
 40
0.0
 40
0.2499999999999969
 40
0.2499999999999969
 40
0.4999999999999938
 40
0.4999999999999938
 40
1.0
 40
1.0
 40
1.0
 40
1.0
 10
-69.60437042800848
 20
814.9029108974238
 30
0.0
 10
-69.56811666817944
 20
814.846003893504
 30
0.0
 10
-69.5479617470196
 20
814.7800611098434
 30
0.0
 10
-69.54370463042916
 20
814.6467183779622
 30
0.0
 10
-69.55998045703608
 20
814.5788518733932
 30
0.0
 10
-69.65693263473737
 20
814.4031197693073
 30
0.0
 10
-69.78645989901247
 20
814.3264235442929
 30
0.0
 10
-69.9206422201911
 20
814.3264235442939
 30
0.0
  0
LINE
  5
B8
330
1F
100
AcDbEntity
  8
0
  6
Continuous
 62
     7
370
    15
100
AcDbLine
 10
-69.9206422202
 20
814.3264235443
 30
0.0
 11
-77.2267895722
 21
814.3264235443
 31
0.0
  0
SPLINE
  5
B9
330
1F
100
AcDbEntity
  8
0
  6
Continuous
 62
     7
370
    15
100
AcDbSpline
210
0.0
220
0.0
230
1.0
 70
     8
 71
     3
 72
     8
 73
     4
 74
     0
 42
0.00000001
 43
0.00000001
 12
1.0
 22
0.0
 32
0.0
 13
1.0
 23
0.0
 33
0.0
 40
0.0
 40
0.0
 40
0.0
 40
0.0
 40
1.0
 40
1.0
 40
1.0
 40
1.0
 10
-77.22678957216193
 20
814.3264235442939
 30
0.0
 10
-77.3532373275295
 20
814.3264235442939
 30
0.0
 10
-77.47487882799462
 20
814.3929110472473
 30
0.0
 10
-77.54306136434273
 20
814.4999361911653
 30
0.0
  0
LINE
  5
BA
330
1F
100
AcDbEntity
  8
0
  6
Continuous
 62
     7
370
    15
100
AcDbLine
 10
-77.5430613643
 20
814.4999361912
 30
0.0
 11
-84.2551689491
 21
825.035834659
 31
0.0
  0
SPLINE
  5
BB
330
1F
100
AcDbEntity
  8
0
  6
Continuous
 62
     7
370
    15
100
AcDbSpline
210
0.0
220
0.0
230
1.0
 70
     8
 71
     3
 72
    14
 73
    10
 74
     0
 42
0.00000001
 43
0.00000001
 12
1.0
 22
0.0
 32
0.0
 13
1.0
 23
0.0
 33
0.0
 40
0.0
 40
0.0
 40
0.0
 40
0.0
 40
0.25
 40
0.25
 40
0.5
 40
0.5
 40
0.75
 40
0.75
 40
1.0
 40
1.0
 40
1.0
 40
1.0
 10
-84.25516894910315
 20
825.0358346590247
 30
0.0
 10
-84.29216946784408
 20
825.0939138396382
 30
0.0
 10
-84.34464051637705
 20
825.1405992744806
 30
0.0
 10
-84.46632849526466
 20
825.2006532245159
 30
0.0
 10
-84.53616414381351
 20
825.2138348120233
 30
0.0
 10
-84.671742907364
 20
825.2020355993117
 30
0.0
 10
-84.7375798671939
 20
825.1773981192858
 30
0.0
 10
-84.84782311922082
 20
825.0968332119777
 30
0.0
 10
-84.8915319385327
 20
825.041501019956
 30
0.0
 10
-84.91789556597506
 20
824.9778535930308
 30
0.0
  0
LINE
  5
BC
330
1F
100
AcDbEntity
  8
0
  6
Continuous
 62
     7
370
    15
100
AcDbLine
 10
-84.917895566
 20
824.9778535931
 30
0.0
 11
-89.2339745154
 21
814.5579172572
 31
0.0
  0
SPLINE
  5
BD
330
1F
100
AcDbEntity
  8
0
  6
Continuous
 62
     7
370
    15
100
AcDbSpline
210
0.0
220
0.0
230
1.0
 70
     8
 71
     3
 72
    10
 73
     6
 74
     0
 42
0.00000001
 43
0.00000001
 12
1.0
 22
0.0
 32
0.0
 13
1.0
 23
0.0
 33
0.0
 40
0.0
 40
0.0
 40
0.0
 40
0.0
 40
0.5
 40
0.5
 40
1.0
 40
1.0
 40
1.0
 40
1.0
 10
-89.23397451535818
 20
814.557917257157
 30
0.0
 10
-89.26241363864028
 20
814.4892591400272
 30
0.0
 10
-89.31082604127418
 20
814.4306200036
 30
0.0
 10
-89.43291847881184
 20
814.3489167469411
 30
0.0
 10
-89.5062039031774
 20
814.3264235442937
 30
0.0
 10
-89.58042934005108
 20
814.3264235442939
 30
0.0
  0
LINE
  5
BE
330
1F
100
AcDbEntity
  8
0
  6
Continuous
 62
     7
370
    15
100
AcDbLine
 10
-89.58042934
 20
814.3264235443
 30
0.0
 11
-96.886576692
 21
814.3264235443
 31
0.0
  0
SPLINE
  5
BF
330
1F
100
AcDbEntity
  8
0
  6
Continuous
 62
     7
370
    15
100
AcDbSpline
210
0.0
220
0.0
230
1.0
 70
     8
 71
     3
 72
    10
 73
     6
 74
     0
 42
0.00000001
 43
0.00000001
 12
1.0
 22
0.0
 32
0.0
 13
1.0
 23
0.0
 33
0.0
 40
0.0
 40
0.0
 40
0.0
 40
0.0
 40
0.5
 40
0.5
 40
1.0
 40
1.0
 40
1.0
 40
1.0
 10
-96.88657669202355
 20
814.3264235442939
 30
0.0
 10
-97.01039233300627
 20
814.3264235442939
 30
0.0
 10
-97.12966887356417
 20
814.3904233541618
 30
0.0
 10
-97.26676981859053
 20
814.5952721736028
 30
0.0
 10
-97.28042773341835
 20
814.730505242261
 30
0.0
 10
-97.23303151671527
 20
814.8449298314307
 30
0.0
  0
LINE
  5
C0
330
1F
100
AcDbEntity
  8
0
  6
Continuous
 62
     7
370
    15
100
AcDbLine
 10
-97.2330315167
 20
814.8449298314
 30
0.0
 11
-86.8849526582
 21
839.8274021562
 31
0.0
  0
SPLINE
  5
C1
330
1F
100
AcDbEntity
  8
0
  6
Continuous
 62
     7
370
    15
100
AcDbSpline
210
0.0
220
0.0
230
1.0
 70
     8
 71
     3
 72
    10
 73
     6
 74
     0
 42
0.00000001
 43
0.00000001
 12
1.0
 22
0.0
 32
0.0
 13
1.0
 23
0.0
 33
0.0
 40
0.0
 40
0.0
 40
0.0
 40
0.0
 40
0.5
 40
0.5
 40
1.0
 40
1.0
 40
1.0
 40
1.0
 10
-86.88495265820453
 20
839.8274021561539
 30
0.0
 10
-86.85650471387656
 20
839.8960815691722
 30
0.0
 10
-86.80807607373684
 20
839.9547246340665
 30
0.0
 10
-86.68597410766886
 20
840.0364173522511
 30
0.0
 10
-86.61270224093796
 20
840.0588958690169
 30
0.0
 10
-86.5384978335135
 20
840.0588958690171
 30
0.0
  0
LINE
  5
C2
330
1F
100
AcDbEntity
  8
0
  6
Continuous
 62
     7
370
    15
100
AcDbLine
 10
-86.5384978335
 20
840.058895869
 30
0.0
 11
-79.2323504815
 21
840.058895869
 31
0.0
  0
SPLINE
  5
C3
330
1F
100
AcDbEntity
  8
0
  6
Continuous
 62
     7
370
    15
100
AcDbSpline
210
0.0
220
0.0
230
1.0
 70
     8
 71
     3
 72
    10
 73
     6
 74
     0
 42
0.00000001
 43
0.00000001
 12
1.0
 22
0.0
 32
0.0
 13
1.0
 23
0.0
 33
0.0
 40
0.0
 40
0.0
 40
0.0
 40
0.0
 40
0.5
 40
0.5
 40
1.0
 40
1.0
 40
1.0
 40
1.0
 10
-79.23235048153911
 20
840.0588958690171
 30
0.0
 10
-79.10881250897205
 20
840.0588958690171
 30
0.0
 10
-78.98964123826674
 20
839.9951812768946
 30
0.0
 10
-78.85231422503918
 20
839.7905674475787
 30
0.0
 10
-78.83844872822118
 20
839.6549366004623
 30
0.0
 10
-78.88589565684747
 20
839.5403895818799
 30
0.0
  0
LINE
  5
C4
330
1F
100
AcDbEntity
  8
0
  6
Continuous
 62
     7
370
    15
100
AcDbLine
 10
-78.8858956568
 20
839.5403895819
 30
0.0
 11
-82.1599349043
 21
831.6361596269
 31
0.0
  0
SPLINE
  5
C5
330
1F
100
AcDbEntity
  8
0
  6
Continuous
 62
     7
370
    15
100
AcDbSpline
210
0.0
220
0.0
230
1.0
 70
     8
 71
     3
 72
    10
 73
     6
 74
     0
 42
0.00000001
 43
0.00000001
 12
1.0
 22
0.0
 32
0.0
 13
1.0
 23
0.0
 33
0.0
 40
0.0
 40
0.0
 40
0.0
 40
0.0
 40
0.5
 40
0.5
 40
1.0
 40
1.0
 40
1.0
 40
1.0
 10
-82.15993490429669
 20
831.6361596269461
 30
0.0
 10
-82.20639589765506
 20
831.523992866659
 30
0.0
 10
-82.1943025301391
 20
831.3920321369145
 30
0.0
 10
-82.06437429414416
 20
831.1890047626454
 30
0.0
 10
-81.94938695843494
 20
831.1227762541407
 30
0.0
 10
-81.82842639389196
 20
831.1179513146088
 30
0.0
  0
SPLINE
  5
C6
330
1F
100
AcDbEntity
  8
0
  6
Continuous
 62
     7
370
    15
100
AcDbSpline
210
0.0
220
0.0
230
1.0
 70
     8
 71
     3
 72
    26
 73
    22
 74
     0
 42
0.00000001
 43
0.00000001
 12
1.0
 22
0.0
 32
0.0
 13
1.0
 23
0.0
 33
0.0
 40
0.0
 40
0.0
 40
0.0
 40
0.0
 40
0.1250000000000158
 40
0.1250000000000158
 40
0.1875000000000239
 40
0.1875000000000239
 40
0.2500000000000319
 40
0.2500000000000319
 40
0.3750000000000382
 40
0.3750000000000382
 40
0.4375000000000345
 40
0.4375000000000345
 40
0.5000000000000308
 40
0.5000000000000308
 40
0.6250000000000231
 40
0.6250000000000231
 40
0.7500000000000154
 40
0.7500000000000154
 40
0.8750000000000077
 40
0.8750000000000077
 40
1.0
 40
1.0
 40
1.0
 40
1.0
 10
-81.82842639389105
 20
831.1179513146088
 30
0.0
 10
-81.25773448373816
 20
831.0951872512304
 30
0.0
 10
-80.69482709688741
 20
831.1314520555093
 30
0.0
 10
-79.86165136521834
 20
831.270729244638
 30
0.0
 10
-79.58580521476037
 20
831.3314165640546
 30
0.0
 10
-79.03796769801929
 20
831.482085218156
 30
0.0
 10
-78.76644642331763
 20
831.5721574475554
 30
0.0
 10
-77.97634024781475
 20
831.8801722928096
 30
0.0
 10
-77.47559047798593
 20
832.1371004648582
 30
0.0
 10
-76.76358712129367
 20
832.6002735217522
 30
0.0
 10
-76.53164081456349
 20
832.7687974910463
 30
0.0
 10
-76.09034014760024
 20
833.1257825800856
 30
0.0
 10
-75.8802744101255
 20
833.3144982013489
 30
0.0
 10
-75.28113037084803
 20
833.9106578782854
 30
0.0
 10
-74.92153627888477
 20
834.3496737164792
 30
0.0
 10
-74.29395982838754
 20
835.3034380596631
 30
0.0
 10
-74.03408763150875
 20
835.8050193129409
 30
0.0
 10
-73.61890751630273
 20
836.8561276399964
 30
0.0
 10
-73.46319625867294
 20
837.4117911286651
 30
0.0
 10
-73.27188152903932
 20
838.5311009588091
 30
0.0
 10
-73.23394802861519
 20
839.097182543563
 30
0.0
 10
-73.25537669907173
 20
839.6698741298864
 30
0.0
  0
SPLINE
  5
C7
330
1F
100
AcDbEntity
  8
0
  6
Continuous
 62
     7
370
    15
100
AcDbSpline
210
0.0
220
0.0
230
1.0
 70
     8
 71
     3
 72
    10
 73
     6
 74
     0
 42
0.00000001
 43
0.00000001
 12
1.0
 22
0.0
 32
0.0
 13
1.0
 23
0.0
 33
0.0
 40
0.0
 40
0.0
 40
0.0
 40
0.0
 40
0.5
 40
0.5
 40
1.0
 40
1.0
 40
1.0
 40
1.0
 10
-73.25537669907176
 20
839.6698741298866
 30
0.0
 10
-73.2591808309519
 20
839.7715413950323
 30
0.0
 10
-73.21986649561326
 20
839.8724665707128
 30
0.0
 10
-73.08085319204939
 20
840.016384212158
 30
0.0
 10
-72.98169679729878
 20
840.0588958690167
 30
0.0
 10
-72.88063893632184
 20
840.0588958690171
 30
0.0
  0
LINE
  5
C8
330
1F
100
AcDbEntity
  8
0
  6
Continuous
 62
     7
370
    15
100
AcDbLine
 10
-72.8806389363
 20
840.058895869
 30
0.0
 11
-65.7496074796
 21
840.058895869
 31
0.0
  0
SPLINE
  5
C9
330
1F
100
AcDbEntity
  8
0
  6
Continuous
 62
     7
370
    15
100
AcDbSpline
210
0.0
220
0.0
230
1.0
 70
     8
 71
     3
 72
    10
 73
     6
 74
     0
 42
0.00000001
 43
0.00000001
 12
1.0
 22
0.0
 32
0.0
 13
1.0
 23
0.0
 33
0.0
 40
0.0
 40
0.0
 40
0.0
 40
0.0
 40
0.5
 40
0.5
 40
1.0
 40
1.0
 40
1.0
 40
1.0
 10
-65.74960747959766
 20
840.0588958690171
 30
0.0
 10
-65.65105599053216
 20
840.0588958690171
 30
0.0
 10
-65.55458103673779
 20
840.0188026683953
 30
0.0
 10
-65.41581872577837
 20
839.8808297297626
 30
0.0
 10
-65.37460747959676
 20
839.7834590650494
 30
0.0
 10
-65.37460747959659
 20
839.6838958690178
 30
0.0
  0
LINE
  5
CA
330
1F
100
AcDbEntity
  8
0
  6
Continuous
 62
     7
370
    15
100
AcDbLine
 10
-65.3746074796
 20
839.683895869
 30
0.0
 11
-65.3746074796
 21
832.933895869
 31
0.0
  0
SPLINE
  5
CB
330
1F
100
AcDbEntity
  8
0
  6
Continuous
 62
     7
370
    15
100
AcDbSpline
210
0.0
220
0.0
230
1.0
 70
     8
 71
     3
 72
    10
 73
     6
 74
     0
 42
0.00000001
 43
0.00000001
 12
1.0
 22
0.0
 32
0.0
 13
1.0
 23
0.0
 33
0.0
 40
0.0
 40
0.0
 40
0.0
 40
0.0
 40
0.5
 40
0.5
 40
1.0
 40
1.0
 40
1.0
 40
1.0
 10
-65.37460747959764
 20
832.9338958690171
 30
0.0
 10
-65.37460747959766
 20
832.8343504767458
 30
0.0
 10
-65.4157348389082
 20
832.7371439315697
 30
0.0
 10
-65.55428553591646
 20
832.5991846451138
 30
0.0
 10
-65.65107288865975
 20
832.5588958690164
 30
0.0
 10
-65.74960747960084
 20
832.5588958690171
 30
0.0
  0
LINE
  5
CC
330
1F
100
AcDbEntity
  8
0
  6
Continuous
 62
     7
370
    15
100
AcDbLine
 10
-65.7496074796
 20
832.558895869
 30
0.0
 11
-67.9027652451
 21
832.558895869
 31
0.0
  0
SPLINE
  5
CD
330
1F
100
AcDbEntity
  8
0
  6
Continuous
 62
     7
370
    15
100
AcDbSpline
210
0.0
220
0.0
230
1.0
 70
     8
 71
     3
 72
     8
 73
     4
 74
     0
 42
0.00000001
 43
0.00000001
 12
1.0
 22
0.0
 32
0.0
 13
1.0
 23
0.0
 33
0.0
 40
0.0
 40
0.0
 40
0.0
 40
0.0
 40
1.0
 40
1.0
 40
1.0
 40
1.0
 10
-67.90276524509336
 20
832.5588958690171
 30
0.0
 10
-68.03924834626359
 20
832.5588958690171
 30
0.0
 10
-68.17022626076984
 20
832.4805172226885
 30
0.0
 10
-68.23439554349667
 20
832.3589568446254
 30
0.0
  0
SPLINE
  5
CE
330
1F
100
AcDbEntity
  8
0
  6
Continuous
 62
     7
370
    15
100
AcDbSpline
210
0.0
220
0.0
230
1.0
 70
     8
 71
     3
 72
    21
 73
    17
 74
     0
 42
0.00000001
 43
0.00000001
 12
1.0
 22
0.0
 32
0.0
 13
1.0
 23
0.0
 33
0.0
 40
0.0
 40
0.0
 40
0.0
 40
0.0
 40
0.0586556703080709
 40
0.1165366648143981
 40
0.1736429973733405
 40
0.2299746824163267
 40
0.2855317349840356
 40
0.3403141707606763
 40
0.3943220061108824
 40
0.4475552581192077
 40
0.5000139446324798
 40
0.6015734218934466
 40
0.7023516203394631
 40
0.8023486839775416
 40
0.9015647602216208
 40
1.0
 40
1.0
 40
1.0
 40
1.0
 10
-161.9388025676647
 20
873.496834202859
 30
0.0
 10
-161.3807947404615
 20
873.5116934094764
 30
0.0
 10
-160.2721487940243
 20
873.5412155745445
 30
0.0
 10
-158.6173645777376
 20
873.5841731506696
 30
0.0
 10
-156.9827676865829
 20
873.6257816051468
 30
0.0
 10
-155.3682952277665
 20
873.6659697968369
 30
0.0
 10
-153.7741421036736
 20
873.7047563983448
 30
0.0
 10
-152.2004279844458
 20
873.7421365696235
 30
0.0
 10
-150.647285254653
 20
873.7781113983256
 30
0.0
 10
-149.1148349580409
 20
873.8126813090648
 30
0.0
 10
-147.1241322310135
 20
873.8563533907803
 30
0.0
 10
-144.6733347077577
 20
873.9078377073475
 30
0.0
 10
-141.7603699941527
 20
873.9654582513643
 30
0.0
 10
-138.8653987125012
 20
874.0190374937795
 30
0.0
 10
-135.9891738790485
 20
874.0689147569622
 30
0.0
 10
-134.0761459318959
 20
874.0989868591097
 30
0.0
 10
-133.1234107390813
 20
874.113963509127
 30
0.0
  0
SPLINE
  5
CF
330
1F
100
AcDbEntity
  8
0
  6
Continuous
 62
     7
370
    15
100
AcDbSpline
210
0.0
220
0.0
230
1.0
 70
     8
 71
     3
 72
     8
 73
     4
 74
     0
 42
0.00000001
 43
0.00000001
 12
1.0
 22
0.0
 32
0.0
 13
1.0
 23
0.0
 33
0.0
 40
0.0
 40
0.0
 40
0.0
 40
0.0
 40
1.0
 40
1.0
 40
1.0
 40
1.0
 10
-176.5033079907091
 20
873.0817557568263
 30
0.0
 10
-171.681439852163
 20
873.2250749507816
 30
0.0
 10
-166.8266609066459
 20
873.3659459737183
 30
0.0
 10
-161.9388025676646
 20
873.496834202859
 30
0.0
  0
SPLINE
  5
D0
330
1F
100
AcDbEntity
  8
0
  6
Continuous
 62
     7
370
    15
100
AcDbSpline
210
0.0
220
0.0
230
1.0
 70
     8
 71
     3
 72
     8
 73
     4
 74
     0
 42
0.00000001
 43
0.00000001
 12
1.0
 22
0.0
 32
0.0
 13
1.0
 23
0.0
 33
0.0
 40
0.0000069159360225
 40
0.0000069159360225
 40
0.0000069159360225
 40
0.0000069159360225
 40
0.0005559619023244
 40
0.0005559619023244
 40
0.0005559619023244
 40
0.0005559619023244
 10
-176.5033079907091
 20
873.0817557568263
 30
0.0
 10
-176.5015698074195
 20
873.24781140031
 30
0.0
 10
-176.4997510579924
 20
873.4138753558948
 30
0.0
 10
-176.4978517958596
 20
873.5799475128251
 30
0.0
  0
SPLINE
  5
D1
330
1F
100
AcDbEntity
  8
0
  6
Continuous
 62
     7
370
    15
100
AcDbSpline
210
0.0
220
0.0
230
1.0
 70
     8
 71
     3
 72
     8
 73
     4
 74
     0
 42
0.00000001
 43
0.00000001
 12
1.0
 22
0.0
 32
0.0
 13
1.0
 23
0.0
 33
0.0
 40
0.0
 40
0.0
 40
0.0
 40
0.0
 40
1.0
 40
1.0
 40
1.0
 40
1.0
 10
-176.4978517958596
 20
873.5799475128251
 30
0.0
 10
-172.6420701193864
 20
883.527867292086
 30
0.0
 10
-168.7472434037023
 20
893.4379363105645
 30
0.0
 10
-164.80854332001
 20
903.3063318935771
 30
0.0
  0
SPLINE
  5
D2
330
1F
100
AcDbEntity
  8
0
  6
Continuous
 62
     7
370
    15
100
AcDbSpline
210
0.0
220
0.0
230
1.0
 70
     8
 71
     3
 72
    18
 73
    14
 74
     0
 42
0.00000001
 43
0.00000001
 12
1.0
 22
0.0
 32
0.0
 13
1.0
 23
0.0
 33
0.0
 40
0.0
 40
0.0
 40
0.0
 40
0.0
 40
0.25
 40
0.25
 40
0.375
 40
0.375
 40
0.5
 40
0.5
 40
0.75
 40
0.75
 40
0.875
 40
0.875
 40
1.0
 40
1.0
 40
1.0
 40
1.0
 10
-103.8871074794681
 20
904.4747614651722
 30
0.0
 10
-109.0115824869739
 20
904.4747614651723
 30
0.0
 10
-114.1285411033504
 20
904.4449312830908
 30
0.0
 10
-121.7927112561676
 20
904.3594431758492
 30
0.0
 10
-124.3455557207373
 20
904.3242311221123
 30
0.0
 10
-129.4474800191279
 20
904.2416797635289
 30
0.0
 10
-131.997694177207
 20
904.1943221484217
 30
0.0
 10
-139.6321411402962
 20
904.0365049352687
 30
0.0
 10
-144.7005844660544
 20
903.9104188886479
 30
0.0
 10
-152.2713414325183
 20
903.698840390516
 30
0.0
 10
-154.7906248864836
 20
903.6245215243483
 30
0.0
 10
-159.8121222576109
 20
903.4697625176425
 30
0.0
 10
-162.3144929660938
 20
903.3893215023564
 30
0.0
 10
-164.8085433200102
 20
903.3063318935777
 30
0.0
  0
SPLINE
  5
D3
330
1F
100
AcDbEntity
  8
0
  6
Continuous
 62
     7
370
    15
100
AcDbSpline
210
0.0
220
0.0
230
1.0
 70
     8
 71
     3
 72
    21
 73
    17
 74
     0
 42
0.00000001
 43
0.00000001
 12
1.0
 22
0.0
 32
0.0
 13
1.0
 23
0.0
 33
0.0
 40
0.0
 40
0.0
 40
0.0
 40
0.0
 40
0.0570468701304606
 40
0.1137223992238807
 40
0.1700266213305467
 40
0.2259595711794801
 40
0.2815212841965111
 40
0.3367117965229796
 40
0.3915311450349248
 40
0.4459793673632149
 40
0.5000565019140283
 40
0.6002649490888757
 40
0.7003632677687224
 40
0.8003517122499513
 40
0.9002305376681707
 40
1.0
 40
1.0
 40
1.0
 40
1.0
 10
-133.1234107390813
 20
874.113963509127
 30
0.0
 10
-132.5695804968832
 20
874.1223389339367
 30
0.0
 10
-131.4655251164305
 20
874.1390352645449
 30
0.0
 10
-129.8134818715317
 20
874.1623821623576
 30
0.0
 10
-128.1713543692828
 20
874.1843784297998
 30
0.0
 10
-126.5391200593243
 20
874.2049103082328
 30
0.0
 10
-124.9168833856689
 20
874.22400797852
 30
0.0
 10
-123.3047119297736
 20
874.2416634432915
 30
0.0
 10
-121.7026801842707
 20
874.2578787957111
 30
0.0
 10
-120.1108570359819
 20
874.2726535922201
 30
0.0
 10
-118.0759754313437
 20
874.289809617182
 30
0.0
 10
-115.5948982929842
 20
874.3076716276171
 30
0.0
 10
-112.6646303135326
 20
874.3241153747476
 30
0.0
 10
-109.7365211829468
 20
874.3357759655628
 30
0.0
 10
-106.8109204782438
 20
874.343082724794
 30
0.0
 10
-104.8613558357956
 20
874.3439872280954
 30
0.0
 10
-103.8871074795977
 20
874.3444392320123
 30
0.0
  0
LINE
  5
D4
330
1F
100
AcDbEntity
  8
0
  6
Continuous
 62
     7
370
    15
100
AcDbLine
 10
-176.0089196884
 20
563.3264235443
 30
0.0
 11
-176.0089196884
 21
649.4264235443
 31
0.0
  0
SPLINE
  5
D5
330
1F
100
AcDbEntity
  8
0
  6
Continuous
 62
     7
370
    15
100
AcDbSpline
210
0.0
220
0.0
230
1.0
 70
     8
 71
     3
 72
    20
 73
    16
 74
     0
 42
0.00000001
 43
0.00000001
 12
1.0
 22
0.0
 32
0.0
 13
1.0
 23
0.0
 33
0.0
 40
0.0
 40
0.0
 40
0.0
 40
0.0
 40
0.2499999999999993
 40
0.2499999999999993
 40
0.3749999999999989
 40
0.3749999999999989
 40
0.4374999999999987
 40
0.4374999999999987
 40
0.4999999999999986
 40
0.4999999999999986
 40
0.7499999999999992
 40
0.7499999999999992
 40
0.8749999999999996
 40
0.8749999999999996
 40
1.0
 40
1.0
 40
1.0
 40
1.0
 10
-176.0089196884136
 20
649.4264235442942
 30
0.0
 10
-178.2703495011139
 20
667.9797666650245
 30
0.0
 10
-179.9798635576603
 20
686.5724231200412
 30
0.0
 10
-181.7147702845297
 20
714.5215139834456
 30
0.0
 10
-182.1547439931753
 20
723.8478960810744
 30
0.0
 10
-182.6060648988738
 20
737.8526479652127
 30
0.0
 10
-182.7217249794467
 20
742.5234284561906
 30
0.0
 10
-182.8832083896876
 20
751.8700752671823
 30
0.0
 10
-182.9290083785078
 20
756.546044360295
 30
0.0
 10
-182.9827593744969
 20
779.91402127304
 30
0.0
 10
-182.4641847464514
 20
798.5900113018472
 30
0.0
 10
-180.8506646359444
 20
826.576776880101
 30
0.0
 10
-180.1733049399871
 20
835.9039749801664
 30
0.0
 10
-178.5439630733404
 20
854.5179589319943
 30
0.0
 10
-177.591869000568
 20
863.8081316445223
 30
0.0
 10
-176.5033079907091
 20
873.0817557568264
 30
0.0
  0
SPLINE
  5
D6
330
1F
100
AcDbEntity
  8
0
  6
Continuous
 62
     7
370
    15
100
AcDbSpline
210
0.0
220
0.0
230
1.0
 70
     8
 71
     3
 72
    21
 73
    17
 74
     0
 42
0.00000001
 43
0.00000001
 12
1.0
 22
0.0
 32
0.0
 13
1.0
 23
0.0
 33
0.0
 40
0.0
 40
0.0
 40
0.0
 40
0.0
 40
0.0555038854966619
 40
0.1110174399021885
 40
0.1665427224749319
 40
0.2220818012437768
 40
0.2776367527982735
 40
0.3332096620758478
 40
0.3888026221461878
 40
0.4444177339929218
 40
0.5000571062927104
 40
0.5847879288154318
 40
0.7499683130110346
 40
0.8610167668392356
 40
0.9443889828588536
 40
1.0
 40
1.0
 40
1.0
 40
1.0
 10
-74.65080422011401
 20
874.113963509127
 30
0.0
 10
-75.18965101507857
 20
874.1221131212949
 30
0.0
 10
-76.26743847340097
 20
874.1384137653126
 30
0.0
 10
-77.88558729864377
 20
874.1612986005047
 30
0.0
 10
-79.50496111314759
 20
874.1830188869261
 30
0.0
 10
-81.1256600569349
 20
874.2034469786375
 30
0.0
 10
-82.74765999726723
 20
874.2225969920955
 30
0.0
 10
-84.37097008191792
 20
874.2404435335352
 30
0.0
 10
-85.99559064840057
 20
874.2569774457261
 30
0.0
 10
-87.62152398166361
 20
874.2721641375797
 30
0.0
 10
-89.53211905319866
 20
874.2884732396686
 30
0.0
 10
-92.51207953274199
 20
874.3102799295193
 30
0.0
 10
-96.03470393218394
 20
874.3291064020597
 30
0.0
 10
-99.54546452517074
 20
874.3400174403395
 30
0.0
 10
-101.9869047731335
 20
874.3439550625532
 30
0.0
 10
-103.3440687974121
 20
874.344300866382
 30
0.0
 10
-103.8871074798566
 20
874.3444392320122
 30
0.0
  0
SPLINE
  5
D7
330
1F
100
AcDbEntity
  8
0
  6
Continuous
 62
     7
370
    15
100
AcDbSpline
210
0.0
220
0.0
230
1.0
 70
     8
 71
     3
 72
    21
 73
    17
 74
     0
 42
0.00000001
 43
0.00000001
 12
1.0
 22
0.0
 32
0.0
 13
1.0
 23
0.0
 33
0.0
 40
0.0
 40
0.0
 40
0.0
 40
0.0
 40
0.0556457249796991
 40
0.1112645765036512
 40
0.1668585832000754
 40
0.2224297743765865
 40
0.2779801798354676
 40
0.3335118296883826
 40
0.3890267541706272
 40
0.4445269834550213
 40
0.5000145474655424
 40
0.5845985145177376
 40
0.7500167871465799
 40
0.8608312455667247
 40
0.9441594111764298
 40
1.0
 40
1.0
 40
1.0
 40
1.0
 10
-45.83541239153066
 20
873.496834202859
 30
0.0
 10
-46.3647738890499
 20
873.5109330540391
 30
0.0
 10
-47.42324123510936
 20
873.5391239475234
 30
0.0
 10
-49.01320714773838
 20
873.5804387416656
 30
0.0
 10
-50.60431539815243
 20
873.6209986791995
 30
0.0
 10
-52.19675833536977
 20
873.6607130589698
 30
0.0
 10
-53.79048409030045
 20
873.6995767592914
 30
0.0
 10
-55.38550611712281
 20
873.7375602527271
 30
0.0
 10
-56.98182064844107
 20
873.7746461037469
 30
0.0
 10
-58.57942751592123
 20
873.8107929112642
 30
0.0
 10
-60.45790390799635
 20
873.8522066450332
 30
0.0
 10
-63.39583080294757
 20
873.9142120343022
 30
0.0
 10
-66.87326331305587
 20
873.9823760274849
 30
0.0
 10
-70.34577591968991
 20
874.0443464607081
 30
0.0
 10
-72.76308907938457
 20
874.084604837529
 30
0.0
 10
-74.11026024807128
 20
874.1055567041926
 30
0.0
 10
-74.65080422011401
 20
874.1139635091268
 30
0.0
  0
SPLINE
  5
D8
330
1F
100
AcDbEntity
  8
0
  6
Continuous
 62
     7
370
    15
100
AcDbSpline
210
0.0
220
0.0
230
1.0
 70
     8
 71
     3
 72
     8
 73
     4
 74
     0
 42
0.00000001
 43
0.00000001
 12
1.0
 22
0.0
 32
0.0
 13
1.0
 23
0.0
 33
0.0
 40
0.0
 40
0.0
 40
0.0
 40
0.0
 40
1.0
 40
1.0
 40
1.0
 40
1.0
 10
-31.27090696848618
 20
873.0817557568263
 30
0.0
 10
-36.0927751070323
 20
873.2250749507816
 30
0.0
 10
-40.94755405254938
 20
873.3659459737183
 30
0.0
 10
-45.83541239153065
 20
873.496834202859
 30
0.0
  0
SPLINE
  5
D9
330
1F
100
AcDbEntity
  8
0
  6
Continuous
 62
     7
370
    15
100
AcDbSpline
210
0.0
220
0.0
230
1.0
 70
     8
 71
     3
 72
    20
 73
    16
 74
     0
 42
0.00000001
 43
0.00000001
 12
1.0
 22
0.0
 32
0.0
 13
1.0
 23
0.0
 33
0.0
 40
0.0
 40
0.0
 40
0.0
 40
0.0
 40
0.2499999999999993
 40
0.2499999999999993
 40
0.3749999999999989
 40
0.3749999999999989
 40
0.4374999999999987
 40
0.4374999999999987
 40
0.4999999999999986
 40
0.4999999999999986
 40
0.7499999999999992
 40
0.7499999999999992
 40
0.8749999999999996
 40
0.8749999999999996
 40
1.0
 40
1.0
 40
1.0
 40
1.0
 10
-31.76529527078167
 20
649.4264235442942
 30
0.0
 10
-29.50386545808142
 20
667.9797666650245
 30
0.0
 10
-27.79435140153497
 20
686.5724231200412
 30
0.0
 10
-26.05944467466557
 20
714.5215139834456
 30
0.0
 10
-25.61947096602003
 20
723.8478960810744
 30
0.0
 10
-25.16815006032153
 20
737.8526479652127
 30
0.0
 10
-25.05248997974859
 20
742.5234284561906
 30
0.0
 10
-24.89100656950774
 20
751.8700752671823
 30
0.0
 10
-24.84520658068746
 20
756.546044360295
 30
0.0
 10
-24.79145558469845
 20
779.91402127304
 30
0.0
 10
-25.31003021274386
 20
798.5900113018472
 30
0.0
 10
-26.92355032325086
 20
826.576776880101
 30
0.0
 10
-27.60091001920818
 20
835.9039749801664
 30
0.0
 10
-29.23025188585485
 20
854.5179589319943
 30
0.0
 10
-30.18234595862736
 20
863.8081316445223
 30
0.0
 10
-31.27090696848617
 20
873.0817557568264
 30
0.0
  0
LINE
  5
DA
330
1F
100
AcDbEntity
  8
0
  6
Continuous
 62
     7
370
    15
100
AcDbLine
 10
-31.7652952708
 20
563.3264235443
 30
0.0
 11
-31.7652952708
 21
649.4264235443
 31
0.0
  0
SPLINE
  5
DB
330
1F
100
AcDbEntity
  8
0
  6
Continuous
 62
     7
370
    15
100
AcDbSpline
210
0.0
220
0.0
230
1.0
 70
     8
 71
     3
 72
    18
 73
    14
 74
     0
 42
0.00000001
 43
0.00000001
 12
1.0
 22
0.0
 32
0.0
 13
1.0
 23
0.0
 33
0.0
 40
0.0
 40
0.0
 40
0.0
 40
0.0
 40
0.25
 40
0.25
 40
0.375
 40
0.375
 40
0.5
 40
0.5
 40
0.75
 40
0.75
 40
0.875
 40
0.875
 40
1.0
 40
1.0
 40
1.0
 40
1.0
 10
-103.8871074797272
 20
904.4747614651722
 30
0.0
 10
-98.7626324722214
 20
904.4747614651723
 30
0.0
 10
-93.6456738558449
 20
904.4449312830908
 30
0.0
 10
-85.98150370302767
 20
904.3594431758492
 30
0.0
 10
-83.428659238458
 20
904.3242311221123
 30
0.0
 10
-78.32673494006741
 20
904.2416797635289
 30
0.0
 10
-75.77652078198832
 20
904.1943221484217
 30
0.0
 10
-68.14207381889906
 20
904.0365049352687
 30
0.0
 10
-63.07363049314085
 20
903.9104188886479
 30
0.0
 10
-55.50287352667699
 20
903.698840390516
 30
0.0
 10
-52.9835900727117
 20
903.6245215243483
 30
0.0
 10
-47.96209270158442
 20
903.4697625176425
 30
0.0
 10
-45.45972199310147
 20
903.3893215023564
 30
0.0
 10
-42.96567163918507
 20
903.3063318935777
 30
0.0
  0
SPLINE
  5
DC
330
1F
100
AcDbEntity
  8
0
  6
Continuous
 62
     7
370
    15
100
AcDbSpline
210
0.0
220
0.0
230
1.0
 70
     8
 71
     3
 72
     8
 73
     4
 74
     0
 42
0.00000001
 43
0.00000001
 12
1.0
 22
0.0
 32
0.0
 13
1.0
 23
0.0
 33
0.0
 40
0.0
 40
0.0
 40
0.0
 40
0.0
 40
1.0
 40
1.0
 40
1.0
 40
1.0
 10
-31.27636316333568
 20
873.5799475128251
 30
0.0
 10
-35.13214483980891
 20
883.527867292086
 30
0.0
 10
-39.02697155549303
 20
893.4379363105645
 30
0.0
 10
-42.96567163918523
 20
903.3063318935771
 30
0.0
  0
SPLINE
  5
DD
330
1F
100
AcDbEntity
  8
0
  6
Continuous
 62
     7
370
    15
100
AcDbSpline
210
0.0
220
0.0
230
1.0
 70
     8
 71
     3
 72
     8
 73
     4
 74
     0
 42
0.00000001
 43
0.00000001
 12
1.0
 22
0.0
 32
0.0
 13
1.0
 23
0.0
 33
0.0
 40
0.0000069159360225
 40
0.0000069159360225
 40
0.0000069159360225
 40
0.0000069159360225
 40
0.0005559619023244
 40
0.0005559619023244
 40
0.0005559619023244
 40
0.0005559619023244
 10
-31.27090696848614
 20
873.0817557568263
 30
0.0
 10
-31.27264515177575
 20
873.24781140031
 30
0.0
 10
-31.27446390120289
 20
873.4138753558948
 30
0.0
 10
-31.27636316333572
 20
873.5799475128251
 30
0.0
  0
SPLINE
  5
DE
330
1F
100
AcDbEntity
  8
0
  6
Continuous
 62
     7
370
    15
100
AcDbSpline
210
0.0
220
0.0
230
1.0
 70
     8
 71
     3
 72
     8
 73
     4
 74
     0
 42
0.00000001
 43
0.00000001
 12
1.0
 22
0.0
 32
0.0
 13
1.0
 23
0.0
 33
0.0
 40
0.0
 40
0.0
 40
0.0
 40
0.0
 40
1.0
 40
1.0
 40
1.0
 40
1.0
 10
-19.09727133292341
 20
740.3835510476862
 30
0.0
 10
-19.79691494264481
 20
709.9427450294833
 30
0.0
 10
-21.88406193584482
 20
679.5608546894467
 30
0.0
 10
-25.33710747959765
 20
649.4264235442942
 30
0.0
  0
LINE
  5
DF
330
1F
100
AcDbEntity
  8
0
  6
Continuous
 62
     7
370
    15
100
AcDbLine
 10
-31.7652952708
 20
649.4264235443
 30
0.0
 11
-25.3371074796
 21
649.4264235443
 31
0.0
  0
SPLINE
  5
E0
330
1F
100
AcDbEntity
  8
0
  6
Continuous
 62
     7
370
    15
100
AcDbSpline
210
0.0
220
0.0
230
1.0
 70
     8
 71
     3
 72
    12
 73
     8
 74
     0
 42
0.00000001
 43
0.00000001
 12
1.0
 22
0.0
 32
0.0
 13
1.0
 23
0.0
 33
0.0
 40
0.0
 40
0.0
 40
0.0
 40
0.0
 40
0.25
 40
0.25
 40
0.5
 40
0.5
 40
1.0
 40
1.0
 40
1.0
 40
1.0
 10
-31.27636316333565
 20
873.5799475128251
 30
0.0
 10
-30.23423045083414
 20
873.6971615263161
 30
0.0
 10
-29.32243431031588
 20
873.8051399483945
 30
0.0
 10
-27.75764445089268
 20
873.9948323232242
 30
0.0
 10
-27.10447618422609
 20
874.0766142002525
 30
0.0
 10
-25.53580231137011
 20
874.2796724401503
 30
0.0
 10
-25.01345736370496
 20
874.3529373334409
 30
0.0
 10
-25.01345736370499
 20
874.3529373334412
 30
0.0
  0
SPLINE
  5
E1
330
1F
100
AcDbEntity
  8
0
  6
Continuous
 62
     7
370
    15
100
AcDbSpline
210
0.0
220
0.0
230
1.0
 70
     8
 71
     3
 72
    10
 73
     6
 74
     0
 42
0.00000001
 43
0.00000001
 12
1.0
 22
0.0
 32
0.0
 13
1.0
 23
0.0
 33
0.0
 40
0.0
 40
0.0
 40
0.0
 40
0.0
 40
0.5
 40
0.5
 40
1.0
 40
1.0
 40
1.0
 40
1.0
 10
-25.01345736370499
 20
874.3529373334413
 30
0.0
 10
-22.86587033324117
 20
855.1111123751208
 30
0.0
 10
-21.273423300428
 20
835.7804778018024
 30
0.0
 10
-19.21312888711534
 20
797.0386678728212
 30
0.0
 10
-18.74635945483949
 20
777.6272698733992
 30
0.0
 10
-18.84627436770164
 20
758.2248453830298
 30
0.0
  0
SPLINE
  5
E2
330
1F
100
AcDbEntity
  8
0
  6
Continuous
 62
     7
370
    15
100
AcDbSpline
210
0.0
220
0.0
230
1.0
 70
     8
 71
     3
 72
    22
 73
    18
 74
     0
 42
0.00000001
 43
0.00000001
 12
1.0
 22
0.0
 32
0.0
 13
1.0
 23
0.0
 33
0.0
 40
0.0
 40
0.0
 40
0.0
 40
0.0
 40
0.2500000000000113
 40
0.2500000000000113
 40
0.3125000000000141
 40
0.3125000000000141
 40
0.3750000000000169
 40
0.3750000000000169
 40
0.5000000000000137
 40
0.5000000000000137
 40
0.6250000000000104
 40
0.6250000000000104
 40
0.6875000000000043
 40
0.6875000000000043
 40
0.7499999999999982
 40
0.7499999999999982
 40
1.0
 40
1.0
 40
1.0
 40
1.0
 10
-19.09727133292338
 20
740.3835510476862
 30
0.0
 10
-19.06588002890619
 20
741.7493558416821
 30
0.0
 10
-19.03864215117625
 20
743.1846403589075
 30
0.0
 10
-19.00660459629144
 20
745.0630060661949
 30
0.0
 10
-19.00030707321505
 20
745.4429585116549
 30
0.0
 10
-18.98788814024183
 20
746.2116281685869
 30
0.0
 10
-18.98178410525396
 20
746.5993350004629
 30
0.0
 10
-18.96394269220895
 20
747.758987255309
 30
0.0
 10
-18.95258383862489
 20
748.5325973658153
 30
0.0
 10
-18.93080389915049
 20
750.0808121963645
 30
0.0
 10
-18.9203826790197
 20
750.8554168810864
 30
0.0
 10
-18.90556108749463
 20
752.0180928962812
 30
0.0
 10
-18.9007482483238
 20
752.4066626126239
 30
0.0
 10
-18.89157410393791
 20
753.1727760841429
 30
0.0
 10
-18.88719572686337
 20
753.5516078204168
 30
0.0
 10
-18.86644435465731
 20
755.4250971118903
 30
0.0
 10
-18.85330910367355
 20
756.8587736966837
 30
0.0
 10
-18.84627436770164
 20
758.2248453830298
 30
0.0
  0
SPLINE
  5
E3
330
1F
100
AcDbEntity
  8
0
  6
Continuous
 62
     7
370
    15
100
AcDbSpline
210
0.0
220
0.0
230
1.0
 70
     8
 71
     3
 72
    12
 73
     8
 74
     0
 42
0.00000001
 43
0.00000001
 12
1.0
 22
0.0
 32
0.0
 13
1.0
 23
0.0
 33
0.0
 40
0.0
 40
0.0
 40
0.0
 40
0.0
 40
0.25
 40
0.25
 40
0.5
 40
0.5
 40
1.0
 40
1.0
 40
1.0
 40
1.0
 10
-176.4978517958596
 20
873.5799475128251
 30
0.0
 10
-177.5399845083612
 20
873.6971615263161
 30
0.0
 10
-178.4517806488794
 20
873.8051399483945
 30
0.0
 10
-180.0165705083026
 20
873.9948323232242
 30
0.0
 10
-180.6697387749692
 20
874.0766142002525
 30
0.0
 10
-182.2384126478252
 20
874.2796724401503
 30
0.0
 10
-182.7607575954903
 20
874.3529373334409
 30
0.0
 10
-182.7607575954903
 20
874.3529373334412
 30
0.0
  0
LINE
  5
E4
330
1F
100
AcDbEntity
  8
0
  6
Continuous
 62
     7
370
    15
100
AcDbLine
 10
-176.0089196884
 20
649.4264235443
 30
0.0
 11
-182.4371074796
 21
649.4264235443
 31
0.0
  0
SPLINE
  5
E5
330
1F
100
AcDbEntity
  8
0
  6
Continuous
 62
     7
370
    15
100
AcDbSpline
210
0.0
220
0.0
230
1.0
 70
     8
 71
     3
 72
     8
 73
     4
 74
     0
 42
0.00000001
 43
0.00000001
 12
1.0
 22
0.0
 32
0.0
 13
1.0
 23
0.0
 33
0.0
 40
0.0
 40
0.0
 40
0.0
 40
0.0
 40
1.0
 40
1.0
 40
1.0
 40
1.0
 10
-188.1594269990405
 20
723.8264235442937
 30
0.0
 10
-187.1752299154241
 20
698.9295468313974
 30
0.0
 10
-185.2638393525663
 20
674.0950692115632
 30
0.0
 10
-182.4371074795976
 20
649.4264235442942
 30
0.0
  0
SPLINE
  5
E6
330
1F
100
AcDbEntity
  8
0
  6
Continuous
 62
     7
370
    15
100
AcDbSpline
210
0.0
220
0.0
230
1.0
 70
     8
 71
     3
 72
     8
 73
     4
 74
     0
 42
0.00000001
 43
0.00000001
 12
1.0
 22
0.0
 32
0.0
 13
1.0
 23
0.0
 33
0.0
 40
0.0
 40
0.0
 40
0.0
 40
0.0
 40
1.0
 40
1.0
 40
1.0
 40
1.0
 10
-188.0000938385694
 20
723.8264235442939
 30
0.0
 10
-188.6724679373228
 20
740.8203278664713
 30
0.0
 10
-188.912128040872
 20
757.8203170731817
 30
0.0
 10
-188.7167715217157
 20
774.826423544294
 30
0.0
  0
SPLINE
  5
E7
330
1F
100
AcDbEntity
  8
0
  6
Continuous
 62
     7
370
    15
100
AcDbSpline
210
0.0
220
0.0
230
1.0
 70
     8
 71
     3
 72
     8
 73
     4
 74
     0
 42
0.00000001
 43
0.00000001
 12
1.0
 22
0.0
 32
0.0
 13
1.0
 23
0.0
 33
0.0
 40
0.0
 40
0.0
 40
0.0
 40
0.0
 40
1.0
 40
1.0
 40
1.0
 40
1.0
 10
-182.7607575954903
 20
874.3529373334413
 30
0.0
 10
-186.4434469628258
 20
841.3569920343895
 30
0.0
 10
-188.4935866991218
 20
808.0997359037167
 30
0.0
 10
-188.8754775036481
 20
774.8264235442939
 30
0.0
  0
LINE
  5
E8
330
1F
100
AcDbEntity
  8
0
  6
Continuous
 62
     7
370
    15
100
AcDbLine
 10
-168.9371074796
 20
903.9978506737
 30
0.0
 11
-182.7607575955
 21
874.3529373334
 31
0.0
  0
SPLINE
  5
E9
330
1F
100
AcDbEntity
  8
0
  6
Continuous
 62
     7
370
    15
100
AcDbSpline
210
0.0
220
0.0
230
1.0
 70
     8
 71
     3
 72
    12
 73
     8
 74
     0
 42
0.00000001
 43
0.00000001
 12
1.0
 22
0.0
 32
0.0
 13
1.0
 23
0.0
 33
0.0
 40
0.0
 40
0.0
 40
0.0
 40
0.0
 40
0.25
 40
0.25
 40
0.5
 40
0.5
 40
1.0
 40
1.0
 40
1.0
 40
1.0
 10
-164.8085433200102
 20
903.3063318935771
 30
0.0
 10
-165.4980743804732
 20
903.4115049154541
 30
0.0
 10
-166.1018414705187
 20
903.5079289392689
 30
0.0
 10
-167.1345017208257
 20
903.6780807837712
 30
0.0
 10
-167.5639018869201
 20
903.7518183000565
 30
0.0
 10
-168.5941588380602
 20
903.9324977004114
 30
0.0
 10
-168.9371074795975
 20
903.9978506736959
 30
0.0
 10
-168.9371074795976
 20
903.997850673696
 30
0.0
  0
SPLINE
  5
EA
330
1F
100
AcDbEntity
  8
0
  6
Continuous
 62
     7
370
    15
100
AcDbSpline
210
0.0
220
0.0
230
1.0
 70
     8
 71
     3
 72
    12
 73
     8
 74
     0
 42
0.00000001
 43
0.00000001
 12
1.0
 22
0.0
 32
0.0
 13
1.0
 23
0.0
 33
0.0
 40
0.0
 40
0.0
 40
0.0
 40
0.0
 40
0.25
 40
0.25
 40
0.5
 40
0.5
 40
1.0
 40
1.0
 40
1.0
 40
1.0
 10
-42.96567163918513
 20
903.3063318935771
 30
0.0
 10
-42.27614057872209
 20
903.4115049154541
 30
0.0
 10
-41.67237348867663
 20
903.5079289392689
 30
0.0
 10
-40.63971323836958
 20
903.6780807837712
 30
0.0
 10
-40.21031307227517
 20
903.7518183000565
 30
0.0
 10
-39.18005612113505
 20
903.9324977004114
 30
0.0
 10
-38.83710747959776
 20
903.9978506736959
 30
0.0
 10
-38.83710747959765
 20
903.997850673696
 30
0.0
  0
LINE
  5
EB
330
1F
100
AcDbEntity
  8
0
  6
Continuous
 62
     7
370
    15
100
AcDbLine
 10
-38.8371074796
 20
903.9978506737
 30
0.0
 11
-25.0134573637
 21
874.3529373334
 31
0.0
  0
LINE
  5
EC
330
1F
100
AcDbEntity
  8
0
  6
Continuous
 62
     7
370
    15
100
AcDbLine
 10
-66.0959016918
 20
905.4264235443
 30
0.0
 11
-141.6783132673
 21
905.4264235443
 31
0.0
  0
SPLINE
  5
ED
330
1F
100
AcDbEntity
  8
0
  6
Continuous
 62
     7
370
    15
100
AcDbSpline
210
0.0
220
0.0
230
1.0
 70
     8
 71
     3
 72
    14
 73
    10
 74
     0
 42
0.00000001
 43
0.00000001
 12
1.0
 22
0.0
 32
0.0
 13
1.0
 23
0.0
 33
0.0
 40
0.0
 40
0.0
 40
0.0
 40
0.0
 40
0.25
 40
0.25
 40
0.5
 40
0.5
 40
0.75
 40
0.75
 40
1.0
 40
1.0
 40
1.0
 40
1.0
 10
-62.30736160507428
 20
938.3447074224003
 30
0.0
 10
-62.611965988184
 20
938.293271486925
 30
0.0
 10
-62.92490125712936
 20
938.2677409167762
 30
0.0
 10
-63.54153432473831
 20
938.2698132699713
 30
0.0
 10
-63.84799946940353
 20
938.2966948978586
 30
0.0
 10
-64.45720303776109
 20
938.4024832969876
 30
0.0
 10
-64.760689896074
 20
938.4822370700002
 30
0.0
 10
-65.34113609554923
 20
938.6888828147194
 30
0.0
 10
-65.62105458768727
 20
938.8160695882176
 30
0.0
 10
-65.89039709566879
 20
938.967748729612
 30
0.0
  0
LINE
  5
EE
330
1F
100
AcDbEntity
  8
0
  6
Continuous
 62
     7
370
    15
100
AcDbLine
 10
-65.8903970957
 20
938.9677487296
 30
0.0
 11
-68.8921455364
 21
938.9677487296
 31
0.0
  0
LINE
  5
EF
330
1F
100
AcDbEntity
  8
0
  6
Continuous
 62
     7
370
    15
100
AcDbLine
 10
-104.0336846943
 20
938.9677487296
 30
0.0
 11
-127.2797762569
 21
938.9677487296
 31
0.0
  0
LINE
  5
F0
330
1F
100
AcDbEntity
  8
0
  6
Continuous
 62
     7
370
    15
100
AcDbLine
 10
-143.8871074796
 20
909.2264235443
 30
0.0
 11
-63.8871074796
 21
909.2264235443
 31
0.0
  0
LINE
  5
F1
330
1F
100
AcDbEntity
  8
0
  6
Continuous
 62
     7
370
    15
100
AcDbLine
 10
-143.8871074796
 20
917.2264235443
 30
0.0
 11
-63.8871074796
 21
917.2264235443
 31
0.0
  0
LINE
  5
F2
330
1F
100
AcDbEntity
  8
0
  6
Continuous
 62
     7
370
    15
100
AcDbLine
 10
-65.8903970957
 20
932.6648835792
 30
0.0
 11
-65.8903970957
 21
938.9677487296
 31
0.0
  0
LINE
  5
F3
330
1F
100
AcDbEntity
  8
0
  6
Continuous
 62
     7
370
    15
100
AcDbLine
 10
-207.9512724728
 20
774.8264235443
 30
0.0
 11
-207.9512724728
 21
723.8264235443
 31
0.0
  0
LINE
  5
F4
330
1F
100
AcDbEntity
  8
0
  6
Continuous
 62
     7
370
    15
100
AcDbLine
 10
-188.7167715217
 20
774.8264235443
 30
0.0
 11
-207.9512724728
 21
774.8264235443
 31
0.0
  0
LINE
  5
F5
330
1F
100
AcDbEntity
  8
0
  6
Continuous
 62
     7
370
    15
100
AcDbLine
 10
-188.0000938386
 20
723.8264235443
 30
0.0
 11
-207.9512724728
 21
723.8264235443
 31
0.0
  0
LINE
  5
F6
330
1F
100
AcDbEntity
  8
0
  6
Continuous
 62
     7
370
    15
100
AcDbLine
 10
-208.1871074796
 20
739.8264235443
 30
0.0
 11
-208.1871074796
 21
758.8264235443
 31
0.0
  0
ELLIPSE
  5
F7
330
1F
100
AcDbEntity
  8
0
  6
Continuous
 62
     7
370
    15
100
AcDbEllipse
 10
-208.1871074796
 20
762.8264235443
 30
0.0
 11
0.0
 21
4.0
 31
0.0
210
0.0
220
0.0
230
1.0
 40
0.0261859216
 41
3.141592653589789
 42
6.283185307179586
  0
LINE
  5
F8
330
1F
100
AcDbEntity
  8
0
  6
Continuous
 62
     7
370
    15
100
AcDbLine
 10
-208.1871074796
 20
766.8264235443
 30
0.0
 11
-208.1871074796
 21
774.8264235443
 31
0.0
  0
LINE
  5
F9
330
1F
100
AcDbEntity
  8
0
  6
Continuous
 62
     7
370
    15
100
AcDbLine
 10
-208.1871074796
 20
723.8264235443
 30
0.0
 11
-208.1871074796
 21
731.8264235443
 31
0.0
  0
ELLIPSE
  5
FA
330
1F
100
AcDbEntity
  8
0
  6
Continuous
 62
     7
370
    15
100
AcDbEllipse
 10
-208.1871074796
 20
735.8264235443
 30
0.0
 11
0.0
 21
4.0
 31
0.0
210
0.0
220
0.0
230
1.0
 40
0.0261859216
 41
3.141592653589789
 42
6.283185307179586
  0
LINE
  5
FB
330
1F
100
AcDbEntity
  8
0
  6
Continuous
 62
     7
370
    15
100
AcDbLine
 10
-208.1871074796
 20
774.8264235443
 30
0.0
 11
-207.9512724728
 21
774.8264235443
 31
0.0
  0
LINE
  5
FC
330
1F
100
AcDbEntity
  8
0
  6
Continuous
 62
     7
370
    15
100
AcDbLine
 10
-207.9512724728
 20
723.8264235443
 30
0.0
 11
-208.1871074796
 21
723.8264235443
 31
0.0
  0
SPLINE
  5
FD
330
1F
100
AcDbEntity
  8
0
  6
Continuous
 62
     7
370
    15
100
AcDbSpline
210
0.0
220
0.0
230
1.0
 70
     8
 71
     3
 72
    39
 73
    35
 74
     0
 42
0.00000001
 43
0.00000001
 12
1.0
 22
0.0
 32
0.0
 13
1.0
 23
0.0
 33
0.0
 40
0.0
 40
0.0
 40
0.0
 40
0.0
 40
0.0237171584822525
 40
0.0474548051126346
 40
0.0711719623151553
 40
0.0956672027805962
 40
0.120185021466316
 40
0.1446802601898712
 40
0.1782656310943474
 40
0.2118510000117899
 40
0.2464122920884771
 40
0.280973581773681
 40
0.3145555695377421
 40
0.3481375551363594
 40
0.382695388284701
 40
0.4172532191582612
 40
0.4508314567970731
 40
0.4844096927992383
 40
0.5189636363055659
 40
0.5535175788411665
 40
0.5870926656089286
 40
0.6206677528204995
 40
0.6552182931806521
 40
0.6897688362887282
 40
0.7233437065331176
 40
0.7569185819039912
 40
0.79146850611911
 40
0.8260184391345863
 40
0.859600081524889
 40
0.8931817328712923
 40
0.9277381838751422
 40
0.9622946420683707
 40
0.9958903249921921
 40
1.0
 40
1.0
 40
1.0
 40
1.0
 10
-15.54175551882732
 20
735.3599994223714
 30
0.0
 10
-15.53979593756619
 20
735.5791980744506
 30
0.0
 10
-15.53587508225299
 20
736.0177847341112
 30
0.0
 10
-15.52939494901647
 20
736.7341872384571
 30
0.0
 10
-15.52241143772891
 20
737.4985903706402
 30
0.0
 10
-15.51486763068676
 20
738.3148445649164
 30
0.0
 10
-15.50677255712196
 20
739.1798458904055
 30
0.0
 10
-15.49715721801985
 20
740.1935716213773
 30
0.0
 10
-15.48581434706678
 20
741.369279700682
 30
0.0
 10
-15.47241048955113
 20
742.7290890719842
 30
0.0
 10
-15.45807304703654
 20
744.1493579703722
 30
0.0
 10
-15.44297358998407
 20
745.6067635446843
 30
0.0
 10
-15.42731539686415
 20
747.0764734261985
 30
0.0
 10
-15.41102381645647
 20
748.5616179132104
 30
0.0
 10
-15.39397717224808
 20
750.0665098583
 30
0.0
 10
-15.37639939022198
 20
751.565878381193
 30
0.0
 10
-15.3585365067121
 20
753.0347429603037
 30
0.0
 10
-15.34031372530093
 20
754.4776919044729
 30
0.0
 10
-15.32162872592571
 20
755.8974833002836
 30
0.0
 10
-15.30276841564264
 20
757.2697311220408
 30
0.0
 10
-15.28402673822454
 20
758.572134835437
 30
0.0
 10
-15.26536453089328
 20
759.8102207836861
 30
0.0
 10
-15.24674702646271
 20
760.9848724156126
 30
0.0
 10
-15.22855334030371
 20
762.0753662543447
 30
0.0
 10
-15.21114620591457
 20
763.0645946196437
 30
0.0
 10
-15.19458661407642
 20
763.9583884896267
 30
0.0
 10
-15.17899952344268
 20
764.7556672687283
 30
0.0
 10
-15.16488535773318
 20
765.4416388888434
 30
0.0
 10
-15.15268325817068
 20
766.0065999079965
 30
0.0
 10
-15.14258635561622
 20
766.4548987184479
 30
0.0
 10
-15.13481851004121
 20
766.7878413417301
 30
0.0
 10
-15.13015218466682
 20
766.9822703415042
 30
0.0
 10
-15.12821540974728
 20
767.0625069235042
 30
0.0
 10
-15.12868531483061
 20
767.0430027248038
 30
0.0
 10
-15.12873653187993
 20
767.0408768752603
 30
0.0
  0
SPLINE
  5
FE
330
1F
100
AcDbEntity
  8
0
  6
Continuous
 62
     7
370
    15
100
AcDbSpline
210
0.0
220
0.0
230
1.0
 70
     8
 71
     3
 72
     8
 73
     4
 74
     0
 42
0.00000001
 43
0.00000001
 12
1.0
 22
0.0
 32
0.0
 13
1.0
 23
0.0
 33
0.0
 40
0.0
 40
0.0
 40
0.0
 40
0.0
 40
1.0
 40
1.0
 40
1.0
 40
1.0
 10
-14.88710747959757
 20
735.2405411913527
 30
0.0
 10
-15.10499760885213
 20
735.2802369109775
 30
0.0
 10
-15.32322005402845
 20
735.3200573048111
 30
0.0
 10
-15.54175551882725
 20
735.3599994223714
 30
0.0
  0
LINE
  5
FF
330
1F
100
AcDbEntity
  8
0
  6
Continuous
 62
     7
370
    15
100
AcDbLine
 10
-14.8871074796
 20
735.2405411914
 30
0.0
 11
-14.8871074796
 21
731.6264235443
 31
0.0
  0
LINE
  5
100
330
1F
100
AcDbEntity
  8
0
  6
Continuous
 62
     7
370
    15
100
AcDbLine
 10
-63.8871074796
 20
917.2264235443
 30
0.0
 11
-62.7241565757
 21
917.2264235443
 31
0.0
  0
LINE
  5
101
330
1F
100
AcDbEntity
  8
0
  6
Continuous
 62
     7
370
    15
100
AcDbLine
 10
-63.8871074796
 20
909.2264235443
 30
0.0
 11
-62.7241565757
 21
909.2264235443
 31
0.0
  0
LINE
  5
102
330
1F
100
AcDbEntity
  8
0
  6
Continuous
 62
     8
370
     0
100
AcDbLine
 10
-103.8871074796
 20
874.344439232
 30
0.0
 11
-103.8871074796
 21
904.4747614652
 31
0.0
  0
LINE
  5
103
330
1F
100
AcDbEntity
  8
0
  6
Continuous
 62
     8
370
     0
100
AcDbLine
 10
-141.6072667448
 20
941.9746509619
 30
0.0
 11
-96.3719933112
 21
941.9746509619
 31
0.0
  0
LINE
  5
104
330
1F
100
AcDbEntity
  8
0
  6
Continuous
 62
     8
370
     0
100
AcDbLine
 10
-229.8871074796
 20
731.8264235443
 30
0.0
 11
-229.8871074796
 21
739.8264235443
 31
0.0
  0
LINE
  5
105
330
1F
100
AcDbEntity
  8
0
  6
Continuous
 62
     8
370
     0
100
AcDbLine
 10
-229.8871074796
 20
766.8264235443
 30
0.0
 11
-229.8871074796
 21
758.8264235443
 31
0.0
  0
LINE
  5
106
330
1F
100
AcDbEntity
  8
FORMAT
  6
CENTERX2
 62
     7
370
     0
100
AcDbLine
 10
-103.8871074796
 20
528.5630194978
 30
0.0
 11
-103.8871074796
 21
1030.0879491285
 31
0.0
  0
ARC
  5
107
330
1F
100
AcDbEntity
  8
0
  6
Continuous
 62
     7
370
    15
100
AcDbCircle
 10
432.9676770647
 20
962.1264235443
 30
0.0
 40
10.99999999999994
100
AcDbArc
 50
90.0
 51
180.0
  0
ARC
  5
108
330
1F
100
AcDbEntity
  8
0
  6
Continuous
 62
     7
370
    15
100
AcDbCircle
 10
770.9676770647
 20
962.1264235443
 30
0.0
 40
11.0
100
AcDbArc
 50
0.0
 51
90.0
  0
LINE
  5
109
330
1F
100
AcDbEntity
  8
0
  6
Continuous
 62
     7
370
    15
100
AcDbLine
 10
421.9676770647
 20
962.1264235443
 30
0.0
 11
423.1050296906
 21
949.1264235443
 31
0.0
  0
LINE
  5
10A
330
1F
100
AcDbEntity
  8
0
  6
Continuous
 62
     7
370
    15
100
AcDbLine
 10
780.8303244389
 20
949.1264235443
 30
0.0
 11
781.9676770647
 21
962.1264235443
 31
0.0
  0
LINE
  5
10B
330
1F
100
AcDbEntity
  8
0
  6
Continuous
 62
     7
370
    15
100
AcDbLine
 10
561.5166787891
 20
932.7444067434
 30
0.0
 11
565.6652794398
 21
932.0128965165
 31
0.0
  0
LINE
  5
10C
330
1F
100
AcDbEntity
  8
0
  6
Continuous
 62
     7
370
    15
100
AcDbLine
 10
638.2700746897
 20
932.0128965165
 30
0.0
 11
642.418663928
 21
932.7444047311
 31
0.0
  0
LINE
  5
10D
330
1F
100
AcDbEntity
  8
0
  6
Continuous
 62
     7
370
    15
100
AcDbLine
 10
754.4676770647
 20
544.3264235443
 30
0.0
 11
754.4676770647
 21
563.3264235443
 31
0.0
  0
LINE
  5
10E
330
1F
100
AcDbEntity
  8
0
  6
Continuous
 62
     7
370
    15
100
AcDbLine
 10
449.4676770647
 20
563.3264235443
 30
0.0
 11
449.4676770647
 21
544.3264235443
 31
0.0
  0
LINE
  5
10F
330
1F
100
AcDbEntity
  8
0
  6
Continuous
 62
     7
370
    15
100
AcDbLine
 10
597.9676770647
 20
762.8264235443
 30
0.0
 11
597.9676770647
 21
735.8264235443
 31
0.0
  0
LINE
  5
110
330
1F
100
AcDbEntity
  8
0
  6
Continuous
 62
     7
370
    15
100
AcDbLine
 10
605.9676770647
 20
735.8264235443
 30
0.0
 11
605.9676770647
 21
762.8264235443
 31
0.0
  0
LINE
  5
111
330
1F
100
AcDbEntity
  8
0
  6
Continuous
 62
     7
370
    15
100
AcDbLine
 10
531.9676770647
 20
721.3264235443
 30
0.0
 11
531.9676770647
 21
563.3264235443
 31
0.0
  0
LINE
  5
112
330
1F
100
AcDbEntity
  8
0
  6
Continuous
 62
     7
370
    15
100
AcDbLine
 10
531.9676770647
 20
874.3497383231
 30
0.0
 11
531.9676770647
 21
777.3264235443
 31
0.0
  0
LINE
  5
113
330
1F
100
AcDbEntity
  8
0
  6
Continuous
 62
     7
370
    15
100
AcDbLine
 10
671.9676770647
 20
850.3264235443
 30
0.0
 11
671.9676770647
 21
874.3497383231
 31
0.0
  0
LINE
  5
114
330
1F
100
AcDbEntity
  8
0
  6
Continuous
 62
     7
370
    15
100
AcDbLine
 10
671.9676770647
 20
777.3264235443
 30
0.0
 11
671.9676770647
 21
814.3264235443
 31
0.0
  0
LINE
  5
115
330
1F
100
AcDbEntity
  8
0
  6
Continuous
 62
     7
370
    15
100
AcDbLine
 10
671.9676770647
 20
563.3264235443
 30
0.0
 11
671.9676770647
 21
721.3264235443
 31
0.0
  0
LINE
  5
116
330
1F
100
AcDbEntity
  8
0
  6
Continuous
 62
     7
370
    15
100
AcDbLine
 10
657.9176770647
 20
904.4747614652
 30
0.0
 11
639.7588828525
 21
905.4264235443
 31
0.0
  0
LINE
  5
117
330
1F
100
AcDbEntity
  8
0
  6
Continuous
 62
     7
370
    15
100
AcDbLine
 10
564.176471277
 20
905.4264235443
 30
0.0
 11
546.0176770647
 21
904.4747614652
 31
0.0
  0
LINE
  5
118
330
1F
100
AcDbEntity
  8
0
  6
Continuous
 62
     7
370
    15
100
AcDbLine
 10
641.9676770647
 20
909.2264235443
 30
0.0
 11
641.9676770647
 21
917.2264235443
 31
0.0
  0
LINE
  5
119
330
1F
100
AcDbEntity
  8
0
  6
Continuous
 62
     7
370
    15
100
AcDbLine
 10
561.9676770647
 20
917.2264235443
 30
0.0
 11
561.9676770647
 21
909.2264235443
 31
0.0
  0
LINE
  5
11A
330
1F
100
AcDbEntity
  8
0
  6
Continuous
 62
     7
370
    15
100
AcDbLine
 10
639.7588828525
 20
905.4264235443
 30
0.0
 11
639.4264259311
 21
909.2264235443
 31
0.0
  0
LINE
  5
11B
330
1F
100
AcDbEntity
  8
0
  6
Continuous
 62
     7
370
    15
100
AcDbLine
 10
564.5089281984
 20
909.2264235443
 30
0.0
 11
564.176471277
 21
905.4264235443
 31
0.0
  0
LINE
  5
11C
330
1F
100
AcDbEntity
  8
0
  6
Continuous
 62
     7
370
    15
100
AcDbLine
 10
638.8844991508
 20
944.9727461301
 30
0.0
 11
637.771524642
 21
949.1264235443
 31
0.0
  0
LINE
  5
11D
330
1F
100
AcDbEntity
  8
0
  6
Continuous
 62
     7
370
    15
100
AcDbLine
 10
566.1638294874
 20
949.1264235443
 30
0.0
 11
565.0508549992
 21
944.9727462068
 31
0.0
  0
LINE
  5
11E
330
1F
100
AcDbEntity
  8
0
  6
Continuous
 62
     7
370
    15
100
AcDbLine
 10
673.9676770647
 20
814.3264235443
 30
0.0
 11
673.9676770647
 21
826.221155651
 31
0.0
  0
LINE
  5
11F
330
1F
100
AcDbEntity
  8
0
  6
Continuous
 62
     7
370
    15
100
AcDbLine
 10
565.6652794398
 20
932.0128965165
 30
0.0
 11
566.9589281984
 21
917.2264235443
 31
0.0
  0
LINE
  5
120
330
1F
100
AcDbEntity
  8
0
  6
Continuous
 62
     7
370
    15
100
AcDbLine
 10
636.9764259311
 20
917.2264235443
 30
0.0
 11
638.2700746897
 21
932.0128965165
 31
0.0
  0
ARC
  5
121
330
1F
100
AcDbEntity
  8
0
  6
Continuous
 62
     7
370
    15
100
AcDbCircle
 10
601.9676770647
 20
1009.9264235443
 30
0.0
 40
7.0
100
AcDbArc
 50
0.0
 51
180.0
  0
LINE
  5
122
330
1F
100
AcDbEntity
  8
0
  6
Continuous
 62
     7
370
    15
100
AcDbLine
 10
608.9676770647
 20
973.1264235443
 30
0.0
 11
608.9676770647
 21
1009.9264235443
 31
0.0
  0
LINE
  5
123
330
1F
100
AcDbEntity
  8
0
  6
Continuous
 62
     7
370
    15
100
AcDbLine
 10
594.9676770647
 20
1009.9264235443
 30
0.0
 11
594.9676770647
 21
973.1264235443
 31
0.0
  0
LINE
  5
124
330
1F
100
AcDbEntity
  8
0
  6
Continuous
 62
     7
370
    15
100
AcDbLine
 10
560.8047261608
 20
917.2264235443
 30
0.0
 11
560.8047261608
 21
909.2264235443
 31
0.0
  0
LINE
  5
125
330
1F
100
AcDbEntity
  8
0
  6
Continuous
 62
     7
370
    15
100
AcDbLine
 10
601.9676770647
 20
973.1264235443
 30
0.0
 11
770.9676770647
 21
973.1264235443
 31
0.0
  0
LINE
  5
126
330
1F
100
AcDbEntity
  8
0
  6
Continuous
 62
     7
370
    15
100
AcDbLine
 10
432.9676770647
 20
973.1264235443
 30
0.0
 11
601.9676770647
 21
973.1264235443
 31
0.0
  0
LINE
  5
127
330
1F
100
AcDbEntity
  8
0
  6
Continuous
 62
     7
370
    15
100
AcDbLine
 10
601.9676770647
 20
962.1264235443
 30
0.0
 11
781.9676770647
 21
962.1264235443
 31
0.0
  0
LINE
  5
128
330
1F
100
AcDbEntity
  8
0
  6
Continuous
 62
     7
370
    15
100
AcDbLine
 10
421.9676770647
 20
962.1264235443
 30
0.0
 11
601.9676770647
 21
962.1264235443
 31
0.0
  0
LINE
  5
129
330
1F
100
AcDbEntity
  8
0
  6
Continuous
 62
     7
370
    15
100
AcDbLine
 10
601.9676770647
 20
949.1264235443
 30
0.0
 11
780.8303244389
 21
949.1264235443
 31
0.0
  0
LINE
  5
12A
330
1F
100
AcDbEntity
  8
0
  6
Continuous
 62
     7
370
    15
100
AcDbLine
 10
423.1050296906
 20
949.1264235443
 30
0.0
 11
601.9676770647
 21
949.1264235443
 31
0.0
  0
LINE
  5
12B
330
1F
100
AcDbEntity
  8
0
  6
Continuous
 62
     7
370
    15
100
AcDbLine
 10
601.9676770647
 20
932.0128965165
 30
0.0
 11
638.2700746897
 21
932.0128965165
 31
0.0
  0
LINE
  5
12C
330
1F
100
AcDbEntity
  8
0
  6
Continuous
 62
     7
370
    15
100
AcDbLine
 10
565.6652794398
 20
932.0128965165
 30
0.0
 11
601.9676770647
 21
932.0128965165
 31
0.0
  0
LINE
  5
12D
330
1F
100
AcDbEntity
  8
0
  6
Continuous
 62
     7
370
    15
100
AcDbLine
 10
561.9679456266
 20
932.6648835792
 30
0.0
 11
569.5210586357
 21
932.6648835792
 31
0.0
  0
SPLINE
  5
12E
330
1F
100
AcDbEntity
  8
0
  6
Continuous
 62
     7
370
    15
100
AcDbSpline
210
0.0
220
0.0
230
1.0
 70
     8
 71
     3
 72
    11
 73
     7
 74
     0
 42
0.00000001
 43
0.00000001
 12
1.0
 22
0.0
 32
0.0
 13
1.0
 23
0.0
 33
0.0
 40
0.0
 40
0.0
 40
0.0
 40
0.0
 40
0.1470814730342855
 40
0.2941632357343183
 40
0.588330517474205
 40
1.0
 40
1.0
 40
1.0
 40
1.0
 10
569.52105863574
 20
932.664883579181
 30
0.0
 10
566.7885114800868
 20
933.4504026034869
 30
0.0
 10
561.3234117872372
 20
935.0214421991185
 30
0.0
 10
550.4006229152989
 20
938.2380590286405
 30
0.0
 10
534.5684795075564
 20
942.9295815512022
 30
0.0
 10
521.4697517480834
 20
946.8436168540275
 30
0.0
 10
513.8301008380056
 20
949.126423544294
 30
0.0
  0
SPLINE
  5
12F
330
1F
100
AcDbEntity
  8
0
  6
Continuous
 62
     7
370
    15
100
AcDbSpline
210
0.0
220
0.0
230
1.0
 70
     8
 71
     3
 72
    11
 73
     7
 74
     0
 42
0.00000001
 43
0.00000001
 12
1.0
 22
0.0
 32
0.0
 13
1.0
 23
0.0
 33
0.0
 40
0.0
 40
0.0
 40
0.0
 40
0.0
 40
0.4116632467778991
 40
0.7058305654144765
 40
0.8529154275481776
 40
1.0
 40
1.0
 40
1.0
 40
1.0
 10
471.8580824927853
 20
949.126423544294
 30
0.0
 10
484.2191101594314
 20
946.8436514170043
 30
0.0
 10
505.4131108756529
 20
942.9296504612993
 30
0.0
 10
531.0299639942386
 20
938.2381444049869
 30
0.0
 10
548.7035948601654
 20
935.0214921995647
 30
0.0
 10
557.5464982738085
 20
933.4504192702735
 30
0.0
 10
561.9679456266276
 20
932.664883579181
 30
0.0
  0
LINE
  5
130
330
1F
100
AcDbEntity
  8
0
  6
Continuous
 62
     7
370
    15
100
AcDbLine
 10
589.7464834951
 20
932.6648835792
 30
0.0
 11
614.1888706343
 21
932.6648835792
 31
0.0
  0
SPLINE
  5
131
330
1F
100
AcDbEntity
  8
0
  6
Continuous
 62
     7
370
    15
100
AcDbSpline
210
0.0
220
0.0
230
1.0
 70
     8
 71
     3
 72
    11
 73
     7
 74
     0
 42
0.00000001
 43
0.00000001
 12
1.0
 22
0.0
 32
0.0
 13
1.0
 23
0.0
 33
0.0
 40
0.0
 40
0.0
 40
0.0
 40
0.0
 40
0.1470814730342855
 40
0.2941632357343183
 40
0.588330517474205
 40
1.0
 40
1.0
 40
1.0
 40
1.0
 10
614.1888706343404
 20
932.664883579181
 30
0.0
 10
616.9214177899936
 20
933.4504026034869
 30
0.0
 10
622.3865174828429
 20
935.0214421991184
 30
0.0
 10
633.3093063547811
 20
938.2380590286405
 30
0.0
 10
649.1414497625233
 20
942.9295815512022
 30
0.0
 10
662.2401775219961
 20
946.8436168540275
 30
0.0
 10
669.8798284320735
 20
949.126423544294
 30
0.0
  0
SPLINE
  5
132
330
1F
100
AcDbEntity
  8
0
  6
Continuous
 62
     7
370
    15
100
AcDbSpline
210
0.0
220
0.0
230
1.0
 70
     8
 71
     3
 72
    11
 73
     7
 74
     0
 42
0.00000001
 43
0.00000001
 12
1.0
 22
0.0
 32
0.0
 13
1.0
 23
0.0
 33
0.0
 40
0.0
 40
0.0
 40
0.0
 40
0.0
 40
0.4116632467778987
 40
0.7058305654144763
 40
0.8529154275481774
 40
1.0
 40
1.0
 40
1.0
 40
1.0
 10
534.0555253567984
 20
949.126423544294
 30
0.0
 10
541.6950605906634
 20
946.8436514170044
 30
0.0
 10
554.793673390878
 20
942.9296504612993
 30
0.0
 10
570.6257593029775
 20
938.2381444049869
 30
0.0
 10
581.5486638827394
 20
935.0214921995646
 30
0.0
 10
587.0138787516032
 20
933.4504192702735
 30
0.0
 10
589.7464834951138
 20
932.664883579181
 30
0.0
  0
LINE
  5
133
330
1F
100
AcDbEntity
  8
0
  6
Continuous
 62
     7
370
    15
100
AcDbLine
 10
634.4142954937
 20
932.6648835792
 30
0.0
 11
641.9674085028
 21
932.6648835792
 31
0.0
  0
SPLINE
  5
134
330
1F
100
AcDbEntity
  8
0
  6
Continuous
 62
     7
370
    15
100
AcDbSpline
210
0.0
220
0.0
230
1.0
 70
     8
 71
     3
 72
    11
 73
     7
 74
     0
 42
0.00000001
 43
0.00000001
 12
1.0
 22
0.0
 32
0.0
 13
1.0
 23
0.0
 33
0.0
 40
0.0
 40
0.0
 40
0.0
 40
0.0
 40
0.1301636736222178
 40
0.2603275558315832
 40
0.5206585010740064
 40
1.0
 40
1.0
 40
1.0
 40
1.0
 10
641.9674085028277
 20
932.664883579181
 30
0.0
 10
645.881029053847
 20
933.3596405278777
 30
0.0
 10
653.7082764274585
 20
934.7491555386183
 30
0.0
 10
669.3528633074623
 20
937.5898861010245
 30
0.0
 10
695.4837977319318
 20
942.3697261202265
 30
0.0
 10
717.6986012217052
 20
946.4695503482249
 30
0.0
 10
732.0948076602267
 20
949.126423544294
 30
0.0
  0
SPLINE
  5
135
330
1F
100
AcDbEntity
  8
0
  6
Continuous
 62
     7
370
    15
100
AcDbSpline
210
0.0
220
0.0
230
1.0
 70
     8
 71
     3
 72
    11
 73
     7
 74
     0
 42
0.00000001
 43
0.00000001
 12
1.0
 22
0.0
 32
0.0
 13
1.0
 23
0.0
 33
0.0
 40
0.0
 40
0.0
 40
0.0
 40
0.0
 40
0.4116632467778988
 40
0.7058305654144765
 40
0.8529154275481775
 40
0.9999999999999999
 40
0.9999999999999999
 40
0.9999999999999999
 40
0.9999999999999999
 10
690.1052536320306
 20
949.126423544294
 30
0.0
 10
682.4657183981653
 20
946.8436514170041
 30
0.0
 10
669.3671055979509
 20
942.929650461299
 30
0.0
 10
653.5350196858511
 20
938.2381444049872
 30
0.0
 10
642.6121151060892
 20
935.0214921995646
 30
0.0
 10
637.1469002372252
 20
933.4504192702733
 30
0.0
 10
634.4142954937148
 20
932.664883579181
 30
0.0
  0
SPLINE
  5
136
330
1F
100
AcDbEntity
  8
0
  6
Continuous
 62
     7
370
    15
100
AcDbSpline
210
0.0
220
0.0
230
1.0
 70
     8
 71
     3
 72
     9
 73
     5
 74
     0
 42
0.00000001
 43
0.00000001
 12
1.0
 22
0.0
 32
0.0
 13
1.0
 23
0.0
 33
0.0
 40
0.0
 40
0.0
 40
0.0
 40
0.0
 40
0.4490999771560173
 40
1.0
 40
1.0
 40
1.0
 40
1.0
 10
507.1157684953246
 20
949.1264235442941
 30
0.0
 10
509.7325535700091
 20
948.64321456965
 30
0.0
 10
515.5592852729488
 20
947.5672648942481
 30
0.0
 10
521.3876606088749
 20
946.5012011181406
 30
0.0
 10
524.5985127145799
 20
945.9139065595298
 30
0.0
  0
SPLINE
  5
137
330
1F
100
AcDbEntity
  8
0
  6
Continuous
 62
     7
370
    15
100
AcDbSpline
210
0.0
220
0.0
230
1.0
 70
     8
 71
     3
 72
    10
 73
     6
 74
     0
 42
0.00000001
 43
0.00000001
 12
1.0
 22
0.0
 32
0.0
 13
1.0
 23
0.0
 33
0.0
 40
0.0
 40
0.0
 40
0.0
 40
0.0
 40
0.0194564969763636
 40
0.6179276732596888
 40
1.0
 40
1.0
 40
1.0
 40
1.0
 10
536.8597749406772
 20
942.2562569869876
 30
0.0
 10
536.6167513728128
 20
942.3003418179808
 30
0.0
 10
528.8984561411401
 20
943.7004518724613
 30
0.0
 10
516.4118395710589
 20
945.9905803642615
 30
0.0
 10
504.1700138610071
 20
948.2471449729484
 30
0.0
 10
499.3999421424493
 20
949.126423544294
 30
0.0
  0
SPLINE
  5
138
330
1F
100
AcDbEntity
  8
0
  6
Continuous
 62
     7
370
    15
100
AcDbSpline
210
0.0
220
0.0
230
1.0
 70
     8
 71
     3
 72
    11
 73
     7
 74
     0
 42
0.00000001
 43
0.00000001
 12
1.0
 22
0.0
 32
0.0
 13
1.0
 23
0.0
 33
0.0
 40
0.0
 40
0.0
 40
0.0
 40
0.0
 40
0.2168155135063545
 40
0.4336312796022966
 40
0.8672666060729946
 40
1.0
 40
1.0
 40
1.0
 40
1.0
 10
587.6404280753004
 20
938.3447074224003
 30
0.0
 10
584.9960553237458
 20
939.109484960333
 30
0.0
 10
579.7073067399483
 20
940.639040927162
 30
0.0
 10
569.1356329146553
 20
943.7563970157262
 30
0.0
 10
559.590090231436
 20
946.5831961307689
 30
0.0
 10
552.6887805915986
 20
948.6435595975136
 30
0.0
 10
551.0713991613644
 20
949.126423544294
 30
0.0
  0
SPLINE
  5
139
330
1F
100
AcDbEntity
  8
0
  6
Continuous
 62
     7
370
    15
100
AcDbSpline
210
0.0
220
0.0
230
1.0
 70
     8
 71
     3
 72
    11
 73
     7
 74
     0
 42
0.00000001
 43
0.00000001
 12
1.0
 22
0.0
 32
0.0
 13
1.0
 23
0.0
 33
0.0
 40
0.0
 40
0.0
 40
0.0
 40
0.0
 40
0.132726714564182
 40
0.5663622496218397
 40
0.7831812511108568
 40
1.0
 40
1.0
 40
1.0
 40
1.0
 10
652.8639555990417
 20
949.126423544294
 30
0.0
 10
651.2466555306718
 20
948.643583891363
 30
0.0
 10
644.3454246214066
 20
946.5832439444383
 30
0.0
 10
634.7999212323966
 20
943.7564562579535
 30
0.0
 10
624.2281658851186
 20
940.6390753794329
 30
0.0
 10
618.939338304204
 20
939.1094964444111
 30
0.0
 10
616.2949260541538
 20
938.3447074224003
 30
0.0
  0
SPLINE
  5
13A
330
1F
100
AcDbEntity
  8
0
  6
Continuous
 62
     7
370
    15
100
AcDbSpline
210
0.0
220
0.0
230
1.0
 70
     8
 71
     3
 72
    10
 73
     6
 74
     0
 42
0.00000001
 43
0.00000001
 12
1.0
 22
0.0
 32
0.0
 13
1.0
 23
0.0
 33
0.0
 40
0.0
 40
0.0
 40
0.0
 40
0.0
 40
0.2096254925447066
 40
0.8944993924210742
 40
1.0
 40
1.0
 40
1.0
 40
1.0
 10
704.5450104935052
 20
949.126423544294
 30
0.0
 10
701.9281461830565
 20
948.6436927987467
 30
0.0
 10
690.7616439254858
 20
946.5838175738711
 30
0.0
 10
678.2762132249084
 20
944.2923761657046
 30
0.0
 10
668.4051064794699
 20
942.4991501510918
 30
0.0
 10
667.0874934374283
 20
942.2597871247245
 30
0.0
  0
SPLINE
  5
13B
330
1F
100
AcDbEntity
  8
0
  6
Continuous
 62
     7
370
    15
100
AcDbSpline
210
0.0
220
0.0
230
1.0
 70
     8
 71
     3
 72
     9
 73
     5
 74
     0
 42
0.00000001
 43
0.00000001
 12
1.0
 22
0.0
 32
0.0
 13
1.0
 23
0.0
 33
0.0
 40
0.0
 40
0.0
 40
0.0
 40
0.0
 40
0.181882540893352
 40
1.0
 40
1.0
 40
1.0
 40
1.0
 10
679.3173574265253
 20
945.9080937304586
 30
0.0
 10
680.3780885531894
 20
946.1020297966891
 30
0.0
 10
686.2100453834274
 20
947.1683007277968
 30
0.0
 10
692.0402197162857
 20
948.2453064001693
 30
0.0
 10
696.8099871276326
 20
949.126423544294
 30
0.0
  0
LINE
  5
13C
330
1F
100
AcDbEntity
  8
0
  6
Continuous
 62
     7
370
    15
100
AcDbLine
 10
754.4676770647
 20
563.3264235443
 30
0.0
 11
449.4676770647
 21
563.3264235443
 31
0.0
  0
LINE
  5
13D
330
1F
100
AcDbEntity
  8
0
  6
Continuous
 62
     7
370
    15
100
AcDbLine
 10
754.4676770647
 20
544.3264235443
 30
0.0
 11
449.4676770647
 21
544.3264235443
 31
0.0
  0
ARC
  5
13E
330
1F
100
AcDbEntity
  8
0
  6
Continuous
 62
     7
370
    15
100
AcDbCircle
 10
601.9676770647
 20
735.8264235443
 30
0.0
 40
4.0
100
AcDbArc
 50
180.0
 51
0.0
  0
ARC
  5
13F
330
1F
100
AcDbEntity
  8
0
  6
Continuous
 62
     7
370
    15
100
AcDbCircle
 10
601.9676770647
 20
762.8264235443
 30
0.0
 40
4.0
100
AcDbArc
 50
0.0
 51
180.0
  0
LINE
  5
140
330
1F
100
AcDbEntity
  8
0
  6
Continuous
 62
     7
370
    15
100
AcDbLine
 10
614.1888706343
 20
932.6648835792
 30
0.0
 11
614.1888706343
 21
938.9677487296
 31
0.0
  0
SPLINE
  5
141
330
1F
100
AcDbEntity
  8
0
  6
Continuous
 62
     7
370
    15
100
AcDbSpline
210
0.0
220
0.0
230
1.0
 70
     8
 71
     3
 72
    10
 73
     6
 74
     0
 42
0.00000001
 43
0.00000001
 12
1.0
 22
0.0
 32
0.0
 13
1.0
 23
0.0
 33
0.0
 40
0.0
 40
0.0
 40
0.0
 40
0.0
 40
0.5
 40
0.5
 40
1.0
 40
1.0
 40
1.0
 40
1.0
 10
616.2949260541538
 20
938.3447074224003
 30
0.0
 10
615.9336201219946
 20
938.2409099205186
 30
0.0
 10
615.5707416369653
 20
938.2430120072379
 30
0.0
 10
614.8489210648377
 20
938.4564558732131
 30
0.0
 10
614.5084209757441
 20
938.6615935844636
 30
0.0
 10
614.1888706343404
 20
938.9677487296133
 30
0.0
  0
SPLINE
  5
142
330
1F
100
AcDbEntity
  8
0
  6
Continuous
 62
     7
370
    15
100
AcDbSpline
210
0.0
220
0.0
230
1.0
 70
     8
 71
     3
 72
    10
 73
     6
 74
     0
 42
0.00000001
 43
0.00000001
 12
1.0
 22
0.0
 32
0.0
 13
1.0
 23
0.0
 33
0.0
 40
0.0
 40
0.0
 40
0.0
 40
0.0
 40
0.5
 40
0.5
 40
1.0
 40
1.0
 40
1.0
 40
1.0
 10
589.7464834951121
 20
938.9677487296118
 30
0.0
 10
589.4269576399168
 20
938.6616170442362
 30
0.0
 10
589.08592066352
 20
938.456173137146
 30
0.0
 10
588.3638069970269
 20
938.2429052782148
 30
0.0
 10
588.0016193123449
 20
938.2409428706181
 30
0.0
 10
587.6404280753005
 20
938.3447074224003
 30
0.0
  0
LINE
  5
143
330
1F
100
AcDbEntity
  8
0
  6
Continuous
 62
     7
370
    15
100
AcDbLine
 10
589.7464834951
 20
932.6648835792
 30
0.0
 11
589.7464834951
 21
938.9677487296
 31
0.0
  0
LINE
  5
144
330
1F
100
AcDbEntity
  8
0
  6
Continuous
 62
     7
370
    15
100
AcDbLine
 10
601.9676770647
 20
723.8264235443
 30
0.0
 11
601.9676770647
 21
731.8264235443
 31
0.0
  0
LINE
  5
145
330
1F
100
AcDbEntity
  8
0
  6
Continuous
 62
     7
370
    15
100
AcDbLine
 10
592.9615015077
 20
723.8264235443
 30
0.0
 11
601.9676770647
 21
723.8264235443
 31
0.0
  0
LINE
  5
146
330
1F
100
AcDbEntity
  8
0
  6
Continuous
 62
     7
370
    15
100
AcDbLine
 10
592.9615015077
 20
774.8264235443
 30
0.0
 11
592.9615015077
 21
723.8264235443
 31
0.0
  0
LINE
  5
147
330
1F
100
AcDbEntity
  8
0
  6
Continuous
 62
     7
370
    15
100
AcDbLine
 10
601.9676770647
 20
774.8264235443
 30
0.0
 11
592.9615015077
 21
774.8264235443
 31
0.0
  0
LINE
  5
148
330
1F
100
AcDbEntity
  8
0
  6
Continuous
 62
     7
370
    15
100
AcDbLine
 10
601.9676770647
 20
766.8264235443
 30
0.0
 11
601.9676770647
 21
774.8264235443
 31
0.0
  0
LINE
  5
149
330
1F
100
AcDbEntity
  8
0
  6
Continuous
 62
     7
370
    15
100
AcDbLine
 10
610.9738526217
 20
774.8264235443
 30
0.0
 11
610.9738526217
 21
723.8264235443
 31
0.0
  0
LINE
  5
14A
330
1F
100
AcDbEntity
  8
0
  6
Continuous
 62
     7
370
    15
100
AcDbLine
 10
601.9676770647
 20
774.8264235443
 30
0.0
 11
610.9738526217
 21
774.8264235443
 31
0.0
  0
LINE
  5
14B
330
1F
100
AcDbEntity
  8
0
  6
Continuous
 62
     7
370
    15
100
AcDbLine
 10
610.9738526217
 20
723.8264235443
 30
0.0
 11
601.9676770647
 21
723.8264235443
 31
0.0
  0
SPLINE
  5
14C
330
1F
100
AcDbEntity
  8
0
  6
Continuous
 62
     7
370
    15
100
AcDbSpline
210
0.0
220
0.0
230
1.0
 70
     8
 71
     3
 72
     8
 73
     4
 74
     0
 42
0.00000001
 43
0.00000001
 12
1.0
 22
0.0
 32
0.0
 13
1.0
 23
0.0
 33
0.0
 40
0.0
 40
0.0
 40
0.0
 40
0.0
 40
1.0
 40
1.0
 40
1.0
 40
1.0
 10
592.4390615088075
 20
723.8264235442939
 30
0.0
 10
592.4566682442226
 20
740.8203278664713
 30
0.0
 10
592.4629439648975
 20
757.8203170731817
 30
0.0
 10
592.4578283744089
 20
774.826423544294
 30
0.0
  0
LINE
  5
14D
330
1F
100
AcDbEntity
  8
0
  6
Continuous
 62
     7
370
    15
100
AcDbLine
 10
592.4578283744
 20
774.8264235443
 30
0.0
 11
592.9615015077
 21
774.8264235443
 31
0.0
  0
LINE
  5
14E
330
1F
100
AcDbEntity
  8
0
  6
Continuous
 62
     7
370
    15
100
AcDbLine
 10
592.4390615088
 20
723.8264235443
 30
0.0
 11
592.9615015077
 21
723.8264235443
 31
0.0
  0
SPLINE
  5
14F
330
1F
100
AcDbEntity
  8
0
  6
Continuous
 62
     7
370
    15
100
AcDbSpline
210
0.0
220
0.0
230
1.0
 70
     8
 71
     3
 72
     8
 73
     4
 74
     0
 42
0.00000001
 43
0.00000001
 12
1.0
 22
0.0
 32
0.0
 13
1.0
 23
0.0
 33
0.0
 40
0.0
 40
0.0
 40
0.0
 40
0.0
 40
1.0
 40
1.0
 40
1.0
 40
1.0
 10
611.4962926206478
 20
723.8264235442939
 30
0.0
 10
611.4786858852327
 20
740.8203278664713
 30
0.0
 10
611.4724101645578
 20
757.8203170731817
 30
0.0
 10
611.4775257550465
 20
774.826423544294
 30
0.0
  0
LINE
  5
150
330
1F
100
AcDbEntity
  8
0
  6
Continuous
 62
     7
370
    15
100
AcDbLine
 10
611.477525755
 20
774.8264235443
 30
0.0
 11
610.9738526217
 21
774.8264235443
 31
0.0
  0
LINE
  5
151
330
1F
100
AcDbEntity
  8
0
  6
Continuous
 62
     7
370
    15
100
AcDbLine
 10
611.4962926206
 20
723.8264235443
 30
0.0
 11
610.9738526217
 21
723.8264235443
 31
0.0
  0
SPLINE
  5
152
330
1F
100
AcDbEntity
  8
0
  6
Continuous
 62
     7
370
    15
100
AcDbSpline
210
0.0
220
0.0
230
1.0
 70
     8
 71
     3
 72
    12
 73
     8
 74
     0
 42
0.00000001
 43
0.00000001
 12
1.0
 22
0.0
 32
0.0
 13
1.0
 23
0.0
 33
0.0
 40
0.0
 40
0.0
 40
0.0
 40
0.0
 40
0.25
 40
0.25
 40
0.5
 40
0.5
 40
1.0
 40
1.0
 40
1.0
 40
1.0
 10
661.7886670112736
 20
873.5799475128251
 30
0.0
 10
656.873817449589
 20
873.6971615263161
 30
0.0
 10
651.9375833091235
 20
873.8051399483945
 30
0.0
 10
642.0224988263351
 20
873.9948323232242
 30
0.0
 10
637.041903654586
 20
874.0766142002525
 30
0.0
 10
622.0469655279127
 20
874.2796724401503
 30
0.0
 10
612.0216678926852
 20
874.3529373334409
 30
0.0
 10
601.9676770647277
 20
874.3529373334412
 30
0.0
  0
SPLINE
  5
153
330
1F
100
AcDbEntity
  8
0
  6
Continuous
 62
     7
370
    15
100
AcDbSpline
210
0.0
220
0.0
230
1.0
 70
     8
 71
     3
 72
     8
 73
     4
 74
     0
 42
0.00000001
 43
0.00000001
 12
1.0
 22
0.0
 32
0.0
 13
1.0
 23
0.0
 33
0.0
 40
0.0000069159360225
 40
0.0000069159360225
 40
0.0000069159360225
 40
0.0000069159360225
 40
0.0005559619023244
 40
0.0005559619023244
 40
0.0005559619023244
 40
0.0005559619023244
 10
662.0193785075946
 20
873.0817557568263
 30
0.0
 10
661.9424549465336
 20
873.24781140031
 30
0.0
 10
661.8655511042716
 20
873.4138753558948
 30
0.0
 10
661.7886670112736
 20
873.5799475128251
 30
0.0
  0
SPLINE
  5
154
330
1F
100
AcDbEntity
  8
0
  6
Continuous
 62
     7
370
    15
100
AcDbSpline
210
0.0
220
0.0
230
1.0
 70
     8
 71
     3
 72
    20
 73
    16
 74
     0
 42
0.00000001
 43
0.00000001
 12
1.0
 22
0.0
 32
0.0
 13
1.0
 23
0.0
 33
0.0
 40
0.0
 40
0.0
 40
0.0
 40
0.0
 40
0.2499999999999993
 40
0.2499999999999993
 40
0.3749999999999989
 40
0.3749999999999989
 40
0.4374999999999987
 40
0.4374999999999987
 40
0.4999999999999986
 40
0.4999999999999986
 40
0.7499999999999992
 40
0.7499999999999992
 40
0.8749999999999996
 40
0.8749999999999996
 40
1.0
 40
1.0
 40
1.0
 40
1.0
 10
662.156923967278
 20
649.4264235442942
 30
0.0
 10
661.53007862983
 20
667.9797666650245
 30
0.0
 10
661.0262601572678
 20
686.5724231200412
 30
0.0
 10
660.5082331728348
 20
714.5215139834456
 30
0.0
 10
660.3748673259508
 20
723.8478960810744
 30
0.0
 10
660.2375949197744
 20
737.8526479652127
 30
0.0
 10
660.2022801136093
 20
742.5234284561906
 30
0.0
 10
660.1529267773398
 20
751.8700752671823
 30
0.0
 10
660.1388955006514
 20
756.546044360295
 30
0.0
 10
660.1224366059037
 20
779.91402127304
 30
0.0
 10
660.2831893987361
 20
798.5900113018472
 30
0.0
 10
660.7666842418946
 20
826.576776880101
 30
0.0
 10
660.9679396464769
 20
835.9039749801664
 30
0.0
 10
661.4422882567201
 20
854.5179589319943
 30
0.0
 10
661.7154113959707
 20
863.8081316445223
 30
0.0
 10
662.0193785075948
 20
873.0817557568264
 30
0.0
  0
LINE
  5
155
330
1F
100
AcDbEntity
  8
0
  6
Continuous
 62
     7
370
    15
100
AcDbLine
 10
662.1569239673
 20
649.4264235443
 30
0.0
 11
601.9676770647
 21
649.4264235443
 31
0.0
  0
LINE
  5
156
330
1F
100
AcDbEntity
  8
0
  6
Continuous
 62
     7
370
    15
100
AcDbLine
 10
541.7784301622
 20
649.4264235443
 30
0.0
 11
601.9676770647
 21
649.4264235443
 31
0.0
  0
SPLINE
  5
157
330
1F
100
AcDbEntity
  8
0
  6
Continuous
 62
     7
370
    15
100
AcDbSpline
210
0.0
220
0.0
230
1.0
 70
     8
 71
     3
 72
    20
 73
    16
 74
     0
 42
0.00000001
 43
0.00000001
 12
1.0
 22
0.0
 32
0.0
 13
1.0
 23
0.0
 33
0.0
 40
0.0
 40
0.0
 40
0.0
 40
0.0
 40
0.2499999999999993
 40
0.2499999999999993
 40
0.3749999999999989
 40
0.3749999999999989
 40
0.4374999999999987
 40
0.4374999999999987
 40
0.4999999999999986
 40
0.4999999999999986
 40
0.7499999999999992
 40
0.7499999999999992
 40
0.8749999999999996
 40
0.8749999999999996
 40
1.0
 40
1.0
 40
1.0
 40
1.0
 10
541.7784301621773
 20
649.4264235442942
 30
0.0
 10
542.4052754996253
 20
667.9797666650245
 30
0.0
 10
542.9090939721875
 20
686.5724231200412
 30
0.0
 10
543.4271209566205
 20
714.5215139834456
 30
0.0
 10
543.5604868035044
 20
723.8478960810744
 30
0.0
 10
543.6977592096808
 20
737.8526479652127
 30
0.0
 10
543.733074015846
 20
742.5234284561906
 30
0.0
 10
543.7824273521155
 20
751.8700752671823
 30
0.0
 10
543.7964586288039
 20
756.546044360295
 30
0.0
 10
543.8129175235516
 20
779.91402127304
 30
0.0
 10
543.6521647307192
 20
798.5900113018472
 30
0.0
 10
543.1686698875607
 20
826.576776880101
 30
0.0
 10
542.9674144829784
 20
835.9039749801664
 30
0.0
 10
542.4930658727353
 20
854.5179589319943
 30
0.0
 10
542.2199427334846
 20
863.8081316445223
 30
0.0
 10
541.9159756218605
 20
873.0817557568264
 30
0.0
  0
SPLINE
  5
158
330
1F
100
AcDbEntity
  8
0
  6
Continuous
 62
     7
370
    15
100
AcDbSpline
210
0.0
220
0.0
230
1.0
 70
     8
 71
     3
 72
     8
 73
     4
 74
     0
 42
0.00000001
 43
0.00000001
 12
1.0
 22
0.0
 32
0.0
 13
1.0
 23
0.0
 33
0.0
 40
0.0000069159360225
 40
0.0000069159360225
 40
0.0000069159360225
 40
0.0000069159360225
 40
0.0005559619023244
 40
0.0005559619023244
 40
0.0005559619023244
 40
0.0005559619023244
 10
541.9159756218606
 20
873.0817557568263
 30
0.0
 10
541.9928991829216
 20
873.24781140031
 30
0.0
 10
542.0698030251837
 20
873.4138753558948
 30
0.0
 10
542.1466871181817
 20
873.5799475128251
 30
0.0
  0
SPLINE
  5
159
330
1F
100
AcDbEntity
  8
0
  6
Continuous
 62
     7
370
    15
100
AcDbSpline
210
0.0
220
0.0
230
1.0
 70
     8
 71
     3
 72
    12
 73
     8
 74
     0
 42
0.00000001
 43
0.00000001
 12
1.0
 22
0.0
 32
0.0
 13
1.0
 23
0.0
 33
0.0
 40
0.0
 40
0.0
 40
0.0
 40
0.0
 40
0.25
 40
0.25
 40
0.5
 40
0.5
 40
1.0
 40
1.0
 40
1.0
 40
1.0
 10
542.1466871181817
 20
873.5799475128251
 30
0.0
 10
547.0615366798663
 20
873.6971615263161
 30
0.0
 10
551.9977708203318
 20
873.8051399483945
 30
0.0
 10
561.9128553031202
 20
873.9948323232242
 30
0.0
 10
566.8934504748693
 20
874.0766142002525
 30
0.0
 10
581.8883886015426
 20
874.2796724401503
 30
0.0
 10
591.9136862367701
 20
874.3529373334409
 30
0.0
 10
601.9676770647277
 20
874.3529373334412
 30
0.0
  0
SPLINE
  5
15A
330
1F
100
AcDbEntity
  8
0
  6
Continuous
 62
     7
370
    15
100
AcDbSpline
210
0.0
220
0.0
230
1.0
 70
     8
 71
     3
 72
    21
 73
    17
 74
     0
 42
0.00000001
 43
0.00000001
 12
1.0
 22
0.0
 32
0.0
 13
1.0
 23
0.0
 33
0.0
 40
0.0
 40
0.0
 40
0.0
 40
0.0
 40
0.0555038854966619
 40
0.1110174399021885
 40
0.1665427224749319
 40
0.2220818012437768
 40
0.2776367527982735
 40
0.3332096620758478
 40
0.3888026221461878
 40
0.4444177339929218
 40
0.5000571062927104
 40
0.5847879288154318
 40
0.7499683130110346
 40
0.8610167668392356
 40
0.9443889828588536
 40
1.0
 40
1.0
 40
1.0
 40
1.0
 10
533.5552359005382
 20
874.113963509127
 30
0.0
 10
533.4974884941439
 20
874.1221131212949
 30
0.0
 10
533.3819836216202
 20
874.1384137653126
 30
0.0
 10
533.2210372117611
 20
874.1612986005047
 30
0.0
 10
533.0691043259172
 20
874.1830188869261
 30
0.0
 10
532.9270831433021
 20
874.2034469786375
 30
0.0
 10
532.7947509550747
 20
874.2225969920955
 30
0.0
 10
532.6721848916902
 20
874.2404435335352
 30
0.0
 10
532.5593839713065
 20
874.2569774457261
 30
0.0
 10
532.4563597050739
 20
874.2721641375797
 30
0.0
 10
532.3469219212463
 20
874.2884732396686
 30
0.0
 10
532.1988579796988
 20
874.3102799295193
 30
0.0
 10
532.0715070472919
 20
874.3291064020597
 30
0.0
 10
531.997842429675
 20
874.3400174403395
 30
0.0
 10
531.9710958593397
 20
874.3439550625532
 30
0.0
 10
531.9686540856081
 20
874.344300866382
 30
0.0
 10
531.9676770647277
 20
874.3444392320122
 30
0.0
  0
SPLINE
  5
15B
330
1F
100
AcDbEntity
  8
0
  6
Continuous
 62
     7
370
    15
100
AcDbSpline
210
0.0
220
0.0
230
1.0
 70
     8
 71
     3
 72
    21
 73
    17
 74
     0
 42
0.00000001
 43
0.00000001
 12
1.0
 22
0.0
 32
0.0
 13
1.0
 23
0.0
 33
0.0
 40
0.0
 40
0.0
 40
0.0
 40
0.0
 40
0.0556457249796991
 40
0.1112645765036512
 40
0.1668585832000754
 40
0.2224297743765865
 40
0.2779801798354676
 40
0.3335118296883826
 40
0.3890267541706272
 40
0.4445269834550213
 40
0.5000145474655424
 40
0.5845985145177376
 40
0.7500167871465799
 40
0.8608312455667247
 40
0.9441594111764298
 40
1.0
 40
1.0
 40
1.0
 40
1.0
 10
538.2822571086707
 20
873.496834202859
 30
0.0
 10
538.1666774955696
 20
873.5109330540391
 30
0.0
 10
537.9355740871973
 20
873.5391239475234
 30
0.0
 10
537.6010979092747
 20
873.5804387416656
 30
0.0
 10
537.2756457945807
 20
873.6209986791995
 30
0.0
 10
536.9600793656061
 20
873.6607130589698
 30
0.0
 10
536.6541613866428
 20
873.6995767592914
 30
0.0
 10
536.3579482862941
 20
873.7375602527271
 30
0.0
 10
536.0714200343056
 20
873.7746461037469
 30
0.0
 10
535.7945689354522
 20
873.8107929112642
 30
0.0
 10
535.4807012899291
 20
873.8522066450332
 30
0.0
 10
535.0125428745467
 20
873.9142120343022
 30
0.0
 10
534.5063718256622
 20
873.9823760274849
 30
0.0
 10
534.0544089132552
 20
874.0443464607081
 30
0.0
 10
533.7642925674555
 20
874.084604837529
 30
0.0
 10
533.6150989162439
 20
874.1055567041926
 30
0.0
 10
533.5552359005382
 20
874.1139635091268
 30
0.0
  0
SPLINE
  5
15C
330
1F
100
AcDbEntity
  8
0
  6
Continuous
 62
     7
370
    15
100
AcDbSpline
210
0.0
220
0.0
230
1.0
 70
     8
 71
     3
 72
     8
 73
     4
 74
     0
 42
0.00000001
 43
0.00000001
 12
1.0
 22
0.0
 32
0.0
 13
1.0
 23
0.0
 33
0.0
 40
0.0
 40
0.0
 40
0.0
 40
0.0
 40
1.0
 40
1.0
 40
1.0
 40
1.0
 10
541.9159756218605
 20
873.0817557568263
 30
0.0
 10
540.5695289666606
 20
873.2250749507816
 30
0.0
 10
539.3583441444101
 20
873.3659459737183
 30
0.0
 10
538.2822571086707
 20
873.496834202859
 30
0.0
  0
LINE
  5
15D
330
1F
100
AcDbEntity
  8
0
  6
Continuous
 62
     7
370
    15
100
AcDbLine
 10
541.7784301622
 20
563.3264235443
 30
0.0
 11
541.7784301622
 21
649.4264235443
 31
0.0
  0
LINE
  5
15E
330
1F
100
AcDbEntity
  8
0
  6
Continuous
 62
     7
370
    15
100
AcDbLine
 10
538.2708814831
 20
721.3264235443
 30
0.0
 11
538.2708814831
 21
777.3264235443
 31
0.0
  0
LINE
  5
15F
330
1F
100
AcDbEntity
  8
0
  6
Continuous
 62
     7
370
    15
100
AcDbLine
 10
669.4908767013
 20
843.2014235443
 30
0.0
 11
669.4908767012
 21
849.9514235443
 31
0.0
  0
SPLINE
  5
160
330
1F
100
AcDbEntity
  8
0
  6
Continuous
 62
     7
370
    15
100
AcDbSpline
210
0.0
220
0.0
230
1.0
 70
     8
 71
     3
 72
    10
 73
     6
 74
     0
 42
0.00000001
 43
0.00000001
 12
1.0
 22
0.0
 32
0.0
 13
1.0
 23
0.0
 33
0.0
 40
0.0
 40
0.0
 40
0.0
 40
0.0
 40
0.5
 40
0.5
 40
1.0
 40
1.0
 40
1.0
 40
1.0
 10
669.5417553005614
 20
842.8264235442938
 30
0.0
 10
669.5284485428069
 20
842.8264235442938
 30
0.0
 10
669.5153601414391
 20
842.8665636502343
 30
0.0
 10
669.4964977415273
 20
843.0045624254841
 30
0.0
 10
669.4908767012263
 20
843.1019079297225
 30
0.0
 10
669.4908767012263
 20
843.2014235442933
 30
0.0
  0
SPLINE
  5
161
330
1F
100
AcDbEntity
  8
0
  6
Continuous
 62
     7
370
    15
100
AcDbSpline
210
0.0
220
0.0
230
1.0
 70
     8
 71
     3
 72
    10
 73
     6
 74
     0
 42
0.00000001
 43
0.00000001
 12
1.0
 22
0.0
 32
0.0
 13
1.0
 23
0.0
 33
0.0
 40
0.0
 40
0.0
 40
0.0
 40
0.0
 40
0.5
 40
0.5
 40
1.0
 40
1.0
 40
1.0
 40
1.0
 10
671.5421343993197
 20
842.5949298314307
 30
0.0
 10
671.5405356362529
 20
842.6635957581854
 30
0.0
 10
671.537809911817
 20
842.7222372584106
 30
0.0
 10
671.5308840648946
 20
842.8039368824946
 30
0.0
 10
671.526703976608
 20
842.8264235442938
 30
0.0
 10
671.5224366028706
 20
842.8264235442938
 30
0.0
  0
ELLIPSE
  5
162
330
1F
100
AcDbEntity
  8
0
  6
Continuous
 62
     7
370
    15
100
AcDbEllipse
 10
401.9676770647
 20
806.0124677264
 30
0.0
 11
0.0
 21
651.8376618407407
 31
0.0
210
0.0
220
0.0
230
1.0
 40
0.4142135624
 41
4.764644211488631
 42
4.768540527591443
  0
SPLINE
  5
163
330
1F
100
AcDbEntity
  8
0
  6
Continuous
 62
     7
370
    15
100
AcDbSpline
210
0.0
220
0.0
230
1.0
 70
     8
 71
     3
 72
    10
 73
     6
 74
     0
 42
0.00000001
 43
0.00000001
 12
1.0
 22
0.0
 32
0.0
 13
1.0
 23
0.0
 33
0.0
 40
0.0
 40
0.0
 40
0.0
 40
0.0
 40
0.5
 40
0.5
 40
1.0
 40
1.0
 40
1.0
 40
1.0
 10
669.4908767012379
 20
849.9514235442939
 30
0.0
 10
669.4908767012379
 20
850.0509230108025
 30
0.0
 10
669.496485588206
 20
850.1480975584651
 30
0.0
 10
669.5153207121647
 20
850.2860928922922
 30
0.0
 10
669.5284506226836
 20
850.3264235442944
 30
0.0
 10
669.5417553005502
 20
850.3264235442939
 30
0.0
  0
SPLINE
  5
164
330
1F
100
AcDbEntity
  8
0
  6
Continuous
 62
     7
370
    15
100
AcDbSpline
210
0.0
220
0.0
230
1.0
 70
     8
 71
     3
 72
    10
 73
     6
 74
     0
 42
0.00000001
 43
0.00000001
 12
1.0
 22
0.0
 32
0.0
 13
1.0
 23
0.0
 33
0.0
 40
0.0
 40
0.0
 40
0.0
 40
0.0
 40
0.5
 40
0.5
 40
1.0
 40
1.0
 40
1.0
 40
1.0
 10
669.4908767012379
 20
839.6838958690171
 30
0.0
 10
669.4908767012379
 20
839.7833953355259
 30
0.0
 10
669.4964855882062
 20
839.8805698831887
 30
0.0
 10
669.5153207121649
 20
840.0185652170159
 30
0.0
 10
669.5284506226836
 20
840.0588958690176
 30
0.0
 10
669.5417553005502
 20
840.0588958690171
 30
0.0
  0
LINE
  5
165
330
1F
100
AcDbEntity
  8
0
  6
Continuous
 62
     7
370
    15
100
AcDbLine
 10
669.4908767013
 20
832.933895869
 30
0.0
 11
669.4908767012
 21
839.683895869
 31
0.0
  0
SPLINE
  5
166
330
1F
100
AcDbEntity
  8
0
  6
Continuous
 62
     7
370
    15
100
AcDbSpline
210
0.0
220
0.0
230
1.0
 70
     8
 71
     3
 72
    10
 73
     6
 74
     0
 42
0.00000001
 43
0.00000001
 12
1.0
 22
0.0
 32
0.0
 13
1.0
 23
0.0
 33
0.0
 40
0.0
 40
0.0
 40
0.0
 40
0.0
 40
0.5
 40
0.5
 40
1.0
 40
1.0
 40
1.0
 40
1.0
 10
669.5417553005614
 20
832.5588958690171
 30
0.0
 10
669.5284485428069
 20
832.5588958690171
 30
0.0
 10
669.5153601414391
 20
832.5990359749574
 30
0.0
 10
669.4964977415273
 20
832.7370347502073
 30
0.0
 10
669.4908767012263
 20
832.8343802544459
 30
0.0
 10
669.4908767012263
 20
832.9338958690165
 30
0.0
  0
SPLINE
  5
167
330
1F
100
AcDbEntity
  8
0
  6
Continuous
 62
     7
370
    15
100
AcDbSpline
210
0.0
220
0.0
230
1.0
 70
     8
 71
     3
 72
    10
 73
     6
 74
     0
 42
0.00000001
 43
0.00000001
 12
1.0
 22
0.0
 32
0.0
 13
1.0
 23
0.0
 33
0.0
 40
0.0
 40
0.0
 40
0.0
 40
0.0
 40
0.5
 40
0.5
 40
1.0
 40
1.0
 40
1.0
 40
1.0
 10
670.1399819814901
 20
832.0403895818802
 30
0.0
 10
670.1455347686783
 20
832.1550168904483
 30
0.0
 10
670.1439395220677
 20
832.2901837922378
 30
0.0
 10
670.1278329314106
 20
832.4953254621576
 30
0.0
 10
670.1138206547294
 20
832.5588958690166
 30
0.0
 10
670.0992373499342
 20
832.5588958690171
 30
0.0
  0
ELLIPSE
  5
168
330
1F
100
AcDbEntity
  8
0
  6
Continuous
 62
     7
370
    15
100
AcDbEllipse
 10
401.9676770647
 20
907.7564884081
 30
0.0
 11
0.0
 21
651.8376618407422
 31
0.0
210
0.0
220
0.0
230
1.0
 40
0.4142135624
 41
4.569363975106453
 42
4.595968260844106
  0
SPLINE
  5
169
330
1F
100
AcDbEntity
  8
0
  6
Continuous
 62
     7
370
    15
100
AcDbSpline
210
0.0
220
0.0
230
1.0
 70
     8
 71
     3
 72
    10
 73
     6
 74
     0
 42
0.00000001
 43
0.00000001
 12
1.0
 22
0.0
 32
0.0
 13
1.0
 23
0.0
 33
0.0
 40
0.0
 40
0.0
 40
0.0
 40
0.0
 40
0.5
 40
0.5
 40
1.0
 40
1.0
 40
1.0
 40
1.0
 10
669.2604641098352
 20
814.3264235442939
 30
0.0
 10
669.2428994186051
 20
814.3264235442939
 30
0.0
 10
669.2258154874675
 20
814.3896929939464
 30
0.0
 10
669.2060068986502
 20
814.5939465964783
 30
0.0
 10
669.2039567254119
 20
814.7301908583426
 30
0.0
 10
669.2108009270149
 20
814.8449298314309
 30
0.0
  0
LINE
  5
16A
330
1F
100
AcDbEntity
  8
0
  6
Continuous
 62
     7
370
    15
100
AcDbLine
 10
662.1569239673
 20
563.3264235443
 30
0.0
 11
662.1569239673
 21
649.4264235443
 31
0.0
  0
SPLINE
  5
16B
330
1F
100
AcDbEntity
  8
0
  6
Continuous
 62
     7
370
    15
100
AcDbSpline
210
0.0
220
0.0
230
1.0
 70
     8
 71
     3
 72
     8
 73
     4
 74
     0
 42
0.00000001
 43
0.00000001
 12
1.0
 22
0.0
 32
0.0
 13
1.0
 23
0.0
 33
0.0
 40
0.0
 40
0.0
 40
0.0
 40
0.0
 40
1.0
 40
1.0
 40
1.0
 40
1.0
 10
662.0193785075948
 20
873.0817557568263
 30
0.0
 10
663.3658251627946
 20
873.2250749507816
 30
0.0
 10
664.5770099850452
 20
873.3659459737183
 30
0.0
 10
665.6530970207846
 20
873.496834202859
 30
0.0
  0
SPLINE
  5
16C
330
1F
100
AcDbEntity
  8
0
  6
Continuous
 62
     7
370
    15
100
AcDbSpline
210
0.0
220
0.0
230
1.0
 70
     8
 71
     3
 72
    21
 73
    17
 74
     0
 42
0.00000001
 43
0.00000001
 12
1.0
 22
0.0
 32
0.0
 13
1.0
 23
0.0
 33
0.0
 40
0.0
 40
0.0
 40
0.0
 40
0.0
 40
0.0586556703080709
 40
0.1165366648143981
 40
0.1736429973733405
 40
0.2299746824163267
 40
0.2855317349840356
 40
0.3403141707606763
 40
0.3943220061108824
 40
0.4475552581192077
 40
0.5000139446324798
 40
0.6015734218934466
 40
0.7023516203394631
 40
0.8023486839775416
 40
0.9015647602216208
 40
1.0
 40
1.0
 40
1.0
 40
1.0
 10
665.6530970207846
 20
873.496834202859
 30
0.0
 10
665.7748750590442
 20
873.5116934094764
 30
0.0
 10
666.016822791495
 20
873.5412155745445
 30
0.0
 10
666.3641054818211
 20
873.5841731506696
 30
0.0
 10
666.6973199381139
 20
873.6257816051468
 30
0.0
 10
667.0159235371084
 20
873.6659697968369
 30
0.0
 10
667.3205569737001
 20
873.7047563983448
 30
0.0
 10
667.6115447794741
 20
873.7421365696235
 30
0.0
 10
667.8892894364066
 20
873.7781113983256
 30
0.0
 10
668.1541657952338
 20
873.8126813090648
 30
0.0
 10
668.4865432534832
 20
873.8563533907803
 30
0.0
 10
668.8747407375083
 20
873.9078377073475
 30
0.0
 10
669.3036796727462
 20
873.9654582513643
 30
0.0
 10
669.6972799825395
 20
874.0190374937795
 30
0.0
 10
670.0590451495005
 20
874.0689147569622
 30
0.0
 10
670.2733761126691
 20
874.0989868591097
 30
0.0
 10
670.3801182289172
 20
874.113963509127
 30
0.0
  0
SPLINE
  5
16D
330
1F
100
AcDbEntity
  8
0
  6
Continuous
 62
     7
370
    15
100
AcDbSpline
210
0.0
220
0.0
230
1.0
 70
     8
 71
     3
 72
    21
 73
    17
 74
     0
 42
0.00000001
 43
0.00000001
 12
1.0
 22
0.0
 32
0.0
 13
1.0
 23
0.0
 33
0.0
 40
0.0
 40
0.0
 40
0.0
 40
0.0
 40
0.0570468701304606
 40
0.1137223992238807
 40
0.1700266213305467
 40
0.2259595711794801
 40
0.2815212841965111
 40
0.3367117965229796
 40
0.3915311450349248
 40
0.4459793673632149
 40
0.5000565019140283
 40
0.6002649490888757
 40
0.7003632677687224
 40
0.8003517122499513
 40
0.9002305376681707
 40
1.0
 40
1.0
 40
1.0
 40
1.0
 10
670.3801182289172
 20
874.113963509127
 30
0.0
 10
670.4394426190366
 20
874.1223389339367
 30
0.0
 10
670.5577052329444
 20
874.1390352645449
 30
0.0
 10
670.7215981669427
 20
874.1623821623576
 30
0.0
 10
670.8750840640004
 20
874.1843784297998
 30
0.0
 10
671.0174319370861
 20
874.2049103082328
 30
0.0
 10
671.1490784899917
 20
874.22400797852
 30
0.0
 10
671.2701495606241
 20
874.2416634432915
 30
0.0
 10
671.380852968545
 20
874.2578787957111
 30
0.0
 10
671.4813720041067
 20
874.2726535922201
 30
0.0
 10
671.5978517058262
 20
874.289809617182
 30
0.0
 10
671.7190106057501
 20
874.3076716276171
 30
0.0
 10
671.8303704878991
 20
874.3241153747476
 30
0.0
 10
671.9092193472165
 20
874.3357759655628
 30
0.0
 10
671.9585395707313
 20
874.343082724794
 30
0.0
 10
671.964632345893
 20
874.3439872280954
 30
0.0
 10
671.9676770647277
 20
874.3444392320123
 30
0.0
  0
LINE
  5
16E
330
1F
100
AcDbEntity
  8
0
  6
Continuous
 62
     7
370
    15
100
AcDbLine
 10
665.6644726463
 20
721.3264235443
 30
0.0
 11
665.6644726463
 21
777.3264235443
 31
0.0
  0
SPLINE
  5
16F
330
1F
100
AcDbEntity
  8
0
  6
Continuous
 62
     7
370
    15
100
AcDbSpline
210
0.0
220
0.0
230
1.0
 70
     8
 71
     3
 72
     8
 73
     4
 74
     0
 42
0.00000001
 43
0.00000001
 12
1.0
 22
0.0
 32
0.0
 13
1.0
 23
0.0
 33
0.0
 40
0.0
 40
0.0
 40
0.0
 40
0.0
 40
1.0
 40
1.0
 40
1.0
 40
1.0
 10
542.1466871181816
 20
873.5799475128251
 30
0.0
 10
545.6554464283573
 20
883.527867292086
 30
0.0
 10
549.228423200037
 20
893.4379363105645
 30
0.0
 10
552.8672381286627
 20
903.3063318935771
 30
0.0
  0
SPLINE
  5
170
330
1F
100
AcDbEntity
  8
0
  6
Continuous
 62
     7
370
    15
100
AcDbSpline
210
0.0
220
0.0
230
1.0
 70
     8
 71
     3
 72
    12
 73
     8
 74
     0
 42
0.00000001
 43
0.00000001
 12
1.0
 22
0.0
 32
0.0
 13
1.0
 23
0.0
 33
0.0
 40
0.0
 40
0.0
 40
0.0
 40
0.0
 40
0.25
 40
0.25
 40
0.5
 40
0.5
 40
1.0
 40
1.0
 40
1.0
 40
1.0
 10
552.8672381286628
 20
903.3063318935771
 30
0.0
 10
556.9207832506505
 20
903.4115049154541
 30
0.0
 10
560.9956312725703
 20
903.5079289392689
 30
0.0
 10
569.1561928392277
 20
903.6780807837712
 30
0.0
 10
573.242767036833
 20
903.7518183000565
 30
0.0
 10
585.5212477287059
 20
903.9324977004114
 30
0.0
 10
593.7319226759008
 20
903.9978506736959
 30
0.0
 10
601.967677064726
 20
903.997850673696
 30
0.0
  0
SPLINE
  5
171
330
1F
100
AcDbEntity
  8
0
  6
Continuous
 62
     7
370
    15
100
AcDbSpline
210
0.0
220
0.0
230
1.0
 70
     8
 71
     3
 72
    12
 73
     8
 74
     0
 42
0.00000001
 43
0.00000001
 12
1.0
 22
0.0
 32
0.0
 13
1.0
 23
0.0
 33
0.0
 40
0.0
 40
0.0
 40
0.0
 40
0.0
 40
0.25
 40
0.25
 40
0.5
 40
0.5
 40
1.0
 40
1.0
 40
1.0
 40
1.0
 10
651.0681160007924
 20
903.3063318935771
 30
0.0
 10
647.0145708788048
 20
903.4115049154541
 30
0.0
 10
642.9397228568849
 20
903.5079289392689
 30
0.0
 10
634.7791612902276
 20
903.6780807837712
 30
0.0
 10
630.6925870926224
 20
903.7518183000565
 30
0.0
 10
618.4141064007493
 20
903.9324977004114
 30
0.0
 10
610.2034314535545
 20
903.9978506736959
 30
0.0
 10
601.9676770647293
 20
903.997850673696
 30
0.0
  0
SPLINE
  5
172
330
1F
100
AcDbEntity
  8
0
  6
Continuous
 62
     7
370
    15
100
AcDbSpline
210
0.0
220
0.0
230
1.0
 70
     8
 71
     3
 72
     8
 73
     4
 74
     0
 42
0.00000001
 43
0.00000001
 12
1.0
 22
0.0
 32
0.0
 13
1.0
 23
0.0
 33
0.0
 40
0.0
 40
0.0
 40
0.0
 40
0.0
 40
1.0
 40
1.0
 40
1.0
 40
1.0
 10
661.7886670112737
 20
873.5799475128251
 30
0.0
 10
658.279907701098
 20
883.527867292086
 30
0.0
 10
654.7069309294183
 20
893.4379363105645
 30
0.0
 10
651.0681160007925
 20
903.3063318935771
 30
0.0
  0
LINE
  5
173
330
1F
100
AcDbEntity
  8
0
  6
Continuous
 62
     7
370
    15
100
AcDbLine
 10
531.9676770647
 20
874.344439232
 30
0.0
 11
546.0176770647
 21
904.4747614652
 31
0.0
  0
SPLINE
  5
174
330
1F
100
AcDbEntity
  8
0
  6
Continuous
 62
     7
370
    15
100
AcDbSpline
210
0.0
220
0.0
230
1.0
 70
     8
 71
     3
 72
    18
 73
    14
 74
     0
 42
0.00000001
 43
0.00000001
 12
1.0
 22
0.0
 32
0.0
 13
1.0
 23
0.0
 33
0.0
 40
0.0
 40
0.0
 40
0.0
 40
0.0
 40
0.25
 40
0.25
 40
0.375
 40
0.375
 40
0.5
 40
0.5
 40
0.75
 40
0.75
 40
0.875
 40
0.875
 40
1.0
 40
1.0
 40
1.0
 40
1.0
 10
546.0176770647275
 20
904.4747614651722
 30
0.0
 10
546.0176770647226
 20
904.4747614651723
 30
0.0
 10
546.1596399012765
 20
904.4449312830908
 30
0.0
 10
546.5861817726146
 20
904.3594431758492
 30
0.0
 10
546.7639954832895
 20
904.3242311221123
 30
0.0
 10
547.1912793390263
 20
904.2416797635289
 30
0.0
 10
547.4408967266124
 20
904.1943221484217
 30
0.0
 10
548.2966317473112
 20
904.0365049352687
 30
0.0
 10
549.0096178367871
 20
903.9104188886479
 30
0.0
 10
550.2952314189471
 20
903.698840390516
 30
0.0
 10
550.7599966446177
 20
903.6245215243483
 30
0.0
 10
551.760494690817
 20
903.4697625176425
 30
0.0
 10
552.2962166479183
 20
903.3893215023564
 30
0.0
 10
552.8672381286628
 20
903.3063318935777
 30
0.0
  0
SPLINE
  5
175
330
1F
100
AcDbEntity
  8
0
  6
Continuous
 62
     7
370
    15
100
AcDbSpline
210
0.0
220
0.0
230
1.0
 70
     8
 71
     3
 72
    18
 73
    14
 74
     0
 42
0.00000001
 43
0.00000001
 12
1.0
 22
0.0
 32
0.0
 13
1.0
 23
0.0
 33
0.0
 40
0.0
 40
0.0
 40
0.0
 40
0.0
 40
0.25
 40
0.25
 40
0.375
 40
0.375
 40
0.5
 40
0.5
 40
0.75
 40
0.75
 40
0.875
 40
0.875
 40
1.0
 40
1.0
 40
1.0
 40
1.0
 10
657.9176770647277
 20
904.4747614651722
 30
0.0
 10
657.9176770647327
 20
904.4747614651723
 30
0.0
 10
657.7757142281788
 20
904.4449312830908
 30
0.0
 10
657.3491723568407
 20
904.3594431758492
 30
0.0
 10
657.1713586461658
 20
904.3242311221123
 30
0.0
 10
656.744074790429
 20
904.2416797635289
 30
0.0
 10
656.4944574028428
 20
904.1943221484217
 30
0.0
 10
655.6387223821441
 20
904.0365049352687
 30
0.0
 10
654.9257362926681
 20
903.9104188886479
 30
0.0
 10
653.6401227105082
 20
903.698840390516
 30
0.0
 10
653.1753574848376
 20
903.6245215243483
 30
0.0
 10
652.1748594386382
 20
903.4697625176425
 30
0.0
 10
651.639137481537
 20
903.3893215023564
 30
0.0
 10
651.0681160007924
 20
903.3063318935777
 30
0.0
  0
LINE
  5
176
330
1F
100
AcDbEntity
  8
0
  6
Continuous
 62
     7
370
    15
100
AcDbLine
 10
671.9676770647
 20
874.344439232
 30
0.0
 11
657.9176770647
 21
904.4747614652
 31
0.0
  0
LINE
  5
177
330
1F
100
AcDbEntity
  8
0
  6
Continuous
 62
     7
370
    15
100
AcDbLine
 10
639.7588828525
 20
905.4264235443
 30
0.0
 11
564.176471277
 21
905.4264235443
 31
0.0
  0
LINE
  5
178
330
1F
100
AcDbEntity
  8
0
  6
Continuous
 62
     7
370
    15
100
AcDbLine
 10
538.2708814831
 20
721.3264235443
 30
0.0
 11
525.4676770647
 21
721.3264235443
 31
0.0
  0
LINE
  5
179
330
1F
100
AcDbEntity
  8
0
  6
Continuous
 62
     7
370
    15
100
AcDbLine
 10
525.4676770647
 20
777.3264235443
 30
0.0
 11
525.4676770647
 21
721.3264235443
 31
0.0
  0
LINE
  5
17A
330
1F
100
AcDbEntity
  8
0
  6
Continuous
 62
     7
370
    15
100
AcDbLine
 10
538.2708814831
 20
777.3264235443
 30
0.0
 11
525.4676770647
 21
777.3264235443
 31
0.0
  0
LINE
  5
17B
330
1F
100
AcDbEntity
  8
0
  6
Continuous
 62
     7
370
    15
100
AcDbLine
 10
665.6644726463
 20
721.3264235443
 30
0.0
 11
678.4676770647
 21
721.3264235443
 31
0.0
  0
LINE
  5
17C
330
1F
100
AcDbEntity
  8
0
  6
Continuous
 62
     7
370
    15
100
AcDbLine
 10
665.6644726463
 20
777.3264235443
 30
0.0
 11
678.4676770647
 21
777.3264235443
 31
0.0
  0
LINE
  5
17D
330
1F
100
AcDbEntity
  8
0
  6
Continuous
 62
     7
370
    15
100
AcDbLine
 10
678.4676770647
 20
777.3264235443
 30
0.0
 11
678.4676770647
 21
721.3264235443
 31
0.0
  0
LINE
  5
17E
330
1F
100
AcDbEntity
  8
0
  6
Continuous
 62
     7
370
    15
100
AcDbLine
 10
614.1888706343
 20
938.9677487296
 30
0.0
 11
589.7464834951
 21
938.9677487296
 31
0.0
  0
LINE
  5
17F
330
1F
100
AcDbEntity
  8
0
  6
Continuous
 62
     7
370
    15
100
AcDbLine
 10
561.9676770647
 20
909.2264235443
 30
0.0
 11
641.9676770647
 21
909.2264235443
 31
0.0
  0
LINE
  5
180
330
1F
100
AcDbEntity
  8
0
  6
Continuous
 62
     7
370
    15
100
AcDbLine
 10
561.9676770647
 20
917.2264235443
 30
0.0
 11
641.9676770647
 21
917.2264235443
 31
0.0
  0
SPLINE
  5
181
330
1F
100
AcDbEntity
  8
0
  6
Continuous
 62
     7
370
    15
100
AcDbSpline
210
0.0
220
0.0
230
1.0
 70
     8
 71
     3
 72
    10
 73
     6
 74
     0
 42
0.00000001
 43
0.00000001
 12
1.0
 22
0.0
 32
0.0
 13
1.0
 23
0.0
 33
0.0
 40
0.0
 40
0.0
 40
0.0
 40
0.0
 40
0.5
 40
0.5
 40
1.0
 40
1.0
 40
1.0
 40
1.0
 10
671.2805694526362
 20
814.3264235442939
 30
0.0
 10
671.2631349717999
 20
814.3264235442938
 30
0.0
 10
671.2461786177906
 20
814.3897041481573
 30
0.0
 10
671.2265199229815
 20
814.5939668244135
 30
0.0
 10
671.2244863011864
 20
814.7301956892364
 30
0.0
 10
671.2312788598343
 20
814.8449298314312
 30
0.0
  0
LINE
  5
182
330
1F
100
AcDbEntity
  8
0
  6
Continuous
 62
     7
370
    15
100
AcDbLine
 10
669.2604641098
 20
814.3264235443
 30
0.0
 11
671.2805694526
 21
814.3264235443
 31
0.0
  0
SPLINE
  5
183
330
1F
100
AcDbEntity
  8
0
  6
Continuous
 62
     7
370
    15
100
AcDbSpline
210
0.0
220
0.0
230
1.0
 70
     8
 71
     3
 72
    10
 73
     6
 74
     0
 42
0.00000001
 43
0.00000001
 12
1.0
 22
0.0
 32
0.0
 13
1.0
 23
0.0
 33
0.0
 40
0.0
 40
0.0
 40
0.0
 40
0.0
 40
0.5
 40
0.5
 40
1.0
 40
1.0
 40
1.0
 40
1.0
 10
673.4138517354236
 20
840.0588958690171
 30
0.0
 10
673.4185944494303
 20
840.0588958690172
 30
0.0
 10
673.4232045901124
 20
840.0366732819973
 30
0.0
 10
673.4309221933377
 20
839.9552147798162
 30
0.0
 10
673.4339905355971
 20
839.8960838717654
 30
0.0
 10
673.4357723014044
 20
839.8274021561533
 30
0.0
  0
ELLIPSE
  5
184
330
1F
100
AcDbEntity
  8
0
  6
Continuous
 62
     7
370
    15
100
AcDbEllipse
 10
401.9676770647
 20
798.7805693968
 30
0.0
 11
0.0
 21
656.6660889654867
 31
0.0
210
0.0
220
0.0
230
1.0
 40
0.4142135624
 41
4.736854935698428
 42
4.774937679839033
  0
SPLINE
  5
185
330
1F
100
AcDbEntity
  8
0
  6
Continuous
 62
     7
370
    15
100
AcDbSpline
210
0.0
220
0.0
230
1.0
 70
     8
 71
     3
 72
    10
 73
     6
 74
     0
 42
0.00000001
 43
0.00000001
 12
1.0
 22
0.0
 32
0.0
 13
1.0
 23
0.0
 33
0.0
 40
0.0
 40
0.0
 40
0.0
 40
0.0
 40
0.5
 40
0.5
 40
1.0
 40
1.0
 40
1.0
 40
1.0
 10
673.8862738415689
 20
814.8449298314307
 30
0.0
 10
673.8874336628858
 20
814.7305056200643
 30
0.0
 10
673.8871095155828
 20
814.5957798935979
 30
0.0
 10
673.8837433245901
 20
814.3907296578227
 30
0.0
 10
673.8807626725038
 20
814.3264235442941
 30
0.0
 10
673.8775749513111
 20
814.3264235442939
 30
0.0
  0
LINE
  5
186
330
1F
100
AcDbEntity
  8
0
  6
Continuous
 62
     7
370
    15
100
AcDbLine
 10
673.8775749513
 20
814.3264235443
 30
0.0
 11
673.5911645628
 21
814.3264235443
 31
0.0
  0
SPLINE
  5
187
330
1F
100
AcDbEntity
  8
0
  6
Continuous
 62
     7
370
    15
100
AcDbSpline
210
0.0
220
0.0
230
1.0
 70
     8
 71
     3
 72
    10
 73
     6
 74
     0
 42
0.00000001
 43
0.00000001
 12
1.0
 22
0.0
 32
0.0
 13
1.0
 23
0.0
 33
0.0
 40
0.0
 40
0.0
 40
0.0
 40
0.0
 40
0.5
 40
0.5
 40
1.0
 40
1.0
 40
1.0
 40
1.0
 10
673.5911645628039
 20
814.3264235442939
 30
0.0
 10
673.587254932218
 20
814.3264235442938
 30
0.0
 10
673.583394950004
 20
814.3486582933841
 30
0.0
 10
673.5768635001559
 20
814.4301320115951
 30
0.0
 10
673.5742291950735
 20
814.4892575799294
 30
0.0
 10
673.5726948650847
 20
814.5579172571565
 30
0.0
  0
ELLIPSE
  5
188
330
1F
100
AcDbEntity
  8
0
  6
Continuous
 62
     7
370
    15
100
AcDbEllipse
 10
401.9676770647
 20
779.1821249236
 30
0.0
 11
0.0
 21
656.6660889654877
 31
0.0
210
0.0
220
0.0
230
1.0
 40
0.4142135624
 41
4.76628688438846
 42
4.773588862143679
  0
SPLINE
  5
189
330
1F
100
AcDbEntity
  8
0
  6
Continuous
 62
     7
370
    15
100
AcDbSpline
210
0.0
220
0.0
230
1.0
 70
     8
 71
     3
 72
    10
 73
     6
 74
     0
 42
0.00000001
 43
0.00000001
 12
1.0
 22
0.0
 32
0.0
 13
1.0
 23
0.0
 33
0.0
 40
0.0
 40
0.0
 40
0.0
 40
0.0
 40
0.5
 40
0.5
 40
1.0
 40
1.0
 40
1.0
 40
1.0
 10
673.4584581595835
 20
819.3449298314307
 30
0.0
 10
673.4567150471721
 20
819.413606278201
 30
0.0
 10
673.4537436092702
 20
819.4722489990289
 30
0.0
 10
673.446199432895
 20
819.5539432360475
 30
0.0
 10
673.44164893531
 20
819.5764235442937
 30
0.0
 10
673.4370067476895
 20
819.5764235442938
 30
0.0
  0
LINE
  5
18A
330
1F
100
AcDbEntity
  8
0
  6
Continuous
 62
     7
370
    15
100
AcDbLine
 10
673.4370067477
 20
819.5764235443
 30
0.0
 11
672.5063816054
 21
819.5764235443
 31
0.0
  0
SPLINE
  5
18B
330
1F
100
AcDbEntity
  8
0
  6
Continuous
 62
     7
370
    15
100
AcDbSpline
210
0.0
220
0.0
230
1.0
 70
     8
 71
     3
 72
    10
 73
     6
 74
     0
 42
0.00000001
 43
0.00000001
 12
1.0
 22
0.0
 32
0.0
 13
1.0
 23
0.0
 33
0.0
 40
0.0
 40
0.0
 40
0.0
 40
0.0
 40
0.5
 40
0.5
 40
1.0
 40
1.0
 40
1.0
 40
1.0
 10
672.5063816054459
 20
819.5764235442938
 30
0.0
 10
672.4986668430437
 20
819.5764235442937
 30
0.0
 10
672.4910788865403
 20
819.5542548763503
 30
0.0
 10
672.4782637730892
 20
819.4728828264672
 30
0.0
 10
672.4731024385779
 20
819.4137349878289
 30
0.0
 10
672.4700993394399
 20
819.3449298314314
 30
0.0
  0
ELLIPSE
  5
18C
330
1F
100
AcDbEntity
  8
0
  6
Continuous
 62
     7
370
    15
100
AcDbEllipse
 10
401.9676770647
 20
888.158043935
 30
0.0
 11
0.0
 21
656.6660889654901
 31
0.0
210
0.0
220
0.0
230
1.0
 40
0.4142135624
 41
4.60007146775049
 42
4.607404598707365
  0
SPLINE
  5
18D
330
1F
100
AcDbEntity
  8
0
  6
Continuous
 62
     7
370
    15
100
AcDbSpline
210
0.0
220
0.0
230
1.0
 70
     8
 71
     3
 72
    10
 73
     6
 74
     0
 42
0.00000001
 43
0.00000001
 12
1.0
 22
0.0
 32
0.0
 13
1.0
 23
0.0
 33
0.0
 40
0.0
 40
0.0
 40
0.0
 40
0.0
 40
0.5
 40
0.5
 40
1.0
 40
1.0
 40
1.0
 40
1.0
 10
672.2538095213395
 20
814.557917257157
 30
0.0
 10
672.2505935953207
 20
814.4890833182222
 30
0.0
 10
672.2451147858707
 20
814.4304230444325
 30
0.0
 10
672.2312738786185
 20
814.3488095482019
 30
0.0
 10
672.222959344152
 20
814.3264235442941
 30
0.0
 10
672.2145072137172
 20
814.3264235442939
 30
0.0
  0
LINE
  5
18E
330
1F
100
AcDbEntity
  8
0
  6
Continuous
 62
     7
370
    15
100
AcDbLine
 10
672.2145072137
 20
814.3264235443
 30
0.0
 11
671.2805694526
 21
814.3264235443
 31
0.0
  0
ELLIPSE
  5
18F
330
1F
100
AcDbEntity
  8
0
  6
Continuous
 62
     7
370
    15
100
AcDbEllipse
 10
401.9676770647
 20
907.7564884081
 30
0.0
 11
0.0
 21
656.6660889654886
 31
0.0
210
0.0
220
0.0
230
1.0
 40
0.4142135624
 41
4.570422779133731
 42
4.596828141003204
  0
SPLINE
  5
190
330
1F
100
AcDbEntity
  8
0
  6
Continuous
 62
     7
370
    15
100
AcDbSpline
210
0.0
220
0.0
230
1.0
 70
     8
 71
     3
 72
    10
 73
     6
 74
     0
 42
0.00000001
 43
0.00000001
 12
1.0
 22
0.0
 32
0.0
 13
1.0
 23
0.0
 33
0.0
 40
0.0
 40
0.0
 40
0.0
 40
0.0
 40
0.5
 40
0.5
 40
1.0
 40
1.0
 40
1.0
 40
1.0
 10
672.1535114905337
 20
832.0403895818802
 30
0.0
 10
672.1590227444933
 20
832.1550137352114
 30
0.0
 10
672.1574397188759
 20
832.2901737996053
 30
0.0
 10
672.1414544702434
 20
832.4953140200855
 30
0.0
 10
672.1275460454076
 20
832.5588958690166
 30
0.0
 10
672.1130705493832
 20
832.5588958690171
 30
0.0
  0
LINE
  5
191
330
1F
100
AcDbEntity
  8
0
  6
Continuous
 62
     7
370
    15
100
AcDbLine
 10
672.1130705494
 20
832.558895869
 30
0.0
 11
671.5597528825
 21
832.558895869
 31
0.0
  0
SPLINE
  5
192
330
1F
100
AcDbEntity
  8
0
  6
Continuous
 62
     7
370
    15
100
AcDbSpline
210
0.0
220
0.0
230
1.0
 70
     8
 71
     3
 72
    10
 73
     6
 74
     0
 42
0.00000001
 43
0.00000001
 12
1.0
 22
0.0
 32
0.0
 13
1.0
 23
0.0
 33
0.0
 40
0.0
 40
0.0
 40
0.0
 40
0.0
 40
0.5
 40
0.5
 40
1.0
 40
1.0
 40
1.0
 40
1.0
 10
671.5597528825383
 20
832.5588958690171
 30
0.0
 10
671.5465448556159
 20
832.5588958690171
 30
0.0
 10
671.533553751342
 20
832.5990429116868
 30
0.0
 10
671.5148333075521
 20
832.7370455527017
 30
0.0
 10
671.5092552001797
 20
832.8343873244938
 30
0.0
 10
671.5092552001796
 20
832.9338958690165
 30
0.0
  0
LINE
  5
193
330
1F
100
AcDbEntity
  8
0
  6
Continuous
 62
     7
370
    15
100
AcDbLine
 10
671.5092552002
 20
832.933895869
 30
0.0
 11
671.5092552002
 21
839.683895869
 31
0.0
  0
SPLINE
  5
194
330
1F
100
AcDbEntity
  8
0
  6
Continuous
 62
     7
370
    15
100
AcDbSpline
210
0.0
220
0.0
230
1.0
 70
     8
 71
     3
 72
    10
 73
     6
 74
     0
 42
0.00000001
 43
0.00000001
 12
1.0
 22
0.0
 32
0.0
 13
1.0
 23
0.0
 33
0.0
 40
0.0
 40
0.0
 40
0.0
 40
0.0
 40
0.5
 40
0.5
 40
1.0
 40
1.0
 40
1.0
 40
1.0
 10
671.5092552001911
 20
839.6838958690171
 30
0.0
 10
671.509255200191
 20
839.7833885110886
 30
0.0
 10
671.5148211423087
 20
839.8805583086688
 30
0.0
 10
671.5335147200899
 20
840.0185590262008
 30
0.0
 10
671.5465468900958
 20
840.0588958690179
 30
0.0
 10
671.5597528825273
 20
840.0588958690171
 30
0.0
  0
LINE
  5
195
330
1F
100
AcDbEntity
  8
0
  6
Continuous
 62
     7
370
    15
100
AcDbLine
 10
671.5597528825
 20
840.058895869
 30
0.0
 11
673.4138517354
 21
840.058895869
 31
0.0
  0
LINE
  5
196
330
1F
100
AcDbEntity
  8
0
  6
Continuous
 62
     7
370
    15
100
AcDbLine
 10
673.2190442647
 20
826.5139235443
 30
0.0
 11
672.8188706603
 21
826.5139235443
 31
0.0
  0
SPLINE
  5
197
330
1F
100
AcDbEntity
  8
0
  6
Continuous
 62
     7
370
    15
100
AcDbSpline
210
0.0
220
0.0
230
1.0
 70
     8
 71
     3
 72
    10
 73
     6
 74
     0
 42
0.00000001
 43
0.00000001
 12
1.0
 22
0.0
 32
0.0
 13
1.0
 23
0.0
 33
0.0
 40
0.0
 40
0.0
 40
0.0
 40
0.0
 40
0.5
 40
0.5
 40
1.0
 40
1.0
 40
1.0
 40
1.0
 10
673.2445796531686
 20
827.0324298314308
 30
0.0
 10
673.2480447865895
 20
826.9179314254629
 30
0.0
 10
673.2470591736734
 20
826.7830447828603
 30
0.0
 10
673.2370239079831
 20
826.5779615071214
 30
0.0
 10
673.228235869385
 20
826.5139235442942
 30
0.0
 10
673.2190442646653
 20
826.5139235442939
 30
0.0
  0
ELLIPSE
  5
198
330
1F
100
AcDbEntity
  8
0
  6
Continuous
 62
     7
370
    15
100
AcDbEllipse
 10
401.9676770647
 20
779.1821249236
 30
0.0
 11
0.0
 21
656.6660889654805
 31
0.0
210
0.0
220
0.0
230
1.0
 40
0.4142135624
 41
4.785322170241271
 42
4.794183084165946
  0
SPLINE
  5
199
330
1F
100
AcDbEntity
  8
0
  6
Continuous
 62
     7
370
    15
100
AcDbSpline
210
0.0
220
0.0
230
1.0
 70
     8
 71
     3
 72
    14
 73
    10
 74
     0
 42
0.00000001
 43
0.00000001
 12
1.0
 22
0.0
 32
0.0
 13
1.0
 23
0.0
 33
0.0
 40
0.0
 40
0.0
 40
0.0
 40
0.0
 40
0.25
 40
0.25
 40
0.5
 40
0.5
 40
0.75
 40
0.75
 40
1.0
 40
1.0
 40
1.0
 40
1.0
 10
673.0006124370971
 20
832.83366849279
 30
0.0
 10
673.0030218458821
 20
832.902465161463
 30
0.0
 10
673.007120791411
 20
832.9611566545423
 30
0.0
 10
673.0173971312702
 20
833.042835475978
 30
0.0
 10
673.0235864606666
 20
833.0651574162537
 30
0.0
 10
673.0357745510595
 20
833.0651669934473
 30
0.0
 10
673.0418945453591
 20
833.0428782976858
 30
0.0
 10
673.0519879878565
 20
832.9611738345067
 30
0.0
 10
673.055970644751
 20
832.9024672082277
 30
0.0
 10
673.0583067729603
 20
832.833668492789
 30
0.0
  0
ELLIPSE
  5
19A
330
1F
100
AcDbEntity
  8
0
  6
Continuous
 62
     7
370
    15
100
AcDbEllipse
 10
401.9676770647
 20
888.158043935
 30
0.0
 11
0.0
 21
656.6660889654831
 31
0.0
210
0.0
220
0.0
230
1.0
 40
0.4142135624
 41
4.619169253660299
 42
4.628038598600884
  0
SPLINE
  5
19B
330
1F
100
AcDbEntity
  8
0
  6
Continuous
 62
     7
370
    15
100
AcDbSpline
210
0.0
220
0.0
230
1.0
 70
     8
 71
     3
 72
    10
 73
     6
 74
     0
 42
0.00000001
 43
0.00000001
 12
1.0
 22
0.0
 32
0.0
 13
1.0
 23
0.0
 33
0.0
 40
0.0
 40
0.0
 40
0.0
 40
0.0
 40
0.5
 40
0.5
 40
1.0
 40
1.0
 40
1.0
 40
1.0
 10
672.8188706603461
 20
826.5139235442939
 30
0.0
 10
672.8074811327789
 20
826.5139235442939
 30
0.0
 10
672.7963928639365
 20
826.5776300875411
 30
0.0
 10
672.7835714170941
 20
826.7822373946012
 30
0.0
 10
672.7822678963302
 20
826.9178793548473
 30
0.0
 10
672.7867038764579
 20
827.032429831431
 30
0.0
  0
LINE
  5
19C
330
1F
100
AcDbEntity
  8
0
  6
Continuous
 62
     7
370
    15
100
AcDbLine
 10
669.5417553006
 20
840.058895869
 30
0.0
 11
671.5597528825
 21
840.058895869
 31
0.0
  0
LINE
  5
19D
330
1F
100
AcDbEntity
  8
0
  6
Continuous
 62
     7
370
    15
100
AcDbLine
 10
669.5417553006
 20
832.558895869
 30
0.0
 11
671.5597528825
 21
832.558895869
 31
0.0
  0
SPLINE
  5
19E
330
1F
100
AcDbEntity
  8
0
  6
Continuous
 62
     7
370
    15
100
AcDbSpline
210
0.0
220
0.0
230
1.0
 70
     8
 71
     3
 72
    10
 73
     6
 74
     0
 42
0.00000001
 43
0.00000001
 12
1.0
 22
0.0
 32
0.0
 13
1.0
 23
0.0
 33
0.0
 40
0.0
 40
0.0
 40
0.0
 40
0.0
 40
0.5
 40
0.5
 40
1.0
 40
1.0
 40
1.0
 40
1.0
 10
671.5597528825383
 20
842.8264235442938
 30
0.0
 10
671.5465448556159
 20
842.8264235442937
 30
0.0
 10
671.533553751342
 20
842.8665705869635
 30
0.0
 10
671.5148333075521
 20
843.0045732279784
 30
0.0
 10
671.5092552001797
 20
843.1019149997708
 30
0.0
 10
671.5092552001796
 20
843.2014235442933
 30
0.0
  0
LINE
  5
19F
330
1F
100
AcDbEntity
  8
0
  6
Continuous
 62
     7
370
    15
100
AcDbLine
 10
669.5417553006
 20
842.8264235443
 30
0.0
 11
671.5597528825
 21
842.8264235443
 31
0.0
  0
LINE
  5
1A0
330
1F
100
AcDbEntity
  8
0
  6
Continuous
 62
     7
370
    15
100
AcDbLine
 10
669.5417553005
 20
850.3264235443
 30
0.0
 11
671.5597528825
 21
850.3264235443
 31
0.0
  0
SPLINE
  5
1A1
330
1F
100
AcDbEntity
  8
0
  6
Continuous
 62
     7
370
    15
100
AcDbSpline
210
0.0
220
0.0
230
1.0
 70
     8
 71
     3
 72
    10
 73
     6
 74
     0
 42
0.00000001
 43
0.00000001
 12
1.0
 22
0.0
 32
0.0
 13
1.0
 23
0.0
 33
0.0
 40
0.0
 40
0.0
 40
0.0
 40
0.0
 40
0.5
 40
0.5
 40
1.0
 40
1.0
 40
1.0
 40
1.0
 10
671.5092552001911
 20
849.9514235442939
 30
0.0
 10
671.5092552001911
 20
850.0509161863649
 30
0.0
 10
671.5148211423086
 20
850.1480859839445
 30
0.0
 10
671.5335147200896
 20
850.2860867014767
 30
0.0
 10
671.5465468900959
 20
850.3264235442947
 30
0.0
 10
671.5597528825273
 20
850.3264235442939
 30
0.0
  0
LINE
  5
1A2
330
1F
100
AcDbEntity
  8
0
  6
Continuous
 62
     7
370
    15
100
AcDbLine
 10
671.5092552002
 20
843.2014235443
 30
0.0
 11
671.5092552002
 21
849.9514235443
 31
0.0
  0
LINE
  5
1A3
330
1F
100
AcDbEntity
  8
0
  6
Continuous
 62
     7
370
    15
100
AcDbLine
 10
671.5597528825
 20
850.3264235443
 30
0.0
 11
673.7653967955
 21
850.3264235443
 31
0.0
  0
SPLINE
  5
1A4
330
1F
100
AcDbEntity
  8
0
  6
Continuous
 62
     7
370
    15
100
AcDbSpline
210
0.0
220
0.0
230
1.0
 70
     8
 71
     3
 72
    10
 73
     6
 74
     0
 42
0.00000001
 43
0.00000001
 12
1.0
 22
0.0
 32
0.0
 13
1.0
 23
0.0
 33
0.0
 40
0.0
 40
0.0
 40
0.0
 40
0.0
 40
0.5
 40
0.5
 40
1.0
 40
1.0
 40
1.0
 40
1.0
 10
673.7653967954786
 20
850.3264235442939
 30
0.0
 10
673.768261607461
 20
850.3264235442938
 30
0.0
 10
673.7710329653728
 20
850.3041790579144
 30
0.0
 10
673.7756556813224
 20
850.2226880663846
 30
0.0
 10
673.7774838381451
 20
850.1635651563959
 30
0.0
 10
673.7785445860692
 20
850.0949298314304
 30
0.0
  0
ELLIPSE
  5
1A5
330
1F
100
AcDbEntity
  8
0
  6
Continuous
 62
     7
370
    15
100
AcDbEllipse
 10
401.9676770647
 20
825.6109121995
 30
0.0
 11
0.0
 21
656.6660889654879
 31
0.0
210
0.0
220
0.0
230
1.0
 40
0.4142135624
 41
4.713662711702241
 42
4.749682963625024
  0
SPLINE
  5
1A6
330
1F
100
AcDbEntity
  8
0
  6
Continuous
 62
     7
370
    15
100
AcDbSpline
210
0.0
220
0.0
230
1.0
 70
     8
 71
     3
 72
    11
 73
     7
 74
     0
 42
0.00000001
 43
0.00000001
 12
1.0
 22
0.0
 32
0.0
 13
1.0
 23
0.0
 33
0.0
 40
0.0
 40
0.0
 40
0.0
 40
0.0
 40
0.2863615588630051
 40
0.5727231145684175
 40
0.859084698272392
 40
0.9999999999999999
 40
0.9999999999999999
 40
0.9999999999999999
 40
0.9999999999999999
 10
673.9674564195291
 20
826.4473281360196
 30
0.0
 10
673.9674812657898
 20
826.4098395706745
 30
0.0
 10
673.9675309583113
 20
826.3348624403977
 30
0.0
 10
673.9676209874474
 20
826.2576576851409
 30
0.0
 10
673.9676754821243
 20
826.2168950190895
 30
0.0
 10
673.967671194599
 20
826.2200989869809
 30
0.0
 10
673.9676697805793
 20
826.2211556509792
 30
0.0
  0
LINE
  5
1A7
330
1F
100
AcDbEntity
  8
0
  6
Continuous
 62
     7
370
    15
100
AcDbLine
 10
673.9676770647
 20
814.3264235443
 30
0.0
 11
673.9489329657
 21
814.3264235443
 31
0.0
  0
SPLINE
  5
1A8
330
1F
100
AcDbEntity
  8
0
  6
Continuous
 62
     7
370
    15
100
AcDbSpline
210
0.0
220
0.0
230
1.0
 70
     8
 71
     3
 72
    10
 73
     6
 74
     0
 42
0.00000001
 43
0.00000001
 12
1.0
 22
0.0
 32
0.0
 13
1.0
 23
0.0
 33
0.0
 40
0.0
 40
0.0
 40
0.0
 40
0.0
 40
0.5
 40
0.5
 40
1.0
 40
1.0
 40
1.0
 40
1.0
 10
673.948932965694
 20
814.3264235442939
 30
0.0
 10
673.9480611140871
 20
814.3264235442938
 30
0.0
 10
673.9471749438702
 20
814.3486798693078
 30
0.0
 10
673.9456464606227
 20
814.4301874030767
 30
0.0
 10
673.9450146011145
 20
814.4893056122247
 30
0.0
 10
673.9446447309957
 20
814.5579172571568
 30
0.0
  0
ELLIPSE
  5
1A9
330
1F
100
AcDbEntity
  8
0
  6
Continuous
 62
     7
370
    15
100
AcDbEllipse
 10
401.9676770647
 20
806.0124677264
 30
0.0
 11
0.0
 21
656.6660889654873
 31
0.0
210
0.0
220
0.0
230
1.0
 40
0.4142135624
 41
4.725402734080175
 42
4.768127218873844
  0
SPLINE
  5
1AA
330
1F
100
AcDbEntity
  8
0
  6
Continuous
 62
     7
370
    15
100
AcDbSpline
210
0.0
220
0.0
230
1.0
 70
     8
 71
     3
 72
    10
 73
     6
 74
     0
 42
0.00000001
 43
0.00000001
 12
1.0
 22
0.0
 32
0.0
 13
1.0
 23
0.0
 33
0.0
 40
0.0
 40
0.0
 40
0.0
 40
0.0
 40
0.5
 40
0.5
 40
1.0
 40
1.0
 40
1.0
 40
1.0
 10
673.5452682743851
 20
842.5949298314307
 30
0.0
 10
673.5436813229815
 20
842.663594922285
 30
0.0
 10
673.5409757370337
 20
842.7222363189513
 30
0.0
 10
673.5341009939161
 20
842.8039363694185
 30
0.0
 10
673.5299517102135
 20
842.8264235442937
 30
0.0
 10
673.525715777755
 20
842.8264235442938
 30
0.0
  0
LINE
  5
1AB
330
1F
100
AcDbEntity
  8
0
  6
Continuous
 62
     7
370
    15
100
AcDbLine
 10
673.5257157778
 20
842.8264235443
 30
0.0
 11
671.5597528825
 21
842.8264235443
 31
0.0
  0
LINE
  5
1AC
330
1F
100
AcDbEntity
  8
0
  6
Continuous
 62
     7
370
    15
100
AcDbLine
 10
641.9674085028
 20
932.6648835792
 30
0.0
 11
641.9674085028
 21
934.8449908832
 31
0.0
  0
LINE
  5
1AD
330
1F
100
AcDbEntity
  8
0
  6
Continuous
 62
     7
370
    15
100
AcDbLine
 10
561.9679456266
 20
932.6648835792
 30
0.0
 11
561.9679456266
 21
934.844990475
 31
0.0
  0
LINE
  5
1AE
330
1F
100
AcDbEntity
  8
0
  6
Continuous
 62
     7
370
    15
100
AcDbLine
 10
672.2145072137
 20
814.3264235443
 30
0.0
 11
673.5911645628
 21
814.3264235443
 31
0.0
  0
LINE
  5
1AF
330
1F
100
AcDbEntity
  8
0
  6
Continuous
 62
     7
370
    15
100
AcDbLine
 10
673.8775749513
 20
814.3264235443
 30
0.0
 11
673.9489329657
 21
814.3264235443
 31
0.0
  0
LINE
  5
1B0
330
1F
100
AcDbEntity
  8
0
  6
Continuous
 62
     7
370
    15
100
AcDbLine
 10
560.8047261608
 20
917.2264235443
 30
0.0
 11
561.9676770647
 21
917.2264235443
 31
0.0
  0
LINE
  5
1B1
330
1F
100
AcDbEntity
  8
0
  6
Continuous
 62
     7
370
    15
100
AcDbLine
 10
560.8047261608
 20
909.2264235443
 30
0.0
 11
561.9676770647
 21
909.2264235443
 31
0.0
  0
SPLINE
  5
1B2
330
1F
100
AcDbEntity
  8
0
  6
Continuous
 62
     8
370
     0
100
AcDbSpline
210
0.0
220
0.0
230
1.0
 70
    24
 71
     3
 72
     8
 73
     4
 74
     0
 42
0.00000001
 43
0.00000001
 12
1.0
 22
0.0
 32
0.0
 13
1.0
 23
0.0
 33
0.0
 40
0.0
 40
0.0
 40
0.0
 40
0.0
 40
1.0
 40
1.0
 40
1.0
 40
1.0
 10
601.9676770647277
 20
723.8264235442937
 30
0.0
 10
601.9676770647277
 20
698.9295468313974
 30
0.0
 10
601.9676770647277
 20
674.0950692115632
 30
0.0
 10
601.9676770647277
 20
649.4264235442942
 30
0.0
  0
SPLINE
  5
1B3
330
1F
100
AcDbEntity
  8
0
  6
Continuous
 62
     8
370
     0
100
AcDbSpline
210
0.0
220
0.0
230
1.0
 70
    24
 71
     3
 72
     8
 73
     4
 74
     0
 42
0.00000001
 43
0.00000001
 12
1.0
 22
0.0
 32
0.0
 13
1.0
 23
0.0
 33
0.0
 40
0.0
 40
0.0
 40
0.0
 40
0.0
 40
1.0
 40
1.0
 40
1.0
 40
1.0
 10
601.9676770647277
 20
874.3529373334413
 30
0.0
 10
601.9676770647277
 20
841.3569920343895
 30
0.0
 10
601.9676770647277
 20
808.0997359037167
 30
0.0
 10
601.9676770647277
 20
774.8264235442939
 30
0.0
  0
LINE
  5
1B4
330
1F
100
AcDbEntity
  8
0
  6
Continuous
 62
     8
370
     0
100
AcDbLine
 10
601.9676770647
 20
903.9978506737
 30
0.0
 11
601.9676770647
 21
874.3529373334
 31
0.0
  0
LINE
  5
1B5
330
1F
100
AcDbEntity
  8
0
  6
Continuous
 62
     8
370
     0
100
AcDbLine
 10
601.9676770647
 20
941.9746509619
 30
0.0
 11
628.7550524724
 21
941.9746509619
 31
0.0
  0
LINE
  5
1B6
330
1F
100
AcDbEntity
  8
0
  6
Continuous
 62
     8
370
     0
100
AcDbLine
 10
575.1856115839
 20
941.9746509619
 30
0.0
 11
601.9676770647
 21
941.9746509619
 31
0.0
  0
LINE
  5
1B7
330
1F
100
AcDbEntity
  8
0
  6
Continuous
 62
     8
370
     0
100
AcDbLine
 10
669.2108009269
 20
814.8449298314
 30
0.0
 11
671.2312788597
 21
814.8449298314
 31
0.0
  0
LINE
  5
1B8
330
1F
100
AcDbEntity
  8
0
  6
Continuous
 62
     8
370
     0
100
AcDbLine
 10
670.1399819815
 20
832.0403895819
 30
0.0
 11
672.1535114905
 21
832.0403895819
 31
0.0
  0
LINE
  5
1B9
330
1F
100
AcDbEntity
  8
0
  6
Continuous
 62
     8
370
     0
100
AcDbLine
 10
669.4908767012
 20
839.683895869
 30
0.0
 11
671.5092552002
 21
839.683895869
 31
0.0
  0
LINE
  5
1BA
330
1F
100
AcDbEntity
  8
0
  6
Continuous
 62
     8
370
     0
100
AcDbLine
 10
669.4908767013
 20
832.933895869
 30
0.0
 11
671.5092552002
 21
832.933895869
 31
0.0
  0
LINE
  5
1BB
330
1F
100
AcDbEntity
  8
0
  6
Continuous
 62
     8
370
     0
100
AcDbLine
 10
669.4908767013
 20
843.2014235443
 30
0.0
 11
671.5092552002
 21
843.2014235443
 31
0.0
  0
LINE
  5
1BC
330
1F
100
AcDbEntity
  8
0
  6
Continuous
 62
     8
370
     0
100
AcDbLine
 10
669.4908767012
 20
849.9514235443
 30
0.0
 11
671.5092552002
 21
849.9514235443
 31
0.0
  0
LINE
  5
1BD
330
1F
100
AcDbEntity
  8
0
  6
Continuous
 62
     8
370
     0
100
AcDbLine
 10
673.0006124371
 20
832.8336684928
 30
0.0
 11
673.0583067727
 21
832.8336684928
 31
0.0
  0
LINE
  5
1BE
330
1F
100
AcDbEntity
  8
0
  6
Continuous
 62
     8
370
     0
100
AcDbLine
 10
672.7867038764
 20
827.0324298314
 30
0.0
 11
673.244579653
 21
827.0324298314
 31
0.0
  0
LINE
  5
1BF
330
1F
100
AcDbEntity
  8
0
  6
Continuous
 62
     8
370
     0
100
AcDbLine
 10
672.4700993395
 20
819.3449298314
 30
0.0
 11
673.4584581596
 21
819.3449298314
 31
0.0
  0
LINE
  5
1C0
330
1F
100
AcDbEntity
  8
0
  6
Continuous
 62
     8
370
     0
100
AcDbLine
 10
672.2538095213
 20
814.5579172572
 30
0.0
 11
673.572694865
 21
814.5579172572
 31
0.0
  0
LINE
  5
1C1
330
1F
100
AcDbEntity
  8
0
  6
Continuous
 62
     8
370
     0
100
AcDbLine
 10
671.5421343993
 20
842.5949298314
 30
0.0
 11
673.5452682744
 21
842.5949298314
 31
0.0
  0
LINE
  5
1C2
330
1F
100
AcDbEntity
  8
0
  6
Continuous
 62
     8
370
     0
100
AcDbLine
 10
673.8861449699
 20
814.5579172572
 30
0.0
 11
673.944644731
 21
814.5579172572
 31
0.0
  0
LINE
  5
1C3
330
1F
100
AcDbEntity
  8
FORMAT
  6
CENTERX2
 62
     7
370
     0
100
AcDbLine
 10
667.7997596337
 20
814.7014235443
 30
0.0
 11
675.7810356706
 21
814.7014235443
 31
0.0
  0
LINE
  5
1C4
330
1F
100
AcDbEntity
  8
FORMAT
  6
CENTERX2
 62
     7
370
     0
100
AcDbLine
 10
669.0558903829
 20
819.2014235443
 30
0.0
 11
675.2904442823
 21
819.2014235443
 31
0.0
  0
LINE
  5
1C5
330
1F
100
AcDbEntity
  8
FORMAT
  6
CENTERX2
 62
     7
370
     0
100
AcDbLine
 10
601.9676770647
 20
1030.2902824536
 30
0.0
 11
601.9676770647
 21
529.698665637
 31
0.0
  0
ARC
  5
1C6
330
1F
100
AcDbEntity
  8
0
  6
Continuous
 62
     7
370
    15
100
AcDbCircle
 10
-128.3871074796
 20
-176.9934033253
 30
0.0
 40
7.0
100
AcDbArc
 50
90.0
 51
270.0
  0
ARC
  5
1C7
330
1F
100
AcDbEntity
  8
0
  6
Continuous
 62
     7
370
    15
100
AcDbCircle
 10
-79.3871074796
 20
-176.9934033253
 30
0.0
 40
7.0
100
AcDbArc
 50
270.0
 51
90.0
  0
LINE
  5
1C8
330
1F
100
AcDbEntity
  8
0
  6
Continuous
 62
     7
370
    15
100
AcDbLine
 10
-128.3871074796
 20
-183.9934033253
 30
0.0
 11
-79.3871074796
 21
-183.9934033253
 31
0.0
  0
LINE
  5
1C9
330
1F
100
AcDbEntity
  8
0
  6
Continuous
 62
     7
370
    15
100
AcDbLine
 10
-79.3871074796
 20
-169.9934033253
 30
0.0
 11
-128.3871074796
 21
-169.9934033253
 31
0.0
  0
CIRCLE
  5
1CA
330
1F
100
AcDbEntity
  8
0
  6
Continuous
 62
     7
370
    15
100
AcDbCircle
 10
-103.8871074796
 20
-176.9934033253
 30
0.0
 40
157.5
  0
SPLINE
  5
1CB
330
1F
100
AcDbEntity
  8
0
  6
Continuous
 62
     7
370
    15
100
AcDbSpline
210
0.0
220
0.0
230
1.0
 70
     8
 71
     3
 72
    15
 73
    11
 74
     0
 42
0.00000001
 43
0.00000001
 12
1.0
 22
0.0
 32
0.0
 13
1.0
 23
0.0
 33
0.0
 40
0.0
 40
0.0
 40
0.0
 40
0.0
 40
0.0046380672640608
 40
0.1698183754608023
 40
0.3349238586713976
 40
0.4999215442368363
 40
0.6553628328577531
 40
0.8106516995029126
 40
0.9657609129598169
 40
1.0
 40
1.0
 40
1.0
 40
1.0
 10
-185.5421347878361
 20
-133.1184030791526
 30
0.0
 10
-185.5508668288272
 20
-133.1710837079191
 30
0.0
 10
-185.8705821177921
 20
-135.0999343015044
 30
0.0
 10
-186.3973914471678
 20
-138.9206557721204
 30
0.0
 10
-187.1132424511637
 20
-144.5778895331738
 30
0.0
 10
-187.6901700677981
 20
-150.1387471050209
 30
0.0
 10
-188.1552997268558
 20
-155.5965131465363
 30
0.0
 10
-188.5006888608739
 20
-160.9488177600329
 30
0.0
 10
-188.7053503286058
 20
-164.9120206268746
 30
0.0
 10
-188.7633904802826
 20
-167.0912869421085
 30
0.0
 10
-188.7738856460689
 20
-167.4853548521724
 30
0.0
  0
SPLINE
  5
1CC
330
1F
100
AcDbEntity
  8
0
  6
Continuous
 62
     7
370
    15
100
AcDbSpline
210
0.0
220
0.0
230
1.0
 70
     8
 71
     3
 72
    14
 73
    10
 74
     0
 42
0.00000001
 43
0.00000001
 12
1.0
 22
0.0
 32
0.0
 13
1.0
 23
0.0
 33
0.0
 40
0.0
 40
0.0
 40
0.0
 40
0.0
 40
0.0323122669797976
 40
0.2151389081647097
 40
0.3876191021780959
 40
0.560165551424789
 40
0.7327475424759973
 40
0.9053343239205578
 40
0.9999999999999999
 40
0.9999999999999999
 40
0.9999999999999999
 40
0.9999999999999999
 10
-20.15771403761031
 20
-149.633008620045
 30
0.0
 10
-20.18734682634902
 20
-149.298505090778
 30
0.0
 10
-20.38464545040122
 20
-147.0713408961778
 30
0.0
 10
-20.84728210999465
 20
-143.0688738030582
 30
0.0
 10
-21.54635059668825
 20
-137.6277719618931
 30
0.0
 10
-22.340599846423
 20
-132.3068974603356
 30
0.0
 10
-23.23759194147358
 20
-127.0016182303944
 30
0.0
 10
-24.06997939755479
 20
-122.5064459330186
 30
0.0
 10
-24.6422312230805
 20
-119.7885154735446
 30
0.0
 10
-24.84493321674214
 20
-118.8257751235896
 30
0.0
  0
SPLINE
  5
1CD
330
1F
100
AcDbEntity
  8
0
  6
Continuous
 62
     7
370
    15
100
AcDbSpline
210
0.0
220
0.0
230
1.0
 70
     8
 71
     3
 72
    16
 73
    12
 74
     0
 42
0.00000001
 43
0.00000001
 12
1.0
 22
0.0
 32
0.0
 13
1.0
 23
0.0
 33
0.0
 40
0.0
 40
0.0
 40
0.0
 40
0.0
 40
0.0711334020435166
 40
0.1949932968262282
 40
0.3188467075680035
 40
0.4426688124036546
 40
0.5664348270952679
 40
0.6901200347496182
 40
0.8066415968263959
 40
0.9230489006718654
 40
1.0
 40
1.0
 40
1.0
 40
1.0
 10
-24.84629465334279
 20
-235.1607538762139
 30
0.0
 10
-24.62152435648309
 20
-234.0915717895428
 30
0.0
 10
-24.0053763872566
 20
-231.1606935523397
 30
0.0
 10
-23.12217560437823
 20
-226.3432404858208
 30
0.0
 10
-22.18633490505715
 20
-220.7139295055121
 30
0.0
 10
-21.36868149415847
 20
-215.0674507421511
 30
0.0
 10
-20.66344025783354
 20
-209.4085571843982
 30
0.0
 10
-20.08239055968197
 20
-203.8481908779432
 30
0.0
 10
-19.62293985293233
 20
-198.3901166341079
 30
0.0
 10
-19.29997218839091
 20
-193.6411766556114
 30
0.0
 10
-19.17020941179497
 20
-190.6741820791865
 30
0.0
 10
-19.1185675480485
 20
-189.4934033252808
 30
0.0
  0
SPLINE
  5
1CE
330
1F
100
AcDbEntity
  8
0
  6
Continuous
 62
     7
370
    15
100
AcDbSpline
210
0.0
220
0.0
230
1.0
 70
     8
 71
     3
 72
    14
 73
    10
 74
     0
 42
0.00000001
 43
0.00000001
 12
1.0
 22
0.0
 32
0.0
 13
1.0
 23
0.0
 33
0.0
 40
0.0
 40
0.0
 40
0.0
 40
0.0
 40
0.0530335274975736
 40
0.2175860602839765
 40
0.3823351394706069
 40
0.547248231081186
 40
0.7122926053762625
 40
0.8679968589507793
 40
0.9999999999999999
 40
0.9999999999999999
 40
0.9999999999999999
 40
0.9999999999999999
 10
-188.770183281509
 20
-186.5013317112506
 30
0.0
 10
-188.7532677811703
 20
-187.1116492489293
 30
0.0
 10
-188.6838668333151
 20
-189.6156612355313
 30
0.0
 10
-188.4465930497838
 20
-194.0115287218563
 30
0.0
 10
-188.0563977092307
 20
-199.6878532407428
 30
0.0
 10
-187.5451403214698
 20
-205.3606385083584
 30
0.0
 10
-186.9311884627529
 20
-210.9182006545068
 30
0.0
 10
-186.267651706568
 20
-216.0885659419862
 30
0.0
 10
-185.7671979585558
 20
-219.3628308864181
 30
0.0
 10
-185.5375845807911
 20
-220.865097652476
 30
0.0
  0
LINE
  5
1CF
330
1F
100
AcDbEntity
  8
0
  6
Continuous
 62
     7
370
    15
100
AcDbLine
 10
-142.4008803186
 20
-244.2331211787
 30
0.0
 11
-142.4008803186
 21
-246.2536244815
 31
0.0
  0
LINE
  5
1D0
330
1F
100
AcDbEntity
  8
0
  6
Continuous
 62
     7
370
    15
100
AcDbLine
 10
-15.4011401219
 20
-143.5484312964
 30
0.0
 11
-20.8601416879
 21
-143.0708305452
 31
0.0
  0
LINE
  5
1D1
330
1F
100
AcDbEntity
  8
0
  6
Continuous
 62
     7
370
    15
100
AcDbLine
 10
-14.9709024286
 20
-164.4934033253
 30
0.0
 11
-14.8871074796
 21
-161.2934033253
 31
0.0
  0
LINE
  5
1D2
330
1F
100
AcDbEntity
  8
0
  6
Continuous
 62
     7
370
    15
100
AcDbLine
 10
-14.8871074796
 20
-161.2934033253
 30
0.0
 11
-15.2944397155
 21
-145.7380128149
 31
0.0
  0
ARC
  5
1D3
330
1F
100
AcDbEntity
  8
0
  6
Continuous
 62
     7
370
    15
100
AcDbCircle
 10
-243.3871074796
 20
-176.9934033253
 30
0.0
 40
4.0
100
AcDbArc
 50
90.0
 51
270.0
  0
LINE
  5
1D4
330
1F
100
AcDbEntity
  8
0
  6
Continuous
 62
     7
370
    15
100
AcDbLine
 10
-229.8871074796
 20
-172.9934033253
 30
0.0
 11
-243.3871074796
 21
-172.9934033253
 31
0.0
  0
LINE
  5
1D5
330
1F
100
AcDbEntity
  8
0
  6
Continuous
 62
     7
370
    15
100
AcDbLine
 10
-243.3871074796
 20
-180.9934033253
 30
0.0
 11
-229.8871074796
 21
-180.9934033253
 31
0.0
  0
LINE
  5
1D6
330
1F
100
AcDbEntity
  8
0
  6
Continuous
 62
     7
370
    15
100
AcDbLine
 10
-208.0823637933
 20
-172.9934033253
 30
0.0
 11
-229.8871074796
 21
-172.9934033253
 31
0.0
  0
LINE
  5
1D7
330
1F
100
AcDbEntity
  8
0
  6
Continuous
 62
     7
370
    15
100
AcDbLine
 10
-229.8871074796
 20
-180.9934033253
 30
0.0
 11
-208.0823637933
 21
-180.9934033253
 31
0.0
  0
CIRCLE
  5
1D8
330
1F
100
AcDbEntity
  8
0
  6
Continuous
 62
     7
370
    15
100
AcDbCircle
 10
-103.8871074796
 20
-176.9934033253
 30
0.0
 40
179.9999999999999
  0
ARC
  5
1D9
330
1F
100
AcDbEntity
  8
0
  6
Continuous
 62
     7
370
    15
100
AcDbCircle
 10
-103.8871074796
 20
-176.9934033253
 30
0.0
 40
17.5
100
AcDbArc
 50
23.5781784782
 51
156.4218215218
  0
ARC
  5
1DA
330
1F
100
AcDbEntity
  8
0
  6
Continuous
 62
     7
370
    15
100
AcDbCircle
 10
-103.8871074796
 20
-176.9934033253
 30
0.0
 40
17.5
100
AcDbArc
 50
203.5781784782
 51
336.4218215218
  0
ARC
  5
1DB
330
1F
100
AcDbEntity
  8
0
  6
Continuous
 62
     7
370
    15
100
AcDbCircle
 10
-103.8871074796
 20
-176.9934033253
 30
0.0
 40
150.0000000000001
100
AcDbArc
 50
4.7801918472
 51
67.2198081528
  0
SPLINE
  5
1DC
330
1F
100
AcDbEntity
  8
0
  6
Continuous
 62
     7
370
    15
100
AcDbSpline
210
0.0
220
0.0
230
1.0
 70
    24
 71
     3
 72
    12
 73
     8
 74
     0
 42
0.00000001
 43
0.00000001
 12
1.0
 22
0.0
 32
0.0
 13
1.0
 23
0.0
 33
0.0
 40
0.0
 40
0.0
 40
0.0
 40
0.0
 40
0.5000000000000004
 40
0.5000000000000004
 40
0.7500000000000002
 40
0.7500000000000002
 40
1.0
 40
1.0
 40
1.0
 40
1.0
 10
-45.80757861609268
 20
-38.69384321392771
 30
0.0
 10
-51.36327627215577
 20
-55.79252242751556
 30
0.0
 10
-56.91911033744243
 20
-72.8916214655251
 30
0.0
 10
-65.25383780828409
 20
-98.54327498937583
 30
0.0
 10
-68.03223957564114
 20
-107.094316368429
 30
0.0
 10
-73.58995439885761
 20
-124.1992037841566
 30
0.0
 10
-76.36912454353093
 20
-132.7526099854263
 30
0.0
 10
-79.15005292888846
 20
-141.3114274951042
 30
0.0
  0
SPLINE
  5
1DD
330
1F
100
AcDbEntity
  8
0
  6
Continuous
 62
     7
370
    15
100
AcDbSpline
210
0.0
220
0.0
230
1.0
 70
    24
 71
     3
 72
    12
 73
     8
 74
     0
 42
0.00000001
 43
0.00000001
 12
1.0
 22
0.0
 32
0.0
 13
1.0
 23
0.0
 33
0.0
 40
0.0
 40
0.0
 40
0.0
 40
0.0
 40
0.2500000000000001
 40
0.2500000000000001
 40
0.5000000000000002
 40
0.5000000000000002
 40
1.0
 40
1.0
 40
1.0
 40
1.0
 10
-102.9264658362672
 20
-133.5860026357302
 30
0.0
 10
-100.1456078330507
 20
-125.0274017400086
 30
0.0
 10
-97.36645597680483
 20
-116.4740518247305
 30
0.0
 10
-91.8087592879699
 20
-99.36922022088953
 30
0.0
 10
-89.03035311578704
 20
-90.8181652851761
 30
0.0
 10
-80.69559831160186
 20
-65.16642763794265
 30
0.0
 10
-75.13972086990633
 20
-48.06719510107271
 30
0.0
 10
-69.58399152347312
 20
-30.96841835455352
 30
0.0
  0
ARC
  5
1DE
330
1F
100
AcDbEntity
  8
0
  6
Continuous
 62
     7
370
    15
100
AcDbCircle
 10
-103.8871074796
 20
-176.9934033253
 30
0.0
 40
150.0
100
AcDbArc
 50
76.7801918472
 51
139.2198081528
  0
SPLINE
  5
1DF
330
1F
100
AcDbEntity
  8
0
  6
Continuous
 62
     7
370
    15
100
AcDbSpline
210
0.0
220
0.0
230
1.0
 70
    24
 71
     3
 72
    12
 73
     8
 74
     0
 42
0.00000001
 43
0.00000001
 12
1.0
 22
0.0
 32
0.0
 13
1.0
 23
0.0
 33
0.0
 40
0.0
 40
0.0
 40
0.0
 40
0.0
 40
0.5
 40
0.5
 40
0.75
 40
0.75
 40
1.0
 40
1.0
 40
1.0
 40
1.0
 10
-217.4702438801384
 20
-79.01957454730326
 30
0.0
 10
-202.9252496006349
 20
-89.58713146095735
 30
0.0
 10
-188.3798971100882
 20
-100.1549486301684
 30
0.0
 10
-166.5593044146399
 20
-116.0085372096949
 30
0.0
 10
-159.2853552541036
 20
-121.2933706213735
 30
0.0
 10
-144.7350638819621
 20
-131.864776098104
 30
0.0
 10
-137.459096963374
 20
-137.1510754968184
 30
0.0
 10
-130.1785128602222
 20
-142.4407294764781
 30
0.0
  0
SPLINE
  5
1E0
330
1F
100
AcDbEntity
  8
0
  6
Continuous
 62
     7
370
    15
100
AcDbSpline
210
0.0
220
0.0
230
1.0
 70
    24
 71
     3
 72
    12
 73
     8
 74
     0
 42
0.00000001
 43
0.00000001
 12
1.0
 22
0.0
 32
0.0
 13
1.0
 23
0.0
 33
0.0
 40
0.0
 40
0.0
 40
0.0
 40
0.0
 40
0.25
 40
0.25
 40
0.4999999999999999
 40
0.4999999999999999
 40
1.0
 40
1.0
 40
1.0
 40
1.0
 10
-144.8731441675346
 20
-162.666154335852
 30
0.0
 10
-152.1536664505906
 20
-157.3765452711212
 30
0.0
 10
-159.4296170975136
 20
-152.0902576944635
 30
0.0
 10
-173.9798920494034
 20
-141.5188641477444
 30
0.0
 10
-181.2538447784513
 20
-136.2340281433906
 30
0.0
 10
-203.0744605233704
 20
-120.3804228174435
 30
0.0
 10
-217.6198451989267
 20
-109.8125822644545
 30
0.0
 10
-232.1648751874512
 20
-99.24499940667816
 30
0.0
  0
ARC
  5
1E1
330
1F
100
AcDbEntity
  8
0
  6
Continuous
 62
     7
370
    15
100
AcDbCircle
 10
-103.8871074796
 20
-176.9934033253
 30
0.0
 40
150.0000000000001
100
AcDbArc
 50
148.7801918472
 51
211.2198081528
  0
SPLINE
  5
1E2
330
1F
100
AcDbEntity
  8
0
  6
Continuous
 62
     7
370
    15
100
AcDbSpline
210
0.0
220
0.0
230
1.0
 70
    24
 71
     3
 72
    12
 73
     8
 74
     0
 42
0.00000001
 43
0.00000001
 12
1.0
 22
0.0
 32
0.0
 13
1.0
 23
0.0
 33
0.0
 40
0.0
 40
0.0
 40
0.0
 40
0.0
 40
0.4999999999999999
 40
0.4999999999999999
 40
0.7499999999999998
 40
0.7499999999999998
 40
1.0
 40
1.0
 40
1.0
 40
1.0
 10
-232.1648751874522
 20
-254.7418072438789
 30
0.0
 10
-217.6198809079486
 20
-244.174250330225
 30
0.0
 10
-203.0745284174017
 20
-233.6064331610142
 30
0.0
 10
-181.2539357219532
 20
-217.752844581488
 30
0.0
 10
-173.9799865614168
 20
-212.4680111698095
 30
0.0
 10
-159.429695189275
 20
-201.8966056930792
 30
0.0
 10
-152.1537282706869
 20
-196.6103062943649
 30
0.0
 10
-144.8731441675349
 20
-191.3206523147053
 30
0.0
  0
SPLINE
  5
1E3
330
1F
100
AcDbEntity
  8
0
  6
Continuous
 62
     7
370
    15
100
AcDbSpline
210
0.0
220
0.0
230
1.0
 70
    24
 71
     3
 72
    12
 73
     8
 74
     0
 42
0.00000001
 43
0.00000001
 12
1.0
 22
0.0
 32
0.0
 13
1.0
 23
0.0
 33
0.0
 40
0.0
 40
0.0
 40
0.0
 40
0.0
 40
0.2499999999999998
 40
0.2499999999999998
 40
0.4999999999999996
 40
0.4999999999999996
 40
1.0
 40
1.0
 40
1.0
 40
1.0
 10
-130.1785128602231
 20
-211.5460771740796
 30
0.0
 10
-137.4590351432791
 20
-216.8356862388105
 30
0.0
 10
-144.734985790202
 20
-222.1219738154682
 30
0.0
 10
-159.2852607420918
 20
-232.6933673621874
 30
0.0
 10
-166.5592134711396
 20
-237.9782033665413
 30
0.0
 10
-188.3798292160587
 20
-253.8318086924884
 30
0.0
 10
-202.9252138916149
 20
-264.3996492454775
 30
0.0
 10
-217.4702438801395
 20
-274.967232103254
 30
0.0
  0
ARC
  5
1E4
330
1F
100
AcDbEntity
  8
0
  6
Continuous
 62
     7
370
    15
100
AcDbCircle
 10
-103.8871074796
 20
-176.9934033253
 30
0.0
 40
150.0000000000001
100
AcDbArc
 50
220.7801918472
 51
283.2198081528
  0
SPLINE
  5
1E5
330
1F
100
AcDbEntity
  8
0
  6
Continuous
 62
     7
370
    15
100
AcDbSpline
210
0.0
220
0.0
230
1.0
 70
    24
 71
     3
 72
    12
 73
     8
 74
     0
 42
0.00000001
 43
0.00000001
 12
1.0
 22
0.0
 32
0.0
 13
1.0
 23
0.0
 33
0.0
 40
0.0
 40
0.0
 40
0.0
 40
0.0
 40
0.5000000000000002
 40
0.5000000000000002
 40
0.7500000000000001
 40
0.7500000000000001
 40
1.0
 40
1.0
 40
1.0
 40
1.0
 10
-69.58399152347464
 20
-323.0183882960054
 30
0.0
 10
-75.13968917953738
 20
-305.9197090824174
 30
0.0
 10
-80.69552324482368
 20
-288.8206100444078
 30
0.0
 10
-89.0302507156648
 20
-263.1689565205568
 30
0.0
 10
-91.80865248302173
 20
-254.6179151415035
 30
0.0
 10
-97.36636730623783
 20
-237.513027725776
 30
0.0
 10
-100.145537450911
 20
-228.9596215245062
 30
0.0
 10
-102.9264658362683
 20
-220.4008040148282
 30
0.0
  0
SPLINE
  5
1E6
330
1F
100
AcDbEntity
  8
0
  6
Continuous
 62
     7
370
    15
100
AcDbSpline
210
0.0
220
0.0
230
1.0
 70
    24
 71
     3
 72
    12
 73
     8
 74
     0
 42
0.00000001
 43
0.00000001
 12
1.0
 22
0.0
 32
0.0
 13
1.0
 23
0.0
 33
0.0
 40
0.0
 40
0.0
 40
0.0
 40
0.0
 40
0.2499999999999999
 40
0.2499999999999999
 40
0.5
 40
0.5
 40
1.0
 40
1.0
 40
1.0
 40
1.0
 10
-79.15005292888895
 20
-212.6753791554546
 30
0.0
 10
-76.36919492567239
 20
-221.2339800511762
 30
0.0
 10
-73.59004306942646
 20
-229.7873299664543
 30
0.0
 10
-68.0323463805914
 20
-246.8921615702952
 30
0.0
 10
-65.2539402084085
 20
-255.4432165060087
 30
0.0
 10
-56.91918540422316
 20
-281.0949541532422
 30
0.0
 10
-51.36330796252754
 20
-298.1941866901121
 30
0.0
 10
-45.80757861609423
 20
-315.2929634366313
 30
0.0
  0
ARC
  5
1E7
330
1F
100
AcDbEntity
  8
0
  6
Continuous
 62
     7
370
    15
100
AcDbCircle
 10
-103.8871074796
 20
-176.9934033253
 30
0.0
 40
150.0
100
AcDbArc
 50
292.7801918472
 51
355.2198081528
  0
SPLINE
  5
1E8
330
1F
100
AcDbEntity
  8
0
  6
Continuous
 62
     7
370
    15
100
AcDbSpline
210
0.0
220
0.0
230
1.0
 70
    24
 71
     3
 72
    12
 73
     8
 74
     0
 42
0.00000001
 43
0.00000001
 12
1.0
 22
0.0
 32
0.0
 13
1.0
 23
0.0
 33
0.0
 40
0.0
 40
0.0
 40
0.0
 40
0.0
 40
0.5000000000000002
 40
0.5000000000000002
 40
0.7500000000000001
 40
0.7500000000000001
 40
1.0
 40
1.0
 40
1.0
 40
1.0
 10
45.59115180916973
 20
-189.4934033252808
 30
0.0
 10
27.61253246451739
 20
-189.4934033252807
 30
0.0
 10
9.63347209172312
 20
-189.4934033252805
 30
0.0
 10
-17.33827520315455
 20
-189.4934033252802
 30
0.0
 10
-26.32937259757716
 20
-189.4934033252801
 30
0.0
 10
-44.31451369482926
 20
-189.49340332528
 30
0.0
 10
-53.30809535072467
 20
-189.4934033252799
 30
0.0
 10
-62.30736160507428
 20
-189.4934033252798
 30
0.0
  0
SPLINE
  5
1E9
330
1F
100
AcDbEntity
  8
0
  6
Continuous
 62
     7
370
    15
100
AcDbSpline
210
0.0
220
0.0
230
1.0
 70
    24
 71
     3
 72
    12
 73
     8
 74
     0
 42
0.00000001
 43
0.00000001
 12
1.0
 22
0.0
 32
0.0
 13
1.0
 23
0.0
 33
0.0
 40
0.0
 40
0.0
 40
0.0
 40
0.0
 40
0.2499999999999999
 40
0.2499999999999999
 40
0.5000000000000001
 40
0.5000000000000001
 40
1.0
 40
1.0
 40
1.0
 40
1.0
 10
-62.3073616050741
 20
-164.4934033252792
 30
0.0
 10
-53.30838516672479
 20
-164.4934033252792
 30
0.0
 10
-44.31487547796875
 20
-164.4934033252792
 30
0.0
 10
-26.32980118499997
 20
-164.4934033252792
 30
0.0
 10
-17.33868085258974
 20
-164.4934033252792
 30
0.0
 10
9.633194302420073
 20
-164.4934033252792
 30
0.0
 10
27.61243363570515
 20
-164.4934033252792
 30
0.0
 10
45.59115180916984
 20
-164.4934033252792
 30
0.0
  0
ARC
  5
1EA
330
1F
100
AcDbEntity
  8
0
  6
Continuous
 62
     7
370
    15
100
AcDbCircle
 10
-103.8871074796
 20
-176.9934033253
 30
0.0
 40
18.5
100
AcDbArc
 50
202.2332717983
 51
309.4745975613
  0
ARC
  5
1EB
330
1F
100
AcDbEntity
  8
0
  6
Continuous
 62
     7
370
    15
100
AcDbCircle
 10
-103.8871074796
 20
-176.9934033253
 30
0.0
 40
18.5
100
AcDbArc
 50
22.2332717983
 51
157.7667282017
  0
ARC
  5
1EC
330
1F
100
AcDbEntity
  8
0
  6
Continuous
 62
     7
370
    15
100
AcDbCircle
 10
-103.8871074796
 20
-176.9934033253
 30
0.0
 40
18.5
100
AcDbArc
 50
309.4745975613
 51
337.7667282017
  0
CIRCLE
  5
1ED
330
1F
100
AcDbEntity
  8
0
  6
Continuous
 62
     7
370
    15
100
AcDbCircle
 10
-103.8871074796
 20
-176.9934033253
 30
0.0
 40
35.00000000000001
  0
ARC
  5
1EE
330
1F
100
AcDbEntity
  8
0
  6
Continuous
 62
     7
370
    15
100
AcDbCircle
 10
-103.8871074796
 20
-176.9934033253
 30
0.0
 40
39.99999999999999
100
AcDbArc
 50
306.2099568643
 51
341.7900431357
  0
ARC
  5
1EF
330
1F
100
AcDbEntity
  8
0
  6
Continuous
 62
     7
370
    15
100
AcDbCircle
 10
-103.8871074796
 20
-176.9934033253
 30
0.0
 40
40.00000000000001
100
AcDbArc
 50
234.2099568643
 51
269.7900431357
  0
ARC
  5
1F0
330
1F
100
AcDbEntity
  8
0
  6
Continuous
 62
     7
370
    15
100
AcDbCircle
 10
-103.8871074796
 20
-176.9934033253
 30
0.0
 40
40.0
100
AcDbArc
 50
162.2099568643
 51
197.7900431357
  0
ARC
  5
1F1
330
1F
100
AcDbEntity
  8
0
  6
Continuous
 62
     7
370
    15
100
AcDbCircle
 10
-103.8871074796
 20
-176.9934033253
 30
0.0
 40
40.00000000000001
100
AcDbArc
 50
90.2099568643
 51
125.7900431357
  0
ARC
  5
1F2
330
1F
100
AcDbEntity
  8
0
  6
Continuous
 62
     7
370
    15
100
AcDbCircle
 10
-103.8871074796
 20
-176.9934033253
 30
0.0
 40
40.0
100
AcDbArc
 50
18.2099568643
 51
53.7900431357
  0
SPLINE
  5
1F3
330
1F
100
AcDbEntity
  8
0
  6
Continuous
 62
     7
370
    15
100
AcDbSpline
210
0.0
220
0.0
230
1.0
 70
    24
 71
     3
 72
    10
 73
     6
 74
     0
 42
0.00000001
 43
0.00000001
 12
1.0
 22
0.0
 32
0.0
 13
1.0
 23
0.0
 33
0.0
 40
0.0
 40
0.0
 40
0.0
 40
0.0
 40
0.5
 40
0.5
 40
1.0
 40
1.0
 40
1.0
 40
1.0
 10
-102.9264658362683
 20
-220.4008040148282
 30
0.0
 10
-103.1165400747262
 20
-219.8158156602853
 30
0.0
 10
-103.3068741280467
 20
-219.2300276778171
 30
0.0
 10
-103.6865610933766
 20
-218.0614713553412
 30
0.0
 10
-103.865642243671
 20
-217.5103162472617
 30
0.0
 10
-104.0336846943113
 20
-216.9931347633792
 30
0.0
  0
SPLINE
  5
1F4
330
1F
100
AcDbEntity
  8
0
  6
Continuous
 62
     7
370
    15
100
AcDbSpline
210
0.0
220
0.0
230
1.0
 70
    24
 71
     3
 72
    10
 73
     6
 74
     0
 42
0.00000001
 43
0.00000001
 12
1.0
 22
0.0
 32
0.0
 13
1.0
 23
0.0
 33
0.0
 40
0.0
 40
0.0
 40
0.0
 40
0.0
 40
0.5
 40
0.5
 40
1.0
 40
1.0
 40
1.0
 40
1.0
 10
-80.25727178693133
 20
-209.2677099040075
 30
0.0
 10
-80.08928687820128
 20
-209.7847142920999
 30
0.0
 10
-79.90999359801546
 20
-210.336522268854
 30
0.0
 10
-79.53035548272072
 20
-211.5049282463808
 30
0.0
 10
-79.33994265670663
 20
-212.0909586662714
 30
0.0
 10
-79.15005292888894
 20
-212.6753791554546
 30
0.0
  0
SPLINE
  5
1F5
330
1F
100
AcDbEntity
  8
0
  6
Continuous
 62
     7
370
    15
100
AcDbSpline
210
0.0
220
0.0
230
1.0
 70
    24
 71
     3
 72
    10
 73
     6
 74
     0
 42
0.00000001
 43
0.00000001
 12
1.0
 22
0.0
 32
0.0
 13
1.0
 23
0.0
 33
0.0
 40
0.0
 40
0.0
 40
0.0
 40
0.0
 40
0.5
 40
0.5
 40
1.0
 40
1.0
 40
1.0
 40
1.0
 10
-127.2797762568839
 20
-209.4400217542679
 30
0.0
 10
-127.7195658670978
 20
-209.7595476094633
 30
0.0
 10
-128.1889629956225
 20
-210.10058458586
 30
0.0
 10
-129.1828671907088
 20
-210.8226982523532
 30
0.0
 10
-129.6813757717224
 20
-211.1848859370351
 30
0.0
 10
-130.178512860223
 20
-211.5460771740796
 30
0.0
  0
SPLINE
  5
1F6
330
1F
100
AcDbEntity
  8
0
  6
Continuous
 62
     7
370
    15
100
AcDbSpline
210
0.0
220
0.0
230
1.0
 70
    24
 71
     3
 72
    14
 73
    10
 74
     0
 42
0.00000001
 43
0.00000001
 12
1.0
 22
0.0
 32
0.0
 13
1.0
 23
0.0
 33
0.0
 40
0.0
 40
0.0
 40
0.0
 40
0.0
 40
0.25
 40
0.25
 40
0.5
 40
0.5
 40
0.75
 40
0.75
 40
1.0
 40
1.0
 40
1.0
 40
1.0
 10
-62.30736160507428
 20
-189.4934033252798
 30
0.0
 10
-62.611965988184
 20
-189.4934033252798
 30
0.0
 10
-62.92490125712936
 20
-189.4934033252798
 30
0.0
 10
-63.54153432473831
 20
-189.4934033252798
 30
0.0
 10
-63.84799946940353
 20
-189.4934033252798
 30
0.0
 10
-64.45720303776109
 20
-189.4934033252798
 30
0.0
 10
-64.760689896074
 20
-189.4934033252798
 30
0.0
 10
-65.34113609554923
 20
-189.4934033252797
 30
0.0
 10
-65.62105458768727
 20
-189.4934033252797
 30
0.0
 10
-65.89039709566879
 20
-189.4934033252797
 30
0.0
  0
SPLINE
  5
1F7
330
1F
100
AcDbEntity
  8
0
  6
Continuous
 62
     7
370
    15
100
AcDbSpline
210
0.0
220
0.0
230
1.0
 70
    24
 71
     3
 72
    10
 73
     6
 74
     0
 42
0.00000001
 43
0.00000001
 12
1.0
 22
0.0
 32
0.0
 13
1.0
 23
0.0
 33
0.0
 40
0.0
 40
0.0
 40
0.0
 40
0.0
 40
0.5
 40
0.5
 40
1.0
 40
1.0
 40
1.0
 40
1.0
 10
-144.873144167535
 20
-191.3206523147053
 30
0.0
 10
-144.3758492147521
 20
-190.9593463825462
 30
0.0
 10
-143.8763898286298
 20
-190.5964678975169
 30
0.0
 10
-142.8828890433291
 20
-189.8746473253892
 30
0.0
 10
-142.4142308767819
 20
-189.5341472362957
 30
0.0
 10
-141.9744075641935
 20
-189.214596894892
 30
0.0
  0
SPLINE
  5
1F8
330
1F
100
AcDbEntity
  8
0
  6
Continuous
 62
     7
370
    15
100
AcDbSpline
210
0.0
220
0.0
230
1.0
 70
    24
 71
     3
 72
    14
 73
    10
 74
     0
 42
0.00000001
 43
0.00000001
 12
1.0
 22
0.0
 32
0.0
 13
1.0
 23
0.0
 33
0.0
 40
0.0
 40
0.0
 40
0.0
 40
0.0
 40
0.25
 40
0.25
 40
0.5
 40
0.5
 40
0.75
 40
0.75
 40
1.0
 40
1.0
 40
1.0
 40
1.0
 10
-65.89039709567102
 20
-164.4934033252792
 30
0.0
 10
-65.6205750018149
 20
-164.4934033252792
 30
0.0
 10
-65.33544556476862
 20
-164.4934033252792
 30
0.0
 10
-64.75498487984136
 20
-164.4934033252792
 30
0.0
 10
-64.45715544473602
 20
-164.4934033252792
 30
0.0
 10
-63.84608528413235
 20
-164.4934033252792
 30
0.0
 10
-63.53507535325819
 20
-164.4934033252792
 30
0.0
 10
-62.91991069898578
 20
-164.4934033252792
 30
0.0
 10
-62.61319018801645
 20
-164.4934033252792
 30
0.0
 10
-62.30736160507411
 20
-164.4934033252792
 30
0.0
  0
SPLINE
  5
1F9
330
1F
100
AcDbEntity
  8
0
  6
Continuous
 62
     7
370
    15
100
AcDbSpline
210
0.0
220
0.0
230
1.0
 70
    24
 71
     3
 72
    14
 73
    10
 74
     0
 42
0.00000001
 43
0.00000001
 12
1.0
 22
0.0
 32
0.0
 13
1.0
 23
0.0
 33
0.0
 40
0.0
 40
0.0
 40
0.0
 40
0.0
 40
0.25
 40
0.25
 40
0.5
 40
0.5
 40
0.75
 40
0.75
 40
1.0
 40
1.0
 40
1.0
 40
1.0
 10
-130.1785128602222
 20
-142.4407294764781
 30
0.0
 10
-129.9333493342086
 20
-142.6188512044427
 30
0.0
 10
-129.6852191288622
 20
-142.7991283511096
 30
0.0
 10
-129.1828994527352
 20
-143.1640849584697
 30
0.0
 10
-128.9329416325499
 20
-143.3456899450418
 30
0.0
 10
-128.443384376587
 20
-143.7013741113925
 30
0.0
 10
-128.2024748129002
 20
-143.8764051548142
 30
0.0
 10
-127.7287213313919
 20
-144.2206072069206
 30
0.0
 10
-127.4992738053975
 20
-144.3873105925011
 30
0.0
 10
-127.2797762568806
 20
-144.5467848962915
 30
0.0
  0
SPLINE
  5
1FA
330
1F
100
AcDbEntity
  8
0
  6
Continuous
 62
     7
370
    15
100
AcDbSpline
210
0.0
220
0.0
230
1.0
 70
    24
 71
     3
 72
    10
 73
     6
 74
     0
 42
0.00000001
 43
0.00000001
 12
1.0
 22
0.0
 32
0.0
 13
1.0
 23
0.0
 33
0.0
 40
0.0
 40
0.0
 40
0.0
 40
0.0
 40
0.5
 40
0.5
 40
1.0
 40
1.0
 40
1.0
 40
1.0
 10
-141.9744075641954
 20
-164.7722097556637
 30
0.0
 10
-142.4141971744093
 20
-164.4526839004683
 30
0.0
 10
-142.883594302934
 20
-164.1116469240716
 30
0.0
 10
-143.8774984980203
 20
-163.3895332575784
 30
0.0
 10
-144.3760070790339
 20
-163.0273455728965
 30
0.0
 10
-144.8731441675345
 20
-162.666154335852
 30
0.0
  0
SPLINE
  5
1FB
330
1F
100
AcDbEntity
  8
0
  6
Continuous
 62
     7
370
    15
100
AcDbSpline
210
0.0
220
0.0
230
1.0
 70
    24
 71
     3
 72
    14
 73
    10
 74
     0
 42
0.00000001
 43
0.00000001
 12
1.0
 22
0.0
 32
0.0
 13
1.0
 23
0.0
 33
0.0
 40
0.0
 40
0.0
 40
0.0
 40
0.0
 40
0.25
 40
0.25
 40
0.5
 40
0.5
 40
0.75
 40
0.75
 40
1.0
 40
1.0
 40
1.0
 40
1.0
 10
-79.15005292888847
 20
-141.3114274951042
 30
0.0
 10
-79.24369705640733
 20
-141.5996344847221
 30
0.0
 10
-79.33847435443879
 20
-141.8913290145715
 30
0.0
 10
-79.5303433836151
 20
-142.4818411669612
 30
0.0
 10
-79.62581876899847
 20
-142.7756841887611
 30
0.0
 10
-79.81281298896702
 20
-143.3511932211052
 30
0.0
 10
-79.90483224810093
 20
-143.6343993800447
 30
0.0
 10
-80.0857899642795
 20
-144.1913299640522
 30
0.0
 10
-80.17343113772918
 20
-144.461061760757
 30
0.0
 10
-80.25727178693154
 20
-144.7190967465532
 30
0.0
  0
SPLINE
  5
1FC
330
1F
100
AcDbEntity
  8
0
  6
Continuous
 62
     7
370
    15
100
AcDbSpline
210
0.0
220
0.0
230
1.0
 70
    24
 71
     3
 72
    10
 73
     6
 74
     0
 42
0.00000001
 43
0.00000001
 12
1.0
 22
0.0
 32
0.0
 13
1.0
 23
0.0
 33
0.0
 40
0.0
 40
0.0
 40
0.0
 40
0.0
 40
0.5
 40
0.5
 40
1.0
 40
1.0
 40
1.0
 40
1.0
 10
-104.0336846943096
 20
-136.9936718871773
 30
0.0
 10
-103.8656435474135
 20
-136.4764944158072
 30
0.0
 10
-103.6862773270151
 20
-135.9244619521615
 30
0.0
 10
-103.3065163398917
 20
-134.7556778140305
 30
0.0
 10
-103.1165397257216
 20
-134.1709899161507
 30
0.0
 10
-102.9264658362672
 20
-133.5860026357303
 30
0.0
  0
ARC
  5
1FD
330
1F
100
AcDbEntity
  8
0
  6
Continuous
 62
     7
370
    15
100
AcDbCircle
 10
-77.7241565757
 20
-150.8304524214
 30
0.0
 40
15.00000000000002
100
AcDbArc
 50
315.3097084245
 51
88.6600101119
  0
SPLINE
  5
1FE
330
1F
100
AcDbEntity
  8
0
  6
Continuous
 62
     7
370
    15
100
AcDbSpline
210
0.0
220
0.0
230
1.0
 70
     8
 71
     3
 72
    15
 73
    11
 74
     0
 42
0.00000001
 43
0.00000001
 12
1.0
 22
0.0
 32
0.0
 13
1.0
 23
0.0
 33
0.0
 40
0.0
 40
0.0
 40
0.0
 40
0.0
 40
0.1046533282053982
 40
0.2093254736520613
 40
0.3502182461031386
 40
0.4911337178448089
 40
0.6320493108726052
 40
0.7729422487404745
 40
0.9145650528318958
 40
1.0
 40
1.0
 40
1.0
 40
1.0
 10
-42.96567163918511
 20
-127.8929643892145
 30
0.0
 10
-42.75515120609423
 20
-129.1601212393223
 30
0.0
 10
-42.33407248718627
 20
-131.6946627812759
 30
0.0
 10
-41.70119776302752
 20
-135.9467433832051
 30
0.0
 10
-41.07145207900999
 20
-140.6490166747276
 30
0.0
 10
-40.47615336487799
 20
-145.8041919023184
 30
0.0
 10
-39.97096336004996
 20
-150.9692544542385
 30
0.0
 10
-39.5606946502244
 20
-156.1515018074367
 30
0.0
 10
-39.27098702007445
 20
-160.659984868499
 30
0.0
 10
-39.15591475114848
 20
-163.4453535469127
 30
0.0
 10
-39.11261654546436
 20
-164.4934033252794
 30
0.0
  0
SPLINE
  5
1FF
330
1F
100
AcDbEntity
  8
0
  6
Continuous
 62
     7
370
    15
100
AcDbSpline
210
0.0
220
0.0
230
1.0
 70
     8
 71
     3
 72
     8
 73
     4
 74
     0
 42
0.00000001
 43
0.00000001
 12
1.0
 22
0.0
 32
0.0
 13
1.0
 23
0.0
 33
0.0
 40
0.0
 40
0.0
 40
0.0
 40
0.0
 40
1.0
 40
1.0
 40
1.0
 40
1.0
 10
-31.27636316333568
 20
-117.1724133787332
 30
0.0
 10
-35.13214483980891
 20
-120.6811726889088
 30
0.0
 10
-39.02697155549303
 20
-124.2541494605887
 30
0.0
 10
-42.96567163918523
 20
-127.8929643892143
 30
0.0
  0
SPLINE
  5
200
330
1F
100
AcDbEntity
  8
0
  6
Continuous
 62
     7
370
    15
100
AcDbSpline
210
0.0
220
0.0
230
1.0
 70
     8
 71
     3
 72
    17
 73
    13
 74
     0
 42
0.00000001
 43
0.00000001
 12
1.0
 22
0.0
 32
0.0
 13
1.0
 23
0.0
 33
0.0
 40
0.0
 40
0.0
 40
0.0
 40
0.0
 40
0.101424714265882
 40
0.2028566884952502
 40
0.3042814156585842
 40
0.4059681904832559
 40
0.507662267073928
 40
0.6093490461206096
 40
0.7179309190291528
 40
0.8265216757002389
 40
0.9351035477886668
 40
1.0
 40
1.0
 40
1.0
 40
1.0
 10
-31.27636316333565
 20
-117.1724133787333
 30
0.0
 10
-30.94923218654584
 20
-118.7531697206092
 30
0.0
 10
-30.29494681698754
 20
-121.9147955546263
 30
0.0
 10
-29.41510523617963
 20
-126.677487294813
 30
0.0
 10
-28.60910490973774
 20
-131.457429658108
 30
0.0
 10
-27.88469620119183
 20
-136.2548661469378
 30
0.0
 10
-27.24018754963596
 20
-141.0680233370034
 30
0.0
 10
-26.66449991546309
 20
-146.0005383624833
 30
0.0
 10
-26.16288891989596
 20
-151.0517063414727
 30
0.0
 10
-25.74732652988482
 20
-156.2207691814096
 30
0.0
 10
-25.45448330412558
 20
-160.7019188305985
 30
0.0
 10
-25.33837300633802
 20
-163.4611888606437
 30
0.0
 10
-25.29493734126556
 20
-164.4934033252795
 30
0.0
  0
SPLINE
  5
201
330
1F
100
AcDbEntity
  8
0
  6
Continuous
 62
     7
370
    15
100
AcDbSpline
210
0.0
220
0.0
230
1.0
 70
     8
 71
     3
 72
    19
 73
    15
 74
     0
 42
0.00000001
 43
0.00000001
 12
1.0
 22
0.0
 32
0.0
 13
1.0
 23
0.0
 33
0.0
 40
0.0
 40
0.0
 40
0.0
 40
0.0
 40
0.0702487564099633
 40
0.1404975094272127
 40
0.2107931906851449
 40
0.2810888692705558
 40
0.3515262547273239
 40
0.4219636388298085
 40
0.4924485274973018
 40
0.5629334170603544
 40
0.678063784471561
 40
0.7932460767285021
 40
0.9085852986212346
 40
1.0
 40
1.0
 40
1.0
 40
1.0
 10
-103.8871074794681
 20
-121.0434033252792
 30
0.0
 10
-105.0536612867989
 20
-121.0476560481385
 30
0.0
 10
-107.386768845121
 20
-121.0561614936517
 30
0.0
 10
-110.8866267678551
 20
-121.1250153280776
 30
0.0
 10
-114.3860958789292
 20
-121.2350424045258
 30
0.0
 10
-117.8869398314093
 20
-121.3904578722944
 30
0.0
 10
-121.3877875178438
 20
-121.5903258427639
 30
0.0
 10
-124.888827000958
 20
-121.8351458629021
 30
0.0
 10
-128.38712810375
 20
-122.1247497912567
 30
0.0
 10
-132.6199524408434
 20
-122.5300105839542
 30
0.0
 10
-137.5829746488743
 20
-123.0890292579454
 30
0.0
 10
-143.27018181231
 20
-123.8549823237825
 30
0.0
 10
-148.5529848976718
 20
-124.667595418722
 30
0.0
 10
-151.9296798792454
 20
-125.2814545810073
 30
0.0
 10
-153.4226603194878
 20
-125.5528678200937
 30
0.0
  0
SPLINE
  5
202
330
1F
100
AcDbEntity
  8
0
  6
Continuous
 62
     7
370
    15
100
AcDbSpline
210
0.0
220
0.0
230
1.0
 70
     8
 71
     3
 72
     9
 73
     5
 74
     0
 42
0.00000001
 43
0.00000001
 12
1.0
 22
0.0
 32
0.0
 13
1.0
 23
0.0
 33
0.0
 40
0.0
 40
0.0
 40
0.0
 40
0.0
 40
0.6971679504294073
 40
1.0
 40
1.0
 40
1.0
 40
1.0
 10
-103.8871074797272
 20
-121.0434033252792
 30
0.0
 10
-102.7205183110075
 20
-121.0456310311733
 30
0.0
 10
-101.0471924388109
 20
-121.0488263959239
 30
0.0
 10
-99.37428458650663
 20
-121.0837509894697
 30
0.0
 10
-98.86767447285058
 20
-121.0943272757137
 30
0.0
  0
SPLINE
  5
203
330
1F
100
AcDbEntity
  8
0
  6
Continuous
 62
     7
370
    15
100
AcDbSpline
210
0.0
220
0.0
230
1.0
 70
     8
 71
     3
 72
    13
 73
     9
 74
     0
 42
0.00000001
 43
0.00000001
 12
1.0
 22
0.0
 32
0.0
 13
1.0
 23
0.0
 33
0.0
 40
0.0
 40
0.0
 40
0.0
 40
0.0
 40
0.0964315053432136
 40
0.2838214000520367
 40
0.4714666033447701
 40
0.659197519169379
 40
0.8295667976514829
 40
1.0
 40
1.0
 40
1.0
 40
1.0
 10
-73.12837014668399
 20
-122.7785935302227
 30
0.0
 10
-72.15012543995063
 20
-122.8858766647599
 30
0.0
 10
-69.27091307807393
 20
-123.2016370517617
 30
0.0
 10
-64.50407176418892
 20
-123.8566093212057
 30
0.0
 10
-58.82915886059268
 20
-124.7352818548194
 30
0.0
 10
-53.34686141858662
 20
-125.712246193514
 30
0.0
 10
-48.05623423495977
 20
-126.7571740838836
 30
0.0
 10
-44.66273800896244
 20
-127.5143202818036
 30
0.0
 10
-42.9656716391851
 20
-127.8929643892144
 30
0.0
  0
SPLINE
  5
204
330
1F
100
AcDbEntity
  8
0
  6
Continuous
 62
     7
370
    15
100
AcDbSpline
210
0.0
220
0.0
230
1.0
 70
     8
 71
     3
 72
    15
 73
    11
 74
     0
 42
0.00000001
 43
0.00000001
 12
1.0
 22
0.0
 32
0.0
 13
1.0
 23
0.0
 33
0.0
 40
0.0
 40
0.0
 40
0.0
 40
0.0
 40
0.1046533282054013
 40
0.2093254736520674
 40
0.3502182461031488
 40
0.4911337178448231
 40
0.6320493108726234
 40
0.7729422487404968
 40
0.9145650528319222
 40
1.0
 40
1.0
 40
1.0
 40
1.0
 10
-42.96567163918512
 20
-226.0938422613439
 30
0.0
 10
-42.75515120609426
 20
-224.8266854112361
 30
0.0
 10
-42.33407248718627
 20
-222.2921438692825
 30
0.0
 10
-41.70119776302755
 20
-218.0400632673533
 30
0.0
 10
-41.07145207900994
 20
-213.3377899758309
 30
0.0
 10
-40.47615336487799
 20
-208.18261474824
 30
0.0
 10
-39.97096336004997
 20
-203.0175521963199
 30
0.0
 10
-39.56069465022437
 20
-197.8353048431217
 30
0.0
 10
-39.27098702007446
 20
-193.3268217820598
 30
0.0
 10
-39.15591475114851
 20
-190.5414531036464
 30
0.0
 10
-39.1126165454644
 20
-189.4934033252801
 30
0.0
  0
SPLINE
  5
205
330
1F
100
AcDbEntity
  8
0
  6
Continuous
 62
     7
370
    15
100
AcDbSpline
210
0.0
220
0.0
230
1.0
 70
     8
 71
     3
 72
     9
 73
     5
 74
     0
 42
0.00000001
 43
0.00000001
 12
1.0
 22
0.0
 32
0.0
 13
1.0
 23
0.0
 33
0.0
 40
0.0
 40
0.0
 40
0.0
 40
0.0
 40
0.6971679504295875
 40
1.0
 40
1.0
 40
1.0
 40
1.0
 10
-103.8871074797272
 20
-232.9434033252792
 30
0.0
 10
-102.7205183110075
 20
-232.9411756193851
 30
0.0
 10
-101.0471924388113
 20
-232.9379802546345
 30
0.0
 10
-99.37428458650749
 20
-232.9030556610886
 30
0.0
 10
-98.86767447285187
 20
-232.8924793748447
 30
0.0
  0
SPLINE
  5
206
330
1F
100
AcDbEntity
  8
0
  6
Continuous
 62
     7
370
    15
100
AcDbSpline
210
0.0
220
0.0
230
1.0
 70
     8
 71
     3
 72
    13
 73
     9
 74
     0
 42
0.00000001
 43
0.00000001
 12
1.0
 22
0.0
 32
0.0
 13
1.0
 23
0.0
 33
0.0
 40
0.0
 40
0.0
 40
0.0
 40
0.0
 40
0.0964315053432382
 40
0.2838214000520562
 40
0.4714666033447844
 40
0.6591975191693882
 40
0.8295667976514876
 40
1.0
 40
1.0
 40
1.0
 40
1.0
 10
-73.12837014668483
 20
-231.2082131203359
 30
0.0
 10
-72.15012543995117
 20
-231.1009299857986
 30
0.0
 10
-69.27091307807417
 20
-230.7851695987969
 30
0.0
 10
-64.50407176418896
 20
-230.1301973293527
 30
0.0
 10
-58.82915886059264
 20
-229.2515247957391
 30
0.0
 10
-53.34686141858666
 20
-228.2745604570444
 30
0.0
 10
-48.05623423495975
 20
-227.2296325666748
 30
0.0
 10
-44.66273800896243
 20
-226.4724863687548
 30
0.0
 10
-42.9656716391851
 20
-226.093842261344
 30
0.0
  0
SPLINE
  5
207
330
1F
100
AcDbEntity
  8
0
  6
Continuous
 62
     7
370
    15
100
AcDbSpline
210
0.0
220
0.0
230
1.0
 70
     8
 71
     3
 72
    19
 73
    15
 74
     0
 42
0.00000001
 43
0.00000001
 12
1.0
 22
0.0
 32
0.0
 13
1.0
 23
0.0
 33
0.0
 40
0.0
 40
0.0
 40
0.0
 40
0.0
 40
0.0702487564099613
 40
0.1404975094272087
 40
0.210793190685139
 40
0.2810888692705479
 40
0.351526254727314
 40
0.4219636388297968
 40
0.4924485274972882
 40
0.5629334170603387
 40
0.6780637844715421
 40
0.7932460767284799
 40
0.9085852986212093
 40
0.9999999999999999
 40
0.9999999999999999
 40
0.9999999999999999
 40
0.9999999999999999
 10
-103.8871074794681
 20
-232.9434033252792
 30
0.0
 10
-105.0536612867989
 20
-232.9391506024199
 30
0.0
 10
-107.386768845121
 20
-232.9306451569068
 30
0.0
 10
-110.8866267678551
 20
-232.8617913224809
 30
0.0
 10
-114.3860958789292
 20
-232.7517642460327
 30
0.0
 10
-117.8869398314093
 20
-232.596348778264
 30
0.0
 10
-121.3877875178438
 20
-232.3964808077945
 30
0.0
 10
-124.888827000958
 20
-232.1516607876563
 30
0.0
 10
-128.38712810375
 20
-231.8620568593017
 30
0.0
 10
-132.6199524408434
 20
-231.4567960666042
 30
0.0
 10
-137.5829746488742
 20
-230.8977773926129
 30
0.0
 10
-143.2701818123101
 20
-230.131824326776
 30
0.0
 10
-148.5529848976723
 20
-229.3192112318364
 30
0.0
 10
-151.9296798792463
 20
-228.7053520695509
 30
0.0
 10
-153.4226603194892
 20
-228.4339388304645
 30
0.0
  0
SPLINE
  5
208
330
1F
100
AcDbEntity
  8
0
  6
Continuous
 62
     7
370
    15
100
AcDbSpline
210
0.0
220
0.0
230
1.0
 70
     8
 71
     3
 72
    13
 73
     9
 74
     0
 42
0.00000001
 43
0.00000001
 12
1.0
 22
0.0
 32
0.0
 13
1.0
 23
0.0
 33
0.0
 40
0.0
 40
0.0
 40
0.0
 40
0.0
 40
0.1513620774162711
 40
0.3203781761336374
 40
0.4902698271927829
 40
0.6601889441829262
 40
0.8301081829096334
 40
1.0
 40
1.0
 40
1.0
 40
1.0
 10
-167.3357900446201
 20
-207.6407198359319
 30
0.0
 10
-167.4917883058452
 20
-206.0996174500812
 30
0.0
 10
-167.8219795879975
 20
-202.837667164765
 30
0.0
 10
-168.2145366629297
 20
-197.8352674246431
 30
0.0
 10
-168.5387692340339
 20
-192.6376956275922
 30
0.0
 10
-168.7671577651248
 20
-187.4256036497991
 30
0.0
 10
-168.9105727664893
 20
-182.2102119687233
 30
0.0
 10
-168.9282630510775
 20
-178.7322459862837
 30
0.0
 10
-168.9371074795976
 20
-176.9934033252808
 30
0.0
  0
SPLINE
  5
209
330
1F
100
AcDbEntity
  8
0
  6
Continuous
 62
     7
370
    15
100
AcDbSpline
210
0.0
220
0.0
230
1.0
 70
     8
 71
     3
 72
    13
 73
     9
 74
     0
 42
0.00000001
 43
0.00000001
 12
1.0
 22
0.0
 32
0.0
 13
1.0
 23
0.0
 33
0.0
 40
0.0
 40
0.0
 40
0.0
 40
0.0
 40
0.151362077416304
 40
0.3203781761336638
 40
0.4902698271928027
 40
0.6601889441829393
 40
0.8301081829096398
 40
0.9999999999999999
 40
0.9999999999999999
 40
0.9999999999999999
 40
0.9999999999999999
 10
-167.33579004462
 20
-146.3460868146254
 30
0.0
 10
-167.4917883058451
 20
-147.8871892004765
 30
0.0
 10
-167.8219795879974
 20
-151.149139485793
 30
0.0
 10
-168.2145366629297
 20
-156.1515392259153
 30
0.0
 10
-168.5387692340339
 20
-161.3491110229663
 30
0.0
 10
-168.7671577651248
 20
-166.5612030007593
 30
0.0
 10
-168.9105727664893
 20
-171.7765946818351
 30
0.0
 10
-168.9282630510775
 20
-175.2545606642747
 30
0.0
 10
-168.9371074795977
 20
-176.9934033252776
 30
0.0
  0
SPLINE
  5
20A
330
1F
100
AcDbEntity
  8
0
  6
Continuous
 62
     7
370
    15
100
AcDbSpline
210
0.0
220
0.0
230
1.0
 70
     8
 71
     3
 72
    15
 73
    11
 74
     0
 42
0.00000001
 43
0.00000001
 12
1.0
 22
0.0
 32
0.0
 13
1.0
 23
0.0
 33
0.0
 40
0.0
 40
0.0
 40
0.0
 40
0.0
 40
0.0989893587938559
 40
0.2204766711411795
 40
0.3502016957015684
 40
0.4799373338780535
 40
0.6096623574586336
 40
0.7397713343555357
 40
0.869891021239936
 40
1.0
 40
1.0
 40
1.0
 40
1.0
 10
-179.9954486302188
 20
-137.1483064621599
 30
0.0
 10
-180.1746590875953
 20
-138.4549418316688
 30
0.0
 10
-180.5738103252383
 20
-141.3651800650993
 30
0.0
 10
-181.108303291482
 20
-146.0007505612173
 30
0.0
 10
-181.61109198243
 20
-151.0516767277342
 30
0.0
 10
-182.0292621684387
 20
-156.2206701803064
 30
0.0
 10
-182.3561479257418
 20
-161.4014681017304
 30
0.0
 10
-182.5881612925174
 20
-166.5925247790381
 30
0.0
 10
-182.733743579797
 20
-171.7921070872631
 30
0.0
 10
-182.7517531706175
 20
-175.2596854749571
 30
0.0
 10
-182.7607575954903
 20
-176.9934033252792
 30
0.0
  0
SPLINE
  5
20B
330
1F
100
AcDbEntity
  8
0
  6
Continuous
 62
     7
370
    15
100
AcDbSpline
210
0.0
220
0.0
230
1.0
 70
     8
 71
     3
 72
     8
 73
     4
 74
     0
 42
0.00000001
 43
0.00000001
 12
1.0
 22
0.0
 32
0.0
 13
1.0
 23
0.0
 33
0.0
 40
0.0
 40
0.0
 40
0.0
 40
0.0
 40
1.0
 40
1.0
 40
1.0
 40
1.0
 10
-31.27636316333568
 20
-236.8143932718253
 30
0.0
 10
-35.13214483980891
 20
-233.3056339616496
 30
0.0
 10
-39.02697155549303
 20
-229.7326571899697
 30
0.0
 10
-42.96567163918523
 20
-226.0938422613441
 30
0.0
  0
SPLINE
  5
20C
330
1F
100
AcDbEntity
  8
0
  6
Continuous
 62
     7
370
    15
100
AcDbSpline
210
0.0
220
0.0
230
1.0
 70
     8
 71
     3
 72
    17
 73
    13
 74
     0
 42
0.00000001
 43
0.00000001
 12
1.0
 22
0.0
 32
0.0
 13
1.0
 23
0.0
 33
0.0
 40
0.0
 40
0.0
 40
0.0
 40
0.0
 40
0.101424714265885
 40
0.2028566884952562
 40
0.3042814156585935
 40
0.4059681904832682
 40
0.5076622670739434
 40
0.6093490461206278
 40
0.7179309190291744
 40
0.8265216757002636
 40
0.9351035477886949
 40
1.0
 40
1.0
 40
1.0
 40
1.0
 10
-31.27636316333565
 20
-236.8143932718252
 30
0.0
 10
-30.94923218654583
 20
-235.2336369299493
 30
0.0
 10
-30.29494681698752
 20
-232.0720110959322
 30
0.0
 10
-29.41510523617966
 20
-227.3093193557454
 30
0.0
 10
-28.60910490973773
 20
-222.5293769924505
 30
0.0
 10
-27.88469620119184
 20
-217.7319405036206
 30
0.0
 10
-27.24018754963596
 20
-212.918783313555
 30
0.0
 10
-26.66449991546308
 20
-207.9862682880751
 30
0.0
 10
-26.162888919896
 20
-202.9351003090857
 30
0.0
 10
-25.7473265298848
 20
-197.7660374691488
 30
0.0
 10
-25.45448330412566
 20
-193.2848878199604
 30
0.0
 10
-25.33837300633807
 20
-190.5256177899157
 30
0.0
 10
-25.29493734126562
 20
-189.4934033252804
 30
0.0
  0
SPLINE
  5
20D
330
1F
100
AcDbEntity
  8
0
  6
Continuous
 62
     7
370
    15
100
AcDbSpline
210
0.0
220
0.0
230
1.0
 70
     8
 71
     3
 72
    15
 73
    11
 74
     0
 42
0.00000001
 43
0.00000001
 12
1.0
 22
0.0
 32
0.0
 13
1.0
 23
0.0
 33
0.0
 40
0.0
 40
0.0
 40
0.0
 40
0.0
 40
0.0989893587938321
 40
0.2204766711411591
 40
0.3502016957015514
 40
0.4799373338780399
 40
0.6096623574586233
 40
0.7397713343555287
 40
0.8698910212399326
 40
1.0
 40
1.0
 40
1.0
 40
1.0
 10
-179.9954486302189
 20
-216.8385001883975
 30
0.0
 10
-180.1746590875954
 20
-215.531864818889
 30
0.0
 10
-180.5738103252383
 20
-212.6216265854588
 30
0.0
 10
-181.108303291482
 20
-207.9860560893412
 30
0.0
 10
-181.61109198243
 20
-202.9351299228241
 30
0.0
 10
-182.0292621684387
 20
-197.7661364702521
 30
0.0
 10
-182.3561479257418
 20
-192.585338548828
 30
0.0
 10
-182.5881612925175
 20
-187.3942818715203
 30
0.0
 10
-182.733743579797
 20
-182.1946995632953
 30
0.0
 10
-182.7517531706175
 20
-178.7271211756014
 30
0.0
 10
-182.7607575954903
 20
-176.9934033252792
 30
0.0
  0
SPLINE
  5
20E
330
1F
100
AcDbEntity
  8
0
  6
Continuous
 62
     7
370
    15
100
AcDbSpline
210
0.0
220
0.0
230
1.0
 70
     8
 71
     3
 72
    16
 73
    12
 74
     0
 42
0.00000001
 43
0.00000001
 12
1.0
 22
0.0
 32
0.0
 13
1.0
 23
0.0
 33
0.0
 40
0.0
 40
0.0
 40
0.0
 40
0.0
 40
0.0426979030346233
 40
0.14337639696762
 40
0.244682611915129
 40
0.3466166402764516
 40
0.4433751705366855
 40
0.5768120105329277
 40
0.7140616620963526
 40
0.8551242783671502
 40
1.0
 40
1.0
 40
1.0
 40
1.0
 10
-68.74645169100387
 20
-109.2924352379321
 30
0.0
 10
-68.41800344399674
 20
-109.3349649796245
 30
0.0
 10
-67.31509854939267
 20
-109.4777767032557
 30
0.0
 10
-65.43577825760957
 20
-109.742718587513
 30
0.0
 10
-63.10385456651038
 20
-110.0876153580327
 30
0.0
 10
-60.80528537780958
 20
-110.4493853834975
 30
0.0
 10
-58.26407024823138
 20
-110.871349281119
 30
0.0
 10
-55.45741825713564
 20
-111.3659695150639
 30
0.0
 10
-52.31927704917112
 20
-111.9575556419841
 30
0.0
 10
-49.10091724591177
 20
-112.6013693763939
 30
0.0
 10
-46.93354826198716
 20
-113.0703606411316
 30
0.0
 10
-45.83541239153057
 20
-113.3079833692223
 30
0.0
  0
SPLINE
  5
20F
330
1F
100
AcDbEntity
  8
0
  6
Continuous
 62
     7
370
    15
100
AcDbSpline
210
0.0
220
0.0
230
1.0
 70
     8
 71
     3
 72
     8
 73
     4
 74
     0
 42
0.00000001
 43
0.00000001
 12
1.0
 22
0.0
 32
0.0
 13
1.0
 23
0.0
 33
0.0
 40
0.0
 40
0.0
 40
0.0
 40
0.0
 40
1.0
 40
1.0
 40
1.0
 40
1.0
 10
-31.27090696848618
 20
-116.9417018824121
 30
0.0
 10
-36.0927751070323
 20
-115.5952552272122
 30
0.0
 10
-40.94755405254938
 20
-114.3840704049616
 30
0.0
 10
-45.83541239153065
 20
-113.3079833692222
 30
0.0
  0
SPLINE
  5
210
330
1F
100
AcDbEntity
  8
0
  6
Continuous
 62
     7
370
    15
100
AcDbSpline
210
0.0
220
0.0
230
1.0
 70
     8
 71
     3
 72
     8
 73
     4
 74
     0
 42
0.00000001
 43
0.00000001
 12
1.0
 22
0.0
 32
0.0
 13
1.0
 23
0.0
 33
0.0
 40
0.0000069159360225
 40
0.0000069159360225
 40
0.0000069159360225
 40
0.0000069159360225
 40
0.0005559619023244
 40
0.0005559619023244
 40
0.0005559619023244
 40
0.0005559619023244
 10
-31.27090696848614
 20
-116.9417018824122
 30
0.0
 10
-31.27264515177575
 20
-117.0186254434732
 30
0.0
 10
-31.27446390120289
 20
-117.0955292857353
 30
0.0
 10
-31.27636316333572
 20
-117.1724133787332
 30
0.0
  0
SPLINE
  5
211
330
1F
100
AcDbEntity
  8
0
  6
Continuous
 62
     7
370
    15
100
AcDbSpline
210
0.0
220
0.0
230
1.0
 70
     8
 71
     3
 72
    10
 73
     6
 74
     0
 42
0.00000001
 43
0.00000001
 12
1.0
 22
0.0
 32
0.0
 13
1.0
 23
0.0
 33
0.0
 40
0.0
 40
0.0
 40
0.0
 40
0.0
 40
0.437476347464498
 40
0.875638276375853
 40
1.0
 40
1.0
 40
1.0
 40
1.0
 10
-103.8871074795976
 20
-106.9934033252792
 30
0.0
 10
-102.4950333628603
 20
-107.0005313609771
 30
0.0
 10
-99.70870357101654
 20
-107.0147986029174
 30
0.0
 10
-96.52693212250388
 20
-107.0810297175601
 30
0.0
 10
-94.73838724650705
 20
-107.152865093842
 30
0.0
 10
-94.34297894224188
 20
-107.1687463304288
 30
0.0
  0
SPLINE
  5
212
330
1F
100
AcDbEntity
  8
0
  6
Continuous
 62
     7
370
    15
100
AcDbSpline
210
0.0
220
0.0
230
1.0
 70
     8
 71
     3
 72
     9
 73
     5
 74
     0
 42
0.00000001
 43
0.00000001
 12
1.0
 22
0.0
 32
0.0
 13
1.0
 23
0.0
 33
0.0
 40
0.0
 40
0.0
 40
0.0
 40
0.0
 40
0.4204170548806158
 40
1.0
 40
1.0
 40
1.0
 40
1.0
 10
-168.2477127322058
 20
-114.7818367623456
 30
0.0
 10
-167.3658829026461
 20
-114.5655878781861
 30
0.0
 10
-165.2683708742386
 20
-114.0512203432608
 30
0.0
 10
-163.1604927682729
 20
-113.5806929953079
 30
0.0
 10
-161.9388025676646
 20
-113.3079833692222
 30
0.0
  0
SPLINE
  5
213
330
1F
100
AcDbEntity
  8
0
  6
Continuous
 62
     7
370
    15
100
AcDbSpline
210
0.0
220
0.0
230
1.0
 70
     8
 71
     3
 72
    21
 73
    17
 74
     0
 42
0.00000001
 43
0.00000001
 12
1.0
 22
0.0
 32
0.0
 13
1.0
 23
0.0
 33
0.0
 40
0.0
 40
0.0
 40
0.0
 40
0.0
 40
0.0556457249796991
 40
0.1112645765036512
 40
0.1668585832000754
 40
0.2224297743765865
 40
0.2779801798354676
 40
0.3335118296883826
 40
0.3890267541706272
 40
0.4445269834550213
 40
0.5000145474655424
 40
0.5845985145177376
 40
0.7500167871465799
 40
0.8608312455667247
 40
0.9441594111764298
 40
1.0
 40
1.0
 40
1.0
 40
1.0
 10
-161.9388025676646
 20
-113.3079833692223
 30
0.0
 10
-161.4094410701454
 20
-113.1924037561211
 30
0.0
 10
-160.3509737240859
 20
-112.9613003477489
 30
0.0
 10
-158.7610078114569
 20
-112.6268241698263
 30
0.0
 10
-157.1698995610429
 20
-112.3013720551322
 30
0.0
 10
-155.5774566238255
 20
-111.9858056261578
 30
0.0
 10
-153.9837308688948
 20
-111.6798876471943
 30
0.0
 10
-152.3887088420725
 20
-111.3836745468457
 30
0.0
 10
-150.7923943107542
 20
-111.0971462948571
 30
0.0
 10
-149.194787443274
 20
-110.8202951960037
 30
0.0
 10
-147.3163110511989
 20
-110.5064275504807
 30
0.0
 10
-144.3783841562477
 20
-110.0382691350983
 30
0.0
 10
-140.9009516461394
 20
-109.5320980862137
 30
0.0
 10
-137.4284390395054
 20
-109.0801351738067
 30
0.0
 10
-135.0111258798107
 20
-108.7900188280071
 30
0.0
 10
-133.663954711124
 20
-108.6408251767955
 30
0.0
 10
-133.1234107390813
 20
-108.5809621610896
 30
0.0
  0
SPLINE
  5
214
330
1F
100
AcDbEntity
  8
0
  6
Continuous
 62
     7
370
    15
100
AcDbSpline
210
0.0
220
0.0
230
1.0
 70
     8
 71
     3
 72
    21
 73
    17
 74
     0
 42
0.00000001
 43
0.00000001
 12
1.0
 22
0.0
 32
0.0
 13
1.0
 23
0.0
 33
0.0
 40
0.0
 40
0.0
 40
0.0
 40
0.0
 40
0.0555038854966619
 40
0.1110174399021885
 40
0.1665427224749319
 40
0.2220818012437768
 40
0.2776367527982735
 40
0.3332096620758478
 40
0.3888026221461878
 40
0.4444177339929218
 40
0.5000571062927104
 40
0.5847879288154318
 40
0.7499683130110346
 40
0.8610167668392356
 40
0.9443889828588536
 40
1.0
 40
1.0
 40
1.0
 40
1.0
 10
-133.1234107390813
 20
-108.5809621610896
 30
0.0
 10
-132.5845639441167
 20
-108.5232147546955
 30
0.0
 10
-131.5067764857943
 20
-108.4077098821717
 30
0.0
 10
-129.8886276605515
 20
-108.2467634723127
 30
0.0
 10
-128.2692538460477
 20
-108.0948305864688
 30
0.0
 10
-126.6485549022604
 20
-107.9528094038536
 30
0.0
 10
-125.026554961928
 20
-107.8204772156264
 30
0.0
 10
-123.4032448772774
 20
-107.6979111522417
 30
0.0
 10
-121.7786243107947
 20
-107.5851102318581
 30
0.0
 10
-120.1526909775317
 20
-107.4820859656255
 30
0.0
 10
-118.2420959059966
 20
-107.3726481817979
 30
0.0
 10
-115.2621354264533
 20
-107.2245842402504
 30
0.0
 10
-111.7395110270113
 20
-107.0972333078435
 30
0.0
 10
-108.2287504340245
 20
-107.0235686902265
 30
0.0
 10
-105.7873101860618
 20
-106.9968221198912
 30
0.0
 10
-104.4301461617832
 20
-106.9943803461597
 30
0.0
 10
-103.8871074793387
 20
-106.9934033252792
 30
0.0
  0
SPLINE
  5
215
330
1F
100
AcDbEntity
  8
0
  6
Continuous
 62
     7
370
    15
100
AcDbSpline
210
0.0
220
0.0
230
1.0
 70
     8
 71
     3
 72
     8
 73
     4
 74
     0
 42
0.00000001
 43
0.00000001
 12
1.0
 22
0.0
 32
0.0
 13
1.0
 23
0.0
 33
0.0
 40
0.0000069159360225
 40
0.0000069159360225
 40
0.0000069159360225
 40
0.0000069159360225
 40
0.0005559619023244
 40
0.0005559619023244
 40
0.0005559619023244
 40
0.0005559619023244
 10
-31.27090696848614
 20
-237.0451047681462
 30
0.0
 10
-31.27264515177575
 20
-236.9681812070852
 30
0.0
 10
-31.27446390120289
 20
-236.8912773648231
 30
0.0
 10
-31.27636316333572
 20
-236.8143932718252
 30
0.0
  0
SPLINE
  5
216
330
1F
100
AcDbEntity
  8
0
  6
Continuous
 62
     7
370
    15
100
AcDbSpline
210
0.0
220
0.0
230
1.0
 70
     8
 71
     3
 72
     8
 73
     4
 74
     0
 42
0.00000001
 43
0.00000001
 12
1.0
 22
0.0
 32
0.0
 13
1.0
 23
0.0
 33
0.0
 40
0.0
 40
0.0
 40
0.0
 40
0.0
 40
1.0
 40
1.0
 40
1.0
 40
1.0
 10
-31.27090696848618
 20
-237.0451047681463
 30
0.0
 10
-36.0927751070323
 20
-238.3915514233462
 30
0.0
 10
-40.94755405254938
 20
-239.6027362455968
 30
0.0
 10
-45.83541239153065
 20
-240.6788232813362
 30
0.0
  0
SPLINE
  5
217
330
1F
100
AcDbEntity
  8
0
  6
Continuous
 62
     7
370
    15
100
AcDbSpline
210
0.0
220
0.0
230
1.0
 70
     8
 71
     3
 72
    16
 73
    12
 74
     0
 42
0.00000001
 43
0.00000001
 12
1.0
 22
0.0
 32
0.0
 13
1.0
 23
0.0
 33
0.0
 40
0.0
 40
0.0
 40
0.0
 40
0.0
 40
0.0426979030346637
 40
0.1433763969676615
 40
0.2446826119151602
 40
0.3466166402764831
 40
0.4433751705367035
 40
0.5768120105329362
 40
0.714061662096357
 40
0.8551242783671555
 40
1.0
 40
1.0
 40
1.0
 40
1.0
 10
-68.7464516910049
 20
-244.6943714126265
 30
0.0
 10
-68.41800344399745
 20
-244.651841670934
 30
0.0
 10
-67.31509854939304
 20
-244.5090299473028
 30
0.0
 10
-65.4357782576096
 20
-244.2440880630455
 30
0.0
 10
-63.10385456651038
 20
-243.8991912925257
 30
0.0
 10
-60.80528537780969
 20
-243.5374212670609
 30
0.0
 10
-58.26407024823154
 20
-243.1154573694394
 30
0.0
 10
-55.45741825713587
 20
-242.6208371354946
 30
0.0
 10
-52.31927704917133
 20
-242.0292510085744
 30
0.0
 10
-49.10091724591192
 20
-241.3854372741645
 30
0.0
 10
-46.93354826198725
 20
-240.9164460094268
 30
0.0
 10
-45.83541239153064
 20
-240.6788232813361
 30
0.0
  0
SPLINE
  5
218
330
1F
100
AcDbEntity
  8
0
  6
Continuous
 62
     7
370
    15
100
AcDbSpline
210
0.0
220
0.0
230
1.0
 70
     8
 71
     3
 72
    10
 73
     6
 74
     0
 42
0.00000001
 43
0.00000001
 12
1.0
 22
0.0
 32
0.0
 13
1.0
 23
0.0
 33
0.0
 40
0.0
 40
0.0
 40
0.0
 40
0.0
 40
0.437476347464573
 40
0.8756382763759795
 40
1.0
 40
1.0
 40
1.0
 40
1.0
 10
-103.8871074795976
 20
-246.9934033252792
 30
0.0
 10
-102.4950333628603
 20
-246.9862752895813
 30
0.0
 10
-99.70870357101657
 20
-246.9720080476411
 30
0.0
 10
-96.52693212250435
 20
-246.9057769329984
 30
0.0
 10
-94.738387246508
 20
-246.8339415567165
 30
0.0
 10
-94.3429789422433
 20
-246.8180603201297
 30
0.0
  0
SPLINE
  5
219
330
1F
100
AcDbEntity
  8
0
  6
Continuous
 62
     7
370
    15
100
AcDbSpline
210
0.0
220
0.0
230
1.0
 70
     8
 71
     3
 72
    21
 73
    17
 74
     0
 42
0.00000001
 43
0.00000001
 12
1.0
 22
0.0
 32
0.0
 13
1.0
 23
0.0
 33
0.0
 40
0.0
 40
0.0
 40
0.0
 40
0.0
 40
0.0586556703080709
 40
0.1165366648143981
 40
0.1736429973733405
 40
0.2299746824163267
 40
0.2855317349840356
 40
0.3403141707606763
 40
0.3943220061108824
 40
0.4475552581192077
 40
0.5000139446324798
 40
0.6015734218934466
 40
0.7023516203394631
 40
0.8023486839775416
 40
0.9015647602216208
 40
1.0
 40
1.0
 40
1.0
 40
1.0
 10
-161.9388025676647
 20
-240.6788232813361
 30
0.0
 10
-161.3807947404615
 20
-240.8006013195957
 30
0.0
 10
-160.2721487940243
 20
-241.0425490520465
 30
0.0
 10
-158.6173645777376
 20
-241.3898317423726
 30
0.0
 10
-156.9827676865829
 20
-241.7230461986654
 30
0.0
 10
-155.3682952277665
 20
-242.0416497976599
 30
0.0
 10
-153.7741421036736
 20
-242.3462832342518
 30
0.0
 10
-152.2004279844458
 20
-242.6372710400257
 30
0.0
 10
-150.647285254653
 20
-242.9150156969581
 30
0.0
 10
-149.1148349580409
 20
-243.1798920557854
 30
0.0
 10
-147.1241322310135
 20
-243.5122695140348
 30
0.0
 10
-144.6733347077577
 20
-243.9004669980598
 30
0.0
 10
-141.7603699941527
 20
-244.3294059332978
 30
0.0
 10
-138.8653987125012
 20
-244.7230062430911
 30
0.0
 10
-135.9891738790485
 20
-245.0847714100521
 30
0.0
 10
-134.0761459318959
 20
-245.2991023732208
 30
0.0
 10
-133.1234107390813
 20
-245.4058444894688
 30
0.0
  0
SPLINE
  5
21A
330
1F
100
AcDbEntity
  8
0
  6
Continuous
 62
     7
370
    15
100
AcDbSpline
210
0.0
220
0.0
230
1.0
 70
     8
 71
     3
 72
     9
 73
     5
 74
     0
 42
0.00000001
 43
0.00000001
 12
1.0
 22
0.0
 32
0.0
 13
1.0
 23
0.0
 33
0.0
 40
0.0
 40
0.0
 40
0.0
 40
0.0
 40
0.4204170548807205
 40
0.9999999999999999
 40
0.9999999999999999
 40
0.9999999999999999
 40
0.9999999999999999
 10
-168.2477127322069
 20
-239.2049698882126
 30
0.0
 10
-167.3658829026468
 20
-239.4212187723721
 30
0.0
 10
-165.268370874239
 20
-239.9355863072975
 30
0.0
 10
-163.1604927682729
 20
-240.4061136552505
 30
0.0
 10
-161.9388025676646
 20
-240.6788232813362
 30
0.0
  0
SPLINE
  5
21B
330
1F
100
AcDbEntity
  8
0
  6
Continuous
 62
     7
370
    15
100
AcDbSpline
210
0.0
220
0.0
230
1.0
 70
     8
 71
     3
 72
    21
 73
    17
 74
     0
 42
0.00000001
 43
0.00000001
 12
1.0
 22
0.0
 32
0.0
 13
1.0
 23
0.0
 33
0.0
 40
0.0
 40
0.0
 40
0.0
 40
0.0
 40
0.0570468701304606
 40
0.1137223992238807
 40
0.1700266213305467
 40
0.2259595711794801
 40
0.2815212841965111
 40
0.3367117965229796
 40
0.3915311450349248
 40
0.4459793673632149
 40
0.5000565019140283
 40
0.6002649490888757
 40
0.7003632677687224
 40
0.8003517122499513
 40
0.9002305376681707
 40
1.0
 40
1.0
 40
1.0
 40
1.0
 10
-133.1234107390813
 20
-245.4058444894688
 30
0.0
 10
-132.5695804968832
 20
-245.4651688795882
 30
0.0
 10
-131.4655251164305
 20
-245.5834314934959
 30
0.0
 10
-129.8134818715317
 20
-245.7473244274943
 30
0.0
 10
-128.1713543692828
 20
-245.9008103245519
 30
0.0
 10
-126.5391200593243
 20
-246.0431581976378
 30
0.0
 10
-124.9168833856689
 20
-246.1748047505432
 30
0.0
 10
-123.3047119297736
 20
-246.2958758211756
 30
0.0
 10
-121.7026801842707
 20
-246.4065792290966
 30
0.0
 10
-120.1108570359819
 20
-246.5070982646582
 30
0.0
 10
-118.0759754313437
 20
-246.6235779663778
 30
0.0
 10
-115.5948982929842
 20
-246.7447368663017
 30
0.0
 10
-112.6646303135326
 20
-246.8560967484507
 30
0.0
 10
-109.7365211829468
 20
-246.9349456077681
 30
0.0
 10
-106.8109204782438
 20
-246.9842658312829
 30
0.0
 10
-104.8613558357956
 20
-246.9903586064447
 30
0.0
 10
-103.8871074795977
 20
-246.9934033252792
 30
0.0
  0
SPLINE
  5
21C
330
1F
100
AcDbEntity
  8
0
  6
Continuous
 62
     7
370
    15
100
AcDbSpline
210
0.0
220
0.0
230
1.0
 70
     8
 71
     3
 72
     8
 73
     4
 74
     0
 42
0.00000001
 43
0.00000001
 12
1.0
 22
0.0
 32
0.0
 13
1.0
 23
0.0
 33
0.0
 40
0.0
 40
0.0
 40
0.0
 40
0.0
 40
1.0
 40
1.0
 40
1.0
 40
1.0
 10
-188.7167715217157
 20
-167.4835546349604
 30
0.0
 10
-188.8227046874524
 20
-170.6564905028665
 30
0.0
 10
-188.8754775036481
 20
-173.8273192845029
 30
0.0
 10
-188.8754775036481
 20
-176.9934033252792
 30
0.0
  0
LINE
  5
21D
330
1F
100
AcDbEntity
  8
0
  6
Continuous
 62
     7
370
    15
100
AcDbLine
 10
-31.7652952708
 20
-116.8041564227
 30
0.0
 11
-31.3390215321
 21
-116.9231908393
 31
0.0
  0
SPLINE
  5
21E
330
1F
100
AcDbEntity
  8
0
  6
Continuous
 62
     7
370
    15
100
AcDbSpline
210
0.0
220
0.0
230
1.0
 70
     8
 71
     3
 72
    18
 73
    14
 74
     0
 42
0.00000001
 43
0.00000001
 12
1.0
 22
0.0
 32
0.0
 13
1.0
 23
0.0
 33
0.0
 40
0.0
 40
0.0
 40
0.0
 40
0.0
 40
0.0769314956542565
 40
0.1661443314219248
 40
0.255357173112481
 40
0.3446989551721818
 40
0.4340407500962608
 40
0.5234251224344446
 40
0.6128095094664232
 40
0.7095744451851775
 40
0.8063525443885677
 40
0.9031698159062291
 40
0.9999999999999999
 40
0.9999999999999999
 40
0.9999999999999999
 40
0.9999999999999999
 10
-24.83809902314538
 20
-118.8243567689482
 30
0.0
 10
-24.84259901081545
 20
-118.8229807990092
 30
0.0
 10
-24.85231736396194
 20
-118.820009199359
 30
0.0
 10
-24.99289179468973
 20
-118.7769793761418
 30
0.0
 10
-25.23348313276061
 20
-118.7035756442003
 30
0.0
 10
-25.58024707193701
 20
-118.5981663362093
 30
0.0
 10
-26.02964472143399
 20
-118.4623546688013
 30
0.0
 10
-26.58219249338131
 20
-118.2964995488739
 30
0.0
 10
-27.25561165750587
 20
-118.0961191384682
 30
0.0
 10
-28.05898811942836
 20
-117.859475812555
 30
0.0
 10
-29.00535938411873
 20
-117.5843815355646
 30
0.0
 10
-30.06270665755254
 20
-117.2809201844524
 30
0.0
 10
-30.86815562883548
 20
-117.0547796761724
 30
0.0
 10
-31.27090696848622
 20
-116.9417018824121
 30
0.0
  0
SPLINE
  5
21F
330
1F
100
AcDbEntity
  8
0
  6
Continuous
 62
     7
370
    15
100
AcDbSpline
210
0.0
220
0.0
230
1.0
 70
     8
 71
     3
 72
    23
 73
    19
 74
     0
 42
0.00000001
 43
0.00000001
 12
1.0
 22
0.0
 32
0.0
 13
1.0
 23
0.0
 33
0.0
 40
0.0
 40
0.0
 40
0.0
 40
0.0
 40
0.0547416516609817
 40
0.1002451626615892
 40
0.1457486854559875
 40
0.2337621250627393
 40
0.3223838320206584
 40
0.4129207975182821
 40
0.4585299357346114
 40
0.5041390820219722
 40
0.5924321985686392
 40
0.6813362985119215
 40
0.7267617965721439
 40
0.7721872922666371
 40
0.8179458349556589
 40
0.8637043706340599
 40
0.952144268551476
 40
1.0
 40
1.0
 40
1.0
 40
1.0
 10
-19.11519552411767
 20
-164.4934033252799
 30
0.0
 10
-19.12872098096488
 20
-164.1871649319194
 30
0.0
 10
-19.15348935350357
 20
-163.6263685981557
 30
0.0
 10
-19.19427187278426
 20
-162.8004909971378
 30
0.0
 10
-19.24649293600156
 20
-161.7840909346162
 30
0.0
 10
-19.31647252924282
 20
-160.5185498159816
 30
0.0
 10
-19.40781297059323
 20
-159.0020909680537
 30
0.0
 10
-19.49027474418827
 20
-157.739334681284
 30
0.0
 10
-19.5598724328047
 20
-156.7323268798822
 30
0.0
 10
-19.63037234358672
 20
-155.7485882086306
 30
0.0
 10
-19.72077060487884
 20
-154.5502916463823
 30
0.0
 10
-19.81390075001135
 20
-153.391679819829
 30
0.0
 10
-19.89012571461726
 20
-152.4850064254013
 30
0.0
 10
-19.94840803860039
 20
-151.8119131377972
 30
0.0
 10
-20.00701566811416
 20
-151.1540292317397
 30
0.0
 10
-20.08391675910561
 20
-150.3158079373055
 30
0.0
 10
-20.1616925615207
 20
-149.4949687454821
 30
0.0
 10
-20.21811826494579
 20
-148.936995191854
 30
0.0
 10
-20.23793029650148
 20
-148.7410811140363
 30
0.0
  0
LINE
  5
220
330
1F
100
AcDbEntity
  8
0
  6
Continuous
 62
     7
370
    15
100
AcDbLine
 10
-31.7652952708
 20
-237.1826502278
 30
0.0
 11
-31.3390215323
 21
-237.0636158113
 31
0.0
  0
SPLINE
  5
221
330
1F
100
AcDbEntity
  8
0
  6
Continuous
 62
     7
370
    15
100
AcDbSpline
210
0.0
220
0.0
230
1.0
 70
     8
 71
     3
 72
    18
 73
    14
 74
     0
 42
0.00000001
 43
0.00000001
 12
1.0
 22
0.0
 32
0.0
 13
1.0
 23
0.0
 33
0.0
 40
0.0
 40
0.0
 40
0.0
 40
0.0
 40
0.0769314564676446
 40
0.1661442960226253
 40
0.2553571415004941
 40
0.3446989273529813
 40
0.4340407260698473
 40
0.5234251022026257
 40
0.6128094930291995
 40
0.7095744328558721
 40
0.8063525361677396
 40
0.9031698117955411
 40
1.0
 40
1.0
 40
1.0
 40
1.0
 10
-24.83809904026647
 20
-235.1624498868489
 30
0.0
 10
-24.84259902706872
 20
-235.1638258565232
 30
0.0
 10
-24.85231738122057
 20
-235.1667974564821
 30
0.0
 10
-24.99289179642843
 20
-235.2098272749489
 30
0.0
 10
-25.23348313229398
 20
-235.2832310062154
 30
0.0
 10
-25.58024707206214
 20
-235.3886403143875
 30
0.0
 10
-26.02964472140043
 20
-235.5244519817468
 30
0.0
 10
-26.58219249339032
 20
-235.6903071016872
 30
0.0
 10
-27.25561165750323
 20
-235.8906875120894
 30
0.0
 10
-28.05898811942913
 20
-236.1273308380036
 30
0.0
 10
-29.0053593841185
 20
-236.4024251149938
 30
0.0
 10
-30.06270665755259
 20
-236.705886466106
 30
0.0
 10
-30.86815562883549
 20
-236.932026974386
 30
0.0
 10
-31.27090696848622
 20
-237.0451047681463
 30
0.0
  0
SPLINE
  5
222
330
1F
100
AcDbEntity
  8
0
  6
Continuous
 62
     7
370
    15
100
AcDbSpline
210
0.0
220
0.0
230
1.0
 70
     8
 71
     3
 72
     8
 73
     4
 74
     0
 42
0.00000001
 43
0.00000001
 12
1.0
 22
0.0
 32
0.0
 13
1.0
 23
0.0
 33
0.0
 40
0.0
 40
0.0
 40
0.0
 40
0.0
 40
1.0
 40
1.0
 40
1.0
 40
1.0
 10
-188.7167715217157
 20
-186.503252015598
 30
0.0
 10
-188.8227046874524
 20
-183.3303161476919
 30
0.0
 10
-188.8754775036481
 20
-180.1594873660555
 30
0.0
 10
-188.8754775036481
 20
-176.9934033252792
 30
0.0
  0
SPLINE
  5
223
330
1F
100
AcDbEntity
  8
0
  6
Continuous
 62
     7
370
    15
100
AcDbSpline
210
0.0
220
0.0
230
1.0
 70
     8
 71
     3
 72
    10
 73
     6
 74
     0
 42
0.00000001
 43
0.00000001
 12
1.0
 22
0.0
 32
0.0
 13
1.0
 23
0.0
 33
0.0
 40
0.0
 40
0.0
 40
0.0
 40
0.0
 40
0.5
 40
0.5
 40
1.0
 40
1.0
 40
1.0
 40
1.0
 10
-114.3751744688174
 20
-248.7911230560302
 30
0.0
 10
-114.3009330127832
 20
-248.7939878680125
 30
0.0
 10
-114.2282612470114
 20
-248.7967592259244
 30
0.0
 10
-114.1060360171128
 20
-248.801381941874
 30
0.0
 10
-114.0571493265839
 20
-248.8032100986968
 30
0.0
 10
-114.0287196441254
 20
-248.8042708466208
 30
0.0
  0
ARC
  5
224
330
1F
100
AcDbEntity
  8
0
  6
Continuous
 62
     7
370
    15
100
AcDbCircle
 10
-103.8871074796
 20
23.0065966747
 30
0.0
 40
272.0000000000114
100
AcDbArc
 50
262.3705102806
 51
267.7901802129
  0
LINE
  5
225
330
1F
100
AcDbEntity
  8
0
  6
Continuous
 62
     7
370
    15
100
AcDbLine
 10
-65.3746074796
 20
-244.2325983243
 30
0.0
 11
-65.3746074796
 21
-246.2531057387
 31
0.0
  0
SPLINE
  5
226
330
1F
100
AcDbEntity
  8
0
  6
Continuous
 62
     7
370
    15
100
AcDbSpline
210
0.0
220
0.0
230
1.0
 70
     8
 71
     3
 72
    10
 73
     6
 74
     0
 42
0.00000001
 43
0.00000001
 12
1.0
 22
0.0
 32
0.0
 13
1.0
 23
0.0
 33
0.0
 40
0.0
 40
0.0
 40
0.0
 40
0.0
 40
0.5
 40
0.5
 40
1.0
 40
1.0
 40
1.0
 40
1.0
 10
-65.74960747959766
 20
-246.3064759633451
 30
0.0
 10
-65.65105599053217
 20
-246.2925200592465
 30
0.0
 10
-65.55458103673776
 20
-246.2787952947564
 30
0.0
 10
-65.41581872577837
 20
-246.2590061290309
 30
0.0
 10
-65.37460747959669
 20
-246.253105738674
 30
0.0
 10
-65.37460747959659
 20
-246.253105738674
 30
0.0
  0
LINE
  5
227
330
1F
100
AcDbEntity
  8
0
  6
Continuous
 62
     7
370
    15
100
AcDbLine
 10
-68.1182856576
 20
-246.6312926982
 30
0.0
 11
-65.7496074796
 21
-246.3064759633
 31
0.0
  0
LINE
  5
228
330
1F
100
AcDbEntity
  8
0
  6
Continuous
 62
     7
370
    15
100
AcDbLine
 10
-93.7454953151
 20
-248.8042708466
 30
0.0
 11
-93.6981953443
 21
-248.8025001844
 31
0.0
  0
LINE
  5
229
330
1F
100
AcDbEntity
  8
0
  6
Continuous
 62
     7
370
    15
100
AcDbLine
 10
-140.3746074796
 20
-244.5166029618
 30
0.0
 11
-140.3746074796
 21
-246.5349814607
 31
0.0
  0
SPLINE
  5
22A
330
1F
100
AcDbEntity
  8
0
  6
Continuous
 62
     7
370
    15
100
AcDbSpline
210
0.0
220
0.0
230
1.0
 70
     8
 71
     3
 72
    10
 73
     6
 74
     0
 42
0.00000001
 43
0.00000001
 12
1.0
 22
0.0
 32
0.0
 13
1.0
 23
0.0
 33
0.0
 40
0.0
 40
0.0
 40
0.0
 40
0.0
 40
0.5
 40
0.5
 40
1.0
 40
1.0
 40
1.0
 40
1.0
 10
-140.3746074795976
 20
-246.5349814607426
 30
0.0
 10
-140.3746074795976
 20
-246.5349814607426
 30
0.0
 10
-140.3335339703958
 20
-246.5405474028603
 30
0.0
 10
-140.1950136915014
 20
-246.5592409806412
 30
0.0
 10
-140.0981946976723
 20
-246.5722731506474
 30
0.0
 10
-139.9996074795946
 20
-246.5854791430788
 30
0.0
  0
ARC
  5
22B
330
1F
100
AcDbEntity
  8
0
  6
Continuous
 62
     7
370
    15
100
AcDbCircle
 10
-103.8871074796
 20
23.0065966747
 30
0.0
 40
272.0000000000114
100
AcDbArc
 50
267.8632121591
 51
269.9270205713
  0
ARC
  5
22C
330
1F
100
AcDbEntity
  8
0
  6
Continuous
 62
     7
370
    15
100
AcDbCircle
 10
-103.8871074796
 20
23.0065966747
 30
0.0
 40
272.0000000000359
100
AcDbArc
 50
270.0729794287
 51
272.1367878409
  0
ARC
  5
22D
330
1F
100
AcDbEntity
  8
0
  6
Continuous
 62
     7
370
    15
100
AcDbCircle
 10
-103.8871074796
 20
23.0065966747
 30
0.0
 40
272.0
100
AcDbArc
 50
261.8659358348
 51
262.2908049471
  0
SPLINE
  5
22E
330
1F
100
AcDbEntity
  8
0
  6
Continuous
 62
     7
370
    15
100
AcDbSpline
210
0.0
220
0.0
230
1.0
 70
     8
 71
     3
 72
    14
 73
    10
 74
     0
 42
0.00000001
 43
0.00000001
 12
1.0
 22
0.0
 32
0.0
 13
1.0
 23
0.0
 33
0.0
 40
0.0
 40
0.0
 40
0.0
 40
0.0
 40
0.25
 40
0.25
 40
0.5
 40
0.5
 40
0.75
 40
0.75
 40
1.0
 40
1.0
 40
1.0
 40
1.0
 10
-104.2335623042894
 20
-248.9931826800806
 30
0.0
 10
-104.2051157954823
 20
-248.9932189133093
 30
0.0
 10
-104.1566723786813
 20
-248.9932766175946
 30
0.0
 10
-104.034422335898
 20
-248.9933703006513
 30
0.0
 10
-103.9604010864277
 20
-248.9934033214851
 30
0.0
 10
-103.8138420365591
 20
-248.9934033290727
 30
0.0
 10
-103.7398548604418
 20
-248.9933703416785
 30
0.0
 10
-103.6175396289102
 20
-248.9932766219961
 30
0.0
 10
-103.5690991637065
 20
-248.993218913298
 30
0.0
 10
-103.5406526549059
 20
-248.9931826800692
 30
0.0
  0
SPLINE
  5
22F
330
1F
100
AcDbEntity
  8
0
  6
Continuous
 62
     7
370
    15
100
AcDbSpline
210
0.0
220
0.0
230
1.0
 70
     8
 71
     3
 72
     9
 73
     5
 74
     0
 42
0.00000001
 43
0.00000001
 12
1.0
 22
0.0
 32
0.0
 13
1.0
 23
0.0
 33
0.0
 40
0.0
 40
0.0
 40
0.0
 40
0.0
 40
0.3148749938998729
 40
0.9999999999999999
 40
0.9999999999999999
 40
0.9999999999999999
 40
0.9999999999999999
 10
-142.3959804284732
 20
-246.2536244814604
 30
0.0
 10
-142.397379403256
 20
-246.2534244313354
 30
0.0
 10
-142.4018223562052
 20
-246.2527890994452
 30
0.0
 10
-142.3843238247557
 20
-246.255291003414
 30
0.0
 10
-142.3723351432896
 20
-246.2570051203859
 30
0.0
  0
LINE
  5
230
330
1F
100
AcDbEntity
  8
0
  6
Continuous
 62
     7
370
    15
100
AcDbLine
 10
-45.8871074796
 20
-100.4934033253
 30
0.0
 11
-65.8874729148
 21
-100.4934033253
 31
0.0
  0
LINE
  5
231
330
1F
100
AcDbEntity
  8
0
  6
Continuous
 62
     7
370
    15
100
AcDbLine
 10
-92.1740285208
 20
-100.4934033253
 30
0.0
 11
-161.8871074796
 21
-100.4934033253
 31
0.0
  0
LINE
  5
232
330
1F
100
AcDbEntity
  8
0
  6
Continuous
 62
     7
370
    15
100
AcDbLine
 10
-45.8871074796
 20
-113.2966077437
 30
0.0
 11
-45.8871074796
 21
-100.4934033253
 31
0.0
  0
LINE
  5
233
330
1F
100
AcDbEntity
  8
0
  6
Continuous
 62
     7
370
    15
100
AcDbLine
 10
-161.8871074796
 20
-113.2966077437
 30
0.0
 11
-161.8871074796
 21
-100.4934033253
 31
0.0
  0
LINE
  5
234
330
1F
100
AcDbEntity
  8
0
  6
Continuous
 62
     7
370
    15
100
AcDbLine
 10
-45.8871074796
 20
-253.4934033253
 30
0.0
 11
-65.8874729148
 21
-253.4934033253
 31
0.0
  0
LINE
  5
235
330
1F
100
AcDbEntity
  8
0
  6
Continuous
 62
     7
370
    15
100
AcDbLine
 10
-92.1740285208
 20
-253.4934033253
 30
0.0
 11
-161.8871074796
 21
-253.4934033253
 31
0.0
  0
LINE
  5
236
330
1F
100
AcDbEntity
  8
0
  6
Continuous
 62
     7
370
    15
100
AcDbLine
 10
-161.8871074796
 20
-240.6901989069
 30
0.0
 11
-161.8871074796
 21
-253.4934033253
 31
0.0
  0
LINE
  5
237
330
1F
100
AcDbEntity
  8
0
  6
Continuous
 62
     7
370
    15
100
AcDbLine
 10
-45.8871074796
 20
-240.6901989069
 30
0.0
 11
-45.8871074796
 21
-253.4934033253
 31
0.0
  0
LINE
  5
238
330
1F
100
AcDbEntity
  8
0
  6
Continuous
 62
     7
370
    15
100
AcDbLine
 10
-208.1871074796
 20
-176.9934033253
 30
0.0
 11
-207.9512724728
 21
-185.9995788823
 31
0.0
  0
LINE
  5
239
330
1F
100
AcDbEntity
  8
0
  6
Continuous
 62
     7
370
    15
100
AcDbLine
 10
-208.1871074796
 20
-176.9934033253
 30
0.0
 11
-207.9512724728
 21
-167.9872277683
 31
0.0
  0
LINE
  5
23A
330
1F
100
AcDbEntity
  8
0
  6
Continuous
 62
     7
370
    15
100
AcDbLine
 10
-188.7167715217
 20
-167.483554635
 30
0.0
 11
-207.9512724728
 21
-167.9872277683
 31
0.0
  0
LINE
  5
23B
330
1F
100
AcDbEntity
  8
0
  6
Continuous
 62
     7
370
    15
100
AcDbLine
 10
-188.7167715217
 20
-186.5032520156
 30
0.0
 11
-207.9512724728
 21
-185.9995788823
 31
0.0
  0
LINE
  5
23C
330
1F
100
AcDbEntity
  8
0
  6
Continuous
 62
     7
370
    15
100
AcDbLine
 10
-15.1705853744
 20
-150.4678192787
 30
0.0
 11
-14.8871074796
 21
-150.5752916288
 31
0.0
  0
SPLINE
  5
23D
330
1F
100
AcDbEntity
  8
0
  6
Continuous
 62
     7
370
    15
100
AcDbSpline
210
0.0
220
0.0
230
1.0
 70
     8
 71
     3
 72
    29
 73
    25
 74
     0
 42
0.00000001
 43
0.00000001
 12
1.0
 22
0.0
 32
0.0
 13
1.0
 23
0.0
 33
0.0
 40
0.0
 40
0.0
 40
0.0
 40
0.0
 40
0.0012337363568379
 40
0.050262123831962
 40
0.0975893090925891
 40
0.1452449627741764
 40
0.1939366060227681
 40
0.2429862546034533
 40
0.2903210869055569
 40
0.3379847190366953
 40
0.3866856045879926
 40
0.4357450106445628
 40
0.4830632351919024
 40
0.5307101886387927
 40
0.5793940777313785
 40
0.6284363263134541
 40
0.6757379918799862
 40
0.7233681452716699
 40
0.7720343456202053
 40
0.8210585465216065
 40
0.8683556620329715
 40
0.9159811504050557
 40
0.9646422630885326
 40
1.0
 40
1.0
 40
1.0
 40
1.0
 10
-15.13555377870949
 20
-164.4934033252799
 30
0.0
 10
-15.13548832161621
 20
-164.4809441753206
 30
0.0
 10
-15.13282161530583
 20
-163.9733613885927
 30
0.0
 10
-15.13017257950629
 20
-162.9647778521835
 30
0.0
 10
-15.12804472793754
 20
-161.4764075750284
 30
0.0
 10
-15.12924292013675
 20
-159.9871478542973
 30
0.0
 10
-15.13340685755118
 20
-158.4901056073728
 30
0.0
 10
-15.14047385828875
 20
-157.0163790922009
 30
0.0
 10
-15.15002988166939
 20
-155.5836360236501
 30
0.0
 10
-15.16174422915471
 20
-154.1940881616689
 30
0.0
 10
-15.17548448503524
 20
-152.8385657246751
 30
0.0
 10
-15.19074599407659
 20
-151.5474454083396
 30
0.0
 10
-15.20709382756919
 20
-150.3349383130422
 30
0.0
 10
-15.22430328360543
 20
-149.2019015578814
 30
0.0
 10
-15.24239960419796
 20
-148.1416786195352
 30
0.0
 10
-15.2609192296223
 20
-147.179156775243
 30
0.0
 10
-15.27957111326468
 20
-146.3237413093707
 30
0.0
 10
-15.29828290700298
 20
-145.5748014426481
 30
0.0
 10
-15.31719237769175
 20
-144.9291131318129
 30
0.0
 10
-15.33590451849846
 20
-144.4036221791786
 30
0.0
 10
-15.35422939332898
 20
-144.000405647187
 30
0.0
 10
-15.37214553022881
 20
-143.7230180967395
 30
0.0
 10
-15.38824464712524
 20
-143.5671380299181
 30
0.0
 10
-15.39812331503092
 20
-143.5631464140231
 30
0.0
 10
-15.4022805647734
 20
-143.5614666182946
 30
0.0
  0
LINE
  5
23E
330
1F
100
AcDbEntity
  8
0
  6
Continuous
 62
     7
370
    15
100
AcDbLine
 10
-14.8871074796
 20
-150.5752916288
 30
0.0
 11
-14.8871074796
 21
-164.4942571688
 31
0.0
  0
CIRCLE
  5
23F
330
1F
100
AcDbEntity
  8
0
  6
Continuous
 62
     7
370
    15
100
AcDbCircle
 10
-103.8871074796
 20
-310.4934033253
 30
0.0
 40
9.500000000000014
  0
ARC
  5
240
330
1F
100
AcDbEntity
  8
0
  6
Continuous
 62
     7
370
    15
100
AcDbCircle
 10
-237.3871074796
 20
-176.9934033253
 30
0.0
 40
9.500000000000025
100
AcDbArc
 50
24.9010623704
 51
165.2633562775
  0
ARC
  5
241
330
1F
100
AcDbEntity
  8
0
  6
Continuous
 62
     7
370
    15
100
AcDbCircle
 10
-237.3871074796
 20
-176.9934033253
 30
0.0
 40
9.500000000000007
100
AcDbArc
 50
194.7366437225
 51
335.0989376296
  0
CIRCLE
  5
242
330
1F
100
AcDbEntity
  8
0
  6
Continuous
 62
     7
370
    15
100
AcDbCircle
 10
-103.8871074796
 20
-43.4934033253
 30
0.0
 40
9.5
  0
CIRCLE
  5
243
330
1F
100
AcDbEntity
  8
0
  6
Continuous
 62
     8
370
     0
100
AcDbCircle
 10
-103.8871074796
 20
-176.9934033253
 30
0.0
 40
165.4999999999999
  0
CIRCLE
  5
244
330
1F
100
AcDbEntity
  8
0
  6
Continuous
 62
     8
370
     0
100
AcDbCircle
 10
-103.8871074796
 20
-176.9934033253
 30
0.0
 40
169.0
  0
CIRCLE
  5
245
330
1F
100
AcDbEntity
  8
0
  6
Continuous
 62
     8
370
     0
100
AcDbCircle
 10
-103.8871074796
 20
-176.9934033253
 30
0.0
 40
153.5973876316414
  0
ARC
  5
246
330
1F
100
AcDbEntity
  8
0
  6
Continuous
 62
     8
370
     0
100
AcDbCircle
 10
-103.8871074796
 20
-176.9934033253
 30
0.0
 40
43.41802928496361
100
AcDbArc
 50
55.2677959916
 51
88.7322040084
  0
ARC
  5
247
330
1F
100
AcDbEntity
  8
0
  6
Continuous
 62
     8
370
     0
100
AcDbCircle
 10
-103.8871074796
 20
-176.9934033253
 30
0.0
 40
43.41802928496362
100
AcDbArc
 50
127.2677959916
 51
160.7322040084
  0
ARC
  5
248
330
1F
100
AcDbEntity
  8
0
  6
Continuous
 62
     8
370
     0
100
AcDbCircle
 10
-103.8871074796
 20
-176.9934033253
 30
0.0
 40
43.41802928496361
100
AcDbArc
 50
199.2677959916
 51
232.7322040084
  0
ARC
  5
249
330
1F
100
AcDbEntity
  8
0
  6
Continuous
 62
     8
370
     0
100
AcDbCircle
 10
-103.8871074796
 20
-176.9934033253
 30
0.0
 40
43.4180292849636
100
AcDbArc
 50
271.2677959916
 51
304.7322040084
  0
ARC
  5
24A
330
1F
100
AcDbEntity
  8
0
  6
Continuous
 62
     8
370
     0
100
AcDbCircle
 10
-103.8871074796
 20
-176.9934033253
 30
0.0
 40
43.41802928496362
100
AcDbArc
 50
343.2677959916
 51
16.7322040084
  0
CIRCLE
  5
24B
330
1F
100
AcDbEntity
  8
0
  6
Continuous
 62
     8
370
     0
100
AcDbCircle
 10
-103.8871074796
 20
-176.9934033253
 30
0.0
 40
37.72015926518363
  0
LINE
  5
24C
330
1F
100
AcDbEntity
  8
0
  6
Continuous
 62
     8
370
     0
100
AcDbLine
 10
-168.9371074796
 20
-176.9934033253
 30
0.0
 11
-182.7607575955
 21
-176.9934033253
 31
0.0
  0
LINE
  5
24D
330
1F
100
AcDbEntity
  8
0
  6
Continuous
 62
     8
370
     0
100
AcDbLine
 10
-103.8871074796
 20
-106.9934033253
 30
0.0
 11
-103.8871074796
 21
-121.0434033253
 31
0.0
  0
LINE
  5
24E
330
1F
100
AcDbEntity
  8
0
  6
Continuous
 62
     8
370
     0
100
AcDbLine
 10
-103.8871074796
 20
-246.9934033253
 30
0.0
 11
-103.8871074796
 21
-232.9434033253
 31
0.0
  0
SPLINE
  5
24F
330
1F
100
AcDbEntity
  8
0
  6
Continuous
 62
     8
370
     0
100
AcDbSpline
210
0.0
220
0.0
230
1.0
 70
    24
 71
     3
 72
     8
 73
     4
 74
     0
 42
0.00000001
 43
0.00000001
 12
1.0
 22
0.0
 32
0.0
 13
1.0
 23
0.0
 33
0.0
 40
0.0
 40
0.0
 40
0.0
 40
0.0
 40
1.0
 40
1.0
 40
1.0
 40
1.0
 10
-182.7607575954903
 20
-176.9934033252792
 30
0.0
 10
-186.4434469628258
 20
-176.9934033252792
 30
0.0
 10
-188.4935866991218
 20
-176.9934033252792
 30
0.0
 10
-188.8754775036481
 20
-176.9934033252792
 30
0.0
  0
LINE
  5
250
330
1F
100
AcDbEntity
  8
0
  6
Continuous
 62
     8
370
     0
100
AcDbLine
 10
-114.0287196441
 20
-246.8028688795
 30
0.0
 11
-114.0287196441
 21
-248.8042708465
 31
0.0
  0
LINE
  5
251
330
1F
100
AcDbEntity
  8
0
  6
Continuous
 62
     8
370
     0
100
AcDbLine
 10
-114.3751744688
 20
-246.7896235561
 30
0.0
 11
-114.3751744688
 21
-248.791123056
 31
0.0
  0
LINE
  5
252
330
1F
100
AcDbEntity
  8
0
  6
Continuous
 62
     8
370
     0
100
AcDbLine
 10
-139.9996074796
 20
-244.5674815611
 30
0.0
 11
-139.9996074796
 21
-246.5854791431
 31
0.0
  0
LINE
  5
253
330
1F
100
AcDbEntity
  8
0
  6
Continuous
 62
     8
370
     0
100
AcDbLine
 10
-65.7496074796
 20
-244.2863719828
 30
0.0
 11
-65.7496074796
 21
-246.3064759633
 31
0.0
  0
LINE
  5
254
330
1F
100
AcDbEntity
  8
0
  6
Continuous
 62
     8
370
     0
100
AcDbLine
 10
-93.7454953151
 20
-248.6569258432
 30
0.0
 11
-93.7454953151
 21
-248.8042708466
 31
0.0
  0
LINE
  5
255
330
1F
100
AcDbEntity
  8
0
  6
Continuous
 62
     8
370
     0
100
AcDbLine
 10
-104.2335623043
 20
-246.9931810457
 30
0.0
 11
-104.2335623043
 21
-248.9931826801
 31
0.0
  0
LINE
  5
256
330
1F
100
AcDbEntity
  8
0
  6
Continuous
 62
     8
370
     0
100
AcDbLine
 10
-103.5406526549
 20
-246.9931810457
 30
0.0
 11
-103.5406526549
 21
-248.9931826801
 31
0.0
  0
LINE
  5
257
330
1F
100
AcDbEntity
  8
0
  6
Continuous
 62
     8
370
     0
100
AcDbLine
 10
-142.3723351433
 20
-244.2365271874
 30
0.0
 11
-142.3723351433
 21
-246.2570051203
 31
0.0
  0
LINE
  5
258
330
1F
100
AcDbEntity
  8
0
  6
Continuous
 62
     8
370
     0
100
AcDbLine
 10
-229.8871074796
 20
-172.9934033253
 30
0.0
 11
-229.8871074796
 21
-180.9934033253
 31
0.0
  0
INSERT
  5
264
330
1F
100
AcDbEntity
  8
FORMAT
 62
     7
100
AcDbBlockReference
  2
SW_CENTERMARKSYMBOL_0
 10
-103.8871074796
 20
-176.9934033253
 30
0.0
  0
ENDSEC
  0
SECTION
  2
OBJECTS
  0
DICTIONARY
  5
C
330
0
100
AcDbDictionary
281
     1
  3
ACAD_GROUP
350
D
  3
ACAD_LAYOUT
350
1A
  3
ACAD_MLINESTYLE
350
17
  3
ACAD_PLOTSETTINGS
350
19
  3
ACAD_PLOTSTYLENAME
350
E
  0
DICTIONARY
  5
D
102
{ACAD_REACTORS
330
C
102
}
330
C
100
AcDbDictionary
281
     1
  0
DICTIONARY
  5
1A
102
{ACAD_REACTORS
330
C
102
}
330
C
100
AcDbDictionary
281
     1
  3
Layout1
350
1E
  3
Layout2
350
26
  3
Model
350
22
  0
DICTIONARY
  5
17
102
{ACAD_REACTORS
330
C
102
}
330
C
100
AcDbDictionary
281
     1
  3
Standard
350
18
  0
DICTIONARY
  5
19
102
{ACAD_REACTORS
330
C
102
}
330
C
100
AcDbDictionary
281
     1
  0
ACDBDICTIONARYWDFLT
  5
E
102
{ACAD_REACTORS
330
C
102
}
330
C
100
AcDbDictionary
281
     1
  3
Normal
350
F
100
AcDbDictionaryWithDefault
340
F
  0
LAYOUT
  5
1E
102
{ACAD_REACTORS
330
1A
102
}
330
1A
100
AcDbPlotSettings
  1

  2
none_device
  4

  6

 40
0.0
 41
0.0
 42
0.0
 43
0.0
 44
0.0
 45
0.0
 46
0.0
 47
0.0
 48
0.0
 49
0.0
140
0.0
141
0.0
142
1.0
143
1.0
 70
   688
 72
     0
 73
     0
 74
     5
  7

 75
    16
147
1.0
148
0.0
149
0.0
100
AcDbLayout
  1
Layout1
 70
     1
 71
     1
 10
0.0
 20
0.0
 11
420.0
 21
297.0
 12
0.0
 22
0.0
 32
0.0
 14
1.0000000000E+20
 24
1.0000000000E+20
 34
1.0000000000E+20
 15
-1.0000000000E+20
 25
-1.0000000000E+20
 35
-1.0000000000E+20
146
0.0
 13
0.0
 23
0.0
 33
0.0
 16
1.0
 26
0.0
 36
0.0
 17
0.0
 27
1.0
 37
0.0
 76
     0
330
1B
  0
LAYOUT
  5
26
102
{ACAD_REACTORS
330
1A
102
}
330
1A
100
AcDbPlotSettings
  1

  2
none_device
  4

  6

 40
0.0
 41
0.0
 42
0.0
 43
0.0
 44
0.0
 45
0.0
 46
0.0
 47
0.0
 48
0.0
 49
0.0
140
0.0
141
0.0
142
1.0
143
1.0
 70
   688
 72
     0
 73
     0
 74
     5
  7

 75
    16
147
1.0
148
0.0
149
0.0
100
AcDbLayout
  1
Layout2
 70
     1
 71
     2
 10
0.0
 20
0.0
 11
0.0
 21
0.0
 12
0.0
 22
0.0
 32
0.0
 14
0.0
 24
0.0
 34
0.0
 15
0.0
 25
0.0
 35
0.0
146
0.0
 13
0.0
 23
0.0
 33
0.0
 16
1.0
 26
0.0
 36
0.0
 17
0.0
 27
1.0
 37
0.0
 76
     0
330
23
  0
LAYOUT
  5
22
102
{ACAD_REACTORS
330
1A
102
}
330
1A
100
AcDbPlotSettings
  1

  2
none_device
  4

  6

 40
0.0
 41
0.0
 42
0.0
 43
0.0
 44
0.0
 45
0.0
 46
0.0
 47
0.0
 48
0.0
 49
0.0
140
0.0
141
0.0
142
1.0
143
1.0
 70
  1712
 72
     0
 73
     0
 74
     0
  7

 75
     0
147
1.0
148
0.0
149
0.0
100
AcDbLayout
  1
Model
 70
     1
 71
     0
 10
0.0
 20
0.0
 11
594.0
 21
420.0
 12
0.0
 22
0.0
 32
0.0
 14
0.0
 24
0.0
 34
0.0
 15
594.0
 25
420.0
 35
0.0
146
0.0
 13
0.0
 23
0.0
 33
0.0
 16
1.0
 26
0.0
 36
0.0
 17
0.0
 27
1.0
 37
0.0
 76
     0
330
1F
331
29
  0
MLINESTYLE
  5
18
102
{ACAD_REACTORS
330
17
102
}
330
17
100
AcDbMlineStyle
  2
Standard
 70
     0
  3

 62
   256
 51
90.0
 52
90.0
 71
     2
 49
0.5
 62
   256
  6
BYLAYER
 49
-0.5
 62
   256
  6
BYLAYER
  0
ACDBPLACEHOLDER
  5
F
102
{ACAD_REACTORS
330
E
102
}
330
E
  0
ENDSEC
  0
EOF
