  0
SECTION
  2
HEADER
  9
$ACADVER
  1
AC1015
  9
$ACADMAINTVER
 70
     6
  9
$DWGCODEPAGE
  3
ANSI_1252
  9
$INSBASE
 10
0.0
 20
0.0
 30
0.0
  9
$EXTMIN
 10
0.0
 20
0.0
 30
0.0
  9
$EXTMAX
 10
841.0
 20
594.0
 30
0.0
  9
$LIMMIN
 10
0.0
 20
0.0
  9
$LIMMAX
 10
841.0
 20
594.0
  9
$ORTHOMODE
 70
     0
  9
$REGENMODE
 70
     1
  9
$FILLMODE
 70
     1
  9
$QTEXTMODE
 70
     0
  9
$MIRRTEXT
 70
     1
  9
$LTSCALE
 40
1.0
  9
$ATTMODE
 70
     1
  9
$TEXTSIZE
 40
2.5
  9
$TRACEWID
 40
1.0
  9
$TEXTSTYLE
  7
Standard
  9
$CLAYER
  8
0
  9
$CELTYPE
  6
ByLayer
  9
$CECOLOR
 62
   256
  9
$CELTSCALE
 40
1.0
  9
$DISPSILH
 70
     0
  9
$DIMSCALE
 40
1.0
  9
$DIMASZ
 40
2.5
  9
$DIMEXO
 40
1.0
  9
$DIMDLI
 40
3.75
  9
$DIMRND
 40
0.0
  9
$DIMDLE
 40
0.0
  9
$DIMEXE
 40
1.0
  9
$DIMTP
 40
0.0
  9
$DIMTM
 40
0.0
  9
$DIMTXT
 40
2.5
  9
$DIMCEN
 40
2.5
  9
$DIMTSZ
 40
0.0
  9
$DIMTOL
 70
     0
  9
$DIMLIM
 70
     0
  9
$DIMTIH
 70
     1
  9
$DIMTOH
 70
     1
  9
$DIMSE1
 70
     0
  9
$DIMSE2
 70
     0
  9
$DIMTAD
 70
     1
  9
$DIMZIN
 70
     0
  9
$DIMBLK
  1

  9
$DIMASO
 70
     1
  9
$DIMSHO
 70
     1
  9
$DIMPOST
  1

  9
$DIMAPOST
  1

  9
$DIMALT
 70
     0
  9
$DIMALTD
 70
     3
  9
$DIMALTF
 40
0.0393700787
  9
$DIMLFAC
 40
1.0
  9
$DIMTOFL
 70
     1
  9
$DIMTVP
 40
0.0
  9
$DIMTIX
 70
     0
  9
$DIMSOXD
 70
     0
  9
$DIMSAH
 70
     0
  9
$DIMBLK1
  1

  9
$DIMBLK2
  1

  9
$DIMSTYLE
  2
ISO-25
  9
$DIMCLRD
 70
     0
  9
$DIMCLRE
 70
     0
  9
$DIMCLRT
 70
     0
  9
$DIMTFAC
 40
1.0
  9
$DIMGAP
 40
1.524
  9
$DIMJUST
 70
     0
  9
$DIMSD1
 70
     0
  9
$DIMSD2
 70
     0
  9
$DIMTOLJ
 70
     0
  9
$DIMTZIN
 70
     0
  9
$DIMALTZ
 70
     0
  9
$DIMALTTZ
 70
     0
  9
$DIMUPT
 70
     0
  9
$DIMDEC
 70
     2
  9
$DIMTDEC
 70
     2
  9
$DIMALTU
 70
     2
  9
$DIMALTTD
 70
     3
  9
$DIMTXSTY
  7
Standard
  9
$DIMAUNIT
 70
     0
  9
$DIMADEC
 70
     2
  9
$DIMALTRND
 40
0.0
  9
$DIMAZIN
 70
     0
  9
$DIMDSEP
 70
    44
  9
$DIMATFIT
 70
     3
  9
$DIMFRAC
 70
     0
  9
$DIMLDRBLK
  1

  9
$DIMLUNIT
 70
     2
  9
$DIMLWD
 70
    -2
  9
$DIMLWE
 70
    -2
  9
$DIMTMOVE
 70
     0
  9
$LUNITS
 70
     2
  9
$LUPREC
 70
     2
  9
$SKETCHINC
 40
1.0
  9
$FILLETRAD
 40
10.0
  9
$AUNITS
 70
     0
  9
$AUPREC
 70
     2
  9
$MENU
  1
.
  9
$ELEVATION
 40
0.0
  9
$PELEVATION
 40
0.0
  9
$THICKNESS
 40
0.0
  9
$LIMCHECK
 70
     0
  9
$CHAMFERA
 40
10.0
  9
$CHAMFERB
 40
10.0
  9
$CHAMFERC
 40
20.0
  9
$CHAMFERD
 40
0.0
  9
$SKPOLY
 70
     0
  9
$TDCREATE
 40
2456899.539361574
  9
$TDUCREATE
 40
2456899.206028241
  9
$TDUPDATE
 40
2456899.539367535
  9
$TDUUPDATE
 40
2456899.206034201
  9
$TDINDWG
 40
0.0000000116
  9
$TDUSRTIMER
 40
0.0000000116
  9
$USRTIMER
 70
     1
  9
$ANGBASE
 50
0.0
  9
$ANGDIR
 70
     0
  9
$PDMODE
 70
     0
  9
$PDSIZE
 40
-1.0
  9
$PLINEWID
 40
0.0
  9
$SPLFRAME
 70
     0
  9
$SPLINETYPE
 70
     6
  9
$SPLINESEGS
 70
     8
  9
$HANDSEED
  5
2DD
  9
$SURFTAB1
 70
     6
  9
$SURFTAB2
 70
     6
  9
$SURFTYPE
 70
     6
  9
$SURFU
 70
     6
  9
$SURFV
 70
     6
  9
$UCSBASE
  2

  9
$UCSNAME
  2

  9
$UCSORG
 10
0.0
 20
0.0
 30
0.0
  9
$UCSXDIR
 10
1.0
 20
0.0
 30
0.0
  9
$UCSYDIR
 10
0.0
 20
1.0
 30
0.0
  9
$UCSORTHOREF
  2

  9
$UCSORTHOVIEW
 70
     0
  9
$UCSORGTOP
 10
0.0
 20
0.0
 30
0.0
  9
$UCSORGBOTTOM
 10
0.0
 20
0.0
 30
0.0
  9
$UCSORGLEFT
 10
0.0
 20
0.0
 30
0.0
  9
$UCSORGRIGHT
 10
0.0
 20
0.0
 30
0.0
  9
$UCSORGFRONT
 10
0.0
 20
0.0
 30
0.0
  9
$UCSORGBACK
 10
0.0
 20
0.0
 30
0.0
  9
$PUCSBASE
  2

  9
$PUCSNAME
  2

  9
$PUCSORG
 10
0.0
 20
0.0
 30
0.0
  9
$PUCSXDIR
 10
1.0
 20
0.0
 30
0.0
  9
$PUCSYDIR
 10
0.0
 20
1.0
 30
0.0
  9
$PUCSORTHOREF
  2

  9
$PUCSORTHOVIEW
 70
     0
  9
$PUCSORGTOP
 10
0.0
 20
0.0
 30
0.0
  9
$PUCSORGBOTTOM
 10
0.0
 20
0.0
 30
0.0
  9
$PUCSORGLEFT
 10
0.0
 20
0.0
 30
0.0
  9
$PUCSORGRIGHT
 10
0.0
 20
0.0
 30
0.0
  9
$PUCSORGFRONT
 10
0.0
 20
0.0
 30
0.0
  9
$PUCSORGBACK
 10
0.0
 20
0.0
 30
0.0
  9
$USERI1
 70
     0
  9
$USERI2
 70
     0
  9
$USERI3
 70
     0
  9
$USERI4
 70
     0
  9
$USERI5
 70
     0
  9
$USERR1
 40
0.0
  9
$USERR2
 40
0.0
  9
$USERR3
 40
0.0
  9
$USERR4
 40
0.0
  9
$USERR5
 40
0.0
  9
$WORLDVIEW
 70
     1
  9
$SHADEDGE
 70
     3
  9
$SHADEDIF
 70
    70
  9
$TILEMODE
 70
     1
  9
$MAXACTVP
 70
    64
  9
$PINSBASE
 10
0.0
 20
0.0
 30
0.0
  9
$PLIMCHECK
 70
     0
  9
$PEXTMIN
 10
1.0000000000E+20
 20
1.0000000000E+20
 30
1.0000000000E+20
  9
$PEXTMAX
 10
-1.0000000000E+20
 20
-1.0000000000E+20
 30
-1.0000000000E+20
  9
$PLIMMIN
 10
0.0
 20
0.0
  9
$PLIMMAX
 10
420.0
 20
297.0
  9
$UNITMODE
 70
     0
  9
$VISRETAIN
 70
     1
  9
$PLINEGEN
 70
     0
  9
$PSLTSCALE
 70
     1
  9
$TREEDEPTH
 70
  3020
  9
$CMLSTYLE
  2
Standard
  9
$CMLJUST
 70
     0
  9
$CMLSCALE
 40
20.0
  9
$PROXYGRAPHICS
 70
     1
  9
$MEASUREMENT
 70
     1
  9
$CELWEIGHT
370
    -1
  9
$ENDCAPS
280
     0
  9
$JOINSTYLE
280
     0
  9
$LWDISPLAY
290
     1
  9
$INSUNITS
 70
     4
  9
$HYPERLINKBASE
  1

  9
$STYLESHEET
  1

  9
$XEDIT
290
     1
  9
$CEPSNTYPE
380
     0
  9
$PSTYLEMODE
290
     1
  9
$FINGERPRINTGUID
  2
{C556C33D-18A0-43D6-8D5C-258A1A6088C9}
  9
$VERSIONGUID
  2
{FAEB1C32-E019-11D5-929B-00C0DF256EC4}
  9
$EXTNAMES
290
     1
  9
$PSVPSCALE
 40
0.0
  9
$OLESTARTUP
290
     0
  0
ENDSEC
  0
SECTION
  2
CLASSES
  0
CLASS
  1
ACDBDICTIONARYWDFLT
  2
AcDbDictionaryWithDefault
  3
ObjectDBX Classes
 90
        0
280
     0
281
     0
  0
CLASS
  1
VISUALSTYLE
  2
AcDbVisualStyle
  3
ObjectDBX Classes
 90
     4095
280
     0
281
     0
  0
CLASS
  1
MATERIAL
  2
AcDbMaterial
  3
ObjectDBX Classes
 90
     1153
280
     0
281
     0
  0
CLASS
  1
ACDBPLACEHOLDER
  2
AcDbPlaceHolder
  3
ObjectDBX Classes
 90
        0
280
     0
281
     0
  0
CLASS
  1
LAYOUT
  2
AcDbLayout
  3
ObjectDBX Classes
 90
        0
280
     0
281
     0
  0
ENDSEC
  0
SECTION
  2
TABLES
  0
TABLE
  2
VPORT
  5
8
330
0
100
AcDbSymbolTable
 70
     1
  0
VPORT
  5
29
330
8
100
AcDbSymbolTableRecord
100
AcDbViewportTableRecord
  2
*Active
 70
     0
 10
0.0
 20
0.0
 11
1.0
 21
1.0
 12
420.5
 22
297.0
 13
0.0
 23
0.0
 14
10.0
 24
10.0
 15
10.0
 25
10.0
 16
0.0
 26
0.0
 36
1.0
 17
0.0
 27
0.0
 37
0.0
 40
594.0
 41
1.4158249158
 42
50.0
 43
0.0
 44
0.0
 50
0.0
 51
0.0
 71
     0
 72
  2000
 73
     1
 74
     3
 75
     0
 76
     0
 77
     0
 78
     0
281
     0
 65
     1
110
0.0
120
0.0
130
0.0
111
1.0
121
0.0
131
0.0
112
0.0
122
1.0
132
0.0
 79
     0
146
0.0
  0
ENDTAB
  0
TABLE
  2
LTYPE
  5
5
330
0
100
AcDbSymbolTable
 70
     6
  0
LTYPE
  5
14
330
5
100
AcDbSymbolTableRecord
100
AcDbLinetypeTableRecord
  2
ByBlock
 70
     0
  3

 72
    65
 73
     0
 40
0.0
  0
LTYPE
  5
15
330
5
100
AcDbSymbolTableRecord
100
AcDbLinetypeTableRecord
  2
ByLayer
 70
     0
  3

 72
    65
 73
     0
 40
0.0
  0
LTYPE
  5
16
330
5
100
AcDbSymbolTableRecord
100
AcDbLinetypeTableRecord
  2
Continuous
 70
     0
  3
Solid line
 72
    65
 73
     0
 40
0.0
  0
LTYPE
  5
3F
330
5
100
AcDbSymbolTableRecord
100
AcDbLinetypeTableRecord
  2
HIDDEN
 70
     0
  3
Hidden __ __ __ __ __ __ __ __ __ __ __ __ __ __
 72
    65
 73
     2
 40
1.905
 49
1.27
 74
     0
 49
-0.635
 74
     0
  0
LTYPE
  5
40
330
5
100
AcDbSymbolTableRecord
100
AcDbLinetypeTableRecord
  2
PHANTOM
 70
     0
  3
Phantom ______  __  __  ______  __  __  ______
 72
    65
 73
     6
 40
12.7
 49
6.35
 74
     0
 49
-1.27
 74
     0
 49
1.27
 74
     0
 49
-1.27
 74
     0
 49
1.27
 74
     0
 49
-1.27
 74
     0
  0
LTYPE
  5
41
330
5
100
AcDbSymbolTableRecord
100
AcDbLinetypeTableRecord
  2
CENTER
 70
     0
  3
Center ____ _ ____ _ ____ _ ____ _ ____ _ ____
 72
    65
 73
     4
 40
10.16
 49
6.35
 74
     0
 49
-1.27
 74
     0
 49
1.27
 74
     0
 49
-1.27
 74
     0
  0
LTYPE
  5
42
330
5
100
AcDbSymbolTableRecord
100
AcDbLinetypeTableRecord
  2
CENTERX2
 70
     0
  3
Center (2x) ________  __  ________  __  _____
 72
    65
 73
     4
 40
20.32
 49
12.7
 74
     0
 49
-2.54
 74
     0
 49
2.54
 74
     0
 49
-2.54
 74
     0
  0
LTYPE
  5
43
330
5
100
AcDbSymbolTableRecord
100
AcDbLinetypeTableRecord
  2
DOT2
 70
     0
  3
Dot (.5x) ........................................
 72
    65
 73
     2
 40
0.635
 49
0.0
 74
     0
 49
-0.635
 74
     0
  0
ENDTAB
  0
TABLE
  2
LAYER
  5
2
330
0
100
AcDbSymbolTable
 70
     3
  0
LAYER
  5
10
330
2
100
AcDbSymbolTableRecord
100
AcDbLayerTableRecord
  2
0
 70
     0
 62
     7
  6
Continuous
370
    -3
390
F
  0
LAYER
  5
44
330
2
100
AcDbSymbolTableRecord
100
AcDbLayerTableRecord
  2
FORMAT
 70
     0
 62
     7
  6
Continuous
370
    -3
390
F
  0
LAYER
  5
45
330
2
100
AcDbSymbolTableRecord
100
AcDbLayerTableRecord
  2
PROTOTYPE
 70
     0
 62
    -7
  6
Continuous
370
    -3
390
F
  0
ENDTAB
  0
TABLE
  2
STYLE
  5
3
330
0
100
AcDbSymbolTable
 70
     3
  0
STYLE
  5
11
330
3
100
AcDbSymbolTableRecord
100
AcDbTextStyleTableRecord
  2
Standard
 70
     0
 40
0.0
 41
1.0
 50
0.0
 71
     0
 42
2.5
  3
txt
  4

  0
STYLE
  5
8F
330
3
100
AcDbSymbolTableRecord
100
AcDbTextStyleTableRecord
  2
SLDTEXTSTYLE0
 70
     0
 40
0.0
 41
0.75
 50
0.0
 71
     0
 42
0.2
  3
TXT
  4

  0
STYLE
  5
93
330
3
100
AcDbSymbolTableRecord
100
AcDbTextStyleTableRecord
  2
SLDTEXTSTYLE1
 70
     0
 40
0.0
 41
0.605
 50
0.0
 71
     0
 42
0.2
  3
TXT
  4

  0
ENDTAB
  0
TABLE
  2
VIEW
  5
6
330
0
100
AcDbSymbolTable
 70
     0
  0
ENDTAB
  0
TABLE
  2
UCS
  5
7
330
0
100
AcDbSymbolTable
 70
     0
  0
ENDTAB
  0
TABLE
  2
APPID
  5
9
330
0
100
AcDbSymbolTable
 70
     1
  0
APPID
  5
12
330
9
100
AcDbSymbolTableRecord
100
AcDbRegAppTableRecord
  2
ACAD
 70
     0
  0
ENDTAB
  0
TABLE
  2
DIMSTYLE
  5
A
330
0
100
AcDbSymbolTable
 70
     1
100
AcDbDimStyleTable
  0
DIMSTYLE
105
27
330
A
100
AcDbSymbolTableRecord
100
AcDbDimStyleTableRecord
  2
ISO-25
 70
     0
 41
2.5
 42
0.625
 43
3.75
 44
1.25
 73
     0
 74
     0
 77
     1
 78
     8
140
2.5
141
2.5
143
0.0393700787
147
0.625
171
     3
172
     1
178
     0
271
     2
272
     2
274
     3
278
    44
283
     0
284
     8
340
11
  0
ENDTAB
  0
TABLE
  2
BLOCK_RECORD
  5
1
330
0
100
AcDbSymbolTable
 70
     3
  0
BLOCK_RECORD
  5
1F
330
1
100
AcDbSymbolTableRecord
100
AcDbBlockTableRecord
  2
*Model_Space
340
22
  0
BLOCK_RECORD
  5
1B
330
1
100
AcDbSymbolTableRecord
100
AcDbBlockTableRecord
  2
*Paper_Space
340
1E
  0
BLOCK_RECORD
  5
23
330
1
100
AcDbSymbolTableRecord
100
AcDbBlockTableRecord
  2
*Paper_Space0
340
26
  0
BLOCK_RECORD
  5
8C
330
1
100
AcDbSymbolTableRecord
100
AcDbBlockTableRecord
  2
SW_NOTE_0
340
0
102
{BLKREFS
331
92
102
}
  0
BLOCK_RECORD
  5
224
330
1
100
AcDbSymbolTableRecord
100
AcDbBlockTableRecord
  2
SW_CENTERMARKSYMBOL_0
340
0
102
{BLKREFS
331
22F
102
}
  0
ENDTAB
  0
ENDSEC
  0
SECTION
  2
BLOCKS
  0
BLOCK
  5
20
330
1F
100
AcDbEntity
  8
0
100
AcDbBlockBegin
  2
*Model_Space
 70
     0
 10
0.0
 20
0.0
 30
0.0
  3
*Model_Space
  1

  0
ENDBLK
  5
21
330
1F
100
AcDbEntity
  8
0
100
AcDbBlockEnd
  0
BLOCK
  5
1C
330
1B
100
AcDbEntity
 67
     1
  8
0
100
AcDbBlockBegin
  2
*Paper_Space
 70
     0
 10
0.0
 20
0.0
 30
0.0
  3
*Paper_Space
  1

  0
ENDBLK
  5
1D
330
1B
100
AcDbEntity
 67
     1
  8
0
100
AcDbBlockEnd
  0
BLOCK
  5
24
330
23
100
AcDbEntity
  8
0
100
AcDbBlockBegin
  2
*Paper_Space0
 70
     0
 10
0.0
 20
0.0
 30
0.0
  3
*Paper_Space0
  1

  0
ENDBLK
  5
25
330
23
100
AcDbEntity
  8
0
100
AcDbBlockEnd
  0
BLOCK
  5
8D
330
8C
100
AcDbEntity
  8
0
100
AcDbBlockBegin
  2
SW_NOTE_0
 70
     0
 10
0.0
 20
0.0
 30
0.0
  3
SW_NOTE_0
  1

  0
MTEXT
  5
90
330
8C
100
AcDbEntity
  8
PROTOTYPE
 62
     0
100
AcDbMText
 10
-6.8363140515
 20
6.8363140515
 30
0.0
 40
7.5
 41
0.0
 71
     1
 72
     1
  1
Prototype:
  7
SLDTEXTSTYLE0
 11
0.7071067811865464
 21
0.7071067811865488
 31
0.0
 73
     1
 44
1.0
  0
MTEXT
  5
91
330
8C
100
AcDbEntity
  8
PROTOTYPE
 62
     0
100
AcDbMText
 10
4.138096673
 20
-2.2819413724
 30
0.0
 40
3.5
 41
0.0
 71
     1
 72
     1
  1
/
  7
SLDTEXTSTYLE0
 11
0.7071067811865464
 21
0.7071067811865488
 31
0.0
 73
     1
 44
1.0
  0
ENDBLK
  5
8E
330
8C
100
AcDbEntity
  8
0
100
AcDbBlockEnd
  0
BLOCK
  5
225
330
224
100
AcDbEntity
  8
0
100
AcDbBlockBegin
  2
SW_CENTERMARKSYMBOL_0
 70
     0
 10
0.0
 20
0.0
 30
0.0
  3
SW_CENTERMARKSYMBOL_0
  1

  0
LINE
  5
227
330
224
100
AcDbEntity
  8
FORMAT
 62
     0
100
AcDbLine
 10
0.0
 20
0.0
 30
0.0
 11
0.0
 21
2.5
 31
0.0
  0
LINE
  5
228
330
224
100
AcDbEntity
  8
FORMAT
 62
     0
100
AcDbLine
 10
0.0
 20
0.0
 30
0.0
 11
-2.5
 21
0.0
 31
0.0
  0
LINE
  5
229
330
224
100
AcDbEntity
  8
FORMAT
 62
     0
100
AcDbLine
 10
0.0
 20
0.0
 30
0.0
 11
0.0
 21
-2.5
 31
0.0
  0
LINE
  5
22A
330
224
100
AcDbEntity
  8
FORMAT
 62
     0
100
AcDbLine
 10
0.0
 20
0.0
 30
0.0
 11
2.5
 21
0.0
 31
0.0
  0
LINE
  5
22B
330
224
100
AcDbEntity
  8
FORMAT
 62
     0
100
AcDbLine
 10
0.0
 20
5.0
 30
0.0
 11
0.0
 21
148.9201186342
 31
0.0
  0
LINE
  5
22C
330
224
100
AcDbEntity
  8
FORMAT
 62
     0
100
AcDbLine
 10
-5.0
 20
0.0
 30
0.0
 11
-106.7497175638
 21
0.0
 31
0.0
  0
LINE
  5
22D
330
224
100
AcDbEntity
  8
FORMAT
 62
     0
100
AcDbLine
 10
0.0
 20
-5.0
 30
0.0
 11
0.0
 21
-102.820435626
 31
0.0
  0
LINE
  5
22E
330
224
100
AcDbEntity
  8
FORMAT
 62
     0
100
AcDbLine
 10
5.0
 20
0.0
 30
0.0
 11
106.6157522055
 21
0.0
 31
0.0
  0
ENDBLK
  5
226
330
224
100
AcDbEntity
  8
0
100
AcDbBlockEnd
  0
ENDSEC
  0
SECTION
  2
ENTITIES
  0
LINE
  5
46
330
1F
100
AcDbEntity
  8
FORMAT
370
    30
100
AcDbLine
 10
13.0
 20
12.8671069427
 30
0.0
 11
828.0
 21
12.8671069427
 31
0.0
  0
LINE
  5
47
330
1F
100
AcDbEntity
  8
FORMAT
370
    30
100
AcDbLine
 10
13.0
 20
12.8671069427
 30
0.0
 11
13.0
 21
580.8671069427
 31
0.0
  0
LINE
  5
48
330
1F
100
AcDbEntity
  8
0
  6
Continuous
 62
     7
370
    30
100
AcDbLine
 10
114.88
 20
12.8671069427
 30
0.0
 11
114.88
 21
6.8671069427
 31
0.0
  0
LINE
  5
49
330
1F
100
AcDbEntity
  8
FORMAT
370
    30
100
AcDbLine
 10
828.0
 20
12.8671069427
 30
0.0
 11
828.0
 21
580.8671069427
 31
0.0
  0
LINE
  5
4A
330
1F
100
AcDbEntity
  8
FORMAT
370
    30
100
AcDbLine
 10
828.0
 20
12.8671069427
 30
0.0
 11
828.0
 21
6.8671069427
 31
0.0
  0
LINE
  5
4B
330
1F
100
AcDbEntity
  8
0
  6
Continuous
 62
     7
370
    30
100
AcDbLine
 10
165.82
 20
12.8671069427
 30
0.0
 11
165.82
 21
6.8671069427
 31
0.0
  0
LINE
  5
4C
330
1F
100
AcDbEntity
  8
0
  6
Continuous
 62
     7
370
    30
100
AcDbLine
 10
216.76
 20
12.8671069427
 30
0.0
 11
216.76
 21
6.8671069427
 31
0.0
  0
LINE
  5
4D
330
1F
100
AcDbEntity
  8
0
  6
Continuous
 62
     7
370
    30
100
AcDbLine
 10
267.7
 20
12.8671069427
 30
0.0
 11
267.7
 21
6.8671069427
 31
0.0
  0
LINE
  5
4E
330
1F
100
AcDbEntity
  8
0
  6
Continuous
 62
     7
370
    30
100
AcDbLine
 10
318.64
 20
12.8671069427
 30
0.0
 11
318.64
 21
6.8671069427
 31
0.0
  0
LINE
  5
4F
330
1F
100
AcDbEntity
  8
0
  6
Continuous
 62
     7
370
    30
100
AcDbLine
 10
369.58
 20
12.8671069427
 30
0.0
 11
369.58
 21
6.8671069427
 31
0.0
  0
LINE
  5
50
330
1F
100
AcDbEntity
  8
0
  6
Continuous
 62
     7
370
    30
100
AcDbLine
 10
420.52
 20
12.8671069427
 30
0.0
 11
420.52
 21
6.8671069427
 31
0.0
  0
LINE
  5
51
330
1F
100
AcDbEntity
  8
0
  6
Continuous
 62
     7
370
    30
100
AcDbLine
 10
471.46
 20
12.8671069427
 30
0.0
 11
471.46
 21
6.8671069427
 31
0.0
  0
LINE
  5
52
330
1F
100
AcDbEntity
  8
0
  6
Continuous
 62
     7
370
    30
100
AcDbLine
 10
522.4
 20
12.8671069427
 30
0.0
 11
522.4
 21
6.8671069427
 31
0.0
  0
LINE
  5
53
330
1F
100
AcDbEntity
  8
0
  6
Continuous
 62
     7
370
    30
100
AcDbLine
 10
573.34
 20
12.8671069427
 30
0.0
 11
573.34
 21
6.8671069427
 31
0.0
  0
LINE
  5
54
330
1F
100
AcDbEntity
  8
0
  6
Continuous
 62
     7
370
    30
100
AcDbLine
 10
624.28
 20
12.8671069427
 30
0.0
 11
624.28
 21
6.8671069427
 31
0.0
  0
LINE
  5
55
330
1F
100
AcDbEntity
  8
0
  6
Continuous
 62
     7
370
    30
100
AcDbLine
 10
675.22
 20
12.8671069427
 30
0.0
 11
675.22
 21
6.8671069427
 31
0.0
  0
LINE
  5
56
330
1F
100
AcDbEntity
  8
0
  6
Continuous
 62
     7
370
    30
100
AcDbLine
 10
726.16
 20
12.8671069427
 30
0.0
 11
726.16
 21
6.8671069427
 31
0.0
  0
LINE
  5
57
330
1F
100
AcDbEntity
  8
0
  6
Continuous
 62
     7
370
    30
100
AcDbLine
 10
777.1
 20
12.8671069427
 30
0.0
 11
777.1
 21
6.8671069427
 31
0.0
  0
LINE
  5
58
330
1F
100
AcDbEntity
  8
0
  6
Continuous
 62
     7
370
    30
100
AcDbLine
 10
828.0
 20
116.1471069427
 30
0.0
 11
834.0
 21
116.1471069427
 31
0.0
  0
LINE
  5
59
330
1F
100
AcDbEntity
  8
0
  6
Continuous
 62
     7
370
    30
100
AcDbLine
 10
828.0
 20
167.7871069427
 30
0.0
 11
834.0
 21
167.7871069427
 31
0.0
  0
LINE
  5
5A
330
1F
100
AcDbEntity
  8
0
  6
Continuous
 62
     7
370
    30
100
AcDbLine
 10
828.0
 20
219.4271069427
 30
0.0
 11
834.0
 21
219.4271069427
 31
0.0
  0
LINE
  5
5B
330
1F
100
AcDbEntity
  8
0
  6
Continuous
 62
     7
370
    30
100
AcDbLine
 10
828.0
 20
271.0671069427
 30
0.0
 11
834.0
 21
271.0671069427
 31
0.0
  0
LINE
  5
5C
330
1F
100
AcDbEntity
  8
0
  6
Continuous
 62
     7
370
    30
100
AcDbLine
 10
828.0
 20
322.7071069427
 30
0.0
 11
834.0
 21
322.7071069427
 31
0.0
  0
LINE
  5
5D
330
1F
100
AcDbEntity
  8
0
  6
Continuous
 62
     7
370
    30
100
AcDbLine
 10
63.94
 20
12.8671069427
 30
0.0
 11
63.94
 21
6.8671069427
 31
0.0
  0
LINE
  5
5E
330
1F
100
AcDbEntity
  8
0
  6
Continuous
 62
     7
370
    30
100
AcDbLine
 10
828.0
 20
374.3471069427
 30
0.0
 11
834.0
 21
374.3471069427
 31
0.0
  0
LINE
  5
5F
330
1F
100
AcDbEntity
  8
0
  6
Continuous
 62
     7
370
    30
100
AcDbLine
 10
13.0
 20
12.8671069427
 30
0.0
 11
13.0
 21
6.8671069427
 31
0.0
  0
LINE
  5
60
330
1F
100
AcDbEntity
  8
FORMAT
  6
Continuous
 62
     7
370
    30
100
AcDbLine
 10
828.0
 20
12.8671069427
 30
0.0
 11
834.0
 21
12.8671069427
 31
0.0
  0
LINE
  5
61
330
1F
100
AcDbEntity
  8
0
  6
Continuous
 62
     7
370
    30
100
AcDbLine
 10
828.0
 20
425.9871069427
 30
0.0
 11
834.0
 21
425.9871069427
 31
0.0
  0
LINE
  5
62
330
1F
100
AcDbEntity
  8
0
  6
Continuous
 62
     7
370
    30
100
AcDbLine
 10
828.0
 20
477.6271069427
 30
0.0
 11
834.0
 21
477.6271069427
 31
0.0
  0
LINE
  5
63
330
1F
100
AcDbEntity
  8
0
  6
Continuous
 62
     7
370
    30
100
AcDbLine
 10
828.0
 20
529.2671069427
 30
0.0
 11
834.0
 21
529.2671069427
 31
0.0
  0
LINE
  5
64
330
1F
100
AcDbEntity
  8
0
  6
Continuous
 62
     7
370
    30
100
AcDbLine
 10
7.0
 20
580.8671069427
 30
0.0
 11
13.0
 21
580.8671069427
 31
0.0
  0
LINE
  5
65
330
1F
100
AcDbEntity
  8
0
  6
Continuous
 62
     7
370
    30
100
AcDbLine
 10
7.0
 20
12.8671069427
 30
0.0
 11
13.0
 21
12.8671069427
 31
0.0
  0
LINE
  5
66
330
1F
100
AcDbEntity
  8
0
  6
Continuous
 62
     7
370
    30
100
AcDbLine
 10
165.82
 20
586.8671069427
 30
0.0
 11
165.82
 21
580.8671069427
 31
0.0
  0
LINE
  5
67
330
1F
100
AcDbEntity
  8
0
  6
Continuous
 62
     7
370
    30
100
AcDbLine
 10
471.46
 20
586.8671069427
 30
0.0
 11
471.46
 21
580.8671069427
 31
0.0
  0
LINE
  5
68
330
1F
100
AcDbEntity
  8
0
  6
Continuous
 62
     7
370
    30
100
AcDbLine
 10
420.52
 20
586.8671069427
 30
0.0
 11
420.52
 21
580.8671069427
 31
0.0
  0
LINE
  5
69
330
1F
100
AcDbEntity
  8
0
  6
Continuous
 62
     7
370
    30
100
AcDbLine
 10
777.1
 20
586.8671069427
 30
0.0
 11
777.1
 21
580.8671069427
 31
0.0
  0
LINE
  5
6A
330
1F
100
AcDbEntity
  8
0
  6
Continuous
 62
     7
370
    30
100
AcDbLine
 10
726.16
 20
586.8671069427
 30
0.0
 11
726.16
 21
580.8671069427
 31
0.0
  0
LINE
  5
6B
330
1F
100
AcDbEntity
  8
0
  6
Continuous
 62
     7
370
    30
100
AcDbLine
 10
114.88
 20
586.8671069427
 30
0.0
 11
114.88
 21
580.8671069427
 31
0.0
  0
LINE
  5
6C
330
1F
100
AcDbEntity
  8
0
  6
Continuous
 62
     7
370
    30
100
AcDbLine
 10
522.4
 20
586.8671069427
 30
0.0
 11
522.4
 21
580.8671069427
 31
0.0
  0
LINE
  5
6D
330
1F
100
AcDbEntity
  8
0
  6
Continuous
 62
     7
370
    30
100
AcDbLine
 10
216.76
 20
586.8671069427
 30
0.0
 11
216.76
 21
580.8671069427
 31
0.0
  0
LINE
  5
6E
330
1F
100
AcDbEntity
  8
0
  6
Continuous
 62
     7
370
    30
100
AcDbLine
 10
369.58
 20
586.8671069427
 30
0.0
 11
369.58
 21
580.8671069427
 31
0.0
  0
LINE
  5
6F
330
1F
100
AcDbEntity
  8
0
  6
Continuous
 62
     7
370
    30
100
AcDbLine
 10
624.28
 20
586.8671069427
 30
0.0
 11
624.28
 21
580.8671069427
 31
0.0
  0
LINE
  5
70
330
1F
100
AcDbEntity
  8
0
  6
Continuous
 62
     7
370
    30
100
AcDbLine
 10
675.22
 20
586.8671069427
 30
0.0
 11
675.22
 21
580.8671069427
 31
0.0
  0
LINE
  5
71
330
1F
100
AcDbEntity
  8
0
  6
Continuous
 62
     7
370
    30
100
AcDbLine
 10
318.64
 20
586.8671069427
 30
0.0
 11
318.64
 21
580.8671069427
 31
0.0
  0
LINE
  5
72
330
1F
100
AcDbEntity
  8
0
  6
Continuous
 62
     7
370
    30
100
AcDbLine
 10
573.34
 20
586.8671069427
 30
0.0
 11
573.34
 21
580.8671069427
 31
0.0
  0
LINE
  5
73
330
1F
100
AcDbEntity
  8
0
  6
Continuous
 62
     7
370
    30
100
AcDbLine
 10
267.7
 20
586.8671069427
 30
0.0
 11
267.7
 21
580.8671069427
 31
0.0
  0
LINE
  5
74
330
1F
100
AcDbEntity
  8
0
  6
Continuous
 62
     7
370
    30
100
AcDbLine
 10
63.94
 20
586.8671069427
 30
0.0
 11
63.94
 21
580.8671069427
 31
0.0
  0
LINE
  5
75
330
1F
100
AcDbEntity
  8
0
  6
Continuous
 62
     7
370
    30
100
AcDbLine
 10
828.0
 20
64.5071069427
 30
0.0
 11
834.0
 21
64.5071069427
 31
0.0
  0
LINE
  5
76
330
1F
100
AcDbEntity
  8
0
  6
Continuous
 62
     7
370
    30
100
AcDbLine
 10
7.0
 20
167.7871069427
 30
0.0
 11
13.0
 21
167.7871069427
 31
0.0
  0
LINE
  5
77
330
1F
100
AcDbEntity
  8
0
  6
Continuous
 62
     7
370
    30
100
AcDbLine
 10
13.0
 20
586.8671069427
 30
0.0
 11
13.0
 21
580.8671069427
 31
0.0
  0
LINE
  5
78
330
1F
100
AcDbEntity
  8
0
  6
Continuous
 62
     7
370
    30
100
AcDbLine
 10
7.0
 20
477.6271069427
 30
0.0
 11
13.0
 21
477.6271069427
 31
0.0
  0
LINE
  5
79
330
1F
100
AcDbEntity
  8
0
  6
Continuous
 62
     7
370
    30
100
AcDbLine
 10
7.0
 20
529.2671069427
 30
0.0
 11
13.0
 21
529.2671069427
 31
0.0
  0
LINE
  5
7A
330
1F
100
AcDbEntity
  8
0
  6
Continuous
 62
     7
370
    30
100
AcDbLine
 10
7.0
 20
374.3471069427
 30
0.0
 11
13.0
 21
374.3471069427
 31
0.0
  0
LINE
  5
7B
330
1F
100
AcDbEntity
  8
0
  6
Continuous
 62
     7
370
    30
100
AcDbLine
 10
828.0
 20
580.8671069427
 30
0.0
 11
834.0
 21
580.8671069427
 31
0.0
  0
LINE
  5
7C
330
1F
100
AcDbEntity
  8
0
  6
Continuous
 62
     7
370
    30
100
AcDbLine
 10
7.0
 20
425.9871069427
 30
0.0
 11
13.0
 21
425.9871069427
 31
0.0
  0
LINE
  5
7D
330
1F
100
AcDbEntity
  8
0
  6
Continuous
 62
     7
370
    30
100
AcDbLine
 10
13.0
 20
580.8671069427
 30
0.0
 11
828.0
 21
580.8671069427
 31
0.0
  0
LINE
  5
7E
330
1F
100
AcDbEntity
  8
0
  6
Continuous
 62
     7
370
    30
100
AcDbLine
 10
7.0
 20
64.5071069427
 30
0.0
 11
13.0
 21
64.5071069427
 31
0.0
  0
LINE
  5
7F
330
1F
100
AcDbEntity
  8
0
  6
Continuous
 62
     7
370
    30
100
AcDbLine
 10
7.0
 20
219.4271069427
 30
0.0
 11
13.0
 21
219.4271069427
 31
0.0
  0
LINE
  5
80
330
1F
100
AcDbEntity
  8
0
  6
Continuous
 62
     7
370
    30
100
AcDbLine
 10
7.0
 20
271.0671069427
 30
0.0
 11
13.0
 21
271.0671069427
 31
0.0
  0
LINE
  5
81
330
1F
100
AcDbEntity
  8
0
  6
Continuous
 62
     7
370
    30
100
AcDbLine
 10
7.0
 20
322.7071069427
 30
0.0
 11
13.0
 21
322.7071069427
 31
0.0
  0
LINE
  5
82
330
1F
100
AcDbEntity
  8
0
  6
Continuous
 62
     7
370
    30
100
AcDbLine
 10
828.0
 20
586.8671069427
 30
0.0
 11
828.0
 21
580.8671069427
 31
0.0
  0
LINE
  5
83
330
1F
100
AcDbEntity
  8
0
  6
Continuous
 62
     7
370
    30
100
AcDbLine
 10
7.0
 20
116.1471069427
 30
0.0
 11
13.0
 21
116.1471069427
 31
0.0
  0
LINE
  5
84
330
1F
100
AcDbEntity
  8
FORMAT
100
AcDbLine
 10
420.5
 20
12.8671069427
 30
0.0
 11
420.5
 21
4.8671069427
 31
0.0
  0
LINE
  5
85
330
1F
100
AcDbEntity
  8
FORMAT
100
AcDbLine
 10
210.25
 20
12.8671069427
 30
0.0
 11
210.25
 21
4.8671069427
 31
0.0
  0
LINE
  5
86
330
1F
100
AcDbEntity
  8
FORMAT
  6
Continuous
 62
     7
370
     0
100
AcDbLine
 10
644.0
 20
12.8671069427
 30
0.0
 11
644.0
 21
4.8671069427
 31
0.0
  0
LINE
  5
87
330
1F
100
AcDbEntity
  8
0
  6
Continuous
 62
     7
370
     0
100
AcDbLine
 10
210.25
 20
588.8671069427
 30
0.0
 11
210.25
 21
580.8671069427
 31
0.0
  0
LINE
  5
88
330
1F
100
AcDbEntity
  8
0
  6
Continuous
 62
     7
370
     0
100
AcDbLine
 10
420.5
 20
588.8671069427
 30
0.0
 11
420.5
 21
580.8671069427
 31
0.0
  0
LINE
  5
89
330
1F
100
AcDbEntity
  8
0
  6
Continuous
 62
     7
370
     0
100
AcDbLine
 10
630.75
 20
588.8671069427
 30
0.0
 11
630.75
 21
580.8671069427
 31
0.0
  0
LINE
  5
8A
330
1F
100
AcDbEntity
  8
FORMAT
100
AcDbLine
 10
828.0
 20
296.8671069427
 30
0.0
 11
836.0
 21
296.8671069427
 31
0.0
  0
LINE
  5
8B
330
1F
100
AcDbEntity
  8
0
  6
Continuous
 62
     7
370
     0
100
AcDbLine
 10
5.0
 20
296.8671069427
 30
0.0
 11
13.0
 21
296.8671069427
 31
0.0
  0
INSERT
  5
92
330
1F
100
AcDbEntity
  8
PROTOTYPE
100
AcDbBlockReference
  2
SW_NOTE_0
 10
28.8436580118
 20
77.0999149454
 30
0.0
  0
MTEXT
  5
94
330
1F
100
AcDbEntity
  8
FORMAT
100
AcDbMText
 10
37.5504191961
 20
10.9423147578
 30
0.0
 40
2.6458333333
 41
0.0
 71
     1
 72
     1
  1
A
  7
SLDTEXTSTYLE1
 73
     1
 44
1.0
  0
MTEXT
  5
95
330
1F
100
AcDbEntity
  8
FORMAT
100
AcDbMText
 10
828.9767730496
 20
40.3656938402
 30
0.0
 40
2.6458333333
 41
0.0
 71
     1
 72
     1
  1
11
  7
SLDTEXTSTYLE1
 73
     1
 44
1.0
  0
MTEXT
  5
96
330
1F
100
AcDbEntity
  8
FORMAT
100
AcDbMText
 10
88.4904191961
 20
10.9423147578
 30
0.0
 40
2.6458333333
 41
0.0
 71
     1
 72
     1
  1
B
  7
SLDTEXTSTYLE1
 73
     1
 44
1.0
  0
MTEXT
  5
97
330
1F
100
AcDbEntity
  8
FORMAT
100
AcDbMText
 10
139.4304191961
 20
10.9423147578
 30
0.0
 40
2.6458333333
 41
0.0
 71
     1
 72
     1
  1
C
  7
SLDTEXTSTYLE1
 73
     1
 44
1.0
  0
MTEXT
  5
98
330
1F
100
AcDbEntity
  8
FORMAT
100
AcDbMText
 10
190.3704191961
 20
10.9423147578
 30
0.0
 40
2.6458333333
 41
0.0
 71
     1
 72
     1
  1
D
  7
SLDTEXTSTYLE1
 73
     1
 44
1.0
  0
MTEXT
  5
99
330
1F
100
AcDbEntity
  8
FORMAT
100
AcDbMText
 10
241.3104191961
 20
10.9423147578
 30
0.0
 40
2.6458333333
 41
0.0
 71
     1
 72
     1
  1
E
  7
SLDTEXTSTYLE1
 73
     1
 44
1.0
  0
MTEXT
  5
9A
330
1F
100
AcDbEntity
  8
FORMAT
100
AcDbMText
 10
292.2504191961
 20
10.9423147578
 30
0.0
 40
2.6458333333
 41
0.0
 71
     1
 72
     1
  1
F
  7
SLDTEXTSTYLE1
 73
     1
 44
1.0
  0
MTEXT
  5
9B
330
1F
100
AcDbEntity
  8
FORMAT
100
AcDbMText
 10
343.1904191961
 20
10.9423147578
 30
0.0
 40
2.6458333333
 41
0.0
 71
     1
 72
     1
  1
G
  7
SLDTEXTSTYLE1
 73
     1
 44
1.0
  0
MTEXT
  5
9C
330
1F
100
AcDbEntity
  8
FORMAT
100
AcDbMText
 10
394.1304191961
 20
10.9423147578
 30
0.0
 40
2.6458333333
 41
0.0
 71
     1
 72
     1
  1
H
  7
SLDTEXTSTYLE1
 73
     1
 44
1.0
  0
MTEXT
  5
9D
330
1F
100
AcDbEntity
  8
FORMAT
100
AcDbMText
 10
445.0704191961
 20
10.9423147578
 30
0.0
 40
2.6458333333
 41
0.0
 71
     1
 72
     1
  1
I
  7
SLDTEXTSTYLE1
 73
     1
 44
1.0
  0
MTEXT
  5
9E
330
1F
100
AcDbEntity
  8
FORMAT
100
AcDbMText
 10
496.0104191961
 20
10.9423147578
 30
0.0
 40
2.6458333333
 41
0.0
 71
     1
 72
     1
  1
J
  7
SLDTEXTSTYLE1
 73
     1
 44
1.0
  0
MTEXT
  5
9F
330
1F
100
AcDbEntity
  8
FORMAT
100
AcDbMText
 10
546.9504191961
 20
10.9423147578
 30
0.0
 40
2.6458333333
 41
0.0
 71
     1
 72
     1
  1
K
  7
SLDTEXTSTYLE1
 73
     1
 44
1.0
  0
MTEXT
  5
A0
330
1F
100
AcDbEntity
  8
FORMAT
100
AcDbMText
 10
597.8904191961
 20
10.9423147578
 30
0.0
 40
2.6458333333
 41
0.0
 71
     1
 72
     1
  1
L
  7
SLDTEXTSTYLE1
 73
     1
 44
1.0
  0
MTEXT
  5
A1
330
1F
100
AcDbEntity
  8
FORMAT
100
AcDbMText
 10
648.8304191961
 20
10.9423147578
 30
0.0
 40
2.6458333333
 41
0.0
 71
     1
 72
     1
  1
M
  7
SLDTEXTSTYLE1
 73
     1
 44
1.0
  0
MTEXT
  5
A2
330
1F
100
AcDbEntity
  8
FORMAT
100
AcDbMText
 10
699.7704191961
 20
10.9423147578
 30
0.0
 40
2.6458333333
 41
0.0
 71
     1
 72
     1
  1
N
  7
SLDTEXTSTYLE1
 73
     1
 44
1.0
  0
MTEXT
  5
A3
330
1F
100
AcDbEntity
  8
FORMAT
100
AcDbMText
 10
750.7104191961
 20
10.9423147578
 30
0.0
 40
2.6458333333
 41
0.0
 71
     1
 72
     1
  1
O
  7
SLDTEXTSTYLE1
 73
     1
 44
1.0
  0
MTEXT
  5
A4
330
1F
100
AcDbEntity
  8
FORMAT
100
AcDbMText
 10
801.6504191961
 20
10.9423147578
 30
0.0
 40
2.6458333333
 41
0.0
 71
     1
 72
     1
  1
P
  7
SLDTEXTSTYLE1
 73
     1
 44
1.0
  0
MTEXT
  5
A5
330
1F
100
AcDbEntity
  8
FORMAT
100
AcDbMText
 10
828.9767730496
 20
92.0056938402
 30
0.0
 40
2.6458333333
 41
0.0
 71
     1
 72
     1
  1
10
  7
SLDTEXTSTYLE1
 73
     1
 44
1.0
  0
MTEXT
  5
A6
330
1F
100
AcDbEntity
  8
FORMAT
100
AcDbMText
 10
829.9767730496
 20
143.6456938402
 30
0.0
 40
2.6458333333
 41
0.0
 71
     1
 72
     1
  1
9
  7
SLDTEXTSTYLE1
 73
     1
 44
1.0
  0
MTEXT
  5
A7
330
1F
100
AcDbEntity
  8
FORMAT
100
AcDbMText
 10
829.9767730496
 20
195.2856938402
 30
0.0
 40
2.6458333333
 41
0.0
 71
     1
 72
     1
  1
8
  7
SLDTEXTSTYLE1
 73
     1
 44
1.0
  0
MTEXT
  5
A8
330
1F
100
AcDbEntity
  8
FORMAT
100
AcDbMText
 10
829.9767730496
 20
246.9256938402
 30
0.0
 40
2.6458333333
 41
0.0
 71
     1
 72
     1
  1
7
  7
SLDTEXTSTYLE1
 73
     1
 44
1.0
  0
MTEXT
  5
A9
330
1F
100
AcDbEntity
  8
FORMAT
100
AcDbMText
 10
829.9767730496
 20
296.5656938402
 30
0.0
 40
2.6458333333
 41
0.0
 71
     1
 72
     1
  1
6
  7
SLDTEXTSTYLE1
 73
     1
 44
1.0
  0
MTEXT
  5
AA
330
1F
100
AcDbEntity
  8
FORMAT
100
AcDbMText
 10
829.9767730496
 20
350.2056938402
 30
0.0
 40
2.6458333333
 41
0.0
 71
     1
 72
     1
  1
5
  7
SLDTEXTSTYLE1
 73
     1
 44
1.0
  0
MTEXT
  5
AB
330
1F
100
AcDbEntity
  8
FORMAT
100
AcDbMText
 10
829.9767730496
 20
401.8456938402
 30
0.0
 40
2.6458333333
 41
0.0
 71
     1
 72
     1
  1
4
  7
SLDTEXTSTYLE1
 73
     1
 44
1.0
  0
MTEXT
  5
AC
330
1F
100
AcDbEntity
  8
FORMAT
100
AcDbMText
 10
829.9767730496
 20
453.4856938402
 30
0.0
 40
2.6458333333
 41
0.0
 71
     1
 72
     1
  1
3
  7
SLDTEXTSTYLE1
 73
     1
 44
1.0
  0
MTEXT
  5
AD
330
1F
100
AcDbEntity
  8
FORMAT
100
AcDbMText
 10
829.9767730496
 20
505.1256938402
 30
0.0
 40
2.6458333333
 41
0.0
 71
     1
 72
     1
  1
2
  7
SLDTEXTSTYLE1
 73
     1
 44
1.0
  0
MTEXT
  5
AE
330
1F
100
AcDbEntity
  8
FORMAT
100
AcDbMText
 10
829.9767730496
 20
556.7656938402
 30
0.0
 40
2.6458333333
 41
0.0
 71
     1
 72
     1
  1
1
  7
SLDTEXTSTYLE1
 73
     1
 44
1.0
  0
MTEXT
  5
AF
330
1F
100
AcDbEntity
  8
FORMAT
100
AcDbMText
 10
343.1904191961
 20
584.9423147578
 30
0.0
 40
2.6458333333
 41
0.0
 71
     1
 72
     1
  1
G
  7
SLDTEXTSTYLE1
 73
     1
 44
1.0
  0
MTEXT
  5
B0
330
1F
100
AcDbEntity
  8
FORMAT
100
AcDbMText
 10
445.0704191961
 20
584.9423147578
 30
0.0
 40
2.6458333333
 41
0.0
 71
     1
 72
     1
  1
I
  7
SLDTEXTSTYLE1
 73
     1
 44
1.0
  0
MTEXT
  5
B1
330
1F
100
AcDbEntity
  8
FORMAT
100
AcDbMText
 10
750.7104191961
 20
584.9423147578
 30
0.0
 40
2.6458333333
 41
0.0
 71
     1
 72
     1
  1
O
  7
SLDTEXTSTYLE1
 73
     1
 44
1.0
  0
MTEXT
  5
B2
330
1F
100
AcDbEntity
  8
FORMAT
100
AcDbMText
 10
139.4304191961
 20
584.9423147578
 30
0.0
 40
2.6458333333
 41
0.0
 71
     1
 72
     1
  1
C
  7
SLDTEXTSTYLE1
 73
     1
 44
1.0
  0
MTEXT
  5
B3
330
1F
100
AcDbEntity
  8
FORMAT
100
AcDbMText
 10
801.6504191961
 20
584.9423147578
 30
0.0
 40
2.6458333333
 41
0.0
 71
     1
 72
     1
  1
P
  7
SLDTEXTSTYLE1
 73
     1
 44
1.0
  0
MTEXT
  5
B4
330
1F
100
AcDbEntity
  8
FORMAT
100
AcDbMText
 10
241.3104191961
 20
584.9423147578
 30
0.0
 40
2.6458333333
 41
0.0
 71
     1
 72
     1
  1
E
  7
SLDTEXTSTYLE1
 73
     1
 44
1.0
  0
MTEXT
  5
B5
330
1F
100
AcDbEntity
  8
FORMAT
100
AcDbMText
 10
546.9504191961
 20
584.9423147578
 30
0.0
 40
2.6458333333
 41
0.0
 71
     1
 72
     1
  1
K
  7
SLDTEXTSTYLE1
 73
     1
 44
1.0
  0
MTEXT
  5
B6
330
1F
100
AcDbEntity
  8
FORMAT
100
AcDbMText
 10
648.8304191961
 20
584.9423147578
 30
0.0
 40
2.6458333333
 41
0.0
 71
     1
 72
     1
  1
M
  7
SLDTEXTSTYLE1
 73
     1
 44
1.0
  0
MTEXT
  5
B7
330
1F
100
AcDbEntity
  8
FORMAT
100
AcDbMText
 10
37.5504191961
 20
584.9423147578
 30
0.0
 40
2.6458333333
 41
0.0
 71
     1
 72
     1
  1
A
  7
SLDTEXTSTYLE1
 73
     1
 44
1.0
  0
MTEXT
  5
B8
330
1F
100
AcDbEntity
  8
FORMAT
100
AcDbMText
 10
88.4904191961
 20
584.9423147578
 30
0.0
 40
2.6458333333
 41
0.0
 71
     1
 72
     1
  1
B
  7
SLDTEXTSTYLE1
 73
     1
 44
1.0
  0
MTEXT
  5
B9
330
1F
100
AcDbEntity
  8
FORMAT
100
AcDbMText
 10
190.3704191961
 20
584.9423147578
 30
0.0
 40
2.6458333333
 41
0.0
 71
     1
 72
     1
  1
D
  7
SLDTEXTSTYLE1
 73
     1
 44
1.0
  0
MTEXT
  5
BA
330
1F
100
AcDbEntity
  8
FORMAT
100
AcDbMText
 10
292.2504191961
 20
584.9423147578
 30
0.0
 40
2.6458333333
 41
0.0
 71
     1
 72
     1
  1
F
  7
SLDTEXTSTYLE1
 73
     1
 44
1.0
  0
MTEXT
  5
BB
330
1F
100
AcDbEntity
  8
FORMAT
100
AcDbMText
 10
394.1304191961
 20
584.9423147578
 30
0.0
 40
2.6458333333
 41
0.0
 71
     1
 72
     1
  1
H
  7
SLDTEXTSTYLE1
 73
     1
 44
1.0
  0
MTEXT
  5
BC
330
1F
100
AcDbEntity
  8
FORMAT
100
AcDbMText
 10
496.0104191961
 20
584.9423147578
 30
0.0
 40
2.6458333333
 41
0.0
 71
     1
 72
     1
  1
J
  7
SLDTEXTSTYLE1
 73
     1
 44
1.0
  0
MTEXT
  5
BD
330
1F
100
AcDbEntity
  8
FORMAT
100
AcDbMText
 10
597.8904191961
 20
584.9423147578
 30
0.0
 40
2.6458333333
 41
0.0
 71
     1
 72
     1
  1
L
  7
SLDTEXTSTYLE1
 73
     1
 44
1.0
  0
MTEXT
  5
BE
330
1F
100
AcDbEntity
  8
FORMAT
100
AcDbMText
 10
699.7704191961
 20
584.9423147578
 30
0.0
 40
2.6458333333
 41
0.0
 71
     1
 72
     1
  1
N
  7
SLDTEXTSTYLE1
 73
     1
 44
1.0
  0
MTEXT
  5
BF
330
1F
100
AcDbEntity
  8
FORMAT
100
AcDbMText
 10
8.9767730496
 20
556.7656938402
 30
0.0
 40
2.6458333333
 41
0.0
 71
     1
 72
     1
  1
1
  7
SLDTEXTSTYLE1
 73
     1
 44
1.0
  0
MTEXT
  5
C0
330
1F
100
AcDbEntity
  8
FORMAT
100
AcDbMText
 10
7.9767730496
 20
92.0056938402
 30
0.0
 40
2.6458333333
 41
0.0
 71
     1
 72
     1
  1
10
  7
SLDTEXTSTYLE1
 73
     1
 44
1.0
  0
MTEXT
  5
C1
330
1F
100
AcDbEntity
  8
FORMAT
100
AcDbMText
 10
8.9767730496
 20
401.8456938402
 30
0.0
 40
2.6458333333
 41
0.0
 71
     1
 72
     1
  1
4
  7
SLDTEXTSTYLE1
 73
     1
 44
1.0
  0
MTEXT
  5
C2
330
1F
100
AcDbEntity
  8
FORMAT
100
AcDbMText
 10
8.9767730496
 20
246.9256938402
 30
0.0
 40
2.6458333333
 41
0.0
 71
     1
 72
     1
  1
7
  7
SLDTEXTSTYLE1
 73
     1
 44
1.0
  0
MTEXT
  5
C3
330
1F
100
AcDbEntity
  8
FORMAT
100
AcDbMText
 10
8.9767730496
 20
505.1256938402
 30
0.0
 40
2.6458333333
 41
0.0
 71
     1
 72
     1
  1
2
  7
SLDTEXTSTYLE1
 73
     1
 44
1.0
  0
MTEXT
  5
C4
330
1F
100
AcDbEntity
  8
FORMAT
100
AcDbMText
 10
7.9767730496
 20
40.3656938402
 30
0.0
 40
2.6458333333
 41
0.0
 71
     1
 72
     1
  1
11
  7
SLDTEXTSTYLE1
 73
     1
 44
1.0
  0
MTEXT
  5
C5
330
1F
100
AcDbEntity
  8
FORMAT
100
AcDbMText
 10
8.9767730496
 20
195.2856938402
 30
0.0
 40
2.6458333333
 41
0.0
 71
     1
 72
     1
  1
8
  7
SLDTEXTSTYLE1
 73
     1
 44
1.0
  0
MTEXT
  5
C6
330
1F
100
AcDbEntity
  8
FORMAT
100
AcDbMText
 10
8.9767730496
 20
350.2056938402
 30
0.0
 40
2.6458333333
 41
0.0
 71
     1
 72
     1
  1
5
  7
SLDTEXTSTYLE1
 73
     1
 44
1.0
  0
MTEXT
  5
C7
330
1F
100
AcDbEntity
  8
FORMAT
100
AcDbMText
 10
8.9767730496
 20
143.6456938402
 30
0.0
 40
2.6458333333
 41
0.0
 71
     1
 72
     1
  1
9
  7
SLDTEXTSTYLE1
 73
     1
 44
1.0
  0
MTEXT
  5
C8
330
1F
100
AcDbEntity
  8
FORMAT
100
AcDbMText
 10
8.9767730496
 20
296.5656938402
 30
0.0
 40
2.6458333333
 41
0.0
 71
     1
 72
     1
  1
6
  7
SLDTEXTSTYLE1
 73
     1
 44
1.0
  0
MTEXT
  5
C9
330
1F
100
AcDbEntity
  8
FORMAT
100
AcDbMText
 10
8.9767730496
 20
453.4856938402
 30
0.0
 40
2.6458333333
 41
0.0
 71
     1
 72
     1
  1
3
  7
SLDTEXTSTYLE1
 73
     1
 44
1.0
  0
LINE
  5
CA
330
1F
100
AcDbEntity
  8
0
  6
Continuous
 62
     7
370
    15
100
AcDbLine
 10
130.6564427426
 20
486.370874395
 30
0.0
 11
114.6564419826
 21
486.370874395
 31
0.0
  0
LINE
  5
CB
330
1F
100
AcDbEntity
  8
0
  6
Continuous
 62
     7
370
    15
100
AcDbLine
 10
114.6564419826
 20
286.3708714147
 30
0.0
 11
130.6564427426
 21
286.3708714147
 31
0.0
  0
LINE
  5
CC
330
1F
100
AcDbEntity
  8
0
  6
Continuous
 62
     7
370
    15
100
AcDbLine
 10
368.6564426383
 20
486.370874395
 30
0.0
 11
352.6564400157
 21
486.370874395
 31
0.0
  0
LINE
  5
CD
330
1F
100
AcDbEntity
  8
0
  6
Continuous
 62
     7
370
    15
100
AcDbLine
 10
352.6564400157
 20
286.3708714147
 30
0.0
 11
368.6564426383
 21
286.3708714147
 31
0.0
  0
LINE
  5
CE
330
1F
100
AcDbEntity
  8
0
  6
Continuous
 62
     7
370
    15
100
AcDbLine
 10
114.6564419826
 20
455.8708721896
 30
0.0
 11
111.6564433536
 21
452.8708735605
 31
0.0
  0
LINE
  5
CF
330
1F
100
AcDbEntity
  8
0
  6
Continuous
 62
     7
370
    15
100
AcDbLine
 10
111.6564433536
 20
319.8708722492
 30
0.0
 11
114.6564419826
 21
316.8708736201
 31
0.0
  0
LINE
  5
D0
330
1F
100
AcDbEntity
  8
0
  6
Continuous
 62
     7
370
    15
100
AcDbLine
 10
368.6564426383
 20
316.8708736201
 30
0.0
 11
371.656448718
 21
319.8708722492
 31
0.0
  0
LINE
  5
D1
330
1F
100
AcDbEntity
  8
0
  6
Continuous
 62
     7
370
    15
100
AcDbLine
 10
371.656448718
 20
452.8708735605
 30
0.0
 11
368.6564426383
 21
455.8708721896
 31
0.0
  0
ARC
  5
D2
330
1F
100
AcDbEntity
  8
0
  6
Continuous
 62
     7
370
    15
100
AcDbCircle
 10
135.6564427575
 20
323.3708729049
 30
0.0
 40
5.0
100
AcDbArc
 50
90.0
 51
180.0
  0
LINE
  5
D3
330
1F
100
AcDbEntity
  8
0
  6
Continuous
 62
     7
370
    15
100
AcDbLine
 10
185.2051831296
 20
495.8582127591
 30
0.0
 11
139.1919768861
 21
449.8450065156
 31
0.0
  0
LINE
  5
D4
330
1F
100
AcDbEntity
  8
0
  6
Continuous
 62
     7
370
    15
100
AcDbLine
 10
297.0422666034
 20
433.7470287581
 30
0.0
 11
303.4062247237
 21
440.1109868785
 31
0.0
  0
LINE
  5
D5
330
1F
100
AcDbEntity
  8
0
  6
Continuous
 62
     7
370
    15
100
AcDbLine
 10
212.8965567311
 20
530.6206548711
 30
0.0
 11
206.5325986108
 21
524.2566967507
 31
0.0
  0
LINE
  5
D6
330
1F
100
AcDbEntity
  8
0
  6
Continuous
 62
     7
370
    15
100
AcDbLine
 10
206.3911754152
 20
524.3981236716
 30
0.0
 11
191.8277229628
 21
503.7274116774
 31
0.0
  0
LINE
  5
D7
330
1F
100
AcDbEntity
  8
0
  6
Continuous
 62
     7
370
    15
100
AcDbLine
 10
135.6564435622
 20
328.3708745738
 30
0.0
 11
147.8870149216
 21
328.3708745738
 31
0.0
  0
ARC
  5
D8
330
1F
100
AcDbEntity
  8
0
  6
Continuous
 62
     7
370
    15
100
AcDbCircle
 10
142.7787761998
 20
538.2846202696
 30
0.0
 40
60.00000000000009
100
AcDbArc
 50
315.0
 51
324.8335639642
  0
ARC
  5
D9
330
1F
100
AcDbEntity
  8
0
  6
Continuous
 62
     7
370
    15
100
AcDbCircle
 10
347.6564427575
 20
334.3708729049
 30
0.0
 40
5.0
100
AcDbArc
 50
0.0
 51
90.0
  0
ARC
  5
DA
330
1F
100
AcDbEntity
  8
0
  6
Continuous
 62
     7
370
    15
100
AcDbCircle
 10
347.6564427575
 20
438.3708729049
 30
0.0
 40
5.0
100
AcDbArc
 50
270.0
 51
0.0
  0
LINE
  5
DB
330
1F
100
AcDbEntity
  8
0
  6
Continuous
 62
     7
370
    15
100
AcDbLine
 10
167.0493410414
 20
330.5767567953
 30
0.0
 11
193.6399686595
 21
339.2238149544
 31
0.0
  0
ARC
  5
DC
330
1F
100
AcDbEntity
  8
0
  6
Continuous
 62
     7
370
    15
100
AcDbCircle
 10
241.1808293751
 20
468.3952595225
 30
0.0
 40
57.0
100
AcDbArc
 50
339.9010623704
 51
0.0
  0
ARC
  5
DD
330
1F
100
AcDbEntity
  8
0
  6
Continuous
 62
     7
370
    15
100
AcDbCircle
 10
241.1808293751
 20
468.3952595225
 30
0.0
 40
57.0
100
AcDbArc
 50
0.0
 51
110.0989376296
  0
LINE
  5
DE
330
1F
100
AcDbEntity
  8
0
  6
Continuous
 62
     7
370
    15
100
AcDbLine
 10
196.4659589788
 20
339.3708745142
 30
0.0
 11
347.6564447841
 21
339.3708745142
 31
0.0
  0
LINE
  5
DF
330
1F
100
AcDbEntity
  8
0
  6
Continuous
 62
     7
370
    15
100
AcDbLine
 10
347.6564447841
 20
433.3708712955
 30
0.0
 11
297.4184166154
 21
433.3708712955
 31
0.0
  0
ARC
  5
E0
330
1F
100
AcDbEntity
  8
0
  6
Continuous
 62
     7
370
    15
100
AcDbCircle
 10
153.1330378205
 20
373.3708729049
 30
0.0
 40
45.00000000000001
100
AcDbArc
 50
270.0
 51
288.0141090614
  0
ARC
  5
E1
330
1F
100
AcDbEntity
  8
0
  6
Continuous
 62
     7
370
    15
100
AcDbCircle
 10
135.6564427575
 20
453.3805408967
 30
0.0
 40
4.999999999999997
100
AcDbArc
 50
180.0
 51
314.9712403242
  0
LINE
  5
E2
330
1F
100
AcDbEntity
  8
0
  6
Continuous
 62
     7
370
    15
100
AcDbLine
 10
147.8870149216
 20
328.3708745738
 30
0.0
 11
153.1330376377
 21
328.3708745738
 31
0.0
  0
ARC
  5
E3
330
1F
100
AcDbEntity
  8
0
  6
Continuous
 62
     7
370
    15
100
AcDbCircle
 10
194.5677233609
 20
336.3708729049
 30
0.0
 40
2.999999999999974
100
AcDbArc
 50
90.0
 51
108.0141090614
  0
LINE
  5
E4
330
1F
100
AcDbEntity
  8
0
  6
Continuous
 62
     7
370
    15
100
AcDbLine
 10
194.567722406
 20
339.3708745142
 30
0.0
 11
196.4659589788
 21
339.3708745142
 31
0.0
  0
LINE
  5
E5
330
1F
100
AcDbEntity
  8
0
  6
Continuous
 62
     7
370
    15
100
AcDbLine
 10
130.6564427426
 20
486.370874395
 30
0.0
 11
130.6564427426
 21
391.2516900462
 31
0.0
  0
LINE
  5
E6
330
1F
100
AcDbEntity
  8
0
  6
Continuous
 62
     7
370
    15
100
AcDbLine
 10
114.6564419826
 20
391.2516900462
 30
0.0
 11
130.6564427426
 21
391.2516900462
 31
0.0
  0
LINE
  5
E7
330
1F
100
AcDbEntity
  8
0
  6
Continuous
 62
     7
370
    15
100
AcDbLine
 10
114.6564419826
 20
486.370874395
 30
0.0
 11
114.6564419826
 21
391.2516900462
 31
0.0
  0
LINE
  5
E8
330
1F
100
AcDbEntity
  8
0
  6
Continuous
 62
     7
370
    15
100
AcDbLine
 10
114.6564419826
 20
381.4900557635
 30
0.0
 11
114.6564419826
 21
286.3708714147
 31
0.0
  0
LINE
  5
E9
330
1F
100
AcDbEntity
  8
0
  6
Continuous
 62
     7
370
    15
100
AcDbLine
 10
130.6564427426
 20
381.4900557635
 30
0.0
 11
114.6564419826
 21
381.4900557635
 31
0.0
  0
LINE
  5
EA
330
1F
100
AcDbEntity
  8
0
  6
Continuous
 62
     7
370
    15
100
AcDbLine
 10
130.6564427426
 20
381.4900557635
 30
0.0
 11
130.6564427426
 21
286.3708714147
 31
0.0
  0
LINE
  5
EB
330
1F
100
AcDbEntity
  8
0
  6
Continuous
 62
     7
370
    15
100
AcDbLine
 10
114.6564419826
 20
386.3708729049
 30
0.0
 11
130.6564427426
 21
386.3708729049
 31
0.0
  0
LINE
  5
EC
330
1F
100
AcDbEntity
  8
0
  6
Continuous
 62
     7
370
    15
100
AcDbLine
 10
130.6564427426
 20
386.3708729049
 30
0.0
 11
130.6564427426
 21
381.4900557635
 31
0.0
  0
LINE
  5
ED
330
1F
100
AcDbEntity
  8
0
  6
Continuous
 62
     7
370
    15
100
AcDbLine
 10
114.6564419826
 20
381.4900557635
 30
0.0
 11
114.6564419826
 21
386.3708729049
 31
0.0
  0
LINE
  5
EE
330
1F
100
AcDbEntity
  8
0
  6
Continuous
 62
     7
370
    15
100
AcDbLine
 10
130.6564427426
 20
391.2516900462
 30
0.0
 11
130.6564427426
 21
386.3708729049
 31
0.0
  0
LINE
  5
EF
330
1F
100
AcDbEntity
  8
0
  6
Continuous
 62
     7
370
    15
100
AcDbLine
 10
114.6564419826
 20
386.3708729049
 30
0.0
 11
114.6564419826
 21
391.2516900462
 31
0.0
  0
LINE
  5
F0
330
1F
100
AcDbEntity
  8
0
  6
Continuous
 62
     7
370
    15
100
AcDbLine
 10
352.6564400157
 20
391.2516900462
 30
0.0
 11
368.6564426383
 21
391.2516900462
 31
0.0
  0
LINE
  5
F1
330
1F
100
AcDbEntity
  8
0
  6
Continuous
 62
     7
370
    15
100
AcDbLine
 10
368.6564426383
 20
391.2516900462
 30
0.0
 11
368.6564426383
 21
386.3708729049
 31
0.0
  0
LINE
  5
F2
330
1F
100
AcDbEntity
  8
0
  6
Continuous
 62
     7
370
    15
100
AcDbLine
 10
352.6564400157
 20
386.3708729049
 30
0.0
 11
368.6564426383
 21
386.3708729049
 31
0.0
  0
LINE
  5
F3
330
1F
100
AcDbEntity
  8
0
  6
Continuous
 62
     7
370
    15
100
AcDbLine
 10
352.6564400157
 20
386.3708729049
 30
0.0
 11
352.6564400157
 21
391.2516900462
 31
0.0
  0
LINE
  5
F4
330
1F
100
AcDbEntity
  8
0
  6
Continuous
 62
     7
370
    15
100
AcDbLine
 10
368.6564426383
 20
486.370874395
 30
0.0
 11
368.6564426383
 21
391.2516900462
 31
0.0
  0
LINE
  5
F5
330
1F
100
AcDbEntity
  8
0
  6
Continuous
 62
     7
370
    15
100
AcDbLine
 10
352.6564400157
 20
486.370874395
 30
0.0
 11
352.6564400157
 21
391.2516900462
 31
0.0
  0
LINE
  5
F6
330
1F
100
AcDbEntity
  8
0
  6
Continuous
 62
     7
370
    15
100
AcDbLine
 10
368.6564426383
 20
386.3708729049
 30
0.0
 11
368.6564426383
 21
381.4900557635
 31
0.0
  0
LINE
  5
F7
330
1F
100
AcDbEntity
  8
0
  6
Continuous
 62
     7
370
    15
100
AcDbLine
 10
368.6564426383
 20
381.4900557635
 30
0.0
 11
352.6564400157
 21
381.4900557635
 31
0.0
  0
LINE
  5
F8
330
1F
100
AcDbEntity
  8
0
  6
Continuous
 62
     7
370
    15
100
AcDbLine
 10
352.6564400157
 20
381.4900557635
 30
0.0
 11
352.6564400157
 21
386.3708729049
 31
0.0
  0
LINE
  5
F9
330
1F
100
AcDbEntity
  8
0
  6
Continuous
 62
     7
370
    15
100
AcDbLine
 10
368.6564426383
 20
381.4900557635
 30
0.0
 11
368.6564426383
 21
286.3708714147
 31
0.0
  0
LINE
  5
FA
330
1F
100
AcDbEntity
  8
0
  6
Continuous
 62
     7
370
    15
100
AcDbLine
 10
352.6564400157
 20
381.4900557635
 30
0.0
 11
352.6564400157
 21
286.3708714147
 31
0.0
  0
LINE
  5
FB
330
1F
100
AcDbEntity
  8
0
  6
Continuous
 62
     7
370
    15
100
AcDbLine
 10
254.6339045724
 20
476.1553907891
 30
0.0
 11
250.7267679533
 21
472.9914570351
 31
0.0
  0
LINE
  5
FC
330
1F
100
AcDbEntity
  8
0
  6
Continuous
 62
     7
370
    15
100
AcDbLine
 10
250.7267679533
 20
472.9914570351
 30
0.0
 11
245.7770268878
 21
477.9411981006
 31
0.0
  0
LINE
  5
FD
330
1F
100
AcDbEntity
  8
0
  6
Continuous
 62
     7
370
    15
100
AcDbLine
 10
245.7770268878
 20
477.9411981006
 30
0.0
 11
248.9409606418
 21
481.8483347197
 31
0.0
  0
LINE
  5
FE
330
1F
100
AcDbEntity
  8
0
  6
Continuous
 62
     7
370
    15
100
AcDbLine
 10
242.9662730059
 20
487.8230223556
 30
0.0
 11
248.9409606418
 21
481.8483347197
 31
0.0
  0
LINE
  5
FF
330
1F
100
AcDbEntity
  8
0
  6
Continuous
 62
     7
370
    15
100
AcDbLine
 10
254.2799796423
 20
499.1367289921
 30
0.0
 11
271.9222988447
 21
481.4944097896
 31
0.0
  0
LINE
  5
100
330
1F
100
AcDbEntity
  8
0
  6
Continuous
 62
     7
370
    15
100
AcDbLine
 10
254.6339045724
 20
476.1553907891
 30
0.0
 11
260.6085922083
 21
470.1807031532
 31
0.0
  0
SPLINE
  5
101
330
1F
100
AcDbEntity
  8
0
  6
Continuous
 62
     7
370
    15
100
AcDbSpline
210
0.0
220
0.0
230
1.0
 70
     8
 71
     3
 72
    10
 73
     6
 74
     0
 42
0.00000001
 43
0.00000001
 12
1.0
 22
0.0
 32
0.0
 13
1.0
 23
0.0
 33
0.0
 40
0.0
 40
0.0
 40
0.0
 40
0.0
 40
0.4532026132581713
 40
0.9064161783077945
 40
1.0
 40
1.0
 40
1.0
 40
1.0
 10
236.7357175311042
 20
477.5990748902191
 30
0.0
 10
236.7082262188684
 20
477.6450944547551
 30
0.0
 10
236.6532429300599
 20
477.7371346959053
 30
0.0
 10
236.6134769627477
 20
477.8190179223221
 30
0.0
 10
236.6073750796081
 20
477.84857945154
 30
0.0
 10
236.606330748458
 20
477.8536388774742
 30
0.0
  0
LINE
  5
102
330
1F
100
AcDbEntity
  8
0
  6
Continuous
 62
     7
370
    15
100
AcDbLine
 10
240.6804944834
 20
477.0873094102
 30
0.0
 11
238.2056202253
 21
479.5621836682
 31
0.0
  0
LINE
  5
103
330
1F
100
AcDbEntity
  8
0
  6
Continuous
 62
     7
370
    15
100
AcDbLine
 10
239.8762639126
 20
476.28308629
 30
0.0
 11
240.6804944834
 21
477.0873094102
 31
0.0
  0
ELLIPSE
  5
104
330
1F
100
AcDbEntity
  8
0
  6
Continuous
 62
     7
370
    15
100
AcDbEllipse
 10
244.4724584164
 20
471.6868885637
 30
0.0
 11
4.596194077712568
 21
-4.596194077712597
 31
0.0
210
0.0
220
0.0
230
1.0
 40
0.0874886635
 41
3.141592653590025
 42
6.283185307179586
  0
LINE
  5
105
330
1F
100
AcDbEntity
  8
0
  6
Continuous
 62
     7
370
    15
100
AcDbLine
 10
249.0686561426
 20
467.0906940599
 30
0.0
 11
249.8728792628
 21
467.8949246307
 31
0.0
  0
LINE
  5
106
330
1F
100
AcDbEntity
  8
0
  6
Continuous
 62
     7
370
    15
100
AcDbLine
 10
249.8728792628
 20
467.8949246307
 30
0.0
 11
252.3477535209
 21
465.4200503727
 31
0.0
  0
SPLINE
  5
107
330
1F
100
AcDbEntity
  8
0
  6
Continuous
 62
     7
370
    15
100
AcDbSpline
210
0.0
220
0.0
230
1.0
 70
     8
 71
     3
 72
    10
 73
     6
 74
     0
 42
0.00000001
 43
0.00000001
 12
1.0
 22
0.0
 32
0.0
 13
1.0
 23
0.0
 33
0.0
 40
0.0
 40
0.0
 40
0.0
 40
0.0
 40
0.0554926163261608
 40
0.5277485424122146
 40
1.0
 40
1.0
 40
1.0
 40
1.0
 10
250.6386722883178
 20
463.8202617069115
 30
0.0
 10
250.6357234397564
 20
463.8208498962943
 30
0.0
 10
250.6076791586771
 20
463.826443723185
 30
0.0
 10
250.5269123766647
 20
463.8653432731845
 30
0.0
 10
250.4320671378933
 20
463.9218796325251
 30
0.0
 10
250.3846447428657
 20
463.9501476784577
 30
0.0
  0
LINE
  5
108
330
1F
100
AcDbEntity
  8
0
  6
Continuous
 62
     7
370
    15
100
AcDbLine
 10
254.2623068651
 20
472.2843447824
 30
0.0
 11
261.6869296392
 21
464.8597220083
 31
0.0
  0
LINE
  5
109
330
1F
100
AcDbEntity
  8
0
  6
Continuous
 62
     7
370
    15
100
AcDbLine
 10
257.2975020369
 20
460.4703018566
 30
0.0
 11
261.6869296392
 21
464.8597220083
 31
0.0
  0
LINE
  5
10A
330
1F
100
AcDbEntity
  8
0
  6
Continuous
 62
     7
370
    15
100
AcDbLine
 10
257.2975020369
 20
460.4703018566
 30
0.0
 11
252.3477535209
 21
465.4200503727
 31
0.0
  0
LINE
  5
10B
330
1F
100
AcDbEntity
  8
0
  6
Continuous
 62
     7
370
    15
100
AcDbLine
 10
249.8728792628
 20
467.8949246307
 30
0.0
 11
254.2623068651
 21
472.2843447824
 31
0.0
  0
LINE
  5
10C
330
1F
100
AcDbEntity
  8
0
  6
Continuous
 62
     7
370
    15
100
AcDbLine
 10
233.2558717092
 20
484.5119321843
 30
0.0
 11
238.2056202253
 21
479.5621836682
 31
0.0
  0
LINE
  5
10D
330
1F
100
AcDbEntity
  8
0
  6
Continuous
 62
     7
370
    15
100
AcDbLine
 10
233.2558717092
 20
484.5119321843
 30
0.0
 11
237.645291861
 21
488.9013597866
 31
0.0
  0
LINE
  5
10E
330
1F
100
AcDbEntity
  8
0
  6
Continuous
 62
     7
370
    15
100
AcDbLine
 10
245.0699146351
 20
481.4767370125
 30
0.0
 11
237.645291861
 21
488.9013597866
 31
0.0
  0
LINE
  5
10F
330
1F
100
AcDbEntity
  8
0
  6
Continuous
 62
     7
370
    15
100
AcDbLine
 10
240.6804944834
 20
477.0873094102
 30
0.0
 11
245.0699146351
 21
481.4767370125
 31
0.0
  0
LINE
  5
110
330
1F
100
AcDbEntity
  8
0
  6
Continuous
 62
     7
370
    15
100
AcDbLine
 10
221.1537036559
 20
421.8572320541
 30
0.0
 11
257.2975020369
 21
460.4703018566
 31
0.0
  0
LINE
  5
111
330
1F
100
AcDbEntity
  8
0
  6
Continuous
 62
     7
370
    15
100
AcDbLine
 10
216.1905627212
 20
426.8203729888
 30
0.0
 11
221.1537036559
 21
421.8572320541
 31
0.0
  0
LINE
  5
112
330
1F
100
AcDbEntity
  8
0
  6
Continuous
 62
     7
370
    15
100
AcDbLine
 10
213.7346837183
 20
429.2762519916
 30
0.0
 11
216.1905627212
 21
426.8203729888
 31
0.0
  0
LINE
  5
113
330
1F
100
AcDbEntity
  8
0
  6
Continuous
 62
     7
370
    15
100
AcDbLine
 10
215.565894868
 20
430.9903586408
 30
0.0
 11
213.7346837183
 21
429.2762519916
 31
0.0
  0
LINE
  5
114
330
1F
100
AcDbEntity
  8
0
  6
Continuous
 62
     7
370
    15
100
AcDbLine
 10
252.3477535209
 20
465.4200503727
 30
0.0
 11
215.565894868
 21
430.9903586408
 31
0.0
  0
LINE
  5
115
330
1F
100
AcDbEntity
  8
0
  6
Continuous
 62
     7
370
    15
100
AcDbLine
 10
203.7759284934
 20
442.7803250154
 30
0.0
 11
202.0618218442
 21
440.9491138657
 31
0.0
  0
LINE
  5
116
330
1F
100
AcDbEntity
  8
0
  6
Continuous
 62
     7
370
    15
100
AcDbLine
 10
202.0618218442
 20
440.9491138657
 30
0.0
 11
199.6059428414
 21
443.4049928685
 31
0.0
  0
LINE
  5
117
330
1F
100
AcDbEntity
  8
0
  6
Continuous
 62
     7
370
    15
100
AcDbLine
 10
199.6059428414
 20
443.4049928685
 30
0.0
 11
194.6428019067
 21
448.3681338032
 31
0.0
  0
LINE
  5
118
330
1F
100
AcDbEntity
  8
0
  6
Continuous
 62
     7
370
    15
100
AcDbLine
 10
194.6428019067
 20
448.3681338032
 30
0.0
 11
233.2558717092
 21
484.5119321843
 31
0.0
  0
LINE
  5
119
330
1F
100
AcDbEntity
  8
0
  6
Continuous
 62
     7
370
    15
100
AcDbLine
 10
238.2056202253
 20
479.5621836682
 30
0.0
 11
203.7759284934
 21
442.7803250154
 31
0.0
  0
ELLIPSE
  5
11A
330
1F
100
AcDbEntity
  8
0
  6
Continuous
 62
     7
370
    15
100
AcDbEllipse
 10
271.6129802769
 20
481.1850907818
 30
0.0
 11
3.535533905932709
 21
-3.535533905932766
 31
0.0
210
0.0
220
0.0
230
1.0
 40
0.0874886635
 41
0.0996558247813423
 42
1.570796326794897
  0
LWPOLYLINE
  5
11B
330
1F
100
AcDbEntity
  8
0
  6
Continuous
 62
     7
370
    15
100
AcDbPolyline
 90
       24
 70
   128
 43
0.0
 10
264.1265850028
 20
466.6627103587
 10
264.0969018897
 20
466.6923860212
 10
264.0529583653
 20
466.7363295456
 10
263.9949332437
 20
466.7943621178
 10
263.9230500421
 20
466.8662453194
 10
263.8376142343
 20
466.9516811272
 10
263.7389685472
 20
467.0503193637
 10
263.6275227627
 20
467.1617651482
 10
263.5037313661
 20
467.2855565449
 10
263.3681009969
 20
467.4211943646
 10
263.2211829981
 20
467.5681123634
 10
263.0635808667
 20
467.7257144948
 10
262.8959353527
 20
467.8933600088
 10
262.71893936
 20
468.0703560015
 10
262.5333081445
 20
468.255987217
 10
262.3398016652
 20
468.4494862457
 10
262.139224585
 20
468.6500707765
 10
261.9323815664
 20
468.8569137951
 10
261.7201219758
 20
469.0691659351
 10
261.5033249816
 20
469.2859703799
 10
261.2828623017
 20
469.5064330598
 10
261.059642907
 20
469.7296524545
 10
260.8345757684
 20
469.9547121425
 10
260.6085922083
 20
470.1807031532
  0
ELLIPSE
  5
11C
330
1F
100
AcDbEntity
  8
0
  6
Continuous
 62
     7
370
    15
100
AcDbEllipse
 10
253.9706606344
 20
498.8274104242
 30
0.0
 11
3.535533905932738
 21
-3.53553390593271
 31
0.0
210
0.0
220
0.0
230
1.0
 40
0.0874886635
 41
1.570796326794896
 42
3.041936828808494
  0
LWPOLYLINE
  5
11D
330
1F
100
AcDbEntity
  8
0
  6
Continuous
 62
     7
370
    15
100
AcDbPolyline
 90
       24
 70
   128
 43
0.0
 10
242.9662730059
 20
487.8230223556
 10
242.7402819952
 20
488.0490059157
 10
242.5152223071
 20
488.2740730544
 10
242.2920029124
 20
488.4972924491
 10
242.0715402326
 20
488.7177551289
 10
241.8547357878
 20
488.9345521232
 10
241.6424836477
 20
489.1468117138
 10
241.4356406292
 20
489.3536547323
 10
241.2350560984
 20
489.5542318126
 10
241.0415570697
 20
489.7477382918
 10
240.8559258541
 20
489.9333695074
 10
240.6789298614
 20
490.1103655001
 10
240.5112843474
 20
490.2780110141
 10
240.3536822161
 20
490.4356131454
 10
240.2067642173
 20
490.5825311442
 10
240.0711263975
 20
490.7181615134
 10
239.9473350009
 20
490.84195291
 10
239.8358892163
 20
490.9533986946
 10
239.7372509798
 20
491.0520443817
 10
239.6518151721
 20
491.1374801894
 10
239.5799319705
 20
491.209363391
 10
239.5218993982
 20
491.2673885127
 10
239.4779558739
 20
491.3113320371
 10
239.4482802113
 20
491.3410151502
  0
LINE
  5
11E
330
1F
100
AcDbEntity
  8
0
  6
Continuous
 62
     7
370
    15
100
AcDbLine
 10
257.2975020369
 20
460.4703018566
 30
0.0
 11
260.5481158456
 21
453.2922858497
 31
0.0
  0
SPLINE
  5
11F
330
1F
100
AcDbEntity
  8
0
  6
Continuous
 62
     7
370
    15
100
AcDbSpline
210
0.0
220
0.0
230
1.0
 70
     8
 71
     3
 72
    10
 73
     6
 74
     0
 42
0.00000001
 43
0.00000001
 12
1.0
 22
0.0
 32
0.0
 13
1.0
 23
0.0
 33
0.0
 40
0.0
 40
0.0
 40
0.0
 40
0.0
 40
0.5
 40
0.5
 40
1.0
 40
1.0
 40
1.0
 40
1.0
 10
266.3507614889847
 20
460.195890157138
 30
0.0
 10
266.4471672949909
 20
460.0994843511317
 30
0.0
 10
266.5941890326022
 20
460.058021401569
 30
0.0
 10
266.9866673660371
 20
460.0819451071493
 30
0.0
 10
267.2348498828195
 20
460.149040878973
 30
0.0
 10
267.5295707375208
 20
460.2760863760889
 30
0.0
  0
SPLINE
  5
120
330
1F
100
AcDbEntity
  8
0
  6
Continuous
 62
     7
370
    15
100
AcDbSpline
210
0.0
220
0.0
230
1.0
 70
     8
 71
     3
 72
     8
 73
     4
 74
     0
 42
0.00000001
 43
0.00000001
 12
1.0
 22
0.0
 32
0.0
 13
1.0
 23
0.0
 33
0.0
 40
0.0
 40
0.0
 40
0.0
 40
0.0
 40
1.0
 40
1.0
 40
1.0
 40
1.0
 10
260.5062895326863
 20
452.5084025251082
 30
0.0
 10
260.6160004307895
 20
452.8551391175675
 30
0.0
 10
260.6283825789892
 20
453.1150403431848
 30
0.0
 10
260.5481172000109
 20
453.2922827242418
 30
0.0
  0
LINE
  5
121
330
1F
100
AcDbEntity
  8
0
  6
Continuous
 62
     7
370
    15
100
AcDbLine
 10
261.6869296392
 20
464.8597220083
 30
0.0
 11
266.3507621249
 21
460.1958895226
 31
0.0
  0
SPLINE
  5
122
330
1F
100
AcDbEntity
  8
0
  6
Continuous
 62
     7
370
    15
100
AcDbSpline
210
0.0
220
0.0
230
1.0
 70
     8
 71
     3
 72
     8
 73
     4
 74
     0
 42
0.00000001
 43
0.00000001
 12
1.0
 22
0.0
 32
0.0
 13
1.0
 23
0.0
 33
0.0
 40
0.0
 40
0.0
 40
0.0
 40
0.0
 40
1.0
 40
1.0
 40
1.0
 40
1.0
 10
226.0778525768881
 20
487.7625473473645
 30
0.0
 10
225.900610195831
 20
487.8428127263428
 30
0.0
 10
225.6407089702137
 20
487.8304305781431
 30
0.0
 10
225.2939723777544
 20
487.7207196800399
 30
0.0
  0
SPLINE
  5
123
330
1F
100
AcDbEntity
  8
0
  6
Continuous
 62
     7
370
    15
100
AcDbSpline
210
0.0
220
0.0
230
1.0
 70
     8
 71
     3
 72
    10
 73
     6
 74
     0
 42
0.00000001
 43
0.00000001
 12
1.0
 22
0.0
 32
0.0
 13
1.0
 23
0.0
 33
0.0
 40
0.0
 40
0.0
 40
0.0
 40
0.0
 40
0.4999999999999972
 40
0.4999999999999972
 40
1.0
 40
1.0
 40
1.0
 40
1.0
 10
233.061656228735
 20
494.7440008848744
 30
0.0
 10
232.9344689491778
 20
494.4489511224728
 30
0.0
 10
232.8686838547338
 20
494.2065598691892
 30
0.0
 10
232.8430178596752
 20
493.8126007909106
 30
0.0
 10
232.885019505618
 20
493.6616321405045
 30
0.0
 10
232.9814600097842
 20
493.5651916363384
 30
0.0
  0
LINE
  5
124
330
1F
100
AcDbEntity
  8
0
  6
Continuous
 62
     7
370
    15
100
AcDbLine
 10
233.2558717092
 20
484.5119321843
 30
0.0
 11
226.0778557023
 21
487.7625459929
 31
0.0
  0
LINE
  5
125
330
1F
100
AcDbEntity
  8
0
  6
Continuous
 62
     7
370
    15
100
AcDbLine
 10
237.645291861
 20
488.9013597866
 30
0.0
 11
232.9814593753
 21
493.5651922723
 31
0.0
  0
SPLINE
  5
126
330
1F
100
AcDbEntity
  8
0
  6
Continuous
 62
     7
370
    15
100
AcDbSpline
210
0.0
220
0.0
230
1.0
 70
     8
 71
     3
 72
     8
 73
     4
 74
     0
 42
0.00000001
 43
0.00000001
 12
1.0
 22
0.0
 32
0.0
 13
1.0
 23
0.0
 33
0.0
 40
0.0
 40
0.0
 40
0.0
 40
0.0
 40
1.0
 40
1.0
 40
1.0
 40
1.0
 10
275.4997249400839
 20
472.8261819529682
 30
0.0
 10
275.4895446225002
 20
472.8470670625558
 30
0.0
 10
275.4834711808448
 20
472.8720098279427
 30
0.0
 10
275.4815357674975
 20
472.9010410281533
 30
0.0
  0
LINE
  5
127
330
1F
100
AcDbEntity
  8
0
  6
Continuous
 62
     7
370
    15
100
AcDbLine
 10
275.4815380534
 20
472.9010442396
 30
0.0
 11
275.161744233
 21
477.6978695889
 31
0.0
  0
LINE
  5
128
330
1F
100
AcDbEntity
  8
0
  6
Continuous
 62
     7
370
    15
100
AcDbLine
 10
265.868679758
 20
464.9206156035
 30
0.0
 11
264.1265850028
 21
466.6627103587
 31
0.0
  0
SPLINE
  5
129
330
1F
100
AcDbEntity
  8
0
  6
Continuous
 62
     7
370
    15
100
AcDbSpline
210
0.0
220
0.0
230
1.0
 70
     8
 71
     3
 72
     8
 73
     4
 74
     0
 42
0.00000001
 43
0.00000001
 12
1.0
 22
0.0
 32
0.0
 13
1.0
 23
0.0
 33
0.0
 40
0.0
 40
0.0
 40
0.0
 40
0.0
 40
1.0
 40
1.0
 40
1.0
 40
1.0
 10
245.6866108807995
 20
502.6959659148511
 30
0.0
 10
245.6575796805888
 20
502.6979013281986
 30
0.0
 10
245.6326369152019
 20
502.703974769854
 30
0.0
 10
245.6117518056143
 20
502.7141550874376
 30
0.0
  0
LINE
  5
12A
330
1F
100
AcDbEntity
  8
0
  6
Continuous
 62
     7
370
    15
100
AcDbLine
 10
250.4834394416
 20
502.3761743804
 30
0.0
 11
245.6866140923
 21
502.6959682008
 31
0.0
  0
LINE
  5
12B
330
1F
100
AcDbEntity
  8
0
  6
Continuous
 62
     7
370
    15
100
AcDbLine
 10
239.4482802113
 20
491.3410151502
 30
0.0
 11
237.7061854562
 21
493.0831099053
 31
0.0
  0
LINE
  5
12C
330
1F
100
AcDbEntity
  8
0
  6
Continuous
 62
     7
370
    15
100
AcDbLine
 10
245.0699146351
 20
481.4767370125
 30
0.0
 11
247.0425974091
 21
479.5040542384
 31
0.0
  0
LINE
  5
12D
330
1F
100
AcDbEntity
  8
0
  6
Continuous
 62
     7
370
    15
100
AcDbLine
 10
252.289624091
 20
474.2570275565
 30
0.0
 11
254.2623068651
 21
472.2843447824
 31
0.0
  0
LINE
  5
12E
330
1F
100
AcDbEntity
  8
0
  6
Continuous
 62
     7
370
    15
100
AcDbLine
 10
111.6564433536
 20
452.8708735605
 30
0.0
 11
111.6564433536
 21
319.8708722492
 31
0.0
  0
LINE
  5
12F
330
1F
100
AcDbEntity
  8
0
  6
Continuous
 62
     7
370
    15
100
AcDbLine
 10
371.656448718
 20
452.8708735605
 30
0.0
 11
371.656448718
 21
319.8708722492
 31
0.0
  0
SPLINE
  5
130
330
1F
100
AcDbEntity
  8
0
  6
Continuous
 62
     7
370
    15
100
AcDbSpline
210
0.0
220
0.0
230
1.0
 70
     8
 71
     3
 72
    16
 73
    12
 74
     0
 42
0.00000001
 43
0.00000001
 12
1.0
 22
0.0
 32
0.0
 13
1.0
 23
0.0
 33
0.0
 40
0.0
 40
0.0
 40
0.0
 40
0.0
 40
0.1250000000000009
 40
0.1250000000000009
 40
0.2500000000000018
 40
0.2500000000000018
 40
0.5000000000000012
 40
0.5000000000000012
 40
0.7500000000000007
 40
0.7500000000000007
 40
1.0
 40
1.0
 40
1.0
 40
1.0
 10
232.6244384581072
 20
498.1648538751347
 30
0.0
 10
232.7547390941531
 20
498.0345532390887
 30
0.0
 10
232.8641414033065
 20
497.893974110019
 30
0.0
 10
233.0449546067121
 20
497.5951790077048
 30
0.0
 10
233.1168250283922
 20
497.4353743763776
 30
0.0
 10
233.2794248023009
 20
496.9547041393947
 30
0.0
 10
233.3228378102801
 20
496.628718194311
 30
0.0
 10
233.3398420693555
 20
496.0052354062297
 30
0.0
 10
233.3130107389545
 20
495.7133731660546
 30
0.0
 10
233.2172215374533
 20
495.1822331052381
 30
0.0
 10
233.1468101687211
 20
494.9415414710704
 30
0.0
 10
233.0616562287351
 20
494.7440008848745
 30
0.0
  0
LWPOLYLINE
  5
131
330
1F
100
AcDbEntity
  8
0
  6
Continuous
 62
     7
370
    15
100
AcDbPolyline
 90
        9
 70
   128
 43
0.0
 10
236.3066683968
 20
494.4826269647
 10
235.8392785748
 20
494.9500167867
 10
235.3738035521
 20
495.4154843589
 10
234.9103103837
 20
495.8789775272
 10
234.4488512238
 20
496.3404441377
 10
233.9894782266
 20
496.7998171349
 10
233.5322509965
 20
497.257044365
 10
233.0772142371
 20
497.7120736738
 10
232.6244350037
 20
498.1648529073
  0
LWPOLYLINE
  5
132
330
1F
100
AcDbEntity
  8
0
  6
Continuous
 62
     7
370
    15
100
AcDbPolyline
 90
        9
 70
   128
 43
0.0
 10
270.9504227599
 20
459.838865151
 10
270.4976435265
 20
460.2916443845
 10
270.0426142177
 20
460.7466811438
 10
269.5853869876
 20
461.2039083739
 10
269.1260139903
 20
461.6632813712
 10
268.6645473799
 20
462.1247405311
 10
268.2010542115
 20
462.5882336994
 10
267.7355866393
 20
463.0537087222
 10
267.2681968173
 20
463.5210985442
  0
SPLINE
  5
133
330
1F
100
AcDbEntity
  8
0
  6
Continuous
 62
     7
370
    15
100
AcDbSpline
210
0.0
220
0.0
230
1.0
 70
     8
 71
     3
 72
    18
 73
    14
 74
     0
 42
0.00000001
 43
0.00000001
 12
1.0
 22
0.0
 32
0.0
 13
1.0
 23
0.0
 33
0.0
 40
0.0
 40
0.0
 40
0.0
 40
0.0
 40
0.125
 40
0.125
 40
0.25
 40
0.25
 40
0.375
 40
0.375
 40
0.5
 40
0.5
 40
0.75
 40
0.75
 40
1.0
 40
1.0
 40
1.0
 40
1.0
 10
270.9504237277966
 20
459.838868605478
 30
0.0
 10
270.8201386933716
 20
459.9691536399029
 30
0.0
 10
270.6795488975923
 20
460.0785729513888
 30
0.0
 10
270.3806624833819
 20
460.2594326360708
 30
0.0
 10
270.220817603578
 20
460.3313030868805
 30
0.0
 10
269.9004826836971
 20
460.4396549258099
 30
0.0
 10
269.7392759448202
 20
460.4771282834619
 30
0.0
 10
269.418580270714
 20
460.5280881943026
 30
0.0
 10
269.2582500198136
 20
460.5415268241925
 30
0.0
 10
268.7908896628497
 20
460.5542634357727
 30
0.0
 10
268.4990600263065
 20
460.5274576882903
 30
0.0
 10
267.9678124244634
 20
460.4316576909662
 30
0.0
 10
267.7270936382145
 20
460.3612326923747
 30
0.0
 10
267.5295707375208
 20
460.2760863760889
 30
0.0
  0
SPLINE
  5
134
330
1F
100
AcDbEntity
  8
0
  6
Continuous
 62
     7
370
    15
100
AcDbSpline
210
0.0
220
0.0
230
1.0
 70
     8
 71
     3
 72
    22
 73
    18
 74
     0
 42
0.00000001
 43
0.00000001
 12
1.0
 22
0.0
 32
0.0
 13
1.0
 23
0.0
 33
0.0
 40
0.0
 40
0.0
 40
0.0
 40
0.0
 40
0.1249999999999996
 40
0.1249999999999996
 40
0.2499999999999991
 40
0.2499999999999991
 40
0.3749999999999987
 40
0.3749999999999987
 40
0.4999999999999982
 40
0.4999999999999982
 40
0.7499999999999964
 40
0.7499999999999964
 40
0.8749999999999957
 40
0.8749999999999957
 40
0.9374999999999978
 40
0.9374999999999978
 40
1.0
 40
1.0
 40
1.0
 40
1.0
 10
236.7357180099407
 20
477.5990729372997
 30
0.0
 10
236.8022101902107
 20
477.4930407521374
 30
0.0
 10
236.8645181878922
 20
477.3467155958585
 30
0.0
 10
236.9815827110124
 20
476.9891029350616
 30
0.0
 10
237.0368003844029
 20
476.7747996958162
 30
0.0
 10
237.136060143381
 20
476.3068056403543
 30
0.0
 10
237.1805736000518
 20
476.0524692419169
 30
0.0
 10
237.2608718974278
 20
475.5101987808422
 30
0.0
 10
237.2967889114687
 20
475.2202610401935
 30
0.0
 10
237.3902559503659
 20
474.329562112714
 30
0.0
 10
237.4348898842973
 20
473.7029782867286
 30
0.0
 10
237.4814074906785
 20
472.7235578625169
 30
0.0
 10
237.4933886129368
 20
472.3906191094587
 30
0.0
 10
237.5063312829682
 20
471.8893948030835
 30
0.0
 10
237.5098214043346
 20
471.721682371447
 30
0.0
 10
237.5152232471547
 20
471.3850002182167
 30
0.0
 10
237.5171425852134
 20
471.214567675617
 30
0.0
 10
237.5182802029905
 20
471.0465641747805
 30
0.0
  0
SPLINE
  5
135
330
1F
100
AcDbEntity
  8
0
  6
Continuous
 62
     7
370
    15
100
AcDbSpline
210
0.0
220
0.0
230
1.0
 70
     8
 71
     3
 72
    22
 73
    18
 74
     0
 42
0.00000001
 43
0.00000001
 12
1.0
 22
0.0
 32
0.0
 13
1.0
 23
0.0
 33
0.0
 40
0.0
 40
0.0
 40
0.0
 40
0.0
 40
0.124999999999999
 40
0.124999999999999
 40
0.2499999999999979
 40
0.2499999999999979
 40
0.3749999999999969
 40
0.3749999999999969
 40
0.4999999999999959
 40
0.4999999999999959
 40
0.7500000000000007
 40
0.7500000000000007
 40
0.8750000000000031
 40
0.8750000000000031
 40
0.9375000000000016
 40
0.9375000000000016
 40
1.0
 40
1.0
 40
1.0
 40
1.0
 10
250.384642789946
 20
463.9501481572944
 30
0.0
 10
250.2786106047837
 20
464.0166403375645
 30
0.0
 10
250.1322854485049
 20
464.0789483352459
 30
0.0
 10
249.7746727877079
 20
464.1960128583661
 30
0.0
 10
249.5603695484624
 20
464.2512305317567
 30
0.0
 10
249.0923754930006
 20
464.3504902907348
 30
0.0
 10
248.8380390945631
 20
464.3950037474055
 30
0.0
 10
248.2957686334884
 20
464.4753020447815
 30
0.0
 10
248.0058308928399
 20
464.5112190588224
 30
0.0
 10
247.1151319653604
 20
464.6046860977197
 30
0.0
 10
246.4885481393749
 20
464.649320031651
 30
0.0
 10
245.5091277151632
 20
464.6958376380323
 30
0.0
 10
245.176188962105
 20
464.7078187602905
 30
0.0
 10
244.6749646557299
 20
464.7207614303219
 30
0.0
 10
244.5072522240933
 20
464.7242515516882
 30
0.0
 10
244.1705700708631
 20
464.7296533945084
 30
0.0
 10
244.0001375282633
 20
464.7315727325959
 30
0.0
 10
243.8321340274269
 20
464.7327103503442
 30
0.0
  0
SPLINE
  5
136
330
1F
100
AcDbEntity
  8
0
  6
Continuous
 62
     7
370
    15
100
AcDbSpline
210
0.0
220
0.0
230
1.0
 70
     8
 71
     3
 72
    20
 73
    16
 74
     0
 42
0.00000001
 43
0.00000001
 12
1.0
 22
0.0
 32
0.0
 13
1.0
 23
0.0
 33
0.0
 40
0.0
 40
0.0
 40
0.0
 40
0.0
 40
0.0019362510588052
 40
0.0925059957453889
 40
0.1830737894138269
 40
0.2920674445575345
 40
0.4013964169599036
 40
0.5106127564679576
 40
0.6194530621851397
 40
0.6921297337348629
 40
0.7650292721184425
 40
0.837838122564691
 40
0.9103902485047941
 40
0.9667063033267789
 40
1.0
 40
1.0
 40
1.0
 40
1.0
 10
225.9289782008125
 20
482.1784252425064
 30
0.0
 10
225.933404170634
 20
482.1786089379673
 30
0.0
 10
226.1448585394361
 20
482.1873851405401
 30
0.0
 10
226.558933261471
 20
482.2059127041024
 30
0.0
 10
227.1989806380916
 20
482.2385525977789
 30
0.0
 10
227.8589067348826
 20
482.276610080906
 30
0.0
 10
228.5285597570062
 20
482.3204364404905
 30
0.0
 10
229.1610681027802
 20
482.3674782123733
 30
0.0
 10
229.6829965859874
 20
482.4118466678634
 30
0.0
 10
230.1038454592181
 20
482.4522986329673
 30
0.0
 10
230.4359107018361
 20
482.488236566229
 30
0.0
 10
230.7341797959377
 20
482.5253946136958
 30
0.0
 10
230.9705889932017
 20
482.5609116200784
 30
0.0
 10
231.1342932307426
 20
482.5901138410605
 30
0.0
 10
231.201987150656
 20
482.6067533810227
 30
0.0
 10
231.2271382173492
 20
482.6129356523384
 30
0.0
  0
SPLINE
  5
137
330
1F
100
AcDbEntity
  8
0
  6
Continuous
 62
     7
370
    15
100
AcDbSpline
210
0.0
220
0.0
230
1.0
 70
     8
 71
     3
 72
    18
 73
    14
 74
     0
 42
0.00000001
 43
0.00000001
 12
1.0
 22
0.0
 32
0.0
 13
1.0
 23
0.0
 33
0.0
 40
0.0
 40
0.0
 40
0.0
 40
0.0
 40
0.2499999999999989
 40
0.2499999999999989
 40
0.4999999999999979
 40
0.4999999999999979
 40
0.7499999999999969
 40
0.7499999999999969
 40
0.874999999999999
 40
0.874999999999999
 40
0.9374999999999994
 40
0.9374999999999994
 40
1.0
 40
1.0
 40
1.0
 40
1.0
 10
225.2939723777545
 20
487.72071968004
 30
0.0
 10
225.058175711767
 20
487.6461112753956
 30
0.0
 10
224.7612559958276
 20
487.5788860138123
 30
0.0
 10
224.0844261643375
 20
487.4536416193061
 30
0.0
 10
223.7000249328901
 20
487.3953831973363
 30
0.0
 10
222.8871697800794
 20
487.2902923662348
 30
0.0
 10
222.4569837136984
 20
487.2430523580849
 30
0.0
 10
221.7814492130165
 20
487.179668269499
 30
0.0
 10
221.5511652540061
 20
487.1598037831699
 30
0.0
 10
221.1982846734275
 20
487.1319798866443
 30
0.0
 10
221.0794126073147
 20
487.1230349213228
 30
0.0
 10
220.8391796510615
 20
487.1058277395817
 30
0.0
 10
220.7168127929192
 20
487.0974994947914
 30
0.0
 10
220.5953208179797
 20
487.0896675903158
 30
0.0
  0
SPLINE
  5
138
330
1F
100
AcDbEntity
  8
0
  6
Continuous
 62
     7
370
    15
100
AcDbSpline
210
0.0
220
0.0
230
1.0
 70
     8
 71
     3
 72
    18
 73
    14
 74
     0
 42
0.00000001
 43
0.00000001
 12
1.0
 22
0.0
 32
0.0
 13
1.0
 23
0.0
 33
0.0
 40
0.0
 40
0.0
 40
0.0
 40
0.0
 40
0.2499999999999987
 40
0.2499999999999987
 40
0.3749999999999984
 40
0.3749999999999984
 40
0.4999999999999981
 40
0.4999999999999981
 40
0.7500000000000009
 40
0.7500000000000009
 40
0.8750000000000004
 40
0.8750000000000004
 40
1.0
 40
1.0
 40
1.0
 40
1.0
 10
260.5062895326863
 20
452.5084025251082
 30
0.0
 10
260.4319048815518
 20
452.2733130225011
 30
0.0
 10
260.3646452475148
 20
451.9766689772741
 30
0.0
 10
260.2705101572938
 20
451.4680169581325
 30
0.0
 10
260.2401834854642
 20
451.2866499492754
 30
0.0
 10
260.182389523772
 20
450.9090312194384
 30
0.0
 10
260.1549281553144
 20
450.7130134312554
 30
0.0
 10
260.0764018098728
 20
450.1060599912468
 30
0.0
 10
260.0291367550158
 20
449.6764380054162
 30
0.0
 10
259.965563451659
 20
448.9995733893131
 30
0.0
 10
259.9456095927763
 20
448.7684834523117
 30
0.0
 10
259.9083045820005
 20
448.2955655462027
 30
0.0
 10
259.8909131413565
 20
448.0529193472948
 30
0.0
 10
259.8752374429621
 20
447.8097509653334
 30
0.0
  0
SPLINE
  5
139
330
1F
100
AcDbEntity
  8
0
  6
Continuous
 62
     7
370
    15
100
AcDbSpline
210
0.0
220
0.0
230
1.0
 70
     8
 71
     3
 72
    20
 73
    16
 74
     0
 42
0.00000001
 43
0.00000001
 12
1.0
 22
0.0
 32
0.0
 13
1.0
 23
0.0
 33
0.0
 40
0.0
 40
0.0
 40
0.0
 40
0.0
 40
0.0019362510588052
 40
0.0925059957453889
 40
0.1830737894138269
 40
0.2920674445575345
 40
0.4013964169599036
 40
0.5106127564679576
 40
0.6194530621851397
 40
0.6921297337348629
 40
0.7650292721184425
 40
0.837838122564691
 40
0.9103902485047941
 40
0.9667063033267789
 40
1.0
 40
1.0
 40
1.0
 40
1.0
 10
254.963995095153
 20
453.1434083481659
 30
0.0
 10
254.9641787906139
 20
453.1478343179874
 30
0.0
 10
254.9729549931866
 20
453.3592886867896
 30
0.0
 10
254.991482556749
 20
453.7733634088244
 30
0.0
 10
255.0241224504255
 20
454.4134107854451
 30
0.0
 10
255.0621799335526
 20
455.0733368822359
 30
0.0
 10
255.1060062931371
 20
455.7429899043596
 30
0.0
 10
255.1530480650199
 20
456.3754982501335
 30
0.0
 10
255.19741652051
 20
456.8974267333408
 30
0.0
 10
255.2378684856139
 20
457.3182756065714
 30
0.0
 10
255.2738064188756
 20
457.6503408491895
 30
0.0
 10
255.3109644663424
 20
457.9486099432912
 30
0.0
 10
255.346481472725
 20
458.1850191405551
 30
0.0
 10
255.3756836937071
 20
458.3487233780961
 30
0.0
 10
255.3923232336692
 20
458.4164172980094
 30
0.0
 10
255.398505504985
 20
458.4415683647026
 30
0.0
  0
SPLINE
  5
13A
330
1F
100
AcDbEntity
  8
0
  6
Continuous
 62
     7
370
    15
100
AcDbSpline
210
0.0
220
0.0
230
1.0
 70
     8
 71
     3
 72
    24
 73
    20
 74
     0
 42
0.00000001
 43
0.00000001
 12
1.0
 22
0.0
 32
0.0
 13
1.0
 23
0.0
 33
0.0
 40
0.0
 40
0.0
 40
0.0
 40
0.0
 40
0.1249999999999996
 40
0.1249999999999996
 40
0.2499999999999993
 40
0.2499999999999993
 40
0.3749999999999989
 40
0.3749999999999989
 40
0.4999999999999986
 40
0.4999999999999986
 40
0.6249999999999982
 40
0.6249999999999982
 40
0.7499999999999978
 40
0.7499999999999978
 40
0.8749999999999974
 40
0.8749999999999974
 40
0.9374999999999988
 40
0.9374999999999988
 40
1.0
 40
1.0
 40
1.0
 40
1.0
 10
213.7346849192272
 20
429.2762507340365
 30
0.0
 10
213.6315070667038
 20
429.2917005404199
 30
0.0
 10
213.4930293716583
 20
429.3033515526196
 30
0.0
 10
213.1563675004936
 20
429.3179801893733
 30
0.0
 10
212.9555239727036
 20
429.3208810578615
 30
0.0
 10
212.5137377895997
 20
429.3161342310131
 30
0.0
 10
212.2728308095637
 20
429.3086251435086
 30
0.0
 10
211.7562982180109
 20
429.2822447110979
 30
0.0
 10
211.4818770561926
 20
429.2633452811802
 30
0.0
 10
210.9187696891747
 20
429.2145620142582
 30
0.0
 10
210.6280471873073
 20
429.1845867982124
 30
0.0
 10
210.0296572608302
 20
429.1126860672864
 30
0.0
 10
209.7199071151668
 20
429.0703995726072
 30
0.0
 10
209.0996986555438
 20
428.9752506601239
 30
0.0
 10
208.787990919226
 20
428.9223046286352
 30
0.0
 10
208.3181000474485
 20
428.8346766111721
 30
0.0
 10
208.1610785006452
 20
428.8040968833801
 30
0.0
 10
207.8462288996034
 20
428.7401449222379
 30
0.0
 10
207.6865667657653
 20
428.7063385512157
 30
0.0
 10
207.5303296745883
 20
428.6720098252258
 30
0.0
  0
LWPOLYLINE
  5
13B
330
1F
100
AcDbEntity
  8
0
  6
Continuous
 62
     7
370
    15
100
AcDbPolyline
 90
       27
 70
   128
 43
0.0
 10
211.9709338507
 20
434.8311590155
 10
212.1841322144
 20
434.6025714775
 10
212.3972150942
 20
434.3741590281
 10
212.6093554756
 20
434.1468157371
 10
212.8197188934
 20
433.9214207729
 10
213.027485784
 20
433.6988644799
 10
213.2318440339
 20
433.4800148507
 10
213.4319927057
 20
433.2657249769
 10
213.6271494886
 20
433.0568330487
 10
213.8165544232
 20
432.85415863
 10
213.9994624516
 20
432.6584914823
 10
214.1751620432
 20
432.4705990156
 10
214.3429640194
 20
432.2912151118
 10
214.5022127291
 20
432.1210401257
 10
214.6522860488
 20
431.9607408841
 10
214.7925991079
 20
431.810943236
 10
214.9225968381
 20
431.6722283264
 10
215.0417800507
 20
431.5451474985
 10
215.1496756336
 20
431.4301924904
 10
215.2458626291
 20
431.3278140624
 10
215.3299685081
 20
431.2384108206
 10
215.4016654452
 20
431.1623329421
 10
215.460666593
 20
431.0998784502
 10
215.5067447087
 20
431.0512894889
 10
215.5397209784
 20
431.0167597731
 10
215.5594612917
 20
430.9964234134
 10
215.565894868
 20
430.9903586408
  0
LINE
  5
13C
330
1F
100
AcDbEntity
  8
0
  6
Continuous
 62
     7
370
    15
100
AcDbLine
 10
203.7759284934
 20
442.7803250154
 30
0.0
 11
203.7758912405
 21
442.7803212901
 31
0.0
  0
SPLINE
  5
13D
330
1F
100
AcDbEntity
  8
0
  6
Continuous
 62
     7
370
    15
100
AcDbSpline
210
0.0
220
0.0
230
1.0
 70
     8
 71
     3
 72
    24
 73
    20
 74
     0
 42
0.00000001
 43
0.00000001
 12
1.0
 22
0.0
 32
0.0
 13
1.0
 23
0.0
 33
0.0
 40
0.0
 40
0.0
 40
0.0
 40
0.0
 40
0.1249999999999997
 40
0.1249999999999997
 40
0.2499999999999994
 40
0.2499999999999994
 40
0.3749999999999991
 40
0.3749999999999991
 40
0.4999999999999988
 40
0.4999999999999988
 40
0.6249999999999984
 40
0.6249999999999984
 40
0.7499999999999982
 40
0.7499999999999982
 40
0.8749999999999979
 40
0.8749999999999979
 40
0.9374999999999989
 40
0.9374999999999989
 40
1.0
 40
1.0
 40
1.0
 40
1.0
 10
202.0618205866829
 20
440.9491150665808
 30
0.0
 10
202.0772703930663
 20
440.8459372140574
 30
0.0
 10
202.0889214052659
 20
440.7074595190118
 30
0.0
 10
202.1035500420197
 20
440.3707976478472
 30
0.0
 10
202.1064509105079
 20
440.1699541200572
 30
0.0
 10
202.1017040836595
 20
439.7281679369532
 30
0.0
 10
202.094194996155
 20
439.4872609569173
 30
0.0
 10
202.0678145637444
 20
438.9707283653645
 30
0.0
 10
202.0489151338267
 20
438.6963072035462
 30
0.0
 10
202.0001318669047
 20
438.1331998365283
 30
0.0
 10
201.9701566508588
 20
437.8424773346609
 30
0.0
 10
201.8982559199328
 20
437.2440874081838
 30
0.0
 10
201.8559694252501
 20
436.9343372625211
 30
0.0
 10
201.760820512766
 20
436.3141288028982
 30
0.0
 10
201.7078744812817
 20
436.0024210665796
 30
0.0
 10
201.6202464638186
 20
435.5325301948021
 30
0.0
 10
201.5896667360265
 20
435.3755086479989
 30
0.0
 10
201.5257147748842
 20
435.0606590469571
 30
0.0
 10
201.4919084038632
 20
434.9009969131187
 30
0.0
 10
201.4575796778722
 20
434.7447598219418
 30
0.0
  0
LWPOLYLINE
  5
13E
330
1F
100
AcDbEntity
  8
0
  6
Continuous
 62
     7
370
    15
100
AcDbPolyline
 90
       18
 70
   128
 43
0.0
 10
272.2326378783
 20
471.2845737239
 10
272.2628201803
 20
471.2543914219
 10
272.3076503238
 20
471.2095612784
 10
272.3669494947
 20
471.1502621075
 10
272.4404643735
 20
471.0767472287
 10
272.5278894862
 20
470.9893295666
 10
272.6288523039
 20
470.8883667489
 10
272.7429281434
 20
470.7742909094
 10
272.8696401676
 20
470.6475714346
 10
273.0084593853
 20
470.5087522169
 10
273.1588046512
 20
470.3584144016
 10
273.3200277647
 20
470.1971838375
 10
273.4914730748
 20
470.0257385274
 10
273.6724104246
 20
469.8448086282
 10
273.8620724043
 20
469.6551391979
 10
274.0596692523
 20
469.4575423499
 10
274.2643739542
 20
469.252837648
 10
274.4753296932
 20
469.0418893596
  0
LWPOLYLINE
  5
13F
330
1F
100
AcDbEntity
  8
0
  6
Continuous
 62
     7
370
    15
100
AcDbPolyline
 90
       14
 70
   128
 43
0.0
 10
267.2681968173
 20
463.5210985442
 10
267.0921917519
 20
463.6970961591
 10
266.9255148133
 20
463.8637805482
 10
266.7688291034
 20
464.0204662581
 10
266.6227753719
 20
464.1665199896
 10
266.4879496654
 20
464.3013456961
 10
266.3648958763
 20
464.4243920346
 10
266.254120644
 20
464.5351747175
 10
266.1560635528
 20
464.6332318087
 10
266.071126934
 20
464.718160977
 10
265.9996609649
 20
464.7896343966
 10
265.9419487676
 20
464.8473391434
 10
265.8982287606
 20
464.8910591503
 10
265.868679758
 20
464.9206156035
  0
LWPOLYLINE
  5
140
330
1F
100
AcDbEntity
  8
0
  6
Continuous
 62
     7
370
    15
100
AcDbPolyline
 90
       18
 70
   128
 43
0.0
 10
241.8274592122
 20
501.6897598406
 10
242.0384075006
 20
501.4788041015
 10
242.2431122025
 20
501.2740993996
 10
242.4407090506
 20
501.0765025516
 10
242.6303784808
 20
500.886840572
 10
242.81130838
 20
500.7059032222
 10
242.9827536901
 20
500.5344579121
 10
243.1439842543
 20
500.3732347985
 10
243.2943220695
 20
500.2228895326
 10
243.4331412872
 20
500.084070315
 10
243.559860762
 20
499.9573582908
 10
243.6739366015
 20
499.8432824512
 10
243.7748994192
 20
499.7423196336
 10
243.8623170814
 20
499.6548945208
 10
243.9358319601
 20
499.5813796421
 10
243.9951311311
 20
499.5220804711
 10
244.0399612745
 20
499.4772503277
 10
244.0701435765
 20
499.4470680257
  0
LWPOLYLINE
  5
141
330
1F
100
AcDbEntity
  8
0
  6
Continuous
 62
     7
370
    15
100
AcDbPolyline
 90
       14
 70
   128
 43
0.0
 10
237.7061854562
 20
493.0831099053
 10
237.6766290029
 20
493.112658908
 10
237.632908996
 20
493.1563789149
 10
237.5752042493
 20
493.2140911122
 10
237.5037308296
 20
493.2855570813
 10
237.4188016614
 20
493.3704937001
 10
237.3207445702
 20
493.4685507913
 10
237.2099618873
 20
493.5793260237
 10
237.0869155487
 20
493.7023798128
 10
236.9520898422
 20
493.8372055193
 10
236.8060361108
 20
493.9832592507
 10
236.6493504008
 20
494.1399449607
 10
236.4826660117
 20
494.3066218992
 10
236.3066683968
 20
494.4826269647
  0
LINE
  5
142
330
1F
100
AcDbEntity
  8
0
  6
Continuous
 62
     7
370
    15
100
AcDbLine
 10
221.0470895728
 20
421.750617971
 30
0.0
 11
221.1537036559
 21
421.8572320541
 31
0.0
  0
LINE
  5
143
330
1F
100
AcDbEntity
  8
0
  6
Continuous
 62
     7
370
    15
100
AcDbLine
 10
194.5361878237
 20
448.2615197202
 30
0.0
 11
194.6428019067
 21
448.3681338032
 31
0.0
  0
SPLINE
  5
144
330
1F
100
AcDbEntity
  8
0
  6
Continuous
 62
     7
370
    15
100
AcDbSpline
210
0.0
220
0.0
230
1.0
 70
     8
 71
     3
 72
    20
 73
    16
 74
     0
 42
0.00000001
 43
0.00000001
 12
1.0
 22
0.0
 32
0.0
 13
1.0
 23
0.0
 33
0.0
 40
0.0
 40
0.0
 40
0.0
 40
0.0
 40
0.1250000000000001
 40
0.1250000000000001
 40
0.2500000000000003
 40
0.2500000000000003
 40
0.5000000000000006
 40
0.5000000000000006
 40
0.7500000000000009
 40
0.7500000000000009
 40
0.8750000000000011
 40
0.8750000000000011
 40
0.9375000000000006
 40
0.9375000000000006
 40
1.0
 40
1.0
 40
1.0
 40
1.0
 10
220.8537896232366
 20
421.5492323684235
 30
0.0
 10
220.7789852774945
 20
421.4704411665917
 30
0.0
 10
220.708765279374
 20
421.3539411536464
 30
0.0
 10
220.5748349562863
 20
421.0623756741215
 30
0.0
 10
220.5106362403122
 20
420.8852481817846
 30
0.0
 10
220.3300936802712
 20
420.2908070555434
 30
0.0
 10
220.2264662797291
 20
419.8193152273279
 30
0.0
 10
220.042845436516
 20
418.7698245045027
 30
0.0
 10
219.9659577613026
 20
418.2069993726178
 30
0.0
 10
219.8702873870211
 20
417.3247570704611
 30
0.0
 10
219.8416892104374
 20
417.0237848887193
 30
0.0
 10
219.8038199582608
 20
416.5623364461216
 30
0.0
 10
219.7920300482988
 20
416.4067302666172
 30
0.0
 10
219.770224068609
 20
416.0926846673052
 30
0.0
 10
219.7601576822078
 20
415.9333091594222
 30
0.0
 10
219.7511777834353
 20
415.7756202999529
 30
0.0
  0
SPLINE
  5
145
330
1F
100
AcDbEntity
  8
0
  6
Continuous
 62
     7
370
    15
100
AcDbSpline
210
0.0
220
0.0
230
1.0
 70
     8
 71
     3
 72
     8
 73
     4
 74
     0
 42
0.00000001
 43
0.00000001
 12
1.0
 22
0.0
 32
0.0
 13
1.0
 23
0.0
 33
0.0
 40
0.0
 40
0.0
 40
0.0
 40
0.0
 40
1.0
 40
1.0
 40
1.0
 40
1.0
 10
220.8537896232366
 20
421.5492323684235
 30
0.0
 10
220.954840327068
 20
421.6556687836056
 30
0.0
 10
221.0193365184717
 20
421.7228648142959
 30
0.0
 10
221.0470881046215
 20
421.7506164004458
 30
0.0
  0
SPLINE
  5
146
330
1F
100
AcDbEntity
  8
0
  6
Continuous
 62
     7
370
    15
100
AcDbSpline
210
0.0
220
0.0
230
1.0
 70
     8
 71
     3
 72
    20
 73
    16
 74
     0
 42
0.00000001
 43
0.00000001
 12
1.0
 22
0.0
 32
0.0
 13
1.0
 23
0.0
 33
0.0
 40
0.0
 40
0.0
 40
0.0
 40
0.0
 40
0.1250000000000002
 40
0.1250000000000002
 40
0.2500000000000003
 40
0.2500000000000003
 40
0.5000000000000007
 40
0.5000000000000007
 40
0.750000000000001
 40
0.750000000000001
 40
0.8750000000000004
 40
0.8750000000000004
 40
0.9375000000000002
 40
0.9375000000000002
 40
1.0
 40
1.0
 40
1.0
 40
1.0
 10
194.3348022210699
 20
448.0682197705901
 30
0.0
 10
194.2560110192381
 20
447.993415424848
 30
0.0
 10
194.1395110062928
 20
447.9231954267274
 30
0.0
 10
193.8479455267679
 20
447.7892651036398
 30
0.0
 10
193.670818034431
 20
447.7250663876657
 30
0.0
 10
193.0763769081898
 20
447.5445238276248
 30
0.0
 10
192.6048850799743
 20
447.4408964270826
 30
0.0
 10
191.5553943571491
 20
447.2572755838696
 30
0.0
 10
190.9925692252642
 20
447.1803879086559
 30
0.0
 10
190.1103269231076
 20
447.0847175343745
 30
0.0
 10
189.8093547413658
 20
447.0561193577907
 30
0.0
 10
189.3479062987682
 20
447.018250105614
 30
0.0
 10
189.1923001192638
 20
447.0064601956521
 30
0.0
 10
188.8782545199517
 20
446.9846542159625
 30
0.0
 10
188.7188790120696
 20
446.974587829613
 30
0.0
 10
188.5611901525995
 20
446.965607930789
 30
0.0
  0
SPLINE
  5
147
330
1F
100
AcDbEntity
  8
0
  6
Continuous
 62
     7
370
    15
100
AcDbSpline
210
0.0
220
0.0
230
1.0
 70
     8
 71
     3
 72
     8
 73
     4
 74
     0
 42
0.00000001
 43
0.00000001
 12
1.0
 22
0.0
 32
0.0
 13
1.0
 23
0.0
 33
0.0
 40
0.0
 40
0.0
 40
0.0
 40
0.0
 40
1.0
 40
1.0
 40
1.0
 40
1.0
 10
194.5361862530921
 20
448.261518251975
 30
0.0
 10
194.5084346669423
 20
448.2337666658252
 30
0.0
 10
194.441238636252
 20
448.1692704744216
 30
0.0
 10
194.3348022210699
 20
448.0682197705901
 30
0.0
  0
LWPOLYLINE
  5
148
330
1F
100
AcDbEntity
  8
0
  6
Continuous
 62
     7
370
    15
100
AcDbPolyline
 90
       61
 70
   128
 43
0.0
 10
274.4753296932
 20
469.0418893596
 10
275.3174017629
 20
468.1998172899
 10
276.152589496
 20
467.3646221062
 10
276.9805576166
 20
466.5366614362
 10
277.8009708485
 20
465.7162482043
 10
278.613501366
 20
464.9037176867
 10
279.4178213438
 20
464.0993902584
 10
280.2136104068
 20
463.3036011954
 10
281.00054818
 20
462.5166634222
 10
281.7783217391
 20
461.7388898631
 10
282.5466181597
 20
460.9705934425
 10
283.3051319679
 20
460.2120870849
 10
284.0535502395
 20
459.4636688133
 10
284.7915749511
 20
458.7256366511
 10
285.5189155301
 20
457.9982960721
 10
286.2352739533
 20
457.2819376489
 10
286.9403670987
 20
456.5768445035
 10
287.6339118442
 20
455.883299758
 10
288.3156399688
 20
455.201579084
 10
288.9852534493
 20
454.5319656034
 10
289.6424989661
 20
453.8747126361
 10
290.2871082982
 20
453.2300958534
 10
290.918843027
 20
452.5983760258
 10
291.5374200305
 20
451.9797990223
 10
292.1426008901
 20
451.3746107121
 10
292.7341471871
 20
450.7830644151
 10
293.3118205031
 20
450.2053910991
 10
293.8753973206
 20
449.6418217321
 10
294.4246392211
 20
449.0925798317
 10
294.959322687
 20
448.5578926404
 10
295.4792391023
 20
448.0379724999
 10
295.9841947516
 20
447.5330243011
 10
296.4739661178
 20
447.0432566603
 10
296.9483594855
 20
446.5688595672
 10
297.4071811398
 20
446.1100267371
 10
297.8502671679
 20
445.6669444342
 10
298.2774238547
 20
445.2397840222
 10
298.6884872874
 20
444.8287243148
 10
299.0832935533
 20
444.4339254995
 10
299.4616638383
 20
444.0555477639
 10
299.8234789332
 20
443.6937401195
 10
300.1685600242
 20
443.348651578
 10
300.4968028029
 20
443.0204162498
 10
300.8080433568
 20
442.7091719707
 10
301.1021773776
 20
442.4150379499
 10
301.3790856561
 20
442.138137122
 10
301.6386340817
 20
441.8785737952
 10
301.88076305
 20
441.6364597281
 10
302.1053235492
 20
441.4118843277
 10
302.3122708758
 20
441.2049444517
 10
302.5015007218
 20
441.0157183309
 10
302.6729236802
 20
440.844287922
 10
302.8264950475
 20
440.6907128294
 10
302.962155219
 20
440.5550638338
 10
303.0798296889
 20
440.4373893638
 10
303.1794737538
 20
440.3377378484
 10
303.2610576114
 20
440.2561539908
 10
303.3245514592
 20
440.1926638683
 10
303.369925495
 20
440.1472935577
 10
303.3971499165
 20
440.1200654109
 10
303.4062247237
 20
440.1109868785
  0
LWPOLYLINE
  5
149
330
1F
100
AcDbEntity
  8
0
  6
Continuous
 62
     7
370
    15
100
AcDbPolyline
 90
       61
 70
   128
 43
0.0
 10
212.8965567311
 20
530.6206548711
 10
212.9056352636
 20
530.6115800639
 10
212.9328634104
 20
530.5843556424
 10
212.9782337209
 20
530.5389816066
 10
213.0417238435
 20
530.4754877587
 10
213.123307701
 20
530.3939039012
 10
213.2229592165
 20
530.2942598363
 10
213.3406336864
 20
530.1765853663
 10
213.4762826821
 20
530.0409251948
 10
213.6298577746
 20
529.8873538276
 10
213.8012881836
 20
529.7159308692
 10
213.9905143043
 20
529.5267010232
 10
214.1974541804
 20
529.3197536965
 10
214.4220295807
 20
529.0951931973
 10
214.6641436478
 20
528.8530642291
 10
214.9237069746
 20
528.5935158034
 10
215.2006078025
 20
528.316607525
 10
215.4947418233
 20
528.0224735041
 10
215.8059861025
 20
527.7112329503
 10
216.1342214307
 20
527.3829901715
 10
216.4793099722
 20
527.0379090806
 10
216.8411176166
 20
526.6760939856
 10
217.2194953522
 20
526.2977237006
 10
217.6142941674
 20
525.9029174348
 10
218.0253538748
 20
525.4918540021
 10
218.4525142869
 20
525.0646973153
 10
218.8955965897
 20
524.6216112872
 10
219.3544294199
 20
524.1627896329
 10
219.828826513
 20
523.6883962651
 10
220.3185941538
 20
523.198624899
 10
220.8235423526
 20
522.6936692496
 10
221.3434624931
 20
522.1737528344
 10
221.8781496843
 20
521.6390693684
 10
222.4273915848
 20
521.089827468
 10
222.9909609517
 20
520.5262506505
 10
223.5686342677
 20
519.9485773345
 10
224.1601805648
 20
519.3570310374
 10
224.7653688749
 20
518.7518501778
 10
225.3839458784
 20
518.1332731744
 10
226.0156657061
 20
517.5015384456
 10
226.6602824887
 20
516.8569291135
 10
227.3175354561
 20
516.1996835967
 10
227.9871489366
 20
515.5300701161
 10
228.6688696107
 20
514.8483419915
 10
229.3624143561
 20
514.1547972461
 10
230.0675075015
 20
513.4497041007
 10
230.7838659247
 20
512.7333456775
 10
231.5112065038
 20
512.0060050984
 10
232.249238666
 20
511.2679803868
 10
232.9976569375
 20
510.5195621153
 10
233.7561632952
 20
509.761048307
 10
234.5244597157
 20
508.9927518865
 10
235.3022332748
 20
508.2149783274
 10
236.0891710481
 20
507.4280405541
 10
236.884960111
 20
506.6322514912
 10
237.6892875394
 20
505.8279315134
 10
238.501818057
 20
505.0154009958
 10
239.3222312888
 20
504.194987764
 10
240.1501919588
 20
503.3670196434
 10
240.9853871426
 20
502.5318319102
 10
241.8274592122
 20
501.6897598406
  0
LWPOLYLINE
  5
14A
330
1F
100
AcDbEntity
  8
0
  6
Continuous
 62
     7
370
    15
100
AcDbPolyline
 90
       61
 70
   128
 43
0.0
 10
206.3911754152
 20
524.3981236716
 10
206.399296548
 20
524.3899876376
 10
206.4236599466
 20
524.3656242391
 10
206.4642581603
 20
524.325033476
 10
206.5210725626
 20
524.2682153483
 10
206.5940845272
 20
524.1952145596
 10
206.6832679769
 20
524.1060311099
 10
206.7885931095
 20
524.0006948014
 10
206.9100189468
 20
523.87928014
 10
207.0475007853
 20
523.7417871257
 10
207.2009939214
 20
523.5882902642
 10
207.3704424759
 20
523.4188491603
 10
207.5557868442
 20
523.2335085173
 10
207.7569562456
 20
523.0323428412
 10
207.9738798996
 20
522.8154117366
 10
208.2064833006
 20
522.5828046103
 10
208.4546807667
 20
522.3346108695
 10
208.7183866164
 20
522.0709050198
 10
208.9975002667
 20
521.7917913695
 10
209.2919285854
 20
521.4973593255
 10
209.6015598139
 20
521.187728097
 10
209.9262896439
 20
520.8630019923
 10
210.2659988662
 20
520.5233002206
 10
210.6205645462
 20
520.16872709
 10
210.9898600241
 20
519.7994316121
 10
211.3737549147
 20
519.4155329963
 10
211.7721113821
 20
519.0171802541
 10
212.1847878655
 20
518.604507496
 10
212.6116353532
 20
518.1776637336
 10
213.0525011083
 20
517.7367979785
 10
213.5072249433
 20
517.2820592423
 10
213.975650396
 20
516.8136412402
 10
214.4576061031
 20
516.3316929837
 10
214.9529169759
 20
515.8363783856
 10
215.4614079257
 20
515.3278762599
 10
215.9829001388
 20
514.8063952227
 10
216.5172036251
 20
514.2720842858
 10
217.064128395
 20
513.7251669665
 10
217.623477008
 20
513.1658220788
 10
218.1950520238
 20
512.5942433377
 10
218.7786448261
 20
512.0106393596
 10
219.3740505239
 20
511.4152336617
 10
219.9810567757
 20
510.8082348605
 10
220.5994437894
 20
510.1898515721
 10
221.2289917728
 20
509.5602998634
 10
221.8694697579
 20
508.919818153
 10
222.5206579527
 20
508.2686374088
 10
223.1823216638
 20
507.6069736977
 10
223.854215022
 20
506.9350803395
 10
224.5361070594
 20
506.2531883021
 10
225.2277444562
 20
505.5615434547
 10
225.9288962444
 20
504.8603991171
 10
226.6392942032
 20
504.1500011583
 10
227.3586924633
 20
503.4306028982
 10
228.0868302545
 20
502.702465107
 10
228.8234468063
 20
501.9658411046
 10
229.5682887992
 20
501.2210065623
 10
230.321073111
 20
500.4682148
 10
231.0815464219
 20
499.7077489396
 10
231.84942561
 20
498.9398697515
 10
232.6244350037
 20
498.1648529073
  0
LWPOLYLINE
  5
14B
330
1F
100
AcDbEntity
  8
0
  6
Continuous
 62
     7
370
    15
100
AcDbPolyline
 90
       20
 70
   128
 43
0.0
 10
283.6707394084
 20
447.1185559531
 10
283.0824043116
 20
447.7068835994
 10
282.483884271
 20
448.3054073652
 10
281.8753655514
 20
448.9139223595
 10
281.2570493182
 20
449.5322460433
 10
280.6291367372
 20
450.1601586243
 10
279.9918289741
 20
450.7974663874
 10
279.3453346452
 20
451.4439532657
 10
278.6898698172
 20
452.0994180938
 10
278.0256431064
 20
452.7636448046
 10
277.3528705796
 20
453.4364173313
 10
276.6717757544
 20
454.1175196071
 10
275.9825746974
 20
454.8067206641
 10
275.2854909262
 20
455.5037969848
 10
274.5807628592
 20
456.2085325023
 10
273.8686065635
 20
456.920688798
 10
273.1492530068
 20
457.6400349041
 10
272.4229555091
 20
458.3663398524
 10
271.6899301371
 20
459.0993652244
 10
270.9504227599
 20
459.838865151
  0
SPLINE
  5
14C
330
1F
100
AcDbEntity
  8
0
  6
Continuous
 62
     7
370
    15
100
AcDbSpline
210
0.0
220
0.0
230
1.0
 70
     8
 71
     3
 72
    10
 73
     6
 74
     0
 42
0.00000001
 43
0.00000001
 12
1.0
 22
0.0
 32
0.0
 13
1.0
 23
0.0
 33
0.0
 40
0.0
 40
0.0
 40
0.0
 40
0.0
 40
0.5
 40
0.5
 40
1.0
 40
1.0
 40
1.0
 40
1.0
 10
148.7674391246081
 20
328.8243030806419
 30
0.0
 10
148.6219435047155
 20
328.6731476282784
 30
0.0
 10
148.4756355402709
 20
328.5598845851582
 30
0.0
 10
148.1819652717797
 20
328.408745229107
 30
0.0
 10
148.0343745419724
 20
328.3708729048599
 30
0.0
 10
147.8870150879218
 20
328.3708729048599
 30
0.0
  0
SPLINE
  5
14D
330
1F
100
AcDbEntity
  8
0
  6
Continuous
 62
     7
370
    15
100
AcDbSpline
210
0.0
220
0.0
230
1.0
 70
     8
 71
     3
 72
    24
 73
    20
 74
     0
 42
0.00000001
 43
0.00000001
 12
1.0
 22
0.0
 32
0.0
 13
1.0
 23
0.0
 33
0.0
 40
0.0
 40
0.0
 40
0.0
 40
0.0
 40
0.1249999999999999
 40
0.1249999999999999
 40
0.2499999999999998
 40
0.2499999999999998
 40
0.3124999999999991
 40
0.3124999999999991
 40
0.3749999999999984
 40
0.3749999999999984
 40
0.4999999999999983
 40
0.4999999999999983
 40
0.7499999999999993
 40
0.7499999999999993
 40
0.8749999999999998
 40
0.8749999999999998
 40
0.9374999999999998
 40
0.9374999999999998
 40
1.0
 40
1.0
 40
1.0
 40
1.0
 10
245.6117518056143
 20
502.7141550874376
 30
0.0
 10
245.5530686461156
 20
502.7427598308315
 30
0.0
 10
245.4949424423263
 20
502.8338240248021
 30
0.0
 10
245.3793208257341
 20
503.106975965416
 30
0.0
 10
245.32182969196
 20
503.2894618003023
 30
0.0
 10
245.2358286477602
 20
503.6173380272192
 30
0.0
 10
245.2071172803758
 20
503.7361203428451
 30
0.0
 10
245.1502591656471
 20
503.9877514088274
 30
0.0
 10
245.122102106915
 20
504.1205707334229
 30
0.0
 10
245.0383032332201
 20
504.53724880278
 30
0.0
 10
244.9833275869066
 20
504.8392028829656
 30
0.0
 10
244.8202326055932
 20
505.8016127893306
 30
0.0
 10
244.7139037571244
 20
506.5178015772415
 30
0.0
 10
244.5559924917168
 20
507.6670759316348
 30
0.0
 10
244.5036633604613
 20
508.0627385149836
 30
0.0
 10
244.4257779100698
 20
508.66966998103
 30
0.0
 10
244.3999017187508
 20
508.8743485352256
 30
0.0
 10
244.3482922657963
 20
509.2880838528546
 30
0.0
 10
244.3223926466464
 20
509.4984956181228
 30
0.0
 10
244.2968964173853
 20
509.7081475843814
 30
0.0
  0
SPLINE
  5
14E
330
1F
100
AcDbEntity
  8
0
  6
Continuous
 62
     7
370
    15
100
AcDbSpline
210
0.0
220
0.0
230
1.0
 70
     8
 71
     3
 72
    24
 73
    20
 74
     0
 42
0.00000001
 43
0.00000001
 12
1.0
 22
0.0
 32
0.0
 13
1.0
 23
0.0
 33
0.0
 40
0.0
 40
0.0
 40
0.0
 40
0.0
 40
0.1250000000000005
 40
0.1250000000000005
 40
0.2500000000000009
 40
0.2500000000000009
 40
0.3125000000000007
 40
0.3125000000000007
 40
0.3750000000000004
 40
0.3750000000000004
 40
0.5000000000000011
 40
0.5000000000000011
 40
0.7500000000000007
 40
0.7500000000000007
 40
0.8750000000000006
 40
0.8750000000000006
 40
0.9375000000000003
 40
0.9375000000000003
 40
1.0
 40
1.0
 40
1.0
 40
1.0
 10
275.4997249400839
 20
472.8261819529682
 30
0.0
 10
275.5283296834778
 20
472.7674987934695
 30
0.0
 10
275.6193938774484
 20
472.7093725896801
 30
0.0
 10
275.8925458180623
 20
472.5937509730879
 30
0.0
 10
276.0750316529487
 20
472.5362598393138
 30
0.0
 10
276.4029078798654
 20
472.450258795114
 30
0.0
 10
276.5216901954913
 20
472.4215474277296
 30
0.0
 10
276.7733212614736
 20
472.364689313001
 30
0.0
 10
276.9061405860692
 20
472.3365322542688
 30
0.0
 10
277.3228186554263
 20
472.2527333805739
 30
0.0
 10
277.6247727356118
 20
472.1977577342604
 30
0.0
 10
278.5871826419769
 20
472.034662752947
 30
0.0
 10
279.3033714298877
 20
471.9283339044782
 30
0.0
 10
280.4526457842811
 20
471.7704226390708
 30
0.0
 10
280.8483083676298
 20
471.7180935078152
 30
0.0
 10
281.4552398336763
 20
471.6402080574238
 30
0.0
 10
281.659918387872
 20
471.6143318661047
 30
0.0
 10
282.0736537055009
 20
471.5627224131503
 30
0.0
 10
282.2840654707666
 20
471.5368227938618
 30
0.0
 10
282.4937174370278
 20
471.5113265647392
 30
0.0
  0
SPLINE
  5
14F
330
1F
100
AcDbEntity
  8
0
  6
Continuous
 62
     7
370
    15
100
AcDbSpline
210
0.0
220
0.0
230
1.0
 70
    24
 71
     3
 72
    10
 73
     6
 74
     0
 42
0.00000001
 43
0.00000001
 12
1.0
 22
0.0
 32
0.0
 13
1.0
 23
0.0
 33
0.0
 40
0.0
 40
0.0
 40
0.0
 40
0.0
 40
0.5
 40
0.5
 40
1.0
 40
1.0
 40
1.0
 40
1.0
 10
286.8405567936524
 20
443.9487355395897
 30
0.0
 10
286.2690279444867
 20
444.5202643887553
 30
0.0
 10
285.7098564816005
 20
445.0794358516416
 30
0.0
 10
284.642079229887
 20
446.1472131033551
 30
0.0
 10
284.1328754532621
 20
446.6564168799799
 30
0.0
 10
283.6707374895625
 20
447.1185548436795
 30
0.0
  0
SPLINE
  5
150
330
1F
100
AcDbEntity
  8
0
  6
Continuous
 62
     7
370
    15
100
AcDbSpline
210
0.0
220
0.0
230
1.0
 70
     8
 71
     3
 72
     8
 73
     4
 74
     0
 42
0.00000001
 43
0.00000001
 12
1.0
 22
0.0
 32
0.0
 13
1.0
 23
0.0
 33
0.0
 40
0.0
 40
0.0
 40
0.0
 40
0.0
 40
0.0004721410368049
 40
0.0004721410368049
 40
0.0004721410368049
 40
0.0004721410368049
 10
193.5511530157713
 20
342.8166548534604
 30
0.0
 10
193.5798566416876
 20
342.7712986652501
 30
0.0
 10
193.6094052618461
 20
342.7268580654371
 30
0.0
 10
193.6399698140599
 20
342.683405165722
 30
0.0
  0
LWPOLYLINE
  5
151
330
1F
100
AcDbEntity
  8
0
  6
Continuous
 62
     7
370
    15
100
AcDbPolyline
 90
       16
 70
   128
 43
0.0
 10
292.3762958011
 20
438.4129958351
 10
292.0915793141
 20
438.6977085968
 10
291.7937051019
 20
438.9955939849
 10
291.4828817805
 20
439.3064173063
 10
291.1593477687
 20
439.6299401422
 10
290.8233712872
 20
439.9659128984
 10
290.4752205571
 20
440.3140785297
 10
290.1151339969
 20
440.6741613646
 10
289.7434096297
 20
441.0458857318
 10
289.3603305778
 20
441.428968509
 10
288.966179963
 20
441.8231079479
 10
288.5612856111
 20
442.2280022999
 10
288.1459604463
 20
442.6433349152
 10
287.7205024919
 20
443.0687891444
 10
287.2852544745
 20
443.5040371617
 10
286.840559121
 20
443.9487362405
  0
SPLINE
  5
152
330
1F
100
AcDbEntity
  8
0
  6
Continuous
 62
     7
370
    15
100
AcDbSpline
210
0.0
220
0.0
230
1.0
 70
    24
 71
     3
 72
    28
 73
    24
 74
     0
 42
0.00000001
 43
0.00000001
 12
1.0
 22
0.0
 32
0.0
 13
1.0
 23
0.0
 33
0.0
 40
0.0
 40
0.0
 40
0.0
 40
0.0
 40
0.1250000000000046
 40
0.1250000000000046
 40
0.2500000000000091
 40
0.2500000000000091
 40
0.3750000000000137
 40
0.3750000000000137
 40
0.4375000000000127
 40
0.4375000000000127
 40
0.5000000000000118
 40
0.5000000000000118
 40
0.5625000000000108
 40
0.5625000000000108
 40
0.6250000000000099
 40
0.6250000000000099
 40
0.6875000000000089
 40
0.6875000000000089
 40
0.750000000000008
 40
0.750000000000008
 40
0.875000000000004
 40
0.875000000000004
 40
1.0
 40
1.0
 40
1.0
 40
1.0
 10
303.1085117765221
 20
427.68078055672
 30
0.0
 10
302.9563970505762
 20
427.8328952826659
 30
0.0
 10
302.7952464878448
 20
427.9940458453973
 30
0.0
 10
302.4497029514963
 20
428.3395893817458
 30
0.0
 10
302.2655012259259
 20
428.5237911073162
 30
0.0
 10
301.8629445946904
 20
428.9263477385518
 30
0.0
 10
301.6420387090888
 20
429.1472536241534
 30
0.0
 10
301.2910579890117
 20
429.4982343442305
 30
0.0
 10
301.1688430354007
 20
429.6204492978414
 30
0.0
 10
300.9225433633525
 20
429.8667489698896
 30
0.0
 10
300.7985554555615
 20
429.9907368776805
 30
0.0
 10
300.5487228790134
 20
430.2405694542286
 30
0.0
 10
300.4216127667509
 20
430.3676795664912
 30
0.0
 10
300.1782069223588
 20
430.6110854108834
 30
0.0
 10
300.0605359176598
 20
430.7287564155824
 30
0.0
 10
299.8325789553127
 20
430.9567133779294
 30
0.0
 10
299.7243482954708
 20
431.0649440377713
 30
0.0
 10
299.5214095047543
 20
431.2678828284879
 30
0.0
 10
299.4259106131604
 20
431.3633817200817
 30
0.0
 10
299.1543004292882
 20
431.6349919039539
 30
0.0
 10
298.9977076086336
 20
431.7915847246086
 30
0.0
 10
298.7216141267792
 20
432.0676782064629
 30
0.0
 10
298.6009370478348
 20
432.1883552854073
 30
0.0
 10
298.4948491873669
 20
432.2944431458752
 30
0.0
  0
LWPOLYLINE
  5
153
330
1F
100
AcDbEntity
  8
0
  6
Continuous
 62
     7
370
    15
100
AcDbPolyline
 90
        8
 70
   128
 43
0.0
 10
298.4948466977
 20
432.2944449385
 10
297.7947454413
 20
432.9945387443
 10
297.035486575
 20
433.7538050612
 10
296.2177108487
 20
434.5715845128
 10
295.342118617
 20
435.447169294
 10
294.4094847402
 20
436.3798143466
 10
293.4205840787
 20
437.3687038322
 10
292.3762958011
 20
438.4129958351
  0
LINE
  5
154
330
1F
100
AcDbEntity
  8
0
  6
Continuous
 62
     8
370
     0
100
AcDbLine
 10
254.2799796423
 20
499.1367289921
 30
0.0
 11
242.9662730059
 21
487.8230223556
 31
0.0
  0
LINE
  5
155
330
1F
100
AcDbEntity
  8
0
  6
Continuous
 62
     8
370
     0
100
AcDbLine
 10
260.6085922083
 20
470.1807031532
 30
0.0
 11
271.9222988447
 21
481.4944097896
 31
0.0
  0
ELLIPSE
  5
156
330
1F
100
AcDbEntity
  8
0
  6
Continuous
 62
     8
370
     0
100
AcDbEllipse
 10
239.557760576
 20
466.7721907233
 30
0.0
 11
46.24888554056687
 21
-46.24888554056673
 31
0.0
210
0.0
220
0.0
230
1.0
 40
0.0874987251
 41
1.422696023066829
 42
1.718896630522962
  0
LINE
  5
157
330
1F
100
AcDbEntity
  8
0
  6
Continuous
 62
     8
370
     0
100
AcDbLine
 10
275.161744233
 20
477.6978695889
 30
0.0
 11
264.1265850028
 21
466.6627103587
 31
0.0
  0
LINE
  5
158
330
1F
100
AcDbEntity
  8
0
  6
Continuous
 62
     8
370
     0
100
AcDbLine
 10
239.4482802113
 20
491.3410151502
 30
0.0
 11
250.4834394416
 21
502.3761743804
 31
0.0
  0
ELLIPSE
  5
159
330
1F
100
AcDbEntity
  8
0
  6
Continuous
 62
     8
370
     0
100
AcDbEllipse
 10
239.557760576
 20
466.7721907233
 30
0.0
 11
46.24888554056687
 21
-46.24888554056673
 31
0.0
210
0.0
220
0.0
230
1.0
 40
0.0874987251
 41
1.188921944653812
 42
1.306520396574218
  0
SPLINE
  5
15A
330
1F
100
AcDbEntity
  8
0
  6
Continuous
 62
     8
370
     0
100
AcDbSpline
210
0.0
220
0.0
230
1.0
 70
     8
 71
     3
 72
    17
 73
    13
 74
     0
 42
0.00000001
 43
0.00000001
 12
1.0
 22
0.0
 32
0.0
 13
1.0
 23
0.0
 33
0.0
 40
-0.0009116720821926
 40
-0.0009116720821926
 40
-0.0009116720821926
 40
-0.0009116720821926
 40
0.0
 40
0.0
 40
0.0
 40
0.0053529639409383
 40
0.0053529639409383
 40
0.0053529639409383
 40
0.0093991082483711
 40
0.0093991082483711
 40
0.0093991082483711
 40
0.0098026768858559
 40
0.0098026768858559
 40
0.0098026768858559
 40
0.0098026768858559
 10
267.5295707375208
 20
460.2760863760888
 30
0.0
 10
267.330201601931
 20
460.0557734839359
 30
0.0
 10
267.1308461257843
 20
459.8354604134877
 30
0.0
 10
266.9315044690385
 20
459.6151471770842
 30
0.0
 10
265.7610525965884
 20
458.3215588509725
 30
0.0
 10
264.5910763526886
 20
457.0279641772731
 30
0.0
 10
263.4216100439755
 20
455.7343659322644
 30
0.0
 10
262.5376455265277
 20
454.756573806146
 30
0.0
 10
261.6539719224198
 20
453.7787791017477
 30
0.0
 10
260.7706054133649
 20
452.800983222589
 30
0.0
 10
260.6824970606036
 20
452.7034563372404
 30
0.0
 10
260.5943917614593
 20
452.60592943758
 30
0.0
 10
260.5062895326863
 20
452.5084025251082
 30
0.0
  0
SPLINE
  5
15B
330
1F
100
AcDbEntity
  8
0
  6
Continuous
 62
     8
370
     0
100
AcDbSpline
210
0.0
220
0.0
230
1.0
 70
     8
 71
     3
 72
    17
 73
    13
 74
     0
 42
0.00000001
 43
0.00000001
 12
1.0
 22
0.0
 32
0.0
 13
1.0
 23
0.0
 33
0.0
 40
-0.0004035687005326
 40
-0.0004035687005326
 40
-0.0004035687005326
 40
-0.0004035687005326
 40
0.0
 40
0.0
 40
0.0
 40
0.0040461449395442
 40
0.0040461449395442
 40
0.0040461449395442
 40
0.0093991097167531
 40
0.0093991097167531
 40
0.0093991097167531
 40
0.0103107819413717
 40
0.0103107819413717
 40
0.0103107819413717
 40
0.0103107819413717
 10
225.2939723777545
 20
487.72071968004
 30
0.0
 10
225.3914992902262
 20
487.8088219088129
 30
0.0
 10
225.4890261898866
 20
487.8969272079572
 30
0.0
 10
225.5865530752353
 20
487.9850355607185
 30
0.0
 10
226.5643489543939
 20
488.8684020697734
 30
0.0
 10
227.5421436587922
 20
489.7520756738814
 30
0.0
 10
228.5199357849106
 20
490.6360401913292
 30
0.0
 10
229.8135340299195
 20
491.8055065000424
 30
0.0
 10
231.1071287036191
 20
492.9754827439414
 30
0.0
 10
232.4007170297308
 20
494.1459346163918
 30
0.0
 10
232.6210302661342
 20
494.3452762731374
 30
0.0
 10
232.8413433365823
 20
494.5446317492849
 30
0.0
 10
233.061656228735
 20
494.7440008848744
 30
0.0
  0
ELLIPSE
  5
15C
330
1F
100
AcDbEntity
  8
0
  6
Continuous
 62
     8
370
     0
100
AcDbEllipse
 10
239.557760576
 20
466.7721907233
 30
0.0
 11
46.24888554056708
 21
-46.24888554056697
 31
0.0
210
0.0
220
0.0
230
1.0
 40
0.0874987251
 41
1.835072257015576
 42
1.952670708935979
  0
LINE
  5
15D
330
1F
100
AcDbEntity
  8
0
  6
Continuous
 62
     8
370
     0
100
AcDbLine
 10
265.868679758
 20
464.9206156035
 30
0.0
 11
272.2326378783
 21
471.2845737239
 31
0.0
  0
ARC
  5
15E
330
1F
100
AcDbEntity
  8
0
  6
Continuous
 62
     8
370
     0
100
AcDbCircle
 10
542.9516274702
 20
174.106488795
 30
0.0
 40
400.9538309736017
100
AcDbArc
 50
131.8389542149
 51
132.325479154
  0
LINE
  5
15F
330
1F
100
AcDbEntity
  8
0
  6
Continuous
 62
     8
370
     0
100
AcDbLine
 10
244.0701435765
 20
499.4470680257
 30
0.0
 11
237.7061854562
 21
493.0831099053
 31
0.0
  0
ARC
  5
160
330
1F
100
AcDbEntity
  8
0
  6
Continuous
 62
     8
370
     0
100
AcDbCircle
 10
-53.1079413524
 20
770.1660576176
 30
0.0
 40
400.9538309736018
100
AcDbArc
 50
317.674520846
 51
318.1610457851
  0
LINE
  5
161
330
1F
100
AcDbEntity
  8
0
  6
Continuous
 62
     8
370
     0
100
AcDbLine
 10
231.2256033977
 20
464.3295312425
 30
0.0
 11
237.5182818135
 21
471.0465649267
 31
0.0
  0
ARC
  5
162
330
1F
100
AcDbEntity
  8
0
  6
Continuous
 62
     8
370
     0
100
AcDbCircle
 10
222.6165534164
 20
456.8370166348
 30
0.0
 40
11.41286628011231
100
AcDbArc
 50
41.0332723219
 51
68.2085988617
  0
LINE
  5
163
330
1F
100
AcDbEntity
  8
0
  6
Continuous
 62
     8
370
     0
100
AcDbLine
 10
243.8321347794
 20
464.7327119609
 30
0.0
 11
237.1151010951
 21
458.4400335451
 31
0.0
  0
ARC
  5
164
330
1F
100
AcDbEntity
  8
0
  6
Continuous
 62
     8
370
     0
100
AcDbCircle
 10
229.6225864874
 20
449.8309835638
 30
0.0
 40
11.41286628011235
100
AcDbArc
 50
21.7914011383
 51
48.9667276781
  0
SPLINE
  5
165
330
1F
100
AcDbEntity
  8
0
  6
Continuous
 62
     8
370
     0
100
AcDbSpline
210
0.0
220
0.0
230
1.0
 70
     8
 71
     3
 72
     8
 73
     4
 74
     0
 42
0.00000001
 43
0.00000001
 12
1.0
 22
0.0
 32
0.0
 13
1.0
 23
0.0
 33
0.0
 40
0.0
 40
0.0
 40
0.0
 40
0.0
 40
1.0
 40
1.0
 40
1.0
 40
1.0
 10
237.5182802029905
 20
471.0465641747805
 30
0.0
 10
239.6376037479576
 20
468.95665183679
 30
0.0
 10
241.7422216894363
 20
466.8520338953112
 30
0.0
 10
243.8321340274268
 20
464.7327103503441
 30
0.0
  0
SPLINE
  5
166
330
1F
100
AcDbEntity
  8
0
  6
Continuous
 62
     8
370
     0
100
AcDbSpline
210
0.0
220
0.0
230
1.0
 70
     8
 71
     3
 72
     8
 73
     4
 74
     0
 42
0.00000001
 43
0.00000001
 12
1.0
 22
0.0
 32
0.0
 13
1.0
 23
0.0
 33
0.0
 40
0.0
 40
0.0
 40
0.0
 40
0.0
 40
1.0
 40
1.0
 40
1.0
 40
1.0
 10
237.1150984704591
 20
458.4400320408374
 30
0.0
 10
234.6433571773986
 20
456.1163149322558
 30
0.0
 10
232.1554376767551
 20
453.7736328274995
 30
0.0
 10
229.651066891107
 20
451.4123295783223
 30
0.0
  0
LWPOLYLINE
  5
167
330
1F
100
AcDbEntity
  8
0
  6
Continuous
 62
     8
370
     0
100
AcDbPolyline
 90
       25
 70
   128
 43
0.0
 10
233.2623611649
 20
447.5551488002
 10
233.2321565112
 20
447.5866163274
 10
233.1852327546
 20
447.635901918
 10
233.125181075
 20
447.6992728313
 10
233.052239891
 20
447.7764794727
 10
232.9666997751
 20
447.8672163685
 10
232.8689109048
 20
447.9711221655
 10
232.7592532596
 20
448.0877796312
 10
232.6381589731
 20
448.2167342802
 10
232.5061123332
 20
448.3574645718
 10
232.363642331
 20
448.5094154378
 10
232.2113152107
 20
448.6719833811
 10
232.0497270187
 20
448.8445239266
 10
231.8795334062
 20
449.0263516208
 10
231.7013974747
 20
449.2167363067
 10
231.51603448
 20
449.4149292012
 10
231.324174579
 20
449.6201405426
 10
231.1265926322
 20
449.831550767
 10
230.9240634998
 20
450.0483328601
 10
230.7173918446
 20
450.2696076532
 10
230.5073972305
 20
450.4945108791
 10
230.2949215731
 20
450.7221410175
 10
230.0808067879
 20
450.9515965482
 10
229.8659096917
 20
451.1819685002
 10
229.6510647496
 20
451.4123330017
  0
SPLINE
  5
168
330
1F
100
AcDbEntity
  8
0
  6
Continuous
 62
     8
370
     0
100
AcDbSpline
210
0.0
220
0.0
230
1.0
 70
     8
 71
     3
 72
     8
 73
     4
 74
     0
 42
0.00000001
 43
0.00000001
 12
1.0
 22
0.0
 32
0.0
 13
1.0
 23
0.0
 33
0.0
 40
0.0
 40
0.0
 40
0.0
 40
0.0
 40
1.0
 40
1.0
 40
1.0
 40
1.0
 10
224.1978994309687
 20
456.8654970384606
 30
0.0
 10
226.5592026801458
 20
459.3698678241088
 30
0.0
 10
228.9018847849021
 20
461.8577873247522
 30
0.0
 10
231.2256018934837
 20
464.3295286178127
 30
0.0
  0
LWPOLYLINE
  5
169
330
1F
100
AcDbEntity
  8
0
  6
Continuous
 62
     8
370
     0
100
AcDbPolyline
 90
       25
 70
   128
 43
0.0
 10
220.3407186529
 20
460.4767913123
 10
220.37218618
 20
460.4465866586
 10
220.4214717707
 20
460.399662902
 10
220.4848426839
 20
460.3396112223
 10
220.5620493254
 20
460.2666700383
 10
220.6527862212
 20
460.1811299225
 10
220.7566920182
 20
460.0833410521
 10
220.8733494839
 20
459.9736834069
 10
221.0023041328
 20
459.8525891205
 10
221.1430344244
 20
459.7205424806
 10
221.2949852904
 20
459.5780724784
 10
221.4575532338
 20
459.4257453581
 10
221.6300937792
 20
459.2641571661
 10
221.8119214734
 20
459.0939635535
 10
222.0023061594
 20
458.915827622
 10
222.2004990539
 20
458.7304646273
 10
222.4057103952
 20
458.5386047264
 10
222.6171206197
 20
458.3410227795
 10
222.8339027127
 20
458.1384936472
 10
223.0551775059
 20
457.931821992
 10
223.2800807318
 20
457.7218273779
 10
223.5077108702
 20
457.5093517204
 10
223.7371664008
 20
457.2952369352
 10
223.9675383529
 20
457.0803398391
 10
224.1979028543
 20
456.865494897
  0
SPLINE
  5
16A
330
1F
100
AcDbEntity
  8
0
  6
Continuous
 62
     8
370
     0
100
AcDbSpline
210
0.0
220
0.0
230
1.0
 70
     8
 71
     3
 72
     8
 73
     4
 74
     0
 42
0.00000001
 43
0.00000001
 12
1.0
 22
0.0
 32
0.0
 13
1.0
 23
0.0
 33
0.0
 40
0.0
 40
0.0
 40
0.0
 40
0.0
 40
1.0
 40
1.0
 40
1.0
 40
1.0
 10
220.5953208179796
 20
487.0896675903157
 30
0.0
 10
222.3345527292765
 20
485.5123313322147
 30
0.0
 10
224.112420424634
 20
483.8752754980999
 30
0.0
 10
225.9289785735391
 20
482.1784254838594
 30
0.0
  0
SPLINE
  5
16B
330
1F
100
AcDbEntity
  8
0
  6
Continuous
 62
     8
370
     0
100
AcDbSpline
210
0.0
220
0.0
230
1.0
 70
     8
 71
     3
 72
     8
 73
     4
 74
     0
 42
0.00000001
 43
0.00000001
 12
1.0
 22
0.0
 32
0.0
 13
1.0
 23
0.0
 33
0.0
 40
0.0
 40
0.0
 40
0.0
 40
0.0
 40
0.0090448356446671
 40
0.0090448356446671
 40
0.0090448356446671
 40
0.0090448356446671
 10
225.9289785735391
 20
482.1784254838594
 30
0.0
 10
223.7794893827923
 20
480.1433834213582
 30
0.0
 10
221.6305551363812
 20
478.1082131266162
 30
0.0
 10
219.4822207195957
 20
476.0729097917007
 30
0.0
  0
ARC
  5
16C
330
1F
100
AcDbEntity
  8
0
  6
Continuous
 62
     8
370
     0
100
AcDbCircle
 10
214.994251507
 20
471.5512072823
 30
0.0
 40
6.37084754990296
100
AcDbArc
 50
14.8380740436
 51
45.2145339949
  0
SPLINE
  5
16D
330
1F
100
AcDbEntity
  8
0
  6
Continuous
 62
     8
370
     0
100
AcDbSpline
210
0.0
220
0.0
230
1.0
 70
     8
 71
     3
 72
     8
 73
     4
 74
     0
 42
0.00000001
 43
0.00000001
 12
1.0
 22
0.0
 32
0.0
 13
1.0
 23
0.0
 33
0.0
 40
0.0
 40
0.0
 40
0.0
 40
0.0
 40
1.0
 40
1.0
 40
1.0
 40
1.0
 10
254.9639953365058
 20
453.1434087208928
 30
0.0
 10
256.6608453507463
 20
451.3268505719877
 30
0.0
 10
258.2979011848611
 20
449.5489828766302
 30
0.0
 10
259.875237442962
 20
447.8097509653333
 30
0.0
  0
SPLINE
  5
16E
330
1F
100
AcDbEntity
  8
0
  6
Continuous
 62
     8
370
     0
100
AcDbSpline
210
0.0
220
0.0
230
1.0
 70
     8
 71
     3
 72
     8
 73
     4
 74
     0
 42
0.00000001
 43
0.00000001
 12
1.0
 22
0.0
 32
0.0
 13
1.0
 23
0.0
 33
0.0
 40
0.0
 40
0.0
 40
0.0
 40
0.0
 40
0.0090448356446671
 40
0.0090448356446671
 40
0.0090448356446671
 40
0.0090448356446671
 10
248.8584796443471
 20
446.6966508669494
 30
0.0
 10
250.8937829792625
 20
448.844985283735
 30
0.0
 10
252.9289532740046
 20
450.993919530146
 30
0.0
 10
254.9639953365057
 20
453.1434087208928
 30
0.0
  0
ARC
  5
16F
330
1F
100
AcDbEntity
  8
0
  6
Continuous
 62
     8
370
     0
100
AcDbCircle
 10
244.4236099582
 20
442.3589211857
 30
0.0
 40
6.20354772185321
100
AcDbArc
 50
44.3655703144
 51
75.5818216472
  0
SPLINE
  5
170
330
1F
100
AcDbEntity
  8
0
  6
Continuous
 62
     8
370
     0
100
AcDbSpline
210
0.0
220
0.0
230
1.0
 70
     8
 71
     3
 72
    12
 73
     8
 74
     0
 42
0.00000001
 43
0.00000001
 12
1.0
 22
0.0
 32
0.0
 13
1.0
 23
0.0
 33
0.0
 40
0.0
 40
0.0
 40
0.0
 40
0.0
 40
0.5
 40
0.5
 40
0.75
 40
0.75
 40
1.0
 40
1.0
 40
1.0
 40
1.0
 10
211.9709349326444
 20
434.8311573644387
 30
0.0
 10
211.0377660775181
 20
433.9559911867767
 30
0.0
 10
210.1804590565302
 20
432.9991524658645
 30
0.0
 10
209.0516983902019
 20
431.4664429300345
 30
0.0
 10
208.7010502533948
 20
430.9381882274717
 30
0.0
 10
208.06213506753
 20
429.839423926446
 30
0.0
 10
207.7722659837682
 20
429.2662622884818
 30
0.0
 10
207.5303296745883
 20
428.6720098252258
 30
0.0
  0
ELLIPSE
  5
171
330
1F
100
AcDbEntity
  8
0
  6
Continuous
 62
     8
370
     0
100
AcDbEllipse
 10
137.9541191928
 20
365.1685493402
 30
0.0
 11
1259.166050702056
 21
1342.604265652608
 31
0.0
210
0.0
220
0.0
230
1.0
 40
0.0000975056
 41
4.767637676414622
 42
4.780831457126824
  0
LWPOLYLINE
  5
172
330
1F
100
AcDbEntity
  8
0
  6
Continuous
 62
     8
370
     0
100
AcDbPolyline
 90
       27
 70
   128
 43
0.0
 10
203.7758912405
 20
442.7802877625
 10
203.781993266
 20
442.773891439
 10
203.8023296257
 20
442.7541511258
 10
203.8368593415
 20
442.721174856
 10
203.8854483029
 20
442.6750967403
 10
203.9479027947
 20
442.6160955926
 10
204.0239806732
 20
442.5443986555
 10
204.1133839151
 20
442.4602927764
 10
204.2157623431
 20
442.3641057809
 10
204.3307173511
 20
442.256210198
 10
204.457798179
 20
442.1370269855
 10
204.5965130886
 20
442.0070292552
 10
204.7463107368
 20
441.8667161961
 10
204.9066099783
 20
441.7166428765
 10
205.0767849645
 20
441.5573941668
 10
205.2561688682
 20
441.3895921906
 10
205.444061335
 20
441.2138925989
 10
205.6397284826
 20
441.0309845706
 10
205.8424029013
 20
440.8415796359
 10
206.0512948295
 20
440.6464228531
 10
206.2655847033
 20
440.4462741812
 10
206.4844343325
 20
440.2419159313
 10
206.7069906255
 20
440.0341490408
 10
206.9323855897
 20
439.8237856229
 10
207.1597288808
 20
439.6116452416
 10
207.3881413301
 20
439.3985623618
 10
207.6167288681
 20
439.185363998
  0
SPLINE
  5
173
330
1F
100
AcDbEntity
  8
0
  6
Continuous
 62
     8
370
     0
100
AcDbSpline
210
0.0
220
0.0
230
1.0
 70
     8
 71
     3
 72
    14
 73
    10
 74
     0
 42
0.00000001
 43
0.00000001
 12
1.0
 22
0.0
 32
0.0
 13
1.0
 23
0.0
 33
0.0
 40
0.0
 40
0.0
 40
0.0
 40
0.0
 40
0.25
 40
0.25
 40
0.5
 40
0.5
 40
0.75
 40
0.75
 40
1.0
 40
1.0
 40
1.0
 40
1.0
 10
201.4575796778721
 20
434.7447598219418
 30
0.0
 10
202.0516426314729
 20
434.9866189765967
 30
0.0
 10
202.6263831197885
 20
435.2772119198725
 30
0.0
 10
203.7283904579186
 20
435.918336119119
 30
0.0
 10
204.2569542439922
 20
436.2695455413546
 30
0.0
 10
205.2776615806452
 20
437.0216894502936
 30
0.0
 10
205.7696958173576
 20
437.4227734347573
 30
0.0
 10
206.7201177050439
 20
438.2708717322238
 30
0.0
 10
207.1790109391517
 20
438.7186386360665
 30
0.0
 10
207.6167272170848
 20
439.1853650799978
 30
0.0
  0
ELLIPSE
  5
174
330
1F
100
AcDbEntity
  8
0
  6
Continuous
 62
     8
370
     0
100
AcDbEllipse
 10
137.9541191928
 20
365.1685493402
 30
0.0
 11
1342.604259427344
 21
1259.166044863679
 31
0.0
210
0.0
220
0.0
230
1.0
 40
0.0000975056
 41
1.502353849737062
 42
1.515547630509767
  0
LINE
  5
175
330
1F
100
AcDbEntity
  8
0
  6
Continuous
 62
     8
370
     0
100
AcDbLine
 10
274.4753296932
 20
469.0418893596
 30
0.0
 11
268.1113641223
 21
462.6779237886
 31
0.0
  0
LINE
  5
176
330
1F
100
AcDbEntity
  8
0
  6
Continuous
 62
     8
370
     0
100
AcDbLine
 10
235.4634936413
 20
495.3257942696
 30
0.0
 11
241.8274592122
 21
501.6897598406
 31
0.0
  0
ARC
  5
177
330
1F
100
AcDbEntity
  8
0
  6
Continuous
 62
     8
370
     0
100
AcDbCircle
 10
135.2854850844
 20
439.4913178821
 30
0.0
 40
4.65155712733401
100
AcDbArc
 50
185.6395920426
 51
274.5741562971
  0
LINE
  5
178
330
1F
100
AcDbEntity
  8
0
  6
Continuous
 62
     8
370
     0
100
AcDbLine
 10
135.6564435622
 20
434.8545761903
 30
0.0
 11
135.6564435622
 21
328.3708745738
 31
0.0
  0
LWPOLYLINE
  5
179
330
1F
100
AcDbEntity
  8
0
  6
Continuous
 62
     8
370
     0
100
AcDbPolyline
 90
       24
 70
   128
 43
0.0
 10
212.0206478497
 20
423.9461289843
 10
212.2536759337
 20
424.1692701479
 10
212.4884362778
 20
424.3887828787
 10
212.7239454051
 20
424.6037507554
 10
212.9592235645
 20
424.8132797082
 10
213.1932910046
 20
425.016494294
 10
213.4251716992
 20
425.2125451465
 10
213.6538970729
 20
425.4006238778
 10
213.8785171768
 20
425.5799407264
 10
214.0980969628
 20
425.7497469087
 10
214.3117162844
 20
425.9093383451
 10
214.5184885224
 20
426.0580482086
 10
214.7175494095
 20
426.1952581008
 10
214.9080756566
 20
426.3203980525
 10
215.0892663261
 20
426.4329390725
 10
215.2603689095
 20
426.5324229499
 10
215.420668151
 20
426.6184250017
 10
215.569500949
 20
426.6905913254
 10
215.70624518
 20
426.7486201723
 10
215.8303271493
 20
426.7922731241
 10
215.9412364921
 20
426.821363916
 10
216.0385038217
 20
426.8357770642
 10
216.1217305323
 20
426.8354455133
 10
216.1905627212
 20
426.8203729888
  0
SPLINE
  5
17A
330
1F
100
AcDbEntity
  8
0
  6
Continuous
 62
     8
370
     0
100
AcDbSpline
210
0.0
220
0.0
230
1.0
 70
     8
 71
     3
 72
     8
 73
     4
 74
     0
 42
0.00000001
 43
0.00000001
 12
1.0
 22
0.0
 32
0.0
 13
1.0
 23
0.0
 33
0.0
 40
0.0
 40
0.0
 40
0.0
 40
0.0
 40
1.0
 40
1.0
 40
1.0
 40
1.0
 10
207.5303296745883
 20
428.6720098252258
 30
0.0
 10
209.0421817982832
 20
427.0915365574562
 30
0.0
 10
210.5213438606559
 20
425.4994294285217
 30
0.0
 10
212.0206470076631
 20
423.946128381573
 30
0.0
  0
SPLINE
  5
17B
330
1F
100
AcDbEntity
  8
0
  6
Continuous
 62
     8
370
     0
100
AcDbSpline
210
0.0
220
0.0
230
1.0
 70
     8
 71
     3
 72
     8
 73
     4
 74
     0
 42
0.00000001
 43
0.00000001
 12
1.0
 22
0.0
 32
0.0
 13
1.0
 23
0.0
 33
0.0
 40
0.0
 40
0.0
 40
0.0
 40
0.0
 40
1.0
 40
1.0
 40
1.0
 40
1.0
 10
196.7316982342217
 20
439.2350771550144
 30
0.0
 10
198.2839435256684
 20
437.736793061944
 30
0.0
 10
199.8760125613206
 20
436.2576583015846
 30
0.0
 10
201.4575796778721
 20
434.7447598219418
 30
0.0
  0
LWPOLYLINE
  5
17C
330
1F
100
AcDbEntity
  8
0
  6
Continuous
 62
     8
370
     0
100
AcDbPolyline
 90
       24
 70
   128
 43
0.0
 10
199.6059428414
 20
443.4049928685
 10
199.621015366
 20
443.3361606797
 10
199.6213469168
 20
443.2529339691
 10
199.6069337686
 20
443.1556666394
 10
199.5778429767
 20
443.0447572966
 10
199.534190025
 20
442.9206753274
 10
199.476161178
 20
442.7839310964
 10
199.4039948544
 20
442.6350982984
 10
199.3179928025
 20
442.4747990569
 10
199.2185089251
 20
442.3036964734
 10
199.1059679052
 20
442.1225058039
 10
198.9808279535
 20
441.9319795569
 10
198.8436180612
 20
441.7329186698
 10
198.6949081978
 20
441.5261464318
 10
198.5353167614
 20
441.3125271102
 10
198.365510579
 20
441.0929473241
 10
198.1861937305
 20
440.8683272203
 10
197.9981149992
 20
440.6396018465
 10
197.8020641467
 20
440.4077211519
 10
197.5988495609
 20
440.1736537119
 10
197.389320608
 20
439.9383755525
 10
197.1743527314
 20
439.7028664251
 10
196.9548400005
 20
439.4681060811
 10
196.7316988369
 20
439.2350779971
  0
ELLIPSE
  5
17D
330
1F
100
AcDbEntity
  8
0
  6
Continuous
 62
     8
370
     0
100
AcDbEllipse
 10
204.006002586
 20
431.2204327334
 30
0.0
 11
45.25483399593932
 21
-45.25483399593912
 31
0.0
210
0.0
220
0.0
230
1.0
 40
0.0874886635
 41
1.27353070782501
 42
1.386519226429507
  0
ELLIPSE
  5
17E
330
1F
100
AcDbEntity
  8
0
  6
Continuous
 62
     8
370
     0
100
AcDbEllipse
 10
204.006002586
 20
431.2204327334
 30
0.0
 11
45.25483399593921
 21
-45.25483399593907
 31
0.0
210
0.0
220
0.0
230
1.0
 40
0.0874886635
 41
1.755073427160232
 42
1.868061945764785
  0
ELLIPSE
  5
17F
330
1F
100
AcDbEntity
  8
0
  6
Continuous
 62
     8
370
     0
100
AcDbEllipse
 10
200.483922454
 20
427.6983526014
 30
0.0
 11
41.71930009000643
 21
-41.71930009000624
 31
0.0
210
0.0
220
0.0
230
1.0
 40
0.094902957
 41
1.187685422278326
 42
1.386519226429508
  0
ELLIPSE
  5
180
330
1F
100
AcDbEntity
  8
0
  6
Continuous
 62
     8
370
     0
100
AcDbEllipse
 10
200.483922454
 20
427.6983526014
 30
0.0
 11
41.71930009000641
 21
-41.7193000900063
 31
0.0
210
0.0
220
0.0
230
1.0
 40
0.094902957
 41
1.755073427160231
 42
1.953907231311469
  0
LWPOLYLINE
  5
181
330
1F
100
AcDbEntity
  8
0
  6
Continuous
 62
     8
370
     0
100
AcDbPolyline
 90
        9
 70
   128
 43
0.0
 10
237.1151010951
 20
458.4400335451
 10
236.3796915373
 20
459.1754356523
 10
235.6436188778
 20
459.9115157624
 10
234.9070917329
 20
460.6480354567
 10
234.1703485211
 20
461.3847786685
 10
233.4336053094
 20
462.1215218802
 10
232.6970856151
 20
462.8580490251
 10
231.961005505
 20
463.5941216846
 10
231.2256033977
 20
464.3295312425
  0
SPLINE
  5
182
330
1F
100
AcDbEntity
  8
0
  6
Continuous
 62
     8
370
     0
100
AcDbSpline
210
0.0
220
0.0
230
1.0
 70
     8
 71
     3
 72
     8
 73
     4
 74
     0
 42
0.00000001
 43
0.00000001
 12
1.0
 22
0.0
 32
0.0
 13
1.0
 23
0.0
 33
0.0
 40
0.0
 40
0.0
 40
0.0
 40
0.0
 40
1.0
 40
1.0
 40
1.0
 40
1.0
 10
219.4822207195957
 20
476.0729097917007
 30
0.0
 10
217.0411572401395
 20
473.7264260650281
 30
0.0
 10
214.5672684309381
 20
471.369952176894
 30
0.0
 10
212.058800110239
 20
469.0045963591901
 30
0.0
  0
ARC
  5
183
330
1F
100
AcDbEntity
  8
0
  6
Continuous
 62
     8
370
     0
100
AcDbCircle
 10
155.6102388214
 20
415.9264593147
 30
0.0
 40
77.48373267494952
100
AcDbArc
 50
40.8970442895
 51
43.2374168893
  0
SPLINE
  5
184
330
1F
100
AcDbEntity
  8
0
  6
Continuous
 62
     8
370
     0
100
AcDbSpline
210
0.0
220
0.0
230
1.0
 70
     8
 71
     3
 72
     8
 73
     4
 74
     0
 42
0.00000001
 43
0.00000001
 12
1.0
 22
0.0
 32
0.0
 13
1.0
 23
0.0
 33
0.0
 40
0.0
 40
0.0
 40
0.0
 40
0.0
 40
1.0
 40
1.0
 40
1.0
 40
1.0
 10
241.7901662118366
 20
439.2732302575928
 30
0.0
 10
244.1555220295404
 20
441.7816985782918
 30
0.0
 10
246.5119959176745
 20
444.2555873874933
 30
0.0
 10
248.8584796443471
 20
446.6966508669494
 30
0.0
  0
ARC
  5
185
330
1F
100
AcDbEntity
  8
0
  6
Continuous
 62
     8
370
     0
100
AcDbCircle
 10
190.348006493
 20
384.6373239817
 30
0.0
 40
75.04250910666106
100
AcDbArc
 50
46.7245099802
 51
49.141028841
  0
SPLINE
  5
186
330
1F
100
AcDbEntity
  8
0
  6
Continuous
 62
     8
370
     0
100
AcDbSpline
210
0.0
220
0.0
230
1.0
 70
     8
 71
     3
 72
     8
 73
     4
 74
     0
 42
0.00000001
 43
0.00000001
 12
1.0
 22
0.0
 32
0.0
 13
1.0
 23
0.0
 33
0.0
 40
0.0
 40
0.0
 40
0.0
 40
0.0
 40
1.0
 40
1.0
 40
1.0
 40
1.0
 10
232.6244384581072
 20
498.1648538751347
 30
0.0
 10
228.6136139710912
 20
494.4702803202325
 30
0.0
 10
224.603850249708
 20
490.7783055341136
 30
0.0
 10
220.5953208179796
 20
487.0896675903157
 30
0.0
  0
SPLINE
  5
187
330
1F
100
AcDbEntity
  8
0
  6
Continuous
 62
     8
370
     0
100
AcDbSpline
210
0.0
220
0.0
230
1.0
 70
     8
 71
     3
 72
     8
 73
     4
 74
     0
 42
0.00000001
 43
0.00000001
 12
1.0
 22
0.0
 32
0.0
 13
1.0
 23
0.0
 33
0.0
 40
0.0
 40
0.0
 40
0.0
 40
0.0
 40
1.0
 40
1.0
 40
1.0
 40
1.0
 10
259.875237442962
 20
447.8097509653333
 30
0.0
 10
263.5638753867599
 20
451.8182803970618
 30
0.0
 10
267.2558501728789
 20
455.828044118445
 30
0.0
 10
270.950423727781
 20
459.838868605461
 30
0.0
  0
ELLIPSE
  5
188
330
1F
100
AcDbEntity
  8
0
  6
Continuous
 62
     8
370
     0
100
AcDbEllipse
 10
686.7625006454
 20
913.9769307928
 30
0.0
 11
1342.604265652549
 21
1259.166050702009
 31
0.0
210
0.0
220
0.0
230
1.0
 40
0.0000975056
 41
1.932089051286423
 42
1.950866820325724
  0
LWPOLYLINE
  5
189
330
1F
100
AcDbEntity
  8
0
  6
Continuous
 62
     8
370
     0
100
AcDbPolyline
 90
        9
 70
   128
 43
0.0
 10
224.1979028543
 20
456.865494897
 10
224.8789082726
 20
456.1844894787
 10
225.5604650339
 20
455.5029327174
 10
226.242379423
 20
454.8210183283
 10
226.9244800767
 20
454.138910224
 10
227.6065881809
 20
453.4568095704
 10
228.2885025701
 20
452.7748951813
 10
228.9700593313
 20
452.09333842
 10
229.6510647496
 20
451.4123330017
  0
ELLIPSE
  5
18A
330
1F
100
AcDbEntity
  8
0
  6
Continuous
 62
     8
370
     0
100
AcDbEllipse
 10
686.7625006454
 20
913.9769307928
 30
0.0
 11
1259.166050702003
 21
1342.604265652552
 31
0.0
210
0.0
220
0.0
230
1.0
 40
0.0000975056
 41
4.332318486873734
 42
4.351096255911212
  0
LWPOLYLINE
  5
18B
330
1F
100
AcDbEntity
  8
0
  6
Continuous
 62
     8
370
     0
100
AcDbPolyline
 90
       15
 70
   128
 43
0.0
 10
241.7901690563
 20
439.273228695
 10
242.542759653
 20
438.520634373
 10
243.2894940933
 20
437.773903658
 10
244.0300743541
 20
437.033319672
 10
244.7642322144
 20
436.2991618117
 10
245.4916920027
 20
435.5717020234
 10
246.2121780476
 20
434.8512159785
 10
246.9254221281
 20
434.1379718979
 10
247.6311560234
 20
433.4322380026
 10
248.3291115126
 20
432.7342862388
 10
249.0190278253
 20
432.0443699261
 10
249.7006441912
 20
431.3627498349
 10
250.3737147411
 20
430.6896830102
 10
251.0379712542
 20
430.0254264971
 10
251.6931753119
 20
429.3702224394
  0
LINE
  5
18C
330
1F
100
AcDbEntity
  8
0
  6
Continuous
 62
     8
370
     0
100
AcDbLine
 10
251.6931753119
 20
429.3702224394
 30
0.0
 11
217.9866108557
 21
395.6636617084
 31
0.0
  0
SPLINE
  5
18D
330
1F
100
AcDbEntity
  8
0
  6
Continuous
 62
     8
370
     0
100
AcDbSpline
210
0.0
220
0.0
230
1.0
 70
     8
 71
     3
 72
    32
 73
    28
 74
     0
 42
0.00000001
 43
0.00000001
 12
1.0
 22
0.0
 32
0.0
 13
1.0
 23
0.0
 33
0.0
 40
0.0
 40
0.0
 40
0.0
 40
0.0
 40
0.1250000000000004
 40
0.1250000000000004
 40
0.2500000000000007
 40
0.2500000000000007
 40
0.3125000000000009
 40
0.3125000000000009
 40
0.3750000000000011
 40
0.3750000000000011
 40
0.5000000000000013
 40
0.5000000000000013
 40
0.5312500000000014
 40
0.5312500000000014
 40
0.5625000000000016
 40
0.5625000000000016
 40
0.6250000000000012
 40
0.6250000000000012
 40
0.7500000000000008
 40
0.7500000000000008
 40
0.7812500000000007
 40
0.7812500000000007
 40
0.8125000000000006
 40
0.8125000000000006
 40
0.8750000000000006
 40
0.8750000000000006
 40
1.0
 40
1.0
 40
1.0
 40
1.0
 10
217.9866116636705
 20
395.663661719146
 30
0.0
 10
216.1784380925717
 20
394.2104662836979
 30
0.0
 10
214.4130759105314
 20
392.7107271613946
 30
0.0
 10
210.9961670459386
 20
389.5877990266938
 30
0.0
 10
209.3445309441401
 20
387.9647134270187
 30
0.0
 10
206.9810996763179
 20
385.4064382046902
 30
0.0
 10
206.2102574679764
 20
384.5303452083091
 30
0.0
 10
204.7245571374057
 20
382.7447869028753
 30
0.0
 10
204.0102325760243
 20
381.8362340330943
 30
0.0
 10
201.9607065874988
 20
379.0595055934357
 30
0.0
 10
200.7193253732864
 20
377.1398603228669
 30
0.0
 10
199.3467890045834
 20
374.6463553082431
 30
0.0
 10
199.0807171972367
 20
374.1419216360122
 30
0.0
 10
198.5717174674677
 20
373.1335979393792
 30
0.0
 10
198.3282422304362
 20
372.6288010859384
 30
0.0
 10
197.6300964988331
 20
371.1131273621679
 30
0.0
 10
197.2077494732689
 20
370.100948657537
 30
0.0
 10
196.0618727712939
 20
367.0649245254024
 30
0.0
 10
195.4598711748308
 20
365.0413657555338
 30
0.0
 10
194.8745707465973
 20
362.5354713942085
 30
0.0
 10
194.7657993076888
 20
362.0350741176495
 30
0.0
 10
194.565799582188
 20
361.047294696654
 30
0.0
 10
194.4742563542215
 20
360.5586485292548
 30
0.0
 10
194.2225111467251
 20
359.1087182472068
 30
0.0
 10
194.0851349275098
 20
358.1634325267742
 30
0.0
 10
193.746708933413
 20
355.3941041701751
 30
0.0
 10
193.6186393356776
 20
353.6363261162835
 30
0.0
 10
193.5511530157715
 20
351.976162646595
 30
0.0
  0
LINE
  5
18E
330
1F
100
AcDbEntity
  8
0
  6
Continuous
 62
     8
370
     0
100
AcDbLine
 10
148.7674388548
 20
396.7598768075
 30
0.0
 11
193.5511540135
 21
351.9761616488
 31
0.0
  0
SPLINE
  5
18F
330
1F
100
AcDbEntity
  8
0
  6
Continuous
 62
     8
370
     0
100
AcDbSpline
210
0.0
220
0.0
230
1.0
 70
     8
 71
     3
 72
    26
 73
    22
 74
     0
 42
0.00000001
 43
0.00000001
 12
1.0
 22
0.0
 32
0.0
 13
1.0
 23
0.0
 33
0.0
 40
0.0
 40
0.0
 40
0.0
 40
0.0
 40
0.0625000000000001
 40
0.0625000000000001
 40
0.1250000000000001
 40
0.1250000000000001
 40
0.2500000000000002
 40
0.2500000000000002
 40
0.3125000000000002
 40
0.3125000000000002
 40
0.3750000000000002
 40
0.3750000000000002
 40
0.5000000000000001
 40
0.5000000000000001
 40
0.6249999999999999
 40
0.6249999999999999
 40
0.6874999999999999
 40
0.6874999999999999
 40
0.75
 40
0.75
 40
1.0
 40
1.0
 40
1.0
 40
1.0
 10
148.7674391246082
 20
396.7598765377583
 30
0.0
 10
148.8092423144894
 20
397.7882350088365
 30
0.0
 10
148.7786280861746
 20
398.7985402331774
 30
0.0
 10
148.6301862832557
 20
400.7920702671054
 30
0.0
 10
148.51186193682
 20
401.7752166465597
 30
0.0
 10
148.0742521916434
 20
404.6914646559684
 30
0.0
 10
147.6751232738997
 20
406.5918552594557
 30
0.0
 10
147.0105460210376
 20
409.390532651973
 30
0.0
 10
146.7765936078887
 20
410.3164058795729
 30
0.0
 10
146.2950899279229
 20
412.1430697975283
 30
0.0
 10
146.0483175474583
 20
413.0409903286697
 30
0.0
 10
145.298478019199
 20
415.6915300450465
 30
0.0
 10
144.786340211242
 20
417.4011645956592
 30
0.0
 10
143.7637352998202
 20
420.7133013580741
 30
0.0
 10
143.2529118834374
 20
422.3157018235914
 30
0.0
 10
142.4982429572173
 20
424.6393868925296
 30
0.0
 10
142.2485563245001
 20
425.4005853888809
 30
0.0
 10
141.7542441116369
 20
426.895860398019
 30
0.0
 10
141.5091384798805
 20
427.631356361205
 30
0.0
 10
140.3049687167202
 20
431.2219195574724
 30
0.0
 10
139.418465223426
 20
433.7957205957979
 30
0.0
 10
138.6315729583983
 20
436.0590758468039
 30
0.0
  0
LWPOLYLINE
  5
190
330
1F
100
AcDbEntity
  8
0
  6
Continuous
 62
     8
370
     0
100
AcDbPolyline
 90
       23
 70
   128
 43
0.0
 10
139.1919768861
 20
449.8450065156
 10
139.1916658243
 20
449.8373473187
 10
139.1891736051
 20
449.7760588427
 10
139.184192892
 20
449.6535340448
 10
139.1767274102
 20
449.4698548814
 10
139.1667790225
 20
449.2251554628
 10
139.1543589046
 20
448.9195922514
 10
139.1394726446
 20
448.5533999403
 10
139.1221314182
 20
448.1268281241
 10
139.1023501268
 20
447.640174826
 10
139.0801380834
 20
447.0937864979
 10
139.0555157771
 20
446.4880505701
 10
139.0284962466
 20
445.8233880003
 10
138.9991018435
 20
445.1002681752
 10
138.9673511943
 20
444.3192051848
 10
138.9332666507
 20
443.4807466467
 10
138.8968742898
 20
442.5854811569
 10
138.8581983259
 20
441.63404574
 10
138.8172648361
 20
440.6271034976
 10
138.7741054853
 20
439.5653696855
 10
138.7287482133
 20
438.4495893618
 10
138.6812265476
 20
437.2805522879
 10
138.6315721532
 20
436.0590743025
  0
LWPOLYLINE
  5
191
330
1F
100
AcDbEntity
  8
0
  6
Continuous
 62
     8
370
     0
100
AcDbPolyline
 90
       61
 70
   128
 43
0.0
 10
212.0587985476
 20
469.0045992037
 10
211.278041031
 20
469.785352995
 10
210.5036090573
 20
470.559788694
 10
209.7358118257
 20
471.3275859257
 10
208.974969711
 20
472.0884243151
 10
208.2213807365
 20
472.8420132895
 10
207.4753541013
 20
473.5880399247
 10
206.737191554
 20
474.3262061973
 10
206.0071911177
 20
475.0562066337
 10
205.2856470903
 20
475.777750661
 10
204.5728537699
 20
476.4905402561
 10
203.8690942785
 20
477.1942997475
 10
203.1746591886
 20
477.8887385627
 10
202.4898241719
 20
478.5735735794
 10
201.8148686251
 20
479.2485291262
 10
201.1500682196
 20
479.9133295318
 10
200.4956837257
 20
480.5677140256
 10
199.8519870898
 20
481.2114069363
 10
199.2192353567
 20
481.8441623946
 10
198.5976855716
 20
482.4657121797
 10
197.9875873288
 20
483.0758104225
 10
197.3891902229
 20
483.6742038031
 10
196.8027326724
 20
484.2606613537
 10
196.2284568211
 20
484.8349446555
 10
195.6665861865
 20
485.3968078395
 10
195.1173591873
 20
485.9460422893
 10
194.5809881648
 20
486.4824095865
 10
194.0576929113
 20
487.0057011147
 10
193.5476894936
 20
487.5157082578
 10
193.0511790773
 20
488.0122149487
 10
192.5683628282
 20
488.4950349232
 10
192.0994381865
 20
488.9639595648
 10
191.6445951423
 20
489.418802609
 10
191.2040125092
 20
489.8593852421
 10
190.7778728267
 20
490.2855211993
 10
190.3663493207
 20
490.697046568
 10
189.9696059039
 20
491.0937899848
 10
189.5878027638
 20
491.4755949875
 10
189.2210945001
 20
491.8423051139
 10
188.8696301242
 20
492.1937639018
 10
188.53355306
 20
492.5298446914
 10
188.2129974177
 20
492.850398471
 10
187.90809172
 20
493.1553060313
 10
187.6189626267
 20
493.444433262
 10
187.3457237592
 20
493.7176758548
 10
187.0884868761
 20
493.9749071499
 10
186.8473562857
 20
494.2160377403
 10
186.6224288454
 20
494.4409707685
 10
186.4137958249
 20
494.6496019264
 10
186.2215410432
 20
494.8418567081
 10
186.0457427314
 20
495.0176531573
 10
185.8864735326
 20
495.1769242187
 10
185.7437949141
 20
495.3196028372
 10
185.6177664807
 20
495.445629408
 10
185.5084385237
 20
495.5549592276
 10
185.4158557465
 20
495.6475401421
 10
185.3400535395
 20
495.7233423491
 10
185.2810654303
 20
495.7823285957
 10
185.2389137706
 20
495.8244839807
 10
185.2136171868
 20
495.8497787019
 10
185.2051831296
 20
495.8582127591
  0
SPLINE
  5
192
330
1F
100
AcDbEntity
  8
0
  6
Continuous
 62
     8
370
     0
100
AcDbSpline
210
0.0
220
0.0
230
1.0
 70
     8
 71
     3
 72
    28
 73
    24
 74
     0
 42
0.00000001
 43
0.00000001
 12
1.0
 22
0.0
 32
0.0
 13
1.0
 23
0.0
 33
0.0
 40
0.0
 40
0.0
 40
0.0
 40
0.0
 40
0.2499999999999994
 40
0.2499999999999994
 40
0.3124999999999993
 40
0.3124999999999993
 40
0.3749999999999993
 40
0.3749999999999993
 40
0.4999999999999994
 40
0.4999999999999994
 40
0.6249999999999996
 40
0.6249999999999996
 40
0.6874999999999997
 40
0.6874999999999997
 40
0.7499999999999997
 40
0.7499999999999997
 40
0.8124999999999998
 40
0.8124999999999998
 40
0.8749999999999999
 40
0.8749999999999999
 40
0.9374999999999999
 40
0.9374999999999999
 40
1.0
 40
1.0
 40
1.0
 40
1.0
 10
135.6564427575062
 20
434.8545764331851
 30
0.0
 10
136.5649090248749
 20
432.6703129110896
 30
0.0
 10
137.5888570278225
 20
430.1881792365528
 30
0.0
 10
138.9844538561739
 20
426.7258954465199
 30
0.0
 10
139.2689388706927
 20
426.0162431611307
 30
0.0
 10
139.8433014845656
 20
424.5734791032065
 30
0.0
 10
140.133767916868
 20
423.8389173135929
 30
0.0
 10
141.0130424945897
 20
421.5961575851791
 30
0.0
 10
141.609946218257
 20
420.0490705066939
 30
0.0
 10
142.8110021857767
 20
416.8494789423281
 30
0.0
 10
143.415508308786
 20
415.1970989758397
 30
0.0
 10
144.3091282619411
 20
412.6328776179448
 30
0.0
 10
144.6047027941556
 20
411.7637970011801
 30
0.0
 10
145.1856802397396
 20
409.9946304538503
 30
0.0
 10
145.470543082563
 20
409.0961026053662
 30
0.0
 10
146.0160609496319
 20
407.2842052213332
 30
0.0
 10
146.2774825171839
 20
406.3688019801307
 30
0.0
 10
146.7649415107915
 20
404.5166078443832
 30
0.0
 10
146.9911460532746
 20
403.5798523982791
 30
0.0
 10
147.3875924809286
 20
401.6807050705419
 30
0.0
 10
147.5581868051804
 20
400.7183887271234
 30
0.0
 10
147.807502798647
 20
398.7605092160775
 30
0.0
 10
147.8870150879218
 20
397.76511729644
 30
0.0
 10
147.8870150879218
 20
396.745901553049
 30
0.0
  0
ARC
  5
193
330
1F
100
AcDbEntity
  8
0
  6
Continuous
 62
     8
370
     0
100
AcDbCircle
 10
134.9570969711
 20
440.8585282785
 30
0.0
 40
6.044545171654515
100
AcDbArc
 50
276.643932089
 51
307.4377680006
  0
ARC
  5
194
330
1F
100
AcDbEntity
  8
0
  6
Continuous
 62
     8
370
     0
100
AcDbCircle
 10
147.8896890334
 20
424.3168992239
 30
0.0
 40
27.5709979725837
100
AcDbArc
 50
269.9944428809
 51
271.824375725
  0
LINE
  5
195
330
1F
100
AcDbEntity
  8
0
  6
Continuous
 62
     8
370
     0
100
AcDbLine
 10
193.5511540135
 20
351.9761616488
 30
0.0
 11
193.5511540135
 21
342.8166562816
 31
0.0
  0
LINE
  5
196
330
1F
100
AcDbEntity
  8
0
  6
Continuous
 62
     8
370
     0
100
AcDbLine
 10
148.7674388548
 20
328.8243020078
 30
0.0
 11
148.7674388548
 21
396.7598768075
 31
0.0
  0
LWPOLYLINE
  5
197
330
1F
100
AcDbEntity
  8
0
  6
Continuous
 62
     8
370
     0
100
AcDbPolyline
 90
       61
 70
   128
 43
0.0
 10
191.8277229628
 20
503.7274116774
 10
191.8364252409
 20
503.7187019487
 10
191.8625320753
 20
503.6925951143
 10
191.9060322901
 20
503.6490986248
 10
191.9669035336
 20
503.5882273813
 10
192.0451271793
 20
503.5100037356
 10
192.1406696996
 20
503.4144649406
 10
192.253486391
 20
503.3016407987
 10
192.3835362753
 20
503.1715909143
 10
192.5307634732
 20
503.0243674417
 10
192.6951121053
 20
502.8600225349
 10
192.8765076658
 20
502.6786232491
 10
193.0748793742
 20
502.4802515407
 10
193.2901452741
 20
502.2649819156
 10
193.5222159585
 20
502.0329112311
 10
193.7709982952
 20
501.7841288944
 10
194.0363879761
 20
501.5187392135
 10
194.3182769677
 20
501.2368539472
 10
194.6165460607
 20
500.9385848542
 10
194.9310797712
 20
500.6240511437
 10
195.2617402634
 20
500.2933869263
 10
195.6083971521
 20
499.9467337628
 10
195.9709088763
 20
499.5842257639
 10
196.3491226992
 20
499.206011941
 10
196.7428821584
 20
498.8122487565
 10
197.1520307919
 20
498.403100123
 10
197.5763972362
 20
497.978737404
 10
198.0158064028
 20
497.5393245121
 10
198.4700794777
 20
497.0850551625
 10
198.939026471
 20
496.6161081692
 10
199.4224573931
 20
496.1326697965
 10
199.9201748034
 20
495.6349561115
 10
200.4319700858
 20
495.1231608291
 10
200.9576346239
 20
494.5974925657
 10
201.496952351
 20
494.0581748386
 10
202.0497034749
 20
493.5054237147
 10
202.6156607529
 20
492.939470162
 10
203.1945857665
 20
492.3605451485
 10
203.7862475475
 20
491.7688796421
 10
204.390400227
 20
491.1647269626
 10
205.0067942103
 20
490.5483329793
 10
205.6351761779
 20
489.9199510117
 10
206.2752928099
 20
489.2798418303
 10
206.9268721601
 20
488.6282587548
 10
207.5896534583
 20
487.9654774567
 10
208.2633610329
 20
487.2917661568
 10
208.9477192124
 20
486.6074079772
 10
209.6424448749
 20
485.91268604
 10
210.3472548982
 20
485.2078760167
 10
211.0618587097
 20
484.4932684799
 10
211.7859620115
 20
483.7691689034
 10
212.5192705056
 20
483.0358604093
 10
213.2614749929
 20
482.293655922
 10
214.0122774502
 20
481.5428534647
 10
214.7713649532
 20
480.7837659617
 10
215.5384283027
 20
480.0167063375
 10
216.313150849
 20
479.2419800659
 10
217.0952122172
 20
478.4599149724
 10
217.8842957577
 20
477.6708314319
 10
218.6800736448
 20
476.8750572701
 10
219.4822217783
 20
476.0729128619
  0
SPLINE
  5
198
330
1F
100
AcDbEntity
  8
0
  6
Continuous
 62
     8
370
     0
100
AcDbSpline
210
0.0
220
0.0
230
1.0
 70
     8
 71
     3
 72
    14
 73
    10
 74
     0
 42
0.00000001
 43
0.00000001
 12
1.0
 22
0.0
 32
0.0
 13
1.0
 23
0.0
 33
0.0
 40
0.0
 40
0.0
 40
0.0
 40
0.0
 40
0.2499999999999974
 40
0.2499999999999974
 40
0.3749999999999961
 40
0.3749999999999961
 40
0.4999999999999947
 40
0.4999999999999947
 40
1.0
 40
1.0
 40
1.0
 40
1.0
 10
283.6707374895625
 20
447.1185548436796
 30
0.0
 10
282.8102981810435
 20
447.0273777703731
 30
0.0
 10
281.9432740341387
 20
446.8828168713367
 30
0.0
 10
280.6356507864109
 20
446.5848779688073
 30
0.0
 10
280.1985866997419
 20
446.4720327993165
 30
0.0
 10
279.3224547624324
 20
446.2189584767905
 30
0.0
 10
278.8818772790581
 20
446.0781399505824
 30
0.0
 10
276.7045172056706
 20
445.3156320371429
 30
0.0
 10
275.028928434245
 20
444.5169743735898
 30
0.0
 10
273.4107945943375
 20
443.5606445783515
 30
0.0
  0
SPLINE
  5
199
330
1F
100
AcDbEntity
  8
0
  6
Continuous
 62
     8
370
     0
100
AcDbSpline
210
0.0
220
0.0
230
1.0
 70
     8
 71
     3
 72
     8
 73
     4
 74
     0
 42
0.00000001
 43
0.00000001
 12
1.0
 22
0.0
 32
0.0
 13
1.0
 23
0.0
 33
0.0
 40
0.0
 40
0.0
 40
0.0
 40
0.0
 40
1.0
 40
1.0
 40
1.0
 40
1.0
 10
273.4107945943375
 20
443.5606445783515
 30
0.0
 10
268.9160930066805
 20
440.9042406746872
 30
0.0
 10
264.4057801262394
 20
438.2742755439817
 30
0.0
 10
259.8749623678893
 20
435.6801681434074
 30
0.0
  0
LWPOLYLINE
  5
19A
330
1F
100
AcDbEntity
  8
0
  6
Continuous
 62
     8
370
     0
100
AcDbPolyline
 90
       17
 70
   128
 43
0.0
 10
259.8749633392
 20
435.6801675757
 10
259.2436234912
 20
436.311511149
 10
258.6035739144
 20
436.9515532752
 10
257.9550455769
 20
437.6000816127
 10
257.2982619962
 20
438.2568651934
 10
256.6334541401
 20
438.9216767748
 10
255.9608455261
 20
439.5942853888
 10
255.2806671223
 20
440.2744600674
 10
254.5931722483
 20
440.9619623919
 10
253.898576971
 20
441.656553944
 10
253.1971420607
 20
442.3579925795
 10
252.4890910348
 20
443.0660361548
 10
251.7746921143
 20
443.7804388007
 10
251.054176267
 20
444.5009546479
 10
250.3278042635
 20
445.2273266514
 10
249.5958145222
 20
445.9593126675
 10
248.8584827146
 20
446.6966519256
  0
LINE
  5
19B
330
1F
100
AcDbEntity
  8
0
  6
Continuous
 62
     8
370
     0
100
AcDbLine
 10
147.8870149216
 20
396.745901381
 30
0.0
 11
147.8870149216
 21
328.3708745738
 31
0.0
  0
SPLINE
  5
19C
330
1F
100
AcDbEntity
  8
0
  6
Continuous
 62
     8
370
     0
100
AcDbSpline
210
0.0
220
0.0
230
1.0
 70
     8
 71
     3
 72
     8
 73
     4
 74
     0
 42
0.00000001
 43
0.00000001
 12
1.0
 22
0.0
 32
0.0
 13
1.0
 23
0.0
 33
0.0
 40
0.0
 40
0.0
 40
0.0
 40
0.0
 40
1.0
 40
1.0
 40
1.0
 40
1.0
 10
251.6931732069768
 20
429.3702232624526
 30
0.0
 10
254.1490297480701
 20
431.8260798035458
 30
0.0
 10
256.8858992764425
 20
433.9169121117076
 30
0.0
 10
259.8749623678893
 20
435.6801681434073
 30
0.0
  0
LWPOLYLINE
  5
19D
330
1F
100
AcDbEntity
  8
0
  6
Continuous
 62
     8
370
     0
100
AcDbPolyline
 90
       59
 70
   128
 43
0.0
 10
244.2968945464
 20
509.7081491848
 10
244.917565163
 20
509.1523954769
 10
245.5444793662
 20
508.588364174
 10
246.1773838362
 20
508.0162713428
 10
246.8160327038
 20
507.4363405009
 10
247.4601726493
 20
506.8487951656
 10
248.1095578035
 20
506.2538812061
 10
248.7639273962
 20
505.6518146892
 10
249.4230281075
 20
505.0428414842
 10
250.0865991672
 20
504.4272000094
 10
250.7543872556
 20
503.8051286836
 10
251.426116701
 20
503.176873376
 10
252.1015341839
 20
502.5426799556
 10
252.7803789338
 20
501.9027942916
 10
253.4623752793
 20
501.2574697038
 10
254.1472549995
 20
500.6069669624
 10
254.8347573241
 20
499.9515244861
 10
255.5246065816
 20
499.2914104958
 10
256.216534551
 20
498.6268857618
 10
256.910265561
 20
497.9582110544
 10
257.6055388411
 20
497.2856396933
 10
258.3020712694
 20
496.6094398995
 10
258.9995871743
 20
495.9298798939
 10
259.6978257855
 20
495.2472278972
 10
260.396503981
 20
494.5617372294
 10
261.0953460893
 20
493.873698463
 10
261.7940838894
 20
493.1833649178
 10
262.4924417099
 20
492.4910122653
 10
263.1901438793
 20
491.7969161769
 10
263.8869147262
 20
491.1013448735
 10
264.5824860295
 20
490.4045740267
 10
265.2765821179
 20
489.7068718572
 10
265.9689347705
 20
489.0085140367
 10
266.6592683157
 20
488.3097762366
 10
267.3473070821
 20
487.6109341284
 10
268.0327977499
 20
486.9122559329
 10
268.7154497465
 20
486.2140173217
 10
269.3950097522
 20
485.5165014168
 10
270.071209546
 20
484.8199689885
 10
270.7437809071
 20
484.1246957084
 10
271.4124556145
 20
483.4309646984
 10
272.0769803485
 20
482.7390367289
 10
272.7370943388
 20
482.0491874715
 10
273.3925368151
 20
481.3616851469
 10
274.0430395564
 20
480.6768054267
 10
274.6883641442
 20
479.9948090812
 10
275.3282498082
 20
479.3159643312
 10
275.9624432286
 20
478.6405468484
 10
276.5906985363
 20
477.9688174029
 10
277.2127698621
 20
477.3010293146
 10
277.8284113368
 20
476.6374582549
 10
278.4373845419
 20
475.9783575436
 10
279.0394510588
 20
475.3239879509
 10
279.6343650183
 20
474.6746027966
 10
280.2219103536
 20
474.0304628511
 10
280.8018411955
 20
473.3918139835
 10
281.3739340266
 20
472.7589095136
 10
281.9379653295
 20
472.1319953104
 10
282.4937190374
 20
471.5113246938
  0
ARC
  5
19E
330
1F
100
AcDbEntity
  8
0
  6
Continuous
 62
     8
370
     0
100
AcDbCircle
 10
44.7349057707
 20
677.9401643514
 30
0.0
 40
261.0114907261835
100
AcDbArc
 50
318.2368422708
 51
319.8689000445
  0
ARC
  5
19F
330
1F
100
AcDbEntity
  8
0
  6
Continuous
 62
     8
370
     0
100
AcDbCircle
 10
451.5700166148
 20
270.9762881006
 30
0.0
 40
262.2996288672468
100
AcDbArc
 50
130.1351076946
 51
131.7591499901
  0
LINE
  5
1A0
330
1F
100
AcDbEntity
  8
0
  6
Continuous
 62
     8
370
     0
100
AcDbLine
 10
347.6564447841
 20
339.3708745142
 30
0.0
 11
347.6564447841
 21
433.3708712955
 31
0.0
  0
ARC
  5
1A1
330
1F
100
AcDbEntity
  8
0
  6
Continuous
 62
     8
370
     0
100
AcDbCircle
 10
259.4557785459
 20
424.6696310206
 30
0.0
 40
50.60670039291668
100
AcDbArc
 50
214.9711992499
 51
218.9255785024
  0
SPLINE
  5
1A2
330
1F
100
AcDbEntity
  8
0
  6
Continuous
 62
     8
370
     0
100
AcDbSpline
210
0.0
220
0.0
230
1.0
 70
     8
 71
     3
 72
    34
 73
    30
 74
     0
 42
0.00000001
 43
0.00000001
 12
1.0
 22
0.0
 32
0.0
 13
1.0
 23
0.0
 33
0.0
 40
0.0
 40
0.0
 40
0.0
 40
0.0
 40
0.1249999999999999
 40
0.1249999999999999
 40
0.1874999999999998
 40
0.1874999999999998
 40
0.2187499999999999
 40
0.2187499999999999
 40
0.2500000000000001
 40
0.2500000000000001
 40
0.3749999999999999
 40
0.3749999999999999
 40
0.4374999999999998
 40
0.4374999999999998
 40
0.4687499999999998
 40
0.4687499999999998
 40
0.4999999999999997
 40
0.4999999999999997
 40
0.625
 40
0.625
 40
0.6875000000000002
 40
0.6875000000000002
 40
0.7187500000000002
 40
0.7187500000000002
 40
0.7500000000000001
 40
0.7500000000000001
 40
0.8750000000000001
 40
0.8750000000000001
 40
1.0
 40
1.0
 40
1.0
 40
1.0
 10
196.4659589698617
 20
352.6488101744621
 30
0.0
 10
196.4659589698617
 20
354.1881380957792
 30
0.0
 10
196.5231122277273
 20
355.8213903635294
 30
0.0
 10
196.7545736493577
 20
358.402851443565
 30
0.0
 10
196.85623049385
 20
359.2853326086876
 30
0.0
 10
197.0553523040912
 20
360.6413647478579
 30
0.0
 10
197.1295180162012
 20
361.0987633987862
 30
0.0
 10
197.2953284235673
 20
362.0242551767677
 30
0.0
 10
197.3872842246622
 20
362.4937131096038
 30
0.0
 10
197.8911463614069
 20
364.8460149849769
 30
0.0
 10
198.4353460926371
 20
366.7461984444608
 30
0.0
 10
199.5131621165658
 20
369.594699475928
 30
0.0
 10
199.9159305330196
 20
370.5439540653294
 30
0.0
 10
200.5902501056291
 20
371.9643797926295
 30
0.0
 10
200.8267059359479
 20
372.4372836994003
 30
0.0
 10
201.3236432955098
 20
373.3814965328965
 30
0.0
 10
201.5846531878368
 20
373.8535848265893
 30
0.0
 10
202.9336757207935
 20
376.1802624667458
 30
0.0
 10
204.1648523998887
 20
377.9551902550917
 30
0.0
 10
206.2049293401747
 20
380.5029915805395
 30
0.0
 10
206.9171016508406
 20
381.3332587266286
 30
0.0
 10
208.0289882156925
 20
382.5525911824326
 30
0.0
 10
208.4073395346677
 20
382.9551288855301
 30
0.0
 10
209.1729290581918
 20
383.7469877033568
 30
0.0
 10
209.5606733353751
 20
384.1368930374901
 30
0.0
 10
211.5222077030787
 20
386.058663213477
 30
0.0
 10
213.1638603500775
 20
387.5079741060517
 30
0.0
 10
216.5524533596331
 20
390.2784893526963
 30
0.0
 10
218.2995464430045
 20
391.5995002870551
 30
0.0
 10
220.0856531929682
 20
392.872913720107
 30
0.0
  0
ARC
  5
1A3
330
1F
100
AcDbEntity
  8
0
  6
Continuous
 62
     8
370
     0
100
AcDbCircle
 10
196.4136122728
 20
346.2239321634
 30
0.0
 40
6.425092321488231
100
AcDbArc
 50
89.5331929327
 51
116.4561262201
  0
SPLINE
  5
1A4
330
1F
100
AcDbEntity
  8
0
  6
Continuous
 62
     8
370
     0
100
AcDbSpline
210
0.0
220
0.0
230
1.0
 70
     8
 71
     3
 72
     8
 73
     4
 74
     0
 42
0.00000001
 43
0.00000001
 12
1.0
 22
0.0
 32
0.0
 13
1.0
 23
0.0
 33
0.0
 40
0.0
 40
0.0
 40
0.0
 40
0.0
 40
1.0
 40
1.0
 40
1.0
 40
1.0
 10
261.3858961431903
 20
432.9615898646173
 30
0.0
 10
258.5954467992397
 20
431.4107115268714
 30
0.0
 10
256.0516781279985
 20
429.5306451248404
 30
0.0
 10
253.7922147362937
 20
427.2711817331356
 30
0.0
  0
LWPOLYLINE
  5
1A5
330
1F
100
AcDbEntity
  8
0
  6
Continuous
 62
     8
370
     0
100
AcDbPolyline
 90
       11
 70
   128
 43
0.0
 10
251.6931753119
 20
429.3702224394
 10
251.8781359753
 20
429.1852655013
 10
252.0708228907
 20
428.9925748607
 10
252.2704686483
 20
428.792929103
 10
252.4762536844
 20
428.5871403416
 10
252.6873584351
 20
428.376035591
 10
252.9029260835
 20
428.1604679426
 10
253.1220849117
 20
427.9413091143
 10
253.3439557513
 20
427.719442
 10
253.5676296314
 20
427.4957643946
 10
253.7922124824
 20
427.2711815437
  0
LWPOLYLINE
  5
1A6
330
1F
100
AcDbEntity
  8
0
  6
Continuous
 62
     8
370
     0
100
AcDbPolyline
 90
       11
 70
   128
 43
0.0
 10
261.3858963808
 20
432.9615885516
 10
261.2229521831
 20
433.2547763487
 10
261.0607381424
 20
433.5466416677
 10
260.8999844154
 20
433.8358732065
 10
260.7414286097
 20
434.1211633881
 10
260.5857710799
 20
434.4012307127
 10
260.4337196311
 20
434.6748085817
 10
260.2859597167
 20
434.9406713744
 10
260.1431544384
 20
435.1976158222
 10
260.0059519967
 20
435.4444833597
 10
259.8749633392
 20
435.6801675757
  0
SPLINE
  5
1A7
330
1F
100
AcDbEntity
  8
0
  6
Continuous
 62
     8
370
     0
100
AcDbSpline
210
0.0
220
0.0
230
1.0
 70
     8
 71
     3
 72
    22
 73
    18
 74
     0
 42
0.00000001
 43
0.00000001
 12
1.0
 22
0.0
 32
0.0
 13
1.0
 23
0.0
 33
0.0
 40
0.0
 40
0.0
 40
0.0
 40
0.0
 40
0.2499999999999988
 40
0.2499999999999988
 40
0.3749999999999968
 40
0.3749999999999968
 40
0.4374999999999973
 40
0.4374999999999973
 40
0.4999999999999978
 40
0.4999999999999978
 40
0.6249999999999984
 40
0.6249999999999984
 40
0.7499999999999989
 40
0.7499999999999989
 40
0.8749999999999994
 40
0.8749999999999994
 40
1.0
 40
1.0
 40
1.0
 40
1.0
 10
275.0557891580818
 20
440.7080055111183
 30
0.0
 10
275.9638643084622
 20
441.3625654863906
 30
0.0
 10
276.9055002841554
 20
441.9424180983649
 30
0.0
 10
278.3770059081519
 20
442.6783473550986
 30
0.0
 10
278.8773712339308
 20
442.9012805819272
 30
0.0
 10
279.6440820810118
 20
443.1985058739121
 30
0.0
 10
279.9020925977634
 20
443.2912066922132
 30
0.0
 10
280.4157110260671
 20
443.4611668185121
 30
0.0
 10
280.6722705580235
 20
443.5388089875213
 30
0.0
 10
281.4410069387778
 20
443.7499497261653
 30
0.0
 10
281.952248226754
 20
443.8616754261555
 30
0.0
 10
282.9710527169664
 20
444.0280149488325
 30
0.0
 10
283.4806213100862
 20
444.082703150693
 30
0.0
 10
284.4846428598748
 20
444.1350641589904
 30
0.0
 10
284.9756411545019
 20
444.1327155139035
 30
0.0
 10
285.928202444233
 20
444.0773374410924
 30
0.0
 10
286.3910153643331
 20
444.0243791169368
 30
0.0
 10
286.8405567936524
 20
443.9487355395897
 30
0.0
  0
LWPOLYLINE
  5
1A8
330
1F
100
AcDbEntity
  8
0
  6
Continuous
 62
     8
370
     0
100
AcDbPolyline
 90
       12
 70
   128
 43
0.0
 10
273.4107981881
 20
443.5606429478
 10
273.5370631775
 20
443.3416741093
 10
273.6698176226
 20
443.1114586194
 10
273.8084952792
 20
442.8709799548
 10
273.9524926504
 20
442.6212662955
 10
274.1012062391
 20
442.3633793493
 10
274.2539952954
 20
442.0984255274
 10
274.4102041682
 20
441.8275335928
 10
274.5691697558
 20
441.5518621107
 10
274.730221506
 20
441.2725882729
 10
274.8926590642
 20
440.990900447
 10
275.0557895264
 20
440.708005627
  0
LINE
  5
1A9
330
1F
100
AcDbEntity
  8
0
  6
Continuous
 62
     8
370
     0
100
AcDbLine
 10
193.6399686595
 20
339.2238149544
 30
0.0
 11
193.6399686595
 21
342.6834063729
 31
0.0
  0
SPLINE
  5
1AA
330
1F
100
AcDbEntity
  8
0
  6
Continuous
 62
     8
370
     0
100
AcDbSpline
210
0.0
220
0.0
230
1.0
 70
     8
 71
     3
 72
     8
 73
     4
 74
     0
 42
0.00000001
 43
0.00000001
 12
1.0
 22
0.0
 32
0.0
 13
1.0
 23
0.0
 33
0.0
 40
0.0
 40
0.0
 40
0.0
 40
0.0
 40
1.0
 40
1.0
 40
1.0
 40
1.0
 10
261.3858961431903
 20
432.9615898646173
 30
0.0
 10
265.9638236489563
 20
435.5059143533792
 30
0.0
 10
270.5184906765417
 20
438.0915401398235
 30
0.0
 10
275.0557891580818
 20
440.7080055111183
 30
0.0
  0
LINE
  5
1AB
330
1F
100
AcDbEntity
  8
0
  6
Continuous
 62
     8
370
     0
100
AcDbLine
 10
220.0856517514
 20
393.5646203471
 30
0.0
 11
253.7922124824
 21
427.2711815437
 31
0.0
  0
LWPOLYLINE
  5
1AC
330
1F
100
AcDbEntity
  8
0
  6
Continuous
 62
     8
370
     0
100
AcDbPolyline
 90
       11
 70
   128
 43
0.0
 10
220.0856517514
 20
393.5646203471
 10
219.8610689005
 20
393.7892041293
 10
219.6373912951
 20
394.0128812691
 10
219.4155279061
 20
394.234747452
 10
219.1963653525
 20
394.4539072116
 10
218.9807977041
 20
394.66947486
 10
218.7696929535
 20
394.8805796107
 10
218.5639041921
 20
395.0863693034
 10
218.3642621597
 20
395.2860122671
 10
218.171571519
 20
395.4787029078
 10
217.9866108557
 20
395.6636617084
  0
LINE
  5
1AD
330
1F
100
AcDbEntity
  8
0
  6
Continuous
 62
     8
370
     0
100
AcDbLine
 10
220.0856517514
 20
393.5646203471
 30
0.0
 11
220.0856517514
 21
392.8729135667
 31
0.0
  0
SPLINE
  5
1AE
330
1F
100
AcDbEntity
  8
0
  6
Continuous
 62
     8
370
     0
100
AcDbSpline
210
0.0
220
0.0
230
1.0
 70
     8
 71
     3
 72
    34
 73
    30
 74
     0
 42
0.00000001
 43
0.00000001
 12
1.0
 22
0.0
 32
0.0
 13
1.0
 23
0.0
 33
0.0
 40
0.0
 40
0.0
 40
0.0
 40
0.0
 40
0.0312499999999981
 40
0.0312499999999981
 40
0.0468749999999977
 40
0.0468749999999977
 40
0.0624999999999973
 40
0.0624999999999973
 40
0.0937499999999976
 40
0.0937499999999976
 40
0.1249999999999979
 40
0.1249999999999979
 40
0.1874999999999984
 40
0.1874999999999984
 40
0.2499999999999991
 40
0.2499999999999991
 40
0.3749999999999994
 40
0.3749999999999994
 40
0.4999999999999999
 40
0.4999999999999999
 40
0.6250000000000002
 40
0.6250000000000002
 40
0.7500000000000006
 40
0.7500000000000006
 40
0.8125000000000003
 40
0.8125000000000003
 40
0.8750000000000001
 40
0.8750000000000001
 40
1.0
 40
1.0
 40
1.0
 40
1.0
 10
275.0557891580818
 20
392.8729137201204
 30
0.0
 10
275.4369888427502
 20
392.8729137201204
 30
0.0
 10
275.8075195696718
 20
392.9296239189817
 30
0.0
 10
276.3505374763905
 20
393.0825068695515
 30
0.0
 10
276.5304015142606
 20
393.1451654373287
 30
0.0
 10
276.8800276614851
 20
393.2871007897404
 30
0.0
 10
277.0501646083505
 20
393.3663166142774
 30
0.0
 10
277.549582695103
 20
393.6232867569783
 30
0.0
 10
277.868038576014
 20
393.8200650145281
 30
0.0
 10
278.4864619292608
 20
394.2457753744103
 30
0.0
 10
278.7849128299053
 20
394.4739513051907
 30
0.0
 10
279.6501780848632
 20
395.1802850658936
 30
0.0
 10
280.1927192729864
 20
395.682939869014
 30
0.0
 10
281.244348018325
 20
396.7165679325004
 30
0.0
 10
281.7526264366631
 20
397.2483465175372
 30
0.0
 10
283.2456168680848
 20
398.8675973529427
 30
0.0
 10
284.2014919372211
 20
399.9811082338386
 30
0.0
 10
286.0449043799738
 20
402.2035934650926
 30
0.0
 10
286.9340912763132
 20
403.3167475700959
 30
0.0
 10
288.6591114975931
 20
405.5362771195481
 30
0.0
 10
289.4946293638189
 20
406.6428981966259
 30
0.0
 10
291.111931487293
 20
408.8461565915591
 30
0.0
 10
291.8936599326575
 20
409.9428623970538
 30
0.0
 10
293.0212071099494
 20
411.5797507133602
 30
0.0
 10
293.3895039436526
 20
412.1240326264524
 30
0.0
 10
294.1096331473023
 20
413.2099150758538
 30
0.0
 10
294.4620401742665
 20
413.7524493444892
 30
0.0
 10
295.4845106560007
 20
415.3644455187034
 30
0.0
 10
296.1219146284547
 20
416.4208768998479
 30
0.0
 10
296.7064242526928
 20
417.4584508098689
 30
0.0
  0
LINE
  5
1AF
330
1F
100
AcDbEntity
  8
0
  6
Continuous
 62
     8
370
     0
100
AcDbLine
 10
275.0557895264
 20
393.5646203471
 30
0.0
 11
275.0557895264
 21
392.8729135667
 31
0.0
  0
SPLINE
  5
1B0
330
1F
100
AcDbEntity
  8
0
  6
Continuous
 62
     8
370
     0
100
AcDbSpline
210
0.0
220
0.0
230
1.0
 70
     8
 71
     3
 72
    34
 73
    30
 74
     0
 42
0.00000001
 43
0.00000001
 12
1.0
 22
0.0
 32
0.0
 13
1.0
 23
0.0
 33
0.0
 40
0.0
 40
0.0
 40
0.0
 40
0.0
 40
0.1250000000000011
 40
0.1250000000000011
 40
0.1875000000000016
 40
0.1875000000000016
 40
0.2500000000000021
 40
0.2500000000000021
 40
0.5000000000000018
 40
0.5000000000000018
 40
0.6250000000000021
 40
0.6250000000000021
 40
0.7500000000000026
 40
0.7500000000000026
 40
0.8125000000000029
 40
0.8125000000000029
 40
0.8750000000000031
 40
0.8750000000000031
 40
0.9062500000000029
 40
0.9062500000000029
 40
0.9375000000000026
 40
0.9375000000000026
 40
0.9531250000000019
 40
0.9531250000000019
 40
0.9687500000000013
 40
0.9687500000000013
 40
0.9843750000000007
 40
0.9843750000000007
 40
1.0
 40
1.0
 40
1.0
 40
1.0
 10
292.3762972337706
 20
420.7656399486996
 30
0.0
 10
291.9170568743319
 20
419.6382272472854
 30
0.0
 10
291.4178049783273
 20
418.4926699568298
 30
0.0
 10
290.6195165579367
 20
416.7487762502676
 30
0.0
 10
290.3447992485145
 20
416.1625487893975
 30
0.0
 10
289.783084491756
 20
414.9881845628564
 30
0.0
 10
289.4958070587966
 20
414.3994083935045
 30
0.0
 10
288.0299854466921
 20
411.4477223282581
 30
0.0
 10
286.7662844507748
 20
409.0605516174516
 30
0.0
 10
284.7481245018485
 20
405.4520009265146
 30
0.0
 10
284.0545637410602
 20
404.2445707268356
 30
0.0
 10
282.6159214496571
 20
401.8273429851301
 30
0.0
 10
281.8698125356646
 20
400.6135040936845
 30
0.0
 10
280.6961915984953
 20
398.8235673302912
 30
0.0
 10
280.2956381746453
 20
398.2319274582597
 30
0.0
 10
279.4631059481811
 20
397.0679920807603
 30
0.0
 10
279.0320199784213
 20
396.4950502290188
 30
0.0
 10
278.3374355682865
 20
395.6678868089774
 30
0.0
 10
278.0977630326855
 20
395.3976506875162
 30
0.0
 10
277.5910523646043
 20
394.8761777591613
 30
0.0
 10
277.3252518977269
 20
394.6259767960894
 30
0.0
 10
276.9007308582023
 20
394.28705218922
 30
0.0
 10
276.7546077196154
 20
394.1799880710728
 30
0.0
 10
276.4493120569563
 20
393.9826291780822
 30
0.0
 10
276.2888865279729
 20
393.8916817690361
 30
0.0
 10
275.9549187918103
 20
393.7376110493141
 30
0.0
 10
275.7830854002723
 20
393.6751529294075
 30
0.0
 10
275.4267397831244
 20
393.5883923434193
 30
0.0
 10
275.2413502358154
 20
393.564620189829
 30
0.0
 10
275.0557891580818
 20
393.564620189829
 30
0.0
  0
ARC
  5
1B1
330
1F
100
AcDbEntity
  8
0
  6
Continuous
 62
     8
370
     0
100
AcDbCircle
 10
298.5079061016
 20
424.3054737208
 30
0.0
 40
7.080047130056471
100
AcDbArc
 50
209.9982256409
 51
255.2593047559
  0
LINE
  5
1B2
330
1F
100
AcDbEntity
  8
0
  6
Continuous
 62
     8
370
     0
100
AcDbLine
 10
196.4659589788
 20
339.3708745142
 30
0.0
 11
196.4659589788
 21
352.648811241
 31
0.0
  0
LINE
  5
1B3
330
1F
100
AcDbEntity
  8
0
  6
Continuous
 62
     8
370
     0
100
AcDbLine
 10
220.0856517514
 20
392.8729135667
 30
0.0
 11
275.0557895264
 21
392.8729135667
 31
0.0
  0
SPLINE
  5
1B4
330
1F
100
AcDbEntity
  8
0
  6
Continuous
 62
     8
370
     0
100
AcDbSpline
210
0.0
220
0.0
230
1.0
 70
     8
 71
     3
 72
    10
 73
     6
 74
     0
 42
0.00000001
 43
0.00000001
 12
1.0
 22
0.0
 32
0.0
 13
1.0
 23
0.0
 33
0.0
 40
0.0
 40
0.0
 40
0.0
 40
0.0
 40
0.5
 40
0.5
 40
1.0
 40
1.0
 40
1.0
 40
1.0
 10
296.7064242526928
 20
417.4584508098689
 30
0.0
 10
297.8645481618698
 20
419.5142581103904
 30
0.0
 10
299.0030308058272
 20
421.3875716629293
 30
0.0
 10
301.162486201419
 20
424.795047842049
 30
0.0
 10
302.1843477086379
 20
426.3292240350829
 30
0.0
 10
303.1085117765221
 20
427.68078055672
 30
0.0
  0
LINE
  5
1B5
330
1F
100
AcDbEntity
  8
0
  6
Continuous
 62
     8
370
     0
100
AcDbLine
 10
275.0557895264
 20
393.5646203471
 30
0.0
 11
220.0856517514
 21
393.5646203471
 31
0.0
  0
LINE
  5
1B6
330
1F
100
AcDbEntity
  8
0
  6
Continuous
 62
     8
370
     0
100
AcDbLine
 10
275.0557895264
 20
440.708005627
 30
0.0
 11
275.0557895264
 21
393.5646203471
 31
0.0
  0
LINE
  5
1B7
330
1F
100
AcDbEntity
  8
0
  6
Continuous
 62
     8
370
     0
100
AcDbLine
 10
292.3762958011
 20
438.4129958351
 30
0.0
 11
292.3762958011
 21
420.7656400402
 31
0.0
  0
SPLINE
  5
1B8
330
1F
100
AcDbEntity
  8
0
  6
Continuous
 62
     8
370
     0
100
AcDbSpline
210
0.0
220
0.0
230
1.0
 70
     8
 71
     3
 72
    14
 73
    10
 74
     0
 42
0.00000001
 43
0.00000001
 12
1.0
 22
0.0
 32
0.0
 13
1.0
 23
0.0
 33
0.0
 40
0.0
 40
0.0
 40
0.0
 40
0.0
 40
0.1249999999999997
 40
0.1249999999999997
 40
0.2499999999999994
 40
0.2499999999999994
 40
0.5
 40
0.5
 40
1.0
 40
1.0
 40
1.0
 40
1.0
 10
298.4948491873669
 20
432.2944431458752
 30
0.0
 10
298.2749226692019
 20
431.9153383348171
 30
0.0
 10
298.047660775288
 20
431.5206899281463
 30
0.0
 10
297.5828432662131
 20
430.7063597871968
 30
0.0
 10
297.3451057227538
 20
430.286373208063
 30
0.0
 10
296.6179695709503
 20
428.9891807716569
 30
0.0
 10
296.1146648406771
 20
428.0748553723187
 30
0.0
 10
294.5644632887806
 20
425.1886340345924
 30
0.0
 10
293.4768800939189
 20
423.0751898470497
 30
0.0
 10
292.3762972337706
 20
420.7656399486996
 30
0.0
  0
LWPOLYLINE
  5
1B9
330
1F
100
AcDbEntity
  8
0
  6
Continuous
 62
     8
370
     0
100
AcDbPolyline
 90
       36
 70
   128
 43
0.0
 10
130.6564427426
 20
439.0342066189
 10
130.6663892677
 20
438.800820907
 10
130.6961915901
 20
438.5683665176
 10
130.7457286378
 20
438.3377673229
 10
130.8148048332
 20
438.1099360188
 10
130.9031463673
 20
437.8857815762
 10
131.0103993377
 20
437.6661980649
 10
131.1361371985
 20
437.452060928
 10
131.2798626235
 20
437.2442158063
 10
131.4410000553
 20
437.0434897145
 10
131.6189106068
 20
436.8506873151
 10
131.8128864726
 20
436.6665722926
 10
132.0221546551
 20
436.4918785294
 10
132.2458825519
 20
436.3273026546
 10
132.4831816813
 20
436.1734928687
 10
132.7331058195
 20
436.0310675701
 10
132.994660314
 20
435.9005892773
 10
133.2668076714
 20
435.7825795313
 10
133.5484619698
 20
435.6775077184
 10
133.8385037592
 20
435.5857910713
 10
134.1357781997
 20
435.5077983936
 10
134.4391043743
 20
435.4438351591
 10
134.7472715637
 20
435.3941546877
 10
135.0590597352
 20
435.358958145
 10
135.3732227793
 20
435.338387092
 10
135.6885127237
 20
435.3325197597
 10
136.0036741456
 20
435.3413822254
 10
136.3174553474
 20
435.3649335106
 10
136.6286064943
 20
435.4030879339
 10
136.9358889272
 20
435.4556890329
 10
137.2380826136
 20
435.5225281914
 10
137.5339805594
 20
435.6033409139
 10
137.8224092981
 20
435.6978031
 10
138.1022195777
 20
435.8055422207
 10
138.372299399
 20
435.9261261423
 10
138.6315721532
 20
436.0590743025
  0
LINE
  5
1BA
330
1F
100
AcDbEntity
  8
FORMAT
  6
CENTERX2
370
     0
100
AcDbLine
 10
379.0890777058
 20
386.3708729049
 30
0.0
 11
99.4342238734
 21
386.3708729049
 31
0.0
  0
CIRCLE
  5
1BB
330
1F
100
AcDbEntity
  8
0
  6
Continuous
 62
     7
370
    15
100
AcDbCircle
 10
643.8259597945
 20
386.3708729049
 30
0.0
 40
69.50000000000006
  0
CIRCLE
  5
1BC
330
1F
100
AcDbEntity
  8
0
  6
Continuous
 62
     7
370
    15
100
AcDbCircle
 10
643.8259597945
 20
386.3708729049
 30
0.0
 40
66.5
  0
CIRCLE
  5
1BD
330
1F
100
AcDbEntity
  8
0
  6
Continuous
 62
     7
370
    15
100
AcDbCircle
 10
643.8259597945
 20
386.3708729049
 30
0.0
 40
38.39999999999998
  0
LINE
  5
1BE
330
1F
100
AcDbEntity
  8
0
  6
Continuous
 62
     7
370
    15
100
AcDbLine
 10
738.8259586024
 20
386.3708729049
 30
0.0
 11
743.7067743468
 21
391.2516900462
 31
0.0
  0
LINE
  5
1BF
330
1F
100
AcDbEntity
  8
0
  6
Continuous
 62
     7
370
    15
100
AcDbLine
 10
743.7067743468
 20
381.4900557635
 30
0.0
 11
738.8259586024
 21
386.3708729049
 31
0.0
  0
ARC
  5
1C0
330
1F
100
AcDbEntity
  8
0
  6
Continuous
 62
     7
370
    15
100
AcDbCircle
 10
643.8259597945
 20
386.3708729049
 30
0.0
 40
100.0000000000001
100
AcDbArc
 50
2.7976137178
 51
177.2023862822
  0
LINE
  5
1C1
330
1F
100
AcDbEntity
  8
0
  6
Continuous
 62
     7
370
    15
100
AcDbLine
 10
548.8259609866
 20
386.3708729049
 30
0.0
 11
543.9451452422
 21
391.2516900462
 31
0.0
  0
ARC
  5
1C2
330
1F
100
AcDbEntity
  8
0
  6
Continuous
 62
     7
370
    15
100
AcDbCircle
 10
643.8259597945
 20
386.3708729049
 30
0.0
 40
100.0000000000001
100
AcDbArc
 50
182.7976137178
 51
357.2023862822
  0
LINE
  5
1C3
330
1F
100
AcDbEntity
  8
0
  6
Continuous
 62
     7
370
    15
100
AcDbLine
 10
543.9451452422
 20
381.4900557635
 30
0.0
 11
548.8259609866
 21
386.3708729049
 31
0.0
  0
LWPOLYLINE
  5
1C4
330
1F
100
AcDbEntity
  8
0
  6
Continuous
 62
     7
370
    15
100
AcDbPolyline
 90
      121
 70
   128
 43
0.0
 10
585.6263082552
 20
498.1648529073
 10
586.1493464637
 20
498.9398697515
 10
586.6930227804
 20
499.7077489396
 10
587.257139765
 20
500.4682148
 10
587.8415037024
 20
501.2210065623
 10
588.4458985257
 20
501.9658411046
 10
589.0701118934
 20
502.702465107
 10
589.7139165628
 20
503.4306028982
 10
590.3770852912
 20
504.1500011583
 10
591.0593796599
 20
504.8603991171
 10
591.7605537999
 20
505.5615434547
 10
592.4803618419
 20
506.2531883021
 10
593.2185430157
 20
506.9350803395
 10
593.9748328257
 20
507.6069736977
 10
594.7489593256
 20
508.2686374088
 10
595.5406468439
 20
508.919818153
 10
596.349615984
 20
509.5602998634
 10
597.1755687225
 20
510.1898515721
 10
598.0182182121
 20
510.8082348605
 10
598.8772589791
 20
511.4152336617
 10
599.7523818243
 20
512.0106393596
 10
600.6432775486
 20
512.5942433377
 10
601.549625777
 20
513.1658220788
 10
602.4710986841
 20
513.7251669665
 10
603.4073721695
 20
514.2720842858
 10
604.3581109572
 20
514.8063952227
 10
605.322968595
 20
515.3278762599
 10
606.3016060817
 20
515.8363783856
 10
607.29367324
 20
516.3316929837
 10
608.2988087165
 20
516.8136412402
 10
609.3166586089
 20
517.2820592423
 10
610.3468578386
 20
517.7367979785
 10
611.3890338767
 20
518.1776637336
 10
612.4428216446
 20
518.604507496
 10
613.5078355748
 20
519.0171802541
 10
614.583699413
 20
519.4155329963
 10
615.6700275916
 20
519.7994316121
 10
616.7664308179
 20
520.16872709
 10
617.8725160736
 20
520.5233002206
 10
618.9878903407
 20
520.8630019923
 10
620.1121494252
 20
521.187728097
 10
621.2448965836
 20
521.4973593255
 10
622.3857238966
 20
521.7917913695
 10
623.5342215824
 20
522.0709050198
 10
624.6899817217
 20
522.3346108695
 10
625.8525889444
 20
522.5828046103
 10
627.0216278809
 20
522.8154117366
 10
628.196679436
 20
523.0323428412
 10
629.3773235831
 20
523.2335085173
 10
630.5631384331
 20
523.4188491603
 10
631.753699303
 20
523.5882902642
 10
632.948579647
 20
523.7417871257
 10
634.147351988
 20
523.87928014
 10
635.3495879176
 20
524.0006948014
 10
636.5548576306
 20
524.1060311099
 10
637.7627285275
 20
524.1952145596
 10
638.972769406
 20
524.2682153483
 10
640.1845465026
 20
524.325033476
 10
641.3976267523
 20
524.3656242391
 10
642.6115760424
 20
524.3899876376
 10
643.8259597945
 20
524.3981236716
 10
645.0403435466
 20
524.3899876376
 10
646.2542928367
 20
524.3656242391
 10
647.4673730864
 20
524.325033476
 10
648.6791501831
 20
524.2682153483
 10
649.8891910616
 20
524.1952145596
 10
651.0970619585
 20
524.1060311099
 10
652.3023316714
 20
524.0006948014
 10
653.5045676011
 20
523.87928014
 10
654.7033399421
 20
523.7417871257
 10
655.8982202861
 20
523.5882902642
 10
657.088781156
 20
523.4188491603
 10
658.274596006
 20
523.2335085173
 10
659.4552401531
 20
523.0323428412
 10
660.6302917081
 20
522.8154117366
 10
661.7993306446
 20
522.5828046103
 10
662.9619378674
 20
522.3346108695
 10
664.1176980066
 20
522.0709050198
 10
665.2661956924
 20
521.7917913695
 10
666.4070230055
 20
521.4973593255
 10
667.5397701639
 20
521.187728097
 10
668.6640292484
 20
520.8630019923
 10
669.7794035155
 20
520.5233002206
 10
670.8854887712
 20
520.16872709
 10
671.9818919975
 20
519.7994316121
 10
673.0682201761
 20
519.4155329963
 10
674.1440840143
 20
519.0171802541
 10
675.2090979445
 20
518.604507496
 10
676.2628857124
 20
518.1776637336
 10
677.3050617504
 20
517.7367979785
 10
678.3352609801
 20
517.2820592423
 10
679.3531108725
 20
516.8136412402
 10
680.3582463491
 20
516.3316929837
 10
681.3503135073
 20
515.8363783856
 10
682.328950994
 20
515.3278762599
 10
683.2938086319
 20
514.8063952227
 10
684.2445474196
 20
514.2720842858
 10
685.180820905
 20
513.7251669665
 10
686.102293812
 20
513.1658220788
 10
687.0086420405
 20
512.5942433377
 10
687.8995377648
 20
512.0106393596
 10
688.77466061
 20
511.4152336617
 10
689.6337013769
 20
510.8082348605
 10
690.4763508666
 20
510.1898515721
 10
691.3023036051
 20
509.5602998634
 10
692.1112727451
 20
508.919818153
 10
692.9029602635
 20
508.2686374088
 10
693.6770867634
 20
507.6069736977
 10
694.4333765733
 20
506.9350803395
 10
695.1715577471
 20
506.2531883021
 10
695.8913657892
 20
505.5615434547
 10
696.5925399292
 20
504.8603991171
 10
697.2748342979
 20
504.1500011583
 10
697.9380030263
 20
503.4306028982
 10
698.5818076956
 20
502.702465107
 10
699.2060210633
 20
501.9658411046
 10
699.8104158867
 20
501.2210065623
 10
700.394779824
 20
500.4682148
 10
700.9588968086
 20
499.7077489396
 10
701.5025731254
 20
498.9398697515
 10
702.0256113339
 20
498.1648529073
  0
LINE
  5
1C5
330
1F
100
AcDbEntity
  8
0
  6
Continuous
 62
     7
370
    15
100
AcDbLine
 10
573.5898133445
 20
457.5529152652
 30
0.0
 11
550.8259575892
 21
484.5119321843
 31
0.0
  0
LINE
  5
1C6
330
1F
100
AcDbEntity
  8
0
  6
Continuous
 62
     7
370
    15
100
AcDbLine
 10
580.1046159196
 20
482.7006438871
 30
0.0
 11
550.8259575892
 21
484.5119321843
 31
0.0
  0
SPLINE
  5
1C7
330
1F
100
AcDbEntity
  8
0
  6
Continuous
 62
     7
370
    15
100
AcDbSpline
210
0.0
220
0.0
230
1.0
 70
     8
 71
     3
 72
     8
 73
     4
 74
     0
 42
0.00000001
 43
0.00000001
 12
1.0
 22
0.0
 32
0.0
 13
1.0
 23
0.0
 33
0.0
 40
0.0
 40
0.0
 40
0.0
 40
0.0
 40
0.0001432248070354
 40
0.0001432248070354
 40
0.0001432248070354
 40
0.0001432248070354
 10
580.2471140108971
 20
482.6905191540445
 30
0.0
 10
580.1996820316552
 20
482.6943260611776
 30
0.0
 10
580.1521734178178
 20
482.6977017845819
 30
0.0
 10
580.1046134866833
 20
482.700644023946
 30
0.0
  0
SPLINE
  5
1C8
330
1F
100
AcDbEntity
  8
0
  6
Continuous
 62
     7
370
    15
100
AcDbSpline
210
0.0
220
0.0
230
1.0
 70
     8
 71
     3
 72
     8
 73
     4
 74
     0
 42
0.00000001
 43
0.00000001
 12
1.0
 22
0.0
 32
0.0
 13
1.0
 23
0.0
 33
0.0
 40
0.0
 40
0.0
 40
0.0
 40
0.0
 40
0.0001432248070354
 40
0.0001432248070354
 40
0.0001432248070354
 40
0.0001432248070354
 10
707.4048055781669
 20
482.6905191540445
 30
0.0
 10
707.4522375574087
 20
482.6943260611776
 30
0.0
 10
707.4997461712461
 20
482.6977017845819
 30
0.0
 10
707.5473061023807
 20
482.700644023946
 30
0.0
  0
LINE
  5
1C9
330
1F
100
AcDbEntity
  8
0
  6
Continuous
 62
     7
370
    15
100
AcDbLine
 10
707.5473036695
 20
482.7006438871
 30
0.0
 11
736.8259619999
 21
484.5119321843
 31
0.0
  0
LINE
  5
1CA
330
1F
100
AcDbEntity
  8
0
  6
Continuous
 62
     7
370
    15
100
AcDbLine
 10
714.0621062446
 20
457.5529152652
 30
0.0
 11
736.8259619999
 21
484.5119321843
 31
0.0
  0
LINE
  5
1CB
330
1F
100
AcDbEntity
  8
0
  6
Continuous
 62
     7
370
    15
100
AcDbLine
 10
550.8259575892
 20
479.5621836682
 30
0.0
 11
570.6301968622
 21
454.5058885713
 31
0.0
  0
LINE
  5
1CC
330
1F
100
AcDbEntity
  8
0
  6
Continuous
 62
     7
370
    15
100
AcDbLine
 10
550.8259575892
 20
484.5119321843
 30
0.0
 11
550.8259575892
 21
479.5621836682
 31
0.0
  0
LINE
  5
1CD
330
1F
100
AcDbEntity
  8
0
  6
Continuous
 62
     7
370
    15
100
AcDbLine
 10
736.8259619999
 20
479.5621836682
 30
0.0
 11
717.0217227268
 21
454.5058885713
 31
0.0
  0
LINE
  5
1CE
330
1F
100
AcDbEntity
  8
0
  6
Continuous
 62
     7
370
    15
100
AcDbLine
 10
736.8259619999
 20
484.5119321843
 30
0.0
 11
736.8259619999
 21
479.5621836682
 31
0.0
  0
LWPOLYLINE
  5
1CF
330
1F
100
AcDbEntity
  8
0
  6
Continuous
 62
     7
370
    15
100
AcDbPolyline
 90
      121
 70
   128
 43
0.0
 10
584.1346014369
 20
501.6897598406
 10
584.6089314747
 20
502.5318319102
 10
585.1070214141
 20
503.3670196434
 10
585.6286626387
 20
504.194987764
 10
586.1736539829
 20
505.0154009958
 10
586.7417719293
 20
505.8279315134
 10
587.3327929604
 20
506.6322514912
 10
587.9464749324
 20
507.4280405541
 10
588.5825719762
 20
508.2149783274
 10
589.2408344972
 20
508.9927518865
 10
589.9209905493
 20
509.761048307
 10
590.6227756369
 20
510.5195621153
 10
591.3458991873
 20
511.2679803868
 10
592.0900780785
 20
512.0060050984
 10
592.8550142872
 20
512.7333456775
 10
593.6403948891
 20
513.4497041007
 10
594.4459069598
 20
514.1547972461
 10
595.2712338495
 20
514.8483419915
 10
596.1160328317
 20
515.5300701161
 10
596.9799760807
 20
516.1996835967
 10
597.8627096939
 20
516.8569291135
 10
598.7638834941
 20
517.5015384456
 10
599.6831361282
 20
518.1332731744
 10
600.620095067
 20
518.7518501778
 10
601.5743877816
 20
519.3570310374
 10
602.5456268418
 20
519.9485773345
 10
603.5334322679
 20
520.5262506505
 10
604.5373980034
 20
521.089827468
 10
605.557125442
 20
521.6390693684
 10
606.592204802
 20
522.1737528344
 10
607.6422188509
 20
522.6936692496
 10
608.706750356
 20
523.198624899
 10
609.785370909
 20
523.6883962651
 10
610.8776483762
 20
524.1627896329
 10
611.9831431735
 20
524.6216112872
 10
613.1014101285
 20
525.0646973153
 10
614.2320040691
 20
525.4918540021
 10
615.3744686473
 20
525.9029174348
 10
616.5283493775
 20
526.2977237006
 10
617.693178736
 20
526.6760939856
 10
618.868492924
 20
527.0379090806
 10
620.0538188297
 20
527.3829901715
 10
621.2486814785
 20
527.7112329503
 10
622.4526021707
 20
528.0224735041
 10
623.6650947559
 20
528.316607525
 10
624.885676809
 20
528.5935158034
 10
626.1138565916
 20
528.8530642291
 10
627.3491423655
 20
529.0951931973
 10
628.5910377357
 20
529.3197536965
 10
629.8390453759
 20
529.5267010232
 10
631.0926633033
 20
529.7159308692
 10
632.3513895351
 20
529.8873538276
 10
633.6147192943
 20
530.0409251948
 10
634.8821450102
 20
530.1765853663
 10
636.1531586464
 20
530.2942598363
 10
637.4272507693
 20
530.3939039012
 10
638.7039091516
 20
530.4754877587
 10
639.9826229628
 20
530.5389816066
 10
641.2628783456
 20
530.5843556424
 10
642.5441620251
 20
530.6115800639
 10
643.8259597945
 20
530.6206548711
 10
645.107757564
 20
530.6115800639
 10
646.3890412434
 20
530.5843556424
 10
647.6692966263
 20
530.5389816066
 10
648.9480104375
 20
530.4754877587
 10
650.2246688198
 20
530.3939039012
 10
651.4987609427
 20
530.2942598363
 10
652.7697745788
 20
530.1765853663
 10
654.0372002947
 20
530.0409251948
 10
655.300530054
 20
529.8873538276
 10
656.5592562857
 20
529.7159308692
 10
657.8128742132
 20
529.5267010232
 10
659.0608818534
 20
529.3197536965
 10
660.3027772236
 20
529.0951931973
 10
661.5380629975
 20
528.8530642291
 10
662.7662427801
 20
528.5935158034
 10
663.9868248332
 20
528.316607525
 10
665.1993174183
 20
528.0224735041
 10
666.4032381106
 20
527.7112329503
 10
667.5981007594
 20
527.3829901715
 10
668.7834266651
 20
527.0379090806
 10
669.9587408531
 20
526.6760939856
 10
671.1235702115
 20
526.2977237006
 10
672.2774509418
 20
525.9029174348
 10
673.41991552
 20
525.4918540021
 10
674.5505094606
 20
525.0646973153
 10
675.6687764156
 20
524.6216112872
 10
676.7742712128
 20
524.1627896329
 10
677.8665486801
 20
523.6883962651
 10
678.9451692331
 20
523.198624899
 10
680.0097007382
 20
522.6936692496
 10
681.059714787
 20
522.1737528344
 10
682.094794147
 20
521.6390693684
 10
683.1145215857
 20
521.089827468
 10
684.1184873211
 20
520.5262506505
 10
685.1062927473
 20
519.9485773345
 10
686.0775318074
 20
519.3570310374
 10
687.031824522
 20
518.7518501778
 10
687.9687834609
 20
518.1332731744
 10
688.8880360949
 20
517.5015384456
 10
689.7892098951
 20
516.8569291135
 10
690.6719435084
 20
516.1996835967
 10
691.5358867574
 20
515.5300701161
 10
692.3806857395
 20
514.8483419915
 10
693.2060126293
 20
514.1547972461
 10
694.0115246999
 20
513.4497041007
 10
694.7969053018
 20
512.7333456775
 10
695.5618415105
 20
512.0060050984
 10
696.3060204017
 20
511.2679803868
 10
697.0291439521
 20
510.5195621153
 10
697.7309290397
 20
509.761048307
 10
698.4110850918
 20
508.9927518865
 10
699.0693476129
 20
508.2149783274
 10
699.7054446566
 20
507.4280405541
 10
700.3191266286
 20
506.6322514912
 10
700.9101476598
 20
505.8279315134
 10
701.4782656062
 20
505.0154009958
 10
702.0232569504
 20
504.194987764
 10
702.544898175
 20
503.3670196434
 10
703.0429881144
 20
502.5318319102
 10
703.5173181522
 20
501.6897598406
  0
LINE
  5
1D0
330
1F
100
AcDbEntity
  8
0
  6
Continuous
 62
     7
370
    15
100
AcDbLine
 10
550.8259575892
 20
465.4200503727
 30
0.0
 11
565.2963485646
 21
448.2829066118
 31
0.0
  0
LINE
  5
1D1
330
1F
100
AcDbEntity
  8
0
  6
Continuous
 62
     7
370
    15
100
AcDbLine
 10
562.929619484
 20
445.1567696532
 30
0.0
 11
550.8259575892
 21
460.4703018566
 31
0.0
  0
LINE
  5
1D2
330
1F
100
AcDbEntity
  8
0
  6
Continuous
 62
     7
370
    15
100
AcDbLine
 10
550.8259575892
 20
460.4703018566
 30
0.0
 11
550.8259575892
 21
465.4200503727
 31
0.0
  0
LINE
  5
1D3
330
1F
100
AcDbEntity
  8
0
  6
Continuous
 62
     7
370
    15
100
AcDbLine
 10
724.7223001051
 20
445.1567696532
 30
0.0
 11
736.8259619999
 21
460.4703018566
 31
0.0
  0
LINE
  5
1D4
330
1F
100
AcDbEntity
  8
0
  6
Continuous
 62
     7
370
    15
100
AcDbLine
 10
736.8259619999
 20
465.4200503727
 30
0.0
 11
722.3555710244
 21
448.2829066118
 31
0.0
  0
LINE
  5
1D5
330
1F
100
AcDbEntity
  8
0
  6
Continuous
 62
     7
370
    15
100
AcDbLine
 10
736.8259619999
 20
460.4703018566
 30
0.0
 11
736.8259619999
 21
465.4200503727
 31
0.0
  0
LINE
  5
1D6
330
1F
100
AcDbEntity
  8
0
  6
Continuous
 62
     7
370
    15
100
AcDbLine
 10
550.8259575892
 20
465.4200503727
 30
0.0
 11
562.5784065652
 21
464.6930003663
 31
0.0
  0
LINE
  5
1D7
330
1F
100
AcDbEntity
  8
0
  6
Continuous
 62
     7
370
    15
100
AcDbLine
 10
736.8259619999
 20
465.4200503727
 30
0.0
 11
725.0735130239
 21
464.6930003663
 31
0.0
  0
SPLINE
  5
1D8
330
1F
100
AcDbEntity
  8
0
  6
Continuous
 62
     7
370
    15
100
AcDbSpline
210
0.0
220
0.0
230
1.0
 70
     8
 71
     3
 72
    22
 73
    18
 74
     0
 42
0.00000001
 43
0.00000001
 12
1.0
 22
0.0
 32
0.0
 13
1.0
 23
0.0
 33
0.0
 40
0.0
 40
0.0
 40
0.0
 40
0.0
 40
0.1250000000000003
 40
0.1250000000000003
 40
0.2500000000000006
 40
0.2500000000000006
 40
0.3750000000000009
 40
0.3750000000000009
 40
0.5000000000000012
 40
0.5000000000000012
 40
0.75
 40
0.75
 40
0.8749999999999994
 40
0.8749999999999994
 40
0.9374999999999998
 40
0.9374999999999998
 40
1.0
 40
1.0
 40
1.0
 40
1.0
 10
580.2471140108971
 20
482.6905191540445
 30
0.0
 10
580.5973527036168
 20
482.6624088748839
 30
0.0
 10
580.9341342336032
 20
482.6356473533646
 30
0.0
 10
581.5869547315169
 20
482.5832617394688
 30
0.0
 10
581.9058140798827
 20
482.557410741349
 30
0.0
 10
582.5031817211167
 20
482.5079579339398
 30
0.0
 10
582.7839955650963
 20
482.4841870333391
 30
0.0
 10
583.3169024091898
 20
482.4378994985331
 30
0.0
 10
583.5703924910337
 20
482.4152529376873
 30
0.0
 10
584.2780376903215
 20
482.3502770943713
 30
0.0
 10
584.683620009822
 20
482.3105688558351
 30
0.0
 10
585.2149799425596
 20
482.2562281664284
 30
0.0
 10
585.3793799879655
 20
482.2389694239218
 30
0.0
 10
585.6049472890546
 20
482.2148567497268
 30
0.0
 10
585.6766093561566
 20
482.2071183168363
 30
0.0
 10
585.8130136821347
 20
482.192278698466
 30
0.0
 10
585.8782405784505
 20
482.1851220813232
 30
0.0
 10
585.9390085907143
 20
482.1784254838595
 30
0.0
  0
SPLINE
  5
1D9
330
1F
100
AcDbEntity
  8
0
  6
Continuous
 62
     7
370
    15
100
AcDbSpline
210
0.0
220
0.0
230
1.0
 70
     8
 71
     3
 72
    22
 73
    18
 74
     0
 42
0.00000001
 43
0.00000001
 12
1.0
 22
0.0
 32
0.0
 13
1.0
 23
0.0
 33
0.0
 40
0.0
 40
0.0
 40
0.0
 40
0.0
 40
0.1250000000000003
 40
0.1250000000000003
 40
0.2500000000000006
 40
0.2500000000000006
 40
0.3750000000000009
 40
0.3750000000000009
 40
0.5000000000000012
 40
0.5000000000000012
 40
0.75
 40
0.75
 40
0.8749999999999994
 40
0.8749999999999994
 40
0.9374999999999998
 40
0.9374999999999998
 40
1.0
 40
1.0
 40
1.0
 40
1.0
 10
707.4048055781669
 20
482.6905191540445
 30
0.0
 10
707.0545668854472
 20
482.6624088748839
 30
0.0
 10
706.7177853554608
 20
482.6356473533646
 30
0.0
 10
706.0649648575472
 20
482.5832617394688
 30
0.0
 10
705.7461055091813
 20
482.557410741349
 30
0.0
 10
705.1487378679474
 20
482.5079579339398
 30
0.0
 10
704.8679240239678
 20
482.4841870333391
 30
0.0
 10
704.3350171798744
 20
482.4378994985331
 30
0.0
 10
704.0815270980304
 20
482.4152529376873
 30
0.0
 10
703.3738818987425
 20
482.3502770943713
 30
0.0
 10
702.9682995792421
 20
482.3105688558351
 30
0.0
 10
702.4369396465045
 20
482.2562281664284
 30
0.0
 10
702.2725396010985
 20
482.2389694239218
 30
0.0
 10
702.0469723000093
 20
482.2148567497268
 30
0.0
 10
701.9753102329074
 20
482.2071183168363
 30
0.0
 10
701.8389059069292
 20
482.192278698466
 30
0.0
 10
701.7736790106136
 20
482.1851220813232
 30
0.0
 10
701.7129109983499
 20
482.1784254838595
 30
0.0
  0
SPLINE
  5
1DA
330
1F
100
AcDbEntity
  8
0
  6
Continuous
 62
     7
370
    15
100
AcDbSpline
210
0.0
220
0.0
230
1.0
 70
     8
 71
     3
 72
     8
 73
     4
 74
     0
 42
0.00000001
 43
0.00000001
 12
1.0
 22
0.0
 32
0.0
 13
1.0
 23
0.0
 33
0.0
 40
0.0
 40
0.0
 40
0.0
 40
0.0
 40
1.0
 40
1.0
 40
1.0
 40
1.0
 10
582.5683102014118
 20
487.7625473473645
 30
0.0
 10
583.3521042728429
 20
487.8428127263427
 30
0.0
 10
584.1054951043245
 20
487.830430578143
 30
0.0
 10
584.8269465044209
 20
487.7207196800398
 30
0.0
  0
SPLINE
  5
1DB
330
1F
100
AcDbEntity
  8
0
  6
Continuous
 62
     7
370
    15
100
AcDbSpline
210
0.0
220
0.0
230
1.0
 70
     8
 71
     3
 72
    18
 73
    14
 74
     0
 42
0.00000001
 43
0.00000001
 12
1.0
 22
0.0
 32
0.0
 13
1.0
 23
0.0
 33
0.0
 40
0.0
 40
0.0
 40
0.0
 40
0.0
 40
0.2499999999999989
 40
0.2499999999999989
 40
0.4999999999999979
 40
0.4999999999999979
 40
0.7499999999999969
 40
0.7499999999999969
 40
0.874999999999999
 40
0.874999999999999
 40
0.9374999999999994
 40
0.9374999999999994
 40
1.0
 40
1.0
 40
1.0
 40
1.0
 10
584.8269465044209
 20
487.72071968004
 30
0.0
 10
585.3175662962582
 20
487.6461112753955
 30
0.0
 10
585.7646869889466
 20
487.5788860138122
 30
0.0
 10
586.5997439306918
 20
487.453641619306
 30
0.0
 10
586.9896394624883
 20
487.3953831973362
 30
0.0
 10
587.6972906985133
 20
487.2902923662347
 30
0.0
 10
588.0178369385268
 20
487.2430523580849
 30
0.0
 10
588.4563808151773
 20
487.179668269499
 30
0.0
 10
588.59542812997
 20
487.1598037831699
 30
0.0
 10
588.7936017968468
 20
487.1319798866443
 30
0.0
 10
588.8579229630922
 20
487.1230349213227
 30
0.0
 10
588.9830975206899
 20
487.1058277395816
 30
0.0
 10
589.0444340777997
 20
487.0974994947914
 30
0.0
 10
589.1030018612207
 20
487.0896675903157
 30
0.0
  0
SPLINE
  5
1DC
330
1F
100
AcDbEntity
  8
0
  6
Continuous
 62
     7
370
    15
100
AcDbSpline
210
0.0
220
0.0
230
1.0
 70
     8
 71
     3
 72
    16
 73
    12
 74
     0
 42
0.00000001
 43
0.00000001
 12
1.0
 22
0.0
 32
0.0
 13
1.0
 23
0.0
 33
0.0
 40
0.0
 40
0.0
 40
0.0
 40
0.0
 40
0.1250000000000009
 40
0.1250000000000009
 40
0.2500000000000018
 40
0.2500000000000018
 40
0.5000000000000012
 40
0.5000000000000012
 40
0.7500000000000007
 40
0.7500000000000007
 40
1.0
 40
1.0
 40
1.0
 40
1.0
 10
585.6263083646963
 20
498.1648538751346
 30
0.0
 10
585.5405020044341
 20
498.0345532390887
 30
0.0
 10
585.4488257388045
 20
497.893974110019
 30
0.0
 10
585.2532049280893
 20
497.5951790077048
 30
0.0
 10
585.1480896505695
 20
497.4353743763775
 30
0.0
 10
584.8227770089152
 20
496.9547041393946
 30
0.0
 10
584.5895390751291
 20
496.6287181943109
 30
0.0
 10
584.0808845501515
 20
496.0052354062296
 30
0.0
 10
583.8107899481149
 20
495.7133731660546
 30
0.0
 10
583.2232023821218
 20
495.1822331052381
 30
0.0
 10
582.9032359578667
 20
494.9415414710704
 30
0.0
 10
582.5611569968466
 20
494.7440008848744
 30
0.0
  0
SPLINE
  5
1DD
330
1F
100
AcDbEntity
  8
0
  6
Continuous
 62
     7
370
    15
100
AcDbSpline
210
0.0
220
0.0
230
1.0
 70
     8
 71
     3
 72
    18
 73
    14
 74
     0
 42
0.00000001
 43
0.00000001
 12
1.0
 22
0.0
 32
0.0
 13
1.0
 23
0.0
 33
0.0
 40
0.0
 40
0.0
 40
0.0
 40
0.0
 40
0.2499999999999989
 40
0.2499999999999989
 40
0.4999999999999979
 40
0.4999999999999979
 40
0.7499999999999969
 40
0.7499999999999969
 40
0.874999999999999
 40
0.874999999999999
 40
0.9374999999999994
 40
0.9374999999999994
 40
1.0
 40
1.0
 40
1.0
 40
1.0
 10
702.8249730846431
 20
487.72071968004
 30
0.0
 10
702.3343532928058
 20
487.6461112753955
 30
0.0
 10
701.8872326001174
 20
487.5788860138122
 30
0.0
 10
701.0521756583722
 20
487.453641619306
 30
0.0
 10
700.6622801265758
 20
487.3953831973362
 30
0.0
 10
699.9546288905507
 20
487.2902923662347
 30
0.0
 10
699.6340826505373
 20
487.2430523580849
 30
0.0
 10
699.1955387738866
 20
487.179668269499
 30
0.0
 10
699.0564914590941
 20
487.1598037831699
 30
0.0
 10
698.8583177922172
 20
487.1319798866443
 30
0.0
 10
698.793996625972
 20
487.1230349213227
 30
0.0
 10
698.6688220683741
 20
487.1058277395816
 30
0.0
 10
698.6074855112643
 20
487.0974994947914
 30
0.0
 10
698.5489177278434
 20
487.0896675903157
 30
0.0
  0
SPLINE
  5
1DE
330
1F
100
AcDbEntity
  8
0
  6
Continuous
 62
     7
370
    15
100
AcDbSpline
210
0.0
220
0.0
230
1.0
 70
     8
 71
     3
 72
     8
 73
     4
 74
     0
 42
0.00000001
 43
0.00000001
 12
1.0
 22
0.0
 32
0.0
 13
1.0
 23
0.0
 33
0.0
 40
0.0
 40
0.0
 40
0.0
 40
0.0
 40
1.0
 40
1.0
 40
1.0
 40
1.0
 10
705.0836093876522
 20
487.7625473473645
 30
0.0
 10
704.2998153162212
 20
487.8428127263427
 30
0.0
 10
703.5464244847395
 20
487.830430578143
 30
0.0
 10
702.8249730846431
 20
487.7207196800398
 30
0.0
  0
SPLINE
  5
1DF
330
1F
100
AcDbEntity
  8
0
  6
Continuous
 62
     7
370
    15
100
AcDbSpline
210
0.0
220
0.0
230
1.0
 70
     8
 71
     3
 72
    16
 73
    12
 74
     0
 42
0.00000001
 43
0.00000001
 12
1.0
 22
0.0
 32
0.0
 13
1.0
 23
0.0
 33
0.0
 40
0.0
 40
0.0
 40
0.0
 40
0.0
 40
0.1250000000000009
 40
0.1250000000000009
 40
0.2500000000000018
 40
0.2500000000000018
 40
0.5000000000000012
 40
0.5000000000000012
 40
0.7500000000000007
 40
0.7500000000000007
 40
1.0
 40
1.0
 40
1.0
 40
1.0
 10
702.0256112243677
 20
498.1648538751346
 30
0.0
 10
702.1114175846299
 20
498.0345532390887
 30
0.0
 10
702.2030938502595
 20
497.893974110019
 30
0.0
 10
702.3987146609747
 20
497.5951790077048
 30
0.0
 10
702.5038299384945
 20
497.4353743763775
 30
0.0
 10
702.8291425801489
 20
496.9547041393946
 30
0.0
 10
703.0623805139348
 20
496.6287181943109
 30
0.0
 10
703.5710350389124
 20
496.0052354062296
 30
0.0
 10
703.841129640949
 20
495.7133731660546
 30
0.0
 10
704.4287172069422
 20
495.1822331052381
 30
0.0
 10
704.7486836311973
 20
494.9415414710704
 30
0.0
 10
705.0907625922174
 20
494.7440008848744
 30
0.0
  0
LINE
  5
1E0
330
1F
100
AcDbEntity
  8
0
  6
Continuous
 62
     7
370
    15
100
AcDbLine
 10
550.8259575892
 20
484.5119321843
 30
0.0
 11
550.8259575892
 21
488.9013597866
 31
0.0
  0
LINE
  5
1E1
330
1F
100
AcDbEntity
  8
0
  6
Continuous
 62
     7
370
    15
100
AcDbLine
 10
550.8259575892
 20
488.9013597866
 30
0.0
 11
579.2172294188
 21
493.5651922723
 31
0.0
  0
SPLINE
  5
1E2
330
1F
100
AcDbEntity
  8
0
  6
Continuous
 62
     7
370
    15
100
AcDbSpline
210
0.0
220
0.0
230
1.0
 70
     8
 71
     3
 72
    10
 73
     6
 74
     0
 42
0.00000001
 43
0.00000001
 12
1.0
 22
0.0
 32
0.0
 13
1.0
 23
0.0
 33
0.0
 40
0.0
 40
0.0
 40
0.0
 40
0.0
 40
0.4999999999999972
 40
0.4999999999999972
 40
1.0
 40
1.0
 40
1.0
 40
1.0
 10
582.5611569968468
 20
494.7440008848744
 30
0.0
 10
582.0502224182105
 20
494.4489511224727
 30
0.0
 10
581.5126741118692
 20
494.2065598691891
 30
0.0
 10
580.3916751363928
 20
493.8126007909106
 30
0.0
 10
579.8043181797716
 20
493.6616321405045
 30
0.0
 10
579.2172329952255
 20
493.5651916363383
 30
0.0
  0
LINE
  5
1E3
330
1F
100
AcDbEntity
  8
0
  6
Continuous
 62
     7
370
    15
100
AcDbLine
 10
550.8259575892
 20
484.5119321843
 30
0.0
 11
582.5683105815
 21
487.7625459929
 31
0.0
  0
SPLINE
  5
1E4
330
1F
100
AcDbEntity
  8
0
  6
Continuous
 62
     7
370
    15
100
AcDbSpline
210
0.0
220
0.0
230
1.0
 70
     8
 71
     3
 72
    10
 73
     6
 74
     0
 42
0.00000001
 43
0.00000001
 12
1.0
 22
0.0
 32
0.0
 13
1.0
 23
0.0
 33
0.0
 40
0.0
 40
0.0
 40
0.0
 40
0.0
 40
0.4999999999999972
 40
0.4999999999999972
 40
1.0
 40
1.0
 40
1.0
 40
1.0
 10
705.0907625922174
 20
494.7440008848744
 30
0.0
 10
705.6016971708535
 20
494.4489511224727
 30
0.0
 10
706.1392454771949
 20
494.2065598691891
 30
0.0
 10
707.2602444526714
 20
493.8126007909106
 30
0.0
 10
707.8476014092923
 20
493.6616321405045
 30
0.0
 10
708.4346865938387
 20
493.5651916363383
 30
0.0
  0
LINE
  5
1E5
330
1F
100
AcDbEntity
  8
0
  6
Continuous
 62
     7
370
    15
100
AcDbLine
 10
736.8259619999
 20
488.9013597866
 30
0.0
 11
708.4346901703
 21
493.5651922723
 31
0.0
  0
LINE
  5
1E6
330
1F
100
AcDbEntity
  8
0
  6
Continuous
 62
     7
370
    15
100
AcDbLine
 10
736.8259619999
 20
484.5119321843
 30
0.0
 11
736.8259619999
 21
488.9013597866
 31
0.0
  0
LINE
  5
1E7
330
1F
100
AcDbEntity
  8
0
  6
Continuous
 62
     7
370
    15
100
AcDbLine
 10
736.8259619999
 20
484.5119321843
 30
0.0
 11
705.0836090076
 21
487.7625459929
 31
0.0
  0
ARC
  5
1E8
330
1F
100
AcDbEntity
  8
0
  6
Continuous
 62
     7
370
    15
100
AcDbCircle
 10
579.9283935888
 20
504.5124606681
 30
0.0
 40
5.065552726248953
100
AcDbArc
 50
270.4555112499
 51
326.1352388938
  0
ARC
  5
1E9
330
1F
100
AcDbEntity
  8
0
  6
Continuous
 62
     7
370
    15
100
AcDbCircle
 10
707.7392955568
 20
504.5417535772
 30
0.0
 40
5.09499376630148
100
AcDbArc
 50
214.0394735384
 51
269.3697763179
  0
LINE
  5
1EA
330
1F
100
AcDbEntity
  8
0
  6
Continuous
 62
     7
370
    15
100
AcDbLine
 10
550.8259575892
 20
467.8949246307
 30
0.0
 11
550.8259575892
 21
465.4200503727
 31
0.0
  0
LINE
  5
1EB
330
1F
100
AcDbEntity
  8
0
  6
Continuous
 62
     7
370
    15
100
AcDbLine
 10
560.5217333961
 20
467.2951081892
 30
0.0
 11
550.8259575892
 21
467.8949246307
 31
0.0
  0
LINE
  5
1EC
330
1F
100
AcDbEntity
  8
0
  6
Continuous
 62
     7
370
    15
100
AcDbLine
 10
552.8826382089
 20
476.9600758453
 30
0.0
 11
550.8259575892
 21
477.0873094102
 31
0.0
  0
LINE
  5
1ED
330
1F
100
AcDbEntity
  8
0
  6
Continuous
 62
     7
370
    15
100
AcDbLine
 10
550.8259575892
 20
477.0873094102
 30
0.0
 11
550.8259575892
 21
479.5621836682
 31
0.0
  0
LINE
  5
1EE
330
1F
100
AcDbEntity
  8
0
  6
Continuous
 62
     7
370
    15
100
AcDbLine
 10
734.7692813802
 20
476.9600758453
 30
0.0
 11
736.8259619999
 21
477.0873094102
 31
0.0
  0
LINE
  5
1EF
330
1F
100
AcDbEntity
  8
0
  6
Continuous
 62
     7
370
    15
100
AcDbLine
 10
727.130186193
 20
467.2951081892
 30
0.0
 11
736.8259619999
 21
467.8949246307
 31
0.0
  0
LINE
  5
1F0
330
1F
100
AcDbEntity
  8
0
  6
Continuous
 62
     7
370
    15
100
AcDbLine
 10
736.8259619999
 20
467.8949246307
 30
0.0
 11
736.8259619999
 21
465.4200503727
 31
0.0
  0
LINE
  5
1F1
330
1F
100
AcDbEntity
  8
0
  6
Continuous
 62
     7
370
    15
100
AcDbLine
 10
736.8259619999
 20
477.0873094102
 30
0.0
 11
736.8259619999
 21
479.5621836682
 31
0.0
  0
LINE
  5
1F2
330
1F
100
AcDbEntity
  8
0
  6
Continuous
 62
     7
370
    15
100
AcDbLine
 10
550.8259575892
 20
472.9914570351
 30
0.0
 11
550.8259575892
 21
472.2843447824
 31
0.0
  0
ARC
  5
1F3
330
1F
100
AcDbEntity
  8
0
  6
Continuous
 62
     7
370
    15
100
AcDbCircle
 10
555.3366082411
 20
486.3701460907
 30
0.0
 40
4.970875660325951
100
AcDbArc
 50
90.0933732255
 51
148.8200094722
  0
LINE
  5
1F4
330
1F
100
AcDbEntity
  8
0
  6
Continuous
 62
     7
370
    15
100
AcDbLine
 10
555.3285073567
 20
491.3410151502
 30
0.0
 11
573.4972622323
 21
492.6255697509
 31
0.0
  0
LINE
  5
1F5
330
1F
100
AcDbEntity
  8
0
  6
Continuous
 62
     7
370
    15
100
AcDbLine
 10
732.3234122324
 20
491.3410151502
 30
0.0
 11
714.1546573567
 21
492.6255697509
 31
0.0
  0
ARC
  5
1F6
330
1F
100
AcDbEntity
  8
0
  6
Continuous
 62
     7
370
    15
100
AcDbCircle
 10
732.315311348
 20
486.3701460907
 30
0.0
 40
4.970875660326029
100
AcDbArc
 50
31.1799905278
 51
89.9066267745
  0
LINE
  5
1F7
330
1F
100
AcDbEntity
  8
0
  6
Continuous
 62
     7
370
    15
100
AcDbLine
 10
736.8259619999
 20
472.9914570351
 30
0.0
 11
736.8259619999
 21
472.2843447824
 31
0.0
  0
LINE
  5
1F8
330
1F
100
AcDbEntity
  8
0
  6
Continuous
 62
     7
370
    15
100
AcDbLine
 10
555.3285073567
 20
502.3761743804
 30
0.0
 11
584.669236474
 21
502.6354843875
 31
0.0
  0
LINE
  5
1F9
330
1F
100
AcDbEntity
  8
0
  6
Continuous
 62
     7
370
    15
100
AcDbLine
 10
732.3234122324
 20
502.3761743804
 30
0.0
 11
702.982683115
 21
502.6354843875
 31
0.0
  0
LINE
  5
1FA
330
1F
100
AcDbEntity
  8
0
  6
Continuous
 62
     7
370
    15
100
AcDbLine
 10
550.8259575892
 20
488.9013597866
 30
0.0
 11
550.8259575892
 21
499.1367289921
 31
0.0
  0
ELLIPSE
  5
1FB
330
1F
100
AcDbEntity
  8
0
  6
Continuous
 62
     7
370
    15
100
AcDbEllipse
 10
555.8259597945
 20
498.8274104242
 30
0.0
 11
4.981535624580829
 21
-0.6117413673476904
 31
0.0
210
0.0
220
0.0
230
1.0
 40
0.7017754025
 41
1.756419008125645
 42
3.227559510139294
  0
LINE
  5
1FC
330
1F
100
AcDbEntity
  8
0
  6
Continuous
 62
     7
370
    15
100
AcDbLine
 10
736.8259619999
 20
499.1367289921
 30
0.0
 11
736.8259619999
 21
488.9013597866
 31
0.0
  0
ELLIPSE
  5
1FD
330
1F
100
AcDbEntity
  8
0
  6
Continuous
 62
     7
370
    15
100
AcDbEllipse
 10
731.8259597945
 20
498.8274104242
 30
0.0
 11
4.981535624580829
 21
0.6117413673476335
 31
0.0
210
0.0
220
0.0
230
1.0
 40
0.7017754025
 41
6.197218450630138
 42
7.668358952643743
  0
LINE
  5
1FE
330
1F
100
AcDbEntity
  8
0
  6
Continuous
 62
     7
370
    15
100
AcDbLine
 10
556.0193996954
 20
472.9914570351
 30
0.0
 11
550.8259575892
 21
472.9914570351
 31
0.0
  0
LINE
  5
1FF
330
1F
100
AcDbEntity
  8
0
  6
Continuous
 62
     7
370
    15
100
AcDbLine
 10
550.8259575892
 20
472.9914570351
 30
0.0
 11
550.8259575892
 21
477.0873094102
 31
0.0
  0
LINE
  5
200
330
1F
100
AcDbEntity
  8
0
  6
Continuous
 62
     7
370
    15
100
AcDbLine
 10
731.6325198937
 20
472.9914570351
 30
0.0
 11
736.8259619999
 21
472.9914570351
 31
0.0
  0
LINE
  5
201
330
1F
100
AcDbEntity
  8
0
  6
Continuous
 62
     7
370
    15
100
AcDbLine
 10
736.8259619999
 20
472.9914570351
 30
0.0
 11
736.8259619999
 21
477.0873094102
 31
0.0
  0
LINE
  5
202
330
1F
100
AcDbEntity
  8
0
  6
Continuous
 62
     7
370
    15
100
AcDbLine
 10
550.8259575892
 20
467.8949246307
 30
0.0
 11
550.8259575892
 21
472.2843447824
 31
0.0
  0
LINE
  5
203
330
1F
100
AcDbEntity
  8
0
  6
Continuous
 62
     7
370
    15
100
AcDbLine
 10
556.5782900977
 20
472.2843447824
 30
0.0
 11
550.8259575892
 21
472.2843447824
 31
0.0
  0
LINE
  5
204
330
1F
100
AcDbEntity
  8
0
  6
Continuous
 62
     7
370
    15
100
AcDbLine
 10
736.8259619999
 20
467.8949246307
 30
0.0
 11
736.8259619999
 21
472.2843447824
 31
0.0
  0
LINE
  5
205
330
1F
100
AcDbEntity
  8
0
  6
Continuous
 62
     7
370
    15
100
AcDbLine
 10
731.0736294913
 20
472.2843447824
 30
0.0
 11
736.8259619999
 21
472.2843447824
 31
0.0
  0
LWPOLYLINE
  5
206
330
1F
100
AcDbEntity
  8
0
  6
Continuous
 62
     8
370
     0
100
AcDbPolyline
 90
      119
 70
   128
 43
0.0
 10
698.2350651252
 20
470.273492684
 10
698.06348943
 20
470.559788694
 10
697.5856017399
 20
471.3275859257
 10
697.0859807062
 20
472.0884243151
 10
696.5648237693
 20
472.8420132895
 10
696.0223469961
 20
473.5880399247
 10
695.4587664533
 20
474.3262061973
 10
694.8743093836
 20
475.0562066337
 10
694.2692104805
 20
475.777750661
 10
693.6437193382
 20
476.4905402561
 10
692.9980892766
 20
477.1942997475
 10
692.3325736153
 20
477.8887385627
 10
691.6474517512
 20
478.5735735794
 10
690.9429919052
 20
479.2485291262
 10
690.2194809246
 20
479.9133295318
 10
689.4772168326
 20
480.5677140256
 10
688.7164939273
 20
481.2114069363
 10
687.9376176822
 20
481.8441623946
 10
687.1409121978
 20
482.4657121797
 10
686.3266903985
 20
483.0758104225
 10
685.4952875602
 20
483.6742038031
 10
684.6470389593
 20
484.2606613537
 10
683.782283597
 20
484.8349446555
 10
682.9013716507
 20
485.3968078395
 10
682.0046644735
 20
485.9460422893
 10
681.0925234187
 20
486.4824095865
 10
680.1653098393
 20
487.0057011147
 10
679.2234074402
 20
487.5157082578
 10
678.2671924758
 20
488.0122149487
 10
677.2970523763
 20
488.4950349232
 10
676.3133820224
 20
488.9639595648
 10
675.3165762949
 20
489.418802609
 10
674.3070356625
 20
489.8593852421
 10
673.2851736325
 20
490.2855211993
 10
672.2513999868
 20
490.697046568
 10
671.2061338204
 20
491.0937899848
 10
670.149797954
 20
491.4755949875
 10
669.0828207958
 20
491.8423051139
 10
668.0056307542
 20
492.1937639018
 10
666.9186636883
 20
492.5298446914
 10
665.8223610449
 20
492.850398471
 10
664.7171661335
 20
493.1553060313
 10
663.6035241264
 20
493.444433262
 10
662.481883921
 20
493.7176758548
 10
661.3527037281
 20
493.9749071499
 10
660.2164361704
 20
494.2160377403
 10
659.0735413212
 20
494.4409707685
 10
657.9244829792
 20
494.6496019264
 10
656.7697240117
 20
494.8418567081
 10
655.6097310114
 20
495.0176531573
 10
654.4449752274
 20
495.1769242187
 10
653.2759251151
 20
495.3196028372
 10
652.1030537862
 20
495.445629408
 10
650.9268371466
 20
495.5549592276
 10
649.7477492395
 20
495.6475401421
 10
648.5662669021
 20
495.7233423491
 10
647.3828681357
 20
495.7823285957
 10
646.1980311743
 20
495.8244839807
 10
645.0122353
 20
495.8497787019
 10
643.8259597945
 20
495.8582127591
 10
642.6396842891
 20
495.8497787019
 10
641.4538884147
 20
495.8244839807
 10
640.2690514534
 20
495.7823285957
 10
639.085652687
 20
495.7233423491
 10
637.9041703495
 20
495.6475401421
 10
636.7250824425
 20
495.5549592276
 10
635.5488658029
 20
495.445629408
 10
634.375994474
 20
495.3196028372
 10
633.2069443616
 20
495.1769242187
 10
632.0421885777
 20
495.0176531573
 10
630.8821955773
 20
494.8418567081
 10
629.7274366099
 20
494.6496019264
 10
628.5783782679
 20
494.4409707685
 10
627.4354834187
 20
494.2160377403
 10
626.299215861
 20
493.9749071499
 10
625.170035668
 20
493.7176758548
 10
624.0483954626
 20
493.444433262
 10
622.9347534555
 20
493.1553060313
 10
621.8295585442
 20
492.850398471
 10
620.7332559008
 20
492.5298446914
 10
619.6462888348
 20
492.1937639018
 10
618.5690987933
 20
491.8423051139
 10
617.5021216351
 20
491.4755949875
 10
616.4457857686
 20
491.0937899848
 10
615.4005196023
 20
490.697046568
 10
614.3667459566
 20
490.2855211993
 10
613.3448839265
 20
489.8593852421
 10
612.3353432942
 20
489.418802609
 10
611.3385375667
 20
488.9639595648
 10
610.3548672128
 20
488.4950349232
 10
609.3847271133
 20
488.0122149487
 10
608.4285121489
 20
487.5157082578
 10
607.4866097498
 20
487.0057011147
 10
606.5593961704
 20
486.4824095865
 10
605.6472551155
 20
485.9460422893
 10
604.7505479384
 20
485.3968078395
 10
603.8696359921
 20
484.8349446555
 10
603.0048806298
 20
484.2606613537
 10
602.1566320288
 20
483.6742038031
 10
601.3252291906
 20
483.0758104225
 10
600.5110073912
 20
482.4657121797
 10
599.7143019068
 20
481.8441623946
 10
598.9354256618
 20
481.2114069363
 10
598.1747027564
 20
480.5677140256
 10
597.4324386644
 20
479.9133295318
 10
596.7089276838
 20
479.2485291262
 10
596.0044678378
 20
478.5735735794
 10
595.3193459737
 20
477.8887385627
 10
594.6538303125
 20
477.1942997475
 10
594.0082002509
 20
476.4905402561
 10
593.3827091086
 20
475.777750661
 10
592.7776102054
 20
475.0562066337
 10
592.1931531358
 20
474.3262061973
 10
591.629572593
 20
473.5880399247
 10
591.0870958197
 20
472.8420132895
 10
590.5659388828
 20
472.0884243151
 10
590.0663178492
 20
471.3275859257
 10
589.5884301591
 20
470.559788694
 10
589.4168544638
 20
470.273492684
  0
SPLINE
  5
207
330
1F
100
AcDbEntity
  8
0
  6
Continuous
 62
     8
370
     0
100
AcDbSpline
210
0.0
220
0.0
230
1.0
 70
     8
 71
     3
 72
    13
 73
     9
 74
     0
 42
0.00000001
 43
0.00000001
 12
1.0
 22
0.0
 32
0.0
 13
1.0
 23
0.0
 33
0.0
 40
0.0
 40
0.0
 40
0.0
 40
0.0
 40
0.1861801967670041
 40
0.3724001986037703
 40
0.5585787998963491
 40
0.7462525299483902
 40
0.9339681599168083
 40
1.0
 40
1.0
 40
1.0
 40
1.0
 10
699.9892409968484
 20
476.0729128619064
 30
0.0
 10
699.8863210252484
 20
475.6839942088096
 30
0.0
 10
699.6804590779002
 20
474.9060737523435
 30
0.0
 10
699.4349693416858
 20
473.7342899519865
 30
0.0
 10
699.234621672547
 20
472.5570567360904
 30
0.0
 10
699.0893127672617
 20
471.3750742482678
 30
0.0
 10
699.0050226503898
 20
470.445393158144
 30
0.0
 10
698.9872718796645
 20
469.9114653187533
 30
0.0
 10
698.9826526570428
 20
469.7725230952133
 30
0.0
  0
SPLINE
  5
208
330
1F
100
AcDbEntity
  8
0
  6
Continuous
 62
     8
370
     0
100
AcDbSpline
210
0.0
220
0.0
230
1.0
 70
     8
 71
     3
 72
    13
 73
     9
 74
     0
 42
0.00000001
 43
0.00000001
 12
1.0
 22
0.0
 32
0.0
 13
1.0
 23
0.0
 33
0.0
 40
0.0
 40
0.0
 40
0.0
 40
0.0
 40
0.1862006923626663
 40
0.3724411941770248
 40
0.5586402908896285
 40
0.7463346809525319
 40
0.934070975544353
 40
1.0
 40
1.0
 40
1.0
 40
1.0
 10
587.6626785922158
 20
476.0729128619064
 30
0.0
 10
587.7655985756664
 20
475.683994212265
 30
0.0
 10
587.9714605467187
 20
474.9060737627103
 30
0.0
 10
588.2169501051359
 20
473.7342899105126
 30
0.0
 10
588.417298451598
 20
472.5570568921049
 30
0.0
 10
588.5626048060915
 20
471.3750736605434
 30
0.0
 10
588.6468813798344
 20
470.4456265749319
 30
0.0
 10
588.6646283253426
 20
469.9119273819109
 30
0.0
 10
588.6692408549893
 20
469.7732159992088
 30
0.0
  0
LWPOLYLINE
  5
209
330
1F
100
AcDbEntity
  8
0
  6
Continuous
 62
     8
370
     0
100
AcDbPolyline
 90
      121
 70
   128
 43
0.0
 10
587.6626785922
 20
476.0729128619
 10
588.0953673351
 20
476.8750572701
 10
588.550962888
 20
477.6708314319
 10
589.0292827118
 20
478.4599149724
 10
589.5301293659
 20
479.2419800659
 10
590.0532979596
 20
480.0167063375
 10
590.5985687006
 20
480.7837659617
 10
591.1657255221
 20
481.5428534647
 10
591.7545262802
 20
482.293655922
 10
592.3647362816
 20
483.0358604093
 10
592.9960984814
 20
483.7691689034
 10
593.6483595598
 20
484.4932684799
 10
594.3212475705
 20
485.2078760167
 10
595.0144831169
 20
485.91268604
 10
595.7277868021
 20
486.6074079772
 10
596.4608643282
 20
487.2917661568
 10
597.2134139466
 20
487.9654774567
 10
597.9851264584
 20
488.6282587548
 10
598.7756814885
 20
489.2798418303
 10
599.5847549367
 20
489.9199510117
 10
600.4120189774
 20
490.5483329793
 10
601.2571271587
 20
491.1647269626
 10
602.1197367537
 20
491.7688796421
 10
602.9994901347
 20
492.3605451485
 10
603.8960296738
 20
492.939470162
 10
604.808982842
 20
493.5054237147
 10
605.7379733849
 20
494.0581748386
 10
606.6826250482
 20
494.5974925657
 10
607.6425429511
 20
495.1231608291
 10
608.6173396635
 20
495.6349561115
 10
609.6066054034
 20
496.1326697965
 10
610.6099415648
 20
496.6161081692
 10
611.6269309151
 20
497.0850551625
 10
612.6571599472
 20
497.5393245121
 10
613.7002002525
 20
497.978737404
 10
614.7556252855
 20
498.403100123
 10
615.8230010498
 20
498.8122487565
 10
616.901887961
 20
499.206011941
 10
617.9918427098
 20
499.5842257639
 10
619.0924182612
 20
499.9467337628
 10
620.2031619924
 20
500.2933869263
 10
621.3236175555
 20
500.6240511437
 10
622.4533230144
 20
500.9385848542
 10
623.5918127078
 20
501.2368539472
 10
624.7386228371
 20
501.5187392135
 10
625.8932784277
 20
501.7841288944
 10
627.0553063679
 20
502.0329112311
 10
628.2242298204
 20
502.2649819156
 10
629.3995654288
 20
502.4802515407
 10
630.5808326307
 20
502.6786232491
 10
631.7675443444
 20
502.8600225349
 10
632.9592134881
 20
503.0243674417
 10
634.1553492549
 20
503.1715909143
 10
635.3554608378
 20
503.3016407987
 10
636.5590546358
 20
503.4144649406
 10
637.7656356509
 20
503.5100037356
 10
638.9747084196
 20
503.5882273813
 10
640.1857749171
 20
503.6490986248
 10
641.3983382828
 20
503.6925951143
 10
642.6118994442
 20
503.7187019487
 10
643.8259597945
 20
503.7274116774
 10
645.0400201449
 20
503.7187019487
 10
646.2535813063
 20
503.6925951143
 10
647.466144672
 20
503.6490986248
 10
648.6772111695
 20
503.5882273813
 10
649.8862839382
 20
503.5100037356
 10
651.0928649533
 20
503.4144649406
 10
652.2964587513
 20
503.3016407987
 10
653.4965703341
 20
503.1715909143
 10
654.692706101
 20
503.0243674417
 10
655.8843752447
 20
502.8600225349
 10
657.0710869584
 20
502.6786232491
 10
658.2523541603
 20
502.4802515407
 10
659.4276897687
 20
502.2649819156
 10
660.5966132212
 20
502.0329112311
 10
661.7586411613
 20
501.7841288944
 10
662.913296752
 20
501.5187392135
 10
664.0601068813
 20
501.2368539472
 10
665.1985965747
 20
500.9385848542
 10
666.3283020336
 20
500.6240511437
 10
667.4487575966
 20
500.2933869263
 10
668.5595013279
 20
499.9467337628
 10
669.6600768793
 20
499.5842257639
 10
670.750031628
 20
499.206011941
 10
671.8289185393
 20
498.8122487565
 10
672.8962943035
 20
498.403100123
 10
673.9517193365
 20
497.978737404
 10
674.9947596419
 20
497.5393245121
 10
676.0249886739
 20
497.0850551625
 10
677.0419780243
 20
496.6161081692
 10
678.0453141856
 20
496.1326697965
 10
679.0345799255
 20
495.6349561115
 10
680.0093766379
 20
495.1231608291
 10
680.9692945409
 20
494.5974925657
 10
681.9139462042
 20
494.0581748386
 10
682.8429367471
 20
493.5054237147
 10
683.7558899152
 20
492.939470162
 10
684.6524294543
 20
492.3605451485
 10
685.5321828354
 20
491.7688796421
 10
686.3947924304
 20
491.1647269626
 10
687.2399006116
 20
490.5483329793
 10
688.0671646524
 20
489.9199510117
 10
688.8762381005
 20
489.2798418303
 10
689.6667931306
 20
488.6282587548
 10
690.4385056424
 20
487.9654774567
 10
691.1910552609
 20
487.2917661568
 10
691.924132787
 20
486.6074079772
 10
692.6374364722
 20
485.91268604
 10
693.3306720185
 20
485.2078760167
 10
694.0035600293
 20
484.4932684799
 10
694.6558211076
 20
483.7691689034
 10
695.2871833074
 20
483.0358604093
 10
695.8973933089
 20
482.293655922
 10
696.486194067
 20
481.5428534647
 10
697.0533508885
 20
480.7837659617
 10
697.5986216295
 20
480.0167063375
 10
698.1217902231
 20
479.2419800659
 10
698.6226368773
 20
478.4599149724
 10
699.1009567011
 20
477.6708314319
 10
699.556552254
 20
476.8750572701
 10
699.9892409968
 20
476.0729128619
  0
ELLIPSE
  5
20A
330
1F
100
AcDbEntity
  8
0
  6
Continuous
 62
     8
370
     0
100
AcDbEllipse
 10
643.8107513367
 20
910.3206318146
 30
0.0
 11
-0.2023320167336351
 21
1255.630534640467
 31
0.0
210
0.0
220
0.0
230
1.0
 40
0.0509701528
 41
1.931968019173145
 42
1.932050534249708
  0
LINE
  5
20B
330
1F
100
AcDbEntity
  8
0
  6
Continuous
 62
     8
370
     0
100
AcDbLine
 10
584.0116109777
 20
466.6080976029
 30
0.0
 11
584.1466005969
 21
466.6103551288
 31
0.0
  0
LINE
  5
20C
330
1F
100
AcDbEntity
  8
0
  6
Continuous
 62
     8
370
     0
100
AcDbLine
 10
703.6403086114
 20
466.6080976029
 30
0.0
 11
703.5053189921
 21
466.6103551288
 31
0.0
  0
ELLIPSE
  5
20D
330
1F
100
AcDbEntity
  8
0
  6
Continuous
 62
     8
370
     0
100
AcDbEllipse
 10
643.8411682523
 20
910.3206318146
 30
0.0
 11
0.2023320167335214
 21
1255.630534640467
 31
0.0
210
0.0
220
0.0
230
1.0
 40
0.0509701528
 41
4.351134772929913
 42
4.351217288006476
  0
SPLINE
  5
20E
330
1F
100
AcDbEntity
  8
0
  6
Continuous
 62
     8
370
     0
100
AcDbSpline
210
0.0
220
0.0
230
1.0
 70
     8
 71
     3
 72
     8
 73
     4
 74
     0
 42
0.00000001
 43
0.00000001
 12
1.0
 22
0.0
 32
0.0
 13
1.0
 23
0.0
 33
0.0
 40
0.0
 40
0.0
 40
0.0
 40
0.0
 40
1.0
 40
1.0
 40
1.0
 40
1.0
 10
585.6263083646963
 20
498.1648538751346
 30
0.0
 10
586.7722200143697
 20
494.4702803202325
 30
0.0
 10
587.9302268445035
 20
490.7783055341135
 30
0.0
 10
589.1030018612207
 20
487.0896675903156
 30
0.0
  0
SPLINE
  5
20F
330
1F
100
AcDbEntity
  8
0
  6
Continuous
 62
     8
370
     0
100
AcDbSpline
210
0.0
220
0.0
230
1.0
 70
     8
 71
     3
 72
     8
 73
     4
 74
     0
 42
0.00000001
 43
0.00000001
 12
1.0
 22
0.0
 32
0.0
 13
1.0
 23
0.0
 33
0.0
 40
0.0
 40
0.0
 40
0.0
 40
0.0
 40
1.0
 40
1.0
 40
1.0
 40
1.0
 10
702.0256112243677
 20
498.1648538751346
 30
0.0
 10
700.8796995746943
 20
494.4702803202325
 30
0.0
 10
699.7216927445606
 20
490.7783055341135
 30
0.0
 10
698.5489177278433
 20
487.0896675903156
 30
0.0
  0
SPLINE
  5
210
330
1F
100
AcDbEntity
  8
0
  6
Continuous
 62
     8
370
     0
100
AcDbSpline
210
0.0
220
0.0
230
1.0
 70
     8
 71
     3
 72
     8
 73
     4
 74
     0
 42
0.00000001
 43
0.00000001
 12
1.0
 22
0.0
 32
0.0
 13
1.0
 23
0.0
 33
0.0
 40
0.0
 40
0.0
 40
0.0
 40
0.0
 40
1.0
 40
1.0
 40
1.0
 40
1.0
 10
698.5489177278433
 20
487.0896675903156
 30
0.0
 10
699.7614796662724
 20
485.5123313322147
 30
0.0
 10
700.8162134101063
 20
483.8752754980999
 30
0.0
 10
701.7129109983498
 20
482.1784254838594
 30
0.0
  0
SPLINE
  5
211
330
1F
100
AcDbEntity
  8
0
  6
Continuous
 62
     8
370
     0
100
AcDbSpline
210
0.0
220
0.0
230
1.0
 70
     8
 71
     3
 72
     8
 73
     4
 74
     0
 42
0.00000001
 43
0.00000001
 12
1.0
 22
0.0
 32
0.0
 13
1.0
 23
0.0
 33
0.0
 40
0.0
 40
0.0
 40
0.0
 40
0.0
 40
0.0090448356446671
 40
0.0090448356446671
 40
0.0090448356446671
 40
0.0090448356446671
 10
701.7129109983498
 20
482.1784254838594
 30
0.0
 10
701.1400282254409
 20
480.1433834213581
 30
0.0
 10
700.5655157481611
 20
478.1082131266161
 30
0.0
 10
699.9892395840529
 20
476.0729097917007
 30
0.0
  0
SPLINE
  5
212
330
1F
100
AcDbEntity
  8
0
  6
Continuous
 62
     8
370
     0
100
AcDbSpline
210
0.0
220
0.0
230
1.0
 70
     8
 71
     3
 72
     8
 73
     4
 74
     0
 42
0.00000001
 43
0.00000001
 12
1.0
 22
0.0
 32
0.0
 13
1.0
 23
0.0
 33
0.0
 40
0.0
 40
0.0
 40
0.0
 40
0.0
 40
0.0090448356446671
 40
0.0090448356446671
 40
0.0090448356446671
 40
0.0090448356446671
 10
585.9390085907143
 20
482.1784254838594
 30
0.0
 10
586.5118913636231
 20
480.1433834213581
 30
0.0
 10
587.0864038409028
 20
478.1082131266161
 30
0.0
 10
587.6626800050111
 20
476.0729097917007
 30
0.0
  0
SPLINE
  5
213
330
1F
100
AcDbEntity
  8
0
  6
Continuous
 62
     8
370
     0
100
AcDbSpline
210
0.0
220
0.0
230
1.0
 70
     8
 71
     3
 72
     8
 73
     4
 74
     0
 42
0.00000001
 43
0.00000001
 12
1.0
 22
0.0
 32
0.0
 13
1.0
 23
0.0
 33
0.0
 40
0.0
 40
0.0
 40
0.0
 40
0.0
 40
1.0
 40
1.0
 40
1.0
 40
1.0
 10
589.1030018612207
 20
487.0896675903156
 30
0.0
 10
587.8904399227915
 20
485.5123313322147
 30
0.0
 10
586.8357061789576
 20
483.8752754980999
 30
0.0
 10
585.9390085907143
 20
482.1784254838594
 30
0.0
  0
SPLINE
  5
214
330
1F
100
AcDbEntity
  8
0
  6
Continuous
 62
     8
370
     0
100
AcDbSpline
210
0.0
220
0.0
230
1.0
 70
     8
 71
     3
 72
     8
 73
     4
 74
     0
 42
0.00000001
 43
0.00000001
 12
1.0
 22
0.0
 32
0.0
 13
1.0
 23
0.0
 33
0.0
 40
0.0
 40
0.0
 40
0.0
 40
0.0
 40
1.0
 40
1.0
 40
1.0
 40
1.0
 10
584.011609558378
 20
466.6081010294055
 30
0.0
 10
583.969721714785
 20
468.7656307737527
 30
0.0
 10
583.6392105584648
 20
470.903175210564
 30
0.0
 10
583.026836403057
 20
473.0212024480664
 30
0.0
  0
SPLINE
  5
215
330
1F
100
AcDbEntity
  8
0
  6
Continuous
 62
     8
370
     0
100
AcDbSpline
210
0.0
220
0.0
230
1.0
 70
     8
 71
     3
 72
     8
 73
     4
 74
     0
 42
0.00000001
 43
0.00000001
 12
1.0
 22
0.0
 32
0.0
 13
1.0
 23
0.0
 33
0.0
 40
0.0
 40
0.0
 40
0.0
 40
0.0
 40
1.0
 40
1.0
 40
1.0
 40
1.0
 10
583.026836403057
 20
473.0212024480664
 30
0.0
 10
582.0951512094331
 20
476.2436353339857
 30
0.0
 10
581.1687982083123
 20
479.4667700061931
 30
0.0
 10
580.2471140108971
 20
482.6905191540445
 30
0.0
  0
SPLINE
  5
216
330
1F
100
AcDbEntity
  8
0
  6
Continuous
 62
     8
370
     0
100
AcDbSpline
210
0.0
220
0.0
230
1.0
 70
     8
 71
     3
 72
     8
 73
     4
 74
     0
 42
0.00000001
 43
0.00000001
 12
1.0
 22
0.0
 32
0.0
 13
1.0
 23
0.0
 33
0.0
 40
0.0
 40
0.0
 40
0.0
 40
0.0
 40
1.0
 40
1.0
 40
1.0
 40
1.0
 10
703.6403100306859
 20
466.6081010294055
 30
0.0
 10
703.682197874279
 20
468.7656307737527
 30
0.0
 10
704.0127090305992
 20
470.903175210564
 30
0.0
 10
704.625083186007
 20
473.0212024480664
 30
0.0
  0
SPLINE
  5
217
330
1F
100
AcDbEntity
  8
0
  6
Continuous
 62
     8
370
     0
100
AcDbSpline
210
0.0
220
0.0
230
1.0
 70
     8
 71
     3
 72
     8
 73
     4
 74
     0
 42
0.00000001
 43
0.00000001
 12
1.0
 22
0.0
 32
0.0
 13
1.0
 23
0.0
 33
0.0
 40
0.0
 40
0.0
 40
0.0
 40
0.0
 40
1.0
 40
1.0
 40
1.0
 40
1.0
 10
704.625083186007
 20
473.0212024480664
 30
0.0
 10
705.556768379631
 20
476.2436353339857
 30
0.0
 10
706.4831213807518
 20
479.4667700061931
 30
0.0
 10
707.4048055781669
 20
482.6905191540445
 30
0.0
  0
LINE
  5
218
330
1F
100
AcDbEntity
  8
0
  6
Continuous
 62
     8
370
     0
100
AcDbLine
 10
584.1346014369
 20
501.6897598406
 30
0.0
 11
584.1346014369
 21
496.0813054939
 31
0.0
  0
LINE
  5
219
330
1F
100
AcDbEntity
  8
0
  6
Continuous
 62
     8
370
     0
100
AcDbLine
 10
703.5173181522
 20
496.0813054939
 30
0.0
 11
703.5173181522
 21
501.6897598406
 31
0.0
  0
ARC
  5
21A
330
1F
100
AcDbEntity
  8
0
  6
Continuous
 62
     8
370
     0
100
AcDbCircle
 10
582.4966894345
 20
478.8735420547
 30
0.0
 40
5.876305629677542
100
AcDbArc
 50
275.1761482193
 51
331.536623334
  0
ARC
  5
21B
330
1F
100
AcDbEntity
  8
0
  6
Continuous
 62
     8
370
     0
100
AcDbCircle
 10
705.1552301546
 20
478.8735420547
 30
0.0
 40
5.876305629677542
100
AcDbArc
 50
208.463376666
 51
264.8238517807
  0
ELLIPSE
  5
21C
330
1F
100
AcDbEntity
  8
0
  6
Continuous
 62
     8
370
     0
100
AcDbEllipse
 10
643.2697649777
 20
466.7721907233
 30
0.0
 11
65.17192227234705
 21
-8.001427908617702
 31
0.0
210
0.0
220
0.0
230
1.0
 40
0.7016958942
 41
2.845656207488244
 42
2.964595602595529
  0
SPLINE
  5
21D
330
1F
100
AcDbEntity
  8
0
  6
Continuous
 62
     8
370
     0
100
AcDbSpline
210
0.0
220
0.0
230
1.0
 70
     8
 71
     3
 72
    17
 73
    13
 74
     0
 42
0.00000001
 43
0.00000001
 12
1.0
 22
0.0
 32
0.0
 13
1.0
 23
0.0
 33
0.0
 40
-0.0004035687005326
 40
-0.0004035687005326
 40
-0.0004035687005326
 40
-0.0004035687005326
 40
0.0
 40
0.0
 40
0.0
 40
0.0040461449395442
 40
0.0040461449395442
 40
0.0040461449395442
 40
0.0093991097167531
 40
0.0093991097167531
 40
0.0093991097167531
 40
0.0103107819413717
 40
0.0103107819413717
 40
0.0103107819413717
 40
0.0103107819413717
 10
584.8269465044209
 20
487.72071968004
 30
0.0
 10
584.7982599467531
 20
487.8088219088129
 30
0.0
 10
584.7695827735799
 20
487.8969272079572
 30
0.0
 10
584.7409149384725
 20
487.9850355607185
 30
0.0
 10
584.4534937731993
 20
488.8684020697734
 30
0.0
 10
584.1670109099489
 20
489.7520756738813
 30
0.0
 10
583.8814213673171
 20
490.6360401913291
 30
0.0
 10
583.5035924594408
 20
491.8055065000424
 30
0.0
 10
583.1273265465846
 20
492.9754827439414
 30
0.0
 10
582.7525276576357
 20
494.1459346163917
 30
0.0
 10
582.6886950189531
 20
494.3452762731373
 30
0.0
 10
582.6249049484635
 20
494.5446317492848
 30
0.0
 10
582.5611569968468
 20
494.7440008848744
 30
0.0
  0
ELLIPSE
  5
21E
330
1F
100
AcDbEntity
  8
0
  6
Continuous
 62
     8
370
     0
100
AcDbEllipse
 10
644.3821546114
 20
466.7721907233
 30
0.0
 11
65.17192227234716
 21
8.001427908617586
 31
0.0
210
0.0
220
0.0
230
1.0
 40
0.7016958942
 41
0.1769970509942677
 42
0.2959364461015528
  0
SPLINE
  5
21F
330
1F
100
AcDbEntity
  8
0
  6
Continuous
 62
     8
370
     0
100
AcDbSpline
210
0.0
220
0.0
230
1.0
 70
     8
 71
     3
 72
    17
 73
    13
 74
     0
 42
0.00000001
 43
0.00000001
 12
1.0
 22
0.0
 32
0.0
 13
1.0
 23
0.0
 33
0.0
 40
-0.0004035687005326
 40
-0.0004035687005326
 40
-0.0004035687005326
 40
-0.0004035687005326
 40
0.0
 40
0.0
 40
0.0
 40
0.0040461449395442
 40
0.0040461449395442
 40
0.0040461449395442
 40
0.0093991097167531
 40
0.0093991097167531
 40
0.0093991097167531
 40
0.0103107819413717
 40
0.0103107819413717
 40
0.0103107819413717
 40
0.0103107819413717
 10
702.8249730846431
 20
487.72071968004
 30
0.0
 10
702.853659642311
 20
487.8088219088129
 30
0.0
 10
702.8823368154841
 20
487.8969272079572
 30
0.0
 10
702.9110046505914
 20
487.9850355607185
 30
0.0
 10
703.1984258158648
 20
488.8684020697734
 30
0.0
 10
703.484908679115
 20
489.7520756738813
 30
0.0
 10
703.7704982217468
 20
490.6360401913291
 30
0.0
 10
704.1483271296231
 20
491.8055065000424
 30
0.0
 10
704.5245930424795
 20
492.9754827439414
 30
0.0
 10
704.8993919314282
 20
494.1459346163917
 30
0.0
 10
704.9632245701108
 20
494.3452762731373
 30
0.0
 10
705.0270146406004
 20
494.5446317492848
 30
0.0
 10
705.0907625922174
 20
494.7440008848744
 30
0.0
  0
LINE
  5
220
330
1F
100
AcDbEntity
  8
0
  6
Continuous
 62
     8
370
     0
100
AcDbLine
 10
579.9686651754
 20
493.7213787933
 30
0.0
 11
579.9686651754
 21
499.4470680257
 31
0.0
  0
LINE
  5
221
330
1F
100
AcDbEntity
  8
0
  6
Continuous
 62
     8
370
     0
100
AcDbLine
 10
707.6832544136
 20
499.4470680257
 30
0.0
 11
707.6832544136
 21
493.7213787933
 31
0.0
  0
LINE
  5
222
330
1F
100
AcDbEntity
  8
0
  6
Continuous
 62
     8
370
     0
100
AcDbLine
 10
555.3285073567
 20
502.3761743804
 30
0.0
 11
555.3285073567
 21
491.3410151502
 31
0.0
  0
LINE
  5
223
330
1F
100
AcDbEntity
  8
0
  6
Continuous
 62
     8
370
     0
100
AcDbLine
 10
732.3234122324
 20
491.3410151502
 30
0.0
 11
732.3234122324
 21
502.3761743804
 31
0.0
  0
INSERT
  5
22F
330
1F
100
AcDbEntity
  8
FORMAT
100
AcDbBlockReference
  2
SW_CENTERMARKSYMBOL_0
 10
643.8259597945
 20
386.3708729049
 30
0.0
  0
ARC
  5
230
330
1F
100
AcDbEntity
  8
0
  6
Continuous
 62
     7
370
    15
100
AcDbCircle
 10
241.1808293751
 20
144.8602717453
 30
0.0
 40
57.00000000000006
100
AcDbArc
 50
314.3867606884
 51
45.57978937
  0
LINE
  5
231
330
1F
100
AcDbEntity
  8
0
  6
Continuous
 62
     7
370
    15
100
AcDbLine
 10
194.1924360474
 20
203.8602717453
 30
0.0
 11
159.1564427575
 21
203.8602717453
 31
0.0
  0
LINE
  5
232
330
1F
100
AcDbEntity
  8
0
  6
Continuous
 62
     7
370
    15
100
AcDbLine
 10
159.1564427575
 20
85.8602717453
 30
0.0
 11
194.1924360474
 21
85.8602717453
 31
0.0
  0
LINE
  5
233
330
1F
100
AcDbEntity
  8
0
  6
Continuous
 62
     7
370
    15
100
AcDbLine
 10
368.6564427575
 20
75.3602717453
 30
0.0
 11
371.6564427575
 21
78.3602717453
 31
0.0
  0
LINE
  5
234
330
1F
100
AcDbEntity
  8
0
  6
Continuous
 62
     7
370
    15
100
AcDbLine
 10
371.6564427575
 20
211.3602717453
 30
0.0
 11
368.6564427575
 21
214.3602717453
 31
0.0
  0
LINE
  5
235
330
1F
100
AcDbEntity
  8
0
  6
Continuous
 62
     7
370
    15
100
AcDbLine
 10
114.6564427575
 20
214.3602717453
 30
0.0
 11
111.6564427575
 21
211.3602717453
 31
0.0
  0
LINE
  5
236
330
1F
100
AcDbEntity
  8
0
  6
Continuous
 62
     7
370
    15
100
AcDbLine
 10
111.6564427575
 20
78.3602717453
 30
0.0
 11
114.6564427575
 21
75.3602717453
 31
0.0
  0
ARC
  5
237
330
1F
100
AcDbEntity
  8
0
  6
Continuous
 62
     7
370
    15
100
AcDbCircle
 10
135.6564427575
 20
207.8602717453
 30
0.0
 40
5.0
100
AcDbArc
 50
180.0
 51
270.0
  0
ARC
  5
238
330
1F
100
AcDbEntity
  8
0
  6
Continuous
 62
     7
370
    15
100
AcDbCircle
 10
135.6564427575
 20
81.8602717453
 30
0.0
 40
5.000000000000014
100
AcDbArc
 50
90.0
 51
180.0
  0
ARC
  5
239
330
1F
100
AcDbEntity
  8
0
  6
Continuous
 62
     7
370
    15
100
AcDbCircle
 10
347.6564427575
 20
92.8602717453
 30
0.0
 40
5.0
100
AcDbArc
 50
0.0
 51
90.0
  0
ARC
  5
23A
330
1F
100
AcDbEntity
  8
0
  6
Continuous
 62
     7
370
    15
100
AcDbCircle
 10
347.6564427575
 20
196.8602717453
 30
0.0
 40
5.0
100
AcDbArc
 50
270.0
 51
0.0
  0
LINE
  5
23B
330
1F
100
AcDbEntity
  8
0
  6
Continuous
 62
     7
370
    15
100
AcDbLine
 10
135.6564427575
 20
86.8602717453
 30
0.0
 11
147.8870150879
 21
86.8602717453
 31
0.0
  0
LINE
  5
23C
330
1F
100
AcDbEntity
  8
0
  6
Continuous
 62
     7
370
    15
100
AcDbLine
 10
147.8870150879
 20
202.8602717453
 30
0.0
 11
135.6564427575
 21
202.8602717453
 31
0.0
  0
LINE
  5
23D
330
1F
100
AcDbEntity
  8
0
  6
Continuous
 62
     7
370
    15
100
AcDbLine
 10
288.8678372304
 20
97.8602717453
 30
0.0
 11
347.6564427575
 21
97.8602717453
 31
0.0
  0
LINE
  5
23E
330
1F
100
AcDbEntity
  8
0
  6
Continuous
 62
     7
370
    15
100
AcDbLine
 10
347.6564427575
 20
191.8602717453
 30
0.0
 11
288.8678372304
 21
191.8602717453
 31
0.0
  0
ARC
  5
23F
330
1F
100
AcDbEntity
  8
0
  6
Continuous
 62
     7
370
    15
100
AcDbCircle
 10
159.1564427575
 20
144.8602717453
 30
0.0
 40
59.00000000000011
100
AcDbArc
 50
90.0
 51
100.1417933657
  0
ARC
  5
240
330
1F
100
AcDbEntity
  8
0
  6
Continuous
 62
     7
370
    15
100
AcDbCircle
 10
147.8870150879
 20
207.8602717453
 30
0.0
 40
5.000000000000083
100
AcDbArc
 50
270.0
 51
280.1417933657
  0
ARC
  5
241
330
1F
100
AcDbEntity
  8
0
  6
Continuous
 62
     7
370
    15
100
AcDbCircle
 10
147.8870150879
 20
81.8602717453
 30
0.0
 40
5.000000000000097
100
AcDbArc
 50
79.8582066343
 51
90.0
  0
ARC
  5
242
330
1F
100
AcDbEntity
  8
0
  6
Continuous
 62
     7
370
    15
100
AcDbCircle
 10
159.1564427575
 20
144.8602717453
 30
0.0
 40
59.0000000000001
100
AcDbArc
 50
259.8582066343
 51
270.0
  0
ARC
  5
243
330
1F
100
AcDbEntity
  8
0
  6
Continuous
 62
     7
370
    15
100
AcDbCircle
 10
238.9754708823
 20
80.9469469275
 30
0.0
 40
5.094980418012351
100
AcDbArc
 50
0.6301328397
 51
55.9605112048
  0
LWPOLYLINE
  5
244
330
1F
100
AcDbEntity
  8
0
  6
Continuous
 62
     7
370
    15
100
AcDbPolyline
 90
      121
 70
   128
 43
0.0
 10
241.8274582713
 20
204.551630979
 10
240.985383597
 20
204.0772988787
 10
240.1501953187
 20
203.5792109998
 10
239.3222284844
 20
203.0575671575
 10
238.5018152453
 20
202.5125766168
 10
237.6892847219
 20
201.9444580088
 10
236.884962873
 20
201.3534392424
 10
236.089172364
 20
200.7397574136
 10
235.3022324379
 20
200.1036587098
 10
234.5244587873
 20
199.4453983114
 10
233.7561634273
 20
198.7652402891
 10
232.9976545711
 20
198.0634574983
 10
232.2492365054
 20
197.3403314695
 10
231.5112094693
 20
196.5961522953
 10
230.783869533
 20
195.8312185141
 10
230.0675084797
 20
195.0458369902
 10
229.3624136881
 20
194.240322791
 10
228.6688680173
 20
193.4149990603
 10
227.9871496933
 20
192.5701968888
 10
227.3175321974
 20
191.7062551814
 10
226.6602841565
 20
190.8235205208
 10
226.0156692353
 20
189.9223470291
 10
225.3839460305
 20
189.0030962252
 10
224.7653679671
 20
188.06613688
 10
224.1601831968
 20
187.1118448685
 10
223.5686344984
 20
186.140603019
 10
222.9909591802
 20
185.1528009594
 10
222.4273889853
 20
184.1488349608
 10
221.878149998
 20
183.1291077791
 10
221.3434625536
 20
182.0940284928
 10
220.8235411498
 20
181.0440123389
 10
220.3185943607
 20
179.9794805471
 10
219.8288247532
 20
178.9008601697
 10
219.3544288055
 20
177.8085839111
 10
218.8955968284
 20
176.703089954
 10
218.4525128892
 20
175.5848217836
 10
218.0253547374
 20
174.4542280094
 10
217.6142937339
 20
173.3117621857
 10
217.2194947817
 20
172.1578826295
 10
216.8411162603
 20
170.9930522365
 10
216.4793099618
 20
169.8177382953
 10
216.13422103
 20
168.6324123006
 10
215.8059879025
 20
167.4375497631
 10
215.4947422547
 20
166.2336300196
 10
215.2006089475
 20
165.02113604
 10
214.9237059766
 20
163.800554234
 10
214.6641444259
 20
162.5723742561
 10
214.4220284222
 20
161.3370888085
 10
214.1974550939
 20
160.0951934442
 10
213.9905145319
 20
158.8471863677
 10
213.8012897534
 20
157.5935682353
 10
213.6298566688
 20
156.3348419543
 10
213.4762840508
 20
155.0715124812
 10
213.3406335075
 20
153.8040866192
 10
213.2229594571
 20
152.5330728147
 10
213.1233091061
 20
151.2589809536
 10
213.0417224308
 20
149.9823221565
 10
212.978232161
 20
148.7036085737
 10
212.9328637665
 20
147.42335318
 10
212.9056354478
 20
146.1420695686
 10
212.8965581277
 20
144.8602717453
 10
212.9056354478
 20
143.5784739219
 10
212.9328637665
 20
142.2971903105
 10
212.978232161
 20
141.0169349168
 10
213.0417224308
 20
139.7382213341
 10
213.1233091061
 20
138.4615625369
 10
213.2229594571
 20
137.1874706758
 10
213.3406335075
 20
135.9164568713
 10
213.4762840508
 20
134.6490310093
 10
213.6298566688
 20
133.3857015363
 10
213.8012897534
 20
132.1269752553
 10
213.9905145319
 20
130.8733571229
 10
214.1974550939
 20
129.6253500463
 10
214.4220284222
 20
128.383454682
 10
214.6641444259
 20
127.1481692345
 10
214.9237059766
 20
125.9199892565
 10
215.2006089475
 20
124.6994074506
 10
215.4947422547
 20
123.486913471
 10
215.8059879025
 20
122.2829937274
 10
216.13422103
 20
121.0881311899
 10
216.4793099618
 20
119.9028051952
 10
216.8411162603
 20
118.7274912541
 10
217.2194947817
 20
117.562660861
 10
217.6142937339
 20
116.4087813048
 10
218.0253547374
 20
115.2663154812
 10
218.4525128892
 20
114.135721707
 10
218.8955968284
 20
113.0174535365
 10
219.3544288055
 20
111.9119595794
 10
219.8288247532
 20
110.8196833209
 10
220.3185943607
 20
109.7410629435
 10
220.8235411498
 20
108.6765311516
 10
221.3434625536
 20
107.6265149978
 10
221.878149998
 20
106.5914357114
 10
222.4273889853
 20
105.5717085297
 10
222.9909591802
 20
104.5677425312
 10
223.5686344984
 20
103.5799404715
 10
224.1601831968
 20
102.608698622
 10
224.7653679671
 20
101.6544066105
 10
225.3839460305
 20
100.7174472654
 10
226.0156692353
 20
99.7981964614
 10
226.6602841565
 20
98.8970229697
 10
227.3175321974
 20
98.0142883092
 10
227.9871496933
 20
97.1503466017
 10
228.6688680173
 20
96.3055444302
 10
229.3624136881
 20
95.4802206996
 10
230.0675084797
 20
94.6747065004
 10
230.783869533
 20
93.8893249765
 10
231.5112094693
 20
93.1243911952
 10
232.2492365054
 20
92.380212021
 10
232.9976545711
 20
91.6570859922
 10
233.7561634273
 20
90.9553032014
 10
234.5244587873
 20
90.2751451792
 10
235.3022324379
 20
89.6168847807
 10
236.089172364
 20
88.9807860769
 10
236.884962873
 20
88.3671042481
 10
237.6892847219
 20
87.7760854818
 10
238.5018152453
 20
87.2079668737
 10
239.3222284844
 20
86.662976333
 10
240.1501953187
 20
86.1413324907
 10
240.985383597
 20
85.6432446118
 10
241.8274582713
 20
85.1689125116
  0
ARC
  5
245
330
1F
100
AcDbEntity
  8
0
  6
Continuous
 62
     7
370
    15
100
AcDbCircle
 10
239.0047647371
 20
208.7578265324
 30
0.0
 40
5.065538453275221
100
AcDbArc
 50
303.8647700979
 51
359.5445858576
  0
LINE
  5
246
330
1F
100
AcDbEntity
  8
0
  6
Continuous
 62
     7
370
    15
100
AcDbLine
 10
243.3299516729
 20
198.2483186385
 30
0.0
 11
244.0701431752
 21
208.7175636443
 31
0.0
  0
SPLINE
  5
247
330
1F
100
AcDbEntity
  8
0
  6
Continuous
 62
     7
370
    15
100
AcDbSpline
210
0.0
220
0.0
230
1.0
 70
     8
 71
     3
 72
    18
 73
    14
 74
     0
 42
0.00000001
 43
0.00000001
 12
1.0
 22
0.0
 32
0.0
 13
1.0
 23
0.0
 33
0.0
 40
0.0
 40
0.0
 40
0.0
 40
0.0
 40
0.2499999999999996
 40
0.2499999999999996
 40
0.3749999999999993
 40
0.3749999999999993
 40
0.4999999999999991
 40
0.4999999999999991
 40
0.6249999999999989
 40
0.6249999999999989
 40
0.7499999999999987
 40
0.7499999999999987
 40
1.0
 40
1.0
 40
1.0
 40
1.0
 10
239.4245321052624
 20
189.2630805269808
 30
0.0
 10
239.9830457241228
 20
189.7341861460044
 30
0.0
 10
240.4838014843149
 20
190.2995065095564
 30
0.0
 10
241.1599625281802
 20
191.269782517034
 30
0.0
 10
241.3738083596451
 20
191.6161589840483
 30
0.0
 10
241.7697870398276
 20
192.3392488083657
 30
0.0
 10
241.9514132324879
 20
192.7143972190364
 30
0.0
 10
242.2836370090484
 20
193.4904896664872
 30
0.0
 10
242.434226196578
 20
193.8914406835877
 30
0.0
 10
242.7044609097929
 20
194.7190677233011
 30
0.0
 10
242.8243742268061
 20
195.1475531720258
 30
0.0
 10
243.1300494005835
 20
196.4457769164494
 30
0.0
 10
243.2653685715376
 20
197.3348573129327
 30
0.0
 10
243.3299516728516
 20
198.2483186384947
 30
0.0
  0
LWPOLYLINE
  5
248
330
1F
100
AcDbEntity
  8
0
  6
Continuous
 62
     7
370
    15
100
AcDbPolyline
 90
      107
 70
   128
 43
0.0
 10
239.4245321053
 20
189.263080527
 10
238.8161746233
 20
188.7384978766
 10
238.2151619533
 20
188.1972473342
 10
237.6217224001
 20
187.6395345029
 10
237.0360813919
 20
187.0655712396
 10
236.4584613943
 20
186.4755755739
 10
235.8890818262
 20
185.8697716257
 10
235.3281589761
 20
185.24838952
 10
234.7759059201
 20
184.6116652995
 10
234.232532441
 20
183.9598408345
 10
233.6982449484
 20
183.2931637319
 10
233.1732464005
 20
182.6118872401
 10
232.657736227
 20
181.9162701538
 10
232.1519102533
 20
181.2065767149
 10
231.6559606258
 20
180.4830765126
 10
231.1700757396
 20
179.7460443807
 10
230.6944401663
 20
178.9957602935
 10
230.2292345841
 20
178.2325092591
 10
229.7746357095
 20
177.4565812115
 10
229.3308162293
 20
176.6682709003
 10
228.8979447362
 20
175.8678777784
 10
228.4761856637
 20
175.0557058888
 10
228.0656992241
 20
174.2320637489
 10
227.6666413477
 20
173.3972642333
 10
227.2791636235
 20
172.5516244546
 10
226.9034132415
 20
171.6954656437
 10
226.5395329369
 20
170.8291130269
 10
226.1876609357
 20
169.9528957032
 10
225.8479309027
 20
169.0671465186
 10
225.5204718899
 20
168.1722019401
 10
225.2054082884
 20
167.2684019275
 10
224.9028597804
 20
166.3560898047
 10
224.6129412941
 20
165.4356121291
 10
224.33576296
 20
164.5073185597
 10
224.0714300689
 20
163.5715617248
 10
223.8200430323
 20
162.6286970874
 10
223.5816973438
 20
161.6790828109
 10
223.3564835431
 20
160.7230796222
 10
223.1444871814
 20
159.7610506757
 10
222.9457887892
 20
158.7933614143
 10
222.7604638456
 20
157.8203794313
 10
222.5885827492
 20
156.8424743305
 10
222.4302107921
 20
155.8600175858
 10
222.2854081345
 20
154.8733824002
 10
222.1542297823
 20
153.8829435639
 10
222.0367255657
 20
152.8890773119
 10
221.9329401208
 20
151.8921611812
 10
221.8429128722
 20
150.8925738675
 10
221.7666780182
 20
149.890695081
 10
221.7042645181
 20
148.8869054024
 10
221.6556960805
 20
147.8815861385
 10
221.6209911552
 20
146.8751191768
 10
221.6001629253
 20
145.8678868409
 10
221.5932193028
 20
144.8602717453
 10
221.6001629253
 20
143.8526566496
 10
221.6209911552
 20
142.8454243138
 10
221.6556960805
 20
141.838957352
 10
221.7042645181
 20
140.8336380881
 10
221.7666780182
 20
139.8298484096
 10
221.8429128722
 20
138.8279696231
 10
221.9329401208
 20
137.8283823093
 10
222.0367255657
 20
136.8314661787
 10
222.1542297823
 20
135.8375999267
 10
222.2854081345
 20
134.8471610903
 10
222.4302107921
 20
133.8605259047
 10
222.5885827492
 20
132.87806916
 10
222.7604638456
 20
131.9001640593
 10
222.9457887892
 20
130.9271820763
 10
223.1444871814
 20
129.9594928149
 10
223.3564835431
 20
128.9974638683
 10
223.5816973438
 20
128.0414606797
 10
223.8200430323
 20
127.0918464031
 10
224.0714300689
 20
126.1489817657
 10
224.33576296
 20
125.2132249308
 10
224.6129412941
 20
124.2849313614
 10
224.9028597804
 20
123.3644536858
 10
225.2054082884
 20
122.4521415631
 10
225.5204718899
 20
121.5483415505
 10
225.8479309027
 20
120.6533969719
 10
226.1876609357
 20
119.7676477873
 10
226.5395329369
 20
118.8914304636
 10
226.9034132415
 20
118.0250778469
 10
227.2791636235
 20
117.1689190359
 10
227.6666413477
 20
116.3232792573
 10
228.0656992241
 20
115.4884797416
 10
228.4761856637
 20
114.6648376017
 10
228.8979447362
 20
113.8526657122
 10
229.3308162293
 20
113.0522725903
 10
229.7746357095
 20
112.263962279
 10
230.2292345841
 20
111.4880342314
 10
230.6944401663
 20
110.7247831971
 10
231.1700757396
 20
109.9744991099
 10
231.6559606258
 20
109.237466978
 10
232.1519102533
 20
108.5139667756
 10
232.657736227
 20
107.8042733367
 10
233.1732464005
 20
107.1086562504
 10
233.6982449484
 20
106.4273797587
 10
234.232532441
 20
105.760702656
 10
234.7759059201
 20
105.1088781911
 10
235.3281589761
 20
104.4721539705
 10
235.8890818262
 20
103.8507718648
 10
236.4584613943
 20
103.2449679167
 10
237.0360813919
 20
102.654972251
 10
237.6217224001
 20
102.0810089876
 10
238.2151619533
 20
101.5232961564
 10
238.8161746233
 20
100.9820456139
 10
239.4245321053
 20
100.4574629636
  0
SPLINE
  5
249
330
1F
100
AcDbEntity
  8
0
  6
Continuous
 62
     7
370
    15
100
AcDbSpline
210
0.0
220
0.0
230
1.0
 70
     8
 71
     3
 72
    18
 73
    14
 74
     0
 42
0.00000001
 43
0.00000001
 12
1.0
 22
0.0
 32
0.0
 13
1.0
 23
0.0
 33
0.0
 40
0.0
 40
0.0
 40
0.0
 40
0.0
 40
0.2500000000000005
 40
0.2500000000000005
 40
0.3750000000000003
 40
0.3750000000000003
 40
0.5000000000000001
 40
0.5000000000000001
 40
0.7499999999999981
 40
0.7499999999999981
 40
0.8749999999999991
 40
0.8749999999999991
 40
1.0
 40
1.0
 40
1.0
 40
1.0
 10
243.3299516728517
 20
91.47222485203898
 30
0.0
 10
243.2653330922748
 20
92.3861879951642
 30
0.0
 10
243.1301253709335
 20
93.27271458632912
 30
0.0
 10
242.8268226835953
 20
94.56344564047167
 30
0.0
 10
242.7087830608742
 20
94.9871055892621
 30
0.0
 10
242.4373366940016
 20
95.82067901175759
 30
0.0
 10
242.2860507537479
 20
96.22388113781679
 30
0.0
 10
241.7884969322693
 20
97.38778272319321
 30
0.0
 10
241.3985351031839
 20
98.10621331389636
 30
0.0
 10
240.7165665255348
 20
99.08809155618192
 30
0.0
 10
240.4755070071372
 20
99.39512389751617
 30
0.0
 10
239.9694603679103
 20
99.96152749913567
 30
0.0
 10
239.7038280856255
 20
100.2218771134026
 30
0.0
 10
239.4245321052624
 20
100.4574629635528
 30
0.0
  0
LINE
  5
24A
330
1F
100
AcDbEntity
  8
0
  6
Continuous
 62
     7
370
    15
100
AcDbLine
 10
244.0701431752
 20
81.0029798462
 30
0.0
 11
243.3299516729
 21
91.472224852
 31
0.0
  0
LWPOLYLINE
  5
24B
330
1F
100
AcDbEntity
  8
0
  6
Continuous
 62
     7
370
    15
100
AcDbPolyline
 90
      121
 70
   128
 43
0.0
 10
235.4634972406
 20
204.551630979
 10
234.6214225663
 20
204.0772988787
 10
233.786234288
 20
203.5792109998
 10
232.9582674538
 20
203.0575671575
 10
232.1378542146
 20
202.5125766168
 10
231.3253236913
 20
201.9444580088
 10
230.5210018423
 20
201.3534392424
 10
229.7252113333
 20
200.7397574136
 10
228.9382714073
 20
200.1036587098
 10
228.1604977566
 20
199.4453983114
 10
227.3922023967
 20
198.7652402891
 10
226.6336935404
 20
198.0634574983
 10
225.8852754748
 20
197.3403314695
 10
225.1472484386
 20
196.5961522953
 10
224.4199085024
 20
195.8312185141
 10
223.703547449
 20
195.0458369902
 10
222.9984526574
 20
194.240322791
 10
222.3049069866
 20
193.4149990603
 10
221.6231886626
 20
192.5701968888
 10
220.9535711667
 20
191.7062551814
 10
220.2963231258
 20
190.8235205208
 10
219.6517082046
 20
189.9223470291
 10
219.0199849998
 20
189.0030962252
 10
218.4014069364
 20
188.06613688
 10
217.7962221661
 20
187.1118448685
 10
217.2046734677
 20
186.140603019
 10
216.6269981496
 20
185.1528009594
 10
216.0634279546
 20
184.1488349608
 10
215.5141889673
 20
183.1291077791
 10
214.9795015229
 20
182.0940284928
 10
214.4595801191
 20
181.0440123389
 10
213.9546333301
 20
179.9794805471
 10
213.4648637225
 20
178.9008601697
 10
212.9904677748
 20
177.8085839111
 10
212.5316357977
 20
176.703089954
 10
212.0885518585
 20
175.5848217836
 10
211.6613937067
 20
174.4542280094
 10
211.2503327032
 20
173.3117621857
 10
210.8555337511
 20
172.1578826295
 10
210.4771552297
 20
170.9930522365
 10
210.1153489311
 20
169.8177382953
 10
209.7702599993
 20
168.6324123006
 10
209.4420268718
 20
167.4375497631
 10
209.130781224
 20
166.2336300196
 10
208.8366479168
 20
165.02113604
 10
208.559744946
 20
163.800554234
 10
208.3001833952
 20
162.5723742561
 10
208.0580673915
 20
161.3370888085
 10
207.8334940632
 20
160.0951934442
 10
207.6265535012
 20
158.8471863677
 10
207.4373287227
 20
157.5935682353
 10
207.2658956381
 20
156.3348419543
 10
207.1123230201
 20
155.0715124812
 10
206.9766724768
 20
153.8040866192
 10
206.8589984264
 20
152.5330728147
 10
206.7593480754
 20
151.2589809536
 10
206.6777614002
 20
149.9823221565
 10
206.6142711303
 20
148.7036085737
 10
206.5689027359
 20
147.42335318
 10
206.5416744171
 20
146.1420695686
 10
206.532597097
 20
144.8602717453
 10
206.5416744171
 20
143.5784739219
 10
206.5689027359
 20
142.2971903105
 10
206.6142711303
 20
141.0169349168
 10
206.6777614002
 20
139.7382213341
 10
206.7593480754
 20
138.4615625369
 10
206.8589984264
 20
137.1874706758
 10
206.9766724768
 20
135.9164568713
 10
207.1123230201
 20
134.6490310093
 10
207.2658956381
 20
133.3857015363
 10
207.4373287227
 20
132.1269752553
 10
207.6265535012
 20
130.8733571229
 10
207.8334940632
 20
129.6253500463
 10
208.0580673915
 20
128.383454682
 10
208.3001833952
 20
127.1481692345
 10
208.559744946
 20
125.9199892565
 10
208.8366479168
 20
124.6994074506
 10
209.130781224
 20
123.486913471
 10
209.4420268718
 20
122.2829937274
 10
209.7702599993
 20
121.0881311899
 10
210.1153489311
 20
119.9028051952
 10
210.4771552297
 20
118.7274912541
 10
210.8555337511
 20
117.562660861
 10
211.2503327032
 20
116.4087813048
 10
211.6613937067
 20
115.2663154812
 10
212.0885518585
 20
114.135721707
 10
212.5316357977
 20
113.0174535365
 10
212.9904677748
 20
111.9119595794
 10
213.4648637225
 20
110.8196833209
 10
213.9546333301
 20
109.7410629435
 10
214.4595801191
 20
108.6765311516
 10
214.9795015229
 20
107.6265149978
 10
215.5141889673
 20
106.5914357114
 10
216.0634279546
 20
105.5717085297
 10
216.6269981496
 20
104.5677425312
 10
217.2046734677
 20
103.5799404715
 10
217.7962221661
 20
102.608698622
 10
218.4014069364
 20
101.6544066105
 10
219.0199849998
 20
100.7174472654
 10
219.6517082046
 20
99.7981964614
 10
220.2963231258
 20
98.8970229697
 10
220.9535711667
 20
98.0142883092
 10
221.6231886626
 20
97.1503466017
 10
222.3049069866
 20
96.3055444302
 10
222.9984526574
 20
95.4802206996
 10
223.703547449
 20
94.6747065004
 10
224.4199085024
 20
93.8893249765
 10
225.1472484386
 20
93.1243911952
 10
225.8852754748
 20
92.380212021
 10
226.6336935404
 20
91.6570859922
 10
227.3922023967
 20
90.9553032014
 10
228.1604977566
 20
90.2751451792
 10
228.9382714073
 20
89.6168847807
 10
229.7252113333
 20
88.9807860769
 10
230.5210018423
 20
88.3671042481
 10
231.3253236913
 20
87.7760854818
 10
232.1378542146
 20
87.2079668737
 10
232.9582674538
 20
86.662976333
 10
233.786234288
 20
86.1413324907
 10
234.6214225663
 20
85.6432446118
 10
235.4634972406
 20
85.1689125116
  0
ARC
  5
24C
330
1F
100
AcDbEntity
  8
0
  6
Continuous
 62
     7
370
    15
100
AcDbCircle
 10
254.3093668936
 20
119.5374737776
 30
0.0
 40
39.38430670742574
100
AcDbArc
 50
236.5919382338
 51
242.7996503367
  0
LWPOLYLINE
  5
24D
330
1F
100
AcDbEntity
  8
0
  6
Continuous
 62
     7
370
    15
100
AcDbPolyline
 90
      121
 70
   128
 43
0.0
 10
232.6244384581
 20
203.0599231751
 10
231.8494249323
 20
202.5368859028
 10
231.0815458884
 20
201.993210019
 10
230.3210760992
 20
201.4290900692
 10
229.5682876859
 20
200.8447279141
 10
228.8234500214
 20
200.240332658
 10
228.0868296333
 20
199.6161205735
 10
227.358690109
 20
198.9723150247
 10
226.6392920009
 20
198.3091463865
 10
225.9288927336
 20
197.6268519627
 10
225.2277465117
 20
196.9256759009
 10
224.5361042286
 20
196.2058691054
 10
223.8542133769
 20
195.4676891468
 10
223.1823179598
 20
194.7114001706
 10
222.5206584038
 20
193.9372728021
 10
221.8694714729
 20
193.1455840498
 10
221.2289901832
 20
192.3366172063
 10
220.5994437204
 20
191.5106617469
 10
219.9810573571
 20
190.6680132259
 10
219.3740523726
 20
189.808973171
 10
218.7786459733
 20
188.9338489752
 10
218.1950512155
 20
188.0429537872
 10
217.6234769289
 20
187.1366063989
 10
217.0641276417
 20
186.2151311316
 10
216.5172035077
 20
185.2788577196
 10
215.9829002345
 20
184.3281211929
 10
215.4614090138
 20
183.3632617565
 10
214.9529164523
 20
182.3846246694
 10
214.4576045056
 20
181.3925601203
 10
213.9756504128
 20
180.387423103
 10
213.5072266332
 20
179.369573289
 10
213.0525007843
 20
178.3393748988
 10
212.6116355821
 20
177.2971965716
 10
212.184788783
 20
176.2434112335
 10
211.7721131268
 20
175.178395964
 10
211.3737562828
 20
174.102531861
 10
210.9898607961
 20
173.0162039045
 10
210.6205640375
 20
171.9198008186
 10
210.2659981534
 20
170.813714933
 10
209.9262900195
 20
169.6983420419
 10
209.6015611946
 20
168.574081263
 10
209.2919278775
 20
167.441334894
 10
208.9975008652
 20
166.3005082694
 10
208.7183855136
 20
165.1520096148
 10
208.4546816994
 20
163.9962499013
 10
208.2064837846
 20
162.8336426982
 10
207.9738805827
 20
161.664604025
 10
207.7569553268
 20
160.4895522026
 10
207.55578564
 20
159.3089077036
 10
207.3704435076
 20
158.1230930021
 10
207.2009952511
 20
156.9325324218
 10
207.0475015047
 20
155.737651985
 10
206.9100171936
 20
154.5388792597
 10
206.7885915143
 20
153.3366432066
 10
206.6832679169
 20
152.1313740257
 10
206.5940840897
 20
150.9235030026
 10
206.5210719456
 20
149.7134623536
 10
206.4642576108
 20
148.5016850716
 10
206.4236614154
 20
147.2886047707
 10
206.399297886
 20
146.0746555314
 10
206.3911757408
 20
144.8602717453
 10
206.399297886
 20
143.6458879591
 10
206.4236614154
 20
142.4319387199
 10
206.4642576108
 20
141.218858419
 10
206.5210719456
 20
140.0070811369
 10
206.5940840897
 20
138.7970404879
 10
206.6832679169
 20
137.5891694648
 10
206.7885915143
 20
136.383900284
 10
206.9100171936
 20
135.1816642309
 10
207.0475015047
 20
133.9828915055
 10
207.2009952511
 20
132.7880110688
 10
207.3704435076
 20
131.5974504885
 10
207.55578564
 20
130.4116357869
 10
207.7569553268
 20
129.230991288
 10
207.9738805827
 20
128.0559394656
 10
208.2064837846
 20
126.8869007924
 10
208.4546816994
 20
125.7242935892
 10
208.7183855136
 20
124.5685338757
 10
208.9975008652
 20
123.4200352212
 10
209.2919278775
 20
122.2792085965
 10
209.6015611946
 20
121.1464622276
 10
209.9262900195
 20
120.0222014486
 10
210.2659981534
 20
118.9068285575
 10
210.6205640375
 20
117.8007426719
 10
210.9898607961
 20
116.7043395861
 10
211.3737562828
 20
115.6180116295
 10
211.7721131269
 20
114.5421475265
 10
212.184788783
 20
113.477132257
 10
212.6116355821
 20
112.4233469189
 10
213.0525007843
 20
111.3811685918
 10
213.5072266332
 20
110.3509702015
 10
213.9756504128
 20
109.3331203875
 10
214.4576045056
 20
108.3279833702
 10
214.9529164523
 20
107.3359188212
 10
215.4614090138
 20
106.357281734
 10
215.9829002345
 20
105.3924222976
 10
216.5172035077
 20
104.4416857709
 10
217.0641276417
 20
103.505412359
 10
217.6234769289
 20
102.5839370916
 10
218.1950512155
 20
101.6775897033
 10
218.7786459733
 20
100.7866945153
 10
219.3740523726
 20
99.9115703196
 10
219.9810573571
 20
99.0525302646
 10
220.5994437204
 20
98.2098817436
 10
221.2289901832
 20
97.3839262842
 10
221.8694714729
 20
96.5749594408
 10
222.5206584038
 20
95.7832706885
 10
223.1823179598
 20
95.00914332
 10
223.8542133769
 20
94.2528543437
 10
224.5361042286
 20
93.5146743852
 10
225.2277465117
 20
92.7948675896
 10
225.9288927336
 20
92.0936915279
 10
226.6392920009
 20
91.411397104
 10
227.358690109
 20
90.7482284658
 10
228.0868296333
 20
90.104422917
 10
228.8234500214
 20
89.4802108326
 10
229.5682876859
 20
88.8758155765
 10
230.3210760992
 20
88.2914534214
 10
231.0815458884
 20
87.7273334715
 10
231.8494249323
 20
87.1836575877
 10
232.6244384581
 20
86.6606203154
  0
ARC
  5
24E
330
1F
100
AcDbEntity
  8
0
  6
Continuous
 62
     7
370
    15
100
AcDbCircle
 10
254.3093668938
 20
170.1830697124
 30
0.0
 40
39.3843067080054
100
AcDbArc
 50
117.2003496633
 51
123.4080617662
  0
ARC
  5
24F
330
1F
100
AcDbEntity
  8
0
  6
Continuous
 62
     7
370
    15
100
AcDbCircle
 10
233.7934344521
 20
207.5524441141
 30
0.0
 40
3.434237788738231
100
AcDbArc
 50
299.0975454551
 51
317.0389394955
  0
ARC
  5
250
330
1F
100
AcDbEntity
  8
0
  6
Continuous
 62
     7
370
    15
100
AcDbCircle
 10
233.7934344521
 20
82.1680993764
 30
0.0
 40
3.434237788740558
100
AcDbArc
 50
42.9610605044
 51
60.9024545449
  0
SPLINE
  5
251
330
1F
100
AcDbEntity
  8
0
  6
Continuous
 62
     7
370
    15
100
AcDbSpline
210
0.0
220
0.0
230
1.0
 70
     8
 71
     3
 72
     8
 73
     4
 74
     0
 42
0.00000001
 43
0.00000001
 12
1.0
 22
0.0
 32
0.0
 13
1.0
 23
0.0
 33
0.0
 40
0.0
 40
0.0
 40
0.0
 40
0.0
 40
1.0
 40
1.0
 40
1.0
 40
1.0
 10
245.6117518056142
 20
196.515030274981
 30
0.0
 10
245.6326369152018
 20
196.7347244806296
 30
0.0
 10
245.6575796805887
 20
196.9540706023113
 30
0.0
 10
245.6866108807994
 20
197.1730659996627
 30
0.0
  0
SPLINE
  5
252
330
1F
100
AcDbEntity
  8
0
  6
Continuous
 62
     7
370
    15
100
AcDbSpline
210
0.0
220
0.0
230
1.0
 70
     8
 71
     3
 72
     8
 73
     4
 74
     0
 42
0.00000001
 43
0.00000001
 12
1.0
 22
0.0
 32
0.0
 13
1.0
 23
0.0
 33
0.0
 40
0.0
 40
0.0
 40
0.0
 40
0.0
 40
1.0
 40
1.0
 40
1.0
 40
1.0
 10
275.4815357674973
 20
197.1730659996627
 30
0.0
 10
275.4834711808447
 20
196.9540706023113
 30
0.0
 10
275.4895446225001
 20
196.7347244806296
 30
0.0
 10
275.4997249400838
 20
196.515030274981
 30
0.0
  0
SPLINE
  5
253
330
1F
100
AcDbEntity
  8
0
  6
Continuous
 62
     7
370
    15
100
AcDbSpline
210
0.0
220
0.0
230
1.0
 70
     8
 71
     3
 72
    24
 73
    20
 74
     0
 42
0.00000001
 43
0.00000001
 12
1.0
 22
0.0
 32
0.0
 13
1.0
 23
0.0
 33
0.0
 40
0.0
 40
0.0
 40
0.0
 40
0.0
 40
0.1250000000000028
 40
0.1250000000000028
 40
0.2500000000000057
 40
0.2500000000000057
 40
0.3125000000000059
 40
0.3125000000000059
 40
0.3750000000000062
 40
0.3750000000000062
 40
0.5000000000000053
 40
0.5000000000000053
 40
0.7500000000000026
 40
0.7500000000000026
 40
0.8750000000000011
 40
0.8750000000000011
 40
0.9375000000000006
 40
0.9375000000000006
 40
1.0
 40
1.0
 40
1.0
 40
1.0
 10
275.4997249400838
 20
196.515030274981
 30
0.0
 10
275.5283296834776
 20
195.8977316174408
 30
0.0
 10
275.6193938774483
 20
195.2959030247731
 30
0.0
 10
275.8925458180621
 20
194.1148084831506
 30
0.0
 10
276.0750316529486
 20
193.5356410617255
 30
0.0
 10
276.4029078798654
 20
192.6803255578184
 30
0.0
 10
276.5216901954912
 20
192.3966526326462
 30
0.0
 10
276.7733212614735
 20
191.8384481809451
 30
0.0
 10
276.9061405860691
 20
191.5637997496989
 30
0.0
 10
277.3228186554261
 20
190.7514445856896
 30
0.0
 10
277.6247727356117
 20
190.2252487832573
 30
0.0
 10
278.5871826419768
 20
188.6826594397748
 30
0.0
 10
279.3033714298876
 20
187.701746928179
 30
0.0
 10
280.4526457842811
 20
186.2782074395656
 30
0.0
 10
280.8483083676298
 20
185.8121278199419
 30
0.0
 10
281.4552398336763
 20
185.126487760276
 30
0.0
 10
281.6599183878719
 20
184.9000470636177
 30
0.0
 10
282.0736537055009
 20
184.451061091982
 30
0.0
 10
282.2840654707679
 20
184.2271007188118
 30
0.0
 10
282.4937174370277
 20
184.0078822237455
 30
0.0
  0
SPLINE
  5
254
330
1F
100
AcDbEntity
  8
0
  6
Continuous
 62
     7
370
    15
100
AcDbSpline
210
0.0
220
0.0
230
1.0
 70
     8
 71
     3
 72
    24
 73
    20
 74
     0
 42
0.00000001
 43
0.00000001
 12
1.0
 22
0.0
 32
0.0
 13
1.0
 23
0.0
 33
0.0
 40
0.0
 40
0.0
 40
0.0
 40
0.0
 40
0.125000000000003
 40
0.125000000000003
 40
0.250000000000006
 40
0.250000000000006
 40
0.3125000000000063
 40
0.3125000000000063
 40
0.3750000000000067
 40
0.3750000000000067
 40
0.500000000000006
 40
0.500000000000006
 40
0.7500000000000031
 40
0.7500000000000031
 40
0.8750000000000018
 40
0.8750000000000018
 40
0.9375000000000009
 40
0.9375000000000009
 40
1.0
 40
1.0
 40
1.0
 40
1.0
 10
245.6117518056142
 20
196.515030274981
 30
0.0
 10
245.5530686461155
 20
195.8977316174407
 30
0.0
 10
245.4949424423262
 20
195.2959030247731
 30
0.0
 10
245.379320825734
 20
194.1148084831506
 30
0.0
 10
245.3218296919599
 20
193.5356410617255
 30
0.0
 10
245.2358286477601
 20
192.6803255578184
 30
0.0
 10
245.2071172803757
 20
192.3966526326462
 30
0.0
 10
245.150259165647
 20
191.8384481809451
 30
0.0
 10
245.1221021069149
 20
191.5637997496989
 30
0.0
 10
245.03830323322
 20
190.7514445856895
 30
0.0
 10
244.9833275869065
 20
190.2252487832573
 30
0.0
 10
244.820232605593
 20
188.6826594397748
 30
0.0
 10
244.7139037571243
 20
187.7017469281791
 30
0.0
 10
244.5559924917168
 20
186.2782074395656
 30
0.0
 10
244.5036633604613
 20
185.8121278199419
 30
0.0
 10
244.4257779100699
 20
185.1264877602761
 30
0.0
 10
244.3999017187507
 20
184.9000470636177
 30
0.0
 10
244.3482922657964
 20
184.451061091982
 30
0.0
 10
244.3223926466463
 20
184.2271007188057
 30
0.0
 10
244.2968964173852
 20
184.0078822237455
 30
0.0
  0
SPLINE
  5
255
330
1F
100
AcDbEntity
  8
0
  6
Continuous
 62
     7
370
    15
100
AcDbSpline
210
0.0
220
0.0
230
1.0
 70
     8
 71
     3
 72
    24
 73
    20
 74
     0
 42
0.00000001
 43
0.00000001
 12
1.0
 22
0.0
 32
0.0
 13
1.0
 23
0.0
 33
0.0
 40
0.0
 40
0.0
 40
0.0
 40
0.0
 40
0.1249999999999999
 40
0.1249999999999999
 40
0.2499999999999998
 40
0.2499999999999998
 40
0.3124999999999991
 40
0.3124999999999991
 40
0.3749999999999984
 40
0.3749999999999984
 40
0.4999999999999983
 40
0.4999999999999983
 40
0.7499999999999993
 40
0.7499999999999993
 40
0.8749999999999998
 40
0.8749999999999998
 40
0.9374999999999998
 40
0.9374999999999998
 40
1.0
 40
1.0
 40
1.0
 40
1.0
 10
245.6117518056143
 20
93.20551321555267
 30
0.0
 10
245.5530686461156
 20
93.8228118730929
 30
0.0
 10
245.4949424423263
 20
94.42464046576052
 30
0.0
 10
245.3793208257341
 20
95.60573500738306
 30
0.0
 10
245.32182969196
 20
96.18490242880812
 30
0.0
 10
245.2358286477602
 20
97.0402179327152
 30
0.0
 10
245.2071172803758
 20
97.3238908578874
 30
0.0
 10
245.1502591656471
 20
97.88209530958846
 30
0.0
 10
245.122102106915
 20
98.15674374083471
 30
0.0
 10
245.0383032332201
 20
98.96909890484406
 30
0.0
 10
244.9833275869066
 20
99.49529470727637
 30
0.0
 10
244.8202326055932
 20
101.0378840507588
 30
0.0
 10
244.7139037571244
 20
102.0187965623546
 30
0.0
 10
244.5559924917168
 20
103.442336050968
 30
0.0
 10
244.5036633604613
 20
103.9084156705917
 30
0.0
 10
244.4257779100698
 20
104.5940557302576
 30
0.0
 10
244.3999017187508
 20
104.8204964269159
 30
0.0
 10
244.3482922657963
 20
105.2694823985516
 30
0.0
 10
244.3223926466464
 20
105.4934427717279
 30
0.0
 10
244.2968964173853
 20
105.7126612667881
 30
0.0
  0
SPLINE
  5
256
330
1F
100
AcDbEntity
  8
0
  6
Continuous
 62
     7
370
    15
100
AcDbSpline
210
0.0
220
0.0
230
1.0
 70
     8
 71
     3
 72
     8
 73
     4
 74
     0
 42
0.00000001
 43
0.00000001
 12
1.0
 22
0.0
 32
0.0
 13
1.0
 23
0.0
 33
0.0
 40
0.0
 40
0.0
 40
0.0
 40
0.0
 40
1.0
 40
1.0
 40
1.0
 40
1.0
 10
245.6866108807995
 20
92.54747749087089
 30
0.0
 10
245.6575796805888
 20
92.76647288822232
 30
0.0
 10
245.6326369152019
 20
92.98581900990398
 30
0.0
 10
245.6117518056143
 20
93.20551321555267
 30
0.0
  0
SPLINE
  5
257
330
1F
100
AcDbEntity
  8
0
  6
Continuous
 62
     7
370
    15
100
AcDbSpline
210
0.0
220
0.0
230
1.0
 70
     8
 71
     3
 72
    24
 73
    20
 74
     0
 42
0.00000001
 43
0.00000001
 12
1.0
 22
0.0
 32
0.0
 13
1.0
 23
0.0
 33
0.0
 40
0.0
 40
0.0
 40
0.0
 40
0.0
 40
0.1250000000000005
 40
0.1250000000000005
 40
0.2500000000000009
 40
0.2500000000000009
 40
0.3125000000000007
 40
0.3125000000000007
 40
0.3750000000000004
 40
0.3750000000000004
 40
0.5000000000000011
 40
0.5000000000000011
 40
0.7500000000000007
 40
0.7500000000000007
 40
0.8750000000000006
 40
0.8750000000000006
 40
0.9375000000000003
 40
0.9375000000000003
 40
1.0
 40
1.0
 40
1.0
 40
1.0
 10
275.4997249400839
 20
93.20551321555267
 30
0.0
 10
275.5283296834778
 20
93.82281187309289
 30
0.0
 10
275.6193938774484
 20
94.42464046576053
 30
0.0
 10
275.8925458180623
 20
95.60573500738305
 30
0.0
 10
276.0750316529487
 20
96.18490242880812
 30
0.0
 10
276.4029078798654
 20
97.04021793271522
 30
0.0
 10
276.5216901954913
 20
97.32389085788742
 30
0.0
 10
276.7733212614736
 20
97.8820953095885
 30
0.0
 10
276.9061405860692
 20
98.15674374083474
 30
0.0
 10
277.3228186554263
 20
98.96909890484409
 30
0.0
 10
277.6247727356118
 20
99.49529470727639
 30
0.0
 10
278.5871826419769
 20
101.0378840507588
 30
0.0
 10
279.3033714298877
 20
102.0187965623546
 30
0.0
 10
280.4526457842811
 20
103.442336050968
 30
0.0
 10
280.8483083676298
 20
103.9084156705917
 30
0.0
 10
281.4552398336763
 20
104.5940557302576
 30
0.0
 10
281.659918387872
 20
104.8204964269159
 30
0.0
 10
282.0736537055009
 20
105.2694823985516
 30
0.0
 10
282.2840654707666
 20
105.4934427717142
 30
0.0
 10
282.4937174370278
 20
105.7126612667881
 30
0.0
  0
SPLINE
  5
258
330
1F
100
AcDbEntity
  8
0
  6
Continuous
 62
     7
370
    15
100
AcDbSpline
210
0.0
220
0.0
230
1.0
 70
     8
 71
     3
 72
     8
 73
     4
 74
     0
 42
0.00000001
 43
0.00000001
 12
1.0
 22
0.0
 32
0.0
 13
1.0
 23
0.0
 33
0.0
 40
0.0
 40
0.0
 40
0.0
 40
0.0
 40
1.0
 40
1.0
 40
1.0
 40
1.0
 10
275.4997249400839
 20
93.20551321555267
 30
0.0
 10
275.4895446225002
 20
92.98581900990398
 30
0.0
 10
275.4834711808448
 20
92.76647288822234
 30
0.0
 10
275.4815357674975
 20
92.54747749087089
 30
0.0
  0
LINE
  5
259
330
1F
100
AcDbEntity
  8
0
  6
Continuous
 62
     7
370
    15
100
AcDbLine
 10
239.4482790356
 20
233.3577265201
 30
0.0
 11
237.7061821445
 21
208.7175636443
 31
0.0
  0
LINE
  5
25A
330
1F
100
AcDbEntity
  8
0
  6
Continuous
 62
     7
370
    15
100
AcDbLine
 10
250.4834428546
 20
233.3577265201
 30
0.0
 11
245.6866108808
 21
197.1730659997
 31
0.0
  0
LINE
  5
25B
330
1F
100
AcDbEntity
  8
0
  6
Continuous
 62
     7
370
    15
100
AcDbLine
 10
239.4482790356
 20
56.3628169704
 30
0.0
 11
237.7061821445
 21
81.0029798462
 31
0.0
  0
LINE
  5
25C
330
1F
100
AcDbEntity
  8
0
  6
Continuous
 62
     7
370
    15
100
AcDbLine
 10
250.4834428546
 20
56.3628169704
 30
0.0
 11
245.6866108808
 21
92.5474774909
 31
0.0
  0
ELLIPSE
  5
25D
330
1F
100
AcDbEntity
  8
0
  6
Continuous
 62
     7
370
    15
100
AcDbEllipse
 10
253.9706606344
 20
232.8602717453
 30
0.0
 11
0.6117413673475767
 21
4.9815356245808
 31
0.0
210
0.0
220
0.0
230
1.0
 40
0.7017754025
 41
0.0859668565494722
 42
1.5571073585631
  0
LINE
  5
25E
330
1F
100
AcDbEntity
  8
0
  6
Continuous
 62
     7
370
    15
100
AcDbLine
 10
254.2799797707
 20
237.8602717453
 30
0.0
 11
271.9222994131
 21
237.8602717453
 31
0.0
  0
ELLIPSE
  5
25F
330
1F
100
AcDbEntity
  8
0
  6
Continuous
 62
     7
370
    15
100
AcDbEllipse
 10
271.6129802769
 20
232.8602717453
 30
0.0
 11
0.6117413673476335
 21
4.9815356245808
 31
0.0
210
0.0
220
0.0
230
1.0
 40
0.7017754025
 41
4.898011661715437
 42
6.369152163729051
  0
LINE
  5
260
330
1F
100
AcDbEntity
  8
0
  6
Continuous
 62
     7
370
    15
100
AcDbLine
 10
275.4815357675
 20
197.1730659997
 30
0.0
 11
275.1617469692
 21
233.3577265201
 31
0.0
  0
ELLIPSE
  5
261
330
1F
100
AcDbEntity
  8
0
  6
Continuous
 62
     7
370
    15
100
AcDbEllipse
 10
271.6129802769
 20
56.8602717453
 30
0.0
 11
-0.6117413673477473
 21
4.981535624580773
 31
0.0
210
0.0
220
0.0
230
1.0
 40
0.7017754025
 41
3.055625797040296
 42
4.526766299053945
  0
LINE
  5
262
330
1F
100
AcDbEntity
  8
0
  6
Continuous
 62
     7
370
    15
100
AcDbLine
 10
254.2799797707
 20
51.8602717453
 30
0.0
 11
271.9222994131
 21
51.8602717453
 31
0.0
  0
ELLIPSE
  5
263
330
1F
100
AcDbEntity
  8
0
  6
Continuous
 62
     7
370
    15
100
AcDbEllipse
 10
253.9706606344
 20
56.8602717453
 30
0.0
 11
-0.6117413673476335
 21
4.981535624580786
 31
0.0
210
0.0
220
0.0
230
1.0
 40
0.7017754025
 41
1.584485295026683
 42
3.055625797040327
  0
LINE
  5
264
330
1F
100
AcDbEntity
  8
0
  6
Continuous
 62
     7
370
    15
100
AcDbLine
 10
275.4815357675
 20
92.5474774909
 30
0.0
 11
275.1617469692
 21
56.3628169704
 31
0.0
  0
LWPOLYLINE
  5
265
330
1F
100
AcDbEntity
  8
0
  6
Continuous
 62
     7
370
    15
100
AcDbPolyline
 90
       24
 70
   128
 43
0.0
 10
239.4482790356
 20
233.3577265201
 10
239.4779567693
 20
233.6747187134
 10
239.5219010934
 20
233.9883799624
 10
239.5799322835
 20
234.2974274479
 10
239.6518130022
 20
234.6005972204
 10
239.7372492701
 20
234.8966493689
 10
239.8358916679
 20
235.1843730924
 10
239.9473367656
 20
235.4625916517
 10
240.0711287725
 20
235.7301671821
 10
240.2067614011
 20
235.9860053467
 10
240.3536799378
 20
236.2290598128
 10
240.5112835119
 20
236.4583365304
 10
240.6789275525
 20
236.6728977983
 10
240.8559264251
 20
236.8718660987
 10
241.0415562356
 20
237.0544276865
 10
241.2350577907
 20
237.2198359169
 10
241.4356397033
 20
237.3674142994
 10
241.6424816289
 20
237.4965592647
 10
241.8547376203
 20
237.6067426325
 10
242.0715395882
 20
237.6975137724
 10
242.2920008507
 20
237.7685014464
 10
242.5152197602
 20
237.8194153274
 10
242.7402833907
 20
237.8500471866
 10
242.9662712717
 20
237.8602717453
  0
LINE
  5
266
330
1F
100
AcDbEntity
  8
0
  6
Continuous
 62
     7
370
    15
100
AcDbLine
 10
242.9662712717
 20
237.8602717453
 30
0.0
 11
254.2799797707
 21
237.8602717453
 31
0.0
  0
LINE
  5
267
330
1F
100
AcDbEntity
  8
0
  6
Continuous
 62
     7
370
    15
100
AcDbLine
 10
254.2799797707
 20
51.8602717453
 30
0.0
 11
242.9662712717
 21
51.8602717453
 31
0.0
  0
LWPOLYLINE
  5
268
330
1F
100
AcDbEntity
  8
0
  6
Continuous
 62
     7
370
    15
100
AcDbPolyline
 90
       24
 70
   128
 43
0.0
 10
242.9662712717
 20
51.8602717453
 10
242.7402833907
 20
51.8704963039
 10
242.5152197602
 20
51.9011281632
 10
242.2920008507
 20
51.9520420442
 10
242.0715395882
 20
52.0230297181
 10
241.8547376203
 20
52.113800858
 10
241.6424816289
 20
52.2239842258
 10
241.4356397033
 20
52.3531291911
 10
241.2350577907
 20
52.5007075737
 10
241.0415562356
 20
52.6661158041
 10
240.8559264251
 20
52.8486773918
 10
240.6789275525
 20
53.0476456922
 10
240.5112835119
 20
53.2622069601
 10
240.3536799378
 20
53.4914836777
 10
240.2067614011
 20
53.7345381438
 10
240.0711287725
 20
53.9903763085
 10
239.9473367656
 20
54.2579518388
 10
239.8358916679
 20
54.5361703981
 10
239.7372492701
 20
54.8238941217
 10
239.6518130022
 20
55.1199462702
 10
239.5799322835
 20
55.4231160426
 10
239.5219010934
 20
55.7321635281
 10
239.4779567693
 20
56.0458247771
 10
239.4482790356
 20
56.3628169704
  0
ARC
  5
269
330
1F
100
AcDbEntity
  8
0
  6
Continuous
 62
     7
370
    15
100
AcDbCircle
 10
231.9831546007
 20
208.970212246
 30
0.0
 40
5.728601538213333
100
AcDbArc
 50
319.0012669177
 51
357.4722634636
  0
ARC
  5
26A
330
1F
100
AcDbEntity
  8
0
  6
Continuous
 62
     7
370
    15
100
AcDbCircle
 10
232.0111553055
 20
80.7615098912
 30
0.0
 40
5.700143720639171
100
AcDbArc
 50
2.4278950349
 51
41.0985745838
  0
SPLINE
  5
26B
330
1F
100
AcDbEntity
  8
0
  6
Continuous
 62
     7
370
    15
100
AcDbSpline
210
0.0
220
0.0
230
1.0
 70
     8
 71
     3
 72
    16
 73
    12
 74
     0
 42
0.00000001
 43
0.00000001
 12
1.0
 22
0.0
 32
0.0
 13
1.0
 23
0.0
 33
0.0
 40
0.0
 40
0.0
 40
0.0
 40
0.0
 40
0.1250000000000009
 40
0.1250000000000009
 40
0.2500000000000018
 40
0.2500000000000018
 40
0.5000000000000012
 40
0.5000000000000012
 40
0.7500000000000007
 40
0.7500000000000007
 40
1.0
 40
1.0
 40
1.0
 40
1.0
 10
232.6244384581072
 20
203.0599231751025
 30
0.0
 10
232.7547390941531
 20
203.1457295353648
 30
0.0
 10
232.8641414033065
 20
203.2374058009943
 30
0.0
 10
233.0449546067121
 20
203.4330266117095
 30
0.0
 10
233.1168250283922
 20
203.5381418892293
 30
0.0
 10
233.2794248023009
 20
203.8634545308836
 30
0.0
 10
233.3228378102801
 20
204.0966924646697
 30
0.0
 10
233.3398420693555
 20
204.6053469896473
 30
0.0
 10
233.3130107389545
 20
204.8754415916838
 30
0.0
 10
233.2172215374533
 20
205.463029157677
 30
0.0
 10
233.1468101687211
 20
205.7829955819321
 30
0.0
 10
233.0616562287351
 20
206.1250745429521
 30
0.0
  0
SPLINE
  5
26C
330
1F
100
AcDbEntity
  8
0
  6
Continuous
 62
     7
370
    15
100
AcDbSpline
210
0.0
220
0.0
230
1.0
 70
     8
 71
     3
 72
    10
 73
     6
 74
     0
 42
0.00000001
 43
0.00000001
 12
1.0
 22
0.0
 32
0.0
 13
1.0
 23
0.0
 33
0.0
 40
0.0
 40
0.0
 40
0.0
 40
0.0
 40
0.4999999999999972
 40
0.4999999999999972
 40
1.0
 40
1.0
 40
1.0
 40
1.0
 10
233.061656228735
 20
206.1250745429521
 30
0.0
 10
232.9344689491778
 20
206.6360091215884
 30
0.0
 10
232.8686838547338
 20
207.1735574279296
 30
0.0
 10
232.8430178596752
 20
208.2945564034061
 30
0.0
 10
232.885019505618
 20
208.8819133600272
 30
0.0
 10
232.9814600097842
 20
209.4689985445734
 30
0.0
  0
SPLINE
  5
26D
330
1F
100
AcDbEntity
  8
0
  6
Continuous
 62
     7
370
    15
100
AcDbSpline
210
0.0
220
0.0
230
1.0
 70
     8
 71
     3
 72
    18
 73
    14
 74
     0
 42
0.00000001
 43
0.00000001
 12
1.0
 22
0.0
 32
0.0
 13
1.0
 23
0.0
 33
0.0
 40
0.0
 40
0.0
 40
0.0
 40
0.0
 40
0.2499999999999989
 40
0.2499999999999989
 40
0.4999999999999979
 40
0.4999999999999979
 40
0.7499999999999969
 40
0.7499999999999969
 40
0.874999999999999
 40
0.874999999999999
 40
0.9374999999999994
 40
0.9374999999999994
 40
1.0
 40
1.0
 40
1.0
 40
1.0
 10
225.2939723777545
 20
203.8592850353779
 30
0.0
 10
225.058175711767
 20
203.3686652435406
 30
0.0
 10
224.7612559958276
 20
202.9215445508522
 30
0.0
 10
224.0844261643375
 20
202.086487609107
 30
0.0
 10
223.7000249328901
 20
201.6965920773106
 30
0.0
 10
222.8871697800794
 20
200.9889408412855
 30
0.0
 10
222.4569837136984
 20
200.668394601272
 30
0.0
 10
221.7814492130165
 20
200.2298507246214
 30
0.0
 10
221.5511652540061
 20
200.0908034098289
 30
0.0
 10
221.1982846734275
 20
199.892629742952
 30
0.0
 10
221.0794126073147
 20
199.8283085767067
 30
0.0
 10
220.8391796510615
 20
199.7031340191089
 30
0.0
 10
220.7168127929192
 20
199.6417974619991
 30
0.0
 10
220.5953208179797
 20
199.5832296785782
 30
0.0
  0
SPLINE
  5
26E
330
1F
100
AcDbEntity
  8
0
  6
Continuous
 62
     7
370
    15
100
AcDbSpline
210
0.0
220
0.0
230
1.0
 70
     8
 71
     3
 72
    18
 73
    14
 74
     0
 42
0.00000001
 43
0.00000001
 12
1.0
 22
0.0
 32
0.0
 13
1.0
 23
0.0
 33
0.0
 40
0.0
 40
0.0
 40
0.0
 40
0.0
 40
0.2499999999999989
 40
0.2499999999999989
 40
0.4999999999999979
 40
0.4999999999999979
 40
0.7499999999999969
 40
0.7499999999999969
 40
0.874999999999999
 40
0.874999999999999
 40
0.9374999999999994
 40
0.9374999999999994
 40
1.0
 40
1.0
 40
1.0
 40
1.0
 10
225.2939723777545
 20
85.86125845515566
 30
0.0
 10
225.058175711767
 20
86.351878246993
 30
0.0
 10
224.7612559958276
 20
86.79899893968138
 30
0.0
 10
224.0844261643375
 20
87.63405588142665
 30
0.0
 10
223.7000249328901
 20
88.02395141322305
 30
0.0
 10
222.8871697800794
 20
88.73160264924805
 30
0.0
 10
222.4569837136984
 20
89.05214888926156
 30
0.0
 10
221.7814492130165
 20
89.49069276591219
 30
0.0
 10
221.5511652540061
 20
89.62974008070468
 30
0.0
 10
221.1982846734275
 20
89.82791374758162
 30
0.0
 10
221.0794126073147
 20
89.8922349138269
 30
0.0
 10
220.8391796510615
 20
90.0174094714247
 30
0.0
 10
220.7168127929192
 20
90.07874602853455
 30
0.0
 10
220.5953208179797
 20
90.13731381195542
 30
0.0
  0
SPLINE
  5
26F
330
1F
100
AcDbEntity
  8
0
  6
Continuous
 62
     7
370
    15
100
AcDbSpline
210
0.0
220
0.0
230
1.0
 70
     8
 71
     3
 72
    16
 73
    12
 74
     0
 42
0.00000001
 43
0.00000001
 12
1.0
 22
0.0
 32
0.0
 13
1.0
 23
0.0
 33
0.0
 40
0.0
 40
0.0
 40
0.0
 40
0.0
 40
0.1250000000000009
 40
0.1250000000000009
 40
0.2500000000000018
 40
0.2500000000000018
 40
0.5000000000000012
 40
0.5000000000000012
 40
0.7500000000000007
 40
0.7500000000000007
 40
1.0
 40
1.0
 40
1.0
 40
1.0
 10
232.6244384581072
 20
86.66062031543112
 30
0.0
 10
232.7547390941531
 20
86.57481395516884
 30
0.0
 10
232.8641414033065
 20
86.48313768953933
 30
0.0
 10
233.0449546067121
 20
86.28751687882409
 30
0.0
 10
233.1168250283922
 20
86.18240160130428
 30
0.0
 10
233.2794248023009
 20
85.85708895964997
 30
0.0
 10
233.3228378102801
 20
85.62385102586396
 30
0.0
 10
233.3398420693555
 20
85.11519650088631
 30
0.0
 10
233.3130107389545
 20
84.84510189884975
 30
0.0
 10
233.2172215374533
 20
84.25751433285662
 30
0.0
 10
233.1468101687211
 20
83.9375479086015
 30
0.0
 10
233.0616562287351
 20
83.59546894758144
 30
0.0
  0
SPLINE
  5
270
330
1F
100
AcDbEntity
  8
0
  6
Continuous
 62
     7
370
    15
100
AcDbSpline
210
0.0
220
0.0
230
1.0
 70
     8
 71
     3
 72
    10
 73
     6
 74
     0
 42
0.00000001
 43
0.00000001
 12
1.0
 22
0.0
 32
0.0
 13
1.0
 23
0.0
 33
0.0
 40
0.0
 40
0.0
 40
0.0
 40
0.0
 40
0.4999999999999972
 40
0.4999999999999972
 40
1.0
 40
1.0
 40
1.0
 40
1.0
 10
233.061656228735
 20
83.5954689475815
 30
0.0
 10
232.9344689491778
 20
83.08453436894526
 30
0.0
 10
232.8686838547338
 20
82.54698606260393
 30
0.0
 10
232.8430178596752
 20
81.42598708712754
 30
0.0
 10
232.885019505618
 20
80.83863013050643
 30
0.0
 10
232.9814600097842
 20
80.25154494596018
 30
0.0
  0
LINE
  5
271
330
1F
100
AcDbEntity
  8
0
  6
Continuous
 62
     7
370
    15
100
AcDbLine
 10
233.2558728906
 20
237.8602717453
 30
0.0
 11
237.6452954692
 21
237.8602717453
 31
0.0
  0
LINE
  5
272
330
1F
100
AcDbEntity
  8
0
  6
Continuous
 62
     7
370
    15
100
AcDbLine
 10
237.6452954692
 20
237.8602717453
 30
0.0
 11
232.9814600098
 21
209.4689985446
 31
0.0
  0
SPLINE
  5
273
330
1F
100
AcDbEntity
  8
0
  6
Continuous
 62
     7
370
    15
100
AcDbSpline
210
0.0
220
0.0
230
1.0
 70
     8
 71
     3
 72
     8
 73
     4
 74
     0
 42
0.00000001
 43
0.00000001
 12
1.0
 22
0.0
 32
0.0
 13
1.0
 23
0.0
 33
0.0
 40
0.0
 40
0.0
 40
0.0
 40
0.0
 40
1.0
 40
1.0
 40
1.0
 40
1.0
 10
226.0778525768881
 20
206.1179213383871
 30
0.0
 10
225.900610195831
 20
205.3341272669559
 30
0.0
 10
225.6407089702137
 20
204.5807364354743
 30
0.0
 10
225.2939723777544
 20
203.859285035378
 30
0.0
  0
LINE
  5
274
330
1F
100
AcDbEntity
  8
0
  6
Continuous
 62
     7
370
    15
100
AcDbLine
 10
233.2558728906
 20
237.8602717453
 30
0.0
 11
226.0778525769
 21
206.1179213384
 31
0.0
  0
SPLINE
  5
275
330
1F
100
AcDbEntity
  8
0
  6
Continuous
 62
     7
370
    15
100
AcDbSpline
210
0.0
220
0.0
230
1.0
 70
     8
 71
     3
 72
     8
 73
     4
 74
     0
 42
0.00000001
 43
0.00000001
 12
1.0
 22
0.0
 32
0.0
 13
1.0
 23
0.0
 33
0.0
 40
0.0
 40
0.0
 40
0.0
 40
0.0
 40
1.0
 40
1.0
 40
1.0
 40
1.0
 10
226.0778525768881
 20
83.60262215214652
 30
0.0
 10
225.900610195831
 20
84.38641622357768
 30
0.0
 10
225.6407089702137
 20
85.13980705505928
 30
0.0
 10
225.2939723777544
 20
85.86125845515566
 30
0.0
  0
LINE
  5
276
330
1F
100
AcDbEntity
  8
0
  6
Continuous
 62
     7
370
    15
100
AcDbLine
 10
237.6452954692
 20
51.8602717453
 30
0.0
 11
232.9814600098
 21
80.251544946
 31
0.0
  0
LINE
  5
277
330
1F
100
AcDbEntity
  8
0
  6
Continuous
 62
     7
370
    15
100
AcDbLine
 10
233.2558728906
 20
51.8602717453
 30
0.0
 11
237.6452954692
 21
51.8602717453
 31
0.0
  0
LINE
  5
278
330
1F
100
AcDbEntity
  8
0
  6
Continuous
 62
     7
370
    15
100
AcDbLine
 10
233.2558728906
 20
51.8602717453
 30
0.0
 11
226.0778525769
 21
83.6026221521
 31
0.0
  0
LINE
  5
279
330
1F
100
AcDbEntity
  8
0
  6
Continuous
 62
     7
370
    15
100
AcDbLine
 10
242.9662712717
 20
237.8602717453
 30
0.0
 11
237.6452954692
 21
237.8602717453
 31
0.0
  0
LINE
  5
27A
330
1F
100
AcDbEntity
  8
0
  6
Continuous
 62
     7
370
    15
100
AcDbLine
 10
242.9662712717
 20
51.8602717453
 30
0.0
 11
237.6452954692
 21
51.8602717453
 31
0.0
  0
LINE
  5
27B
330
1F
100
AcDbEntity
  8
0
  6
Continuous
 62
     7
370
    15
100
AcDbLine
 10
368.6564427575
 20
244.7410888447
 30
0.0
 11
368.6564427575
 21
44.9794546459
 31
0.0
  0
LINE
  5
27C
330
1F
100
AcDbEntity
  8
0
  6
Continuous
 62
     7
370
    15
100
AcDbLine
 10
352.6564427575
 20
44.9794546459
 30
0.0
 11
368.6564427575
 21
44.9794546459
 31
0.0
  0
LINE
  5
27D
330
1F
100
AcDbEntity
  8
0
  6
Continuous
 62
     7
370
    15
100
AcDbLine
 10
352.6564427575
 20
244.7410888447
 30
0.0
 11
368.6564427575
 21
244.7410888447
 31
0.0
  0
LINE
  5
27E
330
1F
100
AcDbEntity
  8
0
  6
Continuous
 62
     7
370
    15
100
AcDbLine
 10
352.6564427575
 20
244.7410888447
 30
0.0
 11
352.6564427575
 21
44.9794546459
 31
0.0
  0
LINE
  5
27F
330
1F
100
AcDbEntity
  8
0
  6
Continuous
 62
     7
370
    15
100
AcDbLine
 10
114.6564427575
 20
44.9794546459
 30
0.0
 11
130.6564427575
 21
44.9794546459
 31
0.0
  0
LINE
  5
280
330
1F
100
AcDbEntity
  8
0
  6
Continuous
 62
     7
370
    15
100
AcDbLine
 10
114.6564427575
 20
244.7410888447
 30
0.0
 11
130.6564427575
 21
244.7410888447
 31
0.0
  0
LINE
  5
281
330
1F
100
AcDbEntity
  8
0
  6
Continuous
 62
     7
370
    15
100
AcDbLine
 10
114.6564427575
 20
244.7410888447
 30
0.0
 11
114.6564427575
 21
44.9794546459
 31
0.0
  0
LINE
  5
282
330
1F
100
AcDbEntity
  8
0
  6
Continuous
 62
     7
370
    15
100
AcDbLine
 10
130.6564427575
 20
244.7410888447
 30
0.0
 11
130.6564427575
 21
44.9794546459
 31
0.0
  0
SPLINE
  5
283
330
1F
100
AcDbEntity
  8
0
  6
Continuous
 62
     7
370
    15
100
AcDbSpline
210
0.0
220
0.0
230
1.0
 70
     8
 71
     3
 72
     8
 73
     4
 74
     0
 42
0.00000001
 43
0.00000001
 12
1.0
 22
0.0
 32
0.0
 13
1.0
 23
0.0
 33
0.0
 40
0.0
 40
0.0
 40
0.0
 40
0.0
 40
1.0
 40
1.0
 40
1.0
 40
1.0
 10
194.5361862530921
 20
205.6175158487524
 30
0.0
 10
194.5084346669423
 20
205.168924363539
 30
0.0
 10
194.441238636252
 20
204.7318061097702
 30
0.0
 10
194.3348022210699
 20
204.306101732366
 30
0.0
  0
LINE
  5
284
330
1F
100
AcDbEntity
  8
0
  6
Continuous
 62
     7
370
    15
100
AcDbLine
 10
194.5361862531
 20
205.6175158488
 30
0.0
 11
194.6428018272
 21
207.3409070262
 31
0.0
  0
LINE
  5
285
330
1F
100
AcDbEntity
  8
0
  6
Continuous
 62
     7
370
    15
100
AcDbLine
 10
194.6428018272
 20
207.3409070262
 30
0.0
 11
233.2558728906
 21
237.8602717453
 31
0.0
  0
LINE
  5
286
330
1F
100
AcDbEntity
  8
0
  6
Continuous
 62
     7
370
    15
100
AcDbLine
 10
194.6428018272
 20
82.3796364643
 30
0.0
 11
233.2558728906
 21
51.8602717453
 31
0.0
  0
LINE
  5
287
330
1F
100
AcDbEntity
  8
0
  6
Continuous
 62
     7
370
    15
100
AcDbLine
 10
194.5361862531
 20
84.1030276418
 30
0.0
 11
194.6428018272
 21
82.3796364643
 31
0.0
  0
SPLINE
  5
288
330
1F
100
AcDbEntity
  8
0
  6
Continuous
 62
     7
370
    15
100
AcDbSpline
210
0.0
220
0.0
230
1.0
 70
     8
 71
     3
 72
     8
 73
     4
 74
     0
 42
0.00000001
 43
0.00000001
 12
1.0
 22
0.0
 32
0.0
 13
1.0
 23
0.0
 33
0.0
 40
0.0
 40
0.0
 40
0.0
 40
0.0
 40
1.0
 40
1.0
 40
1.0
 40
1.0
 10
194.5361862530921
 20
84.10302764178118
 30
0.0
 10
194.5084346669423
 20
84.5516191269946
 30
0.0
 10
194.441238636252
 20
84.98873738076337
 30
0.0
 10
194.3348022210699
 20
85.41444175816763
 30
0.0
  0
LWPOLYLINE
  5
289
330
1F
100
AcDbEntity
  8
0
  6
Continuous
 62
     7
370
    15
100
AcDbPolyline
 90
      119
 70
   128
 43
0.0
 10
275.4210512592
 20
85.7035498391
 10
276.1525889286
 20
86.1413324907
 10
276.9805557628
 20
86.662976333
 10
277.800969002
 20
87.2079668737
 10
278.6134995253
 20
87.7760854818
 10
279.4178213742
 20
88.3671042481
 10
280.2136118832
 20
88.9807860769
 10
281.0005518093
 20
89.6168847807
 10
281.77832546
 20
90.2751451792
 10
282.5466208199
 20
90.9553032014
 10
283.3051296762
 20
91.6570859922
 10
284.0535477418
 20
92.380212021
 10
284.7915747779
 20
93.1243911952
 10
285.5189147142
 20
93.8893249765
 10
286.2352757675
 20
94.6747065004
 10
286.9403705592
 20
95.4802206996
 10
287.63391623
 20
96.3055444302
 10
288.315634554
 20
97.1503466017
 10
288.9852520499
 20
98.0142883092
 10
289.6425000908
 20
98.8970229697
 10
290.287115012
 20
99.7981964614
 10
290.9188382168
 20
100.7174472654
 10
291.5374162801
 20
101.6544066105
 10
292.1426010504
 20
102.608698622
 10
292.7341497488
 20
103.5799404715
 10
293.311825067
 20
104.5677425312
 10
293.875395262
 20
105.5717085297
 10
294.4246342493
 20
106.5914357114
 10
294.9593216937
 20
107.6265149978
 10
295.4792430975
 20
108.6765311516
 10
295.9841898865
 20
109.7410629435
 10
296.473959494
 20
110.8196833209
 10
296.9483554418
 20
111.9119595794
 10
297.4071874189
 20
113.0174535365
 10
297.8502713581
 20
114.135721707
 10
298.2774295098
 20
115.2663154812
 10
298.6884905134
 20
116.4087813048
 10
299.0832894655
 20
117.562660861
 10
299.4616679869
 20
118.7274912541
 10
299.8234742854
 20
119.9028051952
 10
300.1685632172
 20
121.0881311899
 10
300.4967963448
 20
122.2829937274
 10
300.8080419925
 20
123.486913471
 10
301.1021752998
 20
124.6994074506
 10
301.3790782706
 20
125.9199892565
 10
301.6386398213
 20
127.1481692345
 10
301.8807558251
 20
128.383454682
 10
302.1053291534
 20
129.6253500463
 10
302.3122697154
 20
130.8733571229
 10
302.5014944938
 20
132.1269752553
 10
302.6729275785
 20
133.3857015363
 10
302.8265001964
 20
134.6490310093
 10
302.9621507397
 20
135.9164568713
 10
303.0798247902
 20
137.1874706758
 10
303.1794751412
 20
138.4615625369
 10
303.2610618164
 20
139.7382213341
 10
303.3245520863
 20
141.0169349168
 10
303.3699204807
 20
142.2971903105
 10
303.3971487995
 20
143.5784739219
 10
303.4062261196
 20
144.8602717453
 10
303.3971487995
 20
146.1420695686
 10
303.3699204807
 20
147.42335318
 10
303.3245520863
 20
148.7036085737
 10
303.2610618164
 20
149.9823221565
 10
303.1794751412
 20
151.2589809536
 10
303.0798247902
 20
152.5330728147
 10
302.9621507397
 20
153.8040866192
 10
302.8265001964
 20
155.0715124812
 10
302.6729275785
 20
156.3348419543
 10
302.5014944938
 20
157.5935682353
 10
302.3122697154
 20
158.8471863677
 10
302.1053291534
 20
160.0951934442
 10
301.8807558251
 20
161.3370888085
 10
301.6386398213
 20
162.5723742561
 10
301.3790782706
 20
163.800554234
 10
301.1021752998
 20
165.02113604
 10
300.8080419925
 20
166.2336300196
 10
300.4967963448
 20
167.4375497631
 10
300.1685632172
 20
168.6324123006
 10
299.8234742854
 20
169.8177382953
 10
299.4616679869
 20
170.9930522365
 10
299.0832894655
 20
172.1578826295
 10
298.6884905134
 20
173.3117621857
 10
298.2774295098
 20
174.4542280094
 10
297.8502713581
 20
175.5848217836
 10
297.4071874189
 20
176.703089954
 10
296.9483554418
 20
177.8085839111
 10
296.473959494
 20
178.9008601697
 10
295.9841898865
 20
179.9794805471
 10
295.4792430975
 20
181.0440123389
 10
294.9593216937
 20
182.0940284928
 10
294.4246342493
 20
183.1291077791
 10
293.875395262
 20
184.1488349608
 10
293.311825067
 20
185.1528009594
 10
292.7341497488
 20
186.140603019
 10
292.1426010504
 20
187.1118448685
 10
291.5374162801
 20
188.06613688
 10
290.9188382168
 20
189.0030962252
 10
290.287115012
 20
189.9223470291
 10
289.6425000908
 20
190.8235205208
 10
288.9852520499
 20
191.7062551814
 10
288.315634554
 20
192.5701968888
 10
287.63391623
 20
193.4149990603
 10
286.9403705592
 20
194.240322791
 10
286.2352757675
 20
195.0458369902
 10
285.5189147142
 20
195.8312185141
 10
284.7915747779
 20
196.5961522953
 10
284.0535477418
 20
197.3403314695
 10
283.3051296762
 20
198.0634574983
 10
282.5466208199
 20
198.7652402891
 10
281.77832546
 20
199.4453983114
 10
281.0005518093
 20
200.1036587098
 10
280.2136118832
 20
200.7397574136
 10
279.4178213742
 20
201.3534392424
 10
278.6134995253
 20
201.9444580088
 10
277.800969002
 20
202.5125766168
 10
276.9805557628
 20
203.0575671575
 10
276.1525889286
 20
203.5792109998
 10
275.4210512592
 20
204.0169936514
  0
SPLINE
  5
28A
330
1F
100
AcDbEntity
  8
0
  6
Continuous
 62
     7
370
    15
100
AcDbSpline
210
0.0
220
0.0
230
1.0
 70
     8
 71
     3
 72
    20
 73
    16
 74
     0
 42
0.00000001
 43
0.00000001
 12
1.0
 22
0.0
 32
0.0
 13
1.0
 23
0.0
 33
0.0
 40
0.0
 40
0.0
 40
0.0
 40
0.0
 40
0.1250000000000002
 40
0.1250000000000002
 40
0.2500000000000003
 40
0.2500000000000003
 40
0.5000000000000007
 40
0.5000000000000007
 40
0.750000000000001
 40
0.750000000000001
 40
0.8750000000000004
 40
0.8750000000000004
 40
0.9375000000000002
 40
0.9375000000000002
 40
1.0
 40
1.0
 40
1.0
 40
1.0
 10
194.3348022210699
 20
204.306101732366
 30
0.0
 10
194.2560110192381
 20
203.9909674856576
 30
0.0
 10
194.1395110062928
 20
203.6926596178583
 30
0.0
 10
193.8479455267679
 20
203.122320486811
 30
0.0
 10
193.670818034431
 20
202.8481512594615
 30
0.0
 10
193.0763769081898
 20
202.077317315945
 30
0.0
 10
192.6048850799743
 20
201.6355075354893
 30
0.0
 10
191.5553943571491
 20
200.853994416922
 30
0.0
 10
190.9925692252642
 20
200.5272307551186
 30
0.0
 10
190.1103269231076
 20
200.1153037200651
 30
0.0
 10
189.8093547413658
 20
199.9910615171869
 30
0.0
 10
189.3479062987682
 20
199.8235811916411
 30
0.0
 10
189.1923001192638
 20
199.7708762302859
 30
0.0
 10
188.8782545199517
 20
199.6719646654287
 30
0.0
 10
188.7188790120696
 20
199.6255195073283
 30
0.0
 10
188.5611901525995
 20
199.5831402354524
 30
0.0
  0
SPLINE
  5
28B
330
1F
100
AcDbEntity
  8
0
  6
Continuous
 62
     7
370
    15
100
AcDbSpline
210
0.0
220
0.0
230
1.0
 70
     8
 71
     3
 72
    20
 73
    16
 74
     0
 42
0.00000001
 43
0.00000001
 12
1.0
 22
0.0
 32
0.0
 13
1.0
 23
0.0
 33
0.0
 40
0.0
 40
0.0
 40
0.0
 40
0.0
 40
0.1250000000000002
 40
0.1250000000000002
 40
0.2500000000000003
 40
0.2500000000000003
 40
0.5000000000000007
 40
0.5000000000000007
 40
0.750000000000001
 40
0.750000000000001
 40
0.8750000000000004
 40
0.8750000000000004
 40
0.9375000000000002
 40
0.9375000000000002
 40
1.0
 40
1.0
 40
1.0
 40
1.0
 10
194.3348022210699
 20
85.41444175816763
 30
0.0
 10
194.2560110192381
 20
85.729576004876
 30
0.0
 10
194.1395110062928
 20
86.02788387267535
 30
0.0
 10
193.8479455267679
 20
86.59822300372262
 30
0.0
 10
193.670818034431
 20
86.8723922310721
 30
0.0
 10
193.0763769081898
 20
87.64322617458863
 30
0.0
 10
192.6048850799743
 20
88.08503595504436
 30
0.0
 10
191.5553943571491
 20
88.86654907361158
 30
0.0
 10
190.9925692252642
 20
89.19331273541505
 30
0.0
 10
190.1103269231076
 20
89.60523977046853
 30
0.0
 10
189.8093547413658
 20
89.72948197334668
 30
0.0
 10
189.3479062987682
 20
89.89696229889249
 30
0.0
 10
189.1923001192638
 20
89.94966726024767
 30
0.0
 10
188.8782545199517
 20
90.04857882510494
 30
0.0
 10
188.7188790120696
 20
90.09502398320527
 30
0.0
 10
188.5611901525995
 20
90.13740325508118
 30
0.0
  0
SPLINE
  5
28C
330
1F
100
AcDbEntity
  8
0
  6
Continuous
 62
     7
370
    15
100
AcDbSpline
210
0.0
220
0.0
230
1.0
 70
     8
 71
     3
 72
    16
 73
    12
 74
     0
 42
0.00000001
 43
0.00000001
 12
1.0
 22
0.0
 32
0.0
 13
1.0
 23
0.0
 33
0.0
 40
0.0
 40
0.0
 40
0.0
 40
0.0
 40
0.1390578297596974
 40
0.2788231197216466
 40
0.418460974733136
 40
0.5575033762691395
 40
0.6959520697306864
 40
0.7837582379360833
 40
0.8716997954652497
 40
0.9593945250660469
 40
1.0
 40
1.0
 40
1.0
 40
1.0
 10
303.1085117765221
 20
167.276594588115
 30
0.0
 10
303.0340942378542
 20
167.1432588553976
 30
0.0
 10
302.8848805594209
 20
166.8759090410733
 30
0.0
 10
302.6414393958859
 20
166.497606608974
 30
0.0
 10
302.380910998198
 20
166.142858243664
 30
0.0
 10
302.1010756062792
 20
165.8209662769106
 30
0.0
 10
301.8377916460602
 20
165.5737647453129
 30
0.0
 10
301.5985050147474
 20
165.3917367926311
 30
0.0
 10
301.3889413209961
 20
165.2662646576167
 30
0.0
 10
301.2114286288198
 20
165.1807345426494
 30
0.0
 10
301.1022867312812
 20
165.1531255009135
 30
0.0
 10
301.0677446305821
 20
165.1443875705554
 30
0.0
  0
ARC
  5
28D
330
1F
100
AcDbEntity
  8
0
  6
Continuous
 62
     7
370
    15
100
AcDbCircle
 10
344.4184194284
 20
144.8602717453
 30
0.0
 40
47.0000000000002
100
AcDbArc
 50
203.7151082943
 51
208.4859366845
  0
ARC
  5
28E
330
1F
100
AcDbEntity
  8
0
  6
Continuous
 62
     7
370
    15
100
AcDbCircle
 10
344.4184194284
 20
144.8602717453
 30
0.0
 40
47.00000000000018
100
AcDbArc
 50
151.5140633155
 51
156.2848917057
  0
SPLINE
  5
28F
330
1F
100
AcDbEntity
  8
0
  6
Continuous
 62
     7
370
    15
100
AcDbSpline
210
0.0
220
0.0
230
1.0
 70
     8
 71
     3
 72
    16
 73
    12
 74
     0
 42
0.00000001
 43
0.00000001
 12
1.0
 22
0.0
 32
0.0
 13
1.0
 23
0.0
 33
0.0
 40
0.0
 40
0.0
 40
0.0
 40
0.0
 40
0.1390671169754081
 40
0.2788417414020111
 40
0.4184889223671925
 40
0.5575406100885062
 40
0.695998550083551
 40
0.7838105825745209
 40
0.8717580134314682
 40
0.95945859987522
 40
1.0
 40
1.0
 40
1.0
 40
1.0
 10
303.1085117765221
 20
122.4439489024187
 30
0.0
 10
303.0340942377931
 20
122.5772846347659
 30
0.0
 10
302.8848805592373
 20
122.8446344483482
 30
0.0
 10
302.6414393966245
 20
123.2229368860329
 30
0.0
 10
302.3809109954365
 20
123.5776852301449
 30
0.0
 10
302.1010756165214
 20
123.8995772756545
 30
0.0
 10
301.8377916138903
 20
124.1467785503877
 30
0.0
 10
301.598505087213
 20
124.328807136781
 30
0.0
 10
301.3889410462975
 20
124.454277169239
 30
0.0
 10
301.2114842409581
 20
124.5397873218941
 30
0.0
 10
301.1023995854746
 20
124.5673846090311
 30
0.0
 10
301.0679144314017
 20
124.576108995561
 30
0.0
  0
LINE
  5
290
330
1F
100
AcDbEntity
  8
0
  6
Continuous
 62
     7
370
    15
100
AcDbLine
 10
371.6564427575
 20
144.8602717453
 30
0.0
 11
371.6564427575
 21
78.3602717453
 31
0.0
  0
LINE
  5
291
330
1F
100
AcDbEntity
  8
0
  6
Continuous
 62
     7
370
    15
100
AcDbLine
 10
371.6564427575
 20
211.3602717453
 30
0.0
 11
371.6564427575
 21
144.8602717453
 31
0.0
  0
LINE
  5
292
330
1F
100
AcDbEntity
  8
0
  6
Continuous
 62
     7
370
    15
100
AcDbLine
 10
111.6564427575
 20
144.8602717453
 30
0.0
 11
111.6564427575
 21
78.3602717453
 31
0.0
  0
LINE
  5
293
330
1F
100
AcDbEntity
  8
0
  6
Continuous
 62
     7
370
    15
100
AcDbLine
 10
111.6564427575
 20
211.3602717453
 30
0.0
 11
111.6564427575
 21
144.8602717453
 31
0.0
  0
LINE
  5
294
330
1F
100
AcDbEntity
  8
0
  6
Continuous
 62
     8
370
     0
100
AcDbLine
 10
241.8274582713
 20
204.551630979
 30
0.0
 11
235.4634972406
 21
204.551630979
 31
0.0
  0
LINE
  5
295
330
1F
100
AcDbEntity
  8
0
  6
Continuous
 62
     8
370
     0
100
AcDbLine
 10
235.4634972406
 20
85.1689125116
 30
0.0
 11
241.8274582713
 21
85.1689125116
 31
0.0
  0
ARC
  5
296
330
1F
100
AcDbEntity
  8
0
  6
Continuous
 62
     8
370
     0
100
AcDbCircle
 10
217.5703626856
 20
125.6058948826
 30
0.0
 40
33.3173880880515
100
AcDbArc
 50
310.9908773625
 51
323.3387592877
  0
ARC
  5
297
330
1F
100
AcDbEntity
  8
0
  6
Continuous
 62
     8
370
     0
100
AcDbCircle
 10
217.6306616545
 20
164.1705548797
 30
0.0
 40
33.23563798966913
100
AcDbArc
 50
36.6459953249
 51
49.0243680249
  0
LWPOLYLINE
  5
298
330
1F
100
AcDbEntity
  8
0
  6
Continuous
 62
     8
370
     0
100
AcDbPolyline
 90
       59
 70
   128
 43
0.0
 10
282.493717437
 20
184.0078822237
 10
281.9379660987
 20
184.5325868882
 10
281.3739326352
 20
185.040777134
 10
280.8018382841
 20
185.5322536274
 10
280.221907445
 20
186.0068235906
 10
279.6343675912
 20
186.4643008774
 10
279.0394491806
 20
186.9045060458
 10
278.4373855652
 20
187.3272664288
 10
277.8284128998
 20
187.732416202
 10
277.2127700491
 20
188.1197964485
 10
276.5906984941
 20
188.4892552216
 10
275.9624422377
 20
188.8406476039
 10
275.3282477083
 20
189.1738357645
 10
274.6883636638
 20
189.4886890129
 10
274.0430410936
 20
189.7850838505
 10
273.3925331205
 20
190.0629040187
 10
272.7370949011
 20
190.3220405448
 10
272.0769835259
 20
190.5623917844
 10
271.4124579183
 20
190.7838634617
 10
270.7437787335
 20
190.9863687062
 10
270.0712082554
 20
191.1698280867
 10
269.3950102946
 20
191.3341696428
 10
268.7154500844
 20
191.4793289127
 10
268.0327941771
 20
191.605248959
 10
267.3473103389
 20
191.7118803904
 10
266.6592674455
 20
191.7991813816
 10
265.9689353764
 20
191.8671176895
 10
265.2765849089
 20
191.9156626666
 10
264.582487612
 20
191.9447972715
 10
263.88691574
 20
191.9545100764
 10
263.1901421253
 20
191.9447972715
 10
262.4924400721
 20
191.9156626666
 10
261.7940832484
 20
191.8671176895
 10
261.0953455793
 20
191.7991813816
 10
260.3965011391
 20
191.7118803904
 10
259.697824044
 20
191.605248959
 10
258.9995883446
 20
191.4793289127
 10
258.3020679184
 20
191.3341696428
 10
257.6055363624
 20
191.1698280867
 10
256.9102668855
 20
190.9863687062
 10
256.2165322017
 20
190.7838634617
 10
255.524604423
 20
190.5623917844
 10
254.8347549526
 20
190.3220405448
 10
254.1472543787
 20
190.0629040187
 10
253.4623723678
 20
189.7850838505
 10
252.7803775595
 20
189.4886890129
 10
252.101537461
 20
189.1738357645
 10
251.426118342
 20
188.8406476039
 10
250.7543851303
 20
188.4892552216
 10
250.0866013079
 20
188.1197964485
 10
249.4230288079
 20
187.732416202
 10
248.7639279114
 20
187.3272664288
 10
248.1095571454
 20
186.9045060458
 10
247.4601731817
 20
186.4643008774
 10
246.8160307362
 20
186.0068235906
 10
246.1773824687
 20
185.5322536274
 10
245.5444788838
 20
185.040777134
 10
244.9175682331
 20
184.5325868882
 10
244.2968964174
 20
184.0078822237
  0
LWPOLYLINE
  5
299
330
1F
100
AcDbEntity
  8
0
  6
Continuous
 62
     8
370
     0
100
AcDbPolyline
 90
        3
 70
   128
 43
0.0
 10
281.5039583957
 20
185.082834712
 10
281.9012353264
 20
184.6598478872
 10
282.493717437
 20
184.0078822237
  0
LWPOLYLINE
  5
29A
330
1F
100
AcDbEntity
  8
0
  6
Continuous
 62
     8
370
     0
100
AcDbPolyline
 90
        3
 70
   128
 43
0.0
 10
282.493717437
 20
105.7126612668
 10
281.9012353264
 20
105.0606956034
 10
281.4038633081
 20
104.5328848909
  0
LWPOLYLINE
  5
29B
330
1F
100
AcDbEntity
  8
0
  6
Continuous
 62
     8
370
     0
100
AcDbPolyline
 90
       59
 70
   128
 43
0.0
 10
244.2968964174
 20
105.7126612668
 10
244.9175682331
 20
105.1879566023
 10
245.5444788838
 20
104.6797663566
 10
246.1773824687
 20
104.1882898632
 10
246.8160307362
 20
103.7137198999
 10
247.4601731817
 20
103.2562426132
 10
248.1095571454
 20
102.8160374448
 10
248.7639279114
 20
102.3932770618
 10
249.4230288079
 20
101.9881272886
 10
250.0866013079
 20
101.600747042
 10
250.7543851303
 20
101.2312882689
 10
251.426118342
 20
100.8798958867
 10
252.101537461
 20
100.5467077261
 10
252.7803775595
 20
100.2318544776
 10
253.4623723678
 20
99.93545964
 10
254.1472543787
 20
99.6576394718
 10
254.8347549526
 20
99.3985029457
 10
255.524604423
 20
99.1581517061
 10
256.2165322017
 20
98.9366800288
 10
256.9102668855
 20
98.7341747844
 10
257.6055363624
 20
98.5507154038
 10
258.3020679184
 20
98.3863738478
 10
258.9995883446
 20
98.2412145778
 10
259.697824044
 20
98.1152945315
 10
260.3965011391
 20
98.0086631001
 10
261.0953455793
 20
97.9213621089
 10
261.7940832484
 20
97.853425801
 10
262.4924400721
 20
97.8048808239
 10
263.1901421253
 20
97.775746219
 10
263.88691574
 20
97.7660334141
 10
264.582487612
 20
97.775746219
 10
265.2765849089
 20
97.8048808239
 10
265.9689353764
 20
97.853425801
 10
266.6592674455
 20
97.9213621089
 10
267.3473103389
 20
98.0086631001
 10
268.0327941771
 20
98.1152945315
 10
268.7154500844
 20
98.2412145778
 10
269.3950102946
 20
98.3863738478
 10
270.0712082554
 20
98.5507154038
 10
270.7437787335
 20
98.7341747844
 10
271.4124579183
 20
98.9366800288
 10
272.0769835259
 20
99.1581517061
 10
272.7370949011
 20
99.3985029457
 10
273.3925331205
 20
99.6576394718
 10
274.0430410936
 20
99.93545964
 10
274.6883636638
 20
100.2318544776
 10
275.3282477083
 20
100.5467077261
 10
275.9624422377
 20
100.8798958867
 10
276.5906984941
 20
101.2312882689
 10
277.2127700491
 20
101.600747042
 10
277.8284128998
 20
101.9881272886
 10
278.4373855652
 20
102.3932770618
 10
279.0394491806
 20
102.8160374448
 10
279.6343675912
 20
103.2562426132
 10
280.221907445
 20
103.7137198999
 10
280.8018382841
 20
104.1882898632
 10
281.3739326352
 20
104.6797663566
 10
281.9379660987
 20
105.1879566023
 10
282.493717437
 20
105.7126612668
  0
SPLINE
  5
29C
330
1F
100
AcDbEntity
  8
0
  6
Continuous
 62
     8
370
     0
100
AcDbSpline
210
0.0
220
0.0
230
1.0
 70
     8
 71
     3
 72
     8
 73
     4
 74
     0
 42
0.00000001
 43
0.00000001
 12
1.0
 22
0.0
 32
0.0
 13
1.0
 23
0.0
 33
0.0
 40
0.0
 40
0.0
 40
0.0
 40
0.0
 40
1.0
 40
1.0
 40
1.0
 40
1.0
 10
232.6244384581072
 20
203.0599231751025
 30
0.0
 10
228.6136139710912
 20
201.9140115254291
 30
0.0
 10
224.603850249708
 20
200.7560046952954
 30
0.0
 10
220.5953208179796
 20
199.5832296785782
 30
0.0
  0
SPLINE
  5
29D
330
1F
100
AcDbEntity
  8
0
  6
Continuous
 62
     8
370
     0
100
AcDbSpline
210
0.0
220
0.0
230
1.0
 70
     8
 71
     3
 72
     8
 73
     4
 74
     0
 42
0.00000001
 43
0.00000001
 12
1.0
 22
0.0
 32
0.0
 13
1.0
 23
0.0
 33
0.0
 40
0.0
 40
0.0
 40
0.0
 40
0.0
 40
1.0
 40
1.0
 40
1.0
 40
1.0
 10
232.6244384581072
 20
86.66062031543113
 30
0.0
 10
228.6136139710912
 20
87.80653196510451
 30
0.0
 10
224.603850249708
 20
88.96453879523821
 30
0.0
 10
220.5953208179796
 20
90.13731381195544
 30
0.0
  0
SPLINE
  5
29E
330
1F
100
AcDbEntity
  8
0
  6
Continuous
 62
     8
370
     0
100
AcDbSpline
210
0.0
220
0.0
230
1.0
 70
     8
 71
     3
 72
     9
 73
     5
 74
     0
 42
0.00000001
 43
0.00000001
 12
1.0
 22
0.0
 32
0.0
 13
1.0
 23
0.0
 33
0.0
 40
0.0
 40
0.0
 40
0.0
 40
0.0
 40
0.508901750656198
 40
1.0
 40
1.0
 40
1.0
 40
1.0
 10
220.5953208179796
 20
90.13731381195544
 30
0.0
 10
221.0300234775238
 20
89.83990801747069
 30
0.0
 10
221.8842210883273
 20
89.25550092100995
 30
0.0
 10
222.7539807690393
 20
88.72808531974577
 30
0.0
 10
223.1811182255868
 20
88.4690724412883
 30
0.0
  0
LINE
  5
29F
330
1F
100
AcDbEntity
  8
0
  6
Continuous
 62
     8
370
     0
100
AcDbLine
 10
224.2492304905
 20
87.4224352468
 30
0.0
 11
219.4822207196
 21
88.6969919557
 31
0.0
  0
LWPOLYLINE
  5
2A0
330
1F
100
AcDbEntity
  8
0
  6
Continuous
 62
     8
370
     0
100
AcDbPolyline
 90
      121
 70
   128
 43
0.0
 10
219.4822207196
 20
201.0235515348
 10
218.6800747503
 20
200.5908650045
 10
217.8842967169
 20
200.1352680455
 10
217.0952137579
 20
199.6569479503
 10
216.3131502593
 20
199.1561013528
 10
215.5384277217
 20
198.6329341472
 10
214.7713646275
 20
198.0876614036
 10
214.0122763107
 20
197.5205072795
 10
213.2614748268
 20
196.9317049279
 10
212.5192688247
 20
196.3214964008
 10
211.7859634196
 20
195.6901325504
 10
211.0618600679
 20
195.0378729257
 10
210.3472564431
 20
194.3649856657
 10
209.6424463134
 20
193.6717473893
 10
208.9477194209
 20
192.9584430816
 10
208.2633613626
 20
192.2253659766
 10
207.589653473
 20
191.4728174368
 10
206.9268727083
 20
190.7011068293
 10
206.2752915328
 20
189.9105513985
 10
205.6351778065
 20
189.1014761358
 10
205.0067946755
 20
188.274213646
 10
204.3904004632
 20
187.4291040105
 10
203.7862485649
 20
186.5664946474
 10
203.1945873427
 20
185.6867401692
 10
202.6156600241
 20
184.7902022361
 10
202.0497046018
 20
183.8772494083
 10
201.496953736
 20
182.9482569937
 10
200.9576346581
 20
182.0036068943
 10
200.4319690784
 20
181.0436874485
 10
199.920173094
 20
180.068893272
 10
199.4224571004
 20
179.0796250954
 10
198.9390257048
 20
178.0762895995
 10
198.4700776424
 20
177.0592992479
 10
198.015805694
 20
176.0290721178
 10
197.5763966076
 20
174.9860317277
 10
197.1520310209
 20
173.9306068638
 10
196.7428833874
 20
172.8632314032
 10
196.3491219046
 20
171.7843441361
 10
195.970908445
 20
170.6943885849
 10
195.6083984891
 20
169.5938128221
 10
195.2617410622
 20
168.4830692862
 10
194.9310786726
 20
167.3626145955
 10
194.616547253
 20
166.2329093605
 10
194.3182761049
 20
165.0944179946
 10
194.0363878455
 20
163.947608523
 10
193.7709983567
 20
162.7929523905
 10
193.5222167384
 20
161.6309242675
 10
193.2901452626
 20
160.4620018552
 10
193.0748793323
 20
159.2866656887
 10
192.8765074417
 20
158.1053989399
 10
192.6951111399
 20
156.9186872187
 10
192.5307649977
 20
155.7270183734
 10
192.3835365764
 20
154.5308822901
 10
192.2534864006
 20
153.3307706914
 10
192.140667933
 20
152.1271769342
 10
192.0451275523
 20
150.9205958067
 10
191.9669045346
 20
149.7115233255
 10
191.9060310366
 20
148.5004565312
 10
191.862532083
 20
147.2878932843
 10
191.836425556
 20
146.0743320603
 10
191.8277221877
 20
144.8602717453
 10
191.836425556
 20
143.6462114302
 10
191.862532083
 20
142.4326502063
 10
191.9060310366
 20
141.2200869593
 10
191.9669045346
 20
140.009020165
 10
192.0451275523
 20
138.7999476838
 10
192.140667933
 20
137.5933665564
 10
192.2534864006
 20
136.3897727991
 10
192.3835365764
 20
135.1896612004
 10
192.5307649977
 20
133.9935251171
 10
192.6951111399
 20
132.8018562718
 10
192.8765074417
 20
131.6151445506
 10
193.0748793323
 20
130.4338778018
 10
193.2901452626
 20
129.2585416353
 10
193.5222167384
 20
128.089619223
 10
193.7709983567
 20
126.9275911001
 10
194.0363878455
 20
125.7729349676
 10
194.3182761049
 20
124.626125496
 10
194.616547253
 20
123.48763413
 10
194.9310786726
 20
122.3579288951
 10
195.2617410622
 20
121.2374742044
 10
195.6083984891
 20
120.1267306684
 10
195.970908445
 20
119.0261549057
 10
196.3491219046
 20
117.9361993544
 10
196.7428833874
 20
116.8573120873
 10
197.1520310209
 20
115.7899366268
 10
197.5763966076
 20
114.7345117628
 10
198.015805694
 20
113.6914713727
 10
198.4700776424
 20
112.6612442426
 10
198.9390257048
 20
111.644253891
 10
199.4224571004
 20
110.6409183951
 10
199.920173094
 20
109.6516502185
 10
200.4319690784
 20
108.6768560421
 10
200.9576346581
 20
107.7169365963
 10
201.496953736
 20
106.7722864968
 10
202.0497046018
 20
105.8432940823
 10
202.6156600241
 20
104.9303412544
 10
203.1945873427
 20
104.0338033214
 10
203.7862485649
 20
103.1540488431
 10
204.3904004632
 20
102.2914394801
 10
205.0067946755
 20
101.4463298445
 10
205.6351778065
 20
100.6190673547
 10
206.2752915328
 20
99.809992092
 10
206.9268727083
 20
99.0194366612
 10
207.589653473
 20
98.2477260537
 10
208.2633613626
 20
97.4951775139
 10
208.9477194209
 20
96.7621004089
 10
209.6424463134
 20
96.0487961012
 10
210.3472564431
 20
95.3555578248
 10
211.0618600679
 20
94.6826705648
 10
211.7859634196
 20
94.0304109402
 10
212.5192688247
 20
93.3990470898
 10
213.2614748268
 20
92.7888385627
 10
214.0122763107
 20
92.200036211
 10
214.7713646275
 20
91.632882087
 10
215.5384277217
 20
91.0876093434
 10
216.3131502593
 20
90.5644421377
 10
217.0952137579
 20
90.0635955402
 10
217.8842967169
 20
89.5852754451
 10
218.6800747503
 20
89.1296784861
 10
219.4822207196
 20
88.6969919557
  0
LINE
  5
2A1
330
1F
100
AcDbEntity
  8
0
  6
Continuous
 62
     8
370
     0
100
AcDbLine
 10
224.2492304905
 20
202.2981082437
 30
0.0
 11
219.4822207196
 21
201.0235515348
 31
0.0
  0
SPLINE
  5
2A2
330
1F
100
AcDbEntity
  8
0
  6
Continuous
 62
     8
370
     0
100
AcDbSpline
210
0.0
220
0.0
230
1.0
 70
     8
 71
     3
 72
     9
 73
     5
 74
     0
 42
0.00000001
 43
0.00000001
 12
1.0
 22
0.0
 32
0.0
 13
1.0
 23
0.0
 33
0.0
 40
0.0
 40
0.0
 40
0.0
 40
0.0
 40
0.508901750656182
 40
1.0
 40
1.0
 40
1.0
 40
1.0
 10
220.5953208179796
 20
199.5832296785782
 30
0.0
 10
221.0300234775239
 20
199.8806354730629
 30
0.0
 10
221.8842210883273
 20
200.4650425695237
 30
0.0
 10
222.7539807690393
 20
200.9924581707879
 30
0.0
 10
223.1811182255868
 20
201.2514710492453
 30
0.0
  0
ARC
  5
2A3
330
1F
100
AcDbEntity
  8
0
  6
Continuous
 62
     8
370
     0
100
AcDbCircle
 10
260.5840733241
 20
170.6305709053
 30
0.0
 40
30.43745115951146
100
AcDbArc
 50
60.6958814566
 51
119.3041185434
  0
ARC
  5
2A4
330
1F
100
AcDbEntity
  8
0
  6
Continuous
 62
     8
370
     0
100
AcDbCircle
 10
224.02824042
 20
170.4698493939
 30
0.0
 40
33.82601677496481
100
AcDbArc
 50
50.3516269777
 51
55.2067149773
  0
ARC
  5
2A5
330
1F
100
AcDbEntity
  8
0
  6
Continuous
 62
     8
370
     0
100
AcDbCircle
 10
224.02824042
 20
119.2506940966
 30
0.0
 40
33.82601677497046
100
AcDbArc
 50
304.7932850227
 51
309.6483730223
  0
ARC
  5
2A6
330
1F
100
AcDbEntity
  8
0
  6
Continuous
 62
     8
370
     0
100
AcDbCircle
 10
260.5840733241
 20
119.0899725853
 30
0.0
 40
30.43745115951137
100
AcDbArc
 50
240.6958814566
 51
299.3041185434
  0
SPLINE
  5
2A7
330
1F
100
AcDbEntity
  8
0
  6
Continuous
 62
     8
370
     0
100
AcDbSpline
210
0.0
220
0.0
230
1.0
 70
     8
 71
     3
 72
     8
 73
     4
 74
     0
 42
0.00000001
 43
0.00000001
 12
1.0
 22
0.0
 32
0.0
 13
1.0
 23
0.0
 33
0.0
 40
0.0
 40
0.0
 40
0.0
 40
0.0
 40
1.0
 40
1.0
 40
1.0
 40
1.0
 10
219.4822207195957
 20
88.69699195574587
 30
0.0
 10
217.0411572401395
 20
89.3473612074173
 30
0.0
 10
214.5672684309381
 20
89.69434608080807
 30
0.0
 10
212.058800110239
 20
89.73293791833122
 30
0.0
  0
LWPOLYLINE
  5
2A8
330
1F
100
AcDbEntity
  8
0
  6
Continuous
 62
     8
370
     0
100
AcDbPolyline
 90
      121
 70
   128
 43
0.0
 10
212.0588001102
 20
89.7329379183
 10
211.2780408265
 20
90.166783243
 10
210.5036075054
 20
90.6227415157
 10
209.7358132555
 20
91.1006283893
 10
208.9749685014
 20
91.6002506509
 10
208.2213808577
 20
92.1214063
 10
207.4753550049
 20
92.6638846296
 10
206.7371925664
 20
93.2274663121
 10
206.0071919863
 20
93.8119234877
 10
205.2856484087
 20
94.4170198564
 10
204.5728535586
 20
95.0425107736
 10
203.8690956238
 20
95.688143349
 10
203.1746591384
 20
96.3536565492
 10
202.4898248677
 20
97.0387813024
 10
201.8148696949
 20
97.7432406083
 10
201.150066509
 20
98.466749649
 10
200.4956840943
 20
99.2090159051
 10
199.8519870222
 20
99.9697392732
 10
199.2192355437
 20
100.7486121877
 10
198.5976854845
 20
101.545319745
 10
197.9875881415
 20
102.3595398309
 10
197.3891901812
 20
103.1909432507
 10
196.80273354
 20
104.0391938622
 10
196.2284553262
 20
104.9039487122
 10
195.6665877244
 20
105.7848581742
 10
195.1173579016
 20
106.6815660907
 10
194.580987915
 20
107.5937099165
 10
194.0576946226
 20
108.5209208658
 10
193.5476895955
 20
109.4628240608
 10
193.0511790322
 20
110.4190386838
 10
192.5683636753
 20
111.3891781306
 10
192.0994387302
 20
112.3728501674
 10
191.6445937865
 20
113.3696570888
 10
191.2040127412
 20
114.379195879
 10
190.777873724
 20
115.4010583747
 10
190.3663490259
 20
116.43483143
 10
189.9696050291
 20
117.4800970834
 10
189.58780214
 20
118.5364327269
 10
189.2210947239
 20
119.6034112769
 10
188.8696310432
 20
120.6806013467
 10
188.5335531971
 20
121.767567421
 10
188.212997064
 20
122.8638700322
 10
187.9080922471
 20
123.9690659376
 10
187.6189620213
 20
125.082708299
 10
187.345723284
 20
126.2043468634
 10
187.0884865075
 20
127.3335281445
 10
186.8473556944
 20
128.4697956069
 10
186.6224283354
 20
129.6126898498
 10
186.4137953702
 20
130.7617487934
 10
186.2215411505
 20
131.9165078653
 10
186.0457434061
 20
133.0765001886
 10
185.8864732131
 20
134.2412567706
 10
185.7437949656
 20
135.4103066923
 10
185.6177663493
 20
136.583177299
 10
185.5084383185
 20
137.7593943909
 10
185.4158550752
 20
138.9384824157
 10
185.3400540515
 20
140.1199646601
 10
185.2810658942
 20
141.3033634427
 10
185.2389144526
 20
142.4882003074
 10
185.2136167689
 20
143.6739962167
 10
185.205183071
 20
144.8602717453
 10
185.2136167689
 20
146.0465472738
 10
185.2389144526
 20
147.2323431831
 10
185.2810658942
 20
148.4171800478
 10
185.3400540515
 20
149.6005788305
 10
185.4158550752
 20
150.7820610748
 10
185.5084383185
 20
151.9611490996
 10
185.6177663493
 20
153.1373661916
 10
185.7437949656
 20
154.3102367982
 10
185.8864732131
 20
155.4792867199
 10
186.0457434061
 20
156.6440433019
 10
186.2215411505
 20
157.8040356253
 10
186.4137953702
 20
158.9587946972
 10
186.6224283354
 20
160.1078536407
 10
186.8473556944
 20
161.2507478836
 10
187.0884865075
 20
162.387015346
 10
187.345723284
 20
163.5161966272
 10
187.6189620213
 20
164.6378351915
 10
187.9080922471
 20
165.7514775529
 10
188.212997064
 20
166.8566734583
 10
188.5335531971
 20
167.9529760695
 10
188.8696310432
 20
169.0399421438
 10
189.2210947239
 20
170.1171322136
 10
189.58780214
 20
171.1841107636
 10
189.9696050291
 20
172.2404464071
 10
190.3663490259
 20
173.2857120605
 10
190.777873724
 20
174.3194851158
 10
191.2040127412
 20
175.3413476115
 10
191.6445937865
 20
176.3508864018
 10
192.0994387302
 20
177.3476933232
 10
192.5683636753
 20
178.3313653599
 10
193.0511790322
 20
179.3015048067
 10
193.5476895955
 20
180.2577194297
 10
194.0576946226
 20
181.1996226247
 10
194.580987915
 20
182.126833574
 10
195.1173579016
 20
183.0389773999
 10
195.6665877244
 20
183.9356853163
 10
196.2284553262
 20
184.8165947784
 10
196.80273354
 20
185.6813496283
 10
197.3891901812
 20
186.5296002399
 10
197.9875881415
 20
187.3610036596
 10
198.5976854845
 20
188.1752237455
 10
199.2192355437
 20
188.9719313028
 10
199.8519870222
 20
189.7508042173
 10
200.4956840943
 20
190.5115275854
 10
201.150066509
 20
191.2537938415
 10
201.8148696949
 20
191.9773028823
 10
202.4898248677
 20
192.6817621881
 10
203.1746591384
 20
193.3668869414
 10
203.8690956238
 20
194.0324001415
 10
204.5728535586
 20
194.6780327169
 10
205.2856484087
 20
195.3035236341
 10
206.0071919863
 20
195.9086200028
 10
206.7371925664
 20
196.4930771784
 10
207.4753550049
 20
197.056658861
 10
208.2213808577
 20
197.5991371906
 10
208.9749685014
 20
198.1202928396
 10
209.7358132555
 20
198.6199151012
 10
210.5036075054
 20
199.0978019748
 10
211.2780408265
 20
199.5537602475
 10
212.0588001102
 20
199.9876055722
  0
SPLINE
  5
2A9
330
1F
100
AcDbEntity
  8
0
  6
Continuous
 62
     8
370
     0
100
AcDbSpline
210
0.0
220
0.0
230
1.0
 70
     8
 71
     3
 72
     8
 73
     4
 74
     0
 42
0.00000001
 43
0.00000001
 12
1.0
 22
0.0
 32
0.0
 13
1.0
 23
0.0
 33
0.0
 40
0.0
 40
0.0
 40
0.0
 40
0.0
 40
1.0
 40
1.0
 40
1.0
 40
1.0
 10
219.4822207195957
 20
201.0235515347877
 30
0.0
 10
217.0411572401395
 20
200.3731822831163
 30
0.0
 10
214.5672684309381
 20
200.0261974097255
 30
0.0
 10
212.058800110239
 20
199.9876055722024
 30
0.0
  0
LINE
  5
2AA
330
1F
100
AcDbEntity
  8
0
  6
Continuous
 62
     8
370
     0
100
AcDbLine
 10
237.7061821445
 20
208.7175636443
 30
0.0
 11
244.0701431752
 21
208.7175636443
 31
0.0
  0
LINE
  5
2AB
330
1F
100
AcDbEntity
  8
0
  6
Continuous
 62
     8
370
     0
100
AcDbLine
 10
250.4834428546
 20
233.3577265201
 30
0.0
 11
239.4482790356
 21
233.3577265201
 31
0.0
  0
LINE
  5
2AC
330
1F
100
AcDbEntity
  8
0
  6
Continuous
 62
     8
370
     0
100
AcDbLine
 10
239.4482790356
 20
56.3628169704
 30
0.0
 11
250.4834428546
 21
56.3628169704
 31
0.0
  0
LINE
  5
2AD
330
1F
100
AcDbEntity
  8
0
  6
Continuous
 62
     8
370
     0
100
AcDbLine
 10
244.0701431752
 20
81.0029798462
 30
0.0
 11
237.7061821445
 21
81.0029798462
 31
0.0
  0
ARC
  5
2AE
330
1F
100
AcDbEntity
  8
0
  6
Continuous
 62
     8
370
     0
100
AcDbCircle
 10
250.818848583
 20
175.0362841386
 30
0.0
 40
38.77865717734433
100
AcDbArc
 50
109.4436678663
 51
117.3857867368
  0
SPLINE
  5
2AF
330
1F
100
AcDbEntity
  8
0
  6
Continuous
 62
     8
370
     0
100
AcDbSpline
210
0.0
220
0.0
230
1.0
 70
     8
 71
     3
 72
    17
 73
    13
 74
     0
 42
0.00000001
 43
0.00000001
 12
1.0
 22
0.0
 32
0.0
 13
1.0
 23
0.0
 33
0.0
 40
-0.0004035687005326
 40
-0.0004035687005326
 40
-0.0004035687005326
 40
-0.0004035687005326
 40
0.0
 40
0.0
 40
0.0
 40
0.0040461449395442
 40
0.0040461449395442
 40
0.0040461449395442
 40
0.0093991097167531
 40
0.0093991097167531
 40
0.0093991097167531
 40
0.0103107819413717
 40
0.0103107819413717
 40
0.0103107819413717
 40
0.0103107819413717
 10
225.2939723777545
 20
203.8592850353779
 30
0.0
 10
225.3914992902262
 20
203.8879715930457
 30
0.0
 10
225.4890261898866
 20
203.9166487662189
 30
0.0
 10
225.5865530752353
 20
203.9453166013262
 30
0.0
 10
226.5643489543939
 20
204.2327377665995
 30
0.0
 10
227.5421436587922
 20
204.5192206298499
 30
0.0
 10
228.5199357849106
 20
204.8048101724817
 30
0.0
 10
229.8135340299195
 20
205.182639080358
 30
0.0
 10
231.1071287036191
 20
205.5589049932142
 30
0.0
 10
232.4007170297308
 20
205.9337038821631
 30
0.0
 10
232.6210302661342
 20
205.9975365208456
 30
0.0
 10
232.8413433365823
 20
206.0613265913352
 30
0.0
 10
233.061656228735
 20
206.1250745429521
 30
0.0
  0
SPLINE
  5
2B0
330
1F
100
AcDbEntity
  8
0
  6
Continuous
 62
     8
370
     0
100
AcDbSpline
210
0.0
220
0.0
230
1.0
 70
     8
 71
     3
 72
    17
 73
    13
 74
     0
 42
0.00000001
 43
0.00000001
 12
1.0
 22
0.0
 32
0.0
 13
1.0
 23
0.0
 33
0.0
 40
-0.0004035687005326
 40
-0.0004035687005326
 40
-0.0004035687005326
 40
-0.0004035687005326
 40
0.0
 40
0.0
 40
0.0
 40
0.0040461449395442
 40
0.0040461449395442
 40
0.0040461449395442
 40
0.0093991097167531
 40
0.0093991097167531
 40
0.0093991097167531
 40
0.0103107819413717
 40
0.0103107819413717
 40
0.0103107819413717
 40
0.0103107819413717
 10
225.2939723777545
 20
85.86125845515566
 30
0.0
 10
225.3914992902262
 20
85.83257189748788
 30
0.0
 10
225.4890261898866
 20
85.80389472431474
 30
0.0
 10
225.5865530752353
 20
85.77522688920739
 30
0.0
 10
226.5643489543939
 20
85.48780572393407
 30
0.0
 10
227.5421436587922
 20
85.20132286068369
 30
0.0
 10
228.5199357849106
 20
84.9157333180519
 30
0.0
 10
229.8135340299195
 20
84.53790441017564
 30
0.0
 10
231.1071287036191
 20
84.16163849731936
 30
0.0
 10
232.4007170297308
 20
83.78683960837056
 30
0.0
 10
232.6210302661342
 20
83.72300696968797
 30
0.0
 10
232.8413433365823
 20
83.65921689919837
 30
0.0
 10
233.061656228735
 20
83.5954689475815
 30
0.0
  0
ARC
  5
2B1
330
1F
100
AcDbEntity
  8
0
  6
Continuous
 62
     8
370
     0
100
AcDbCircle
 10
250.818848583
 20
114.684259352
 30
0.0
 40
38.77865717736334
100
AcDbArc
 50
242.6142132632
 51
250.5563321337
  0
ELLIPSE
  5
2B2
330
1F
100
AcDbEntity
  8
0
  6
Continuous
 62
     8
370
     0
100
AcDbEllipse
 10
686.7625006454
 20
144.8602717453
 30
0.0
 11
1342.604264371476
 21
-0.1743252206694592
 31
0.0
210
0.0
220
0.0
230
1.0
 40
0.0439442537
 41
4.33223274492435
 42
4.351010514034917
  0
ELLIPSE
  5
2B3
330
1F
100
AcDbEntity
  8
0
  6
Continuous
 62
     8
370
     0
100
AcDbEllipse
 10
200.483922454
 20
144.8602717453
 30
0.0
 11
-7.815219627152855
 21
58.74520602086628
 31
0.0
210
0.0
220
0.0
230
1.0
 40
0.7008498913
 41
2.665512357286379
 42
2.75393260936541
  0
ARC
  5
2B4
330
1F
100
AcDbEntity
  8
0
  6
Continuous
 62
     8
370
     0
100
AcDbCircle
 10
159.2215875116
 20
116.1890620583
 30
0.0
 40
30.32886027681416
100
AcDbArc
 50
249.8369383876
 51
269.8769316651
  0
SPLINE
  5
2B5
330
1F
100
AcDbEntity
  8
0
  6
Continuous
 62
     8
370
     0
100
AcDbSpline
210
0.0
220
0.0
230
1.0
 70
     8
 71
     3
 72
    26
 73
    22
 74
     0
 42
0.00000001
 43
0.00000001
 12
1.0
 22
0.0
 32
0.0
 13
1.0
 23
0.0
 33
0.0
 40
0.0
 40
0.0
 40
0.0
 40
0.0
 40
0.0625000000000001
 40
0.0625000000000001
 40
0.1250000000000001
 40
0.1250000000000001
 40
0.2500000000000002
 40
0.2500000000000002
 40
0.3125000000000002
 40
0.3125000000000002
 40
0.3750000000000002
 40
0.3750000000000002
 40
0.5000000000000001
 40
0.5000000000000001
 40
0.6249999999999999
 40
0.6249999999999999
 40
0.6874999999999999
 40
0.6874999999999999
 40
0.75
 40
0.75
 40
1.0
 40
1.0
 40
1.0
 40
1.0
 10
148.7674391246082
 20
87.7188926314298
 30
0.0
 10
148.8092423144894
 20
87.89826048287753
 30
0.0
 10
148.7786280861746
 20
88.10131077053536
 30
0.0
 10
148.6301862832557
 20
88.55363866276758
 30
0.0
 10
148.51186193682
 20
88.80292810979041
 30
0.0
 10
148.0742521916434
 20
89.61957805313702
 30
0.0
 10
147.6751232738997
 20
90.25552383482363
 30
0.0
 10
147.0105460210376
 20
91.34867547940286
 30
0.0
 10
146.7765936078887
 20
91.73713559770522
 30
0.0
 10
146.2950899279229
 20
92.55770292383289
 30
0.0
 10
146.0483175474583
 20
92.98839703713385
 30
0.0
 10
145.298478019199
 20
94.3411068337391
 30
0.0
 10
144.786340211242
 20
95.32360088635953
 30
0.0
 10
143.7637352998202
 20
97.45048598128928
 30
0.0
 10
143.2529118834374
 20
98.59486619921397
 30
0.0
 10
142.4982429572173
 20
100.4369496558116
 30
0.0
 10
142.2485563245001
 20
101.0719357061011
 30
0.0
 10
141.7542441116369
 20
102.3850270445334
 30
0.0
 10
141.5091384798805
 20
103.0645315649295
 30
0.0
 10
140.3049687167202
 20
106.5567937061317
 30
0.0
 10
139.418465223426
 20
109.6251317636658
 30
0.0
 10
138.6315729583983
 20
112.9845410378797
 30
0.0
  0
ELLIPSE
  5
2B6
330
1F
100
AcDbEntity
  8
0
  6
Continuous
 62
     8
370
     0
100
AcDbEllipse
 10
135.6564427575
 20
144.8602717453
 30
0.0
 11
0.0
 21
59.0
 31
0.0
210
0.0
220
0.0
230
1.0
 40
0.0599243035
 41
4.141635059357686
 42
5.283142901411832
  0
SPLINE
  5
2B7
330
1F
100
AcDbEntity
  8
0
  6
Continuous
 62
     8
370
     0
100
AcDbSpline
210
0.0
220
0.0
230
1.0
 70
     8
 71
     3
 72
    26
 73
    22
 74
     0
 42
0.00000001
 43
0.00000001
 12
1.0
 22
0.0
 32
0.0
 13
1.0
 23
0.0
 33
0.0
 40
0.0
 40
0.0
 40
0.0
 40
0.0
 40
0.0625000000000001
 40
0.0625000000000001
 40
0.1250000000000001
 40
0.1250000000000001
 40
0.2500000000000002
 40
0.2500000000000002
 40
0.3125000000000002
 40
0.3125000000000002
 40
0.3750000000000002
 40
0.3750000000000002
 40
0.5000000000000001
 40
0.5000000000000001
 40
0.6249999999999999
 40
0.6249999999999999
 40
0.6874999999999999
 40
0.6874999999999999
 40
0.75
 40
0.75
 40
1.0
 40
1.0
 40
1.0
 40
1.0
 10
148.7674391246082
 20
202.0016508591038
 30
0.0
 10
148.8092423144894
 20
201.8222830076561
 30
0.0
 10
148.7786280861746
 20
201.6192327199982
 30
0.0
 10
148.6301862832557
 20
201.166904827766
 30
0.0
 10
148.51186193682
 20
200.9176153807432
 30
0.0
 10
148.0742521916434
 20
200.1009654373966
 30
0.0
 10
147.6751232738997
 20
199.46501965571
 30
0.0
 10
147.0105460210376
 20
198.3718680111307
 30
0.0
 10
146.7765936078887
 20
197.9834078928284
 30
0.0
 10
146.2950899279229
 20
197.1628405667007
 30
0.0
 10
146.0483175474583
 20
196.7321464533998
 30
0.0
 10
145.298478019199
 20
195.3794366567945
 30
0.0
 10
144.786340211242
 20
194.3969426041741
 30
0.0
 10
143.7637352998202
 20
192.2700575092443
 30
0.0
 10
143.2529118834374
 20
191.1256772913196
 30
0.0
 10
142.4982429572173
 20
189.283593834722
 30
0.0
 10
142.2485563245001
 20
188.6486077844325
 30
0.0
 10
141.7542441116369
 20
187.3355164460001
 30
0.0
 10
141.5091384798805
 20
186.6560119256042
 30
0.0
 10
140.3049687167202
 20
183.1637497844019
 30
0.0
 10
139.418465223426
 20
180.0954117268679
 30
0.0
 10
138.6315729583983
 20
176.7360024526539
 30
0.0
  0
ARC
  5
2B8
330
1F
100
AcDbEntity
  8
0
  6
Continuous
 62
     8
370
     0
100
AcDbCircle
 10
159.2215875116
 20
173.5314814322
 30
0.0
 40
30.32886027681496
100
AcDbArc
 50
90.1230683349
 51
110.1630616124
  0
ELLIPSE
  5
2B9
330
1F
100
AcDbEntity
  8
0
  6
Continuous
 62
     8
370
     0
100
AcDbEllipse
 10
200.483922454
 20
144.8602717453
 30
0.0
 11
7.815219627152801
 21
58.74520602086628
 31
0.0
210
0.0
220
0.0
230
1.0
 40
0.7008498913
 41
0.3876600442243812
 42
0.4760802963034138
  0
ELLIPSE
  5
2BA
330
1F
100
AcDbEntity
  8
0
  6
Continuous
 62
     8
370
     0
100
AcDbEllipse
 10
686.7625006454
 20
144.8602717453
 30
0.0
 11
1342.604264371476
 21
0.1743252206694592
 31
0.0
210
0.0
220
0.0
230
1.0
 40
0.0439442537
 41
1.932174793144709
 42
1.95095256225528
  0
SPLINE
  5
2BB
330
1F
100
AcDbEntity
  8
0
  6
Continuous
 62
     8
370
     0
100
AcDbSpline
210
0.0
220
0.0
230
1.0
 70
     8
 71
     3
 72
     8
 73
     4
 74
     0
 42
0.00000001
 43
0.00000001
 12
1.0
 22
0.0
 32
0.0
 13
1.0
 23
0.0
 33
0.0
 40
0.0
 40
0.0
 40
0.0
 40
0.0
 40
1.0
 40
1.0
 40
1.0
 40
1.0
 10
214.2094577921173
 20
204.6746219814207
 30
0.0
 10
216.522322823054
 20
204.7165098250138
 30
0.0
 10
218.8124748637273
 20
205.047020981334
 30
0.0
 10
221.0804459118347
 20
205.6593951367418
 30
0.0
  0
ELLIPSE
  5
2BC
330
1F
100
AcDbEntity
  8
0
  6
Continuous
 62
     8
370
     0
100
AcDbEllipse
 10
690.1729619757
 20
144.875480203
 30
0.0
 11
1346.139782936586
 21
0.1886641321424634
 31
0.0
210
0.0
220
0.0
230
1.0
 40
0.0475431473
 41
1.932181580866653
 42
1.948013336755345
  0
LINE
  5
2BD
330
1F
100
AcDbEntity
  8
0
  6
Continuous
 62
     8
370
     0
100
AcDbLine
 10
221.0804459118
 20
205.6593951367
 30
0.0
 11
226.2904661066
 21
207.0581322694
 31
0.0
  0
ELLIPSE
  5
2BE
330
1F
100
AcDbEntity
  8
0
  6
Continuous
 62
     8
370
     0
100
AcDbEllipse
 10
690.1729619757
 20
144.8450632875
 30
0.0
 11
1346.139782936586
 21
-0.1886641321424634
 31
0.0
210
0.0
220
0.0
230
1.0
 40
0.0475431473
 41
4.335171970424282
 42
4.35100372631297
  0
SPLINE
  5
2BF
330
1F
100
AcDbEntity
  8
0
  6
Continuous
 62
     8
370
     0
100
AcDbSpline
210
0.0
220
0.0
230
1.0
 70
     8
 71
     3
 72
     8
 73
     4
 74
     0
 42
0.00000001
 43
0.00000001
 12
1.0
 22
0.0
 32
0.0
 13
1.0
 23
0.0
 33
0.0
 40
0.0
 40
0.0
 40
0.0
 40
0.0
 40
1.0
 40
1.0
 40
1.0
 40
1.0
 10
214.2094577921173
 20
85.04592150911289
 30
0.0
 10
216.522322823054
 20
85.00403366551981
 30
0.0
 10
218.8124748637273
 20
84.6735225091996
 30
0.0
 10
221.0804459118347
 20
84.06114835379178
 30
0.0
  0
LINE
  5
2C0
330
1F
100
AcDbEntity
  8
0
  6
Continuous
 62
     8
370
     0
100
AcDbLine
 10
221.0804459118
 20
84.0611483538
 30
0.0
 11
226.2904661066
 21
82.6624112211
 31
0.0
  0
ARC
  5
2C1
330
1F
100
AcDbEntity
  8
0
  6
Continuous
 62
     8
370
     0
100
AcDbCircle
 10
216.8093294351
 20
204.5384602374
 30
0.0
 40
4.415759391789161
100
AcDbArc
 50
307.2509563933
 51
14.7053775187
  0
ARC
  5
2C2
330
1F
100
AcDbEntity
  8
0
  6
Continuous
 62
     8
370
     0
100
AcDbCircle
 10
216.8093294351
 20
85.1820832531
 30
0.0
 40
4.415759391789098
100
AcDbArc
 50
345.2946224813
 51
52.7490436067
  0
ARC
  5
2C3
330
1F
100
AcDbEntity
  8
0
  6
Continuous
 62
     8
370
     0
100
AcDbCircle
 10
209.0157060312
 20
204.2208698854
 30
0.0
 40
5.213535107692713
100
AcDbArc
 50
305.7105764552
 51
4.9929680575
  0
ARC
  5
2C4
330
1F
100
AcDbEntity
  8
0
  6
Continuous
 62
     8
370
     0
100
AcDbCircle
 10
209.0157060312
 20
85.4996736052
 30
0.0
 40
5.213535107692602
100
AcDbArc
 50
355.0070319425
 51
54.2894235448
  0
LWPOLYLINE
  5
2C5
330
1F
100
AcDbEntity
  8
0
  6
Continuous
 62
     8
370
     0
100
AcDbPolyline
 90
       36
 70
   128
 43
0.0
 10
130.6564427575
 20
179.4373355634
 10
130.6663898265
 20
179.2254300971
 10
130.6961914559
 20
179.0143677662
 10
130.7457290702
 20
178.8049883511
 10
130.8148055677
 20
178.5981249366
 10
130.9031461048
 20
178.3946005966
 10
131.01039919
 20
178.1952251192
 10
131.1361380816
 20
178.0007917851
 10
131.2798624862
 20
177.8120742111
 10
131.4410005493
 20
177.6298232718
 10
131.6189111302
 20
177.4547641124
 10
131.8128863535
 20
177.287593263
 10
132.022154425
 20
177.1289758676
 10
132.2458827034
 20
176.9795430375
 10
132.4831810122
 20
176.8398893401
 10
132.7331051826
 20
176.7105704335
 10
132.9946608091
 20
176.5921008553
 10
133.2668072072
 20
176.4849519755
 10
133.5484615532
 20
176.3895501211
 10
133.838503193
 20
176.3062748795
 10
134.1357781009
 20
176.2354575886
 10
134.4391034714
 20
176.1773800183
 10
134.747272425
 20
176.132273249
 10
135.0590588107
 20
176.100316753
 10
135.3732220841
 20
176.0816376795
 10
135.6885122437
 20
176.0763103494
 10
136.0036748044
 20
176.0843559593
 10
136.3174557886
 20
176.1057424969
 10
136.6286067159
 20
176.1403848691
 10
136.9358895704
 20
176.1881452397
 10
137.2380817266
 20
176.2488335785
 10
137.5339808141
 20
176.322208417
 10
137.8224095012
 20
176.4079778095
 10
138.1022201801
 20
176.5058004942
 10
138.3722995322
 20
176.6152872515
 10
138.6315729584
 20
176.7360024527
  0
LWPOLYLINE
  5
2C6
330
1F
100
AcDbEntity
  8
0
  6
Continuous
 62
     8
370
     0
100
AcDbPolyline
 90
       36
 70
   128
 43
0.0
 10
130.6564427575
 20
110.2832079271
 10
130.6663898265
 20
110.4951133934
 10
130.6961914559
 20
110.7061757244
 10
130.7457290702
 20
110.9155551394
 10
130.8148055677
 20
111.1224185539
 10
130.9031461048
 20
111.325942894
 10
131.01039919
 20
111.5253183713
 10
131.1361380816
 20
111.7197517054
 10
131.2798624862
 20
111.9084692794
 10
131.4410005493
 20
112.0907202187
 10
131.6189111302
 20
112.2657793781
 10
131.8128863535
 20
112.4329502276
 10
132.022154425
 20
112.591567623
 10
132.2458827034
 20
112.7410004531
 10
132.4831810122
 20
112.8806541504
 10
132.7331051826
 20
113.009973057
 10
132.9946608091
 20
113.1284426352
 10
133.2668072072
 20
113.235591515
 10
133.5484615532
 20
113.3309933694
 10
133.838503193
 20
113.414268611
 10
134.1357781009
 20
113.4850859019
 10
134.4391034714
 20
113.5431634723
 10
134.747272425
 20
113.5882702415
 10
135.0590588107
 20
113.6202267376
 10
135.3732220841
 20
113.638905811
 10
135.6885122437
 20
113.6442331411
 10
136.0036748044
 20
113.6361875313
 10
136.3174557886
 20
113.6148009936
 10
136.6286067159
 20
113.5801586214
 10
136.9358895704
 20
113.5323982508
 10
137.2380817266
 20
113.471709912
 10
137.5339808141
 20
113.3983350735
 10
137.8224095012
 20
113.3125656811
 10
138.1022201801
 20
113.2147429964
 10
138.3722995322
 20
113.105256239
 10
138.6315729584
 20
112.9845410379
  0
LWPOLYLINE
  5
2C7
330
1F
100
AcDbEntity
  8
0
  6
Continuous
 62
     8
370
     0
100
AcDbPolyline
 90
       26
 70
   128
 43
0.0
 10
130.6564427575
 20
110.2832079271
 10
130.6663091154
 20
110.4555183875
 10
130.6958692509
 20
110.6271488172
 10
130.7450065039
 20
110.7974218694
 10
130.8135269519
 20
110.965665554
 10
130.901160176
 20
111.1312158902
 10
131.0075603281
 20
111.2934195264
 10
131.1323074952
 20
111.4516363189
 10
131.2749093573
 20
111.6052418584
 10
131.43480313
 20
111.7536299339
 10
131.6113577856
 20
111.8962149255
 10
131.8038765436
 20
112.0324341154
 10
132.0115996204
 20
112.1617499087
 10
132.2337072279
 20
112.283651955
 10
132.4693228088
 20
112.3976591627
 10
132.717516496
 20
112.5033215973
 10
132.9773087826
 20
112.6002222575
 10
133.247674387
 20
112.6879787207
 10
133.5275462997
 20
112.7662446523
 10
133.8158199941
 20
112.8347111723
 10
134.1113577856
 20
112.8931080746
 10
134.4129933217
 20
112.9412048934
 10
134.7195361846
 20
112.9788118125
 10
135.0297765897
 20
113.0057804146
 10
135.3424901599
 20
113.0220042669
 10
135.6564427575
 20
113.0274193412
  0
LINE
  5
2C8
330
1F
100
AcDbEntity
  8
0
  6
Continuous
 62
     8
370
     0
100
AcDbLine
 10
135.6564427575
 20
113.0274193412
 30
0.0
 11
135.6564427575
 21
86.8602717453
 31
0.0
  0
LINE
  5
2C9
330
1F
100
AcDbEntity
  8
0
  6
Continuous
 62
     8
370
     0
100
AcDbLine
 10
135.6564427575
 20
202.8602717453
 30
0.0
 11
135.6564427575
 21
176.6931241493
 31
0.0
  0
LWPOLYLINE
  5
2CA
330
1F
100
AcDbEntity
  8
0
  6
Continuous
 62
     8
370
     0
100
AcDbPolyline
 90
       26
 70
   128
 43
0.0
 10
130.6564427575
 20
179.4373355634
 10
130.6663091154
 20
179.2650251031
 10
130.6958692509
 20
179.0933946733
 10
130.7450065039
 20
178.9231216212
 10
130.8135269519
 20
178.7548779365
 10
130.901160176
 20
178.5893276003
 10
131.0075603281
 20
178.4271239641
 10
131.1323074952
 20
178.2689071716
 10
131.2749093573
 20
178.1153016322
 10
131.43480313
 20
177.9669135567
 10
131.6113577856
 20
177.824328565
 10
131.8038765436
 20
177.6881093751
 10
132.0115996204
 20
177.5587935818
 10
132.2337072279
 20
177.4368915355
 10
132.4693228088
 20
177.3228843279
 10
132.717516496
 20
177.2172218933
 10
132.9773087826
 20
177.120321233
 10
133.247674387
 20
177.0325647698
 10
133.5275462997
 20
176.9542988382
 10
133.8158199941
 20
176.8858323183
 10
134.1113577856
 20
176.8274354159
 10
134.4129933217
 20
176.7793385971
 10
134.7195361846
 20
176.741731678
 10
135.0297765897
 20
176.714763076
 10
135.3424901599
 20
176.6985392237
 10
135.6564427575
 20
176.6931241493
  0
ARC
  5
2CB
330
1F
100
AcDbEntity
  8
0
  6
Continuous
 62
     8
370
     0
100
AcDbCircle
 10
137.0417486755
 20
183.8098622837
 30
0.0
 40
7.250312693955891
100
AcDbArc
 50
258.9848564484
 51
282.6665507644
  0
ARC
  5
2CC
330
1F
100
AcDbEntity
  8
0
  6
Continuous
 62
     8
370
     0
100
AcDbCircle
 10
137.0417486755
 20
105.9106812068
 30
0.0
 40
7.250312693955649
100
AcDbArc
 50
77.3334492356
 51
101.0151435516
  0
LINE
  5
2CD
330
1F
100
AcDbEntity
  8
0
  6
Continuous
 62
     8
370
     0
100
AcDbLine
 10
347.6564427575
 20
97.8602717453
 30
0.0
 11
347.6564427575
 21
191.8602717453
 31
0.0
  0
SPLINE
  5
2CE
330
1F
100
AcDbEntity
  8
0
  6
Continuous
 62
     8
370
     0
100
AcDbSpline
210
0.0
220
0.0
230
1.0
 70
     8
 71
     3
 72
    28
 73
    24
 74
     0
 42
0.00000001
 43
0.00000001
 12
1.0
 22
0.0
 32
0.0
 13
1.0
 23
0.0
 33
0.0
 40
0.0
 40
0.0
 40
0.0
 40
0.0
 40
0.2499999999999994
 40
0.2499999999999994
 40
0.3124999999999993
 40
0.3124999999999993
 40
0.3749999999999993
 40
0.3749999999999993
 40
0.4999999999999994
 40
0.4999999999999994
 40
0.6249999999999996
 40
0.6249999999999996
 40
0.6874999999999997
 40
0.6874999999999997
 40
0.7499999999999997
 40
0.7499999999999997
 40
0.8124999999999998
 40
0.8124999999999998
 40
0.8749999999999999
 40
0.8749999999999999
 40
0.9374999999999999
 40
0.9374999999999999
 40
1.0
 40
1.0
 40
1.0
 40
1.0
 10
135.6564427575062
 20
176.6931241493079
 30
0.0
 10
136.5649090248749
 20
180.0199132063755
 30
0.0
 10
137.5888570278225
 20
183.0625492873137
 30
0.0
 10
138.9844538561739
 20
186.5307985254135
 30
0.0
 10
139.2689388706927
 20
187.206362922532
 30
0.0
 10
139.8433014845656
 20
188.5123931187363
 30
0.0
 10
140.133767916868
 20
189.1443367643628
 30
0.0
 10
141.0130424945897
 20
190.9787104104222
 30
0.0
 10
141.609946218257
 20
192.119834340863
 30
0.0
 10
142.8110021857767
 20
194.2438907342399
 30
0.0
 10
143.4155083087859
 20
195.2268129573698
 30
0.0
 10
144.3091282619411
 20
196.5830138829506
 30
0.0
 10
144.6047027941556
 20
197.015348010784
 30
0.0
 10
145.1856802397396
 20
197.8401797641555
 30
0.0
 10
145.470543082563
 20
198.2317995455376
 30
0.0
 10
146.0160609496319
 20
198.9674669793261
 30
0.0
 10
146.2774825171839
 20
199.3124936071714
 30
0.0
 10
146.7649415107915
 20
199.9574035808008
 30
0.0
 10
146.9911460532746
 20
200.2572898986904
 30
0.0
 10
147.3875924809286
 20
200.8119261850983
 30
0.0
 10
147.5581868051804
 20
201.0666849210284
 30
0.0
 10
147.807502798647
 20
201.530449126587
 30
0.0
 10
147.8870150879218
 20
201.7394800182555
 30
0.0
 10
147.8870150879218
 20
201.9247859423513
 30
0.0
  0
ARC
  5
2CF
330
1F
100
AcDbEntity
  8
0
  6
Continuous
 62
     8
370
     0
100
AcDbCircle
 10
147.8871024351
 20
207.0044824263
 30
0.0
 40
5.079696484708506
100
AcDbArc
 50
269.9990147791
 51
279.9800333963
  0
SPLINE
  5
2D0
330
1F
100
AcDbEntity
  8
0
  6
Continuous
 62
     8
370
     0
100
AcDbSpline
210
0.0
220
0.0
230
1.0
 70
     8
 71
     3
 72
    28
 73
    24
 74
     0
 42
0.00000001
 43
0.00000001
 12
1.0
 22
0.0
 32
0.0
 13
1.0
 23
0.0
 33
0.0
 40
0.0
 40
0.0
 40
0.0
 40
0.0
 40
0.2499999999999994
 40
0.2499999999999994
 40
0.3124999999999993
 40
0.3124999999999993
 40
0.3749999999999993
 40
0.3749999999999993
 40
0.4999999999999994
 40
0.4999999999999994
 40
0.6249999999999996
 40
0.6249999999999996
 40
0.6874999999999997
 40
0.6874999999999997
 40
0.7499999999999997
 40
0.7499999999999997
 40
0.8124999999999998
 40
0.8124999999999998
 40
0.8749999999999999
 40
0.8749999999999999
 40
0.9374999999999999
 40
0.9374999999999999
 40
1.0
 40
1.0
 40
1.0
 40
1.0
 10
135.6564427575062
 20
113.0274193412257
 30
0.0
 10
136.5649090248749
 20
109.700630284158
 30
0.0
 10
137.5888570278225
 20
106.6579942032199
 30
0.0
 10
138.9844538561739
 20
103.1897449651201
 30
0.0
 10
139.2689388706927
 20
102.5141805680016
 30
0.0
 10
139.8433014845656
 20
101.2081503717973
 30
0.0
 10
140.133767916868
 20
100.5762067261708
 30
0.0
 10
141.0130424945897
 20
98.74183308011145
 30
0.0
 10
141.609946218257
 20
97.60070914967065
 30
0.0
 10
142.8110021857767
 20
95.47665275629373
 30
0.0
 10
143.415508308786
 20
94.49373053316384
 30
0.0
 10
144.3091282619411
 20
93.13752960758296
 30
0.0
 10
144.6047027941556
 20
92.70519547974965
 30
0.0
 10
145.1856802397396
 20
91.88036372637808
 30
0.0
 10
145.470543082563
 20
91.488743944996
 30
0.0
 10
146.0160609496319
 20
90.75307651120752
 30
0.0
 10
146.2774825171839
 20
90.40804988336218
 30
0.0
 10
146.7649415107915
 20
89.76313990973283
 30
0.0
 10
146.9911460532746
 20
89.46325359184321
 30
0.0
 10
147.3875924809286
 20
88.90861730543531
 30
0.0
 10
147.5581868051804
 20
88.65385856950515
 30
0.0
 10
147.807502798647
 20
88.19009436394663
 30
0.0
 10
147.8870150879218
 20
87.98106347227808
 30
0.0
 10
147.8870150879218
 20
87.79575754818232
 30
0.0
  0
ARC
  5
2D1
330
1F
100
AcDbEntity
  8
0
  6
Continuous
 62
     8
370
     0
100
AcDbCircle
 10
147.8871024351
 20
82.7160610642
 30
0.0
 40
5.079696484704737
100
AcDbArc
 50
80.0199666037
 51
90.0009852209
  0
LINE
  5
2D2
330
1F
100
AcDbEntity
  8
0
  6
Continuous
 62
     8
370
     0
100
AcDbLine
 10
147.8870150879
 20
87.7957575482
 30
0.0
 11
147.8870150879
 21
86.8602717453
 31
0.0
  0
LINE
  5
2D3
330
1F
100
AcDbEntity
  8
0
  6
Continuous
 62
     8
370
     0
100
AcDbLine
 10
147.8870150879
 20
201.9247859424
 30
0.0
 11
147.8870150879
 21
202.8602717453
 31
0.0
  0
SPLINE
  5
2D4
330
1F
100
AcDbEntity
  8
0
  6
Continuous
 62
     8
370
     0
100
AcDbSpline
210
0.0
220
0.0
230
1.0
 70
     8
 71
     3
 72
    11
 73
     7
 74
     0
 42
0.00000001
 43
0.00000001
 12
1.0
 22
0.0
 32
0.0
 13
1.0
 23
0.0
 33
0.0
 40
0.0
 40
0.0
 40
0.0
 40
0.0
 40
0.2085267657835151
 40
0.4724120320394992
 40
0.7362768583314989
 40
1.0
 40
1.0
 40
1.0
 40
1.0
 10
294.4594671127626
 20
106.6652476942525
 30
0.0
 10
294.6278661361733
 20
106.8541806416497
 30
0.0
 10
295.009369798516
 20
107.2822033813865
 30
0.0
 10
295.5742151695692
 20
107.9896228268761
 30
0.0
 10
296.1594204626377
 20
108.7777364522621
 30
0.0
 10
296.5241223031023
 20
109.3328096695428
 30
0.0
 10
296.7064242526928
 20
109.6102717452668
 30
0.0
  0
SPLINE
  5
2D5
330
1F
100
AcDbEntity
  8
0
  6
Continuous
 62
     8
370
     0
100
AcDbSpline
210
0.0
220
0.0
230
1.0
 70
     8
 71
     3
 72
    10
 73
     6
 74
     0
 42
0.00000001
 43
0.00000001
 12
1.0
 22
0.0
 32
0.0
 13
1.0
 23
0.0
 33
0.0
 40
0.0
 40
0.0
 40
0.0
 40
0.0
 40
0.5
 40
0.5
 40
1.0
 40
1.0
 40
1.0
 40
1.0
 10
296.7064242526928
 20
109.6102717452668
 30
0.0
 10
297.8645481618698
 20
111.4233233654838
 30
0.0
 10
299.0030308058272
 20
113.3915336626138
 30
0.0
 10
301.162486201419
 20
117.6567159331256
 30
0.0
 10
302.1843477086379
 20
119.9532337442495
 30
0.0
 10
303.1085117765221
 20
122.4439489024187
 30
0.0
  0
SPLINE
  5
2D6
330
1F
100
AcDbEntity
  8
0
  6
Continuous
 62
     8
370
     0
100
AcDbSpline
210
0.0
220
0.0
230
1.0
 70
     8
 71
     3
 72
    10
 73
     6
 74
     0
 42
0.00000001
 43
0.00000001
 12
1.0
 22
0.0
 32
0.0
 13
1.0
 23
0.0
 33
0.0
 40
0.0
 40
0.0
 40
0.0
 40
0.0
 40
0.5
 40
0.5
 40
1.0
 40
1.0
 40
1.0
 40
1.0
 10
296.7064242526928
 20
180.1102717452668
 30
0.0
 10
297.8645481618698
 20
178.2972201250498
 30
0.0
 10
299.0030308058272
 20
176.3290098279198
 30
0.0
 10
301.162486201419
 20
172.063827557408
 30
0.0
 10
302.1843477086379
 20
169.7673097462842
 30
0.0
 10
303.1085117765221
 20
167.276594588115
 30
0.0
  0
SPLINE
  5
2D7
330
1F
100
AcDbEntity
  8
0
  6
Continuous
 62
     8
370
     0
100
AcDbSpline
210
0.0
220
0.0
230
1.0
 70
     8
 71
     3
 72
    11
 73
     7
 74
     0
 42
0.00000001
 43
0.00000001
 12
1.0
 22
0.0
 32
0.0
 13
1.0
 23
0.0
 33
0.0
 40
0.0
 40
0.0
 40
0.0
 40
0.0
 40
0.2087595497114293
 40
0.4725672034264681
 40
0.7363544231892167
 40
0.9999999999999999
 40
0.9999999999999999
 40
0.9999999999999999
 40
0.9999999999999999
 10
294.4587595990348
 20
183.0561025803697
 30
0.0
 10
294.6273971246786
 20
182.8669043168062
 30
0.0
 10
295.0091404461047
 20
182.4386178291751
 30
0.0
 10
295.5742162373666
 20
181.7309221112061
 30
0.0
 10
296.1594201958641
 20
180.9428066766228
 30
0.0
 10
296.5241222141938
 20
180.3877337004628
 30
0.0
 10
296.7064242526928
 20
180.1102717452668
 30
0.0
  0
ARC
  5
2D8
330
1F
100
AcDbEntity
  8
0
  6
Continuous
 62
     8
370
     0
100
AcDbCircle
 10
295.2161991132
 20
185.9795332651
 30
0.0
 40
6.055493518690544
100
AcDbArc
 50
277.3135260314
 51
284.2465390385
  0
ARC
  5
2D9
330
1F
100
AcDbEntity
  8
0
  6
Continuous
 62
     8
370
     0
100
AcDbCircle
 10
295.2161991132
 20
103.7410102254
 30
0.0
 40
6.055493518674679
100
AcDbArc
 50
75.7534609615
 51
82.6864739686
  0
LINE
  5
2DA
330
1F
100
AcDbEntity
  8
0
  6
Continuous
 62
     8
370
     0
100
AcDbLine
 10
148.7674391246
 20
202.9383967453
 30
0.0
 11
148.7674391246
 21
202.0016508591
 31
0.0
  0
LINE
  5
2DB
330
1F
100
AcDbEntity
  8
0
  6
Continuous
 62
     8
370
     0
100
AcDbLine
 10
148.7674391246
 20
86.7821467453
 30
0.0
 11
148.7674391246
 21
87.7188926314
 31
0.0
  0
LINE
  5
2DC
330
1F
100
AcDbEntity
  8
FORMAT
  6
CENTERX2
370
     0
100
AcDbLine
 10
104.9833587431
 20
144.8602717453
 30
0.0
 11
376.9493334517
 21
144.8602717453
 31
0.0
  0
ENDSEC
  0
SECTION
  2
OBJECTS
  0
DICTIONARY
  5
C
330
0
100
AcDbDictionary
281
     1
  3
ACAD_GROUP
350
D
  3
ACAD_LAYOUT
350
1A
  3
ACAD_MLINESTYLE
350
17
  3
ACAD_PLOTSETTINGS
350
19
  3
ACAD_PLOTSTYLENAME
350
E
  0
DICTIONARY
  5
D
102
{ACAD_REACTORS
330
C
102
}
330
C
100
AcDbDictionary
281
     1
  0
DICTIONARY
  5
1A
102
{ACAD_REACTORS
330
C
102
}
330
C
100
AcDbDictionary
281
     1
  3
Layout1
350
1E
  3
Layout2
350
26
  3
Model
350
22
  0
DICTIONARY
  5
17
102
{ACAD_REACTORS
330
C
102
}
330
C
100
AcDbDictionary
281
     1
  3
Standard
350
18
  0
DICTIONARY
  5
19
102
{ACAD_REACTORS
330
C
102
}
330
C
100
AcDbDictionary
281
     1
  0
ACDBDICTIONARYWDFLT
  5
E
102
{ACAD_REACTORS
330
C
102
}
330
C
100
AcDbDictionary
281
     1
  3
Normal
350
F
100
AcDbDictionaryWithDefault
340
F
  0
LAYOUT
  5
1E
102
{ACAD_REACTORS
330
1A
102
}
330
1A
100
AcDbPlotSettings
  1

  2
none_device
  4

  6

 40
0.0
 41
0.0
 42
0.0
 43
0.0
 44
0.0
 45
0.0
 46
0.0
 47
0.0
 48
0.0
 49
0.0
140
0.0
141
0.0
142
1.0
143
1.0
 70
   688
 72
     0
 73
     0
 74
     5
  7

 75
    16
147
1.0
148
0.0
149
0.0
100
AcDbLayout
  1
Layout1
 70
     1
 71
     1
 10
0.0
 20
0.0
 11
420.0
 21
297.0
 12
0.0
 22
0.0
 32
0.0
 14
1.0000000000E+20
 24
1.0000000000E+20
 34
1.0000000000E+20
 15
-1.0000000000E+20
 25
-1.0000000000E+20
 35
-1.0000000000E+20
146
0.0
 13
0.0
 23
0.0
 33
0.0
 16
1.0
 26
0.0
 36
0.0
 17
0.0
 27
1.0
 37
0.0
 76
     0
330
1B
  0
LAYOUT
  5
26
102
{ACAD_REACTORS
330
1A
102
}
330
1A
100
AcDbPlotSettings
  1

  2
none_device
  4

  6

 40
0.0
 41
0.0
 42
0.0
 43
0.0
 44
0.0
 45
0.0
 46
0.0
 47
0.0
 48
0.0
 49
0.0
140
0.0
141
0.0
142
1.0
143
1.0
 70
   688
 72
     0
 73
     0
 74
     5
  7

 75
    16
147
1.0
148
0.0
149
0.0
100
AcDbLayout
  1
Layout2
 70
     1
 71
     2
 10
0.0
 20
0.0
 11
0.0
 21
0.0
 12
0.0
 22
0.0
 32
0.0
 14
0.0
 24
0.0
 34
0.0
 15
0.0
 25
0.0
 35
0.0
146
0.0
 13
0.0
 23
0.0
 33
0.0
 16
1.0
 26
0.0
 36
0.0
 17
0.0
 27
1.0
 37
0.0
 76
     0
330
23
  0
LAYOUT
  5
22
102
{ACAD_REACTORS
330
1A
102
}
330
1A
100
AcDbPlotSettings
  1

  2
none_device
  4

  6

 40
0.0
 41
0.0
 42
0.0
 43
0.0
 44
0.0
 45
0.0
 46
0.0
 47
0.0
 48
0.0
 49
0.0
140
0.0
141
0.0
142
1.0
143
1.0
 70
  1712
 72
     0
 73
     0
 74
     0
  7

 75
     0
147
1.0
148
0.0
149
0.0
100
AcDbLayout
  1
Model
 70
     1
 71
     0
 10
0.0
 20
0.0
 11
841.0
 21
594.0
 12
0.0
 22
0.0
 32
0.0
 14
0.0
 24
0.0
 34
0.0
 15
841.0
 25
594.0
 35
0.0
146
0.0
 13
0.0
 23
0.0
 33
0.0
 16
1.0
 26
0.0
 36
0.0
 17
0.0
 27
1.0
 37
0.0
 76
     0
330
1F
331
29
  0
MLINESTYLE
  5
18
102
{ACAD_REACTORS
330
17
102
}
330
17
100
AcDbMlineStyle
  2
Standard
 70
     0
  3

 62
   256
 51
90.0
 52
90.0
 71
     2
 49
0.5
 62
   256
  6
BYLAYER
 49
-0.5
 62
   256
  6
BYLAYER
  0
ACDBPLACEHOLDER
  5
F
102
{ACAD_REACTORS
330
E
102
}
330
E
  0
ENDSEC
  0
EOF
