  0
SECTION
  2
HEADER
  9
$ACADVER
  1
AC1015
  9
$ACADMAINTVER
 70
     6
  9
$DWGCODEPAGE
  3
ANSI_1252
  9
$INSBASE
 10
0.0
 20
0.0
 30
0.0
  9
$EXTMIN
 10
0.0
 20
0.0
 30
0.0
  9
$EXTMAX
 10
841.0
 20
594.0
 30
0.0
  9
$LIMMIN
 10
0.0
 20
0.0
  9
$LIMMAX
 10
841.0
 20
594.0
  9
$ORTHOMODE
 70
     0
  9
$REGENMODE
 70
     1
  9
$FILLMODE
 70
     1
  9
$QTEXTMODE
 70
     0
  9
$MIRRTEXT
 70
     1
  9
$LTSCALE
 40
1.0
  9
$ATTMODE
 70
     1
  9
$TEXTSIZE
 40
2.5
  9
$TRACEWID
 40
1.0
  9
$TEXTSTYLE
  7
Standard
  9
$CLAYER
  8
0
  9
$CELTYPE
  6
ByLayer
  9
$CECOLOR
 62
   256
  9
$CELTSCALE
 40
1.0
  9
$DISPSILH
 70
     0
  9
$DIMSCALE
 40
1.0
  9
$DIMASZ
 40
2.5
  9
$DIMEXO
 40
1.0
  9
$DIMDLI
 40
3.75
  9
$DIMRND
 40
0.0
  9
$DIMDLE
 40
0.0
  9
$DIMEXE
 40
1.0
  9
$DIMTP
 40
0.0
  9
$DIMTM
 40
0.0
  9
$DIMTXT
 40
2.5
  9
$DIMCEN
 40
2.5
  9
$DIMTSZ
 40
0.0
  9
$DIMTOL
 70
     0
  9
$DIMLIM
 70
     0
  9
$DIMTIH
 70
     1
  9
$DIMTOH
 70
     1
  9
$DIMSE1
 70
     0
  9
$DIMSE2
 70
     0
  9
$DIMTAD
 70
     1
  9
$DIMZIN
 70
     0
  9
$DIMBLK
  1

  9
$DIMASO
 70
     1
  9
$DIMSHO
 70
     1
  9
$DIMPOST
  1

  9
$DIMAPOST
  1

  9
$DIMALT
 70
     0
  9
$DIMALTD
 70
     3
  9
$DIMALTF
 40
0.0393700787
  9
$DIMLFAC
 40
1.0
  9
$DIMTOFL
 70
     1
  9
$DIMTVP
 40
0.0
  9
$DIMTIX
 70
     0
  9
$DIMSOXD
 70
     0
  9
$DIMSAH
 70
     0
  9
$DIMBLK1
  1

  9
$DIMBLK2
  1

  9
$DIMSTYLE
  2
ISO-25
  9
$DIMCLRD
 70
     0
  9
$DIMCLRE
 70
     0
  9
$DIMCLRT
 70
     0
  9
$DIMTFAC
 40
1.0
  9
$DIMGAP
 40
1.524
  9
$DIMJUST
 70
     0
  9
$DIMSD1
 70
     0
  9
$DIMSD2
 70
     0
  9
$DIMTOLJ
 70
     0
  9
$DIMTZIN
 70
     0
  9
$DIMALTZ
 70
     0
  9
$DIMALTTZ
 70
     0
  9
$DIMUPT
 70
     0
  9
$DIMDEC
 70
     2
  9
$DIMTDEC
 70
     2
  9
$DIMALTU
 70
     2
  9
$DIMALTTD
 70
     3
  9
$DIMTXSTY
  7
Standard
  9
$DIMAUNIT
 70
     0
  9
$DIMADEC
 70
     2
  9
$DIMALTRND
 40
0.0
  9
$DIMAZIN
 70
     0
  9
$DIMDSEP
 70
    44
  9
$DIMATFIT
 70
     3
  9
$DIMFRAC
 70
     0
  9
$DIMLDRBLK
  1

  9
$DIMLUNIT
 70
     2
  9
$DIMLWD
 70
    -2
  9
$DIMLWE
 70
    -2
  9
$DIMTMOVE
 70
     0
  9
$LUNITS
 70
     2
  9
$LUPREC
 70
     2
  9
$SKETCHINC
 40
1.0
  9
$FILLETRAD
 40
10.0
  9
$AUNITS
 70
     0
  9
$AUPREC
 70
     2
  9
$MENU
  1
.
  9
$ELEVATION
 40
0.0
  9
$PELEVATION
 40
0.0
  9
$THICKNESS
 40
0.0
  9
$LIMCHECK
 70
     0
  9
$CHAMFERA
 40
10.0
  9
$CHAMFERB
 40
10.0
  9
$CHAMFERC
 40
20.0
  9
$CHAMFERD
 40
0.0
  9
$SKPOLY
 70
     0
  9
$TDCREATE
 40
2457178.707568599
  9
$TDUCREATE
 40
2457178.374235266
  9
$TDUPDATE
 40
2457178.707569688
  9
$TDUUPDATE
 40
2457178.374236354
  9
$TDINDWG
 40
0.0000000116
  9
$TDUSRTIMER
 40
0.0000000116
  9
$USRTIMER
 70
     1
  9
$ANGBASE
 50
0.0
  9
$ANGDIR
 70
     0
  9
$PDMODE
 70
     0
  9
$PDSIZE
 40
-1.0
  9
$PLINEWID
 40
0.0
  9
$SPLFRAME
 70
     0
  9
$SPLINETYPE
 70
     6
  9
$SPLINESEGS
 70
     8
  9
$HANDSEED
  5
302
  9
$SURFTAB1
 70
     6
  9
$SURFTAB2
 70
     6
  9
$SURFTYPE
 70
     6
  9
$SURFU
 70
     6
  9
$SURFV
 70
     6
  9
$UCSBASE
  2

  9
$UCSNAME
  2

  9
$UCSORG
 10
0.0
 20
0.0
 30
0.0
  9
$UCSXDIR
 10
1.0
 20
0.0
 30
0.0
  9
$UCSYDIR
 10
0.0
 20
1.0
 30
0.0
  9
$UCSORTHOREF
  2

  9
$UCSORTHOVIEW
 70
     0
  9
$UCSORGTOP
 10
0.0
 20
0.0
 30
0.0
  9
$UCSORGBOTTOM
 10
0.0
 20
0.0
 30
0.0
  9
$UCSORGLEFT
 10
0.0
 20
0.0
 30
0.0
  9
$UCSORGRIGHT
 10
0.0
 20
0.0
 30
0.0
  9
$UCSORGFRONT
 10
0.0
 20
0.0
 30
0.0
  9
$UCSORGBACK
 10
0.0
 20
0.0
 30
0.0
  9
$PUCSBASE
  2

  9
$PUCSNAME
  2

  9
$PUCSORG
 10
0.0
 20
0.0
 30
0.0
  9
$PUCSXDIR
 10
1.0
 20
0.0
 30
0.0
  9
$PUCSYDIR
 10
0.0
 20
1.0
 30
0.0
  9
$PUCSORTHOREF
  2

  9
$PUCSORTHOVIEW
 70
     0
  9
$PUCSORGTOP
 10
0.0
 20
0.0
 30
0.0
  9
$PUCSORGBOTTOM
 10
0.0
 20
0.0
 30
0.0
  9
$PUCSORGLEFT
 10
0.0
 20
0.0
 30
0.0
  9
$PUCSORGRIGHT
 10
0.0
 20
0.0
 30
0.0
  9
$PUCSORGFRONT
 10
0.0
 20
0.0
 30
0.0
  9
$PUCSORGBACK
 10
0.0
 20
0.0
 30
0.0
  9
$USERI1
 70
     0
  9
$USERI2
 70
     0
  9
$USERI3
 70
     0
  9
$USERI4
 70
     0
  9
$USERI5
 70
     0
  9
$USERR1
 40
0.0
  9
$USERR2
 40
0.0
  9
$USERR3
 40
0.0
  9
$USERR4
 40
0.0
  9
$USERR5
 40
0.0
  9
$WORLDVIEW
 70
     1
  9
$SHADEDGE
 70
     3
  9
$SHADEDIF
 70
    70
  9
$TILEMODE
 70
     1
  9
$MAXACTVP
 70
    64
  9
$PINSBASE
 10
0.0
 20
0.0
 30
0.0
  9
$PLIMCHECK
 70
     0
  9
$PEXTMIN
 10
1.0000000000E+20
 20
1.0000000000E+20
 30
1.0000000000E+20
  9
$PEXTMAX
 10
-1.0000000000E+20
 20
-1.0000000000E+20
 30
-1.0000000000E+20
  9
$PLIMMIN
 10
0.0
 20
0.0
  9
$PLIMMAX
 10
420.0
 20
297.0
  9
$UNITMODE
 70
     0
  9
$VISRETAIN
 70
     1
  9
$PLINEGEN
 70
     0
  9
$PSLTSCALE
 70
     1
  9
$TREEDEPTH
 70
  3020
  9
$CMLSTYLE
  2
Standard
  9
$CMLJUST
 70
     0
  9
$CMLSCALE
 40
20.0
  9
$PROXYGRAPHICS
 70
     1
  9
$MEASUREMENT
 70
     1
  9
$CELWEIGHT
370
    -1
  9
$ENDCAPS
280
     0
  9
$JOINSTYLE
280
     0
  9
$LWDISPLAY
290
     1
  9
$INSUNITS
 70
     4
  9
$HYPERLINKBASE
  1

  9
$STYLESHEET
  1

  9
$XEDIT
290
     1
  9
$CEPSNTYPE
380
     0
  9
$PSTYLEMODE
290
     1
  9
$FINGERPRINTGUID
  2
{94838F5C-10DD-4699-9F45-15726BEC269D}
  9
$VERSIONGUID
  2
{FAEB1C32-E019-11D5-929B-00C0DF256EC4}
  9
$EXTNAMES
290
     1
  9
$PSVPSCALE
 40
0.0
  9
$OLESTARTUP
290
     0
  0
ENDSEC
  0
SECTION
  2
CLASSES
  0
CLASS
  1
ACDBDICTIONARYWDFLT
  2
AcDbDictionaryWithDefault
  3
ObjectDBX Classes
 90
        0
280
     0
281
     0
  0
CLASS
  1
VISUALSTYLE
  2
AcDbVisualStyle
  3
ObjectDBX Classes
 90
     4095
280
     0
281
     0
  0
CLASS
  1
MATERIAL
  2
AcDbMaterial
  3
ObjectDBX Classes
 90
     1153
280
     0
281
     0
  0
CLASS
  1
ACDBPLACEHOLDER
  2
AcDbPlaceHolder
  3
ObjectDBX Classes
 90
        0
280
     0
281
     0
  0
CLASS
  1
LAYOUT
  2
AcDbLayout
  3
ObjectDBX Classes
 90
        0
280
     0
281
     0
  0
ENDSEC
  0
SECTION
  2
TABLES
  0
TABLE
  2
VPORT
  5
8
330
0
100
AcDbSymbolTable
 70
     1
  0
VPORT
  5
29
330
8
100
AcDbSymbolTableRecord
100
AcDbViewportTableRecord
  2
*Active
 70
     0
 10
0.0
 20
0.0
 11
1.0
 21
1.0
 12
420.5
 22
297.0
 13
0.0
 23
0.0
 14
10.0
 24
10.0
 15
10.0
 25
10.0
 16
0.0
 26
0.0
 36
1.0
 17
0.0
 27
0.0
 37
0.0
 40
594.0
 41
1.4158249158
 42
50.0
 43
0.0
 44
0.0
 50
0.0
 51
0.0
 71
     0
 72
  2000
 73
     1
 74
     3
 75
     0
 76
     0
 77
     0
 78
     0
281
     0
 65
     1
110
0.0
120
0.0
130
0.0
111
1.0
121
0.0
131
0.0
112
0.0
122
1.0
132
0.0
 79
     0
146
0.0
  0
ENDTAB
  0
TABLE
  2
LTYPE
  5
5
330
0
100
AcDbSymbolTable
 70
     6
  0
LTYPE
  5
14
330
5
100
AcDbSymbolTableRecord
100
AcDbLinetypeTableRecord
  2
ByBlock
 70
     0
  3

 72
    65
 73
     0
 40
0.0
  0
LTYPE
  5
15
330
5
100
AcDbSymbolTableRecord
100
AcDbLinetypeTableRecord
  2
ByLayer
 70
     0
  3

 72
    65
 73
     0
 40
0.0
  0
LTYPE
  5
16
330
5
100
AcDbSymbolTableRecord
100
AcDbLinetypeTableRecord
  2
Continuous
 70
     0
  3
Solid line
 72
    65
 73
     0
 40
0.0
  0
LTYPE
  5
3F
330
5
100
AcDbSymbolTableRecord
100
AcDbLinetypeTableRecord
  2
HIDDEN
 70
     0
  3
Hidden __ __ __ __ __ __ __ __ __ __ __ __ __ __
 72
    65
 73
     2
 40
1.905
 49
1.27
 74
     0
 49
-0.635
 74
     0
  0
LTYPE
  5
40
330
5
100
AcDbSymbolTableRecord
100
AcDbLinetypeTableRecord
  2
PHANTOM
 70
     0
  3
Phantom ______  __  __  ______  __  __  ______
 72
    65
 73
     6
 40
12.7
 49
6.35
 74
     0
 49
-1.27
 74
     0
 49
1.27
 74
     0
 49
-1.27
 74
     0
 49
1.27
 74
     0
 49
-1.27
 74
     0
  0
LTYPE
  5
41
330
5
100
AcDbSymbolTableRecord
100
AcDbLinetypeTableRecord
  2
CENTER
 70
     0
  3
Center ____ _ ____ _ ____ _ ____ _ ____ _ ____
 72
    65
 73
     4
 40
10.16
 49
6.35
 74
     0
 49
-1.27
 74
     0
 49
1.27
 74
     0
 49
-1.27
 74
     0
  0
LTYPE
  5
42
330
5
100
AcDbSymbolTableRecord
100
AcDbLinetypeTableRecord
  2
CENTERX2
 70
     0
  3
Center (2x) ________  __  ________  __  _____
 72
    65
 73
     4
 40
20.32
 49
12.7
 74
     0
 49
-2.54
 74
     0
 49
2.54
 74
     0
 49
-2.54
 74
     0
  0
LTYPE
  5
43
330
5
100
AcDbSymbolTableRecord
100
AcDbLinetypeTableRecord
  2
DOT2
 70
     0
  3
Dot (.5x) ........................................
 72
    65
 73
     2
 40
0.635
 49
0.0
 74
     0
 49
-0.635
 74
     0
  0
ENDTAB
  0
TABLE
  2
LAYER
  5
2
330
0
100
AcDbSymbolTable
 70
     3
  0
LAYER
  5
10
330
2
100
AcDbSymbolTableRecord
100
AcDbLayerTableRecord
  2
0
 70
     0
 62
     7
  6
Continuous
370
    -3
390
F
  0
LAYER
  5
44
330
2
100
AcDbSymbolTableRecord
100
AcDbLayerTableRecord
  2
FORMAT
 70
     0
 62
     7
  6
Continuous
370
    -3
390
F
  0
LAYER
  5
45
330
2
100
AcDbSymbolTableRecord
100
AcDbLayerTableRecord
  2
PROTOTYPE
 70
     0
 62
     7
  6
Continuous
370
    -3
390
F
  0
ENDTAB
  0
TABLE
  2
STYLE
  5
3
330
0
100
AcDbSymbolTable
 70
     1
  0
STYLE
  5
11
330
3
100
AcDbSymbolTableRecord
100
AcDbTextStyleTableRecord
  2
Standard
 70
     0
 40
0.0
 41
1.0
 50
0.0
 71
     0
 42
2.5
  3
txt
  4

  0
ENDTAB
  0
TABLE
  2
VIEW
  5
6
330
0
100
AcDbSymbolTable
 70
     0
  0
ENDTAB
  0
TABLE
  2
UCS
  5
7
330
0
100
AcDbSymbolTable
 70
     0
  0
ENDTAB
  0
TABLE
  2
APPID
  5
9
330
0
100
AcDbSymbolTable
 70
     1
  0
APPID
  5
12
330
9
100
AcDbSymbolTableRecord
100
AcDbRegAppTableRecord
  2
ACAD
 70
     0
  0
ENDTAB
  0
TABLE
  2
DIMSTYLE
  5
A
330
0
100
AcDbSymbolTable
 70
     1
100
AcDbDimStyleTable
  0
DIMSTYLE
105
27
330
A
100
AcDbSymbolTableRecord
100
AcDbDimStyleTableRecord
  2
ISO-25
 70
     0
 41
2.5
 42
0.625
 43
3.75
 44
1.25
 73
     0
 74
     0
 77
     1
 78
     8
140
2.5
141
2.5
143
0.0393700787
147
0.625
171
     3
172
     1
178
     0
271
     2
272
     2
274
     3
278
    44
283
     0
284
     8
340
11
  0
ENDTAB
  0
TABLE
  2
BLOCK_RECORD
  5
1
330
0
100
AcDbSymbolTable
 70
     2
  0
BLOCK_RECORD
  5
1F
330
1
100
AcDbSymbolTableRecord
100
AcDbBlockTableRecord
  2
*Model_Space
340
22
  0
BLOCK_RECORD
  5
1B
330
1
100
AcDbSymbolTableRecord
100
AcDbBlockTableRecord
  2
*Paper_Space
340
1E
  0
BLOCK_RECORD
  5
23
330
1
100
AcDbSymbolTableRecord
100
AcDbBlockTableRecord
  2
*Paper_Space0
340
26
  0
BLOCK_RECORD
  5
17D
330
1
100
AcDbSymbolTableRecord
100
AcDbBlockTableRecord
  2
SW_CENTERMARKSYMBOL_0
340
0
102
{BLKREFS
331
1DC
102
}
  0
ENDTAB
  0
ENDSEC
  0
SECTION
  2
BLOCKS
  0
BLOCK
  5
20
330
1F
100
AcDbEntity
  8
0
100
AcDbBlockBegin
  2
*Model_Space
 70
     0
 10
0.0
 20
0.0
 30
0.0
  3
*Model_Space
  1

  0
ENDBLK
  5
21
330
1F
100
AcDbEntity
  8
0
100
AcDbBlockEnd
  0
BLOCK
  5
1C
330
1B
100
AcDbEntity
 67
     1
  8
0
100
AcDbBlockBegin
  2
*Paper_Space
 70
     0
 10
0.0
 20
0.0
 30
0.0
  3
*Paper_Space
  1

  0
ENDBLK
  5
1D
330
1B
100
AcDbEntity
 67
     1
  8
0
100
AcDbBlockEnd
  0
BLOCK
  5
24
330
23
100
AcDbEntity
  8
0
100
AcDbBlockBegin
  2
*Paper_Space0
 70
     0
 10
0.0
 20
0.0
 30
0.0
  3
*Paper_Space0
  1

  0
ENDBLK
  5
25
330
23
100
AcDbEntity
  8
0
100
AcDbBlockEnd
  0
BLOCK
  5
17E
330
17D
100
AcDbEntity
  8
0
100
AcDbBlockBegin
  2
SW_CENTERMARKSYMBOL_0
 70
     0
 10
0.0
 20
0.0
 30
0.0
  3
SW_CENTERMARKSYMBOL_0
  1

  0
ARC
  5
180
330
17D
100
AcDbEntity
  8
FORMAT
 62
     0
100
AcDbCircle
 10
53.057904246
 20
-198.0147943892
 30
0.0
 40
204.9999999999878
100
AcDbArc
 50
105.0
 51
105.6987290185
  0
ARC
  5
181
330
17D
100
AcDbEntity
  8
FORMAT
 62
     0
100
AcDbCircle
 10
53.057904246
 20
-198.0147943892
 30
0.0
 40
204.9999999999878
100
AcDbArc
 50
104.3012709815
 51
105.0
  0
ARC
  5
182
330
17D
100
AcDbEntity
  8
FORMAT
 62
     0
100
AcDbCircle
 10
53.057904246
 20
-198.0147943892
 30
0.0
 40
204.9999999999878
100
AcDbArc
 50
75.0
 51
75.6987290185
  0
ARC
  5
183
330
17D
100
AcDbEntity
  8
FORMAT
 62
     0
100
AcDbCircle
 10
53.057904246
 20
-198.0147943892
 30
0.0
 40
204.9999999999878
100
AcDbArc
 50
74.3012709815
 51
75.0
  0
ARC
  5
184
330
17D
100
AcDbEntity
  8
FORMAT
 62
     0
100
AcDbCircle
 10
53.057904246
 20
-198.0147943892
 30
0.0
 40
204.9999999999881
100
AcDbArc
 50
165.0
 51
165.6987290185
  0
ARC
  5
185
330
17D
100
AcDbEntity
  8
FORMAT
 62
     0
100
AcDbCircle
 10
53.057904246
 20
-198.0147943892
 30
0.0
 40
204.9999999999881
100
AcDbArc
 50
164.3012709816
 51
165.0
  0
ARC
  5
186
330
17D
100
AcDbEntity
  8
FORMAT
 62
     0
100
AcDbCircle
 10
53.057904246
 20
-198.0147943892
 30
0.0
 40
204.9999999999835
100
AcDbArc
 50
135.0
 51
135.6987290185
  0
ARC
  5
187
330
17D
100
AcDbEntity
  8
FORMAT
 62
     0
100
AcDbCircle
 10
53.057904246
 20
-198.0147943892
 30
0.0
 40
204.9999999999835
100
AcDbArc
 50
134.3012709816
 51
135.0
  0
ARC
  5
188
330
17D
100
AcDbEntity
  8
FORMAT
 62
     0
100
AcDbCircle
 10
53.057904246
 20
-198.0147943892
 30
0.0
 40
204.9999999999959
100
AcDbArc
 50
195.0
 51
195.6987290185
  0
ARC
  5
189
330
17D
100
AcDbEntity
  8
FORMAT
 62
     0
100
AcDbCircle
 10
53.057904246
 20
-198.0147943892
 30
0.0
 40
204.9999999999959
100
AcDbArc
 50
194.3012709816
 51
195.0
  0
ARC
  5
18A
330
17D
100
AcDbEntity
  8
FORMAT
 62
     0
100
AcDbCircle
 10
53.057904246
 20
-198.0147943892
 30
0.0
 40
205.0000000000014
100
AcDbArc
 50
225.0
 51
225.6987290185
  0
ARC
  5
18B
330
17D
100
AcDbEntity
  8
FORMAT
 62
     0
100
AcDbCircle
 10
53.057904246
 20
-198.0147943892
 30
0.0
 40
205.0000000000014
100
AcDbArc
 50
224.3012709816
 51
225.0
  0
ARC
  5
18C
330
17D
100
AcDbEntity
  8
FORMAT
 62
     0
100
AcDbCircle
 10
53.057904246
 20
-198.0147943892
 30
0.0
 40
205.0000000000125
100
AcDbArc
 50
255.0
 51
255.6987290185
  0
ARC
  5
18D
330
17D
100
AcDbEntity
  8
FORMAT
 62
     0
100
AcDbCircle
 10
53.057904246
 20
-198.0147943892
 30
0.0
 40
205.0000000000125
100
AcDbArc
 50
254.3012709816
 51
255.0
  0
ARC
  5
18E
330
17D
100
AcDbEntity
  8
FORMAT
 62
     0
100
AcDbCircle
 10
53.057904246
 20
-198.0147943892
 30
0.0
 40
205.0000000000168
100
AcDbArc
 50
285.0
 51
285.6987290185
  0
ARC
  5
18F
330
17D
100
AcDbEntity
  8
FORMAT
 62
     0
100
AcDbCircle
 10
53.057904246
 20
-198.0147943892
 30
0.0
 40
205.0000000000168
100
AcDbArc
 50
284.3012709816
 51
285.0
  0
ARC
  5
190
330
17D
100
AcDbEntity
  8
FORMAT
 62
     0
100
AcDbCircle
 10
53.057904246
 20
-198.0147943892
 30
0.0
 40
205.0000000000014
100
AcDbArc
 50
315.0
 51
315.6987290185
  0
ARC
  5
191
330
17D
100
AcDbEntity
  8
FORMAT
 62
     0
100
AcDbCircle
 10
53.057904246
 20
-198.0147943892
 30
0.0
 40
205.0000000000014
100
AcDbArc
 50
314.3012709815
 51
315.0
  0
ARC
  5
192
330
17D
100
AcDbEntity
  8
FORMAT
 62
     0
100
AcDbCircle
 10
53.057904246
 20
-198.0147943892
 30
0.0
 40
205.0000000000121
100
AcDbArc
 50
345.0
 51
345.6987290185
  0
ARC
  5
193
330
17D
100
AcDbEntity
  8
FORMAT
 62
     0
100
AcDbCircle
 10
53.057904246
 20
-198.0147943892
 30
0.0
 40
205.0000000000121
100
AcDbArc
 50
344.3012709815
 51
345.0
  0
ARC
  5
194
330
17D
100
AcDbEntity
  8
FORMAT
 62
     0
100
AcDbCircle
 10
53.057904246
 20
-198.0147943892
 30
0.0
 40
205.0000000000044
100
AcDbArc
 50
15.0
 51
15.6987290184
  0
ARC
  5
195
330
17D
100
AcDbEntity
  8
FORMAT
 62
     0
100
AcDbCircle
 10
53.057904246
 20
-198.0147943892
 30
0.0
 40
205.0000000000044
100
AcDbArc
 50
14.3012709815
 51
15.0
  0
ARC
  5
196
330
17D
100
AcDbEntity
  8
FORMAT
 62
     0
100
AcDbCircle
 10
53.057904246
 20
-198.0147943892
 30
0.0
 40
204.9999999999835
100
AcDbArc
 50
45.0
 51
45.6987290185
  0
ARC
  5
197
330
17D
100
AcDbEntity
  8
FORMAT
 62
     0
100
AcDbCircle
 10
53.057904246
 20
-198.0147943892
 30
0.0
 40
204.9999999999836
100
AcDbArc
 50
44.3012709815
 51
45.0
  0
ARC
  5
198
330
17D
100
AcDbEntity
  8
FORMAT
 62
     0
100
AcDbCircle
 10
53.057904246
 20
-198.0147943892
 30
0.0
 40
204.9999999999878
100
AcDbArc
 50
76.3974580369
 51
103.6025419631
  0
ARC
  5
199
330
17D
100
AcDbEntity
  8
FORMAT
 62
     0
100
AcDbCircle
 10
53.057904246
 20
-198.0147943892
 30
0.0
 40
204.9999999999878
100
AcDbArc
 50
106.3974580369
 51
133.6025419631
  0
ARC
  5
19A
330
17D
100
AcDbEntity
  8
FORMAT
 62
     0
100
AcDbCircle
 10
53.057904246
 20
-198.0147943892
 30
0.0
 40
204.9999999999881
100
AcDbArc
 50
136.3974580369
 51
163.6025419631
  0
ARC
  5
19B
330
17D
100
AcDbEntity
  8
FORMAT
 62
     0
100
AcDbCircle
 10
53.057904246
 20
-198.0147943892
 30
0.0
 40
204.999999999996
100
AcDbArc
 50
166.3974580369
 51
193.6025419631
  0
ARC
  5
19C
330
17D
100
AcDbEntity
  8
FORMAT
 62
     0
100
AcDbCircle
 10
53.057904246
 20
-198.0147943892
 30
0.0
 40
205.0000000000014
100
AcDbArc
 50
196.3974580369
 51
223.6025419631
  0
ARC
  5
19D
330
17D
100
AcDbEntity
  8
FORMAT
 62
     0
100
AcDbCircle
 10
53.057904246
 20
-198.0147943892
 30
0.0
 40
205.0000000000124
100
AcDbArc
 50
226.3974580369
 51
253.6025419631
  0
ARC
  5
19E
330
17D
100
AcDbEntity
  8
FORMAT
 62
     0
100
AcDbCircle
 10
53.057904246
 20
-198.0147943892
 30
0.0
 40
205.0000000000168
100
AcDbArc
 50
256.3974580369
 51
283.6025419631
  0
ARC
  5
19F
330
17D
100
AcDbEntity
  8
FORMAT
 62
     0
100
AcDbCircle
 10
53.057904246
 20
-198.0147943892
 30
0.0
 40
205.0000000000168
100
AcDbArc
 50
286.3974580369
 51
313.6025419631
  0
ARC
  5
1A0
330
17D
100
AcDbEntity
  8
FORMAT
 62
     0
100
AcDbCircle
 10
53.057904246
 20
-198.0147943892
 30
0.0
 40
205.0000000000121
100
AcDbArc
 50
316.3974580369
 51
343.6025419631
  0
ARC
  5
1A1
330
17D
100
AcDbEntity
  8
FORMAT
 62
     0
100
AcDbCircle
 10
53.057904246
 20
-198.0147943892
 30
0.0
 40
205.0000000000121
100
AcDbArc
 50
346.3974580369
 51
13.6025419631
  0
ARC
  5
1A2
330
17D
100
AcDbEntity
  8
FORMAT
 62
     0
100
AcDbCircle
 10
53.057904246
 20
-198.0147943892
 30
0.0
 40
205.0000000000043
100
AcDbArc
 50
16.3974580369
 51
43.6025419631
  0
ARC
  5
1A3
330
17D
100
AcDbEntity
  8
FORMAT
 62
     0
100
AcDbCircle
 10
53.057904246
 20
-198.0147943892
 30
0.0
 40
204.9999999999877
100
AcDbArc
 50
46.3974580369
 51
73.6025419631
  0
LINE
  5
1A4
330
17D
100
AcDbEntity
  8
FORMAT
 62
     0
100
AcDbLine
 10
0.0
 20
0.0
 30
0.0
 11
-0.6470476128
 21
2.4148145657
 31
0.0
  0
LINE
  5
1A5
330
17D
100
AcDbEntity
  8
FORMAT
 62
     0
100
AcDbLine
 10
0.0
 20
0.0
 30
0.0
 11
0.6470476128
 21
-2.4148145657
 31
0.0
  0
LINE
  5
1A6
330
17D
100
AcDbEntity
  8
FORMAT
 62
     0
100
AcDbLine
 10
-1.2940952255
 20
4.8296291314
 30
0.0
 11
-4.2705142442
 21
15.9377761338
 31
0.0
  0
LINE
  5
1A7
330
17D
100
AcDbEntity
  8
FORMAT
 62
     0
100
AcDbLine
 10
1.2940952255
 20
-4.8296291314
 30
0.0
 11
4.2705142442
 21
-15.9377761338
 31
0.0
  0
LINE
  5
1A8
330
17D
100
AcDbEntity
  8
FORMAT
 62
     0
100
AcDbLine
 10
106.115808492
 20
0.0
 30
0.0
 11
106.7628561048
 21
2.4148145657
 31
0.0
  0
LINE
  5
1A9
330
17D
100
AcDbEntity
  8
FORMAT
 62
     0
100
AcDbLine
 10
106.115808492
 20
0.0
 30
0.0
 11
105.4687608793
 21
-2.4148145657
 31
0.0
  0
LINE
  5
1AA
330
17D
100
AcDbEntity
  8
FORMAT
 62
     0
100
AcDbLine
 10
107.4099037175
 20
4.8296291314
 30
0.0
 11
110.3863227362
 21
15.9377761338
 31
0.0
  0
LINE
  5
1AB
330
17D
100
AcDbEntity
  8
FORMAT
 62
     0
100
AcDbLine
 10
104.8217132665
 20
-4.8296291314
 30
0.0
 11
101.8452942478
 21
-15.9377761338
 31
0.0
  0
LINE
  5
1AC
330
17D
100
AcDbEntity
  8
FORMAT
 62
     0
100
AcDbLine
 10
-144.9568901432
 20
-144.9568901433
 30
0.0
 11
-147.371704709
 21
-144.3098425305
 31
0.0
  0
LINE
  5
1AD
330
17D
100
AcDbEntity
  8
FORMAT
 62
     0
100
AcDbLine
 10
-144.9568901432
 20
-144.9568901433
 30
0.0
 11
-142.5420755775
 21
-145.603937756
 31
0.0
  0
LINE
  5
1AE
330
17D
100
AcDbEntity
  8
FORMAT
 62
     0
100
AcDbLine
 10
-149.7865192747
 20
-143.6627949177
 30
0.0
 11
-160.894666277
 21
-140.6863758991
 31
0.0
  0
LINE
  5
1AF
330
17D
100
AcDbEntity
  8
FORMAT
 62
     0
100
AcDbLine
 10
-140.1272610118
 20
-146.2509853688
 30
0.0
 11
-129.0191140095
 21
-149.2274043874
 31
0.0
  0
LINE
  5
1B0
330
17D
100
AcDbEntity
  8
FORMAT
 62
     0
100
AcDbLine
 10
53.057904246
 20
-198.0147943892
 30
0.0
 11
53.057904246
 21
-195.5147943892
 31
0.0
  0
LINE
  5
1B1
330
17D
100
AcDbEntity
  8
FORMAT
 62
     0
100
AcDbLine
 10
53.057904246
 20
-198.0147943892
 30
0.0
 11
50.557904246
 21
-198.0147943892
 31
0.0
  0
LINE
  5
1B2
330
17D
100
AcDbEntity
  8
FORMAT
 62
     0
100
AcDbLine
 10
53.057904246
 20
-198.0147943892
 30
0.0
 11
53.057904246
 21
-200.5147943892
 31
0.0
  0
LINE
  5
1B3
330
17D
100
AcDbEntity
  8
FORMAT
 62
     0
100
AcDbLine
 10
53.057904246
 20
-198.0147943892
 30
0.0
 11
55.557904246
 21
-198.0147943892
 31
0.0
  0
LINE
  5
1B4
330
17D
100
AcDbEntity
  8
FORMAT
 62
     0
100
AcDbLine
 10
53.057904246
 20
-193.0147943892
 30
0.0
 11
53.057904246
 21
40.8750375855
 31
0.0
  0
LINE
  5
1B5
330
17D
100
AcDbEntity
  8
FORMAT
 62
     0
100
AcDbLine
 10
48.057904246
 20
-198.0147943892
 30
0.0
 11
-183.1252665924
 21
-198.0147943892
 31
0.0
  0
LINE
  5
1B6
330
17D
100
AcDbEntity
  8
FORMAT
 62
     0
100
AcDbLine
 10
53.057904246
 20
-203.0147943892
 30
0.0
 11
53.057904246
 21
-439.3393940124
 31
0.0
  0
LINE
  5
1B7
330
17D
100
AcDbEntity
  8
FORMAT
 62
     0
100
AcDbLine
 10
58.057904246
 20
-198.0147943892
 30
0.0
 11
291.4506393899
 21
-198.0147943892
 31
0.0
  0
LINE
  5
1B8
330
17D
100
AcDbEntity
  8
FORMAT
 62
     0
100
AcDbLine
 10
-91.8989858972
 20
-53.057904246
 30
0.0
 11
-93.6667528502
 21
-51.2901372931
 31
0.0
  0
LINE
  5
1B9
330
17D
100
AcDbEntity
  8
FORMAT
 62
     0
100
AcDbLine
 10
-91.8989858972
 20
-53.057904246
 30
0.0
 11
-90.1312189443
 21
-54.825671199
 31
0.0
  0
LINE
  5
1BA
330
17D
100
AcDbEntity
  8
FORMAT
 62
     0
100
AcDbLine
 10
-95.4345198032
 20
-49.5223703401
 30
0.0
 11
-102.1520342244
 21
-42.8048559188
 31
0.0
  0
LINE
  5
1BB
330
17D
100
AcDbEntity
  8
FORMAT
 62
     0
100
AcDbLine
 10
-88.3634519913
 20
-56.593438152
 30
0.0
 11
-81.64593757
 21
-63.3109525732
 31
0.0
  0
LINE
  5
1BC
330
17D
100
AcDbEntity
  8
FORMAT
 62
     0
100
AcDbLine
 10
-144.9568901432
 20
-251.0726986353
 30
0.0
 11
-147.371704709
 21
-251.719746248
 31
0.0
  0
LINE
  5
1BD
330
17D
100
AcDbEntity
  8
FORMAT
 62
     0
100
AcDbLine
 10
-144.9568901432
 20
-251.0726986353
 30
0.0
 11
-142.5420755775
 21
-250.4256510225
 31
0.0
  0
LINE
  5
1BE
330
17D
100
AcDbEntity
  8
FORMAT
 62
     0
100
AcDbLine
 10
-149.7865192747
 20
-252.3667938608
 30
0.0
 11
-160.894666277
 21
-255.3432128795
 31
0.0
  0
LINE
  5
1BF
330
17D
100
AcDbEntity
  8
FORMAT
 62
     0
100
AcDbLine
 10
-140.1272610118
 20
-249.7786034098
 30
0.0
 11
-129.0191140094
 21
-246.8021843911
 31
0.0
  0
LINE
  5
1C0
330
17D
100
AcDbEntity
  8
FORMAT
 62
     0
100
AcDbLine
 10
-91.8989858972
 20
-342.9716845325
 30
0.0
 11
-93.6667528502
 21
-344.7394514855
 31
0.0
  0
LINE
  5
1C1
330
17D
100
AcDbEntity
  8
FORMAT
 62
     0
100
AcDbLine
 10
-91.8989858972
 20
-342.9716845325
 30
0.0
 11
-90.1312189443
 21
-341.2039175795
 31
0.0
  0
LINE
  5
1C2
330
17D
100
AcDbEntity
  8
FORMAT
 62
     0
100
AcDbLine
 10
-95.4345198032
 20
-346.5072184384
 30
0.0
 11
-102.1520342244
 21
-353.2247328597
 31
0.0
  0
LINE
  5
1C3
330
17D
100
AcDbEntity
  8
FORMAT
 62
     0
100
AcDbLine
 10
-88.3634519913
 20
-339.4361506266
 30
0.0
 11
-81.64593757
 21
-332.7186362053
 31
0.0
  0
LINE
  5
1C4
330
17D
100
AcDbEntity
  8
FORMAT
 62
     0
100
AcDbLine
 10
0.0
 20
-396.0295887785
 30
0.0
 11
-0.6470476127
 21
-398.4444033442
 31
0.0
  0
LINE
  5
1C5
330
17D
100
AcDbEntity
  8
FORMAT
 62
     0
100
AcDbLine
 10
0.0
 20
-396.0295887785
 30
0.0
 11
0.6470476128
 21
-393.6147742128
 31
0.0
  0
LINE
  5
1C6
330
17D
100
AcDbEntity
  8
FORMAT
 62
     0
100
AcDbLine
 10
-1.2940952255
 20
-400.85921791
 30
0.0
 11
-4.2705142442
 21
-411.9673649123
 31
0.0
  0
LINE
  5
1C7
330
17D
100
AcDbEntity
  8
FORMAT
 62
     0
100
AcDbLine
 10
1.2940952255
 20
-391.1999596471
 30
0.0
 11
4.2705142442
 21
-380.0918126447
 31
0.0
  0
LINE
  5
1C8
330
17D
100
AcDbEntity
  8
FORMAT
 62
     0
100
AcDbLine
 10
106.115808492
 20
-396.0295887785
 30
0.0
 11
106.7628561048
 21
-398.4444033442
 31
0.0
  0
LINE
  5
1C9
330
17D
100
AcDbEntity
  8
FORMAT
 62
     0
100
AcDbLine
 10
106.115808492
 20
-396.0295887785
 30
0.0
 11
105.4687608793
 21
-393.6147742128
 31
0.0
  0
LINE
  5
1CA
330
17D
100
AcDbEntity
  8
FORMAT
 62
     0
100
AcDbLine
 10
107.4099037176
 20
-400.85921791
 30
0.0
 11
110.3863227362
 21
-411.9673649123
 31
0.0
  0
LINE
  5
1CB
330
17D
100
AcDbEntity
  8
FORMAT
 62
     0
100
AcDbLine
 10
104.8217132665
 20
-391.1999596471
 30
0.0
 11
101.8452942479
 21
-380.0918126447
 31
0.0
  0
LINE
  5
1CC
330
17D
100
AcDbEntity
  8
FORMAT
 62
     0
100
AcDbLine
 10
198.0147943893
 20
-342.9716845325
 30
0.0
 11
199.7825613422
 21
-344.7394514855
 31
0.0
  0
LINE
  5
1CD
330
17D
100
AcDbEntity
  8
FORMAT
 62
     0
100
AcDbLine
 10
198.0147943893
 20
-342.9716845325
 30
0.0
 11
196.2470274363
 21
-341.2039175795
 31
0.0
  0
LINE
  5
1CE
330
17D
100
AcDbEntity
  8
FORMAT
 62
     0
100
AcDbLine
 10
201.5503282952
 20
-346.5072184384
 30
0.0
 11
208.2678427165
 21
-353.2247328597
 31
0.0
  0
LINE
  5
1CF
330
17D
100
AcDbEntity
  8
FORMAT
 62
     0
100
AcDbLine
 10
194.4792604833
 20
-339.4361506266
 30
0.0
 11
187.7617460621
 21
-332.7186362053
 31
0.0
  0
LINE
  5
1D0
330
17D
100
AcDbEntity
  8
FORMAT
 62
     0
100
AcDbLine
 10
251.0726986353
 20
-251.0726986353
 30
0.0
 11
253.487513201
 21
-251.719746248
 31
0.0
  0
LINE
  5
1D1
330
17D
100
AcDbEntity
  8
FORMAT
 62
     0
100
AcDbLine
 10
251.0726986353
 20
-251.0726986353
 30
0.0
 11
248.6578840696
 21
-250.4256510225
 31
0.0
  0
LINE
  5
1D2
330
17D
100
AcDbEntity
  8
FORMAT
 62
     0
100
AcDbLine
 10
255.9023277667
 20
-252.3667938608
 30
0.0
 11
267.0104747691
 21
-255.3432128795
 31
0.0
  0
LINE
  5
1D3
330
17D
100
AcDbEntity
  8
FORMAT
 62
     0
100
AcDbLine
 10
246.2430695038
 20
-249.7786034098
 30
0.0
 11
235.1349225015
 21
-246.8021843911
 31
0.0
  0
LINE
  5
1D4
330
17D
100
AcDbEntity
  8
FORMAT
 62
     0
100
AcDbLine
 10
251.0726986353
 20
-144.9568901432
 30
0.0
 11
253.487513201
 21
-144.3098425305
 31
0.0
  0
LINE
  5
1D5
330
17D
100
AcDbEntity
  8
FORMAT
 62
     0
100
AcDbLine
 10
251.0726986353
 20
-144.9568901432
 30
0.0
 11
248.6578840696
 21
-145.603937756
 31
0.0
  0
LINE
  5
1D6
330
17D
100
AcDbEntity
  8
FORMAT
 62
     0
100
AcDbLine
 10
255.9023277667
 20
-143.6627949177
 30
0.0
 11
267.010474769
 21
-140.686375899
 31
0.0
  0
LINE
  5
1D7
330
17D
100
AcDbEntity
  8
FORMAT
 62
     0
100
AcDbLine
 10
246.2430695038
 20
-146.2509853687
 30
0.0
 11
235.1349225015
 21
-149.2274043874
 31
0.0
  0
LINE
  5
1D8
330
17D
100
AcDbEntity
  8
FORMAT
 62
     0
100
AcDbLine
 10
198.0147943892
 20
-53.057904246
 30
0.0
 11
199.7825613422
 21
-51.2901372931
 31
0.0
  0
LINE
  5
1D9
330
17D
100
AcDbEntity
  8
FORMAT
 62
     0
100
AcDbLine
 10
198.0147943892
 20
-53.057904246
 30
0.0
 11
196.2470274363
 21
-54.825671199
 31
0.0
  0
LINE
  5
1DA
330
17D
100
AcDbEntity
  8
FORMAT
 62
     0
100
AcDbLine
 10
201.5503282952
 20
-49.5223703401
 30
0.0
 11
208.2678427165
 21
-42.8048559188
 31
0.0
  0
LINE
  5
1DB
330
17D
100
AcDbEntity
  8
FORMAT
 62
     0
100
AcDbLine
 10
194.4792604833
 20
-56.593438152
 30
0.0
 11
187.761746062
 21
-63.3109525732
 31
0.0
  0
ENDBLK
  5
17F
330
17D
100
AcDbEntity
  8
0
100
AcDbBlockEnd
  0
ENDSEC
  0
SECTION
  2
ENTITIES
  0
LINE
  5
46
330
1F
100
AcDbEntity
  8
0
  6
Continuous
 62
     7
370
    15
100
AcDbLine
 10
224.0511893191
 20
853.7388690512
 30
0.0
 11
199.0511889466
 21
853.7388690512
 31
0.0
  0
LINE
  5
47
330
1F
100
AcDbEntity
  8
0
  6
Continuous
 62
     7
370
    15
100
AcDbLine
 10
199.0511889466
 20
393.7388607065
 30
0.0
 11
224.0511893191
 21
393.7388607065
 31
0.0
  0
LINE
  5
48
330
1F
100
AcDbEntity
  8
0
  6
Continuous
 62
     7
370
    15
100
AcDbLine
 10
-110.9488190255
 20
853.7388690512
 30
0.0
 11
-135.948824986
 21
853.7388690512
 31
0.0
  0
LINE
  5
49
330
1F
100
AcDbEntity
  8
0
  6
Continuous
 62
     7
370
    15
100
AcDbLine
 10
-135.948824986
 20
393.7388607065
 30
0.0
 11
-110.9488190255
 21
393.7388607065
 31
0.0
  0
LINE
  5
4A
330
1F
100
AcDbEntity
  8
0
  6
Continuous
 62
     7
370
    15
100
AcDbLine
 10
64.0511928954
 20
611.7388647746
 30
0.0
 11
66.5511905112
 21
611.7388647746
 31
0.0
  0
LINE
  5
4B
330
1F
100
AcDbEntity
  8
0
  6
Continuous
 62
     7
370
    15
100
AcDbLine
 10
66.5511905112
 20
635.7388649832
 30
0.0
 11
64.0511928954
 21
635.7388649832
 31
0.0
  0
LINE
  5
4C
330
1F
100
AcDbEntity
  8
0
  6
Continuous
 62
     7
370
    15
100
AcDbLine
 10
57.8115998664
 20
832.0003249447
 30
0.0
 11
56.3893287339
 21
815.7436796229
 31
0.0
  0
LINE
  5
4D
330
1F
100
AcDbEntity
  8
0
  6
Continuous
 62
     7
370
    15
100
AcDbLine
 10
56.3893287339
 20
431.7340501349
 30
0.0
 11
57.8115998664
 21
415.477404813
 31
0.0
  0
LINE
  5
4E
330
1F
100
AcDbEntity
  8
0
  6
Continuous
 62
     7
370
    15
100
AcDbLine
 10
75.7143317618
 20
613.346560369
 30
0.0
 11
76.9511877455
 21
615.4888649236
 31
0.0
  0
LINE
  5
4F
330
1F
100
AcDbEntity
  8
0
  6
Continuous
 62
     7
370
    15
100
AcDbLine
 10
76.9511877455
 20
631.9888648342
 30
0.0
 11
75.7143317618
 21
634.1311693888
 31
0.0
  0
LINE
  5
50
330
1F
100
AcDbEntity
  8
0
  6
Continuous
 62
     7
370
    15
100
AcDbLine
 10
67.7880464949
 20
634.1311693888
 30
0.0
 11
66.5511905112
 21
631.9888648342
 31
0.0
  0
LINE
  5
51
330
1F
100
AcDbEntity
  8
0
  6
Continuous
 62
     7
370
    15
100
AcDbLine
 10
66.5511905112
 20
615.4888649236
 30
0.0
 11
67.7880464949
 21
613.346560369
 31
0.0
  0
LINE
  5
52
330
1F
100
AcDbEntity
  8
0
  6
Continuous
 62
     7
370
    15
100
AcDbLine
 10
56.8343072095
 20
629.738864931
 30
0.0
 11
-110.9488190255
 21
629.738864931
 31
0.0
  0
LINE
  5
53
330
1F
100
AcDbEntity
  8
0
  6
Continuous
 62
     7
370
    15
100
AcDbLine
 10
-110.9488190255
 20
617.7388648267
 30
0.0
 11
56.8343370118
 21
617.7388648267
 31
0.0
  0
LINE
  5
54
330
1F
100
AcDbEntity
  8
0
  6
Continuous
 62
     7
370
    15
100
AcDbLine
 10
117.0511885442
 20
629.738864931
 30
0.0
 11
76.9511877455
 21
629.738864931
 31
0.0
  0
LINE
  5
55
330
1F
100
AcDbEntity
  8
0
  6
Continuous
 62
     7
370
    15
100
AcDbLine
 10
76.9511877455
 20
617.7388648267
 30
0.0
 11
117.0511885442
 21
617.7388648267
 31
0.0
  0
ARC
  5
56
330
1F
100
AcDbEntity
  8
0
  6
Continuous
 62
     7
370
    15
100
AcDbCircle
 10
51.4083521443
 20
816.17945476
 30
0.0
 40
5.000000000000039
100
AcDbArc
 50
273.0
 51
355.0
  0
ARC
  5
57
330
1F
100
AcDbEntity
  8
0
  6
Continuous
 62
     7
370
    15
100
AcDbCircle
 10
51.4083521443
 20
431.2982749977
 30
0.0
 40
4.999999999999996
100
AcDbArc
 50
5.0
 51
87.0
  0
LINE
  5
58
330
1F
100
AcDbEntity
  8
0
  6
Continuous
 62
     7
370
    15
100
AcDbLine
 10
51.6700266757
 20
811.1863084833
 30
0.0
 11
26.4203517594
 21
809.8630257647
 31
0.0
  0
LINE
  5
59
330
1F
100
AcDbEntity
  8
0
  6
Continuous
 62
     7
370
    15
100
AcDbLine
 10
26.4203517594
 20
437.6147039931
 30
0.0
 11
51.6700266757
 21
436.2914212744
 31
0.0
  0
ARC
  5
5A
330
1F
100
AcDbEntity
  8
0
  6
Continuous
 62
     7
370
    15
100
AcDbCircle
 10
26.5511893191
 20
807.3664534621
 30
0.0
 40
2.500000000000004
100
AcDbArc
 50
93.0
 51
180.0
  0
ARC
  5
5B
330
1F
100
AcDbEntity
  8
0
  6
Continuous
 62
     7
370
    15
100
AcDbCircle
 10
26.5511893191
 20
440.1112762957
 30
0.0
 40
2.500000000000004
100
AcDbArc
 50
180.0
 51
267.0
  0
LINE
  5
5C
330
1F
100
AcDbEntity
  8
0
  6
Continuous
 62
     7
370
    15
100
AcDbLine
 10
195.0511901536
 20
456.7819782297
 30
0.0
 11
199.0511889466
 21
456.7819782297
 31
0.0
  0
LINE
  5
5D
330
1F
100
AcDbEntity
  8
0
  6
Continuous
 62
     7
370
    15
100
AcDbLine
 10
199.0511889466
 20
500.7819779913
 30
0.0
 11
195.0511901536
 21
500.7819779913
 31
0.0
  0
LINE
  5
5E
330
1F
100
AcDbEntity
  8
0
  6
Continuous
 62
     7
370
    15
100
AcDbLine
 10
-106.9488109193
 20
500.7819779913
 30
0.0
 11
-110.9488190255
 21
500.7819779913
 31
0.0
  0
LINE
  5
5F
330
1F
100
AcDbEntity
  8
0
  6
Continuous
 62
     7
370
    15
100
AcDbLine
 10
-110.9488190255
 20
456.7819782297
 30
0.0
 11
-106.9488109193
 21
456.7819782297
 31
0.0
  0
LINE
  5
60
330
1F
100
AcDbEntity
  8
0
  6
Continuous
 62
     7
370
    15
100
AcDbLine
 10
195.0511901536
 20
746.6957517664
 30
0.0
 11
199.0511889466
 21
746.6957517664
 31
0.0
  0
LINE
  5
61
330
1F
100
AcDbEntity
  8
0
  6
Continuous
 62
     7
370
    15
100
AcDbLine
 10
199.0511889466
 20
790.695751528
 30
0.0
 11
195.0511901536
 21
790.695751528
 31
0.0
  0
LINE
  5
62
330
1F
100
AcDbEntity
  8
0
  6
Continuous
 62
     7
370
    15
100
AcDbLine
 10
-106.9488109193
 20
790.695751528
 30
0.0
 11
-110.9488190255
 21
790.695751528
 31
0.0
  0
LINE
  5
63
330
1F
100
AcDbEntity
  8
0
  6
Continuous
 62
     7
370
    15
100
AcDbLine
 10
-110.9488190255
 20
746.6957517664
 30
0.0
 11
-106.9488109193
 21
746.6957517664
 31
0.0
  0
LINE
  5
64
330
1F
100
AcDbEntity
  8
0
  6
Continuous
 62
     7
370
    15
100
AcDbLine
 10
-106.1487973771
 20
496.7819698851
 30
0.0
 11
-106.9488109193
 21
496.7819698851
 31
0.0
  0
LINE
  5
65
330
1F
100
AcDbEntity
  8
0
  6
Continuous
 62
     7
370
    15
100
AcDbLine
 10
-106.9488109193
 20
460.7819714348
 30
0.0
 11
-106.1487973771
 21
460.7819714348
 31
0.0
  0
LINE
  5
66
330
1F
100
AcDbEntity
  8
0
  6
Continuous
 62
     7
370
    15
100
AcDbLine
 10
194.2511896499
 20
460.7819714348
 30
0.0
 11
195.0511901536
 21
460.7819714348
 31
0.0
  0
LINE
  5
67
330
1F
100
AcDbEntity
  8
0
  6
Continuous
 62
     7
370
    15
100
AcDbLine
 10
195.0511901536
 20
496.7819698851
 30
0.0
 11
194.2511896499
 21
496.7819698851
 31
0.0
  0
LINE
  5
68
330
1F
100
AcDbEntity
  8
0
  6
Continuous
 62
     7
370
    15
100
AcDbLine
 10
-106.1487973771
 20
786.6957583229
 30
0.0
 11
-106.9488109193
 21
786.6957583229
 31
0.0
  0
LINE
  5
69
330
1F
100
AcDbEntity
  8
0
  6
Continuous
 62
     7
370
    15
100
AcDbLine
 10
-106.9488109193
 20
750.6957598727
 30
0.0
 11
-106.1487973771
 21
750.6957598727
 31
0.0
  0
LINE
  5
6A
330
1F
100
AcDbEntity
  8
0
  6
Continuous
 62
     7
370
    15
100
AcDbLine
 10
194.2511896499
 20
750.6957598727
 30
0.0
 11
195.0511901536
 21
750.6957598727
 31
0.0
  0
LINE
  5
6B
330
1F
100
AcDbEntity
  8
0
  6
Continuous
 62
     7
370
    15
100
AcDbLine
 10
195.0511901536
 20
786.6957583229
 30
0.0
 11
194.2511896499
 21
786.6957583229
 31
0.0
  0
LINE
  5
6C
330
1F
100
AcDbEntity
  8
0
  6
Continuous
 62
     7
370
    15
100
AcDbLine
 10
-85.5380774579
 20
460.6273569863
 30
0.0
 11
-85.4488195024
 21
460.7819714348
 31
0.0
  0
LINE
  5
6D
330
1F
100
AcDbEntity
  8
0
  6
Continuous
 62
     7
370
    15
100
AcDbLine
 10
331.5511911072
 20
490.7819726269
 30
0.0
 11
224.0511893191
 21
490.7819726269
 31
0.0
  0
LINE
  5
6E
330
1F
100
AcDbEntity
  8
0
  6
Continuous
 62
     7
370
    15
100
AcDbLine
 10
224.0511893191
 20
466.781968693
 30
0.0
 11
331.5511911072
 21
466.781968693
 31
0.0
  0
LINE
  5
6F
330
1F
100
AcDbEntity
  8
0
  6
Continuous
 62
     7
370
    15
100
AcDbLine
 10
-135.948824986
 20
490.7819726269
 30
0.0
 11
-243.448811873
 21
490.7819726269
 31
0.0
  0
LINE
  5
70
330
1F
100
AcDbEntity
  8
0
  6
Continuous
 62
     7
370
    15
100
AcDbLine
 10
-243.448811873
 20
466.781968693
 30
0.0
 11
-135.948824986
 21
466.781968693
 31
0.0
  0
LINE
  5
71
330
1F
100
AcDbEntity
  8
0
  6
Continuous
 62
     7
370
    15
100
AcDbLine
 10
56.8005411782
 20
490.7819726269
 30
0.0
 11
-85.4488195024
 21
490.7819726269
 31
0.0
  0
LINE
  5
72
330
1F
100
AcDbEntity
  8
0
  6
Continuous
 62
     7
370
    15
100
AcDbLine
 10
173.5511875608
 20
490.7819726269
 30
0.0
 11
64.0511928954
 21
490.7819726269
 31
0.0
  0
LINE
  5
73
330
1F
100
AcDbEntity
  8
0
  6
Continuous
 62
     7
370
    15
100
AcDbLine
 10
-85.4488195024
 20
466.781968693
 30
0.0
 11
173.5511875608
 21
466.781968693
 31
0.0
  0
LINE
  5
74
330
1F
100
AcDbEntity
  8
0
  6
Continuous
 62
     7
370
    15
100
AcDbLine
 10
-135.948824986
 20
780.6957610647
 30
0.0
 11
-243.448811873
 21
780.6957610647
 31
0.0
  0
LINE
  5
75
330
1F
100
AcDbEntity
  8
0
  6
Continuous
 62
     7
370
    15
100
AcDbLine
 10
-243.448811873
 20
756.6957571308
 30
0.0
 11
-135.948824986
 21
756.6957571308
 31
0.0
  0
LINE
  5
76
330
1F
100
AcDbEntity
  8
0
  6
Continuous
 62
     7
370
    15
100
AcDbLine
 10
331.5511911072
 20
780.6957610647
 30
0.0
 11
224.0511893191
 21
780.6957610647
 31
0.0
  0
LINE
  5
77
330
1F
100
AcDbEntity
  8
0
  6
Continuous
 62
     7
370
    15
100
AcDbLine
 10
224.0511893191
 20
756.6957571308
 30
0.0
 11
331.5511911072
 21
756.6957571308
 31
0.0
  0
LINE
  5
78
330
1F
100
AcDbEntity
  8
0
  6
Continuous
 62
     7
370
    15
100
AcDbLine
 10
173.5511875608
 20
780.6957610647
 30
0.0
 11
-85.4488195024
 21
780.6957610647
 31
0.0
  0
LINE
  5
79
330
1F
100
AcDbEntity
  8
0
  6
Continuous
 62
     7
370
    15
100
AcDbLine
 10
64.0511928954
 20
756.6957571308
 30
0.0
 11
173.5511875608
 21
756.6957571308
 31
0.0
  0
LINE
  5
7A
330
1F
100
AcDbEntity
  8
0
  6
Continuous
 62
     7
370
    15
100
AcDbLine
 10
-85.4488195024
 20
756.6957571308
 30
0.0
 11
56.8004815736
 21
756.6957571308
 31
0.0
  0
LINE
  5
7B
330
1F
100
AcDbEntity
  8
0
  6
Continuous
 62
     7
370
    15
100
AcDbLine
 10
-85.4488195024
 20
786.6957583229
 30
0.0
 11
-86.3096595845
 21
788.1868132155
 31
0.0
  0
LINE
  5
7C
330
1F
100
AcDbEntity
  8
0
  6
Continuous
 62
     7
370
    15
100
AcDbLine
 10
173.5511875608
 20
460.7819714348
 30
0.0
 11
175.1588850178
 21
457.9973616402
 31
0.0
  0
LINE
  5
7D
330
1F
100
AcDbEntity
  8
0
  6
Continuous
 62
     7
370
    15
100
AcDbLine
 10
175.1588850178
 20
499.5665871303
 30
0.0
 11
173.5511875608
 21
496.7819698851
 31
0.0
  0
LINE
  5
7E
330
1F
100
AcDbEntity
  8
0
  6
Continuous
 62
     7
370
    15
100
AcDbLine
 10
-86.308497294
 20
749.206731538
 30
0.0
 11
-85.4488195024
 21
750.6957598727
 31
0.0
  0
LINE
  5
7F
330
1F
100
AcDbEntity
  8
0
  6
Continuous
 62
     7
370
    15
100
AcDbLine
 10
-85.4488195024
 20
496.7819698851
 30
0.0
 11
-85.5380774579
 21
496.9365843336
 31
0.0
  0
ARC
  5
80
330
1F
100
AcDbEntity
  8
0
  6
Continuous
 62
     7
370
    15
100
AcDbCircle
 10
60.8001828412
 20
415.7388648789
 30
0.0
 40
3.000000000000057
100
AcDbArc
 50
185.0
 51
270.0
  0
ARC
  5
81
330
1F
100
AcDbEntity
  8
0
  6
Continuous
 62
     7
370
    15
100
AcDbCircle
 10
60.8001828412
 20
831.7388648789
 30
0.0
 40
3.000000000000002
100
AcDbArc
 50
90.0
 51
175.0
  0
LINE
  5
82
330
1F
100
AcDbEntity
  8
0
  6
Continuous
 62
     7
370
    15
100
AcDbLine
 10
60.8001767554
 20
412.7388694088
 30
0.0
 11
64.0511928954
 21
412.7388694088
 31
0.0
  0
LINE
  5
83
330
1F
100
AcDbEntity
  8
0
  6
Continuous
 62
     7
370
    15
100
AcDbLine
 10
64.0511928954
 20
834.7388603489
 30
0.0
 11
60.8001767554
 21
834.7388603489
 31
0.0
  0
LINE
  5
84
330
1F
100
AcDbEntity
  8
0
  6
Continuous
 62
     7
370
    15
100
AcDbLine
 10
64.0511928954
 20
782.3458709519
 30
0.0
 11
66.5511905112
 21
782.3458709519
 31
0.0
  0
LINE
  5
85
330
1F
100
AcDbEntity
  8
0
  6
Continuous
 62
     7
370
    15
100
AcDbLine
 10
66.5511905112
 20
806.3458748858
 30
0.0
 11
64.0511928954
 21
806.3458748858
 31
0.0
  0
LINE
  5
86
330
1F
100
AcDbEntity
  8
0
  6
Continuous
 62
     7
370
    15
100
AcDbLine
 10
64.0511928954
 20
441.131854872
 30
0.0
 11
66.5511905112
 21
441.131854872
 31
0.0
  0
LINE
  5
87
330
1F
100
AcDbEntity
  8
0
  6
Continuous
 62
     7
370
    15
100
AcDbLine
 10
66.5511905112
 20
465.1318588059
 30
0.0
 11
64.0511928954
 21
465.1318588059
 31
0.0
  0
LINE
  5
88
330
1F
100
AcDbEntity
  8
0
  6
Continuous
 62
     7
370
    15
100
AcDbLine
 10
75.7143317618
 20
783.9535572331
 30
0.0
 11
76.9511877455
 21
786.0958673756
 31
0.0
  0
LINE
  5
89
330
1F
100
AcDbEntity
  8
0
  6
Continuous
 62
     7
370
    15
100
AcDbLine
 10
76.9511877455
 20
802.5958635609
 30
0.0
 11
75.7143317618
 21
804.7381737034
 31
0.0
  0
LINE
  5
8A
330
1F
100
AcDbEntity
  8
0
  6
Continuous
 62
     7
370
    15
100
AcDbLine
 10
67.7880464949
 20
804.7381737034
 30
0.0
 11
66.5511905112
 21
802.5958635609
 31
0.0
  0
LINE
  5
8B
330
1F
100
AcDbEntity
  8
0
  6
Continuous
 62
     7
370
    15
100
AcDbLine
 10
66.5511905112
 20
786.0958673756
 30
0.0
 11
67.7880464949
 21
783.9535572331
 31
0.0
  0
LINE
  5
8C
330
1F
100
AcDbEntity
  8
0
  6
Continuous
 62
     7
370
    15
100
AcDbLine
 10
75.7143317618
 20
442.7395560543
 30
0.0
 11
76.9511877455
 21
444.8818661969
 31
0.0
  0
LINE
  5
8D
330
1F
100
AcDbEntity
  8
0
  6
Continuous
 62
     7
370
    15
100
AcDbLine
 10
76.9511877455
 20
461.3818623822
 30
0.0
 11
75.7143317618
 21
463.5241725247
 31
0.0
  0
LINE
  5
8E
330
1F
100
AcDbEntity
  8
0
  6
Continuous
 62
     7
370
    15
100
AcDbLine
 10
67.7880464949
 20
463.5241725247
 30
0.0
 11
66.5511905112
 21
461.3818623822
 31
0.0
  0
LINE
  5
8F
330
1F
100
AcDbEntity
  8
0
  6
Continuous
 62
     7
370
    15
100
AcDbLine
 10
66.5511905112
 20
444.8818661969
 30
0.0
 11
67.7880464949
 21
442.7395560543
 31
0.0
  0
LINE
  5
90
330
1F
100
AcDbEntity
  8
0
  6
Continuous
 62
     7
370
    15
100
AcDbLine
 10
117.0511885442
 20
800.3458627264
 30
0.0
 11
76.9511877455
 21
800.3458627264
 31
0.0
  0
LINE
  5
91
330
1F
100
AcDbEntity
  8
0
  6
Continuous
 62
     7
370
    15
100
AcDbLine
 10
76.9511877455
 20
788.3458682101
 30
0.0
 11
117.0511885442
 21
788.3458682101
 31
0.0
  0
LINE
  5
92
330
1F
100
AcDbEntity
  8
0
  6
Continuous
 62
     7
370
    15
100
AcDbLine
 10
57.2827725568
 20
800.3458627264
 30
0.0
 11
-110.9488190255
 21
800.3458627264
 31
0.0
  0
LINE
  5
93
330
1F
100
AcDbEntity
  8
0
  6
Continuous
 62
     7
370
    15
100
AcDbLine
 10
-106.9488109193
 20
788.3458682101
 30
0.0
 11
-106.1487973771
 21
788.3458682101
 31
0.0
  0
LINE
  5
94
330
1F
100
AcDbEntity
  8
0
  6
Continuous
 62
     7
370
    15
100
AcDbLine
 10
-86.413699492
 20
788.3458682101
 30
0.0
 11
56.3673495211
 21
788.3458682101
 31
0.0
  0
LINE
  5
95
330
1F
100
AcDbEntity
  8
0
  6
Continuous
 62
     7
370
    15
100
AcDbLine
 10
117.0511885442
 20
459.1318615477
 30
0.0
 11
76.9511877455
 21
459.1318615477
 31
0.0
  0
LINE
  5
96
330
1F
100
AcDbEntity
  8
0
  6
Continuous
 62
     7
370
    15
100
AcDbLine
 10
76.9511877455
 20
447.1318670313
 30
0.0
 11
117.0511885442
 21
447.1318670313
 31
0.0
  0
LINE
  5
97
330
1F
100
AcDbEntity
  8
0
  6
Continuous
 62
     7
370
    15
100
AcDbLine
 10
56.369554893
 20
459.1318615477
 30
0.0
 11
-106.9488109193
 21
459.1318615477
 31
0.0
  0
LINE
  5
98
330
1F
100
AcDbEntity
  8
0
  6
Continuous
 62
     7
370
    15
100
AcDbLine
 10
-110.9488190255
 20
447.1318670313
 30
0.0
 11
57.282608644
 21
447.1318670313
 31
0.0
  0
LINE
  5
99
330
1F
100
AcDbEntity
  8
0
  6
Continuous
 62
     7
370
    15
100
AcDbLine
 10
175.1588850178
 20
789.4803681176
 30
0.0
 11
173.5511875608
 21
786.6957583229
 31
0.0
  0
LINE
  5
9A
330
1F
100
AcDbEntity
  8
0
  6
Continuous
 62
     7
370
    15
100
AcDbLine
 10
199.0511889466
 20
623.7388648789
 30
0.0
 11
199.0511889466
 21
853.7388690512
 31
0.0
  0
LINE
  5
9B
330
1F
100
AcDbEntity
  8
0
  6
Continuous
 62
     7
370
    15
100
AcDbLine
 10
199.0511889466
 20
393.7388607065
 30
0.0
 11
199.0511889466
 21
623.7388648789
 31
0.0
  0
LINE
  5
9C
330
1F
100
AcDbEntity
  8
0
  6
Continuous
 62
     7
370
    15
100
AcDbLine
 10
224.0511893191
 20
623.7388648789
 30
0.0
 11
224.0511893191
 21
853.7388690512
 31
0.0
  0
LINE
  5
9D
330
1F
100
AcDbEntity
  8
0
  6
Continuous
 62
     7
370
    15
100
AcDbLine
 10
224.0511893191
 20
393.7388607065
 30
0.0
 11
224.0511893191
 21
623.7388648789
 31
0.0
  0
LINE
  5
9E
330
1F
100
AcDbEntity
  8
0
  6
Continuous
 62
     7
370
    15
100
AcDbLine
 10
-110.9488190255
 20
623.7388648789
 30
0.0
 11
-110.9488190255
 21
853.7388690512
 31
0.0
  0
LINE
  5
9F
330
1F
100
AcDbEntity
  8
0
  6
Continuous
 62
     7
370
    15
100
AcDbLine
 10
-110.9488190255
 20
393.7388607065
 30
0.0
 11
-110.9488190255
 21
623.7388648789
 31
0.0
  0
LINE
  5
A0
330
1F
100
AcDbEntity
  8
0
  6
Continuous
 62
     7
370
    15
100
AcDbLine
 10
-135.948824986
 20
623.7388648789
 30
0.0
 11
-135.948824986
 21
853.7388690512
 31
0.0
  0
LINE
  5
A1
330
1F
100
AcDbEntity
  8
0
  6
Continuous
 62
     7
370
    15
100
AcDbLine
 10
-135.948824986
 20
393.7388607065
 30
0.0
 11
-135.948824986
 21
623.7388648789
 31
0.0
  0
LINE
  5
A2
330
1F
100
AcDbEntity
  8
0
  6
Continuous
 62
     7
370
    15
100
AcDbLine
 10
60.8001767554
 20
765.2992256682
 30
0.0
 11
64.0511928954
 21
765.2992256682
 31
0.0
  0
LINE
  5
A3
330
1F
100
AcDbEntity
  8
0
  6
Continuous
 62
     7
370
    15
100
AcDbLine
 10
64.0511928954
 20
765.2992256682
 30
0.0
 11
64.0511928954
 21
482.1785040896
 31
0.0
  0
LINE
  5
A4
330
1F
100
AcDbEntity
  8
0
  6
Continuous
 62
     7
370
    15
100
AcDbLine
 10
64.0511928954
 20
482.1785040896
 30
0.0
 11
60.8001767554
 21
482.1785040896
 31
0.0
  0
SPLINE
  5
A5
330
1F
100
AcDbEntity
  8
0
  6
Continuous
 62
     7
370
    15
100
AcDbSpline
210
0.0
220
0.0
230
1.0
 70
     8
 71
     3
 72
    20
 73
    16
 74
     0
 42
0.00000001
 43
0.00000001
 12
1.0
 22
0.0
 32
0.0
 13
1.0
 23
0.0
 33
0.0
 40
0.0
 40
0.0
 40
0.0
 40
0.0
 40
0.2500000000000165
 40
0.2500000000000165
 40
0.3750000000000137
 40
0.3750000000000137
 40
0.500000000000011
 40
0.500000000000011
 40
0.6250000000000082
 40
0.6250000000000082
 40
0.7500000000000054
 40
0.7500000000000054
 40
0.8750000000000028
 40
0.8750000000000028
 40
1.0
 40
1.0
 40
1.0
 40
1.0
 10
57.81159874688365
 20
762.5446002299334
 30
0.0
 10
57.84412699930596
 20
762.8790846655082
 30
0.0
 10
57.94269600050713
 20
763.2093304520132
 30
0.0
 10
58.18239593516402
 20
763.691048587519
 30
0.0
 10
58.27592890399076
 20
763.8452484565504
 30
0.0
 10
58.48965070202421
 20
764.1403794375872
 30
0.0
 10
58.61068098991133
 20
764.2821550420138
 30
0.0
 10
58.87827660242208
 20
764.546317590167
 30
0.0
 10
59.02245351021364
 20
764.6666143263133
 30
0.0
 10
59.33240475409908
 20
764.8817317403099
 30
0.0
 10
59.49973166826898
 20
764.9772725286363
 30
0.0
 10
59.85247724810995
 20
765.1345116301269
 30
0.0
 10
60.03428750177623
 20
765.1949141197675
 30
0.0
 10
60.4092014652348
 20
765.2773118430905
 30
0.0
 10
60.6041530473362
 20
765.299228352582
 30
0.0
 10
60.80018284115889
 20
765.299228352582
 30
0.0
  0
SPLINE
  5
A6
330
1F
100
AcDbEntity
  8
0
  6
Continuous
 62
     7
370
    15
100
AcDbSpline
210
0.0
220
0.0
230
1.0
 70
     8
 71
     3
 72
    22
 73
    18
 74
     0
 42
0.00000001
 43
0.00000001
 12
1.0
 22
0.0
 32
0.0
 13
1.0
 23
0.0
 33
0.0
 40
0.0
 40
0.0
 40
0.0
 40
0.0
 40
0.125
 40
0.125
 40
0.25
 40
0.25
 40
0.375
 40
0.375
 40
0.5
 40
0.5
 40
0.625
 40
0.625
 40
0.75
 40
0.75
 40
0.875
 40
0.875
 40
1.0
 40
1.0
 40
1.0
 40
1.0
 10
60.80018284115889
 20
482.1785014051749
 30
0.0
 10
60.60475479945789
 20
482.1785014051748
 30
0.0
 10
60.41329888974948
 20
482.1997982571481
 30
0.0
 10
60.03776920461655
 20
482.2817751848896
 30
0.0
 10
59.85182347382757
 20
482.3435563768435
 30
0.0
 10
59.50158268265147
 20
482.4995854605604
 30
0.0
 10
59.33603102115846
 20
482.5936535117008
 30
0.0
 10
59.02268314632882
 20
482.8107859075845
 30
0.0
 10
58.87703165261084
 20
482.9326418386395
 30
0.0
 10
58.6119385577306
 20
483.1943325885983
 30
0.0
 10
58.49075712024625
 20
483.3358651452687
 30
0.0
 10
58.27535878932831
 20
483.6332259942945
 30
0.0
 10
58.18230130604883
 20
483.7871078405443
 30
0.0
 10
58.02436614683289
 20
484.1040351379465
 30
0.0
 10
57.95915885681411
 20
484.2683223852385
 30
0.0
 10
57.86088787257219
 20
484.5999050440684
 30
0.0
 10
57.82782514388675
 20
484.7662752753249
 30
0.0
 10
57.81159874688365
 20
484.9331295278234
 30
0.0
  0
LINE
  5
A7
330
1F
100
AcDbEntity
  8
0
  6
Continuous
 62
     7
370
    15
100
AcDbLine
 10
66.5511905112
 20
611.7388647746
 30
0.0
 11
66.5511905112
 21
635.7388649832
 31
0.0
  0
SPLINE
  5
A8
330
1F
100
AcDbEntity
  8
0
  6
Continuous
 62
     7
370
    15
100
AcDbSpline
210
0.0
220
0.0
230
1.0
 70
     8
 71
     3
 72
    17
 73
    13
 74
     0
 42
0.00000001
 43
0.00000001
 12
1.0
 22
0.0
 32
0.0
 13
1.0
 23
0.0
 33
0.0
 40
0.0
 40
0.0
 40
0.0
 40
0.0
 40
0.0932051843781464
 40
0.2017577111222152
 40
0.3106547249821363
 40
0.4192099331730452
 40
0.5281831774232124
 40
0.6375032033352437
 40
0.746477417001783
 40
0.8309317171763865
 40
0.9155459985695296
 40
1.0
 40
1.0
 40
1.0
 40
1.0
 10
56.80048157355451
 20
756.7054875891016
 30
0.0
 10
56.8257542742212
 20
756.712202972522
 30
0.0
 10
56.88046112636043
 20
756.7267395071286
 30
0.0
 10
56.97511681881507
 20
756.9350080527585
 30
0.0
 10
57.08022909144876
 20
757.2848642642655
 30
0.0
 10
57.19110212903104
 20
757.7811892100501
 30
0.0
 10
57.30602312856163
 20
758.418097414636
 30
0.0
 10
57.42349957988775
 20
759.1845559741954
 30
0.0
 10
57.53305135354022
 20
760.0036151459533
 30
0.0
 10
57.63309878361265
 20
760.84057173042
 30
0.0
 10
57.72350541995251
 20
761.6595531216944
 30
0.0
 10
57.78225361569687
 20
762.2497688924263
 30
0.0
 10
57.81159986636304
 20
762.544597009878
 30
0.0
  0
SPLINE
  5
A9
330
1F
100
AcDbEntity
  8
0
  6
Continuous
 62
     7
370
    15
100
AcDbSpline
210
0.0
220
0.0
230
1.0
 70
     8
 71
     3
 72
    17
 73
    13
 74
     0
 42
0.00000001
 43
0.00000001
 12
1.0
 22
0.0
 32
0.0
 13
1.0
 23
0.0
 33
0.0
 40
0.0
 40
0.0
 40
0.0
 40
0.0
 40
0.1091659382685526
 40
0.2186794023612514
 40
0.3278451950208313
 40
0.4370763021287113
 40
0.5466535823512612
 40
0.655883486670764
 40
0.7650909053051083
 40
0.87464854738658
 40
0.9838534251913059
 40
0.9999999999999999
 40
0.9999999999999999
 40
0.9999999999999999
 40
0.9999999999999999
 10
57.81159986636304
 20
484.9331327478693
 30
0.0
 10
57.77357348930086
 20
485.3124535093509
 30
0.0
 10
57.69739967957761
 20
486.0723025862669
 30
0.0
 10
57.57967839747101
 20
487.0979503494938
 30
0.0
 10
57.46116431908531
 20
488.0253138405052
 30
0.0
 10
57.34296279946997
 20
488.8309286836376
 30
0.0
 10
57.22673978007602
 20
489.5109684421836
 30
0.0
 10
57.11395929862585
 20
490.0551551031293
 30
0.0
 10
57.00605197901855
 20
490.4564432966966
 30
0.0
 10
56.90547434755279
 20
490.6960396783047
 30
0.0
 10
56.83651777492422
 20
490.7996785410081
 30
0.0
 10
56.80464652737598
 20
490.7753597778779
 30
0.0
 10
56.80054117819928
 20
490.7722272674845
 30
0.0
  0
SPLINE
  5
AA
330
1F
100
AcDbEntity
  8
0
  6
Continuous
 62
     7
370
    15
100
AcDbSpline
210
0.0
220
0.0
230
1.0
 70
     8
 71
     3
 72
    35
 73
    31
 74
     0
 42
0.00000001
 43
0.00000001
 12
1.0
 22
0.0
 32
0.0
 13
1.0
 23
0.0
 33
0.0
 40
0.0
 40
0.0
 40
0.0
 40
0.0
 40
0.0329848071754905
 40
0.0693906162367873
 40
0.1056721265000206
 40
0.1420699735607298
 40
0.1783508591860166
 40
0.2145573676489581
 40
0.2508784782818387
 40
0.2870848344430279
 40
0.3232944478736443
 40
0.3596194932681143
 40
0.3958296625047849
 40
0.432120762552424
 40
0.4685269608966102
 40
0.5048184205717764
 40
0.5412356291652666
 40
0.5777685061558209
 40
0.61418660043723
 40
0.650723596762788
 40
0.6873771548705013
 40
0.7239142827646016
 40
0.7605127872182517
 40
0.7972282553686385
 40
0.8338268049617866
 40
0.8703984167984326
 40
0.9070872991119943
 40
0.9436581583226622
 40
0.97182921871485
 40
1.0
 40
1.0
 40
1.0
 40
1.0
 10
57.28260864398145
 20
447.1356817285822
 30
0.0
 10
57.29094951341705
 20
447.1403813571803
 30
0.0
 10
57.30849632116426
 20
447.1502680338788
 30
0.0
 10
57.32806328699934
 20
447.2576009918893
 30
0.0
 10
57.34247182564926
 20
447.4376373244406
 30
0.0
 10
57.35047044485857
 20
447.6901689306187
 30
0.0
 10
57.35217005427139
 20
448.0098016356851
 30
0.0
 10
57.34732682001447
 20
448.395295420675
 30
0.0
 10
57.33616658204844
 20
448.8390622401178
 30
0.0
 10
57.31891097116416
 20
449.336079665696
 30
0.0
 10
57.29545673348806
 20
449.8817012427118
 30
0.0
 10
57.26636375655743
 20
450.467289504542
 30
0.0
 10
57.23192161133646
 20
451.0862170952392
 30
0.0
 10
57.19232365284822
 20
451.731624740074
 30
0.0
 10
57.14822423967743
 20
452.3944801114689
 30
0.0
 10
57.10010525945551
 20
453.0671262003669
 30
0.0
 10
57.04841433897894
 20
453.7411392644432
 30
0.0
 10
56.99387024366402
 20
454.4079680169747
 30
0.0
 10
56.93710367078899
 20
455.0595790842752
 30
0.0
 10
56.87877496664083
 20
455.686818607834
 30
0.0
 10
56.81963497897653
 20
456.2825282452084
 30
0.0
 10
56.76044829012793
 20
456.8391872917692
 30
0.0
 10
56.70197862186931
 20
457.3479717844285
 30
0.0
 10
56.64493239574993
 20
457.8039860169509
 30
0.0
 10
56.5901087330792
 20
458.2013508530068
 30
0.0
 10
56.53831951465403
 20
458.5325320582084
 30
0.0
 10
56.49010119466556
 20
458.7961308930969
 30
0.0
 10
56.44958120350087
 20
458.972484933692
 30
0.0
 10
56.41593003023361
 20
459.0808475672671
 30
0.0
 10
56.39819580338974
 20
459.1087971281487
 30
0.0
 10
56.38932873389386
 20
459.122771839361
 30
0.0
  0
SPLINE
  5
AB
330
1F
100
AcDbEntity
  8
0
  6
Continuous
 62
     7
370
    15
100
AcDbSpline
210
0.0
220
0.0
230
1.0
 70
     8
 71
     3
 72
    36
 73
    32
 74
     0
 42
0.00000001
 43
0.00000001
 12
1.0
 22
0.0
 32
0.0
 13
1.0
 23
0.0
 33
0.0
 40
0.0
 40
0.0
 40
0.0
 40
0.0
 40
0.0063351621971792
 40
0.0422902601721728
 40
0.0783600677555496
 40
0.1143149664707264
 40
0.1502604714487983
 40
0.186320457073444
 40
0.2222655764442586
 40
0.2581213200929288
 40
0.2940921103181109
 40
0.3299473986789763
 40
0.3656753346920966
 40
0.401517769008426
 40
0.4372454726325533
 40
0.4728618922493364
 40
0.5085922253243834
 40
0.5442086560405237
 40
0.5797749484042997
 40
0.6154546785697819
 40
0.6510214700499993
 40
0.6866183626928938
 40
0.7223286170717663
 40
0.7579262051124935
 40
0.7936220415883461
 40
0.8294315752350275
 40
0.8651286229456734
 40
0.9009525567044542
 40
0.9368904449371561
 40
0.9727150529123139
 40
1.0
 40
1.0
 40
1.0
 40
1.0
 10
56.83433701178693
 20
617.7444644036995
 30
0.0
 10
56.83781499763198
 20
617.7426897142875
 30
0.0
 10
56.86103222896465
 20
617.7308428073544
 30
0.0
 10
56.9037920247527
 20
617.7839967075972
 30
0.0
 10
56.96174250640158
 20
617.9059871520219
 30
0.0
 10
57.01789076966975
 20
618.1084076980009
 30
0.0
 10
57.07149177243691
 20
618.3824060226477
 30
0.0
 10
57.12200665266869
 20
618.7243486512633
 30
0.0
 10
57.1687601691941
 20
619.1291873948849
 30
0.0
 10
57.21107015958242
 20
619.5939768012242
 30
0.0
 10
57.24858446379032
 20
620.1104878610072
 30
0.0
 10
57.28086067900122
 20
620.6722499279631
 30
0.0
 10
57.30737069169199
 20
621.2733548787297
 30
0.0
 10
57.32794544925345
 20
621.9045945756019
 30
0.0
 10
57.34245008209089
 20
622.5583682045924
 30
0.0
 10
57.35043838845676
 20
623.2268039982259
 30
0.0
 10
57.35210674851603
 20
623.9008059897501
 30
0.0
 10
57.34744781352226
 20
624.5726136197427
 30
0.0
 10
57.33625597880339
 20
625.2332997368812
 30
0.0
 10
57.31897266597181
 20
625.8748960308449
 30
0.0
 10
57.29570369981825
 20
626.4901799015876
 30
0.0
 10
57.26658372922593
 20
627.070121854384
 30
0.0
 10
57.23210723685514
 20
627.6086206303573
 30
0.0
 10
57.19265316708947
 20
628.0995746435817
 30
0.0
 10
57.14852740209316
 20
628.5347168361661
 30
0.0
 10
57.10040696247849
 20
628.9104481413599
 30
0.0
 10
57.04881647635069
 20
629.2220915121491
 30
0.0
 10
56.99423745818631
 20
629.4639042236228
 30
0.0
 10
56.93747611410398
 20
629.6319078956283
 30
0.0
 10
56.88386365773197
 20
629.7273512399098
 30
0.0
 10
56.84926547613632
 20
629.7302838348736
 30
0.0
 10
56.83430720946454
 20
629.7315517205105
 30
0.0
  0
SPLINE
  5
AC
330
1F
100
AcDbEntity
  8
0
  6
Continuous
 62
     7
370
    15
100
AcDbSpline
210
0.0
220
0.0
230
1.0
 70
     8
 71
     3
 72
    35
 73
    31
 74
     0
 42
0.00000001
 43
0.00000001
 12
1.0
 22
0.0
 32
0.0
 13
1.0
 23
0.0
 33
0.0
 40
0.0
 40
0.0
 40
0.0
 40
0.0
 40
0.0267433393350232
 40
0.0534866553112515
 40
0.0897946091876335
 40
0.126217674243261
 40
0.1625262515978998
 40
0.198975895874803
 40
0.2355405923682738
 40
0.2719904477646479
 40
0.3085541833601579
 40
0.3452333523391022
 40
0.3817967354342145
 40
0.4183968741653157
 40
0.4551141930437207
 40
0.4917147869721192
 40
0.5282618309202851
 40
0.5649262506329233
 40
0.6014730214218486
 40
0.6379034252217648
 40
0.6744507075741885
 40
0.7108811924592942
 40
0.7471828143839531
 40
0.7836007492170854
 40
0.8199023273159456
 40
0.8561166074499001
 40
0.8924462315670492
 40
0.928660960694263
 40
0.9648638232353258
 40
1.0
 40
1.0
 40
1.0
 40
1.0
 10
56.38932873389386
 20
788.3549579183863
 30
0.0
 10
56.39773050231932
 20
788.3680097828208
 30
0.0
 10
56.41453403183174
 20
788.3941135002898
 30
0.0
 10
56.44679689209079
 20
788.4951057187126
 30
0.0
 10
56.48619647130447
 20
788.6626205794306
 30
0.0
 10
56.53372123814963
 20
788.918058572676
 30
0.0
 10
56.58484293491698
 20
789.2408097499601
 30
0.0
 10
56.63915043483907
 20
789.6298344398609
 30
0.0
 10
56.69573197276088
 20
790.0779844612497
 30
0.0
 10
56.7539457580687
 20
790.5799350052141
 30
0.0
 10
56.8130311188637
 20
791.1312153662234
 30
0.0
 10
56.87226610137204
 20
791.7232661154682
 30
0.0
 10
56.93084619507054
 20
792.3486405572129
 30
0.0
 10
56.9879854798032
 20
793.0003561977084
 30
0.0
 10
57.04307464807896
 20
793.6692571447732
 30
0.0
 10
57.09537083445247
 20
794.3467156817828
 30
0.0
 10
57.1441219977009
 20
795.0240967324487
 30
0.0
 10
57.1889208351896
 20
795.6927423130078
 30
0.0
 10
57.2291395085527
 20
796.344174285098
 30
0.0
 10
57.26417796532556
 20
796.9691727913197
 30
0.0
 10
57.29383372251336
 20
797.5607496277418
 30
0.0
 10
57.31772257975827
 20
798.1117181730963
 30
0.0
 10
57.33540204870106
 20
798.6133946708645
 30
0.0
 10
57.34690725058559
 20
799.0613043283159
 30
0.0
 10
57.35209913111254
 20
799.4503068340972
 30
0.0
 10
57.35070839974525
 20
799.7731105899979
 30
0.0
 10
57.34302605870507
 20
800.0286653662936
 30
0.0
 10
57.3290207710961
 20
800.2121942990558
 30
0.0
 10
57.30936721726209
 20
800.3248592074832
 30
0.0
 10
57.29154863373358
 20
800.3378234829505
 30
0.0
 10
57.28277255675458
 20
800.3442086975382
 30
0.0
  0
SPLINE
  5
AD
330
1F
100
AcDbEntity
  8
0
  6
Continuous
 62
     7
370
    15
100
AcDbSpline
210
0.0
220
0.0
230
1.0
 70
     8
 71
     3
 72
    16
 73
    12
 74
     0
 42
0.00000001
 43
0.00000001
 12
1.0
 22
0.0
 32
0.0
 13
1.0
 23
0.0
 33
0.0
 40
0.0
 40
0.0
 40
0.0
 40
0.0
 40
0.25
 40
0.25
 40
0.5
 40
0.5
 40
0.625
 40
0.625
 40
0.75
 40
0.75
 40
1.0
 40
1.0
 40
1.0
 40
1.0
 10
75.71432903992141
 20
618.542712456167
 30
0.0
 10
75.95925055450385
 20
618.1184959490436
 30
0.0
 10
76.16111027454029
 20
617.6911865432329
 30
0.0
 10
76.44075154613743
 20
616.8276558595345
 30
0.0
 10
76.51761068086573
 20
616.3913683293729
 30
0.0
 10
76.51845484203488
 20
615.7287170940624
 30
0.0
 10
76.4996657553648
 20
615.5067940362815
 30
0.0
 10
76.42639826328397
 20
615.0678068172865
 30
0.0
 10
76.37199421162065
 20
614.8497849688384
 30
0.0
 10
76.16191515326852
 20
614.1996010046186
 30
0.0
 10
75.9595558601012
 20
613.7713053453907
 30
0.0
 10
75.71432903992121
 20
613.3465600334604
 30
0.0
  0
SPLINE
  5
AE
330
1F
100
AcDbEntity
  8
0
  6
Continuous
 62
     7
370
    15
100
AcDbSpline
210
0.0
220
0.0
230
1.0
 70
     8
 71
     3
 72
    16
 73
    12
 74
     0
 42
0.00000001
 43
0.00000001
 12
1.0
 22
0.0
 32
0.0
 13
1.0
 23
0.0
 33
0.0
 40
0.0
 40
0.0
 40
0.0
 40
0.0
 40
0.2500000000000001
 40
0.2500000000000001
 40
0.5000000000000001
 40
0.5000000000000001
 40
0.6250000000000001
 40
0.6250000000000001
 40
0.7500000000000002
 40
0.7500000000000002
 40
1.0
 40
1.0
 40
1.0
 40
1.0
 10
75.71432903992105
 20
618.542712456167
 30
0.0
 10
75.95830433645146
 20
619.3878676749318
 30
0.0
 10
76.16299829194251
 20
620.2536955717419
 30
0.0
 10
76.442852064268
 20
621.9895809129218
 30
0.0
 10
76.51826063855911
 20
622.8622210486917
 30
0.0
 10
76.51813449932642
 20
624.1794259854648
 30
0.0
 10
76.49944303313282
 20
624.6198521292825
 30
0.0
 10
76.42526817607578
 20
625.5033831724527
 30
0.0
 10
76.370091927755
 20
625.9424901509499
 30
0.0
 10
76.15875488767949
 20
627.2440932750649
 30
0.0
 10
75.95679182330996
 20
628.0951015820318
 30
0.0
 10
75.71432903992103
 20
628.9350173015803
 30
0.0
  0
SPLINE
  5
AF
330
1F
100
AcDbEntity
  8
0
  6
Continuous
 62
     7
370
    15
100
AcDbSpline
210
0.0
220
0.0
230
1.0
 70
     8
 71
     3
 72
    16
 73
    12
 74
     0
 42
0.00000001
 43
0.00000001
 12
1.0
 22
0.0
 32
0.0
 13
1.0
 23
0.0
 33
0.0
 40
0.0
 40
0.0
 40
0.0
 40
0.0
 40
0.2500000000000017
 40
0.2500000000000017
 40
0.5000000000000034
 40
0.5000000000000034
 40
0.6250000000000043
 40
0.6250000000000043
 40
0.7500000000000051
 40
0.7500000000000051
 40
1.0
 40
1.0
 40
1.0
 40
1.0
 10
75.71432903992144
 20
634.1311697242869
 30
0.0
 10
75.95925055450374
 20
633.7069532171636
 30
0.0
 10
76.16111027454035
 20
633.2796438113528
 30
0.0
 10
76.44075154613746
 20
632.4161131276544
 30
0.0
 10
76.51761068086576
 20
631.9798255974928
 30
0.0
 10
76.51845484203486
 20
631.3171743621824
 30
0.0
 10
76.49966575536483
 20
631.0952513044015
 30
0.0
 10
76.42639826328394
 20
630.6562640854064
 30
0.0
 10
76.37199421162065
 20
630.4382422369583
 30
0.0
 10
76.16191515326855
 20
629.7880582727385
 30
0.0
 10
75.95955586010118
 20
629.3597626135106
 30
0.0
 10
75.71432903992121
 20
628.9350173015803
 30
0.0
  0
LINE
  5
B0
330
1F
100
AcDbEntity
  8
0
  6
Continuous
 62
     7
370
    15
100
AcDbLine
 10
76.9511877455
 20
623.7388648789
 30
0.0
 11
76.9511877455
 21
631.9888648342
 31
0.0
  0
LINE
  5
B1
330
1F
100
AcDbEntity
  8
0
  6
Continuous
 62
     7
370
    15
100
AcDbLine
 10
76.9511877455
 20
615.4888649236
 30
0.0
 11
76.9511877455
 21
623.7388648789
 31
0.0
  0
SPLINE
  5
B2
330
1F
100
AcDbEntity
  8
0
  6
Continuous
 62
     7
370
    15
100
AcDbSpline
210
0.0
220
0.0
230
1.0
 70
     8
 71
     3
 72
    16
 73
    12
 74
     0
 42
0.00000001
 43
0.00000001
 12
1.0
 22
0.0
 32
0.0
 13
1.0
 23
0.0
 33
0.0
 40
0.0
 40
0.0
 40
0.0
 40
0.0
 40
0.25
 40
0.25
 40
0.5
 40
0.5
 40
0.625
 40
0.625
 40
0.75
 40
0.75
 40
1.0
 40
1.0
 40
1.0
 40
1.0
 10
67.78804959829212
 20
618.542712456167
 30
0.0
 10
67.5440743017617
 20
619.3878676749318
 30
0.0
 10
67.33938034627073
 20
620.2536955717419
 30
0.0
 10
67.05952657394519
 20
621.989580912922
 30
0.0
 10
66.98411799965413
 20
622.8622210486917
 30
0.0
 10
66.98424413888678
 20
624.1794259854648
 30
0.0
 10
67.00293560508035
 20
624.6198521292825
 30
0.0
 10
67.07711046213745
 20
625.5033831724527
 30
0.0
 10
67.13228671045816
 20
625.9424901509499
 30
0.0
 10
67.34362375053367
 20
627.2440932750649
 30
0.0
 10
67.5455868149032
 20
628.0951015820318
 30
0.0
 10
67.78804959829215
 20
628.9350173015803
 30
0.0
  0
SPLINE
  5
B3
330
1F
100
AcDbEntity
  8
0
  6
Continuous
 62
     7
370
    15
100
AcDbSpline
210
0.0
220
0.0
230
1.0
 70
     8
 71
     3
 72
    16
 73
    12
 74
     0
 42
0.00000001
 43
0.00000001
 12
1.0
 22
0.0
 32
0.0
 13
1.0
 23
0.0
 33
0.0
 40
0.0
 40
0.0
 40
0.0
 40
0.0
 40
0.2500000000000017
 40
0.2500000000000017
 40
0.5000000000000034
 40
0.5000000000000034
 40
0.6250000000000043
 40
0.6250000000000043
 40
0.7500000000000051
 40
0.7500000000000051
 40
1.0
 40
1.0
 40
1.0
 40
1.0
 10
67.7880495982918
 20
613.3465600334604
 30
0.0
 10
67.54312808370936
 20
613.7707765405837
 30
0.0
 10
67.3412683636729
 20
614.1980859463945
 30
0.0
 10
67.06162709207587
 20
615.0616166300929
 30
0.0
 10
66.9847679573475
 20
615.4979041602544
 30
0.0
 10
66.9839237961783
 20
616.1605553955649
 30
0.0
 10
67.00271288284841
 20
616.3824784533458
 30
0.0
 10
67.07598037492919
 20
616.8214656723409
 30
0.0
 10
67.13038442659257
 20
617.039487520789
 30
0.0
 10
67.34046348494469
 20
617.6896714850087
 30
0.0
 10
67.54282277811195
 20
618.1179671442367
 30
0.0
 10
67.78804959829195
 20
618.542712456167
 30
0.0
  0
SPLINE
  5
B4
330
1F
100
AcDbEntity
  8
0
  6
Continuous
 62
     7
370
    15
100
AcDbSpline
210
0.0
220
0.0
230
1.0
 70
     8
 71
     3
 72
    16
 73
    12
 74
     0
 42
0.00000001
 43
0.00000001
 12
1.0
 22
0.0
 32
0.0
 13
1.0
 23
0.0
 33
0.0
 40
0.0
 40
0.0
 40
0.0
 40
0.0
 40
0.2500000000000017
 40
0.2500000000000017
 40
0.5000000000000034
 40
0.5000000000000034
 40
0.6250000000000043
 40
0.6250000000000043
 40
0.7500000000000051
 40
0.7500000000000051
 40
1.0
 40
1.0
 40
1.0
 40
1.0
 10
67.78804959829175
 20
628.9350173015803
 30
0.0
 10
67.54312808370933
 20
629.3592338087037
 30
0.0
 10
67.34126836367284
 20
629.7865432145145
 30
0.0
 10
67.0616270920758
 20
630.6500738982128
 30
0.0
 10
66.98476795734751
 20
631.0863614283744
 30
0.0
 10
66.9839237961783
 20
631.7490126636849
 30
0.0
 10
67.00271288284841
 20
631.9709357214658
 30
0.0
 10
67.07598037492919
 20
632.4099229404609
 30
0.0
 10
67.13038442659257
 20
632.627944788909
 30
0.0
 10
67.34046348494468
 20
633.2781287531287
 30
0.0
 10
67.54282277811198
 20
633.7064244123566
 30
0.0
 10
67.78804959829198
 20
634.1311697242869
 30
0.0
  0
LINE
  5
B5
330
1F
100
AcDbEntity
  8
0
  6
Continuous
 62
     7
370
    15
100
AcDbLine
 10
67.7880464949
 20
628.9350171338
 30
0.0
 11
75.7143317618
 21
628.9350171338
 31
0.0
  0
LINE
  5
B6
330
1F
100
AcDbEntity
  8
0
  6
Continuous
 62
     7
370
    15
100
AcDbLine
 10
67.7880464949
 20
618.5427126239
 30
0.0
 11
75.7143317618
 21
618.5427126239
 31
0.0
  0
LINE
  5
B7
330
1F
100
AcDbEntity
  8
0
  6
Continuous
 62
     7
370
    15
100
AcDbLine
 10
67.7880464949
 20
613.346560369
 30
0.0
 11
75.7143317618
 21
613.346560369
 31
0.0
  0
LINE
  5
B8
330
1F
100
AcDbEntity
  8
0
  6
Continuous
 62
     7
370
    15
100
AcDbLine
 10
67.7880464949
 20
634.1311693888
 30
0.0
 11
75.7143317618
 21
634.1311693888
 31
0.0
  0
LINE
  5
B9
330
1F
100
AcDbEntity
  8
0
  6
Continuous
 62
     7
370
    15
100
AcDbLine
 10
117.0511885442
 20
623.7388648789
 30
0.0
 11
117.0511885442
 21
629.738864931
 31
0.0
  0
LINE
  5
BA
330
1F
100
AcDbEntity
  8
0
  6
Continuous
 62
     7
370
    15
100
AcDbLine
 10
117.0511885442
 20
617.7388648267
 30
0.0
 11
117.0511885442
 21
623.7388648789
 31
0.0
  0
LINE
  5
BB
330
1F
100
AcDbEntity
  8
0
  6
Continuous
 62
     7
370
    15
100
AcDbLine
 10
56.3673495211
 20
788.3631386559
 30
0.0
 11
56.3893287339
 21
788.3549579184
 31
0.0
  0
LINE
  5
BC
330
1F
100
AcDbEntity
  8
0
  6
Continuous
 62
     7
370
    15
100
AcDbLine
 10
56.3893287339
 20
459.1227718394
 30
0.0
 11
56.369554893
 21
459.1272570889
 31
0.0
  0
LINE
  5
BD
330
1F
100
AcDbEntity
  8
0
  6
Continuous
 62
     7
370
    15
100
AcDbLine
 10
24.0511863389
 20
807.3664554159
 30
0.0
 11
24.0511863389
 21
800.3458627264
 31
0.0
  0
LINE
  5
BE
330
1F
100
AcDbEntity
  8
0
  6
Continuous
 62
     7
370
    15
100
AcDbLine
 10
24.0511863389
 20
788.3458682101
 30
0.0
 11
24.0511863389
 21
780.6957610647
 31
0.0
  0
LINE
  5
BF
330
1F
100
AcDbEntity
  8
0
  6
Continuous
 62
     7
370
    15
100
AcDbLine
 10
24.0511863389
 20
756.6957571308
 30
0.0
 11
24.0511863389
 21
629.738864931
 31
0.0
  0
LINE
  5
C0
330
1F
100
AcDbEntity
  8
0
  6
Continuous
 62
     7
370
    15
100
AcDbLine
 10
24.0511863389
 20
617.7388648267
 30
0.0
 11
24.0511863389
 21
490.7819726269
 31
0.0
  0
LINE
  5
C1
330
1F
100
AcDbEntity
  8
0
  6
Continuous
 62
     7
370
    15
100
AcDbLine
 10
24.0511863389
 20
466.781968693
 30
0.0
 11
24.0511863389
 21
459.1318615477
 31
0.0
  0
LINE
  5
C2
330
1F
100
AcDbEntity
  8
0
  6
Continuous
 62
     7
370
    15
100
AcDbLine
 10
24.0511863389
 20
447.1318670313
 30
0.0
 11
24.0511863389
 21
440.1112743418
 31
0.0
  0
LINE
  5
C3
330
1F
100
AcDbEntity
  8
0
  6
Continuous
 62
     7
370
    15
100
AcDbLine
 10
195.0511901536
 20
456.7819782297
 30
0.0
 11
195.0511901536
 21
500.7819779913
 31
0.0
  0
LINE
  5
C4
330
1F
100
AcDbEntity
  8
0
  6
Continuous
 62
     7
370
    15
100
AcDbLine
 10
-106.9488109193
 20
478.7819781105
 30
0.0
 11
-106.9488109193
 21
456.7819782297
 31
0.0
  0
LINE
  5
C5
330
1F
100
AcDbEntity
  8
0
  6
Continuous
 62
     7
370
    15
100
AcDbLine
 10
-106.9488109193
 20
500.7819779913
 30
0.0
 11
-106.9488109193
 21
478.7819781105
 31
0.0
  0
LINE
  5
C6
330
1F
100
AcDbEntity
  8
0
  6
Continuous
 62
     7
370
    15
100
AcDbLine
 10
195.0511901536
 20
746.6957517664
 30
0.0
 11
195.0511901536
 21
790.695751528
 31
0.0
  0
LINE
  5
C7
330
1F
100
AcDbEntity
  8
0
  6
Continuous
 62
     7
370
    15
100
AcDbLine
 10
-106.9488109193
 20
790.695751528
 30
0.0
 11
-106.9488109193
 21
746.6957517664
 31
0.0
  0
SPLINE
  5
C8
330
1F
100
AcDbEntity
  8
0
  6
Continuous
 62
     7
370
    15
100
AcDbSpline
210
0.0
220
0.0
230
1.0
 70
     8
 71
     3
 72
    14
 73
    10
 74
     0
 42
0.00000001
 43
0.00000001
 12
1.0
 22
0.0
 32
0.0
 13
1.0
 23
0.0
 33
0.0
 40
0.0
 40
0.0
 40
0.0
 40
0.0
 40
0.1250000000000013
 40
0.1250000000000013
 40
0.2500000000000026
 40
0.2500000000000026
 40
0.5000000000000054
 40
0.5000000000000054
 40
1.0
 40
1.0
 40
1.0
 40
1.0
 10
173.5511893191066
 20
777.6957550221155
 30
0.0
 10
173.5511893191066
 20
777.313855354111
 30
0.0
 10
173.5606184245287
 20
776.9300451189571
 30
0.0
 10
173.5980204018161
 20
776.1659957028166
 30
0.0
 10
173.6259529937865
 20
775.785295273424
 30
0.0
 10
173.7362444765653
 20
774.6469945223637
 30
0.0
 10
173.8451585245408
 20
773.8932035528934
 30
0.0
 10
174.2652285723488
 20
771.6452185846658
 30
0.0
 10
174.6693493365561
 20
770.1643604335267
 30
0.0
 10
175.1588844736932
 20
768.6957550221155
 30
0.0
  0
SPLINE
  5
C9
330
1F
100
AcDbEntity
  8
0
  6
Continuous
 62
     7
370
    15
100
AcDbSpline
210
0.0
220
0.0
230
1.0
 70
     8
 71
     3
 72
    10
 73
     6
 74
     0
 42
0.00000001
 43
0.00000001
 12
1.0
 22
0.0
 32
0.0
 13
1.0
 23
0.0
 33
0.0
 40
0.0
 40
0.0
 40
0.0
 40
0.0
 40
0.5
 40
0.5
 40
1.0
 40
1.0
 40
1.0
 40
1.0
 10
175.1588844736931
 20
768.6957550221155
 30
0.0
 10
174.6681236556336
 20
767.2234725679368
 30
0.0
 10
174.2638098044013
 20
765.7404361965987
 30
0.0
 10
173.7044111307879
 20
762.7433596092726
 30
0.0
 10
173.5511893191066
 20
761.2290876365965
 30
0.0
 10
173.5511893191066
 20
759.6957550221155
 30
0.0
  0
LINE
  5
CA
330
1F
100
AcDbEntity
  8
0
  6
Continuous
 62
     7
370
    15
100
AcDbLine
 10
173.5511875608
 20
777.6957549851
 30
0.0
 11
173.5511875608
 21
759.6957483094
 31
0.0
  0
LINE
  5
CB
330
1F
100
AcDbEntity
  8
0
  6
Continuous
 62
     7
370
    15
100
AcDbLine
 10
194.2511896499
 20
759.6957483094
 30
0.0
 11
194.2511896499
 21
768.6957516472
 31
0.0
  0
LINE
  5
CC
330
1F
100
AcDbEntity
  8
0
  6
Continuous
 62
     7
370
    15
100
AcDbLine
 10
194.2511896499
 20
750.6957598727
 30
0.0
 11
194.2511896499
 21
759.6957483094
 31
0.0
  0
LINE
  5
CD
330
1F
100
AcDbEntity
  8
0
  6
Continuous
 62
     7
370
    15
100
AcDbLine
 10
194.2511896499
 20
750.6957598727
 30
0.0
 11
175.1588850178
 21
750.6957598727
 31
0.0
  0
SPLINE
  5
CE
330
1F
100
AcDbEntity
  8
0
  6
Continuous
 62
     7
370
    15
100
AcDbSpline
210
0.0
220
0.0
230
1.0
 70
     8
 71
     3
 72
    14
 73
    10
 74
     0
 42
0.00000001
 43
0.00000001
 12
1.0
 22
0.0
 32
0.0
 13
1.0
 23
0.0
 33
0.0
 40
0.0
 40
0.0
 40
0.0
 40
0.0
 40
0.1250000000000034
 40
0.1250000000000034
 40
0.2500000000000067
 40
0.2500000000000067
 40
0.5000000000000068
 40
0.5000000000000068
 40
1.0
 40
1.0
 40
1.0
 40
1.0
 10
173.5511893191066
 20
759.6957550221155
 30
0.0
 10
173.5511893191066
 20
759.3138553541108
 30
0.0
 10
173.5606184245287
 20
758.930045118957
 30
0.0
 10
173.5980204018161
 20
758.1659957028166
 30
0.0
 10
173.6259529937865
 20
757.7852952734241
 30
0.0
 10
173.7362444765653
 20
756.6469945223637
 30
0.0
 10
173.8451585245408
 20
755.8932035528933
 30
0.0
 10
174.2652285723488
 20
753.6452185846658
 30
0.0
 10
174.6693493365561
 20
752.1643604335267
 30
0.0
 10
175.1588844736932
 20
750.6957550221153
 30
0.0
  0
LINE
  5
CF
330
1F
100
AcDbEntity
  8
0
  6
Continuous
 62
     7
370
    15
100
AcDbLine
 10
194.2511896499
 20
768.6957516472
 30
0.0
 11
175.1588850178
 21
768.6957516472
 31
0.0
  0
LINE
  5
D0
330
1F
100
AcDbEntity
  8
0
  6
Continuous
 62
     7
370
    15
100
AcDbLine
 10
194.2511896499
 20
777.6957549851
 30
0.0
 11
194.2511896499
 21
786.6957583229
 31
0.0
  0
LINE
  5
D1
330
1F
100
AcDbEntity
  8
0
  6
Continuous
 62
     7
370
    15
100
AcDbLine
 10
194.2511896499
 20
768.6957516472
 30
0.0
 11
194.2511896499
 21
777.6957549851
 31
0.0
  0
SPLINE
  5
D2
330
1F
100
AcDbEntity
  8
0
  6
Continuous
 62
     7
370
    15
100
AcDbSpline
210
0.0
220
0.0
230
1.0
 70
     8
 71
     3
 72
    10
 73
     6
 74
     0
 42
0.00000001
 43
0.00000001
 12
1.0
 22
0.0
 32
0.0
 13
1.0
 23
0.0
 33
0.0
 40
0.0
 40
0.0
 40
0.0
 40
0.0
 40
0.5
 40
0.5
 40
1.0
 40
1.0
 40
1.0
 40
1.0
 10
175.1588844736931
 20
786.6957550221155
 30
0.0
 10
174.6681236556336
 20
785.2234725679368
 30
0.0
 10
174.2638098044013
 20
783.7404361965987
 30
0.0
 10
173.7044111307879
 20
780.7433596092726
 30
0.0
 10
173.5511893191066
 20
779.2290876365965
 30
0.0
 10
173.5511893191066
 20
777.6957550221155
 30
0.0
  0
LINE
  5
D3
330
1F
100
AcDbEntity
  8
0
  6
Continuous
 62
     7
370
    15
100
AcDbLine
 10
194.2511896499
 20
786.6957583229
 30
0.0
 11
175.1588850178
 21
786.6957583229
 31
0.0
  0
SPLINE
  5
D4
330
1F
100
AcDbEntity
  8
0
  6
Continuous
 62
     7
370
    15
100
AcDbSpline
210
0.0
220
0.0
230
1.0
 70
     8
 71
     3
 72
    12
 73
     8
 74
     0
 42
0.00000001
 43
0.00000001
 12
1.0
 22
0.0
 32
0.0
 13
1.0
 23
0.0
 33
0.0
 40
0.0
 40
0.0
 40
0.0
 40
0.0
 40
0.2500000000000007
 40
0.2500000000000007
 40
0.5000000000000013
 40
0.5000000000000013
 40
1.0
 40
1.0
 40
1.0
 40
1.0
 10
-85.44881068089337
 20
485.6768568807792
 30
0.0
 10
-85.44881068089343
 20
484.8652823787946
 30
0.0
 10
-85.4861477920834
 20
484.0511083009675
 30
0.0
 10
-85.63453247850887
 20
482.4176280947729
 30
0.0
 10
-85.74481325429416
 20
481.6068610288197
 30
0.0
 10
-86.1674452265243
 20
479.2019783547633
 30
0.0
 10
-86.57142256066639
 20
477.6294057081325
 30
0.0
 10
-87.05650583548012
 20
476.0771936886901
 30
0.0
  0
LINE
  5
D5
330
1F
100
AcDbEntity
  8
0
  6
Continuous
 62
     7
370
    15
100
AcDbLine
 10
-106.1487973771
 20
476.0771938364
 30
0.0
 11
-87.0565057836
 21
476.0771938364
 31
0.0
  0
LINE
  5
D6
330
1F
100
AcDbEntity
  8
0
  6
Continuous
 62
     7
370
    15
100
AcDbLine
 10
-106.1487973771
 20
476.0771938364
 30
0.0
 11
-106.1487973771
 21
485.6768497031
 31
0.0
  0
LINE
  5
D7
330
1F
100
AcDbEntity
  8
0
  6
Continuous
 62
     7
370
    15
100
AcDbLine
 10
-106.1487973771
 20
485.6768497031
 30
0.0
 11
-106.1487973771
 21
495.2765204708
 31
0.0
  0
LINE
  5
D8
330
1F
100
AcDbEntity
  8
0
  6
Continuous
 62
     7
370
    15
100
AcDbLine
 10
-106.1487973771
 20
495.2765204708
 30
0.0
 11
-87.0565057836
 21
495.2765204708
 31
0.0
  0
SPLINE
  5
D9
330
1F
100
AcDbEntity
  8
0
  6
Continuous
 62
     7
370
    15
100
AcDbSpline
210
0.0
220
0.0
230
1.0
 70
     8
 71
     3
 72
    12
 73
     8
 74
     0
 42
0.00000001
 43
0.00000001
 12
1.0
 22
0.0
 32
0.0
 13
1.0
 23
0.0
 33
0.0
 40
0.0
 40
0.0
 40
0.0
 40
0.0
 40
0.2499999999999994
 40
0.2499999999999994
 40
0.4999999999999988
 40
0.4999999999999988
 40
1.0
 40
1.0
 40
1.0
 40
1.0
 10
-87.05650583548012
 20
495.2765200728684
 30
0.0
 10
-86.81254298792695
 20
494.4958663502372
 30
0.0
 10
-86.58856849310902
 20
493.7080424110145
 30
0.0
 10
-86.19114378862018
 20
492.1142704744021
 30
0.0
 10
-86.01944484362139
 20
491.314775013732
 30
0.0
 10
-85.59976026076087
 20
488.9107175123179
 30
0.0
 10
-85.44881068089349
 20
487.2990420873092
 30
0.0
 10
-85.44881068089337
 20
485.6768568807792
 30
0.0
  0
LINE
  5
DA
330
1F
100
AcDbEntity
  8
0
  6
Continuous
 62
     7
370
    15
100
AcDbLine
 10
-106.1487973771
 20
467.8299226563
 30
0.0
 11
-106.1487973771
 21
459.5826514761
 31
0.0
  0
LINE
  5
DB
330
1F
100
AcDbEntity
  8
0
  6
Continuous
 62
     7
370
    15
100
AcDbLine
 10
-106.1487973771
 20
476.0771938364
 30
0.0
 11
-106.1487973771
 21
467.8299226563
 31
0.0
  0
SPLINE
  5
DC
330
1F
100
AcDbEntity
  8
0
  6
Continuous
 62
     7
370
    15
100
AcDbSpline
210
0.0
220
0.0
230
1.0
 70
     8
 71
     3
 72
    14
 73
    10
 74
     0
 42
0.00000001
 43
0.00000001
 12
1.0
 22
0.0
 32
0.0
 13
1.0
 23
0.0
 33
0.0
 40
0.0
 40
0.0
 40
0.0
 40
0.0
 40
0.1249999999999997
 40
0.1249999999999997
 40
0.2499999999999994
 40
0.2499999999999994
 40
0.4999999999999989
 40
0.4999999999999989
 40
1.0
 40
1.0
 40
1.0
 40
1.0
 10
-85.44881068089337
 20
467.8299210200764
 30
0.0
 10
-85.44881068089343
 20
468.179879986086
 30
0.0
 10
-85.4582397863156
 20
468.5315897263436
 30
0.0
 10
-85.49564176360285
 20
469.2317368226998
 30
0.0
 10
-85.52357435557339
 20
469.5805968500619
 30
0.0
 10
-85.63386583835212
 20
470.62369425816
 30
0.0
 10
-85.7427798863276
 20
471.3144408870889
 30
0.0
 10
-86.16284993413558
 20
473.3744125524131
 30
0.0
 10
-86.56697069834289
 20
474.731417103078
 30
0.0
 10
-87.05650583548001
 20
476.0771936886902
 30
0.0
  0
SPLINE
  5
DD
330
1F
100
AcDbEntity
  8
0
  6
Continuous
 62
     7
370
    15
100
AcDbSpline
210
0.0
220
0.0
230
1.0
 70
     8
 71
     3
 72
    10
 73
     6
 74
     0
 42
0.00000001
 43
0.00000001
 12
1.0
 22
0.0
 32
0.0
 13
1.0
 23
0.0
 33
0.0
 40
0.0
 40
0.0
 40
0.0
 40
0.0
 40
0.5
 40
0.5
 40
1.0
 40
1.0
 40
1.0
 40
1.0
 10
-87.0565058354799
 20
459.5826483514626
 30
0.0
 10
-86.5657450174203
 20
460.9317944453323
 30
0.0
 10
-86.16143116618807
 20
462.2907950377653
 30
0.0
 10
-85.60203249257468
 20
465.0372070182538
 30
0.0
 10
-85.44881068089337
 20
466.4248307797093
 30
0.0
 10
-85.44881068089337
 20
467.8299210200764
 30
0.0
  0
LINE
  5
DE
330
1F
100
AcDbEntity
  8
0
  6
Continuous
 62
     7
370
    15
100
AcDbLine
 10
-106.1487973771
 20
459.5826514761
 30
0.0
 11
-87.0565057836
 21
459.5826514761
 31
0.0
  0
LINE
  5
DF
330
1F
100
AcDbEntity
  8
0
  6
Continuous
 62
     7
370
    15
100
AcDbLine
 10
-85.4488195024
 20
485.6768497031
 30
0.0
 11
-85.4488195024
 21
467.8299226563
 31
0.0
  0
SPLINE
  5
E0
330
1F
100
AcDbEntity
  8
0
  6
Continuous
 62
     7
370
    15
100
AcDbSpline
210
0.0
220
0.0
230
1.0
 70
     8
 71
     3
 72
    14
 73
    10
 74
     0
 42
0.00000001
 43
0.00000001
 12
1.0
 22
0.0
 32
0.0
 13
1.0
 23
0.0
 33
0.0
 40
0.0
 40
0.0
 40
0.0
 40
0.0
 40
0.1249999999999975
 40
0.1249999999999975
 40
0.249999999999995
 40
0.249999999999995
 40
0.4999999999999978
 40
0.4999999999999978
 40
1.0
 40
1.0
 40
1.0
 40
1.0
 10
-85.44881068089337
 20
766.3533459237814
 30
0.0
 10
-85.44881068089343
 20
766.7905757767983
 30
0.0
 10
-85.45823978631566
 20
767.2299930027403
 30
0.0
 10
-85.49564176360285
 20
768.1047390208823
 30
0.0
 10
-85.52357435557333
 20
768.5405958878353
 30
0.0
 10
-85.63386583835207
 20
769.8438153241749
 30
0.0
 10
-85.7427798863276
 20
770.706816636821
 30
0.0
 10
-86.16284993413564
 20
773.2804929701314
 30
0.0
 10
-86.56697069834294
 20
774.975900025981
 30
0.0
 10
-87.05650583548001
 20
776.6572791471682
 30
0.0
  0
SPLINE
  5
E1
330
1F
100
AcDbEntity
  8
0
  6
Continuous
 62
     7
370
    15
100
AcDbSpline
210
0.0
220
0.0
230
1.0
 70
     8
 71
     3
 72
    10
 73
     6
 74
     0
 42
0.00000001
 43
0.00000001
 12
1.0
 22
0.0
 32
0.0
 13
1.0
 23
0.0
 33
0.0
 40
0.0
 40
0.0
 40
0.0
 40
0.0
 40
0.5
 40
0.5
 40
1.0
 40
1.0
 40
1.0
 40
1.0
 10
-87.0565058354799
 20
776.6572791471682
 30
0.0
 10
-86.5657450174203
 20
777.6916673643797
 30
0.0
 10
-86.16143116618807
 20
778.7336110103521
 30
0.0
 10
-85.60203249257468
 20
780.8392808152265
 30
0.0
 10
-85.44881068089337
 20
781.9031698004848
 30
0.0
 10
-85.44881068089337
 20
782.9804503080286
 30
0.0
  0
LINE
  5
E2
330
1F
100
AcDbEntity
  8
0
  6
Continuous
 62
     7
370
    15
100
AcDbLine
 10
-85.4488195024
 20
766.3533487122
 30
0.0
 11
-85.4488195024
 21
782.9804518025
 31
0.0
  0
LINE
  5
E3
330
1F
100
AcDbEntity
  8
0
  6
Continuous
 62
     7
370
    15
100
AcDbLine
 10
-106.1487973771
 20
766.3533487122
 30
0.0
 11
-106.1487973771
 21
756.0494192641
 31
0.0
  0
LINE
  5
E4
330
1F
100
AcDbEntity
  8
0
  6
Continuous
 62
     7
370
    15
100
AcDbLine
 10
-106.1487973771
 20
776.6572781603
 30
0.0
 11
-106.1487973771
 21
766.3533487122
 31
0.0
  0
LINE
  5
E5
330
1F
100
AcDbEntity
  8
0
  6
Continuous
 62
     7
370
    15
100
AcDbLine
 10
-106.1487973771
 20
776.6572781603
 30
0.0
 11
-87.0565057836
 21
776.6572781603
 31
0.0
  0
SPLINE
  5
E6
330
1F
100
AcDbEntity
  8
0
  6
Continuous
 62
     7
370
    15
100
AcDbSpline
210
0.0
220
0.0
230
1.0
 70
     8
 71
     3
 72
    10
 73
     6
 74
     0
 42
0.00000001
 43
0.00000001
 12
1.0
 22
0.0
 32
0.0
 13
1.0
 23
0.0
 33
0.0
 40
0.0
 40
0.0
 40
0.0
 40
0.0
 40
0.5
 40
0.5
 40
1.0
 40
1.0
 40
1.0
 40
1.0
 10
-87.0565058354799
 20
756.0494127003944
 30
0.0
 10
-86.5657450174203
 20
757.7350015997081
 30
0.0
 10
-86.16143116618807
 20
759.4329024594994
 30
0.0
 10
-85.60203249257468
 20
762.8641999062975
 30
0.0
 10
-85.44881068089337
 20
764.597861827242
 30
0.0
 10
-85.44881068089337
 20
766.3533459237814
 30
0.0
  0
LINE
  5
E7
330
1F
100
AcDbEntity
  8
0
  6
Continuous
 62
     7
370
    15
100
AcDbLine
 10
-106.1487973771
 20
756.0494192641
 30
0.0
 11
-87.0565057836
 21
756.0494192641
 31
0.0
  0
LINE
  5
E8
330
1F
100
AcDbEntity
  8
0
  6
Continuous
 62
     7
370
    15
100
AcDbLine
 10
-85.4488195024
 20
752.0686485569
 30
0.0
 11
-85.4488195024
 21
766.3533487122
 31
0.0
  0
SPLINE
  5
E9
330
1F
100
AcDbEntity
  8
0
  6
Continuous
 62
     7
370
    15
100
AcDbSpline
210
0.0
220
0.0
230
1.0
 70
     8
 71
     3
 72
    12
 73
     8
 74
     0
 42
0.00000001
 43
0.00000001
 12
1.0
 22
0.0
 32
0.0
 13
1.0
 23
0.0
 33
0.0
 40
0.0
 40
0.0
 40
0.0
 40
0.0
 40
0.2500000000000007
 40
0.2500000000000007
 40
0.5000000000000013
 40
0.5000000000000013
 40
1.0
 40
1.0
 40
1.0
 40
1.0
 10
-85.44881068089337
 20
752.0686506378682
 30
0.0
 10
-85.44881068089343
 20
752.4051921314361
 30
0.0
 10
-85.4861477920834
 20
752.7428116100003
 30
0.0
 10
-85.63453247850887
 20
753.4201787118031
 30
0.0
 10
-85.74481325429416
 20
753.7563853800071
 30
0.0
 10
-86.1674452265243
 20
754.7536355462004
 30
0.0
 10
-86.57142256066639
 20
755.4057456678797
 30
0.0
 10
-87.05650583548012
 20
756.0494127003946
 30
0.0
  0
LINE
  5
EA
330
1F
100
AcDbEntity
  8
0
  6
Continuous
 62
     7
370
    15
100
AcDbLine
 10
-106.1487973771
 20
789.3036254446
 30
0.0
 11
-106.1487973771
 21
782.9804518025
 31
0.0
  0
LINE
  5
EB
330
1F
100
AcDbEntity
  8
0
  6
Continuous
 62
     7
370
    15
100
AcDbLine
 10
-106.1487973771
 20
789.3036254446
 30
0.0
 11
-87.0565057836
 21
789.3036254446
 31
0.0
  0
SPLINE
  5
EC
330
1F
100
AcDbEntity
  8
0
  6
Continuous
 62
     7
370
    15
100
AcDbSpline
210
0.0
220
0.0
230
1.0
 70
     8
 71
     3
 72
    14
 73
    10
 74
     0
 42
0.00000001
 43
0.00000001
 12
1.0
 22
0.0
 32
0.0
 13
1.0
 23
0.0
 33
0.0
 40
0.0
 40
0.0
 40
0.0
 40
0.0
 40
0.1249999999999997
 40
0.1249999999999997
 40
0.2499999999999994
 40
0.2499999999999994
 40
0.4999999999999989
 40
0.4999999999999989
 40
1.0
 40
1.0
 40
1.0
 40
1.0
 10
-85.44881068089337
 20
782.9804503080286
 30
0.0
 10
-85.44881068089343
 20
783.2487633043695
 30
0.0
 10
-85.4582397863156
 20
783.5184186166105
 30
0.0
 10
-85.49564176360285
 20
784.055220309234
 30
0.0
 10
-85.52357435557339
 20
784.3226907510186
 30
0.0
 10
-85.63386583835212
 20
785.1224319156287
 30
0.0
 10
-85.7427798863276
 20
785.652026284459
 30
0.0
 10
-86.16284993413558
 20
787.2314033645858
 30
0.0
 10
-86.56697069834289
 20
788.2718166484312
 30
0.0
 10
-87.05650583548001
 20
789.3036214688889
 30
0.0
  0
LINE
  5
ED
330
1F
100
AcDbEntity
  8
0
  6
Continuous
 62
     7
370
    15
100
AcDbLine
 10
-106.1487973771
 20
782.9804518025
 30
0.0
 11
-106.1487973771
 21
776.6572781603
 31
0.0
  0
SPLINE
  5
EE
330
1F
100
AcDbEntity
  8
0
  6
Continuous
 62
     7
370
    15
100
AcDbSpline
210
0.0
220
0.0
230
1.0
 70
     8
 71
     3
 72
    14
 73
    10
 74
     0
 42
0.00000001
 43
0.00000001
 12
1.0
 22
0.0
 32
0.0
 13
1.0
 23
0.0
 33
0.0
 40
0.0
 40
0.0
 40
0.0
 40
0.0
 40
0.1249999999999966
 40
0.1249999999999966
 40
0.2499999999999931
 40
0.2499999999999931
 40
0.4999999999999932
 40
0.4999999999999932
 40
1.0
 40
1.0
 40
1.0
 40
1.0
 10
173.5511893191066
 20
494.3704320037609
 30
0.0
 10
173.5511893191066
 20
494.149942127635
 30
0.0
 10
173.5606184245287
 20
493.9283491850512
 30
0.0
 10
173.5980204018161
 20
493.4872250489684
 30
0.0
 10
173.6259529937865
 20
493.2674275535779
 30
0.0
 10
173.7362444765653
 20
492.6102293085344
 30
0.0
 10
173.8451585245408
 20
492.1750278893981
 30
0.0
 10
174.2652285723488
 20
490.8771531628577
 30
0.0
 10
174.6693493365561
 20
490.0221793106658
 30
0.0
 10
175.1588844736932
 20
489.1742795810543
 30
0.0
  0
SPLINE
  5
EF
330
1F
100
AcDbEntity
  8
0
  6
Continuous
 62
     7
370
    15
100
AcDbSpline
210
0.0
220
0.0
230
1.0
 70
     8
 71
     3
 72
    12
 73
     8
 74
     0
 42
0.00000001
 43
0.00000001
 12
1.0
 22
0.0
 32
0.0
 13
1.0
 23
0.0
 33
0.0
 40
0.0
 40
0.0
 40
0.0
 40
0.0
 40
0.2500000000000001
 40
0.2500000000000001
 40
0.5000000000000002
 40
0.5000000000000002
 40
1.0
 40
1.0
 40
1.0
 40
1.0
 10
175.1588844736933
 20
489.1742795810543
 30
0.0
 10
174.9149216261401
 20
488.3291674868117
 30
0.0
 10
174.6909471313222
 20
487.4762931330882
 30
0.0
 10
174.2935224268334
 20
485.75092386878
 30
0.0
 10
174.1218234818348
 20
484.885414279167
 30
0.0
 10
173.7021388989741
 20
482.2828543850674
 30
0.0
 10
173.5511893191066
 20
480.5381033460565
 30
0.0
 10
173.5511893191066
 20
478.781974735641
 30
0.0
  0
LINE
  5
F0
330
1F
100
AcDbEntity
  8
0
  6
Continuous
 62
     7
370
    15
100
AcDbLine
 10
173.5511875608
 20
494.3704255621
 30
0.0
 11
173.5511875608
 21
478.7819781105
 31
0.0
  0
LINE
  5
F1
330
1F
100
AcDbEntity
  8
0
  6
Continuous
 62
     7
370
    15
100
AcDbLine
 10
194.2511896499
 20
478.7819781105
 30
0.0
 11
194.2511896499
 21
489.1742863457
 31
0.0
  0
LINE
  5
F2
330
1F
100
AcDbEntity
  8
0
  6
Continuous
 62
     7
370
    15
100
AcDbLine
 10
194.2511896499
 20
468.3896698754
 30
0.0
 11
194.2511896499
 21
478.7819781105
 31
0.0
  0
LINE
  5
F3
330
1F
100
AcDbEntity
  8
0
  6
Continuous
 62
     7
370
    15
100
AcDbLine
 10
194.2511896499
 20
468.3896698754
 30
0.0
 11
175.1588850178
 21
468.3896698754
 31
0.0
  0
SPLINE
  5
F4
330
1F
100
AcDbEntity
  8
0
  6
Continuous
 62
     7
370
    15
100
AcDbSpline
210
0.0
220
0.0
230
1.0
 70
     8
 71
     3
 72
    12
 73
     8
 74
     0
 42
0.00000001
 43
0.00000001
 12
1.0
 22
0.0
 32
0.0
 13
1.0
 23
0.0
 33
0.0
 40
0.0
 40
0.0
 40
0.0
 40
0.0
 40
0.2500000000000019
 40
0.2500000000000019
 40
0.5000000000000039
 40
0.5000000000000039
 40
1.0
 40
1.0
 40
1.0
 40
1.0
 10
173.5511893191066
 20
478.781974735641
 30
0.0
 10
173.5511893191066
 20
477.9033887414637
 30
0.0
 10
173.5885264302966
 20
477.0219885251535
 30
0.0
 10
173.7369111167221
 20
475.2536322899356
 30
0.0
 10
173.8471918925073
 20
474.3759204015695
 30
0.0
 10
174.2698238647374
 20
471.7724672005403
 30
0.0
 10
174.6738011988796
 20
470.0700476459863
 30
0.0
 10
175.1588844736933
 20
468.3896698902278
 30
0.0
  0
LINE
  5
F5
330
1F
100
AcDbEntity
  8
0
  6
Continuous
 62
     7
370
    15
100
AcDbLine
 10
194.2511896499
 20
489.1742863457
 30
0.0
 11
175.1588850178
 21
489.1742863457
 31
0.0
  0
LINE
  5
F6
330
1F
100
AcDbEntity
  8
0
  6
Continuous
 62
     7
370
    15
100
AcDbLine
 10
194.2511896499
 20
463.1935157578
 30
0.0
 11
194.2511896499
 21
468.3896698754
 31
0.0
  0
LINE
  5
F7
330
1F
100
AcDbEntity
  8
0
  6
Continuous
 62
     7
370
    15
100
AcDbLine
 10
194.2511896499
 20
457.9973616402
 30
0.0
 11
194.2511896499
 21
463.1935157578
 31
0.0
  0
LINE
  5
F8
330
1F
100
AcDbEntity
  8
0
  6
Continuous
 62
     7
370
    15
100
AcDbLine
 10
194.2511896499
 20
457.9973616402
 30
0.0
 11
175.1588850178
 21
457.9973616402
 31
0.0
  0
SPLINE
  5
F9
330
1F
100
AcDbEntity
  8
0
  6
Continuous
 62
     7
370
    15
100
AcDbSpline
210
0.0
220
0.0
230
1.0
 70
     8
 71
     3
 72
    14
 73
    10
 74
     0
 42
0.00000001
 43
0.00000001
 12
1.0
 22
0.0
 32
0.0
 13
1.0
 23
0.0
 33
0.0
 40
0.0
 40
0.0
 40
0.0
 40
0.0
 40
0.1250000000000004
 40
0.1250000000000004
 40
0.2500000000000009
 40
0.2500000000000009
 40
0.5000000000000016
 40
0.5000000000000016
 40
1.0
 40
1.0
 40
1.0
 40
1.0
 10
173.5511893191066
 20
463.193517467521
 30
0.0
 10
173.5511893191066
 20
462.9730275913951
 30
0.0
 10
173.5606184245287
 20
462.7514346488114
 30
0.0
 10
173.5980204018161
 20
462.3103105127285
 30
0.0
 10
173.6259529937865
 20
462.0905130173381
 30
0.0
 10
173.7362444765653
 20
461.4333147722946
 30
0.0
 10
173.8451585245408
 20
460.9981133531581
 30
0.0
 10
174.2652285723488
 20
459.7002386266179
 30
0.0
 10
174.6693493365561
 20
458.845264774426
 30
0.0
 10
175.1588844736932
 20
457.9973650448144
 30
0.0
  0
SPLINE
  5
FA
330
1F
100
AcDbEntity
  8
0
  6
Continuous
 62
     7
370
    15
100
AcDbSpline
210
0.0
220
0.0
230
1.0
 70
     8
 71
     3
 72
    10
 73
     6
 74
     0
 42
0.00000001
 43
0.00000001
 12
1.0
 22
0.0
 32
0.0
 13
1.0
 23
0.0
 33
0.0
 40
0.0
 40
0.0
 40
0.0
 40
0.0
 40
0.5
 40
0.5
 40
1.0
 40
1.0
 40
1.0
 40
1.0
 10
175.1588844736931
 20
468.3896698902278
 30
0.0
 10
174.6681236556336
 20
467.5396472189846
 30
0.0
 10
174.2638098044013
 20
466.6834157707744
 30
0.0
 10
173.7044111307879
 20
464.9530527962999
 30
0.0
 10
173.5511893191066
 20
464.078787465249
 30
0.0
 10
173.5511893191066
 20
463.193517467521
 30
0.0
  0
LINE
  5
FB
330
1F
100
AcDbEntity
  8
0
  6
Continuous
 62
     7
370
    15
100
AcDbLine
 10
173.5511875608
 20
478.7819781105
 30
0.0
 11
173.5511875608
 21
463.1935157578
 31
0.0
  0
LINE
  5
FC
330
1F
100
AcDbEntity
  8
0
  6
Continuous
 62
     7
370
    15
100
AcDbLine
 10
194.2511896499
 20
494.3704255621
 30
0.0
 11
194.2511896499
 21
499.5665871303
 31
0.0
  0
SPLINE
  5
FD
330
1F
100
AcDbEntity
  8
0
  6
Continuous
 62
     7
370
    15
100
AcDbSpline
210
0.0
220
0.0
230
1.0
 70
     8
 71
     3
 72
    10
 73
     6
 74
     0
 42
0.00000001
 43
0.00000001
 12
1.0
 22
0.0
 32
0.0
 13
1.0
 23
0.0
 33
0.0
 40
0.0
 40
0.0
 40
0.0
 40
0.0
 40
0.5
 40
0.5
 40
1.0
 40
1.0
 40
1.0
 40
1.0
 10
175.1588844736931
 20
499.5665844264674
 30
0.0
 10
174.6681236556336
 20
498.7165617552242
 30
0.0
 10
174.2638098044013
 20
497.8603303070142
 30
0.0
 10
173.7044111307879
 20
496.1299673325395
 30
0.0
 10
173.5511893191066
 20
495.2557020014887
 30
0.0
 10
173.5511893191066
 20
494.3704320037609
 30
0.0
  0
LINE
  5
FE
330
1F
100
AcDbEntity
  8
0
  6
Continuous
 62
     7
370
    15
100
AcDbLine
 10
194.2511896499
 20
499.5665871303
 30
0.0
 11
175.1588850178
 21
499.5665871303
 31
0.0
  0
LINE
  5
FF
330
1F
100
AcDbEntity
  8
0
  6
Continuous
 62
     7
370
    15
100
AcDbLine
 10
194.2511896499
 20
489.1742863457
 30
0.0
 11
194.2511896499
 21
494.3704255621
 31
0.0
  0
SPLINE
  5
100
330
1F
100
AcDbEntity
  8
0
  6
Continuous
 62
     7
370
    15
100
AcDbSpline
210
0.0
220
0.0
230
1.0
 70
     8
 71
     3
 72
    10
 73
     6
 74
     0
 42
0.00000001
 43
0.00000001
 12
1.0
 22
0.0
 32
0.0
 13
1.0
 23
0.0
 33
0.0
 40
0.0
 40
0.0
 40
0.0
 40
0.0
 40
0.5
 40
0.5
 40
1.0
 40
1.0
 40
1.0
 40
1.0
 10
-87.0565058354799
 20
495.2765200728684
 30
0.0
 10
-86.5657450174203
 20
495.4977534994139
 30
0.0
 10
-86.16143116618807
 20
495.7206028699214
 30
0.0
 10
-85.60203249257468
 20
496.1709604226803
 30
0.0
 10
-85.44881068089337
 20
496.3985034299926
 30
0.0
 10
-85.44881068089337
 20
496.6289105963438
 30
0.0
  0
LINE
  5
101
330
1F
100
AcDbEntity
  8
0
  6
Continuous
 62
     7
370
    15
100
AcDbLine
 10
-85.4488195024
 20
485.6768497031
 30
0.0
 11
-85.4488195024
 21
496.6289051573
 31
0.0
  0
LINE
  5
102
330
1F
100
AcDbEntity
  8
0
  6
Continuous
 62
     7
370
    15
100
AcDbLine
 10
-106.1487973771
 20
752.0686485569
 30
0.0
 11
-106.1487973771
 21
748.0878853004
 31
0.0
  0
SPLINE
  5
103
330
1F
100
AcDbEntity
  8
0
  6
Continuous
 62
     7
370
    15
100
AcDbSpline
210
0.0
220
0.0
230
1.0
 70
     8
 71
     3
 72
    12
 73
     8
 74
     0
 42
0.00000001
 43
0.00000001
 12
1.0
 22
0.0
 32
0.0
 13
1.0
 23
0.0
 33
0.0
 40
0.0
 40
0.0
 40
0.0
 40
0.0
 40
0.2500000000000004
 40
0.2500000000000004
 40
0.4999999999999994
 40
0.4999999999999994
 40
1.0
 40
1.0
 40
1.0
 40
1.0
 10
-87.05650583548012
 20
748.0878885753417
 30
0.0
 10
-86.81254298792695
 20
748.4116079247436
 30
0.0
 10
-86.58856849310907
 20
748.73830059994
 30
0.0
 10
-86.19114378862024
 20
749.399201585176
 30
0.0
 10
-86.01944484362149
 20
749.7307341749465
 30
0.0
 10
-85.59976026076087
 20
750.7276421608067
 30
0.0
 10
-85.44881068089343
 20
751.395967315617
 30
0.0
 10
-85.44881068089337
 20
752.0686506378682
 30
0.0
  0
LINE
  5
104
330
1F
100
AcDbEntity
  8
0
  6
Continuous
 62
     7
370
    15
100
AcDbLine
 10
-106.1487973771
 20
748.0878853004
 30
0.0
 11
-87.0565057836
 21
748.0878853004
 31
0.0
  0
LINE
  5
105
330
1F
100
AcDbEntity
  8
0
  6
Continuous
 62
     7
370
    15
100
AcDbLine
 10
-106.1487973771
 20
756.0494192641
 30
0.0
 11
-106.1487973771
 21
752.0686485569
 31
0.0
  0
SPLINE
  5
106
330
1F
100
AcDbEntity
  8
0
  6
Continuous
 62
     7
370
    15
100
AcDbSpline
210
0.0
220
0.0
230
1.0
 70
    24
 71
     3
 72
    12
 73
     8
 74
     0
 42
0.00000001
 43
0.00000001
 12
1.0
 22
0.0
 32
0.0
 13
1.0
 23
0.0
 33
0.0
 40
0.0
 40
0.0
 40
0.0
 40
0.0
 40
0.2500000000000021
 40
0.2500000000000021
 40
0.5000000000000041
 40
0.5000000000000041
 40
1.0
 40
1.0
 40
1.0
 40
1.0
 10
173.5511893191066
 20
750.6957550221152
 30
0.0
 10
173.5511893191066
 20
750.6957550221152
 30
0.0
 10
173.5885264302966
 20
750.6957550221152
 30
0.0
 10
173.7369111167221
 20
750.6957550221152
 30
0.0
 10
173.8471918925074
 20
750.6957550221152
 30
0.0
 10
174.2698238647374
 20
750.6957550221153
 30
0.0
 10
174.6738011988796
 20
750.6957550221153
 30
0.0
 10
175.1588844736933
 20
750.6957550221153
 30
0.0
  0
LINE
  5
107
330
1F
100
AcDbEntity
  8
0
  6
Continuous
 62
     7
370
    15
100
AcDbLine
 10
173.5511875608
 20
750.6957598727
 30
0.0
 11
173.5511875608
 21
759.6957483094
 31
0.0
  0
SPLINE
  5
108
330
1F
100
AcDbEntity
  8
0
  6
Continuous
 62
     7
370
    15
100
AcDbSpline
210
0.0
220
0.0
230
1.0
 70
    24
 71
     3
 72
    12
 73
     8
 74
     0
 42
0.00000001
 43
0.00000001
 12
1.0
 22
0.0
 32
0.0
 13
1.0
 23
0.0
 33
0.0
 40
0.0
 40
0.0
 40
0.0
 40
0.0
 40
0.2500000000000021
 40
0.2500000000000021
 40
0.5000000000000041
 40
0.5000000000000041
 40
1.0
 40
1.0
 40
1.0
 40
1.0
 10
173.5511893191066
 20
786.6957550221153
 30
0.0
 10
173.5511893191066
 20
786.6957550221153
 30
0.0
 10
173.5885264302966
 20
786.6957550221153
 30
0.0
 10
173.7369111167221
 20
786.6957550221153
 30
0.0
 10
173.8471918925073
 20
786.6957550221153
 30
0.0
 10
174.2698238647374
 20
786.6957550221153
 30
0.0
 10
174.6738011988796
 20
786.6957550221155
 30
0.0
 10
175.1588844736933
 20
786.6957550221155
 30
0.0
  0
LINE
  5
109
330
1F
100
AcDbEntity
  8
0
  6
Continuous
 62
     7
370
    15
100
AcDbLine
 10
173.5511875608
 20
786.6957583229
 30
0.0
 11
173.5511875608
 21
777.6957549851
 31
0.0
  0
SPLINE
  5
10A
330
1F
100
AcDbEntity
  8
0
  6
Continuous
 62
     7
370
    15
100
AcDbSpline
210
0.0
220
0.0
230
1.0
 70
     8
 71
     3
 72
    11
 73
     7
 74
     0
 42
0.00000001
 43
0.00000001
 12
1.0
 22
0.0
 32
0.0
 13
1.0
 23
0.0
 33
0.0
 40
0.0
 40
0.0
 40
0.0
 40
0.0
 40
0.1974039509074118
 40
0.3953495665940949
 40
0.6976464417465948
 40
1.0
 40
1.0
 40
1.0
 40
1.0
 10
-85.53849469044543
 20
460.6275954048441
 30
0.0
 10
-85.58659027607078
 20
460.5577659296758
 30
0.0
 10
-85.68291341876726
 20
460.4179153713847
 30
0.0
 10
-85.96796345289552
 20
460.1728740510104
 30
0.0
 10
-86.40096539969426
 20
459.8932814757601
 30
0.0
 10
-86.8379786663168
 20
459.6862012802646
 30
0.0
 10
-87.05650578358508
 20
459.5826514761255
 30
0.0
  0
LINE
  5
10B
330
1F
100
AcDbEntity
  8
0
  6
Continuous
 62
     7
370
    15
100
AcDbLine
 10
-85.4488195024
 20
460.7819714348
 30
0.0
 11
-85.4488195024
 21
467.8299226563
 31
0.0
  0
LINE
  5
10C
330
1F
100
AcDbEntity
  8
0
  6
Continuous
 62
     7
370
    15
100
AcDbLine
 10
-106.1487973771
 20
497.9813047449
 30
0.0
 11
-106.1487973771
 21
496.6289051573
 31
0.0
  0
LINE
  5
10D
330
1F
100
AcDbEntity
  8
0
  6
Continuous
 62
     7
370
    15
100
AcDbLine
 10
-106.1487973771
 20
497.9813047449
 30
0.0
 11
-87.0565057836
 21
497.9813047449
 31
0.0
  0
SPLINE
  5
10E
330
1F
100
AcDbEntity
  8
0
  6
Continuous
 62
     7
370
    15
100
AcDbSpline
210
0.0
220
0.0
230
1.0
 70
     8
 71
     3
 72
    14
 73
    10
 74
     0
 42
0.00000001
 43
0.00000001
 12
1.0
 22
0.0
 32
0.0
 13
1.0
 23
0.0
 33
0.0
 40
0.0
 40
0.0
 40
0.0
 40
0.0
 40
0.1249999999999975
 40
0.1249999999999975
 40
0.249999999999995
 40
0.249999999999995
 40
0.4999999999999978
 40
0.4999999999999978
 40
1.0
 40
1.0
 40
1.0
 40
1.0
 10
-85.44881068089337
 20
496.6289105963438
 30
0.0
 10
-85.44881068089343
 20
496.6862969843357
 30
0.0
 10
-85.45823978631566
 20
496.743970464873
 30
0.0
 10
-85.49564176360285
 20
496.8587808193013
 30
0.0
 10
-85.52357435557333
 20
496.9159870029673
 30
0.0
 10
-85.63386583835207
 20
497.0870344639226
 30
0.0
 10
-85.7427798863276
 20
497.2003033265663
 30
0.0
 10
-86.16284993413564
 20
497.5380981674492
 30
0.0
 10
-86.56697069834294
 20
497.7606202263617
 30
0.0
 10
-87.05650583548001
 20
497.9813011198191
 30
0.0
  0
LINE
  5
10F
330
1F
100
AcDbEntity
  8
0
  6
Continuous
 62
     7
370
    15
100
AcDbLine
 10
-106.1487973771
 20
496.6289051573
 30
0.0
 11
-106.1487973771
 21
495.2765204708
 31
0.0
  0
LINE
  5
110
330
1F
100
AcDbEntity
  8
0
  6
Continuous
 62
     7
370
    15
100
AcDbLine
 10
331.5511911072
 20
466.781968693
 30
0.0
 11
331.5511911072
 21
490.7819726269
 31
0.0
  0
LINE
  5
111
330
1F
100
AcDbEntity
  8
0
  6
Continuous
 62
     7
370
    15
100
AcDbLine
 10
-243.448811873
 20
466.781968693
 30
0.0
 11
-243.448811873
 21
490.7819726269
 31
0.0
  0
LINE
  5
112
330
1F
100
AcDbEntity
  8
0
  6
Continuous
 62
     7
370
    15
100
AcDbLine
 10
-243.448811873
 20
756.6957571308
 30
0.0
 11
-243.448811873
 21
780.6957610647
 31
0.0
  0
LINE
  5
113
330
1F
100
AcDbEntity
  8
0
  6
Continuous
 62
     7
370
    15
100
AcDbLine
 10
331.5511911072
 20
756.6957571308
 30
0.0
 11
331.5511911072
 21
780.6957610647
 31
0.0
  0
SPLINE
  5
114
330
1F
100
AcDbEntity
  8
0
  6
Continuous
 62
     7
370
    15
100
AcDbSpline
210
0.0
220
0.0
230
1.0
 70
     8
 71
     3
 72
     9
 73
     5
 74
     0
 42
0.00000001
 43
0.00000001
 12
1.0
 22
0.0
 32
0.0
 13
1.0
 23
0.0
 33
0.0
 40
0.0
 40
0.0
 40
0.0
 40
0.0
 40
0.3579421231105764
 40
1.0
 40
1.0
 40
1.0
 40
1.0
 10
-86.31800423481799
 20
788.1820001404093
 30
0.0
 10
-86.3940395624167
 20
788.3169648741043
 30
0.0
 10
-86.60646308758866
 20
788.6940222947906
 30
0.0
 10
-86.88053545880679
 20
789.0652656951728
 30
0.0
 10
-87.05650578358508
 20
789.3036254446314
 30
0.0
  0
LINE
  5
115
330
1F
100
AcDbEntity
  8
0
  6
Continuous
 62
     7
370
    15
100
AcDbLine
 10
-85.4488195024
 20
786.6957583229
 30
0.0
 11
-85.4488195024
 21
782.9804518025
 31
0.0
  0
LINE
  5
116
330
1F
100
AcDbEntity
  8
0
  6
Continuous
 62
     7
370
    15
100
AcDbLine
 10
173.5511875608
 20
463.1935157578
 30
0.0
 11
173.5511875608
 21
460.7819714348
 31
0.0
  0
LINE
  5
117
330
1F
100
AcDbEntity
  8
0
  6
Continuous
 62
     7
370
    15
100
AcDbLine
 10
173.5511875608
 20
496.7819698851
 30
0.0
 11
173.5511875608
 21
494.3704255621
 31
0.0
  0
LINE
  5
118
330
1F
100
AcDbEntity
  8
0
  6
Continuous
 62
     7
370
    15
100
AcDbLine
 10
-85.4488195024
 20
750.6957598727
 30
0.0
 11
-85.4488195024
 21
752.0686485569
 31
0.0
  0
LINE
  5
119
330
1F
100
AcDbEntity
  8
0
  6
Continuous
 62
     7
370
    15
100
AcDbLine
 10
-85.4488195024
 20
496.6289051573
 30
0.0
 11
-85.4488195024
 21
496.7819698851
 31
0.0
  0
LINE
  5
11A
330
1F
100
AcDbEntity
  8
0
  6
Continuous
 62
     7
370
    15
100
AcDbLine
 10
64.0511928954
 20
466.781968693
 30
0.0
 11
64.0511928954
 21
412.7388694088
 31
0.0
  0
LINE
  5
11B
330
1F
100
AcDbEntity
  8
0
  6
Continuous
 62
     7
370
    15
100
AcDbLine
 10
64.0511928954
 20
834.7388603489
 30
0.0
 11
64.0511928954
 21
780.6957610647
 31
0.0
  0
LINE
  5
11C
330
1F
100
AcDbEntity
  8
0
  6
Continuous
 62
     7
370
    15
100
AcDbLine
 10
66.5511905112
 20
784.7332455914
 30
0.0
 11
66.5511905112
 21
806.3458748858
 31
0.0
  0
LINE
  5
11D
330
1F
100
AcDbEntity
  8
0
  6
Continuous
 62
     7
370
    15
100
AcDbLine
 10
66.5511905112
 20
782.3458709519
 30
0.0
 11
66.5511905112
 21
784.7332455914
 31
0.0
  0
LINE
  5
11E
330
1F
100
AcDbEntity
  8
0
  6
Continuous
 62
     7
370
    15
100
AcDbLine
 10
66.5511905112
 20
441.131854872
 30
0.0
 11
66.5511905112
 21
465.1318588059
 31
0.0
  0
LINE
  5
11F
330
1F
100
AcDbEntity
  8
0
  6
Continuous
 62
     7
370
    15
100
AcDbLine
 10
67.7880464949
 20
804.7381737034
 30
0.0
 11
75.7143317618
 21
804.7381737034
 31
0.0
  0
SPLINE
  5
120
330
1F
100
AcDbEntity
  8
0
  6
Continuous
 62
     7
370
    15
100
AcDbSpline
210
0.0
220
0.0
230
1.0
 70
     8
 71
     3
 72
    16
 73
    12
 74
     0
 42
0.00000001
 43
0.00000001
 12
1.0
 22
0.0
 32
0.0
 13
1.0
 23
0.0
 33
0.0
 40
0.0
 40
0.0
 40
0.0
 40
0.0
 40
0.25
 40
0.25
 40
0.5
 40
0.5
 40
0.625
 40
0.625
 40
0.75
 40
0.75
 40
1.0
 40
1.0
 40
1.0
 40
1.0
 10
75.71432903992108
 20
799.5420218471135
 30
0.0
 10
75.95830433645152
 20
799.9645994564959
 30
0.0
 10
76.1629982919425
 20
800.3975134049008
 30
0.0
 10
76.44285206426802
 20
801.265456075491
 30
0.0
 10
76.51826063855908
 20
801.7017761433758
 30
0.0
 10
76.51813449932642
 20
802.3603786117624
 30
0.0
 10
76.49944303313282
 20
802.5805916836713
 30
0.0
 10
76.42526817607578
 20
803.0223572052564
 30
0.0
 10
76.37009192775506
 20
803.2419106945049
 30
0.0
 10
76.15875488767952
 20
803.8927122565625
 30
0.0
 10
75.95679182330998
 20
804.3182164100459
 30
0.0
 10
75.71432903992105
 20
804.7381742698202
 30
0.0
  0
LINE
  5
121
330
1F
100
AcDbEntity
  8
0
  6
Continuous
 62
     7
370
    15
100
AcDbLine
 10
67.7880464949
 20
799.5420195858
 30
0.0
 11
75.7143317618
 21
799.5420195858
 31
0.0
  0
SPLINE
  5
122
330
1F
100
AcDbEntity
  8
0
  6
Continuous
 62
     7
370
    15
100
AcDbSpline
210
0.0
220
0.0
230
1.0
 70
     8
 71
     3
 72
    16
 73
    12
 74
     0
 42
0.00000001
 43
0.00000001
 12
1.0
 22
0.0
 32
0.0
 13
1.0
 23
0.0
 33
0.0
 40
0.0
 40
0.0
 40
0.0
 40
0.0
 40
0.25
 40
0.25
 40
0.5
 40
0.5
 40
0.625
 40
0.625
 40
0.75
 40
0.75
 40
1.0
 40
1.0
 40
1.0
 40
1.0
 10
67.78804959829212
 20
799.5420218471135
 30
0.0
 10
67.54407430176173
 20
799.9645994564959
 30
0.0
 10
67.33938034627067
 20
800.3975134049009
 30
0.0
 10
67.05952657394519
 20
801.265456075491
 30
0.0
 10
66.9841179996541
 20
801.7017761433758
 30
0.0
 10
66.98424413888681
 20
802.3603786117624
 30
0.0
 10
67.00293560508035
 20
802.5805916836713
 30
0.0
 10
67.07711046213737
 20
803.0223572052564
 30
0.0
 10
67.13228671045816
 20
803.2419106945049
 30
0.0
 10
67.34362375053364
 20
803.8927122565624
 30
0.0
 10
67.5455868149032
 20
804.3182164100459
 30
0.0
 10
67.78804959829215
 20
804.7381742698202
 30
0.0
  0
SPLINE
  5
123
330
1F
100
AcDbEntity
  8
0
  6
Continuous
 62
     7
370
    15
100
AcDbSpline
210
0.0
220
0.0
230
1.0
 70
     8
 71
     3
 72
    16
 73
    12
 74
     0
 42
0.00000001
 43
0.00000001
 12
1.0
 22
0.0
 32
0.0
 13
1.0
 23
0.0
 33
0.0
 40
0.0
 40
0.0
 40
0.0
 40
0.0
 40
0.2500000000000018
 40
0.2500000000000018
 40
0.5000000000000037
 40
0.5000000000000037
 40
0.6250000000000009
 40
0.6250000000000009
 40
0.7499999999999981
 40
0.7499999999999981
 40
1.0
 40
1.0
 40
1.0
 40
1.0
 10
75.71432903992144
 20
789.1497170017002
 30
0.0
 10
75.95925055450383
 20
788.7255004945767
 30
0.0
 10
76.16111027454038
 20
788.2981910887661
 30
0.0
 10
76.44075154613743
 20
787.4346604050677
 30
0.0
 10
76.51761068086576
 20
786.9983728749062
 30
0.0
 10
76.51845484203491
 20
786.3357216395957
 30
0.0
 10
76.49966575536483
 20
786.1137985818148
 30
0.0
 10
76.42639826328394
 20
785.6748113628198
 30
0.0
 10
76.37199421162067
 20
785.4567895143716
 30
0.0
 10
76.16191515326855
 20
784.8066055501519
 30
0.0
 10
75.95955586010132
 20
784.3783098909239
 30
0.0
 10
75.71432903992127
 20
783.9535645789937
 30
0.0
  0
SPLINE
  5
124
330
1F
100
AcDbEntity
  8
0
  6
Continuous
 62
     7
370
    15
100
AcDbSpline
210
0.0
220
0.0
230
1.0
 70
     8
 71
     3
 72
    16
 73
    12
 74
     0
 42
0.00000001
 43
0.00000001
 12
1.0
 22
0.0
 32
0.0
 13
1.0
 23
0.0
 33
0.0
 40
0.0
 40
0.0
 40
0.0
 40
0.0
 40
0.2500000000000019
 40
0.2500000000000019
 40
0.5000000000000039
 40
0.5000000000000039
 40
0.6250000000000049
 40
0.6250000000000049
 40
0.7500000000000058
 40
0.7500000000000058
 40
1.0
 40
1.0
 40
1.0
 40
1.0
 10
75.71432903992141
 20
799.5420218471136
 30
0.0
 10
75.95925055450377
 20
798.6935888328667
 30
0.0
 10
76.16111027454029
 20
797.8389700212451
 30
0.0
 10
76.4407515461374
 20
796.1119086538486
 30
0.0
 10
76.5176106808657
 20
795.2393335935252
 30
0.0
 10
76.51845484203488
 20
793.9140311229042
 30
0.0
 10
76.4996657553648
 20
793.4701850073426
 30
0.0
 10
76.42639826328394
 20
792.5922105693523
 30
0.0
 10
76.37199421162059
 20
792.1561668724563
 30
0.0
 10
76.16191515326858
 20
790.8557989440166
 30
0.0
 10
75.95955586010126
 20
789.9992076255608
 30
0.0
 10
75.71432903992124
 20
789.1497170017001
 30
0.0
  0
LINE
  5
125
330
1F
100
AcDbEntity
  8
0
  6
Continuous
 62
     7
370
    15
100
AcDbLine
 10
76.9511877455
 20
801.4905848305
 30
0.0
 11
76.9511877455
 21
802.5958635609
 31
0.0
  0
LINE
  5
126
330
1F
100
AcDbEntity
  8
0
  6
Continuous
 62
     7
370
    15
100
AcDbLine
 10
76.9511877455
 20
786.0958673756
 30
0.0
 11
76.9511877455
 21
801.4905848305
 31
0.0
  0
LINE
  5
127
330
1F
100
AcDbEntity
  8
0
  6
Continuous
 62
     7
370
    15
100
AcDbLine
 10
67.7880464949
 20
789.1497113507
 30
0.0
 11
75.7143317618
 21
789.1497113507
 31
0.0
  0
SPLINE
  5
128
330
1F
100
AcDbEntity
  8
0
  6
Continuous
 62
     7
370
    15
100
AcDbSpline
210
0.0
220
0.0
230
1.0
 70
     8
 71
     3
 72
    16
 73
    12
 74
     0
 42
0.00000001
 43
0.00000001
 12
1.0
 22
0.0
 32
0.0
 13
1.0
 23
0.0
 33
0.0
 40
0.0
 40
0.0
 40
0.0
 40
0.0
 40
0.2499999999999981
 40
0.2499999999999981
 40
0.4999999999999961
 40
0.4999999999999961
 40
0.6249999999999951
 40
0.6249999999999951
 40
0.7499999999999942
 40
0.7499999999999942
 40
1.0
 40
1.0
 40
1.0
 40
1.0
 10
67.7880495982918
 20
789.1497170017001
 30
0.0
 10
67.54312808370933
 20
789.9981500159469
 30
0.0
 10
67.3412683636729
 20
790.8527688275684
 30
0.0
 10
67.06162709207585
 20
792.5798301949651
 30
0.0
 10
66.9847679573475
 20
793.4524052552883
 30
0.0
 10
66.98392379617827
 20
794.7777077259093
 30
0.0
 10
67.00271288284836
 20
795.2215538414711
 30
0.0
 10
67.07598037492919
 20
796.0995282794612
 30
0.0
 10
67.13038442659263
 20
796.5355719763572
 30
0.0
 10
67.34046348494468
 20
797.8359399047971
 30
0.0
 10
67.5428227781119
 20
798.6925312232528
 30
0.0
 10
67.78804959829195
 20
799.5420218471135
 30
0.0
  0
SPLINE
  5
129
330
1F
100
AcDbEntity
  8
0
  6
Continuous
 62
     7
370
    15
100
AcDbSpline
210
0.0
220
0.0
230
1.0
 70
     8
 71
     3
 72
    16
 73
    12
 74
     0
 42
0.00000001
 43
0.00000001
 12
1.0
 22
0.0
 32
0.0
 13
1.0
 23
0.0
 33
0.0
 40
0.0
 40
0.0
 40
0.0
 40
0.0
 40
0.2500000000000007
 40
0.2500000000000007
 40
0.5000000000000014
 40
0.5000000000000014
 40
0.6250000000000001
 40
0.6250000000000001
 40
0.7499999999999988
 40
0.7499999999999988
 40
1.0
 40
1.0
 40
1.0
 40
1.0
 10
67.7880495982918
 20
783.9535645789936
 30
0.0
 10
67.54312808370933
 20
784.377781086117
 30
0.0
 10
67.34126836367295
 20
784.8050904919277
 30
0.0
 10
67.06162709207582
 20
785.6686211756261
 30
0.0
 10
66.98476795734751
 20
786.1049087057877
 30
0.0
 10
66.9839237961783
 20
786.7675599410982
 30
0.0
 10
67.00271288284839
 20
786.989482998879
 30
0.0
 10
67.07598037492922
 20
787.4284702178742
 30
0.0
 10
67.13038442659257
 20
787.6464920663221
 30
0.0
 10
67.34046348494468
 20
788.2966760305419
 30
0.0
 10
67.54282277811198
 20
788.7249716897697
 30
0.0
 10
67.78804959829198
 20
789.1497170017001
 30
0.0
  0
LINE
  5
12A
330
1F
100
AcDbEntity
  8
0
  6
Continuous
 62
     7
370
    15
100
AcDbLine
 10
67.7880464949
 20
783.9535572331
 30
0.0
 11
75.7143317618
 21
783.9535572331
 31
0.0
  0
SPLINE
  5
12B
330
1F
100
AcDbEntity
  8
0
  6
Continuous
 62
     7
370
    15
100
AcDbSpline
210
0.0
220
0.0
230
1.0
 70
     8
 71
     3
 72
    16
 73
    12
 74
     0
 42
0.00000001
 43
0.00000001
 12
1.0
 22
0.0
 32
0.0
 13
1.0
 23
0.0
 33
0.0
 40
0.0
 40
0.0
 40
0.0
 40
0.0
 40
0.2499999999999993
 40
0.2499999999999993
 40
0.4999999999999986
 40
0.4999999999999986
 40
0.6249999999999999
 40
0.6249999999999999
 40
0.7500000000000011
 40
0.7500000000000011
 40
1.0
 40
1.0
 40
1.0
 40
1.0
 10
75.71432903992147
 20
463.5241651787523
 30
0.0
 10
75.95925055450388
 20
463.0999486716289
 30
0.0
 10
76.16111027454035
 20
462.6726392658181
 30
0.0
 10
76.44075154613743
 20
461.8091085821198
 30
0.0
 10
76.51761068086576
 20
461.3728210519581
 30
0.0
 10
76.51845484203494
 20
460.7101698166477
 30
0.0
 10
76.49966575536486
 20
460.4882467588668
 30
0.0
 10
76.42639826328403
 20
460.0492595398717
 30
0.0
 10
76.37199421162062
 20
459.8312376914237
 30
0.0
 10
76.16191515326858
 20
459.1810537272038
 30
0.0
 10
75.95955586010132
 20
458.752758067976
 30
0.0
 10
75.71432903992127
 20
458.3280127560456
 30
0.0
  0
SPLINE
  5
12C
330
1F
100
AcDbEntity
  8
0
  6
Continuous
 62
     7
370
    15
100
AcDbSpline
210
0.0
220
0.0
230
1.0
 70
     8
 71
     3
 72
    16
 73
    12
 74
     0
 42
0.00000001
 43
0.00000001
 12
1.0
 22
0.0
 32
0.0
 13
1.0
 23
0.0
 33
0.0
 40
0.0
 40
0.0
 40
0.0
 40
0.0
 40
0.2499999999999982
 40
0.2499999999999982
 40
0.4999999999999964
 40
0.4999999999999964
 40
0.6249999999999973
 40
0.6249999999999973
 40
0.7499999999999982
 40
0.7499999999999982
 40
1.0
 40
1.0
 40
1.0
 40
1.0
 10
75.71432903992108
 20
442.7395554879258
 30
0.0
 10
75.95830433645149
 20
443.1621330973081
 30
0.0
 10
76.16299829194251
 20
443.5950470457132
 30
0.0
 10
76.44285206426808
 20
444.4629897163032
 30
0.0
 10
76.51826063855911
 20
444.8993097841881
 30
0.0
 10
76.51813449932644
 20
445.5579122525747
 30
0.0
 10
76.49944303313285
 20
445.7781253244835
 30
0.0
 10
76.42526817607578
 20
446.2198908460686
 30
0.0
 10
76.37009192775503
 20
446.4394443353171
 30
0.0
 10
76.15875488767946
 20
447.0902458973747
 30
0.0
 10
75.9567918233099
 20
447.5157500508581
 30
0.0
 10
75.71432903992103
 20
447.9357079106324
 30
0.0
  0
SPLINE
  5
12D
330
1F
100
AcDbEntity
  8
0
  6
Continuous
 62
     7
370
    15
100
AcDbSpline
210
0.0
220
0.0
230
1.0
 70
     8
 71
     3
 72
    16
 73
    12
 74
     0
 42
0.00000001
 43
0.00000001
 12
1.0
 22
0.0
 32
0.0
 13
1.0
 23
0.0
 33
0.0
 40
0.0
 40
0.0
 40
0.0
 40
0.0
 40
0.2500000000000019
 40
0.2500000000000019
 40
0.5000000000000039
 40
0.5000000000000039
 40
0.6250000000000049
 40
0.6250000000000049
 40
0.7500000000000058
 40
0.7500000000000058
 40
1.0
 40
1.0
 40
1.0
 40
1.0
 10
75.71432903992144
 20
458.3280127560457
 30
0.0
 10
75.95925055450383
 20
457.4795797417989
 30
0.0
 10
76.16111027454029
 20
456.6249609301774
 30
0.0
 10
76.44075154613743
 20
454.8978995627807
 30
0.0
 10
76.5176106808657
 20
454.0253245024573
 30
0.0
 10
76.51845484203488
 20
452.7000220318365
 30
0.0
 10
76.4996657553648
 20
452.2561759162747
 30
0.0
 10
76.42639826328394
 20
451.3782014782846
 30
0.0
 10
76.37199421162059
 20
450.9421577813883
 30
0.0
 10
76.16191515326858
 20
449.6417898529488
 30
0.0
 10
75.95955586010126
 20
448.785198534493
 30
0.0
 10
75.71432903992124
 20
447.9357079106323
 30
0.0
  0
LINE
  5
12E
330
1F
100
AcDbEntity
  8
0
  6
Continuous
 62
     7
370
    15
100
AcDbLine
 10
76.9511877455
 20
445.9871449272
 30
0.0
 11
76.9511877455
 21
461.3818623822
 31
0.0
  0
LINE
  5
12F
330
1F
100
AcDbEntity
  8
0
  6
Continuous
 62
     7
370
    15
100
AcDbLine
 10
76.9511877455
 20
444.8818661969
 30
0.0
 11
76.9511877455
 21
445.9871449272
 31
0.0
  0
LINE
  5
130
330
1F
100
AcDbEntity
  8
0
  6
Continuous
 62
     7
370
    15
100
AcDbLine
 10
67.7880464949
 20
463.5241725247
 30
0.0
 11
75.7143317618
 21
463.5241725247
 31
0.0
  0
LINE
  5
131
330
1F
100
AcDbEntity
  8
0
  6
Continuous
 62
     7
370
    15
100
AcDbLine
 10
67.7880464949
 20
458.3280184071
 30
0.0
 11
75.7143317618
 21
458.3280184071
 31
0.0
  0
SPLINE
  5
132
330
1F
100
AcDbEntity
  8
0
  6
Continuous
 62
     7
370
    15
100
AcDbSpline
210
0.0
220
0.0
230
1.0
 70
     8
 71
     3
 72
    16
 73
    12
 74
     0
 42
0.00000001
 43
0.00000001
 12
1.0
 22
0.0
 32
0.0
 13
1.0
 23
0.0
 33
0.0
 40
0.0
 40
0.0
 40
0.0
 40
0.0
 40
0.2500000000000008
 40
0.2500000000000008
 40
0.5000000000000017
 40
0.5000000000000017
 40
0.6250000000000021
 40
0.6250000000000021
 40
0.7500000000000024
 40
0.7500000000000024
 40
1.0
 40
1.0
 40
1.0
 40
1.0
 10
67.78804959829178
 20
458.3280127560456
 30
0.0
 10
67.54312808370936
 20
458.7522292631691
 30
0.0
 10
67.34126836367287
 20
459.1795386689798
 30
0.0
 10
67.06162709207585
 20
460.0430693526782
 30
0.0
 10
66.98476795734751
 20
460.4793568828398
 30
0.0
 10
66.9839237961783
 20
461.1420081181503
 30
0.0
 10
67.00271288284844
 20
461.3639311759311
 30
0.0
 10
67.07598037492924
 20
461.8029183949263
 30
0.0
 10
67.13038442659263
 20
462.0209402433742
 30
0.0
 10
67.34046348494462
 20
462.6711242075942
 30
0.0
 10
67.54282277811204
 20
463.099419866822
 30
0.0
 10
67.788049598292
 20
463.5241651787524
 30
0.0
  0
LINE
  5
133
330
1F
100
AcDbEntity
  8
0
  6
Continuous
 62
     7
370
    15
100
AcDbLine
 10
67.7880464949
 20
447.9357101719
 30
0.0
 11
75.7143317618
 21
447.9357101719
 31
0.0
  0
LINE
  5
134
330
1F
100
AcDbEntity
  8
0
  6
Continuous
 62
     7
370
    15
100
AcDbLine
 10
67.7880464949
 20
442.7395560543
 30
0.0
 11
75.7143317618
 21
442.7395560543
 31
0.0
  0
SPLINE
  5
135
330
1F
100
AcDbEntity
  8
0
  6
Continuous
 62
     7
370
    15
100
AcDbSpline
210
0.0
220
0.0
230
1.0
 70
     8
 71
     3
 72
    16
 73
    12
 74
     0
 42
0.00000001
 43
0.00000001
 12
1.0
 22
0.0
 32
0.0
 13
1.0
 23
0.0
 33
0.0
 40
0.0
 40
0.0
 40
0.0
 40
0.0
 40
0.2499999999999982
 40
0.2499999999999982
 40
0.4999999999999964
 40
0.4999999999999964
 40
0.6249999999999973
 40
0.6249999999999973
 40
0.7499999999999982
 40
0.7499999999999982
 40
1.0
 40
1.0
 40
1.0
 40
1.0
 10
67.78804959829209
 20
442.7395554879258
 30
0.0
 10
67.54407430176164
 20
443.1621330973081
 30
0.0
 10
67.33938034627067
 20
443.5950470457132
 30
0.0
 10
67.05952657394516
 20
444.4629897163032
 30
0.0
 10
66.9841179996541
 20
444.8993097841881
 30
0.0
 10
66.98424413888678
 20
445.5579122525747
 30
0.0
 10
67.00293560508035
 20
445.7781253244835
 30
0.0
 10
67.0771104621374
 20
446.2198908460686
 30
0.0
 10
67.13228671045813
 20
446.4394443353171
 30
0.0
 10
67.34362375053364
 20
447.0902458973746
 30
0.0
 10
67.54558681490315
 20
447.5157500508581
 30
0.0
 10
67.78804959829215
 20
447.9357079106323
 30
0.0
  0
SPLINE
  5
136
330
1F
100
AcDbEntity
  8
0
  6
Continuous
 62
     7
370
    15
100
AcDbSpline
210
0.0
220
0.0
230
1.0
 70
     8
 71
     3
 72
    16
 73
    12
 74
     0
 42
0.00000001
 43
0.00000001
 12
1.0
 22
0.0
 32
0.0
 13
1.0
 23
0.0
 33
0.0
 40
0.0
 40
0.0
 40
0.0
 40
0.0
 40
0.2500000000000059
 40
0.2500000000000059
 40
0.5000000000000118
 40
0.5000000000000118
 40
0.6250000000000108
 40
0.6250000000000108
 40
0.7500000000000099
 40
0.7500000000000099
 40
1.0
 40
1.0
 40
1.0
 40
1.0
 10
67.78804959829175
 20
447.9357079106323
 30
0.0
 10
67.5431280837093
 20
448.7841409248792
 30
0.0
 10
67.34126836367284
 20
449.6387597365006
 30
0.0
 10
67.06162709207582
 20
451.3658211038974
 30
0.0
 10
66.98476795734751
 20
452.2383961642207
 30
0.0
 10
66.9839237961783
 20
453.5636986348416
 30
0.0
 10
67.00271288284836
 20
454.0075447504033
 30
0.0
 10
67.07598037492919
 20
454.8855191883935
 30
0.0
 10
67.13038442659257
 20
455.3215628852896
 30
0.0
 10
67.34046348494459
 20
456.6219308137293
 30
0.0
 10
67.54282277811198
 20
457.478522132185
 30
0.0
 10
67.788049598292
 20
458.3280127560457
 30
0.0
  0
LINE
  5
137
330
1F
100
AcDbEntity
  8
0
  6
Continuous
 62
     7
370
    15
100
AcDbLine
 10
117.0511885442
 20
799.5420195858
 30
0.0
 11
117.0511885442
 21
800.3458627264
 31
0.0
  0
LINE
  5
138
330
1F
100
AcDbEntity
  8
0
  6
Continuous
 62
     7
370
    15
100
AcDbLine
 10
117.0511885442
 20
788.3458682101
 30
0.0
 11
117.0511885442
 21
799.5420195858
 31
0.0
  0
LINE
  5
139
330
1F
100
AcDbEntity
  8
0
  6
Continuous
 62
     7
370
    15
100
AcDbLine
 10
117.0511885442
 20
447.9357101719
 30
0.0
 11
117.0511885442
 21
459.1318615477
 31
0.0
  0
LINE
  5
13A
330
1F
100
AcDbEntity
  8
0
  6
Continuous
 62
     7
370
    15
100
AcDbLine
 10
117.0511885442
 20
447.1318670313
 30
0.0
 11
117.0511885442
 21
447.9357101719
 31
0.0
  0
LINE
  5
13B
330
1F
100
AcDbEntity
  8
0
  6
Continuous
 62
     7
370
    15
100
AcDbLine
 10
194.2511896499
 20
786.6957583229
 30
0.0
 11
194.2511896499
 21
789.4803681176
 31
0.0
  0
SPLINE
  5
13C
330
1F
100
AcDbEntity
  8
0
  6
Continuous
 62
     7
370
    15
100
AcDbSpline
210
0.0
220
0.0
230
1.0
 70
     8
 71
     3
 72
    11
 73
     7
 74
     0
 42
0.00000001
 43
0.00000001
 12
1.0
 22
0.0
 32
0.0
 13
1.0
 23
0.0
 33
0.0
 40
0.0
 40
0.0
 40
0.0
 40
0.0
 40
0.3051699504125144
 40
0.6104256002272926
 40
0.9155253263334632
 40
1.0
 40
1.0
 40
1.0
 40
1.0
 10
175.1588850178447
 20
789.4803681175516
 30
0.0
 10
175.0026615117305
 20
789.2006798871805
 30
0.0
 10
174.6901706280101
 20
788.6412248829444
 30
0.0
 10
174.3050289653133
 20
787.7916549762721
 30
0.0
 10
174.0452797404496
 20
787.142902296835
 30
0.0
 10
173.947990337707
 20
786.7754385573105
 30
0.0
 10
173.9268942632403
 20
786.6957583229349
 30
0.0
  0
LINE
  5
13D
330
1F
100
AcDbEntity
  8
0
  6
Continuous
 62
     7
370
    15
100
AcDbLine
 10
194.2511896499
 20
789.4803681176
 30
0.0
 11
175.1588850178
 21
789.4803681176
 31
0.0
  0
LINE
  5
13E
330
1F
100
AcDbEntity
  8
0
  6
Continuous
 62
     8
370
     0
100
AcDbLine
 10
60.8001767554
 20
765.2992256682
 30
0.0
 11
60.8001767554
 21
482.1785040896
 31
0.0
  0
LINE
  5
13F
330
1F
100
AcDbEntity
  8
0
  6
Continuous
 62
     8
370
     0
100
AcDbLine
 10
57.8115998664
 20
762.5445970099
 30
0.0
 11
57.8115998664
 21
484.9331327479
 31
0.0
  0
LINE
  5
140
330
1F
100
AcDbEntity
  8
0
  6
Continuous
 62
     8
370
     0
100
AcDbLine
 10
57.8115998664
 20
466.781968693
 30
0.0
 11
57.8115998664
 21
415.477404813
 31
0.0
  0
LINE
  5
141
330
1F
100
AcDbEntity
  8
0
  6
Continuous
 62
     8
370
     0
100
AcDbLine
 10
57.8115998664
 20
832.0003249447
 30
0.0
 11
57.8115998664
 21
780.6957610647
 31
0.0
  0
LINE
  5
142
330
1F
100
AcDbEntity
  8
0
  6
Continuous
 62
     8
370
     0
100
AcDbLine
 10
56.3893287339
 20
447.1318670313
 30
0.0
 11
56.3893287339
 21
431.7340501349
 31
0.0
  0
LINE
  5
143
330
1F
100
AcDbEntity
  8
0
  6
Continuous
 62
     8
370
     0
100
AcDbLine
 10
56.3893287339
 20
617.7388648267
 30
0.0
 11
56.3893287339
 21
490.7819726269
 31
0.0
  0
LINE
  5
144
330
1F
100
AcDbEntity
  8
0
  6
Continuous
 62
     8
370
     0
100
AcDbLine
 10
56.3893287339
 20
466.781968693
 30
0.0
 11
56.3893287339
 21
459.1227718394
 31
0.0
  0
LINE
  5
145
330
1F
100
AcDbEntity
  8
0
  6
Continuous
 62
     8
370
     0
100
AcDbLine
 10
56.3893287339
 20
788.3549579184
 30
0.0
 11
56.3893287339
 21
780.6957610647
 31
0.0
  0
LINE
  5
146
330
1F
100
AcDbEntity
  8
0
  6
Continuous
 62
     8
370
     0
100
AcDbLine
 10
56.3893287339
 20
756.6957571308
 30
0.0
 11
56.3893287339
 21
629.738864931
 31
0.0
  0
LINE
  5
147
330
1F
100
AcDbEntity
  8
0
  6
Continuous
 62
     8
370
     0
100
AcDbLine
 10
56.3893287339
 20
815.7436796229
 30
0.0
 11
56.3893287339
 21
800.3458627264
 31
0.0
  0
LINE
  5
148
330
1F
100
AcDbEntity
  8
0
  6
Continuous
 62
     8
370
     0
100
AcDbLine
 10
51.6700266757
 20
811.1863084833
 30
0.0
 11
51.6700266757
 21
800.3458627264
 31
0.0
  0
LINE
  5
149
330
1F
100
AcDbEntity
  8
0
  6
Continuous
 62
     8
370
     0
100
AcDbLine
 10
51.6700266757
 20
788.3458682101
 30
0.0
 11
51.6700266757
 21
780.6957610647
 31
0.0
  0
LINE
  5
14A
330
1F
100
AcDbEntity
  8
0
  6
Continuous
 62
     8
370
     0
100
AcDbLine
 10
51.6700266757
 20
756.6957571308
 30
0.0
 11
51.6700266757
 21
629.738864931
 31
0.0
  0
LINE
  5
14B
330
1F
100
AcDbEntity
  8
0
  6
Continuous
 62
     8
370
     0
100
AcDbLine
 10
51.6700266757
 20
617.7388648267
 30
0.0
 11
51.6700266757
 21
490.7819726269
 31
0.0
  0
LINE
  5
14C
330
1F
100
AcDbEntity
  8
0
  6
Continuous
 62
     8
370
     0
100
AcDbLine
 10
51.6700266757
 20
466.781968693
 30
0.0
 11
51.6700266757
 21
459.1318615477
 31
0.0
  0
LINE
  5
14D
330
1F
100
AcDbEntity
  8
0
  6
Continuous
 62
     8
370
     0
100
AcDbLine
 10
51.6700266757
 20
447.1318670313
 30
0.0
 11
51.6700266757
 21
436.2914212744
 31
0.0
  0
LINE
  5
14E
330
1F
100
AcDbEntity
  8
0
  6
Continuous
 62
     8
370
     0
100
AcDbLine
 10
26.4203517594
 20
809.8630257647
 30
0.0
 11
26.4203517594
 21
800.3458627264
 31
0.0
  0
LINE
  5
14F
330
1F
100
AcDbEntity
  8
0
  6
Continuous
 62
     8
370
     0
100
AcDbLine
 10
26.4203517594
 20
788.3458682101
 30
0.0
 11
26.4203517594
 21
780.6957610647
 31
0.0
  0
LINE
  5
150
330
1F
100
AcDbEntity
  8
0
  6
Continuous
 62
     8
370
     0
100
AcDbLine
 10
26.4203517594
 20
756.6957571308
 30
0.0
 11
26.4203517594
 21
629.738864931
 31
0.0
  0
LINE
  5
151
330
1F
100
AcDbEntity
  8
0
  6
Continuous
 62
     8
370
     0
100
AcDbLine
 10
26.4203517594
 20
617.7388648267
 30
0.0
 11
26.4203517594
 21
490.7819726269
 31
0.0
  0
LINE
  5
152
330
1F
100
AcDbEntity
  8
0
  6
Continuous
 62
     8
370
     0
100
AcDbLine
 10
26.4203517594
 20
466.781968693
 30
0.0
 11
26.4203517594
 21
459.1318615477
 31
0.0
  0
LINE
  5
153
330
1F
100
AcDbEntity
  8
0
  6
Continuous
 62
     8
370
     0
100
AcDbLine
 10
26.4203517594
 20
447.1318670313
 30
0.0
 11
26.4203517594
 21
437.6147039931
 31
0.0
  0
LINE
  5
154
330
1F
100
AcDbEntity
  8
0
  6
Continuous
 62
     8
370
     0
100
AcDbLine
 10
60.8001767554
 20
466.781968693
 30
0.0
 11
60.8001767554
 21
412.7388694088
 31
0.0
  0
LINE
  5
155
330
1F
100
AcDbEntity
  8
0
  6
Continuous
 62
     8
370
     0
100
AcDbLine
 10
60.8001767554
 20
834.7388603489
 30
0.0
 11
60.8001767554
 21
780.6957610647
 31
0.0
  0
LINE
  5
156
330
1F
100
AcDbEntity
  8
FORMAT
  6
CENTERX2
370
     0
100
AcDbLine
 10
-261.2922250755
 20
623.7388648789
 30
0.0
 11
348.8188506474
 21
623.7388648789
 31
0.0
  0
CIRCLE
  5
157
330
1F
100
AcDbEntity
  8
0
  6
Continuous
 62
     7
370
    15
100
AcDbCircle
 10
854.4167958773
 20
768.6957550221
 30
0.0
 40
12.0
  0
CIRCLE
  5
158
330
1F
100
AcDbEntity
  8
0
  6
Continuous
 62
     7
370
    15
100
AcDbCircle
 10
854.4167958773
 20
478.7819747356
 30
0.0
 40
12.0
  0
CIRCLE
  5
159
330
1F
100
AcDbEntity
  8
0
  6
Continuous
 62
     7
370
    15
100
AcDbCircle
 10
564.5030155909
 20
478.7819747356
 30
0.0
 40
12.0
  0
CIRCLE
  5
15A
330
1F
100
AcDbEntity
  8
0
  6
Continuous
 62
     7
370
    15
100
AcDbCircle
 10
564.5030155909
 20
768.6957550221
 30
0.0
 40
12.0
  0
CIRCLE
  5
15B
330
1F
100
AcDbEntity
  8
0
  6
Continuous
 62
     7
370
    15
100
AcDbCircle
 10
656.4020014881
 20
821.7536592681
 30
0.0
 40
14.0
  0
CIRCLE
  5
15C
330
1F
100
AcDbEntity
  8
0
  6
Continuous
 62
     7
370
    15
100
AcDbCircle
 10
511.4451113449
 20
570.6809606328
 30
0.0
 40
14.00000000001671
  0
CIRCLE
  5
15D
330
1F
100
AcDbEntity
  8
0
  6
Continuous
 62
     7
370
    15
100
AcDbCircle
 10
762.5178099801
 20
425.7240704896
 30
0.0
 40
14.00000000001251
  0
CIRCLE
  5
15E
330
1F
100
AcDbEntity
  8
0
  6
Continuous
 62
     7
370
    15
100
AcDbCircle
 10
907.4747001234
 20
676.7967691249
 30
0.0
 40
14.0
  0
CIRCLE
  5
15F
330
1F
100
AcDbEntity
  8
0
  6
Continuous
 62
     7
370
    15
100
AcDbCircle
 10
762.5178099801
 20
821.7536592681
 30
0.0
 40
14.0
  0
CIRCLE
  5
160
330
1F
100
AcDbEntity
  8
0
  6
Continuous
 62
     7
370
    15
100
AcDbCircle
 10
907.4747001234
 20
570.6809606329
 30
0.0
 40
14.00000000000318
  0
CIRCLE
  5
161
330
1F
100
AcDbEntity
  8
0
  6
Continuous
 62
     7
370
    15
100
AcDbCircle
 10
656.4020014881
 20
425.7240704896
 30
0.0
 40
14.00000000001592
  0
CIRCLE
  5
162
330
1F
100
AcDbEntity
  8
0
  6
Continuous
 62
     7
370
    15
100
AcDbCircle
 10
511.4451113448
 20
676.7967691249
 30
0.0
 40
14.00000000001404
  0
CIRCLE
  5
163
330
1F
100
AcDbEntity
  8
0
  6
Continuous
 62
     7
370
    15
100
AcDbCircle
 10
709.4599057341
 20
623.7388648789
 30
0.0
 40
150.0000000000001
  0
CIRCLE
  5
164
330
1F
100
AcDbEntity
  8
0
  6
Continuous
 62
     7
370
    15
100
AcDbCircle
 10
709.4599057341
 20
623.7388648789
 30
0.0
 40
230.0
  0
ARC
  5
165
330
1F
100
AcDbEntity
  8
0
  6
Continuous
 62
     7
370
    15
100
AcDbCircle
 10
709.4599057341
 20
623.7388648789
 30
0.0
 40
211.0
100
AcDbArc
 50
191.5147701595
 51
198.4852298405
  0
ARC
  5
166
330
1F
100
AcDbEntity
  8
0
  6
Continuous
 62
     7
370
    15
100
AcDbCircle
 10
709.4599057341
 20
623.7388648789
 30
0.0
 40
211.0
100
AcDbArc
 50
161.5147701595
 51
168.4852298405
  0
ARC
  5
167
330
1F
100
AcDbEntity
  8
0
  6
Continuous
 62
     7
370
    15
100
AcDbCircle
 10
709.4599057341
 20
623.7388648789
 30
0.0
 40
211.0000000000001
100
AcDbArc
 50
281.5147701595
 51
288.4852298405
  0
ARC
  5
168
330
1F
100
AcDbEntity
  8
0
  6
Continuous
 62
     7
370
    15
100
AcDbCircle
 10
709.4599057341
 20
623.7388648789
 30
0.0
 40
211.0000000000001
100
AcDbArc
 50
251.5147701595
 51
258.4852298405
  0
ARC
  5
169
330
1F
100
AcDbEntity
  8
0
  6
Continuous
 62
     7
370
    15
100
AcDbCircle
 10
709.4599057341
 20
623.7388648789
 30
0.0
 40
211.0000000000001
100
AcDbArc
 50
101.5147701595
 51
108.4852298405
  0
ARC
  5
16A
330
1F
100
AcDbEntity
  8
0
  6
Continuous
 62
     7
370
    15
100
AcDbCircle
 10
709.4599057341
 20
623.7388648789
 30
0.0
 40
211.0
100
AcDbArc
 50
71.5147701595
 51
78.4852298405
  0
ARC
  5
16B
330
1F
100
AcDbEntity
  8
0
  6
Continuous
 62
     7
370
    15
100
AcDbCircle
 10
709.4599057341
 20
623.7388648789
 30
0.0
 40
211.0000000000001
100
AcDbArc
 50
11.5147701595
 51
18.4852298405
  0
ARC
  5
16C
330
1F
100
AcDbEntity
  8
0
  6
Continuous
 62
     7
370
    15
100
AcDbCircle
 10
709.4599057341
 20
623.7388648789
 30
0.0
 40
211.0000000000001
100
AcDbArc
 50
341.5147701595
 51
348.4852298405
  0
ARC
  5
16D
330
1F
100
AcDbEntity
  8
0
  6
Continuous
 62
     8
370
     0
100
AcDbCircle
 10
709.4599057341
 20
623.7388648789
 30
0.0
 40
192.004811167402
100
AcDbArc
 50
103.4958625348
 51
106.5041374652
  0
ARC
  5
16E
330
1F
100
AcDbEntity
  8
0
  6
Continuous
 62
     8
370
     0
100
AcDbCircle
 10
709.4599057341
 20
623.7388648789
 30
0.0
 40
192.0048111674022
100
AcDbArc
 50
73.4958625348
 51
76.5041374652
  0
ARC
  5
16F
330
1F
100
AcDbEntity
  8
0
  6
Continuous
 62
     8
370
     0
100
AcDbCircle
 10
709.4599057341
 20
623.7388648789
 30
0.0
 40
192.0048111674021
100
AcDbArc
 50
13.4958625348
 51
16.5041374652
  0
ARC
  5
170
330
1F
100
AcDbEntity
  8
0
  6
Continuous
 62
     8
370
     0
100
AcDbCircle
 10
709.4599057341
 20
623.7388648789
 30
0.0
 40
192.0048111674021
100
AcDbArc
 50
343.4958625348
 51
346.5041374652
  0
ARC
  5
171
330
1F
100
AcDbEntity
  8
0
  6
Continuous
 62
     8
370
     0
100
AcDbCircle
 10
709.4599057341
 20
623.7388648789
 30
0.0
 40
192.0048111674022
100
AcDbArc
 50
283.4958625348
 51
286.5041374652
  0
ARC
  5
172
330
1F
100
AcDbEntity
  8
0
  6
Continuous
 62
     8
370
     0
100
AcDbCircle
 10
709.4599057341
 20
623.7388648789
 30
0.0
 40
192.004811167402
100
AcDbArc
 50
253.4958625348
 51
256.5041374652
  0
ARC
  5
173
330
1F
100
AcDbEntity
  8
0
  6
Continuous
 62
     8
370
     0
100
AcDbCircle
 10
709.4599057341
 20
623.7388648789
 30
0.0
 40
192.0048111674021
100
AcDbArc
 50
193.4958625348
 51
196.5041374652
  0
ARC
  5
174
330
1F
100
AcDbEntity
  8
0
  6
Continuous
 62
     8
370
     0
100
AcDbCircle
 10
709.4599057341
 20
623.7388648789
 30
0.0
 40
192.0048111674021
100
AcDbArc
 50
163.4958625348
 51
166.5041374652
  0
ARC
  5
175
330
1F
100
AcDbEntity
  8
0
  6
Continuous
 62
     8
370
     0
100
AcDbCircle
 10
709.4599057341
 20
623.7388648789
 30
0.0
 40
208.261467228243
100
AcDbArc
 50
281.2240071397
 51
288.7759928603
  0
ARC
  5
176
330
1F
100
AcDbEntity
  8
0
  6
Continuous
 62
     8
370
     0
100
AcDbCircle
 10
709.4599057341
 20
623.7388648789
 30
0.0
 40
208.261467228243
100
AcDbArc
 50
251.2240071397
 51
258.7759928603
  0
ARC
  5
177
330
1F
100
AcDbEntity
  8
0
  6
Continuous
 62
     8
370
     0
100
AcDbCircle
 10
709.4599057341
 20
623.7388648789
 30
0.0
 40
208.2614672282429
100
AcDbArc
 50
191.2240071397
 51
198.7759928603
  0
ARC
  5
178
330
1F
100
AcDbEntity
  8
0
  6
Continuous
 62
     8
370
     0
100
AcDbCircle
 10
709.4599057341
 20
623.7388648789
 30
0.0
 40
208.261467228243
100
AcDbArc
 50
161.2240071397
 51
168.7759928603
  0
ARC
  5
179
330
1F
100
AcDbEntity
  8
0
  6
Continuous
 62
     8
370
     0
100
AcDbCircle
 10
709.4599057341
 20
623.7388648789
 30
0.0
 40
208.261467228243
100
AcDbArc
 50
101.2240071397
 51
108.7759928603
  0
ARC
  5
17A
330
1F
100
AcDbEntity
  8
0
  6
Continuous
 62
     8
370
     0
100
AcDbCircle
 10
709.4599057341
 20
623.7388648789
 30
0.0
 40
208.261467228243
100
AcDbArc
 50
71.2240071397
 51
78.7759928603
  0
ARC
  5
17B
330
1F
100
AcDbEntity
  8
0
  6
Continuous
 62
     8
370
     0
100
AcDbCircle
 10
709.4599057341
 20
623.7388648789
 30
0.0
 40
208.2614672282431
100
AcDbArc
 50
11.2240071397
 51
18.7759928603
  0
ARC
  5
17C
330
1F
100
AcDbEntity
  8
0
  6
Continuous
 62
     8
370
     0
100
AcDbCircle
 10
709.4599057341
 20
623.7388648789
 30
0.0
 40
208.261467228243
100
AcDbArc
 50
341.2240071397
 51
348.7759928603
  0
INSERT
  5
1DC
330
1F
100
AcDbEntity
  8
FORMAT
100
AcDbBlockReference
  2
SW_CENTERMARKSYMBOL_0
 10
656.4020014881
 20
821.7536592681
 30
0.0
  0
LINE
  5
1DD
330
1F
100
AcDbEntity
  8
0
  6
Continuous
 62
     7
370
    15
100
AcDbLine
 10
224.0511893191
 20
291.4897134809
 30
0.0
 11
199.0511889466
 21
291.4897134809
 31
0.0
  0
LINE
  5
1DE
330
1F
100
AcDbEntity
  8
0
  6
Continuous
 62
     7
370
    15
100
AcDbLine
 10
199.0511889466
 20
-168.5102948637
 30
0.0
 11
224.0511893191
 21
-168.5102948637
 31
0.0
  0
LINE
  5
1DF
330
1F
100
AcDbEntity
  8
0
  6
Continuous
 62
     7
370
    15
100
AcDbLine
 10
-110.9488190255
 20
291.4897134809
 30
0.0
 11
-135.948824986
 21
291.4897134809
 31
0.0
  0
LINE
  5
1E0
330
1F
100
AcDbEntity
  8
0
  6
Continuous
 62
     7
370
    15
100
AcDbLine
 10
-135.948824986
 20
-168.5102948637
 30
0.0
 11
-110.9488190255
 21
-168.5102948637
 31
0.0
  0
LINE
  5
1E1
330
1F
100
AcDbEntity
  8
0
  6
Continuous
 62
     7
370
    15
100
AcDbLine
 10
57.8115998664
 20
269.7511693745
 30
0.0
 11
57.3508261599
 21
264.4845923691
 31
0.0
  0
LINE
  5
1E2
330
1F
100
AcDbEntity
  8
0
  6
Continuous
 62
     7
370
    15
100
AcDbLine
 10
57.3508261599
 20
-141.5051737518
 30
0.0
 11
57.8115998664
 21
-146.7717507572
 31
0.0
  0
ARC
  5
1E3
330
1F
100
AcDbEntity
  8
0
  6
Continuous
 62
     7
370
    15
100
AcDbCircle
 10
51.4083521443
 20
253.9302991897
 30
0.0
 40
4.999999999999973
100
AcDbArc
 50
273.0
 51
343.27770305
  0
ARC
  5
1E4
330
1F
100
AcDbEntity
  8
0
  6
Continuous
 62
     7
370
    15
100
AcDbCircle
 10
51.4083521443
 20
-130.9508805725
 30
0.0
 40
4.999999999999975
100
AcDbArc
 50
16.718512208
 51
87.0
  0
LINE
  5
1E5
330
1F
100
AcDbEntity
  8
0
  6
Continuous
 62
     7
370
    15
100
AcDbLine
 10
51.6700266757
 20
248.9371529131
 30
0.0
 11
26.4203517594
 21
247.6138701944
 31
0.0
  0
LINE
  5
1E6
330
1F
100
AcDbEntity
  8
0
  6
Continuous
 62
     7
370
    15
100
AcDbLine
 10
26.4203517594
 20
-124.6344515772
 30
0.0
 11
51.6700266757
 21
-125.9577342959
 31
0.0
  0
ARC
  5
1E7
330
1F
100
AcDbEntity
  8
0
  6
Continuous
 62
     7
370
    15
100
AcDbCircle
 10
26.5511893191
 20
245.1172978918
 30
0.0
 40
2.500000000000019
100
AcDbArc
 50
93.0
 51
180.0
  0
ARC
  5
1E8
330
1F
100
AcDbEntity
  8
0
  6
Continuous
 62
     7
370
    15
100
AcDbCircle
 10
26.5511893191
 20
-122.1378792746
 30
0.0
 40
2.500000000000019
100
AcDbArc
 50
180.0
 51
267.0
  0
LINE
  5
1E9
330
1F
100
AcDbEntity
  8
0
  6
Continuous
 62
     7
370
    15
100
AcDbLine
 10
64.0511928954
 20
147.9897057919
 30
0.0
 11
66.5511905112
 21
147.9897057919
 31
0.0
  0
LINE
  5
1EA
330
1F
100
AcDbEntity
  8
0
  6
Continuous
 62
     7
370
    15
100
AcDbLine
 10
66.5511905112
 20
171.9897097258
 30
0.0
 11
64.0511928954
 21
171.9897097258
 31
0.0
  0
LINE
  5
1EB
330
1F
100
AcDbEntity
  8
0
  6
Continuous
 62
     7
370
    15
100
AcDbLine
 10
64.0511928954
 20
-49.0102911086
 30
0.0
 11
66.5511905112
 21
-49.0102911086
 31
0.0
  0
LINE
  5
1EC
330
1F
100
AcDbEntity
  8
0
  6
Continuous
 62
     7
370
    15
100
AcDbLine
 10
66.5511905112
 20
-25.0102871747
 30
0.0
 11
64.0511928954
 21
-25.0102871747
 31
0.0
  0
LINE
  5
1ED
330
1F
100
AcDbEntity
  8
0
  6
Continuous
 62
     7
370
    15
100
AcDbLine
 10
66.9842033543
 20
168.9897110967
 30
0.0
 11
66.5511905112
 21
168.2397058515
 31
0.0
  0
LINE
  5
1EE
330
1F
100
AcDbEntity
  8
0
  6
Continuous
 62
     7
370
    15
100
AcDbLine
 10
66.5511905112
 20
151.7397096662
 30
0.0
 11
66.9842033543
 21
150.9897118716
 31
0.0
  0
LINE
  5
1EF
330
1F
100
AcDbEntity
  8
0
  6
Continuous
 62
     7
370
    15
100
AcDbLine
 10
76.5181749024
 20
150.9897118716
 30
0.0
 11
76.9511877455
 21
151.7397096662
 31
0.0
  0
LINE
  5
1F0
330
1F
100
AcDbEntity
  8
0
  6
Continuous
 62
     7
370
    15
100
AcDbLine
 10
76.9511877455
 20
168.2397058515
 30
0.0
 11
76.5181749024
 21
168.9897110967
 31
0.0
  0
LINE
  5
1F1
330
1F
100
AcDbEntity
  8
0
  6
Continuous
 62
     7
370
    15
100
AcDbLine
 10
66.9842033543
 20
-28.0102932544
 30
0.0
 11
66.5511905112
 21
-28.760291049
 31
0.0
  0
LINE
  5
1F2
330
1F
100
AcDbEntity
  8
0
  6
Continuous
 62
     7
370
    15
100
AcDbLine
 10
66.5511905112
 20
-45.2602872343
 30
0.0
 11
66.9842033543
 21
-46.0102924795
 31
0.0
  0
LINE
  5
1F3
330
1F
100
AcDbEntity
  8
0
  6
Continuous
 62
     7
370
    15
100
AcDbLine
 10
76.5181749024
 20
-46.0102924795
 30
0.0
 11
76.9511877455
 21
-45.2602872343
 31
0.0
  0
LINE
  5
1F4
330
1F
100
AcDbEntity
  8
0
  6
Continuous
 62
     7
370
    15
100
AcDbLine
 10
76.9511877455
 20
-28.760291049
 30
0.0
 11
76.5181749024
 21
-28.0102932544
 31
0.0
  0
LINE
  5
1F5
330
1F
100
AcDbEntity
  8
0
  6
Continuous
 62
     7
370
    15
100
AcDbLine
 10
57.094585792
 20
165.9897124677
 30
0.0
 11
-110.9488190255
 21
165.9897124677
 31
0.0
  0
LINE
  5
1F6
330
1F
100
AcDbEntity
  8
0
  6
Continuous
 62
     7
370
    15
100
AcDbLine
 10
-110.9488190255
 20
153.9897105007
 30
0.0
 11
56.5701841273
 21
153.9897105007
 31
0.0
  0
LINE
  5
1F7
330
1F
100
AcDbEntity
  8
0
  6
Continuous
 62
     7
370
    15
100
AcDbLine
 10
117.0511885442
 20
165.9897124677
 30
0.0
 11
76.9511877455
 21
165.9897124677
 31
0.0
  0
LINE
  5
1F8
330
1F
100
AcDbEntity
  8
0
  6
Continuous
 62
     7
370
    15
100
AcDbLine
 10
76.9511877455
 20
153.9897105007
 30
0.0
 11
117.0511885442
 21
153.9897105007
 31
0.0
  0
LINE
  5
1F9
330
1F
100
AcDbEntity
  8
0
  6
Continuous
 62
     7
370
    15
100
AcDbLine
 10
117.0511885442
 20
-31.0102918835
 30
0.0
 11
76.9511877455
 21
-31.0102918835
 31
0.0
  0
LINE
  5
1FA
330
1F
100
AcDbEntity
  8
0
  6
Continuous
 62
     7
370
    15
100
AcDbLine
 10
76.9511877455
 20
-43.0102938504
 30
0.0
 11
117.0511885442
 21
-43.0102938504
 31
0.0
  0
LINE
  5
1FB
330
1F
100
AcDbEntity
  8
0
  6
Continuous
 62
     7
370
    15
100
AcDbLine
 10
56.5700798192
 20
-31.0102918835
 30
0.0
 11
-110.9488190255
 21
-31.0102918835
 31
0.0
  0
LINE
  5
1FC
330
1F
100
AcDbEntity
  8
0
  6
Continuous
 62
     7
370
    15
100
AcDbLine
 10
-110.9488190255
 20
-43.0102938504
 30
0.0
 11
57.0947199025
 21
-43.0102938504
 31
0.0
  0
LINE
  5
1FD
330
1F
100
AcDbEntity
  8
0
  6
Continuous
 62
     7
370
    15
100
AcDbLine
 10
24.0511863389
 20
232.4897131233
 30
0.0
 11
-110.9488190255
 21
232.4897131233
 31
0.0
  0
LINE
  5
1FE
330
1F
100
AcDbEntity
  8
0
  6
Continuous
 62
     7
370
    15
100
AcDbLine
 10
-110.9488190255
 20
-109.5102945061
 30
0.0
 11
24.0511863389
 21
-109.5102945061
 31
0.0
  0
LINE
  5
1FF
330
1F
100
AcDbEntity
  8
0
  6
Continuous
 62
     7
370
    15
100
AcDbLine
 10
195.0511901536
 20
-105.4671773405
 30
0.0
 11
199.0511889466
 21
-105.4671773405
 31
0.0
  0
LINE
  5
200
330
1F
100
AcDbEntity
  8
0
  6
Continuous
 62
     7
370
    15
100
AcDbLine
 10
199.0511889466
 20
-61.4671775789
 30
0.0
 11
195.0511901536
 21
-61.4671775789
 31
0.0
  0
LINE
  5
201
330
1F
100
AcDbEntity
  8
0
  6
Continuous
 62
     7
370
    15
100
AcDbLine
 10
-106.9488109193
 20
-61.4671775789
 30
0.0
 11
-110.9488190255
 21
-61.4671775789
 31
0.0
  0
LINE
  5
202
330
1F
100
AcDbEntity
  8
0
  6
Continuous
 62
     7
370
    15
100
AcDbLine
 10
-110.9488190255
 20
-105.4671773405
 30
0.0
 11
-106.9488109193
 21
-105.4671773405
 31
0.0
  0
LINE
  5
203
330
1F
100
AcDbEntity
  8
0
  6
Continuous
 62
     7
370
    15
100
AcDbLine
 10
195.0511901536
 20
184.4465961962
 30
0.0
 11
199.0511889466
 21
184.4465961962
 31
0.0
  0
LINE
  5
204
330
1F
100
AcDbEntity
  8
0
  6
Continuous
 62
     7
370
    15
100
AcDbLine
 10
199.0511889466
 20
228.4465959577
 30
0.0
 11
195.0511901536
 21
228.4465959577
 31
0.0
  0
LINE
  5
205
330
1F
100
AcDbEntity
  8
0
  6
Continuous
 62
     7
370
    15
100
AcDbLine
 10
-106.9488109193
 20
228.4465959577
 30
0.0
 11
-110.9488190255
 21
228.4465959577
 31
0.0
  0
LINE
  5
206
330
1F
100
AcDbEntity
  8
0
  6
Continuous
 62
     7
370
    15
100
AcDbLine
 10
-110.9488190255
 20
184.4465961962
 30
0.0
 11
-106.9488109193
 21
184.4465961962
 31
0.0
  0
LINE
  5
207
330
1F
100
AcDbEntity
  8
0
  6
Continuous
 62
     7
370
    15
100
AcDbLine
 10
-106.1487973771
 20
-65.4671856852
 30
0.0
 11
-106.9488109193
 21
-65.4671856852
 31
0.0
  0
LINE
  5
208
330
1F
100
AcDbEntity
  8
0
  6
Continuous
 62
     7
370
    15
100
AcDbLine
 10
-106.9488109193
 20
-101.4671841355
 30
0.0
 11
-106.1487973771
 21
-101.4671841355
 31
0.0
  0
LINE
  5
209
330
1F
100
AcDbEntity
  8
0
  6
Continuous
 62
     7
370
    15
100
AcDbLine
 10
194.2511896499
 20
-101.4671841355
 30
0.0
 11
195.0511901536
 21
-101.4671841355
 31
0.0
  0
LINE
  5
20A
330
1F
100
AcDbEntity
  8
0
  6
Continuous
 62
     7
370
    15
100
AcDbLine
 10
195.0511901536
 20
-65.4671856852
 30
0.0
 11
194.2511896499
 21
-65.4671856852
 31
0.0
  0
LINE
  5
20B
330
1F
100
AcDbEntity
  8
0
  6
Continuous
 62
     7
370
    15
100
AcDbLine
 10
-106.1487973771
 20
224.4466027527
 30
0.0
 11
-106.9488109193
 21
224.4466027527
 31
0.0
  0
LINE
  5
20C
330
1F
100
AcDbEntity
  8
0
  6
Continuous
 62
     7
370
    15
100
AcDbLine
 10
-106.9488109193
 20
188.4466043024
 30
0.0
 11
-106.1487973771
 21
188.4466043024
 31
0.0
  0
LINE
  5
20D
330
1F
100
AcDbEntity
  8
0
  6
Continuous
 62
     7
370
    15
100
AcDbLine
 10
194.2511896499
 20
188.4466043024
 30
0.0
 11
195.0511901536
 21
188.4466043024
 31
0.0
  0
LINE
  5
20E
330
1F
100
AcDbEntity
  8
0
  6
Continuous
 62
     7
370
    15
100
AcDbLine
 10
195.0511901536
 20
224.4466027527
 30
0.0
 11
194.2511896499
 21
224.4466027527
 31
0.0
  0
LINE
  5
20F
330
1F
100
AcDbEntity
  8
0
  6
Continuous
 62
     7
370
    15
100
AcDbLine
 10
-85.5380774579
 20
-101.621798584
 30
0.0
 11
-85.4488195024
 21
-101.4671841355
 31
0.0
  0
LINE
  5
210
330
1F
100
AcDbEntity
  8
0
  6
Continuous
 62
     7
370
    15
100
AcDbLine
 10
56.8005411782
 20
-71.4671829434
 30
0.0
 11
-85.4488195024
 21
-71.4671829434
 31
0.0
  0
LINE
  5
211
330
1F
100
AcDbEntity
  8
0
  6
Continuous
 62
     7
370
    15
100
AcDbLine
 10
173.5511875608
 20
-71.4671829434
 30
0.0
 11
64.0511928954
 21
-71.4671829434
 31
0.0
  0
LINE
  5
212
330
1F
100
AcDbEntity
  8
0
  6
Continuous
 62
     7
370
    15
100
AcDbLine
 10
-85.4488195024
 20
-95.4671868773
 30
0.0
 11
173.5511875608
 21
-95.4671868773
 31
0.0
  0
LINE
  5
213
330
1F
100
AcDbEntity
  8
0
  6
Continuous
 62
     7
370
    15
100
AcDbLine
 10
331.5511911072
 20
-71.4671829434
 30
0.0
 11
224.0511893191
 21
-71.4671829434
 31
0.0
  0
LINE
  5
214
330
1F
100
AcDbEntity
  8
0
  6
Continuous
 62
     7
370
    15
100
AcDbLine
 10
224.0511893191
 20
-95.4671868773
 30
0.0
 11
331.5511911072
 21
-95.4671868773
 31
0.0
  0
LINE
  5
215
330
1F
100
AcDbEntity
  8
0
  6
Continuous
 62
     7
370
    15
100
AcDbLine
 10
-135.948824986
 20
-71.4671829434
 30
0.0
 11
-243.448811873
 21
-71.4671829434
 31
0.0
  0
LINE
  5
216
330
1F
100
AcDbEntity
  8
0
  6
Continuous
 62
     7
370
    15
100
AcDbLine
 10
-243.448811873
 20
-95.4671868773
 30
0.0
 11
-135.948824986
 21
-95.4671868773
 31
0.0
  0
LINE
  5
217
330
1F
100
AcDbEntity
  8
0
  6
Continuous
 62
     7
370
    15
100
AcDbLine
 10
-135.948824986
 20
218.4466054945
 30
0.0
 11
-243.448811873
 21
218.4466054945
 31
0.0
  0
LINE
  5
218
330
1F
100
AcDbEntity
  8
0
  6
Continuous
 62
     7
370
    15
100
AcDbLine
 10
-243.448811873
 20
194.4466015606
 30
0.0
 11
-135.948824986
 21
194.4466015606
 31
0.0
  0
LINE
  5
219
330
1F
100
AcDbEntity
  8
0
  6
Continuous
 62
     7
370
    15
100
AcDbLine
 10
331.5511911072
 20
218.4466054945
 30
0.0
 11
224.0511893191
 21
218.4466054945
 31
0.0
  0
LINE
  5
21A
330
1F
100
AcDbEntity
  8
0
  6
Continuous
 62
     7
370
    15
100
AcDbLine
 10
224.0511893191
 20
194.4466015606
 30
0.0
 11
331.5511911072
 21
194.4466015606
 31
0.0
  0
LINE
  5
21B
330
1F
100
AcDbEntity
  8
0
  6
Continuous
 62
     7
370
    15
100
AcDbLine
 10
173.5511875608
 20
218.4466054945
 30
0.0
 11
-85.4488195024
 21
218.4466054945
 31
0.0
  0
LINE
  5
21C
330
1F
100
AcDbEntity
  8
0
  6
Continuous
 62
     7
370
    15
100
AcDbLine
 10
64.0511928954
 20
194.4466015606
 30
0.0
 11
173.5511875608
 21
194.4466015606
 31
0.0
  0
LINE
  5
21D
330
1F
100
AcDbEntity
  8
0
  6
Continuous
 62
     7
370
    15
100
AcDbLine
 10
-85.4488195024
 20
194.4466015606
 30
0.0
 11
56.8004815736
 21
194.4466015606
 31
0.0
  0
LINE
  5
21E
330
1F
100
AcDbEntity
  8
0
  6
Continuous
 62
     7
370
    15
100
AcDbLine
 10
-85.4488195024
 20
224.4466027527
 30
0.0
 11
-86.3096595845
 21
225.9376576452
 31
0.0
  0
LINE
  5
21F
330
1F
100
AcDbEntity
  8
0
  6
Continuous
 62
     7
370
    15
100
AcDbLine
 10
173.5511875608
 20
-101.4671841355
 30
0.0
 11
175.1588850178
 21
-104.2517939301
 31
0.0
  0
LINE
  5
220
330
1F
100
AcDbEntity
  8
0
  6
Continuous
 62
     7
370
    15
100
AcDbLine
 10
175.1588850178
 20
-62.68256844
 30
0.0
 11
173.5511875608
 21
-65.4671856852
 31
0.0
  0
LINE
  5
221
330
1F
100
AcDbEntity
  8
0
  6
Continuous
 62
     7
370
    15
100
AcDbLine
 10
-86.308497294
 20
186.9575759678
 30
0.0
 11
-85.4488195024
 21
188.4466043024
 31
0.0
  0
LINE
  5
222
330
1F
100
AcDbEntity
  8
0
  6
Continuous
 62
     7
370
    15
100
AcDbLine
 10
-85.4488195024
 20
-65.4671856852
 30
0.0
 11
-85.5380774579
 21
-65.3125712366
 31
0.0
  0
ARC
  5
223
330
1F
100
AcDbEntity
  8
0
  6
Continuous
 62
     7
370
    15
100
AcDbCircle
 10
60.8001828412
 20
-146.5102906914
 30
0.0
 40
3.000000000000057
100
AcDbArc
 50
185.0
 51
270.0
  0
ARC
  5
224
330
1F
100
AcDbEntity
  8
0
  6
Continuous
 62
     7
370
    15
100
AcDbCircle
 10
60.8001828412
 20
269.4897093086
 30
0.0
 40
3.000000000000057
100
AcDbArc
 50
90.0
 51
175.0
  0
LINE
  5
225
330
1F
100
AcDbEntity
  8
0
  6
Continuous
 62
     7
370
    15
100
AcDbLine
 10
60.8001767554
 20
-149.5102861614
 30
0.0
 11
64.0511928954
 21
-149.5102861614
 31
0.0
  0
LINE
  5
226
330
1F
100
AcDbEntity
  8
0
  6
Continuous
 62
     7
370
    15
100
AcDbLine
 10
64.0511928954
 20
272.4897047787
 30
0.0
 11
60.8001767554
 21
272.4897047787
 31
0.0
  0
LINE
  5
227
330
1F
100
AcDbEntity
  8
0
  6
Continuous
 62
     7
370
    15
100
AcDbLine
 10
64.0511928954
 20
246.4897116928
 30
0.0
 11
66.5511905112
 21
246.4897116928
 31
0.0
  0
LINE
  5
228
330
1F
100
AcDbEntity
  8
0
  6
Continuous
 62
     7
370
    15
100
AcDbLine
 10
66.5511905112
 20
270.4897156267
 30
0.0
 11
64.0511928954
 21
270.4897156267
 31
0.0
  0
LINE
  5
229
330
1F
100
AcDbEntity
  8
0
  6
Continuous
 62
     7
370
    15
100
AcDbLine
 10
64.0511928954
 20
-147.5102970095
 30
0.0
 11
66.5511905112
 21
-147.5102970095
 31
0.0
  0
LINE
  5
22A
330
1F
100
AcDbEntity
  8
0
  6
Continuous
 62
     7
370
    15
100
AcDbLine
 10
66.5511905112
 20
-123.5102930756
 30
0.0
 11
64.0511928954
 21
-123.5102930756
 31
0.0
  0
LINE
  5
22B
330
1F
100
AcDbEntity
  8
0
  6
Continuous
 62
     7
370
    15
100
AcDbLine
 10
66.9842033543
 20
267.489709547
 30
0.0
 11
66.5511905112
 21
266.7397043018
 31
0.0
  0
LINE
  5
22C
330
1F
100
AcDbEntity
  8
0
  6
Continuous
 62
     7
370
    15
100
AcDbLine
 10
66.5511905112
 20
250.2397081165
 30
0.0
 11
66.9842033543
 21
249.4897028713
 31
0.0
  0
LINE
  5
22D
330
1F
100
AcDbEntity
  8
0
  6
Continuous
 62
     7
370
    15
100
AcDbLine
 10
76.5181749024
 20
249.4897028713
 30
0.0
 11
76.9511877455
 21
250.2397081165
 31
0.0
  0
LINE
  5
22E
330
1F
100
AcDbEntity
  8
0
  6
Continuous
 62
     7
370
    15
100
AcDbLine
 10
76.9511877455
 20
266.7397043018
 30
0.0
 11
76.5181749024
 21
267.489709547
 31
0.0
  0
LINE
  5
22F
330
1F
100
AcDbEntity
  8
0
  6
Continuous
 62
     7
370
    15
100
AcDbLine
 10
66.9842033543
 20
-126.5102842541
 30
0.0
 11
66.5511905112
 21
-127.2602894993
 31
0.0
  0
LINE
  5
230
330
1F
100
AcDbEntity
  8
0
  6
Continuous
 62
     7
370
    15
100
AcDbLine
 10
66.5511905112
 20
-143.7602856846
 30
0.0
 11
66.9842033543
 21
-144.5102909298
 31
0.0
  0
LINE
  5
231
330
1F
100
AcDbEntity
  8
0
  6
Continuous
 62
     7
370
    15
100
AcDbLine
 10
76.5181749024
 20
-144.5102909298
 30
0.0
 11
76.9511877455
 21
-143.7602856846
 31
0.0
  0
LINE
  5
232
330
1F
100
AcDbEntity
  8
0
  6
Continuous
 62
     7
370
    15
100
AcDbLine
 10
76.9511877455
 20
-127.2602894993
 30
0.0
 11
76.5181749024
 21
-126.5102842541
 31
0.0
  0
LINE
  5
233
330
1F
100
AcDbEntity
  8
0
  6
Continuous
 62
     7
370
    15
100
AcDbLine
 10
117.0511885442
 20
264.4897034674
 30
0.0
 11
76.9511877455
 21
264.4897034674
 31
0.0
  0
LINE
  5
234
330
1F
100
AcDbEntity
  8
0
  6
Continuous
 62
     7
370
    15
100
AcDbLine
 10
76.9511877455
 20
252.489708951
 30
0.0
 11
117.0511885442
 21
252.489708951
 31
0.0
  0
LINE
  5
235
330
1F
100
AcDbEntity
  8
0
  6
Continuous
 62
     7
370
    15
100
AcDbLine
 10
57.3512731948
 20
264.4897034674
 30
0.0
 11
-110.9488190255
 21
264.4897034674
 31
0.0
  0
LINE
  5
236
330
1F
100
AcDbEntity
  8
0
  6
Continuous
 62
     7
370
    15
100
AcDbLine
 10
-110.9488190255
 20
252.489708951
 30
0.0
 11
56.1963288941
 21
252.489708951
 31
0.0
  0
LINE
  5
237
330
1F
100
AcDbEntity
  8
0
  6
Continuous
 62
     7
370
    15
100
AcDbLine
 10
117.0511885442
 20
-129.5102903338
 30
0.0
 11
76.9511877455
 21
-129.5102903338
 31
0.0
  0
LINE
  5
238
330
1F
100
AcDbEntity
  8
0
  6
Continuous
 62
     7
370
    15
100
AcDbLine
 10
76.9511877455
 20
-141.5102848501
 30
0.0
 11
117.0511885442
 21
-141.5102848501
 31
0.0
  0
LINE
  5
239
330
1F
100
AcDbEntity
  8
0
  6
Continuous
 62
     7
370
    15
100
AcDbLine
 10
56.1963288941
 20
-129.5102903338
 30
0.0
 11
-110.9488190255
 21
-129.5102903338
 31
0.0
  0
LINE
  5
23A
330
1F
100
AcDbEntity
  8
0
  6
Continuous
 62
     7
370
    15
100
AcDbLine
 10
-110.9488190255
 20
-141.5102848501
 30
0.0
 11
57.3512731948
 21
-141.5102848501
 31
0.0
  0
LINE
  5
23B
330
1F
100
AcDbEntity
  8
0
  6
Continuous
 62
     7
370
    15
100
AcDbLine
 10
175.1588850178
 20
227.2312125473
 30
0.0
 11
173.5511875608
 21
224.4466027527
 31
0.0
  0
LINE
  5
23C
330
1F
100
AcDbEntity
  8
0
  6
Continuous
 62
     7
370
    15
100
AcDbLine
 10
199.0511889466
 20
-168.5102948637
 30
0.0
 11
199.0511889466
 21
291.4897134809
 31
0.0
  0
LINE
  5
23D
330
1F
100
AcDbEntity
  8
0
  6
Continuous
 62
     7
370
    15
100
AcDbLine
 10
224.0511893191
 20
-168.5102948637
 30
0.0
 11
224.0511893191
 21
291.4897134809
 31
0.0
  0
LINE
  5
23E
330
1F
100
AcDbEntity
  8
0
  6
Continuous
 62
     7
370
    15
100
AcDbLine
 10
-110.9488190255
 20
-168.5102948637
 30
0.0
 11
-110.9488190255
 21
291.4897134809
 31
0.0
  0
LINE
  5
23F
330
1F
100
AcDbEntity
  8
0
  6
Continuous
 62
     7
370
    15
100
AcDbLine
 10
-135.948824986
 20
-168.5102948637
 30
0.0
 11
-135.948824986
 21
291.4897134809
 31
0.0
  0
LINE
  5
240
330
1F
100
AcDbEntity
  8
0
  6
Continuous
 62
     7
370
    15
100
AcDbLine
 10
60.8001767554
 20
203.0500700979
 30
0.0
 11
64.0511928954
 21
203.0500700979
 31
0.0
  0
LINE
  5
241
330
1F
100
AcDbEntity
  8
0
  6
Continuous
 62
     7
370
    15
100
AcDbLine
 10
64.0511928954
 20
-80.0706514807
 30
0.0
 11
60.8001767554
 21
-80.0706514807
 31
0.0
  0
LINE
  5
242
330
1F
100
AcDbEntity
  8
0
  6
Continuous
 62
     7
370
    15
100
AcDbLine
 10
64.0511928954
 20
203.0500700979
 30
0.0
 11
64.0511928954
 21
-80.0706514807
 31
0.0
  0
SPLINE
  5
243
330
1F
100
AcDbEntity
  8
0
  6
Continuous
 62
     7
370
    15
100
AcDbSpline
210
0.0
220
0.0
230
1.0
 70
     8
 71
     3
 72
    20
 73
    16
 74
     0
 42
0.00000001
 43
0.00000001
 12
1.0
 22
0.0
 32
0.0
 13
1.0
 23
0.0
 33
0.0
 40
0.0
 40
0.0
 40
0.0
 40
0.0
 40
0.2499999999999945
 40
0.2499999999999945
 40
0.3749999999999954
 40
0.3749999999999954
 40
0.4999999999999963
 40
0.4999999999999963
 40
0.6249999999999972
 40
0.6249999999999972
 40
0.7499999999999981
 40
0.7499999999999981
 40
0.8749999999999991
 40
0.8749999999999991
 40
1.0
 40
1.0
 40
1.0
 40
1.0
 10
57.81159874688365
 20
200.2954446596675
 30
0.0
 10
57.84412699930593
 20
200.6299290952421
 30
0.0
 10
57.9426960005071
 20
200.9601748817472
 30
0.0
 10
58.18239593516404
 20
201.4418930172529
 30
0.0
 10
58.27592890399079
 20
201.5960928862844
 30
0.0
 10
58.48965070202421
 20
201.8912238673212
 30
0.0
 10
58.6106809899113
 20
202.0329994717478
 30
0.0
 10
58.87827660242205
 20
202.2971620199011
 30
0.0
 10
59.02245351021364
 20
202.4174587560472
 30
0.0
 10
59.33240475409905
 20
202.6325761700437
 30
0.0
 10
59.49973166826898
 20
202.7281169583703
 30
0.0
 10
59.85247724810992
 20
202.8853560598608
 30
0.0
 10
60.03428750177623
 20
202.9457585495014
 30
0.0
 10
60.40920146523478
 20
203.0281562728244
 30
0.0
 10
60.60415304733614
 20
203.0500727823161
 30
0.0
 10
60.80018284115889
 20
203.050072782316
 30
0.0
  0
SPLINE
  5
244
330
1F
100
AcDbEntity
  8
0
  6
Continuous
 62
     7
370
    15
100
AcDbSpline
210
0.0
220
0.0
230
1.0
 70
     8
 71
     3
 72
    22
 73
    18
 74
     0
 42
0.00000001
 43
0.00000001
 12
1.0
 22
0.0
 32
0.0
 13
1.0
 23
0.0
 33
0.0
 40
0.0
 40
0.0
 40
0.0
 40
0.0
 40
0.125
 40
0.125
 40
0.25
 40
0.25
 40
0.375
 40
0.375
 40
0.5
 40
0.5
 40
0.625
 40
0.625
 40
0.75
 40
0.75
 40
0.875
 40
0.875
 40
1.0
 40
1.0
 40
1.0
 40
1.0
 10
60.80018284115889
 20
-80.07065416508891
 30
0.0
 10
60.60475479945789
 20
-80.07065416508891
 30
0.0
 10
60.41329888974954
 20
-80.04935731311564
 30
0.0
 10
60.03776920461661
 20
-79.96738038537421
 30
0.0
 10
59.85182347382763
 20
-79.90559919342027
 30
0.0
 10
59.50158268265147
 20
-79.74957010970346
 30
0.0
 10
59.33603102115846
 20
-79.655502058563
 30
0.0
 10
59.02268314632879
 20
-79.43836966267925
 30
0.0
 10
58.8770316526109
 20
-79.31651373162427
 30
0.0
 10
58.6119385577306
 20
-79.05482298166544
 30
0.0
 10
58.49075712024628
 20
-78.9132904249951
 30
0.0
 10
58.27535878932831
 20
-78.6159295759693
 30
0.0
 10
58.18230130604886
 20
-78.4620477297196
 30
0.0
 10
58.02436614683292
 20
-78.14512043231726
 30
0.0
 10
57.95915885681414
 20
-77.98083318502525
 30
0.0
 10
57.86088787257222
 20
-77.64925052619553
 30
0.0
 10
57.82782514388675
 20
-77.48288029493902
 30
0.0
 10
57.81159874688365
 20
-77.31602604244048
 30
0.0
  0
SPLINE
  5
245
330
1F
100
AcDbEntity
  8
0
  6
Continuous
 62
     7
370
    15
100
AcDbSpline
210
0.0
220
0.0
230
1.0
 70
     8
 71
     3
 72
    17
 73
    13
 74
     0
 42
0.00000001
 43
0.00000001
 12
1.0
 22
0.0
 32
0.0
 13
1.0
 23
0.0
 33
0.0
 40
0.0
 40
0.0
 40
0.0
 40
0.0
 40
0.0932051843781464
 40
0.2017577111222152
 40
0.3106547249821363
 40
0.4192099331730452
 40
0.5281831774232124
 40
0.6375032033352437
 40
0.746477417001783
 40
0.8309317171763865
 40
0.9155459985695296
 40
1.0
 40
1.0
 40
1.0
 40
1.0
 10
56.80048157355451
 20
194.4563320188373
 30
0.0
 10
56.8257542742212
 20
194.4630474022577
 30
0.0
 10
56.88046112636043
 20
194.4775839368643
 30
0.0
 10
56.97511681881507
 20
194.6858524824941
 30
0.0
 10
57.08022909144876
 20
195.0357086940011
 30
0.0
 10
57.19110212903104
 20
195.5320336397857
 30
0.0
 10
57.30602312856163
 20
196.1689418443717
 30
0.0
 10
57.42349957988775
 20
196.9354004039311
 30
0.0
 10
57.53305135354022
 20
197.7544595756889
 30
0.0
 10
57.63309878361265
 20
198.5914161601557
 30
0.0
 10
57.72350541995251
 20
199.41039755143
 30
0.0
 10
57.78225361569687
 20
200.0006133221619
 30
0.0
 10
57.81159986636304
 20
200.2954414396136
 30
0.0
  0
SPLINE
  5
246
330
1F
100
AcDbEntity
  8
0
  6
Continuous
 62
     7
370
    15
100
AcDbSpline
210
0.0
220
0.0
230
1.0
 70
     8
 71
     3
 72
    17
 73
    13
 74
     0
 42
0.00000001
 43
0.00000001
 12
1.0
 22
0.0
 32
0.0
 13
1.0
 23
0.0
 33
0.0
 40
0.0
 40
0.0
 40
0.0
 40
0.0
 40
0.1091659382685526
 40
0.2186794023612514
 40
0.3278451950208313
 40
0.4370763021287113
 40
0.5466535823512612
 40
0.655883486670764
 40
0.7650909053051083
 40
0.87464854738658
 40
0.9838534251913059
 40
0.9999999999999999
 40
0.9999999999999999
 40
0.9999999999999999
 40
0.9999999999999999
 10
57.81159986636304
 20
-77.31602282239506
 30
0.0
 10
57.77357348930086
 20
-76.9367020609134
 30
0.0
 10
57.69739967957761
 20
-76.17685298399746
 30
0.0
 10
57.57967839747101
 20
-75.15120522077059
 30
0.0
 10
57.46116431908531
 20
-74.22384172975919
 30
0.0
 10
57.34296279946997
 20
-73.41822688662673
 30
0.0
 10
57.22673978007602
 20
-72.73818712808075
 30
0.0
 10
57.11395929862585
 20
-72.19400046713511
 30
0.0
 10
57.00605197901855
 20
-71.79271227356779
 30
0.0
 10
56.90547434755279
 20
-71.55311589195965
 30
0.0
 10
56.83651777492422
 20
-71.44947702925627
 30
0.0
 10
56.80464652737598
 20
-71.4737957923865
 30
0.0
 10
56.80054117819928
 20
-71.47692830277988
 30
0.0
  0
SPLINE
  5
247
330
1F
100
AcDbEntity
  8
0
  6
Continuous
 62
     7
370
    15
100
AcDbSpline
210
0.0
220
0.0
230
1.0
 70
     8
 71
     3
 72
    38
 73
    34
 74
     0
 42
0.00000001
 43
0.00000001
 12
1.0
 22
0.0
 32
0.0
 13
1.0
 23
0.0
 33
0.0
 40
0.0
 40
0.0
 40
0.0
 40
0.0
 40
0.0323863146931682
 40
0.0647725662806966
 40
0.0980977149551666
 40
0.1314234967595957
 40
0.1638722599328403
 40
0.1963205967025296
 40
0.2297065777918861
 40
0.2630923563365194
 40
0.2956280850837089
 40
0.3281631256963932
 40
0.3616391349078379
 40
0.3951151330800901
 40
0.4277189397987999
 40
0.4603213649364829
 40
0.4938726818035259
 40
0.5274228347167857
 40
0.5600151952862525
 40
0.5926078538259686
 40
0.6261515942363414
 40
0.6596950199544785
 40
0.6922047352802019
 40
0.724715098026675
 40
0.75817660958616
 40
0.7916378977139269
 40
0.8240324457376679
 40
0.8564271019605599
 40
0.8897688930536773
 40
0.92311058427925
 40
0.9554056981966627
 40
0.9877007835868757
 40
1.0
 40
1.0
 40
1.0
 40
1.0
 10
56.38932873389386
 20
253.4664800672381
 30
0.0
 10
56.39778050013626
 20
253.5607117627855
 30
0.0
 10
56.41468401615256
 20
253.7491749702672
 30
0.0
 10
56.44402464523811
 20
254.0767267133116
 30
0.0
 10
56.47616709851237
 20
254.4363938291478
 30
0.0
 10
56.51093449910289
 20
254.8260076646656
 30
0.0
 10
56.54760699923033
 20
255.2378542396228
 30
0.0
 10
56.58620793401535
 20
255.6724270883747
 30
0.0
 10
56.62687550128962
 20
256.1312620680529
 30
0.0
 10
56.66895298885226
 20
256.6073835980959
 30
0.0
 10
56.71176001870555
 20
257.0927037871174
 30
0.0
 10
56.75532684906022
 20
257.5881288991882
 30
0.0
 10
56.79979002973275
 20
258.0947792746172
 30
0.0
 10
56.84440876982709
 20
258.6046243708935
 30
0.0
 10
56.88845070127803
 20
259.109147649788
 30
0.0
 10
56.93202528502047
 20
259.609769500247
 30
0.0
 10
56.97521739177354
 20
260.1072018978322
 30
0.0
 10
57.01731097389769
 20
260.5929227774003
 30
0.0
 10
57.05758937261736
 20
261.0589613770804
 30
0.0
 10
57.0962217274094
 20
261.5071217158825
 30
0.0
 10
57.13330173768623
 20
261.9379043209964
 30
0.0
 10
57.1681218043099
 20
262.3433971506937
 30
0.0
 10
57.20015164209453
 20
262.7171561639453
 30
0.0
 10
57.22959176915672
 20
263.0612452362419
 30
0.0
 10
57.2564478544595
 20
263.3757559610423
 30
0.0
 10
57.28023125381794
 20
263.654580182378
 30
0.0
 10
57.30060755492193
 20
263.8935705040464
 30
0.0
 10
57.31771942716004
 20
264.0948788649954
 30
0.0
 10
57.33155972403735
 20
264.2576805563155
 30
0.0
 10
57.34193111178294
 20
264.3795142680843
 30
0.0
 10
57.3483652497865
 20
264.4554465099943
 30
0.0
 10
57.35136977036085
 20
264.4908638664279
 30
0.0
 10
57.35095535723235
 20
264.4859481386799
 30
0.0
 10
57.35084106108805
 20
264.4845923690646
 30
0.0
  0
SPLINE
  5
248
330
1F
100
AcDbEntity
  8
0
  6
Continuous
 62
     7
370
    15
100
AcDbSpline
210
0.0
220
0.0
230
1.0
 70
     8
 71
     3
 72
    38
 73
    34
 74
     0
 42
0.00000001
 43
0.00000001
 12
1.0
 22
0.0
 32
0.0
 13
1.0
 23
0.0
 33
0.0
 40
0.0
 40
0.0
 40
0.0
 40
0.0
 40
0.0209368425745154
 40
0.0541728863368005
 40
0.0864246377115035
 40
0.1186762930843208
 40
0.1518633953801937
 40
0.1850508753609948
 40
0.2173319006281866
 40
0.2496132090429744
 40
0.2828270282063214
 40
0.3160413554171645
 40
0.348413383662741
 40
0.3807850326282169
 40
0.4140908569261343
 40
0.4473963530772218
 40
0.4798838226342005
 40
0.5123706793003601
 40
0.5457964136510572
 40
0.5792219821330685
 40
0.6118022520997418
 40
0.6443821013229727
 40
0.6779063150589724
 40
0.7114309691037807
 40
0.744038603641115
 40
0.7766467955530069
 40
0.8102042524347043
 40
0.843762535845276
 40
0.8763174270311695
 40
0.9088730425290882
 40
0.9423808368561613
 40
0.9758879757086423
 40
0.9999999999999999
 40
0.9999999999999999
 40
0.9999999999999999
 40
0.9999999999999999
 10
57.35084106108808
 20
-141.505173751846
 30
0.0
 10
57.35087146756308
 20
-141.5054911157825
 30
0.0
 10
57.35095014258333
 20
-141.5063122768721
 30
0.0
 10
57.34691829710438
 20
-141.4589381243506
 30
0.0
 10
57.33936538175836
 20
-141.369963168367
 30
0.0
 10
57.328216265829
 20
-141.2389515144556
 30
0.0
 10
57.31355419276275
 20
-141.0663440214796
 30
0.0
 10
57.29545699902984
 20
-140.8538461423877
 30
0.0
 10
57.27431557910796
 20
-140.6057131781267
 30
0.0
 10
57.25014753186215
 20
-140.3224646056428
 30
0.0
 10
57.22278684710992
 20
-140.0023056236481
 30
0.0
 10
57.19261407273087
 20
-139.6498188022634
 30
0.0
 10
57.16015546680171
 20
-139.2712154626405
 30
0.0
 10
57.12538300420815
 20
-138.8663974757556
 30
0.0
 10
57.08815343657496
 20
-138.4338240905079
 30
0.0
 10
57.04898945383437
 20
-137.9798957877402
 30
0.0
 10
57.00855205482632
 20
-137.5123339829046
 30
0.0
 10
56.96676925724
 20
-137.0304017508572
 30
0.0
 10
56.92355903944569
 20
-136.5329919886708
 30
0.0
 10
56.87954718620882
 20
-136.0278028866979
 30
0.0
 10
56.83548500239959
 20
-135.5232971260617
 30
0.0
 10
56.79128595749784
 20
-135.0182043589392
 30
0.0
 10
56.7468232083788
 20
-134.5117705419648
 30
0.0
 10
56.7028741909651
 20
-134.012388778863
 30
0.0
 10
56.66014816427347
 20
-133.5283039117303
 30
0.0
 10
56.61854537972809
 20
-133.0578244547115
 30
0.0
 10
56.57799390865357
 20
-132.6004395146959
 30
0.0
 10
56.53922313987069
 20
-132.1643083956563
 30
0.0
 10
56.50290931796563
 20
-131.7565143484501
 30
0.0
 10
56.46884565564213
 20
-131.3748628278657
 30
0.0
 10
56.43710161374467
 20
-131.0198943947474
 30
0.0
 10
56.41048339302339
 20
-130.722773840062
 30
0.0
 10
56.39556970103031
 20
-130.5566004234865
 30
0.0
 10
56.38932873389386
 20
-130.4870614500196
 30
0.0
  0
SPLINE
  5
249
330
1F
100
AcDbEntity
  8
0
  6
Continuous
 62
     7
370
    15
100
AcDbSpline
210
0.0
220
0.0
230
1.0
 70
     8
 71
     3
 72
    36
 73
    32
 74
     0
 42
0.00000001
 43
0.00000001
 12
1.0
 22
0.0
 32
0.0
 13
1.0
 23
0.0
 33
0.0
 40
0.0
 40
0.0
 40
0.0
 40
0.0
 40
0.0000642464141126
 40
0.0359728988714195
 40
0.0719968768127608
 40
0.1079052608822809
 40
0.1436993106222791
 40
0.1796081973194782
 40
0.2154023267282968
 40
0.2510698441115884
 40
0.2868516426885273
 40
0.3225191170115544
 40
0.3581008182612115
 40
0.3937958487040982
 40
0.4293779911041513
 40
0.4649484741995952
 40
0.5006323611938084
 40
0.5362034586309226
 40
0.5718414001654265
 40
0.6075925579715027
 40
0.6432314503835146
 40
0.6789887219746368
 40
0.7148598462952764
 40
0.7506180158958695
 40
0.7864985136332853
 40
0.8224933605113718
 40
0.8583742356624747
 40
0.8943282179510741
 40
0.9303974722298914
 40
0.9663523381732508
 40
1.0
 40
1.0
 40
1.0
 40
1.0
 10
57.09471990248822
 20
-43.01021934463093
 30
0.0
 10
57.09474970515123
 20
-43.01024421946678
 30
0.0
 10
57.11143683389052
 20
-43.0241721556196
 30
0.0
 10
57.14419354885959
 20
-42.9775664488828
 30
0.0
 10
57.18890170392437
 20
-42.87134249053126
 30
0.0
 10
57.22914460866656
 20
-42.68110338897111
 30
0.0
 10
57.2641765973506
 20
-42.41996738963903
 30
0.0
 10
57.29383408160587
 20
-42.09056845746893
 30
0.0
 10
57.3177225088765
 20
-41.69797331478079
 30
0.0
 10
57.33540197537572
 20
-41.24495661782681
 30
0.0
 10
57.34690761593129
 20
-40.73975242284651
 30
0.0
 10
57.35209774981946
 20
-40.18832809804904
 30
0.0
 10
57.3507135549025
 20
-39.59639103389138
 30
0.0
 10
57.34300677354707
 20
-38.97301667275064
 30
0.0
 10
57.32909247433678
 20
-38.32532809412708
 30
0.0
 10
57.30888331884969
 20
-37.66097415965206
 30
0.0
 10
57.28287592650351
 20
-36.98897430779105
 30
0.0
 10
57.2513174444267
 20
-36.31690923717438
 30
0.0
 10
57.21441036447607
 20
-35.65359141042227
 30
0.0
 10
57.17273656278281
 20
-35.00709408436047
 30
0.0
 10
57.12676464355869
 20
-34.38485954189858
 30
0.0
 10
57.07688720102657
 20
-33.79597783742585
 30
0.0
 10
57.02383282059974
 20
-33.2468116252369
 30
0.0
 10
56.96821128853073
 20
-32.74396559955845
 30
0.0
 10
56.91060294746074
 20
-32.29587013562841
 30
0.0
 10
56.85183279383592
 20
-31.90641658400598
 30
0.0
 10
56.79258128114876
 20
-31.58071885534498
 30
0.0
 10
56.73360143004886
 20
-31.32490677132846
 30
0.0
 10
56.67574852639624
 20
-31.142134905036
 30
0.0
 10
56.6205963459326
 20
-31.02922719007189
 30
0.0
 10
56.58654238467399
 20
-31.01830588692559
 30
0.0
 10
56.57007981917523
 20
-31.01302624656269
 30
0.0
  0
SPLINE
  5
24A
330
1F
100
AcDbEntity
  8
0
  6
Continuous
 62
     7
370
    15
100
AcDbSpline
210
0.0
220
0.0
230
1.0
 70
     8
 71
     3
 72
    36
 73
    32
 74
     0
 42
0.00000001
 43
0.00000001
 12
1.0
 22
0.0
 32
0.0
 13
1.0
 23
0.0
 33
0.0
 40
0.0
 40
0.0
 40
0.0
 40
0.0
 40
0.0299501790183467
 40
0.0657867065592786
 40
0.1017371457391966
 40
0.1375740534368871
 40
0.1735121120509028
 40
0.2095643113461854
 40
0.2455023393996065
 40
0.2814597925924061
 40
0.3175328817561406
 40
0.3534907073613863
 40
0.3893822278671978
 40
0.4253886563513473
 40
0.4612795344532842
 40
0.497050397714807
 40
0.5329356615805406
 40
0.5687056667150759
 40
0.6043535438497237
 40
0.6401157260348661
 40
0.6757629894404654
 40
0.711337174632791
 40
0.7470239605422232
 40
0.7825979960926481
 40
0.8181752320263947
 40
0.8538658839793482
 40
0.8894436660123556
 40
0.9251009654520223
 40
0.9608713530708729
 40
0.9965290058574042
 40
1.0
 40
1.0
 40
1.0
 40
1.0
 10
56.57018412730359
 20
153.9951866774409
 30
0.0
 10
56.58476524674904
 20
153.9980417146812
 30
0.0
 10
56.61679322980977
 20
154.0043129124938
 30
0.0
 10
56.66970716109325
 20
154.1067050842544
 30
0.0
 10
56.72721555998246
 20
154.2806253588928
 30
0.0
 10
56.78600220164114
 20
154.528243231551
 30
0.0
 10
56.84523934846276
 20
154.8463863549131
 30
0.0
 10
56.90422409239694
 20
155.2295557065113
 30
0.0
 10
56.96212983277267
 20
155.6726817857391
 30
0.0
 10
57.0182258811255
 20
156.172276573575
 30
0.0
 10
57.071863224797
 20
156.720047704189
 30
0.0
 10
57.12235602904873
 20
157.3089616006714
 30
0.0
 10
57.1690031413684
 20
157.9327041495998
 30
0.0
 10
57.21134265820539
 20
158.5820360948895
 30
0.0
 10
57.24887767729413
 20
159.2487501618092
 30
0.0
 10
57.2810069082642
 20
159.9246054524459
 30
0.0
 10
57.3075227154186
 20
160.6006144512654
 30
0.0
 10
57.3281481614658
 20
161.2685603061136
 30
0.0
 10
57.34244903251452
 20
161.9193495905067
 30
0.0
 10
57.35047654032273
 20
162.545324294457
 30
0.0
 10
57.35216842228459
 20
163.1392588044453
 30
0.0
 10
57.34732727646542
 20
163.6921919587381
 30
0.0
 10
57.3361663928091
 20
164.1986765901968
 30
0.0
 10
57.31891127157849
 20
164.6530201515066
 30
0.0
 10
57.29545571907126
 20
165.0473463285576
 30
0.0
 10
57.26636752157811
 20
165.3789986072734
 30
0.0
 10
57.23190760556911
 20
165.6435336703877
 30
0.0
 10
57.19237612646096
 20
165.837677505174
 30
0.0
 10
57.1480279896041
 20
165.9513015260592
 30
0.0
 10
57.11505856208081
 20
165.9998515264026
 30
0.0
 10
57.09625390151242
 20
165.9874521685752
 30
0.0
 10
57.09458579203748
 20
165.9863522558063
 30
0.0
  0
SPLINE
  5
24B
330
1F
100
AcDbEntity
  8
0
  6
Continuous
 62
     7
370
    15
100
AcDbSpline
210
0.0
220
0.0
230
1.0
 70
     8
 71
     3
 72
    14
 73
    10
 74
     0
 42
0.00000001
 43
0.00000001
 12
1.0
 22
0.0
 32
0.0
 13
1.0
 23
0.0
 33
0.0
 40
0.0
 40
0.0
 40
0.0
 40
0.0
 40
0.1430319864213567
 40
0.286072953000729
 40
0.4332243308531794
 40
0.5803742031449166
 40
0.723701311731231
 40
0.8670233629846035
 40
1.0
 40
1.0
 40
1.0
 40
1.0
 10
56.38932873389386
 20
-130.4870614500196
 30
0.0
 10
56.3799947310452
 20
-130.3998538868795
 30
0.0
 10
56.36132613931934
 20
-130.2254332853367
 30
0.0
 10
56.32259991953327
 20
-130.0072591146233
 30
0.0
 10
56.28299141406094
 20
-129.8236196070853
 30
0.0
 10
56.24620968301901
 20
-129.6807077079152
 30
0.0
 10
56.21799813611873
 20
-129.5809528000571
 30
0.0
 10
56.19941817596764
 20
-129.5203177835665
 30
0.0
 10
56.19778530983758
 20
-129.514916441743
 30
0.0
 10
56.19699944636487
 20
-129.5123168916852
 30
0.0
  0
SPLINE
  5
24C
330
1F
100
AcDbEntity
  8
0
  6
Continuous
 62
     7
370
    15
100
AcDbSpline
210
0.0
220
0.0
230
1.0
 70
     8
 71
     3
 72
    13
 73
     9
 74
     0
 42
0.00000001
 43
0.00000001
 12
1.0
 22
0.0
 32
0.0
 13
1.0
 23
0.0
 33
0.0
 40
0.0
 40
0.0
 40
0.0
 40
0.0
 40
0.014817187654444
 40
0.1626765569993293
 40
0.4393645522791925
 40
0.5816510192361523
 40
0.7239396068697672
 40
1.0
 40
1.0
 40
1.0
 40
1.0
 10
56.19699944636487
 20
252.4917355089038
 30
0.0
 10
56.19680268272594
 20
252.4910906663478
 30
0.0
 10
56.19464243261156
 20
252.4840109985156
 30
0.0
 10
56.20633853506617
 20
252.5222488571265
 30
0.0
 10
56.23904611913726
 20
252.629924049849
 30
0.0
 10
56.28680447412733
 20
252.8210340772031
 30
0.0
 10
56.33900675334034
 20
253.0564584501397
 30
0.0
 10
56.36932337933361
 20
253.3034771858495
 30
0.0
 10
56.38932873389386
 20
253.4664800672381
 30
0.0
  0
LINE
  5
24D
330
1F
100
AcDbEntity
  8
0
  6
Continuous
 62
     7
370
    15
100
AcDbLine
 10
24.0511863389
 20
245.1172998457
 30
0.0
 11
24.0511863389
 21
218.4466054945
 31
0.0
  0
LINE
  5
24E
330
1F
100
AcDbEntity
  8
0
  6
Continuous
 62
     7
370
    15
100
AcDbLine
 10
24.0511863389
 20
194.4466015606
 30
0.0
 11
24.0511863389
 21
165.9897124677
 31
0.0
  0
LINE
  5
24F
330
1F
100
AcDbEntity
  8
0
  6
Continuous
 62
     7
370
    15
100
AcDbLine
 10
24.0511863389
 20
153.9897105007
 30
0.0
 11
24.0511863389
 21
-31.0102918835
 31
0.0
  0
LINE
  5
250
330
1F
100
AcDbEntity
  8
0
  6
Continuous
 62
     7
370
    15
100
AcDbLine
 10
24.0511863389
 20
-43.0102938504
 30
0.0
 11
24.0511863389
 21
-71.4671829434
 31
0.0
  0
LINE
  5
251
330
1F
100
AcDbEntity
  8
0
  6
Continuous
 62
     7
370
    15
100
AcDbLine
 10
24.0511863389
 20
-95.4671868773
 30
0.0
 11
24.0511863389
 21
-122.1378812285
 31
0.0
  0
LINE
  5
252
330
1F
100
AcDbEntity
  8
0
  6
Continuous
 62
     7
370
    15
100
AcDbLine
 10
66.5511905112
 20
148.0733609109
 30
0.0
 11
66.5511905112
 21
171.9897097258
 31
0.0
  0
LINE
  5
253
330
1F
100
AcDbEntity
  8
0
  6
Continuous
 62
     7
370
    15
100
AcDbLine
 10
66.5511905112
 20
147.9897057919
 30
0.0
 11
66.5511905112
 21
148.0733609109
 31
0.0
  0
LINE
  5
254
330
1F
100
AcDbEntity
  8
0
  6
Continuous
 62
     7
370
    15
100
AcDbLine
 10
66.5511905112
 20
-49.0102911086
 30
0.0
 11
66.5511905112
 21
-25.0102871747
 31
0.0
  0
SPLINE
  5
255
330
1F
100
AcDbEntity
  8
0
  6
Continuous
 62
     7
370
    15
100
AcDbSpline
210
0.0
220
0.0
230
1.0
 70
     8
 71
     3
 72
    16
 73
    12
 74
     0
 42
0.00000001
 43
0.00000001
 12
1.0
 22
0.0
 32
0.0
 13
1.0
 23
0.0
 33
0.0
 40
0.0
 40
0.0
 40
0.0
 40
0.0
 40
0.2500000000000018
 40
0.2500000000000018
 40
0.5000000000000037
 40
0.5000000000000037
 40
0.6250000000000029
 40
0.6250000000000029
 40
0.7500000000000021
 40
0.7500000000000021
 40
1.0
 40
1.0
 40
1.0
 40
1.0
 10
67.78804959829209
 20
159.9897093086076
 30
0.0
 10
67.54407430176164
 20
160.7216351981989
 30
0.0
 10
67.3393803462707
 20
161.4714641521418
 30
0.0
 10
67.05952657394516
 20
162.9747849556607
 30
0.0
 10
66.9841179996541
 20
163.7305134815992
 30
0.0
 10
66.98424413888675
 20
164.871246418835
 30
0.0
 10
67.00293560508035
 20
165.2526666478719
 30
0.0
 10
67.0771104621374
 20
166.0178269762895
 30
0.0
 10
67.1322867104581
 20
166.398104774647
 30
0.0
 10
67.34362375053364
 20
167.5253261457759
 30
0.0
 10
67.5455868149032
 20
168.2623209584408
 30
0.0
 10
67.78804959829215
 20
168.9897093086076
 30
0.0
  0
SPLINE
  5
256
330
1F
100
AcDbEntity
  8
0
  6
Continuous
 62
     7
370
    15
100
AcDbSpline
210
0.0
220
0.0
230
1.0
 70
     8
 71
     3
 72
    16
 73
    12
 74
     0
 42
0.00000001
 43
0.00000001
 12
1.0
 22
0.0
 32
0.0
 13
1.0
 23
0.0
 33
0.0
 40
0.0
 40
0.0
 40
0.0
 40
0.0
 40
0.2500000000000017
 40
0.2500000000000017
 40
0.5000000000000033
 40
0.5000000000000033
 40
0.6250000000000024
 40
0.6250000000000024
 40
0.7500000000000017
 40
0.7500000000000017
 40
1.0
 40
1.0
 40
1.0
 40
1.0
 10
67.7880495982918
 20
150.9897093086076
 30
0.0
 10
67.54312808370936
 20
151.7244738523547
 30
0.0
 10
67.3412683636729
 20
152.4645954537709
 30
0.0
 10
67.06162709207585
 20
153.9602744718312
 30
0.0
 10
66.98476795734751
 20
154.7159466407799
 30
0.0
 10
66.9839237961783
 20
155.8636922480358
 30
0.0
 10
67.00271288284847
 20
156.2480742594834
 30
0.0
 10
67.07598037492922
 20
157.0084224266563
 30
0.0
 10
67.13038442659254
 20
157.3860473453284
 30
0.0
 10
67.34046348494469
 20
158.5121990056237
 30
0.0
 10
67.54282277811193
 20
159.2540288480676
 30
0.0
 10
67.78804959829195
 20
159.9897093086076
 30
0.0
  0
SPLINE
  5
257
330
1F
100
AcDbEntity
  8
0
  6
Continuous
 62
     7
370
    15
100
AcDbSpline
210
0.0
220
0.0
230
1.0
 70
    24
 71
     3
 72
    12
 73
     8
 74
     0
 42
0.00000001
 43
0.00000001
 12
1.0
 22
0.0
 32
0.0
 13
1.0
 23
0.0
 33
0.0
 40
0.0
 40
0.0
 40
0.0
 40
0.0
 40
0.0700090117601953
 40
0.3003888267791231
 40
0.5308044648787678
 40
0.7653794589618999
 40
1.0
 40
1.0
 40
1.0
 40
1.0
 10
66.99683953902387
 20
150.989711871609
 30
0.0
 10
66.99298751798747
 20
150.989711871609
 30
0.0
 10
66.97645958750044
 20
150.989711871609
 30
0.0
 10
67.05463596832827
 20
150.989711871609
 30
0.0
 10
67.21459783092897
 20
150.989711871609
 30
0.0
 10
67.46087841757488
 20
150.989711871609
 30
0.0
 10
67.67898341166452
 20
150.989711871609
 30
0.0
 10
67.7880464949336
 20
150.989711871609
 30
0.0
  0
SPLINE
  5
258
330
1F
100
AcDbEntity
  8
0
  6
Continuous
 62
     7
370
    15
100
AcDbSpline
210
0.0
220
0.0
230
1.0
 70
    24
 71
     3
 72
    11
 73
     7
 74
     0
 42
0.00000001
 43
0.00000001
 12
1.0
 22
0.0
 32
0.0
 13
1.0
 23
0.0
 33
0.0
 40
0.0
 40
0.0
 40
0.0
 40
0.0
 40
0.2646116169299151
 40
0.5291479459171432
 40
0.7996000499031806
 40
1.0
 40
1.0
 40
1.0
 40
1.0
 10
67.7880464949336
 20
168.9897110967486
 30
0.0
 10
67.6654603926441
 20
168.9897110967486
 30
0.0
 10
67.4203230665619
 20
168.9897110967486
 30
0.0
 10
67.16036305707338
 20
168.9897110967486
 30
0.0
 10
67.00396866194043
 20
168.9897110967486
 30
0.0
 10
66.99896791386344
 20
168.9897110967486
 30
0.0
 10
66.99683953902387
 20
168.9897110967486
 30
0.0
  0
LINE
  5
259
330
1F
100
AcDbEntity
  8
0
  6
Continuous
 62
     7
370
    15
100
AcDbLine
 10
67.7880464949
 20
168.9897110967
 30
0.0
 11
75.7143317618
 21
168.9897110967
 31
0.0
  0
SPLINE
  5
25A
330
1F
100
AcDbEntity
  8
0
  6
Continuous
 62
     7
370
    15
100
AcDbSpline
210
0.0
220
0.0
230
1.0
 70
     8
 71
     3
 72
    16
 73
    12
 74
     0
 42
0.00000001
 43
0.00000001
 12
1.0
 22
0.0
 32
0.0
 13
1.0
 23
0.0
 33
0.0
 40
0.0
 40
0.0
 40
0.0
 40
0.0
 40
0.2499999999999984
 40
0.2499999999999984
 40
0.4999999999999968
 40
0.4999999999999968
 40
0.6249999999999978
 40
0.6249999999999978
 40
0.7499999999999987
 40
0.7499999999999987
 40
1.0
 40
1.0
 40
1.0
 40
1.0
 10
75.71432903992108
 20
159.9897093086076
 30
0.0
 10
75.95830433645152
 20
160.7216351981989
 30
0.0
 10
76.16299829194251
 20
161.4714641521417
 30
0.0
 10
76.44285206426808
 20
162.9747849556606
 30
0.0
 10
76.51826063855911
 20
163.7305134815992
 30
0.0
 10
76.51813449932646
 20
164.871246418835
 30
0.0
 10
76.49944303313288
 20
165.2526666478718
 30
0.0
 10
76.42526817607578
 20
166.0178269762895
 30
0.0
 10
76.37009192775503
 20
166.398104774647
 30
0.0
 10
76.15875488767946
 20
167.5253261457759
 30
0.0
 10
75.95679182330998
 20
168.2623209584409
 30
0.0
 10
75.71432903992105
 20
168.9897093086077
 30
0.0
  0
LINE
  5
25B
330
1F
100
AcDbEntity
  8
0
  6
Continuous
 62
     7
370
    15
100
AcDbLine
 10
67.7880464949
 20
159.9897077589
 30
0.0
 11
75.7143317618
 21
159.9897077589
 31
0.0
  0
SPLINE
  5
25C
330
1F
100
AcDbEntity
  8
0
  6
Continuous
 62
     7
370
    15
100
AcDbSpline
210
0.0
220
0.0
230
1.0
 70
    24
 71
     3
 72
    11
 73
     7
 74
     0
 42
0.00000001
 43
0.00000001
 12
1.0
 22
0.0
 32
0.0
 13
1.0
 23
0.0
 33
0.0
 40
0.0
 40
0.0
 40
0.0
 40
0.0
 40
0.2646116002212088
 40
0.5291479125044846
 40
0.7995999994130223
 40
1.0
 40
1.0
 40
1.0
 40
1.0
 10
75.71433176180982
 20
150.989711871609
 30
0.0
 10
75.83691772955136
 20
150.989711871609
 30
0.0
 10
76.08205478657582
 20
150.989711871609
 30
0.0
 10
76.3420168285945
 20
150.989711871609
 30
0.0
 10
76.49840403319843
 20
150.989711871609
 30
0.0
 10
76.50341913468263
 20
150.989711871609
 30
0.0
 10
76.50555361888074
 20
150.989711871609
 30
0.0
  0
SPLINE
  5
25D
330
1F
100
AcDbEntity
  8
0
  6
Continuous
 62
     7
370
    15
100
AcDbSpline
210
0.0
220
0.0
230
1.0
 70
     8
 71
     3
 72
    16
 73
    12
 74
     0
 42
0.00000001
 43
0.00000001
 12
1.0
 22
0.0
 32
0.0
 13
1.0
 23
0.0
 33
0.0
 40
0.0
 40
0.0
 40
0.0
 40
0.0
 40
0.2500000000000008
 40
0.2500000000000008
 40
0.5000000000000017
 40
0.5000000000000017
 40
0.6250000000000021
 40
0.6250000000000021
 40
0.7500000000000024
 40
0.7500000000000024
 40
1.0
 40
1.0
 40
1.0
 40
1.0
 10
75.71432903992141
 20
159.9897093086076
 30
0.0
 10
75.95925055450383
 20
159.2549447648605
 30
0.0
 10
76.16111027454026
 20
158.5148231634442
 30
0.0
 10
76.4407515461374
 20
157.019144145384
 30
0.0
 10
76.51761068086573
 20
156.2634719764353
 30
0.0
 10
76.51845484203491
 20
155.1157263691793
 30
0.0
 10
76.49966575536483
 20
154.7313443577318
 30
0.0
 10
76.42639826328397
 20
153.9709961905589
 30
0.0
 10
76.37199421162065
 20
153.5933712718869
 30
0.0
 10
76.16191515326855
 20
152.4672196115915
 30
0.0
 10
75.95955586010126
 20
151.7253897691476
 30
0.0
 10
75.71432903992124
 20
150.9897093086076
 30
0.0
  0
SPLINE
  5
25E
330
1F
100
AcDbEntity
  8
0
  6
Continuous
 62
     7
370
    15
100
AcDbSpline
210
0.0
220
0.0
230
1.0
 70
    24
 71
     3
 72
    12
 73
     8
 74
     0
 42
0.00000001
 43
0.00000001
 12
1.0
 22
0.0
 32
0.0
 13
1.0
 23
0.0
 33
0.0
 40
0.0
 40
0.0
 40
0.0
 40
0.0
 40
0.0700089530780334
 40
0.3003887826338608
 40
0.5308044352726653
 40
0.7653794441574117
 40
1.0
 40
1.0
 40
1.0
 40
1.0
 10
76.50555361888074
 20
168.9897110967486
 30
0.0
 10
76.50940002643682
 20
168.9897110967486
 30
0.0
 10
76.52590388247933
 20
168.9897110967486
 30
0.0
 10
76.44774789381776
 20
168.9897110967487
 30
0.0
 10
76.28777890078923
 20
168.9897110967486
 30
0.0
 10
76.04150022334944
 20
168.9897110967487
 30
0.0
 10
75.82339497314751
 20
168.9897110967486
 30
0.0
 10
75.71433176180982
 20
168.9897110967486
 30
0.0
  0
LINE
  5
25F
330
1F
100
AcDbEntity
  8
0
  6
Continuous
 62
     7
370
    15
100
AcDbLine
 10
76.9511877455
 20
164.1147068052
 30
0.0
 11
76.9511877455
 21
168.2397058515
 31
0.0
  0
LINE
  5
260
330
1F
100
AcDbEntity
  8
0
  6
Continuous
 62
     7
370
    15
100
AcDbLine
 10
76.9511877455
 20
151.7397096662
 30
0.0
 11
76.9511877455
 21
164.1147068052
 31
0.0
  0
SPLINE
  5
261
330
1F
100
AcDbEntity
  8
0
  6
Continuous
 62
     7
370
    15
100
AcDbSpline
210
0.0
220
0.0
230
1.0
 70
     8
 71
     3
 72
    16
 73
    12
 74
     0
 42
0.00000001
 43
0.00000001
 12
1.0
 22
0.0
 32
0.0
 13
1.0
 23
0.0
 33
0.0
 40
0.0
 40
0.0
 40
0.0
 40
0.0
 40
0.25
 40
0.25
 40
0.5
 40
0.5
 40
0.625
 40
0.625
 40
0.75
 40
0.75
 40
1.0
 40
1.0
 40
1.0
 40
1.0
 10
67.78804959829212
 20
-46.01029069139273
 30
0.0
 10
67.54407430176173
 20
-45.27836480180139
 30
0.0
 10
67.33938034627067
 20
-44.52853584785861
 30
0.0
 10
67.05952657394519
 20
-43.0252150443397
 30
0.0
 10
66.9841179996541
 20
-42.26948651840122
 30
0.0
 10
66.98424413888681
 20
-41.12875358116545
 30
0.0
 10
67.00293560508035
 20
-40.74733335212851
 30
0.0
 10
67.07711046213737
 20
-39.98217302371093
 30
0.0
 10
67.13228671045816
 20
-39.60189522535345
 30
0.0
 10
67.34362375053364
 20
-38.47467385422458
 30
0.0
 10
67.5455868149032
 20
-37.73767904155966
 30
0.0
 10
67.78804959829215
 20
-37.01029069139281
 30
0.0
  0
SPLINE
  5
262
330
1F
100
AcDbEntity
  8
0
  6
Continuous
 62
     7
370
    15
100
AcDbSpline
210
0.0
220
0.0
230
1.0
 70
    24
 71
     3
 72
    12
 73
     8
 74
     0
 42
0.00000001
 43
0.00000001
 12
1.0
 22
0.0
 32
0.0
 13
1.0
 23
0.0
 33
0.0
 40
0.0
 40
0.0
 40
0.0
 40
0.0
 40
0.0700090117601953
 40
0.3003888267791231
 40
0.5308044648787678
 40
0.7653794589618999
 40
1.0
 40
1.0
 40
1.0
 40
1.0
 10
66.99683953902387
 20
-46.01029247953007
 30
0.0
 10
66.99298751798747
 20
-46.01029247953007
 30
0.0
 10
66.97645958750044
 20
-46.01029247953007
 30
0.0
 10
67.05463596832827
 20
-46.01029247953007
 30
0.0
 10
67.21459783092897
 20
-46.01029247953007
 30
0.0
 10
67.46087841757488
 20
-46.01029247953011
 30
0.0
 10
67.67898341166452
 20
-46.01029247953006
 30
0.0
 10
67.7880464949336
 20
-46.01029247953007
 30
0.0
  0
SPLINE
  5
263
330
1F
100
AcDbEntity
  8
0
  6
Continuous
 62
     7
370
    15
100
AcDbSpline
210
0.0
220
0.0
230
1.0
 70
    24
 71
     3
 72
    11
 73
     7
 74
     0
 42
0.00000001
 43
0.00000001
 12
1.0
 22
0.0
 32
0.0
 13
1.0
 23
0.0
 33
0.0
 40
0.0
 40
0.0
 40
0.0
 40
0.0
 40
0.2646116169299151
 40
0.5291479459171432
 40
0.7996000499031806
 40
1.0
 40
1.0
 40
1.0
 40
1.0
 10
67.7880464949336
 20
-28.01029325439045
 30
0.0
 10
67.6654603926441
 20
-28.01029325439044
 30
0.0
 10
67.4203230665619
 20
-28.01029325439041
 30
0.0
 10
67.16036305707338
 20
-28.01029325439048
 30
0.0
 10
67.00396866194043
 20
-28.01029325439044
 30
0.0
 10
66.99896791386344
 20
-28.01029325439045
 30
0.0
 10
66.99683953902387
 20
-28.01029325439045
 30
0.0
  0
SPLINE
  5
264
330
1F
100
AcDbEntity
  8
0
  6
Continuous
 62
     7
370
    15
100
AcDbSpline
210
0.0
220
0.0
230
1.0
 70
     8
 71
     3
 72
    16
 73
    12
 74
     0
 42
0.00000001
 43
0.00000001
 12
1.0
 22
0.0
 32
0.0
 13
1.0
 23
0.0
 33
0.0
 40
0.0
 40
0.0
 40
0.0
 40
0.0
 40
0.2500000000000002
 40
0.2500000000000002
 40
0.5000000000000003
 40
0.5000000000000003
 40
0.6249999999999984
 40
0.6249999999999984
 40
0.7499999999999964
 40
0.7499999999999964
 40
1.0
 40
1.0
 40
1.0
 40
1.0
 10
67.78804959829175
 20
-37.01029069139284
 30
0.0
 10
67.54312808370936
 20
-36.27552614764566
 30
0.0
 10
67.3412683636729
 20
-35.53540454622944
 30
0.0
 10
67.0616270920758
 20
-34.03972552816914
 30
0.0
 10
66.98476795734739
 20
-33.28405335922044
 30
0.0
 10
66.9839237961783
 20
-32.13630775196444
 30
0.0
 10
67.00271288284839
 20
-31.75192574051689
 30
0.0
 10
67.07598037492919
 20
-30.99157757334407
 30
0.0
 10
67.1303844265926
 20
-30.61395265467195
 30
0.0
 10
67.34046348494468
 20
-29.48780099437664
 30
0.0
 10
67.54282277811204
 20
-28.7459711519327
 30
0.0
 10
67.78804959829198
 20
-28.01029069139271
 30
0.0
  0
LINE
  5
265
330
1F
100
AcDbEntity
  8
0
  6
Continuous
 62
     7
370
    15
100
AcDbLine
 10
67.7880464949
 20
-37.0102891417
 30
0.0
 11
75.7143317618
 21
-37.0102891417
 31
0.0
  0
SPLINE
  5
266
330
1F
100
AcDbEntity
  8
0
  6
Continuous
 62
     7
370
    15
100
AcDbSpline
210
0.0
220
0.0
230
1.0
 70
     8
 71
     3
 72
    16
 73
    12
 74
     0
 42
0.00000001
 43
0.00000001
 12
1.0
 22
0.0
 32
0.0
 13
1.0
 23
0.0
 33
0.0
 40
0.0
 40
0.0
 40
0.0
 40
0.0
 40
0.25
 40
0.25
 40
0.5
 40
0.5
 40
0.625
 40
0.625
 40
0.75
 40
0.75
 40
1.0
 40
1.0
 40
1.0
 40
1.0
 10
75.71432903992108
 20
-46.01029069139279
 30
0.0
 10
75.95830433645152
 20
-45.27836480180148
 30
0.0
 10
76.1629982919425
 20
-44.52853584785866
 30
0.0
 10
76.44285206426802
 20
-43.02521504433974
 30
0.0
 10
76.51826063855908
 20
-42.2694865184012
 30
0.0
 10
76.51813449932642
 20
-41.12875358116545
 30
0.0
 10
76.49944303313282
 20
-40.74733335212851
 30
0.0
 10
76.42526817607578
 20
-39.98217302371093
 30
0.0
 10
76.37009192775506
 20
-39.60189522535342
 30
0.0
 10
76.15875488767952
 20
-38.47467385422453
 30
0.0
 10
75.95679182330998
 20
-37.73767904155958
 30
0.0
 10
75.71432903992105
 20
-37.01029069139277
 30
0.0
  0
LINE
  5
267
330
1F
100
AcDbEntity
  8
0
  6
Continuous
 62
     7
370
    15
100
AcDbLine
 10
67.7880464949
 20
-46.0102924795
 30
0.0
 11
75.7143317618
 21
-46.0102924795
 31
0.0
  0
SPLINE
  5
268
330
1F
100
AcDbEntity
  8
0
  6
Continuous
 62
     7
370
    15
100
AcDbSpline
210
0.0
220
0.0
230
1.0
 70
    24
 71
     3
 72
    12
 73
     8
 74
     0
 42
0.00000001
 43
0.00000001
 12
1.0
 22
0.0
 32
0.0
 13
1.0
 23
0.0
 33
0.0
 40
0.0
 40
0.0
 40
0.0
 40
0.0
 40
0.0700089530780334
 40
0.3003887826338608
 40
0.5308044352726653
 40
0.7653794441574117
 40
1.0
 40
1.0
 40
1.0
 40
1.0
 10
76.50555361888074
 20
-28.01029325439045
 30
0.0
 10
76.50940002643682
 20
-28.01029325439045
 30
0.0
 10
76.52590388247933
 20
-28.01029325439042
 30
0.0
 10
76.44774789381776
 20
-28.01029325439048
 30
0.0
 10
76.28777890078923
 20
-28.01029325439041
 30
0.0
 10
76.04150022334944
 20
-28.01029325439048
 30
0.0
 10
75.82339497314751
 20
-28.01029325439045
 30
0.0
 10
75.71433176180982
 20
-28.01029325439045
 30
0.0
  0
SPLINE
  5
269
330
1F
100
AcDbEntity
  8
0
  6
Continuous
 62
     7
370
    15
100
AcDbSpline
210
0.0
220
0.0
230
1.0
 70
    24
 71
     3
 72
    11
 73
     7
 74
     0
 42
0.00000001
 43
0.00000001
 12
1.0
 22
0.0
 32
0.0
 13
1.0
 23
0.0
 33
0.0
 40
0.0
 40
0.0
 40
0.0
 40
0.0
 40
0.2646116002212088
 40
0.5291479125044846
 40
0.7995999994130223
 40
1.0
 40
1.0
 40
1.0
 40
1.0
 10
75.71433176180982
 20
-46.01029247953007
 30
0.0
 10
75.83691772955136
 20
-46.01029247953006
 30
0.0
 10
76.08205478657582
 20
-46.0102924795301
 30
0.0
 10
76.3420168285945
 20
-46.01029247953004
 30
0.0
 10
76.49840403319843
 20
-46.01029247953006
 30
0.0
 10
76.50341913468263
 20
-46.01029247953007
 30
0.0
 10
76.50555361888074
 20
-46.01029247953007
 30
0.0
  0
SPLINE
  5
26A
330
1F
100
AcDbEntity
  8
0
  6
Continuous
 62
     7
370
    15
100
AcDbSpline
210
0.0
220
0.0
230
1.0
 70
     8
 71
     3
 72
    16
 73
    12
 74
     0
 42
0.00000001
 43
0.00000001
 12
1.0
 22
0.0
 32
0.0
 13
1.0
 23
0.0
 33
0.0
 40
0.0
 40
0.0
 40
0.0
 40
0.0
 40
0.2499999999999965
 40
0.2499999999999965
 40
0.499999999999993
 40
0.499999999999993
 40
0.6249999999999929
 40
0.6249999999999929
 40
0.7499999999999928
 40
0.7499999999999928
 40
1.0
 40
1.0
 40
1.0
 40
1.0
 10
75.71432903992144
 20
-28.01029069139272
 30
0.0
 10
75.95925055450383
 20
-28.74505523513995
 30
0.0
 10
76.16111027454026
 20
-29.48517683655614
 30
0.0
 10
76.44075154613743
 20
-30.98085585461642
 30
0.0
 10
76.5176106808657
 20
-31.73652802356517
 30
0.0
 10
76.51845484203488
 20
-32.88427363082114
 30
0.0
 10
76.49966575536483
 20
-33.26865564226866
 30
0.0
 10
76.42639826328391
 20
-34.02900380944152
 30
0.0
 10
76.37199421162062
 20
-34.4066287281136
 30
0.0
 10
76.16191515326858
 20
-35.5327803884089
 30
0.0
 10
75.95955586010123
 20
-36.27461023085284
 30
0.0
 10
75.71432903992124
 20
-37.01029069139285
 30
0.0
  0
LINE
  5
26B
330
1F
100
AcDbEntity
  8
0
  6
Continuous
 62
     7
370
    15
100
AcDbLine
 10
76.9511877455
 20
-41.135288188
 30
0.0
 11
76.9511877455
 21
-28.760291049
 31
0.0
  0
LINE
  5
26C
330
1F
100
AcDbEntity
  8
0
  6
Continuous
 62
     7
370
    15
100
AcDbLine
 10
76.9511877455
 20
-45.2602872343
 30
0.0
 11
76.9511877455
 21
-41.135288188
 31
0.0
  0
LINE
  5
26D
330
1F
100
AcDbEntity
  8
0
  6
Continuous
 62
     7
370
    15
100
AcDbLine
 10
67.7880464949
 20
150.9897118716
 30
0.0
 11
75.7143317618
 21
150.9897118716
 31
0.0
  0
LINE
  5
26E
330
1F
100
AcDbEntity
  8
0
  6
Continuous
 62
     7
370
    15
100
AcDbLine
 10
67.7880464949
 20
-28.0102932544
 30
0.0
 11
75.7143317618
 21
-28.0102932544
 31
0.0
  0
LINE
  5
26F
330
1F
100
AcDbEntity
  8
0
  6
Continuous
 62
     7
370
    15
100
AcDbLine
 10
117.0511885442
 20
162.989706388
 30
0.0
 11
117.0511885442
 21
165.9897124677
 31
0.0
  0
LINE
  5
270
330
1F
100
AcDbEntity
  8
0
  6
Continuous
 62
     7
370
    15
100
AcDbLine
 10
117.0511885442
 20
153.9897105007
 30
0.0
 11
117.0511885442
 21
162.989706388
 31
0.0
  0
LINE
  5
271
330
1F
100
AcDbEntity
  8
0
  6
Continuous
 62
     7
370
    15
100
AcDbLine
 10
117.0511885442
 20
-40.0102877708
 30
0.0
 11
117.0511885442
 21
-31.0102918835
 31
0.0
  0
LINE
  5
272
330
1F
100
AcDbEntity
  8
0
  6
Continuous
 62
     7
370
    15
100
AcDbLine
 10
117.0511885442
 20
-43.0102938504
 30
0.0
 11
117.0511885442
 21
-40.0102877708
 31
0.0
  0
LINE
  5
273
330
1F
100
AcDbEntity
  8
0
  6
Continuous
 62
     7
370
    15
100
AcDbLine
 10
195.0511901536
 20
-105.4671773405
 30
0.0
 11
195.0511901536
 21
-61.4671775789
 31
0.0
  0
LINE
  5
274
330
1F
100
AcDbEntity
  8
0
  6
Continuous
 62
     7
370
    15
100
AcDbLine
 10
-106.9488109193
 20
-83.4671774597
 30
0.0
 11
-106.9488109193
 21
-105.4671773405
 31
0.0
  0
LINE
  5
275
330
1F
100
AcDbEntity
  8
0
  6
Continuous
 62
     7
370
    15
100
AcDbLine
 10
-106.9488109193
 20
-61.4671775789
 30
0.0
 11
-106.9488109193
 21
-83.4671774597
 31
0.0
  0
LINE
  5
276
330
1F
100
AcDbEntity
  8
0
  6
Continuous
 62
     7
370
    15
100
AcDbLine
 10
195.0511901536
 20
184.4465961962
 30
0.0
 11
195.0511901536
 21
228.4465959577
 31
0.0
  0
LINE
  5
277
330
1F
100
AcDbEntity
  8
0
  6
Continuous
 62
     7
370
    15
100
AcDbLine
 10
-106.9488109193
 20
228.4465959577
 30
0.0
 11
-106.9488109193
 21
184.4465961962
 31
0.0
  0
LINE
  5
278
330
1F
100
AcDbEntity
  8
0
  6
Continuous
 62
     7
370
    15
100
AcDbLine
 10
194.2511896499
 20
215.4465994148
 30
0.0
 11
194.2511896499
 21
224.4466027527
 31
0.0
  0
LINE
  5
279
330
1F
100
AcDbEntity
  8
0
  6
Continuous
 62
     7
370
    15
100
AcDbLine
 10
194.2511896499
 20
206.446596077
 30
0.0
 11
194.2511896499
 21
215.4465994148
 31
0.0
  0
LINE
  5
27A
330
1F
100
AcDbEntity
  8
0
  6
Continuous
 62
     7
370
    15
100
AcDbLine
 10
194.2511896499
 20
206.446596077
 30
0.0
 11
175.1588850178
 21
206.446596077
 31
0.0
  0
SPLINE
  5
27B
330
1F
100
AcDbEntity
  8
0
  6
Continuous
 62
     7
370
    15
100
AcDbSpline
210
0.0
220
0.0
230
1.0
 70
     8
 71
     3
 72
    14
 73
    10
 74
     0
 42
0.00000001
 43
0.00000001
 12
1.0
 22
0.0
 32
0.0
 13
1.0
 23
0.0
 33
0.0
 40
0.0
 40
0.0
 40
0.0
 40
0.0
 40
0.1250000000000039
 40
0.1250000000000039
 40
0.2500000000000077
 40
0.2500000000000077
 40
0.5000000000000088
 40
0.5000000000000088
 40
1.0
 40
1.0
 40
1.0
 40
1.0
 10
173.5511893191066
 20
215.4465994518494
 30
0.0
 10
173.5511893191066
 20
215.0646997838449
 30
0.0
 10
173.5606184245287
 20
214.6808895486911
 30
0.0
 10
173.5980204018161
 20
213.9168401325506
 30
0.0
 10
173.6259529937865
 20
213.5361397031581
 30
0.0
 10
173.7362444765653
 20
212.3978389520977
 30
0.0
 10
173.8451585245408
 20
211.6440479826272
 30
0.0
 10
174.2652285723488
 20
209.3960630143998
 30
0.0
 10
174.6693493365561
 20
207.9152048632606
 30
0.0
 10
175.1588844736932
 20
206.4465994518494
 30
0.0
  0
SPLINE
  5
27C
330
1F
100
AcDbEntity
  8
0
  6
Continuous
 62
     7
370
    15
100
AcDbSpline
210
0.0
220
0.0
230
1.0
 70
     8
 71
     3
 72
    10
 73
     6
 74
     0
 42
0.00000001
 43
0.00000001
 12
1.0
 22
0.0
 32
0.0
 13
1.0
 23
0.0
 33
0.0
 40
0.0
 40
0.0
 40
0.0
 40
0.0
 40
0.5
 40
0.5
 40
1.0
 40
1.0
 40
1.0
 40
1.0
 10
175.1588844736931
 20
224.4465994518494
 30
0.0
 10
174.6681236556336
 20
222.9743169976707
 30
0.0
 10
174.2638098044013
 20
221.4912806263326
 30
0.0
 10
173.7044111307879
 20
218.4942040390065
 30
0.0
 10
173.5511893191066
 20
216.9799320663305
 30
0.0
 10
173.5511893191066
 20
215.4465994518494
 30
0.0
  0
LINE
  5
27D
330
1F
100
AcDbEntity
  8
0
  6
Continuous
 62
     7
370
    15
100
AcDbLine
 10
194.2511896499
 20
224.4466027527
 30
0.0
 11
175.1588850178
 21
224.4466027527
 31
0.0
  0
SPLINE
  5
27E
330
1F
100
AcDbEntity
  8
0
  6
Continuous
 62
     7
370
    15
100
AcDbSpline
210
0.0
220
0.0
230
1.0
 70
     8
 71
     3
 72
    10
 73
     6
 74
     0
 42
0.00000001
 43
0.00000001
 12
1.0
 22
0.0
 32
0.0
 13
1.0
 23
0.0
 33
0.0
 40
0.0
 40
0.0
 40
0.0
 40
0.0
 40
0.5
 40
0.5
 40
1.0
 40
1.0
 40
1.0
 40
1.0
 10
175.1588844736931
 20
206.4465994518494
 30
0.0
 10
174.6681236556336
 20
204.9743169976707
 30
0.0
 10
174.2638098044013
 20
203.4912806263326
 30
0.0
 10
173.7044111307879
 20
200.4942040390066
 30
0.0
 10
173.5511893191066
 20
198.9799320663305
 30
0.0
 10
173.5511893191066
 20
197.4465994518494
 30
0.0
  0
LINE
  5
27F
330
1F
100
AcDbEntity
  8
0
  6
Continuous
 62
     7
370
    15
100
AcDbLine
 10
173.5511875608
 20
215.4465994148
 30
0.0
 11
173.5511875608
 21
197.4465927391
 31
0.0
  0
LINE
  5
280
330
1F
100
AcDbEntity
  8
0
  6
Continuous
 62
     7
370
    15
100
AcDbLine
 10
194.2511896499
 20
188.4466043024
 30
0.0
 11
194.2511896499
 21
197.4465927391
 31
0.0
  0
LINE
  5
281
330
1F
100
AcDbEntity
  8
0
  6
Continuous
 62
     7
370
    15
100
AcDbLine
 10
194.2511896499
 20
188.4466043024
 30
0.0
 11
175.1588850178
 21
188.4466043024
 31
0.0
  0
SPLINE
  5
282
330
1F
100
AcDbEntity
  8
0
  6
Continuous
 62
     7
370
    15
100
AcDbSpline
210
0.0
220
0.0
230
1.0
 70
     8
 71
     3
 72
    14
 73
    10
 74
     0
 42
0.00000001
 43
0.00000001
 12
1.0
 22
0.0
 32
0.0
 13
1.0
 23
0.0
 33
0.0
 40
0.0
 40
0.0
 40
0.0
 40
0.0
 40
0.1249999999999986
 40
0.1249999999999986
 40
0.2499999999999972
 40
0.2499999999999972
 40
0.4999999999999947
 40
0.4999999999999947
 40
1.0
 40
1.0
 40
1.0
 40
1.0
 10
173.5511893191066
 20
197.4465994518494
 30
0.0
 10
173.5511893191066
 20
197.0646997838449
 30
0.0
 10
173.5606184245287
 20
196.680889548691
 30
0.0
 10
173.5980204018161
 20
195.9168401325505
 30
0.0
 10
173.6259529937865
 20
195.536139703158
 30
0.0
 10
173.7362444765653
 20
194.3978389520976
 30
0.0
 10
173.8451585245408
 20
193.6440479826273
 30
0.0
 10
174.2652285723488
 20
191.3960630143998
 30
0.0
 10
174.6693493365561
 20
189.9152048632606
 30
0.0
 10
175.1588844736932
 20
188.4465994518494
 30
0.0
  0
LINE
  5
283
330
1F
100
AcDbEntity
  8
0
  6
Continuous
 62
     7
370
    15
100
AcDbLine
 10
194.2511896499
 20
197.4465927391
 30
0.0
 11
194.2511896499
 21
206.446596077
 31
0.0
  0
SPLINE
  5
284
330
1F
100
AcDbEntity
  8
0
  6
Continuous
 62
     7
370
    15
100
AcDbSpline
210
0.0
220
0.0
230
1.0
 70
     8
 71
     3
 72
    12
 73
     8
 74
     0
 42
0.00000001
 43
0.00000001
 12
1.0
 22
0.0
 32
0.0
 13
1.0
 23
0.0
 33
0.0
 40
0.0
 40
0.0
 40
0.0
 40
0.0
 40
0.2500000000000007
 40
0.2500000000000007
 40
0.5000000000000013
 40
0.5000000000000013
 40
1.0
 40
1.0
 40
1.0
 40
1.0
 10
-85.44881068089337
 20
-76.57229868948454
 30
0.0
 10
-85.44881068089343
 20
-77.38387319146919
 30
0.0
 10
-85.4861477920834
 20
-78.19804726929624
 30
0.0
 10
-85.63453247850887
 20
-79.83152747549086
 30
0.0
 10
-85.74481325429416
 20
-80.64229454144414
 30
0.0
 10
-86.1674452265243
 20
-83.04717721550048
 30
0.0
 10
-86.57142256066639
 20
-84.61974986213124
 30
0.0
 10
-87.05650583548012
 20
-86.17196188157364
 30
0.0
  0
LINE
  5
285
330
1F
100
AcDbEntity
  8
0
  6
Continuous
 62
     7
370
    15
100
AcDbLine
 10
-106.1487973771
 20
-86.1719617338
 30
0.0
 11
-87.0565057836
 21
-86.1719617338
 31
0.0
  0
LINE
  5
286
330
1F
100
AcDbEntity
  8
0
  6
Continuous
 62
     7
370
    15
100
AcDbLine
 10
-106.1487973771
 20
-86.1719617338
 30
0.0
 11
-106.1487973771
 21
-76.5723058672
 31
0.0
  0
LINE
  5
287
330
1F
100
AcDbEntity
  8
0
  6
Continuous
 62
     7
370
    15
100
AcDbLine
 10
-106.1487973771
 20
-76.5723058672
 30
0.0
 11
-106.1487973771
 21
-66.9726350994
 31
0.0
  0
LINE
  5
288
330
1F
100
AcDbEntity
  8
0
  6
Continuous
 62
     7
370
    15
100
AcDbLine
 10
-106.1487973771
 20
-66.9726350994
 30
0.0
 11
-87.0565057836
 21
-66.9726350994
 31
0.0
  0
SPLINE
  5
289
330
1F
100
AcDbEntity
  8
0
  6
Continuous
 62
     7
370
    15
100
AcDbSpline
210
0.0
220
0.0
230
1.0
 70
     8
 71
     3
 72
    12
 73
     8
 74
     0
 42
0.00000001
 43
0.00000001
 12
1.0
 22
0.0
 32
0.0
 13
1.0
 23
0.0
 33
0.0
 40
0.0
 40
0.0
 40
0.0
 40
0.0
 40
0.2499999999999994
 40
0.2499999999999994
 40
0.4999999999999988
 40
0.4999999999999988
 40
1.0
 40
1.0
 40
1.0
 40
1.0
 10
-87.05650583548012
 20
-66.9726354973954
 30
0.0
 10
-86.81254298792695
 20
-67.75328922002657
 30
0.0
 10
-86.58856849310902
 20
-68.54111315924929
 30
0.0
 10
-86.19114378862018
 20
-70.13488509586163
 30
0.0
 10
-86.01944484362139
 20
-70.9343805565318
 30
0.0
 10
-85.59976026076087
 20
-73.3384380579458
 30
0.0
 10
-85.44881068089349
 20
-74.95011348295446
 30
0.0
 10
-85.44881068089337
 20
-76.57229868948454
 30
0.0
  0
SPLINE
  5
28A
330
1F
100
AcDbEntity
  8
0
  6
Continuous
 62
     7
370
    15
100
AcDbSpline
210
0.0
220
0.0
230
1.0
 70
     8
 71
     3
 72
    14
 73
    10
 74
     0
 42
0.00000001
 43
0.00000001
 12
1.0
 22
0.0
 32
0.0
 13
1.0
 23
0.0
 33
0.0
 40
0.0
 40
0.0
 40
0.0
 40
0.0
 40
0.1249999999999997
 40
0.1249999999999997
 40
0.2499999999999994
 40
0.2499999999999994
 40
0.4999999999999989
 40
0.4999999999999989
 40
1.0
 40
1.0
 40
1.0
 40
1.0
 10
-85.44881068089337
 20
-94.41923455018741
 30
0.0
 10
-85.44881068089343
 20
-94.06927558417786
 30
0.0
 10
-85.4582397863156
 20
-93.71756584392024
 30
0.0
 10
-85.49564176360285
 20
-93.01741874756401
 30
0.0
 10
-85.52357435557339
 20
-92.66855872020197
 30
0.0
 10
-85.63386583835212
 20
-91.6254613121039
 30
0.0
 10
-85.7427798863276
 20
-90.93471468317482
 30
0.0
 10
-86.16284993413558
 20
-88.8747430178507
 30
0.0
 10
-86.56697069834289
 20
-87.51773846718578
 30
0.0
 10
-87.05650583548001
 20
-86.17196188157361
 30
0.0
  0
LINE
  5
28B
330
1F
100
AcDbEntity
  8
0
  6
Continuous
 62
     7
370
    15
100
AcDbLine
 10
-85.4488195024
 20
-76.5723058672
 30
0.0
 11
-85.4488195024
 21
-94.419232914
 31
0.0
  0
LINE
  5
28C
330
1F
100
AcDbEntity
  8
0
  6
Continuous
 62
     7
370
    15
100
AcDbLine
 10
-106.1487973771
 20
-94.419232914
 30
0.0
 11
-106.1487973771
 21
-102.6665040941
 31
0.0
  0
SPLINE
  5
28D
330
1F
100
AcDbEntity
  8
0
  6
Continuous
 62
     7
370
    15
100
AcDbSpline
210
0.0
220
0.0
230
1.0
 70
     8
 71
     3
 72
    10
 73
     6
 74
     0
 42
0.00000001
 43
0.00000001
 12
1.0
 22
0.0
 32
0.0
 13
1.0
 23
0.0
 33
0.0
 40
0.0
 40
0.0
 40
0.0
 40
0.0
 40
0.5
 40
0.5
 40
1.0
 40
1.0
 40
1.0
 40
1.0
 10
-87.0565058354799
 20
-102.6665072188012
 30
0.0
 10
-86.5657450174203
 20
-101.3173611249315
 30
0.0
 10
-86.16143116618807
 20
-99.95836053249855
 30
0.0
 10
-85.60203249257468
 20
-97.21194855201004
 30
0.0
 10
-85.44881068089337
 20
-95.82432479055456
 30
0.0
 10
-85.44881068089337
 20
-94.41923455018741
 30
0.0
  0
LINE
  5
28E
330
1F
100
AcDbEntity
  8
0
  6
Continuous
 62
     7
370
    15
100
AcDbLine
 10
-106.1487973771
 20
-102.6665040941
 30
0.0
 11
-87.0565057836
 21
-102.6665040941
 31
0.0
  0
LINE
  5
28F
330
1F
100
AcDbEntity
  8
0
  6
Continuous
 62
     7
370
    15
100
AcDbLine
 10
-106.1487973771
 20
-86.1719617338
 30
0.0
 11
-106.1487973771
 21
-94.419232914
 31
0.0
  0
SPLINE
  5
290
330
1F
100
AcDbEntity
  8
0
  6
Continuous
 62
     7
370
    15
100
AcDbSpline
210
0.0
220
0.0
230
1.0
 70
     8
 71
     3
 72
    14
 73
    10
 74
     0
 42
0.00000001
 43
0.00000001
 12
1.0
 22
0.0
 32
0.0
 13
1.0
 23
0.0
 33
0.0
 40
0.0
 40
0.0
 40
0.0
 40
0.0
 40
0.1249999999999979
 40
0.1249999999999979
 40
0.2499999999999958
 40
0.2499999999999958
 40
0.4999999999999983
 40
0.4999999999999983
 40
1.0
 40
1.0
 40
1.0
 40
1.0
 10
-85.44881068089337
 20
204.1041903535153
 30
0.0
 10
-85.44881068089349
 20
204.5414202065323
 30
0.0
 10
-85.4582397863156
 20
204.9808374324742
 30
0.0
 10
-85.4956417636029
 20
205.8555834506163
 30
0.0
 10
-85.52357435557333
 20
206.2914403175692
 30
0.0
 10
-85.63386583835212
 20
207.5946597539088
 30
0.0
 10
-85.74277988632743
 20
208.4576610665549
 30
0.0
 10
-86.16284993413564
 20
211.0313373998653
 30
0.0
 10
-86.566970698343
 20
212.7267444557149
 30
0.0
 10
-87.05650583548001
 20
214.4081235769021
 30
0.0
  0
SPLINE
  5
291
330
1F
100
AcDbEntity
  8
0
  6
Continuous
 62
     7
370
    15
100
AcDbSpline
210
0.0
220
0.0
230
1.0
 70
     8
 71
     3
 72
    10
 73
     6
 74
     0
 42
0.00000001
 43
0.00000001
 12
1.0
 22
0.0
 32
0.0
 13
1.0
 23
0.0
 33
0.0
 40
0.0
 40
0.0
 40
0.0
 40
0.0
 40
0.5
 40
0.5
 40
1.0
 40
1.0
 40
1.0
 40
1.0
 10
-87.0565058354799
 20
214.4081235769021
 30
0.0
 10
-86.5657450174203
 20
215.4425117941136
 30
0.0
 10
-86.16143116618807
 20
216.4844554400861
 30
0.0
 10
-85.60203249257468
 20
218.5901252449605
 30
0.0
 10
-85.44881068089337
 20
219.6540142302188
 30
0.0
 10
-85.44881068089337
 20
220.7312947377625
 30
0.0
  0
LINE
  5
292
330
1F
100
AcDbEntity
  8
0
  6
Continuous
 62
     7
370
    15
100
AcDbLine
 10
-85.4488195024
 20
204.1041931419
 30
0.0
 11
-85.4488195024
 21
220.7312962322
 31
0.0
  0
LINE
  5
293
330
1F
100
AcDbEntity
  8
0
  6
Continuous
 62
     7
370
    15
100
AcDbLine
 10
-106.1487973771
 20
204.1041931419
 30
0.0
 11
-106.1487973771
 21
193.8002636938
 31
0.0
  0
LINE
  5
294
330
1F
100
AcDbEntity
  8
0
  6
Continuous
 62
     7
370
    15
100
AcDbLine
 10
-106.1487973771
 20
214.4081225901
 30
0.0
 11
-106.1487973771
 21
204.1041931419
 31
0.0
  0
LINE
  5
295
330
1F
100
AcDbEntity
  8
0
  6
Continuous
 62
     7
370
    15
100
AcDbLine
 10
-106.1487973771
 20
214.4081225901
 30
0.0
 11
-87.0565057836
 21
214.4081225901
 31
0.0
  0
SPLINE
  5
296
330
1F
100
AcDbEntity
  8
0
  6
Continuous
 62
     7
370
    15
100
AcDbSpline
210
0.0
220
0.0
230
1.0
 70
     8
 71
     3
 72
    10
 73
     6
 74
     0
 42
0.00000001
 43
0.00000001
 12
1.0
 22
0.0
 32
0.0
 13
1.0
 23
0.0
 33
0.0
 40
0.0
 40
0.0
 40
0.0
 40
0.0
 40
0.5
 40
0.5
 40
1.0
 40
1.0
 40
1.0
 40
1.0
 10
-87.0565058354799
 20
193.8002571301285
 30
0.0
 10
-86.5657450174203
 20
195.485846029442
 30
0.0
 10
-86.16143116618807
 20
197.1837468892333
 30
0.0
 10
-85.60203249257468
 20
200.6150443360314
 30
0.0
 10
-85.44881068089337
 20
202.3487062569759
 30
0.0
 10
-85.44881068089337
 20
204.1041903535153
 30
0.0
  0
LINE
  5
297
330
1F
100
AcDbEntity
  8
0
  6
Continuous
 62
     7
370
    15
100
AcDbLine
 10
-106.1487973771
 20
193.8002636938
 30
0.0
 11
-87.0565057836
 21
193.8002636938
 31
0.0
  0
LINE
  5
298
330
1F
100
AcDbEntity
  8
0
  6
Continuous
 62
     7
370
    15
100
AcDbLine
 10
-85.4488195024
 20
189.8194929867
 30
0.0
 11
-85.4488195024
 21
204.1041931419
 31
0.0
  0
SPLINE
  5
299
330
1F
100
AcDbEntity
  8
0
  6
Continuous
 62
     7
370
    15
100
AcDbSpline
210
0.0
220
0.0
230
1.0
 70
     8
 71
     3
 72
    12
 73
     8
 74
     0
 42
0.00000001
 43
0.00000001
 12
1.0
 22
0.0
 32
0.0
 13
1.0
 23
0.0
 33
0.0
 40
0.0
 40
0.0
 40
0.0
 40
0.0
 40
0.2500000000000007
 40
0.2500000000000007
 40
0.5000000000000013
 40
0.5000000000000013
 40
1.0
 40
1.0
 40
1.0
 40
1.0
 10
-85.44881068089337
 20
189.8194950676022
 30
0.0
 10
-85.44881068089343
 20
190.1560365611701
 30
0.0
 10
-85.4861477920834
 20
190.4936560397344
 30
0.0
 10
-85.63453247850887
 20
191.1710231415371
 30
0.0
 10
-85.74481325429416
 20
191.5072298097411
 30
0.0
 10
-86.1674452265243
 20
192.5044799759344
 30
0.0
 10
-86.57142256066639
 20
193.1565900976137
 30
0.0
 10
-87.05650583548012
 20
193.8002571301285
 30
0.0
  0
LINE
  5
29A
330
1F
100
AcDbEntity
  8
0
  6
Continuous
 62
     7
370
    15
100
AcDbLine
 10
-106.1487973771
 20
220.7312962322
 30
0.0
 11
-106.1487973771
 21
214.4081225901
 31
0.0
  0
LINE
  5
29B
330
1F
100
AcDbEntity
  8
0
  6
Continuous
 62
     7
370
    15
100
AcDbLine
 10
-106.1487973771
 20
227.0544698744
 30
0.0
 11
-106.1487973771
 21
220.7312962322
 31
0.0
  0
LINE
  5
29C
330
1F
100
AcDbEntity
  8
0
  6
Continuous
 62
     7
370
    15
100
AcDbLine
 10
-106.1487973771
 20
227.0544698744
 30
0.0
 11
-87.0565057836
 21
227.0544698744
 31
0.0
  0
SPLINE
  5
29D
330
1F
100
AcDbEntity
  8
0
  6
Continuous
 62
     7
370
    15
100
AcDbSpline
210
0.0
220
0.0
230
1.0
 70
     8
 71
     3
 72
    14
 73
    10
 74
     0
 42
0.00000001
 43
0.00000001
 12
1.0
 22
0.0
 32
0.0
 13
1.0
 23
0.0
 33
0.0
 40
0.0
 40
0.0
 40
0.0
 40
0.0
 40
0.1250000000000015
 40
0.1250000000000015
 40
0.250000000000003
 40
0.250000000000003
 40
0.5000000000000012
 40
0.5000000000000012
 40
1.0
 40
1.0
 40
1.0
 40
1.0
 10
-85.44881068089337
 20
220.7312947377625
 30
0.0
 10
-85.44881068089343
 20
220.9996077341035
 30
0.0
 10
-85.4582397863156
 20
221.2692630463443
 30
0.0
 10
-85.4956417636029
 20
221.8060647389678
 30
0.0
 10
-85.52357435557333
 20
222.0735351807525
 30
0.0
 10
-85.63386583835212
 20
222.8732763453626
 30
0.0
 10
-85.74277988632748
 20
223.4028707141929
 30
0.0
 10
-86.16284993413564
 20
224.9822477943199
 30
0.0
 10
-86.56697069834289
 20
226.0226610781653
 30
0.0
 10
-87.05650583548001
 20
227.054465898623
 30
0.0
  0
SPLINE
  5
29E
330
1F
100
AcDbEntity
  8
0
  6
Continuous
 62
     7
370
    15
100
AcDbSpline
210
0.0
220
0.0
230
1.0
 70
     8
 71
     3
 72
    14
 73
    10
 74
     0
 42
0.00000001
 43
0.00000001
 12
1.0
 22
0.0
 32
0.0
 13
1.0
 23
0.0
 33
0.0
 40
0.0
 40
0.0
 40
0.0
 40
0.0
 40
0.1250000000000017
 40
0.1250000000000017
 40
0.2500000000000033
 40
0.2500000000000033
 40
0.5
 40
0.5
 40
1.0
 40
1.0
 40
1.0
 40
1.0
 10
173.5511893191066
 20
-67.87872356650293
 30
0.0
 10
173.5511893191066
 20
-68.09921344262881
 30
0.0
 10
173.5606184245287
 20
-68.32080638521253
 30
0.0
 10
173.5980204018161
 20
-68.76193052129548
 30
0.0
 10
173.6259529937865
 20
-68.98172801668584
 30
0.0
 10
173.7362444765653
 20
-69.6389262617293
 30
0.0
 10
173.8451585245408
 20
-70.07412768086577
 30
0.0
 10
174.2652285723488
 20
-71.37200240740604
 30
0.0
 10
174.6693493365561
 20
-72.22697625959795
 30
0.0
 10
175.1588844736932
 20
-73.0748759892095
 30
0.0
  0
SPLINE
  5
29F
330
1F
100
AcDbEntity
  8
0
  6
Continuous
 62
     7
370
    15
100
AcDbSpline
210
0.0
220
0.0
230
1.0
 70
     8
 71
     3
 72
    12
 73
     8
 74
     0
 42
0.00000001
 43
0.00000001
 12
1.0
 22
0.0
 32
0.0
 13
1.0
 23
0.0
 33
0.0
 40
0.0
 40
0.0
 40
0.0
 40
0.0
 40
0.249999999999998
 40
0.249999999999998
 40
0.499999999999996
 40
0.499999999999996
 40
1.0
 40
1.0
 40
1.0
 40
1.0
 10
175.1588844736933
 20
-73.07487598920947
 30
0.0
 10
174.9149216261401
 20
-73.91998808345201
 30
0.0
 10
174.6909471313222
 20
-74.77286243717559
 30
0.0
 10
174.2935224268335
 20
-76.49823170148362
 30
0.0
 10
174.1218234818347
 20
-77.36374129109683
 30
0.0
 10
173.7021388989741
 20
-79.96630118519646
 30
0.0
 10
173.5511893191066
 20
-81.7110522242073
 30
0.0
 10
173.5511893191066
 20
-83.46718083462277
 30
0.0
  0
LINE
  5
2A0
330
1F
100
AcDbEntity
  8
0
  6
Continuous
 62
     7
370
    15
100
AcDbLine
 10
173.5511875608
 20
-67.8787300081
 30
0.0
 11
173.5511875608
 21
-83.4671774597
 31
0.0
  0
LINE
  5
2A1
330
1F
100
AcDbEntity
  8
0
  6
Continuous
 62
     7
370
    15
100
AcDbLine
 10
194.2511896499
 20
-83.4671774597
 30
0.0
 11
194.2511896499
 21
-73.0748692246
 31
0.0
  0
LINE
  5
2A2
330
1F
100
AcDbEntity
  8
0
  6
Continuous
 62
     7
370
    15
100
AcDbLine
 10
194.2511896499
 20
-93.8594856949
 30
0.0
 11
194.2511896499
 21
-83.4671774597
 31
0.0
  0
LINE
  5
2A3
330
1F
100
AcDbEntity
  8
0
  6
Continuous
 62
     7
370
    15
100
AcDbLine
 10
194.2511896499
 20
-93.8594856949
 30
0.0
 11
175.1588850178
 21
-93.8594856949
 31
0.0
  0
SPLINE
  5
2A4
330
1F
100
AcDbEntity
  8
0
  6
Continuous
 62
     7
370
    15
100
AcDbSpline
210
0.0
220
0.0
230
1.0
 70
     8
 71
     3
 72
    12
 73
     8
 74
     0
 42
0.00000001
 43
0.00000001
 12
1.0
 22
0.0
 32
0.0
 13
1.0
 23
0.0
 33
0.0
 40
0.0
 40
0.0
 40
0.0
 40
0.0
 40
0.2500000000000021
 40
0.2500000000000021
 40
0.5000000000000041
 40
0.5000000000000041
 40
1.0
 40
1.0
 40
1.0
 40
1.0
 10
173.5511893191066
 20
-83.46718083462277
 30
0.0
 10
173.5511893191066
 20
-84.3457668288001
 30
0.0
 10
173.5885264302966
 20
-85.22716704511024
 30
0.0
 10
173.7369111167221
 20
-86.99552328032823
 30
0.0
 10
173.8471918925073
 20
-87.87323516869428
 30
0.0
 10
174.2698238647374
 20
-90.4766883697235
 30
0.0
 10
174.6738011988796
 20
-92.17910792427753
 30
0.0
 10
175.1588844736933
 20
-93.85948568003602
 30
0.0
  0
LINE
  5
2A5
330
1F
100
AcDbEntity
  8
0
  6
Continuous
 62
     7
370
    15
100
AcDbLine
 10
194.2511896499
 20
-73.0748692246
 30
0.0
 11
175.1588850178
 21
-73.0748692246
 31
0.0
  0
SPLINE
  5
2A6
330
1F
100
AcDbEntity
  8
0
  6
Continuous
 62
     7
370
    15
100
AcDbSpline
210
0.0
220
0.0
230
1.0
 70
     8
 71
     3
 72
    10
 73
     6
 74
     0
 42
0.00000001
 43
0.00000001
 12
1.0
 22
0.0
 32
0.0
 13
1.0
 23
0.0
 33
0.0
 40
0.0
 40
0.0
 40
0.0
 40
0.0
 40
0.5
 40
0.5
 40
1.0
 40
1.0
 40
1.0
 40
1.0
 10
175.1588844736931
 20
-93.85948568003602
 30
0.0
 10
174.6681236556336
 20
-94.70950835127931
 30
0.0
 10
174.2638098044013
 20
-95.56573979948935
 30
0.0
 10
173.7044111307879
 20
-97.29610277396397
 30
0.0
 10
173.5511893191066
 20
-98.17036810501484
 30
0.0
 10
173.5511893191066
 20
-99.05563810274276
 30
0.0
  0
LINE
  5
2A7
330
1F
100
AcDbEntity
  8
0
  6
Continuous
 62
     7
370
    15
100
AcDbLine
 10
173.5511875608
 20
-83.4671774597
 30
0.0
 11
173.5511875608
 21
-99.0556398125
 31
0.0
  0
LINE
  5
2A8
330
1F
100
AcDbEntity
  8
0
  6
Continuous
 62
     7
370
    15
100
AcDbLine
 10
194.2511896499
 20
-104.2517939301
 30
0.0
 11
194.2511896499
 21
-99.0556398125
 31
0.0
  0
LINE
  5
2A9
330
1F
100
AcDbEntity
  8
0
  6
Continuous
 62
     7
370
    15
100
AcDbLine
 10
194.2511896499
 20
-104.2517939301
 30
0.0
 11
175.1588850178
 21
-104.2517939301
 31
0.0
  0
SPLINE
  5
2AA
330
1F
100
AcDbEntity
  8
0
  6
Continuous
 62
     7
370
    15
100
AcDbSpline
210
0.0
220
0.0
230
1.0
 70
     8
 71
     3
 72
    14
 73
    10
 74
     0
 42
0.00000001
 43
0.00000001
 12
1.0
 22
0.0
 32
0.0
 13
1.0
 23
0.0
 33
0.0
 40
0.0
 40
0.0
 40
0.0
 40
0.0
 40
0.1250000000000013
 40
0.1250000000000013
 40
0.2500000000000026
 40
0.2500000000000026
 40
0.5000000000000054
 40
0.5000000000000054
 40
1.0
 40
1.0
 40
1.0
 40
1.0
 10
173.5511893191066
 20
-99.05563810274276
 30
0.0
 10
173.5511893191066
 20
-99.27612797886862
 30
0.0
 10
173.5606184245287
 20
-99.49772092145245
 30
0.0
 10
173.5980204018161
 20
-99.9388450575353
 30
0.0
 10
173.6259529937865
 20
-100.1586425529257
 30
0.0
 10
173.7362444765653
 20
-100.8158407979692
 30
0.0
 10
173.8451585245408
 20
-101.2510422171056
 30
0.0
 10
174.2652285723488
 20
-102.548916943646
 30
0.0
 10
174.6693493365561
 20
-103.4038907958379
 30
0.0
 10
175.1588844736932
 20
-104.2517905254495
 30
0.0
  0
LINE
  5
2AB
330
1F
100
AcDbEntity
  8
0
  6
Continuous
 62
     7
370
    15
100
AcDbLine
 10
194.2511896499
 20
-99.0556398125
 30
0.0
 11
194.2511896499
 21
-93.8594856949
 31
0.0
  0
LINE
  5
2AC
330
1F
100
AcDbEntity
  8
0
  6
Continuous
 62
     7
370
    15
100
AcDbLine
 10
194.2511896499
 20
-67.8787300081
 30
0.0
 11
194.2511896499
 21
-62.68256844
 31
0.0
  0
SPLINE
  5
2AD
330
1F
100
AcDbEntity
  8
0
  6
Continuous
 62
     7
370
    15
100
AcDbSpline
210
0.0
220
0.0
230
1.0
 70
     8
 71
     3
 72
    10
 73
     6
 74
     0
 42
0.00000001
 43
0.00000001
 12
1.0
 22
0.0
 32
0.0
 13
1.0
 23
0.0
 33
0.0
 40
0.0
 40
0.0
 40
0.0
 40
0.0
 40
0.5
 40
0.5
 40
1.0
 40
1.0
 40
1.0
 40
1.0
 10
175.1588844736931
 20
-62.68257114379638
 30
0.0
 10
174.6681236556336
 20
-63.53259381503959
 30
0.0
 10
174.2638098044013
 20
-64.38882526324969
 30
0.0
 10
173.7044111307879
 20
-66.11918823772417
 30
0.0
 10
173.5511893191066
 20
-66.99345356877504
 30
0.0
 10
173.5511893191066
 20
-67.87872356650293
 30
0.0
  0
LINE
  5
2AE
330
1F
100
AcDbEntity
  8
0
  6
Continuous
 62
     7
370
    15
100
AcDbLine
 10
194.2511896499
 20
-62.68256844
 30
0.0
 11
175.1588850178
 21
-62.68256844
 31
0.0
  0
LINE
  5
2AF
330
1F
100
AcDbEntity
  8
0
  6
Continuous
 62
     7
370
    15
100
AcDbLine
 10
194.2511896499
 20
-73.0748692246
 30
0.0
 11
194.2511896499
 21
-67.8787300081
 31
0.0
  0
SPLINE
  5
2B0
330
1F
100
AcDbEntity
  8
0
  6
Continuous
 62
     7
370
    15
100
AcDbSpline
210
0.0
220
0.0
230
1.0
 70
     8
 71
     3
 72
    10
 73
     6
 74
     0
 42
0.00000001
 43
0.00000001
 12
1.0
 22
0.0
 32
0.0
 13
1.0
 23
0.0
 33
0.0
 40
0.0
 40
0.0
 40
0.0
 40
0.0
 40
0.5
 40
0.5
 40
1.0
 40
1.0
 40
1.0
 40
1.0
 10
-87.0565058354799
 20
-66.97263549739543
 30
0.0
 10
-86.56574501742035
 20
-66.75140207084984
 30
0.0
 10
-86.16143116618811
 20
-66.52855270034244
 30
0.0
 10
-85.60203249257468
 20
-66.07819514758353
 30
0.0
 10
-85.44881068089337
 20
-65.85065214027117
 30
0.0
 10
-85.44881068089337
 20
-65.62024497392008
 30
0.0
  0
LINE
  5
2B1
330
1F
100
AcDbEntity
  8
0
  6
Continuous
 62
     7
370
    15
100
AcDbLine
 10
-85.4488195024
 20
-76.5723058672
 30
0.0
 11
-85.4488195024
 21
-65.620250413
 31
0.0
  0
LINE
  5
2B2
330
1F
100
AcDbEntity
  8
0
  6
Continuous
 62
     7
370
    15
100
AcDbLine
 10
-106.1487973771
 20
189.8194929867
 30
0.0
 11
-106.1487973771
 21
185.8387297301
 31
0.0
  0
SPLINE
  5
2B3
330
1F
100
AcDbEntity
  8
0
  6
Continuous
 62
     7
370
    15
100
AcDbSpline
210
0.0
220
0.0
230
1.0
 70
     8
 71
     3
 72
    12
 73
     8
 74
     0
 42
0.00000001
 43
0.00000001
 12
1.0
 22
0.0
 32
0.0
 13
1.0
 23
0.0
 33
0.0
 40
0.0
 40
0.0
 40
0.0
 40
0.0
 40
0.2499999999999986
 40
0.2499999999999986
 40
0.4999999999999972
 40
0.4999999999999972
 40
1.0
 40
1.0
 40
1.0
 40
1.0
 10
-87.05650583548012
 20
185.8387330050759
 30
0.0
 10
-86.812542987927
 20
186.1624523544777
 30
0.0
 10
-86.58856849310902
 20
186.4891450296741
 30
0.0
 10
-86.19114378862018
 20
187.1500460149101
 30
0.0
 10
-86.01944484362144
 20
187.4815786046806
 30
0.0
 10
-85.59976026076092
 20
188.4784865905407
 30
0.0
 10
-85.44881068089326
 20
189.146811745351
 30
0.0
 10
-85.44881068089337
 20
189.8194950676022
 30
0.0
  0
LINE
  5
2B4
330
1F
100
AcDbEntity
  8
0
  6
Continuous
 62
     7
370
    15
100
AcDbLine
 10
-106.1487973771
 20
185.8387297301
 30
0.0
 11
-87.0565057836
 21
185.8387297301
 31
0.0
  0
LINE
  5
2B5
330
1F
100
AcDbEntity
  8
0
  6
Continuous
 62
     7
370
    15
100
AcDbLine
 10
-106.1487973771
 20
193.8002636938
 30
0.0
 11
-106.1487973771
 21
189.8194929867
 31
0.0
  0
SPLINE
  5
2B6
330
1F
100
AcDbEntity
  8
0
  6
Continuous
 62
     7
370
    15
100
AcDbSpline
210
0.0
220
0.0
230
1.0
 70
    24
 71
     3
 72
    12
 73
     8
 74
     0
 42
0.00000001
 43
0.00000001
 12
1.0
 22
0.0
 32
0.0
 13
1.0
 23
0.0
 33
0.0
 40
0.0
 40
0.0
 40
0.0
 40
0.0
 40
0.2499999999999981
 40
0.2499999999999981
 40
0.4999999999999961
 40
0.4999999999999961
 40
1.0
 40
1.0
 40
1.0
 40
1.0
 10
173.5511893191066
 20
224.4465994518494
 30
0.0
 10
173.5511893191066
 20
224.4465994518494
 30
0.0
 10
173.5885264302966
 20
224.4465994518494
 30
0.0
 10
173.7369111167221
 20
224.4465994518494
 30
0.0
 10
173.8471918925073
 20
224.4465994518494
 30
0.0
 10
174.2698238647374
 20
224.4465994518494
 30
0.0
 10
174.6738011988796
 20
224.4465994518494
 30
0.0
 10
175.1588844736933
 20
224.4465994518494
 30
0.0
  0
LINE
  5
2B7
330
1F
100
AcDbEntity
  8
0
  6
Continuous
 62
     7
370
    15
100
AcDbLine
 10
173.5511875608
 20
224.4466027527
 30
0.0
 11
173.5511875608
 21
215.4465994148
 31
0.0
  0
SPLINE
  5
2B8
330
1F
100
AcDbEntity
  8
0
  6
Continuous
 62
     7
370
    15
100
AcDbSpline
210
0.0
220
0.0
230
1.0
 70
    24
 71
     3
 72
    12
 73
     8
 74
     0
 42
0.00000001
 43
0.00000001
 12
1.0
 22
0.0
 32
0.0
 13
1.0
 23
0.0
 33
0.0
 40
0.0
 40
0.0
 40
0.0
 40
0.0
 40
0.2500000000000021
 40
0.2500000000000021
 40
0.5000000000000041
 40
0.5000000000000041
 40
1.0
 40
1.0
 40
1.0
 40
1.0
 10
173.5511893191066
 20
188.4465994518494
 30
0.0
 10
173.5511893191066
 20
188.4465994518494
 30
0.0
 10
173.5885264302966
 20
188.4465994518494
 30
0.0
 10
173.7369111167221
 20
188.4465994518494
 30
0.0
 10
173.8471918925073
 20
188.4465994518494
 30
0.0
 10
174.2698238647374
 20
188.4465994518494
 30
0.0
 10
174.6738011988796
 20
188.4465994518494
 30
0.0
 10
175.1588844736933
 20
188.4465994518494
 30
0.0
  0
LINE
  5
2B9
330
1F
100
AcDbEntity
  8
0
  6
Continuous
 62
     7
370
    15
100
AcDbLine
 10
173.5511875608
 20
188.4466043024
 30
0.0
 11
173.5511875608
 21
197.4465927391
 31
0.0
  0
SPLINE
  5
2BA
330
1F
100
AcDbEntity
  8
0
  6
Continuous
 62
     7
370
    15
100
AcDbSpline
210
0.0
220
0.0
230
1.0
 70
     8
 71
     3
 72
    11
 73
     7
 74
     0
 42
0.00000001
 43
0.00000001
 12
1.0
 22
0.0
 32
0.0
 13
1.0
 23
0.0
 33
0.0
 40
0.0
 40
0.0
 40
0.0
 40
0.0
 40
0.1974039509074118
 40
0.3953495665940949
 40
0.6976464417465948
 40
1.0
 40
1.0
 40
1.0
 40
1.0
 10
-85.53849469044543
 20
-101.6215601654203
 30
0.0
 10
-85.58659027607078
 20
-101.6913896405885
 30
0.0
 10
-85.68291341876726
 20
-101.8312401988797
 30
0.0
 10
-85.96796345289552
 20
-102.076281519254
 30
0.0
 10
-86.40096539969426
 20
-102.3558740945043
 30
0.0
 10
-86.8379786663168
 20
-102.5629542899997
 30
0.0
 10
-87.05650578358508
 20
-102.6665040941388
 30
0.0
  0
LINE
  5
2BB
330
1F
100
AcDbEntity
  8
0
  6
Continuous
 62
     7
370
    15
100
AcDbLine
 10
-85.4488195024
 20
-101.4671841355
 30
0.0
 11
-85.4488195024
 21
-94.419232914
 31
0.0
  0
LINE
  5
2BC
330
1F
100
AcDbEntity
  8
0
  6
Continuous
 62
     7
370
    15
100
AcDbLine
 10
-106.1487973771
 20
-64.2678508253
 30
0.0
 11
-106.1487973771
 21
-65.620250413
 31
0.0
  0
LINE
  5
2BD
330
1F
100
AcDbEntity
  8
0
  6
Continuous
 62
     7
370
    15
100
AcDbLine
 10
-106.1487973771
 20
-64.2678508253
 30
0.0
 11
-87.0565057836
 21
-64.2678508253
 31
0.0
  0
SPLINE
  5
2BE
330
1F
100
AcDbEntity
  8
0
  6
Continuous
 62
     7
370
    15
100
AcDbSpline
210
0.0
220
0.0
230
1.0
 70
     8
 71
     3
 72
    14
 73
    10
 74
     0
 42
0.00000001
 43
0.00000001
 12
1.0
 22
0.0
 32
0.0
 13
1.0
 23
0.0
 33
0.0
 40
0.0
 40
0.0
 40
0.0
 40
0.0
 40
0.1250000000000024
 40
0.1250000000000024
 40
0.2500000000000048
 40
0.2500000000000048
 40
0.5000000000000018
 40
0.5000000000000018
 40
1.0
 40
1.0
 40
1.0
 40
1.0
 10
-85.44881068089337
 20
-65.62024497392008
 30
0.0
 10
-85.44881068089349
 20
-65.56285858592814
 30
0.0
 10
-85.45823978631566
 20
-65.50518510539088
 30
0.0
 10
-85.4956417636029
 20
-65.3903747509625
 30
0.0
 10
-85.52357435557333
 20
-65.3331685672966
 30
0.0
 10
-85.63386583835218
 20
-65.1621211063412
 30
0.0
 10
-85.7427798863276
 20
-65.04885224369758
 30
0.0
 10
-86.16284993413568
 20
-64.71105740281466
 30
0.0
 10
-86.566970698343
 20
-64.48853534390226
 30
0.0
 10
-87.05650583548001
 20
-64.26785445044474
 30
0.0
  0
LINE
  5
2BF
330
1F
100
AcDbEntity
  8
0
  6
Continuous
 62
     7
370
    15
100
AcDbLine
 10
-106.1487973771
 20
-65.620250413
 30
0.0
 11
-106.1487973771
 21
-66.9726350994
 31
0.0
  0
LINE
  5
2C0
330
1F
100
AcDbEntity
  8
0
  6
Continuous
 62
     7
370
    15
100
AcDbLine
 10
331.5511911072
 20
-95.4671868773
 30
0.0
 11
331.5511911072
 21
-71.4671829434
 31
0.0
  0
LINE
  5
2C1
330
1F
100
AcDbEntity
  8
0
  6
Continuous
 62
     7
370
    15
100
AcDbLine
 10
-243.448811873
 20
-95.4671868773
 30
0.0
 11
-243.448811873
 21
-71.4671829434
 31
0.0
  0
LINE
  5
2C2
330
1F
100
AcDbEntity
  8
0
  6
Continuous
 62
     7
370
    15
100
AcDbLine
 10
-243.448811873
 20
194.4466015606
 30
0.0
 11
-243.448811873
 21
218.4466054945
 31
0.0
  0
LINE
  5
2C3
330
1F
100
AcDbEntity
  8
0
  6
Continuous
 62
     7
370
    15
100
AcDbLine
 10
331.5511911072
 20
194.4466015606
 30
0.0
 11
331.5511911072
 21
218.4466054945
 31
0.0
  0
SPLINE
  5
2C4
330
1F
100
AcDbEntity
  8
0
  6
Continuous
 62
     7
370
    15
100
AcDbSpline
210
0.0
220
0.0
230
1.0
 70
     8
 71
     3
 72
     9
 73
     5
 74
     0
 42
0.00000001
 43
0.00000001
 12
1.0
 22
0.0
 32
0.0
 13
1.0
 23
0.0
 33
0.0
 40
0.0
 40
0.0
 40
0.0
 40
0.0
 40
0.3579421231105764
 40
1.0
 40
1.0
 40
1.0
 40
1.0
 10
-86.31800423481799
 20
225.9328445701449
 30
0.0
 10
-86.3940395624167
 20
226.06780930384
 30
0.0
 10
-86.60646308758866
 20
226.4448667245262
 30
0.0
 10
-86.88053545880679
 20
226.8161101249084
 30
0.0
 10
-87.05650578358508
 20
227.054469874367
 30
0.0
  0
LINE
  5
2C5
330
1F
100
AcDbEntity
  8
0
  6
Continuous
 62
     7
370
    15
100
AcDbLine
 10
-85.4488195024
 20
224.4466027527
 30
0.0
 11
-85.4488195024
 21
220.7312962322
 31
0.0
  0
LINE
  5
2C6
330
1F
100
AcDbEntity
  8
0
  6
Continuous
 62
     7
370
    15
100
AcDbLine
 10
173.5511875608
 20
-99.0556398125
 30
0.0
 11
173.5511875608
 21
-101.4671841355
 31
0.0
  0
LINE
  5
2C7
330
1F
100
AcDbEntity
  8
0
  6
Continuous
 62
     7
370
    15
100
AcDbLine
 10
173.5511875608
 20
-65.4671856852
 30
0.0
 11
173.5511875608
 21
-67.8787300081
 31
0.0
  0
LINE
  5
2C8
330
1F
100
AcDbEntity
  8
0
  6
Continuous
 62
     7
370
    15
100
AcDbLine
 10
-85.4488195024
 20
188.4466043024
 30
0.0
 11
-85.4488195024
 21
189.8194929867
 31
0.0
  0
LINE
  5
2C9
330
1F
100
AcDbEntity
  8
0
  6
Continuous
 62
     7
370
    15
100
AcDbLine
 10
-85.4488195024
 20
-65.620250413
 30
0.0
 11
-85.4488195024
 21
-65.4671856852
 31
0.0
  0
LINE
  5
2CA
330
1F
100
AcDbEntity
  8
0
  6
Continuous
 62
     7
370
    15
100
AcDbLine
 10
64.0511928954
 20
-95.4671868773
 30
0.0
 11
64.0511928954
 21
-149.5102861614
 31
0.0
  0
LINE
  5
2CB
330
1F
100
AcDbEntity
  8
0
  6
Continuous
 62
     7
370
    15
100
AcDbLine
 10
64.0511928954
 20
272.4897047787
 30
0.0
 11
64.0511928954
 21
218.4466054945
 31
0.0
  0
LINE
  5
2CC
330
1F
100
AcDbEntity
  8
0
  6
Continuous
 62
     7
370
    15
100
AcDbLine
 10
66.5511905112
 20
253.7564864664
 30
0.0
 11
66.5511905112
 21
270.4897156267
 31
0.0
  0
LINE
  5
2CD
330
1F
100
AcDbEntity
  8
0
  6
Continuous
 62
     7
370
    15
100
AcDbLine
 10
66.5511905112
 20
246.4897116928
 30
0.0
 11
66.5511905112
 21
253.7564864664
 31
0.0
  0
LINE
  5
2CE
330
1F
100
AcDbEntity
  8
0
  6
Continuous
 62
     7
370
    15
100
AcDbLine
 10
66.5511905112
 20
-147.5102970095
 30
0.0
 11
66.5511905112
 21
-123.5102930756
 31
0.0
  0
SPLINE
  5
2CF
330
1F
100
AcDbEntity
  8
0
  6
Continuous
 62
     7
370
    15
100
AcDbSpline
210
0.0
220
0.0
230
1.0
 70
    24
 71
     3
 72
    11
 73
     7
 74
     0
 42
0.00000001
 43
0.00000001
 12
1.0
 22
0.0
 32
0.0
 13
1.0
 23
0.0
 33
0.0
 40
0.0
 40
0.0
 40
0.0
 40
0.0
 40
0.266353310350432
 40
0.5156179436720095
 40
0.7648204753016246
 40
1.0
 40
1.0
 40
1.0
 40
1.0
 10
67.7880464949336
 20
267.4897095470278
 30
0.0
 10
67.66464456275915
 20
267.4897095470279
 30
0.0
 10
67.42575791093113
 20
267.4897095470279
 30
0.0
 10
67.1749612051467
 20
267.4897095470278
 30
0.0
 10
67.01198999377965
 20
267.4897095470278
 30
0.0
 10
66.99645482953899
 20
267.4897095470278
 30
0.0
 10
66.98891212126874
 20
267.4897095470278
 30
0.0
  0
SPLINE
  5
2D0
330
1F
100
AcDbEntity
  8
0
  6
Continuous
 62
     7
370
    15
100
AcDbSpline
210
0.0
220
0.0
230
1.0
 70
     8
 71
     3
 72
    16
 73
    12
 74
     0
 42
0.00000001
 43
0.00000001
 12
1.0
 22
0.0
 32
0.0
 13
1.0
 23
0.0
 33
0.0
 40
0.0
 40
0.0
 40
0.0
 40
0.0
 40
0.2500000000000017
 40
0.2500000000000017
 40
0.5000000000000033
 40
0.5000000000000033
 40
0.6250000000000042
 40
0.6250000000000042
 40
0.750000000000005
 40
0.750000000000005
 40
1.0
 40
1.0
 40
1.0
 40
1.0
 10
67.7880495982918
 20
258.4897093086091
 30
0.0
 10
67.54312808370936
 20
259.2244738523563
 30
0.0
 10
67.3412683636729
 20
259.9645954537725
 30
0.0
 10
67.06162709207585
 20
261.4602744718327
 30
0.0
 10
66.98476795734751
 20
262.2159466407815
 30
0.0
 10
66.98392379617827
 20
263.3636922480375
 30
0.0
 10
67.00271288284841
 20
263.7480742594851
 30
0.0
 10
67.07598037492922
 20
264.5084224266578
 30
0.0
 10
67.13038442659257
 20
264.8860473453299
 30
0.0
 10
67.34046348494468
 20
266.0121990056253
 30
0.0
 10
67.54282277811193
 20
266.7540288480692
 30
0.0
 10
67.78804959829195
 20
267.4897093086092
 30
0.0
  0
SPLINE
  5
2D1
330
1F
100
AcDbEntity
  8
0
  6
Continuous
 62
     7
370
    15
100
AcDbSpline
210
0.0
220
0.0
230
1.0
 70
     8
 71
     3
 72
    16
 73
    12
 74
     0
 42
0.00000001
 43
0.00000001
 12
1.0
 22
0.0
 32
0.0
 13
1.0
 23
0.0
 33
0.0
 40
0.0
 40
0.0
 40
0.0
 40
0.0
 40
0.2500000000000001
 40
0.2500000000000001
 40
0.5000000000000001
 40
0.5000000000000001
 40
0.625
 40
0.625
 40
0.7499999999999999
 40
0.7499999999999999
 40
1.0
 40
1.0
 40
1.0
 40
1.0
 10
67.7880495982918
 20
249.4897093086092
 30
0.0
 10
67.54312808370933
 20
250.2244738523564
 30
0.0
 10
67.3412683636729
 20
250.9645954537725
 30
0.0
 10
67.06162709207585
 20
252.4602744718328
 30
0.0
 10
66.98476795734747
 20
253.2159466407815
 30
0.0
 10
66.9839237961783
 20
254.3636922480375
 30
0.0
 10
67.00271288284833
 20
254.748074259485
 30
0.0
 10
67.07598037492916
 20
255.5084224266579
 30
0.0
 10
67.13038442659254
 20
255.8860473453299
 30
0.0
 10
67.34046348494459
 20
257.0121990056252
 30
0.0
 10
67.54282277811193
 20
257.7540288480693
 30
0.0
 10
67.78804959829195
 20
258.4897093086092
 30
0.0
  0
SPLINE
  5
2D2
330
1F
100
AcDbEntity
  8
0
  6
Continuous
 62
     7
370
    15
100
AcDbSpline
210
0.0
220
0.0
230
1.0
 70
    24
 71
     3
 72
    11
 73
     7
 74
     0
 42
0.00000001
 43
0.00000001
 12
1.0
 22
0.0
 32
0.0
 13
1.0
 23
0.0
 33
0.0
 40
0.0
 40
0.0
 40
0.0
 40
0.0
 40
0.2223399750110243
 40
0.4779585454334789
 40
0.7336453402695244
 40
0.9999999999999999
 40
0.9999999999999999
 40
0.9999999999999999
 40
0.9999999999999999
 10
66.98988069674634
 20
249.4897028713077
 30
0.0
 10
66.99605758572629
 20
249.4897028713077
 30
0.0
 10
67.00933588564519
 20
249.4897028713077
 30
0.0
 10
67.1690709714291
 20
249.4897028713076
 30
0.0
 10
67.42278770428959
 20
249.4897028713077
 30
0.0
 10
67.66464611391791
 20
249.4897028713077
 30
0.0
 10
67.7880464949336
 20
249.4897028713077
 30
0.0
  0
SPLINE
  5
2D3
330
1F
100
AcDbEntity
  8
0
  6
Continuous
 62
     7
370
    15
100
AcDbSpline
210
0.0
220
0.0
230
1.0
 70
    24
 71
     3
 72
    11
 73
     7
 74
     0
 42
0.00000001
 43
0.00000001
 12
1.0
 22
0.0
 32
0.0
 13
1.0
 23
0.0
 33
0.0
 40
0.0
 40
0.0
 40
0.0
 40
0.0
 40
0.266353310350432
 40
0.5156179436720095
 40
0.7648204753016246
 40
1.0
 40
1.0
 40
1.0
 40
1.0
 10
75.71433176180982
 20
249.4897028713077
 30
0.0
 10
75.83773369398426
 20
249.4897028713076
 30
0.0
 10
76.07662034581229
 20
249.4897028713077
 30
0.0
 10
76.3274170515967
 20
249.4897028713077
 30
0.0
 10
76.49038826296385
 20
249.4897028713076
 30
0.0
 10
76.50592342720445
 20
249.4897028713076
 30
0.0
 10
76.51346613547467
 20
249.4897028713077
 30
0.0
  0
SPLINE
  5
2D4
330
1F
100
AcDbEntity
  8
0
  6
Continuous
 62
     7
370
    15
100
AcDbSpline
210
0.0
220
0.0
230
1.0
 70
     8
 71
     3
 72
    16
 73
    12
 74
     0
 42
0.00000001
 43
0.00000001
 12
1.0
 22
0.0
 32
0.0
 13
1.0
 23
0.0
 33
0.0
 40
0.0
 40
0.0
 40
0.0
 40
0.0
 40
0.2499999999999983
 40
0.2499999999999983
 40
0.4999999999999967
 40
0.4999999999999967
 40
0.6249999999999958
 40
0.6249999999999958
 40
0.749999999999995
 40
0.749999999999995
 40
1.0
 40
1.0
 40
1.0
 40
1.0
 10
75.71432903992147
 20
258.4897093086092
 30
0.0
 10
75.95925055450391
 20
257.754944764862
 30
0.0
 10
76.16111027454035
 20
257.0148231634458
 30
0.0
 10
76.4407515461374
 20
255.5191441453856
 30
0.0
 10
76.51761068086576
 20
254.7634719764369
 30
0.0
 10
76.51845484203494
 20
253.6157263691809
 30
0.0
 10
76.49966575536492
 20
253.2313443577334
 30
0.0
 10
76.42639826328394
 20
252.4709961905606
 30
0.0
 10
76.37199421162065
 20
252.0933712718885
 30
0.0
 10
76.16191515326855
 20
250.9672196115932
 30
0.0
 10
75.95955586010126
 20
250.2253897691492
 30
0.0
 10
75.71432903992127
 20
249.4897093086092
 30
0.0
  0
SPLINE
  5
2D5
330
1F
100
AcDbEntity
  8
0
  6
Continuous
 62
     7
370
    15
100
AcDbSpline
210
0.0
220
0.0
230
1.0
 70
     8
 71
     3
 72
    16
 73
    12
 74
     0
 42
0.00000001
 43
0.00000001
 12
1.0
 22
0.0
 32
0.0
 13
1.0
 23
0.0
 33
0.0
 40
0.0
 40
0.0
 40
0.0
 40
0.0
 40
0.25
 40
0.25
 40
0.5
 40
0.5
 40
0.625
 40
0.625
 40
0.75
 40
0.75
 40
1.0
 40
1.0
 40
1.0
 40
1.0
 10
75.71432903992141
 20
267.4897093086093
 30
0.0
 10
75.95925055450385
 20
266.754944764862
 30
0.0
 10
76.16111027454029
 20
266.014823163446
 30
0.0
 10
76.44075154613743
 20
264.5191441453856
 30
0.0
 10
76.51761068086573
 20
263.7634719764368
 30
0.0
 10
76.51845484203488
 20
262.6157263691809
 30
0.0
 10
76.4996657553648
 20
262.2313443577333
 30
0.0
 10
76.42639826328397
 20
261.4709961905605
 30
0.0
 10
76.37199421162067
 20
261.0933712718884
 30
0.0
 10
76.16191515326858
 20
259.9672196115931
 30
0.0
 10
75.9595558601012
 20
259.2253897691491
 30
0.0
 10
75.71432903992121
 20
258.4897093086091
 30
0.0
  0
SPLINE
  5
2D6
330
1F
100
AcDbEntity
  8
0
  6
Continuous
 62
     7
370
    15
100
AcDbSpline
210
0.0
220
0.0
230
1.0
 70
    24
 71
     3
 72
    11
 73
     7
 74
     0
 42
0.00000001
 43
0.00000001
 12
1.0
 22
0.0
 32
0.0
 13
1.0
 23
0.0
 33
0.0
 40
0.0
 40
0.0
 40
0.0
 40
0.0
 40
0.2223399750110243
 40
0.4779585454334789
 40
0.7336453402695244
 40
0.9999999999999999
 40
0.9999999999999999
 40
0.9999999999999999
 40
0.9999999999999999
 10
76.51249755999707
 20
267.4897095470278
 30
0.0
 10
76.50632067101714
 20
267.4897095470278
 30
0.0
 10
76.49304237109826
 20
267.4897095470278
 30
0.0
 10
76.33330728531436
 20
267.4897095470278
 30
0.0
 10
76.07959055245371
 20
267.4897095470279
 30
0.0
 10
75.83773214282547
 20
267.4897095470279
 30
0.0
 10
75.71433176180982
 20
267.4897095470278
 30
0.0
  0
LINE
  5
2D7
330
1F
100
AcDbEntity
  8
0
  6
Continuous
 62
     7
370
    15
100
AcDbLine
 10
76.9511877455
 20
250.2397081165
 30
0.0
 11
76.9511877455
 21
266.7397043018
 31
0.0
  0
LINE
  5
2D8
330
1F
100
AcDbEntity
  8
0
  6
Continuous
 62
     7
370
    15
100
AcDbLine
 10
67.7880464949
 20
267.489709547
 30
0.0
 11
75.7143317618
 21
267.489709547
 31
0.0
  0
LINE
  5
2D9
330
1F
100
AcDbEntity
  8
0
  6
Continuous
 62
     7
370
    15
100
AcDbLine
 10
67.7880464949
 20
258.4897062092
 30
0.0
 11
75.7143317618
 21
258.4897062092
 31
0.0
  0
LINE
  5
2DA
330
1F
100
AcDbEntity
  8
0
  6
Continuous
 62
     7
370
    15
100
AcDbLine
 10
67.7880464949
 20
249.4897028713
 30
0.0
 11
75.7143317618
 21
249.4897028713
 31
0.0
  0
SPLINE
  5
2DB
330
1F
100
AcDbEntity
  8
0
  6
Continuous
 62
     7
370
    15
100
AcDbSpline
210
0.0
220
0.0
230
1.0
 70
    24
 71
     3
 72
    13
 73
     9
 74
     0
 42
0.00000001
 43
0.00000001
 12
1.0
 22
0.0
 32
0.0
 13
1.0
 23
0.0
 33
0.0
 40
0.0
 40
0.0
 40
0.0
 40
0.0
 40
0.0202203453923045
 40
0.2756290078969209
 40
0.4558420565570513
 40
0.636071964371352
 40
0.8180284317166704
 40
1.0
 40
1.0
 40
1.0
 40
1.0
 10
66.98891212126874
 20
-144.5102909298093
 30
0.0
 10
66.98753900871783
 20
-144.5102909298093
 30
0.0
 10
66.96882173941356
 20
-144.5102909298092
 30
0.0
 10
67.0314825650813
 20
-144.5102909298093
 30
0.0
 10
67.15569465272048
 20
-144.5102909298093
 30
0.0
 10
67.32282819354889
 20
-144.5102909298093
 30
0.0
 10
67.53118647880258
 20
-144.5102909298093
 30
0.0
 10
67.70242412109471
 20
-144.5102909298093
 30
0.0
 10
67.7880464949336
 20
-144.5102909298093
 30
0.0
  0
SPLINE
  5
2DC
330
1F
100
AcDbEntity
  8
0
  6
Continuous
 62
     7
370
    15
100
AcDbSpline
210
0.0
220
0.0
230
1.0
 70
    24
 71
     3
 72
    13
 73
     9
 74
     0
 42
0.00000001
 43
0.00000001
 12
1.0
 22
0.0
 32
0.0
 13
1.0
 23
0.0
 33
0.0
 40
0.0
 40
0.0
 40
0.0
 40
0.0
 40
0.1803392466035289
 40
0.3606639639180498
 40
0.5425235369716405
 40
0.7243652827471758
 40
0.9733559776709657
 40
1.0
 40
1.0
 40
1.0
 40
1.0
 10
67.7880464949336
 20
-126.5102842540891
 30
0.0
 10
67.70316614980037
 20
-126.5102842540891
 30
0.0
 10
67.53341229804018
 20
-126.5102842540891
 30
0.0
 10
67.32510040276661
 20
-126.5102842540892
 30
0.0
 10
67.15686526387631
 20
-126.510284254089
 30
0.0
 10
67.03267859219656
 20
-126.5102842540891
 30
0.0
 10
66.97063994819104
 20
-126.5102842540891
 30
0.0
 10
66.98818474242664
 20
-126.5102842540891
 30
0.0
 10
66.98988069674631
 20
-126.5102842540891
 30
0.0
  0
SPLINE
  5
2DD
330
1F
100
AcDbEntity
  8
0
  6
Continuous
 62
     7
370
    15
100
AcDbSpline
210
0.0
220
0.0
230
1.0
 70
     8
 71
     3
 72
    16
 73
    12
 74
     0
 42
0.00000001
 43
0.00000001
 12
1.0
 22
0.0
 32
0.0
 13
1.0
 23
0.0
 33
0.0
 40
0.0
 40
0.0
 40
0.0
 40
0.0
 40
0.2500000000000034
 40
0.2500000000000034
 40
0.5000000000000069
 40
0.5000000000000069
 40
0.6250000000000051
 40
0.6250000000000051
 40
0.7500000000000034
 40
0.7500000000000034
 40
1.0
 40
1.0
 40
1.0
 40
1.0
 10
67.78804959829178
 20
-135.5102906913908
 30
0.0
 10
67.54312808370936
 20
-134.7755261476436
 30
0.0
 10
67.34126836367292
 20
-134.0354045462274
 30
0.0
 10
67.06162709207585
 20
-132.5397255281671
 30
0.0
 10
66.98476795734747
 20
-131.7840533592184
 30
0.0
 10
66.98392379617827
 20
-130.6363077519624
 30
0.0
 10
67.00271288284839
 20
-130.2519257405149
 30
0.0
 10
67.07598037492922
 20
-129.491577573342
 30
0.0
 10
67.13038442659263
 20
-129.1139526546698
 30
0.0
 10
67.34046348494465
 20
-127.9878009943745
 30
0.0
 10
67.54282277811201
 20
-127.2459711519306
 30
0.0
 10
67.788049598292
 20
-126.5102906913906
 30
0.0
  0
SPLINE
  5
2DE
330
1F
100
AcDbEntity
  8
0
  6
Continuous
 62
     7
370
    15
100
AcDbSpline
210
0.0
220
0.0
230
1.0
 70
     8
 71
     3
 72
    16
 73
    12
 74
     0
 42
0.00000001
 43
0.00000001
 12
1.0
 22
0.0
 32
0.0
 13
1.0
 23
0.0
 33
0.0
 40
0.0
 40
0.0
 40
0.0
 40
0.0
 40
0.2500000000000017
 40
0.2500000000000017
 40
0.5000000000000034
 40
0.5000000000000034
 40
0.6250000000000043
 40
0.6250000000000043
 40
0.7500000000000051
 40
0.7500000000000051
 40
1.0
 40
1.0
 40
1.0
 40
1.0
 10
67.78804959829175
 20
-144.5102906913907
 30
0.0
 10
67.54312808370933
 20
-143.7755261476435
 30
0.0
 10
67.34126836367284
 20
-143.0354045462273
 30
0.0
 10
67.0616270920758
 20
-141.539725528167
 30
0.0
 10
66.98476795734751
 20
-140.7840533592184
 30
0.0
 10
66.9839237961783
 20
-139.6363077519624
 30
0.0
 10
67.00271288284841
 20
-139.2519257405148
 30
0.0
 10
67.07598037492919
 20
-138.491577573342
 30
0.0
 10
67.13038442659257
 20
-138.1139526546698
 30
0.0
 10
67.34046348494468
 20
-136.9878009943745
 30
0.0
 10
67.54282277811198
 20
-136.2459711519306
 30
0.0
 10
67.78804959829198
 20
-135.5102906913907
 30
0.0
  0
LINE
  5
2DF
330
1F
100
AcDbEntity
  8
0
  6
Continuous
 62
     7
370
    15
100
AcDbLine
 10
67.7880464949
 20
-126.5102842541
 30
0.0
 11
75.7143317618
 21
-126.5102842541
 31
0.0
  0
SPLINE
  5
2E0
330
1F
100
AcDbEntity
  8
0
  6
Continuous
 62
     7
370
    15
100
AcDbSpline
210
0.0
220
0.0
230
1.0
 70
     8
 71
     3
 72
    16
 73
    12
 74
     0
 42
0.00000001
 43
0.00000001
 12
1.0
 22
0.0
 32
0.0
 13
1.0
 23
0.0
 33
0.0
 40
0.0
 40
0.0
 40
0.0
 40
0.0
 40
0.2499999999999983
 40
0.2499999999999983
 40
0.4999999999999966
 40
0.4999999999999966
 40
0.6249999999999957
 40
0.6249999999999957
 40
0.7499999999999949
 40
0.7499999999999949
 40
1.0
 40
1.0
 40
1.0
 40
1.0
 10
75.71432903992147
 20
-126.5102906913907
 30
0.0
 10
75.95925055450385
 20
-127.2450552351379
 30
0.0
 10
76.16111027454032
 20
-127.9851768365541
 30
0.0
 10
76.4407515461374
 20
-129.4808558546144
 30
0.0
 10
76.51761068086579
 20
-130.236528023563
 30
0.0
 10
76.51845484203494
 20
-131.384273630819
 30
0.0
 10
76.49966575536489
 20
-131.7686556422666
 30
0.0
 10
76.426398263284
 20
-132.5290038094394
 30
0.0
 10
76.37199421162062
 20
-132.9066287281116
 30
0.0
 10
76.16191515326852
 20
-134.0327803884068
 30
0.0
 10
75.9595558601012
 20
-134.7746102308508
 30
0.0
 10
75.71432903992127
 20
-135.5102906913907
 30
0.0
  0
LINE
  5
2E1
330
1F
100
AcDbEntity
  8
0
  6
Continuous
 62
     7
370
    15
100
AcDbLine
 10
67.7880464949
 20
-135.5102875919
 30
0.0
 11
75.7143317618
 21
-135.5102875919
 31
0.0
  0
SPLINE
  5
2E2
330
1F
100
AcDbEntity
  8
0
  6
Continuous
 62
     7
370
    15
100
AcDbSpline
210
0.0
220
0.0
230
1.0
 70
    24
 71
     3
 72
    13
 73
     9
 74
     0
 42
0.00000001
 43
0.00000001
 12
1.0
 22
0.0
 32
0.0
 13
1.0
 23
0.0
 33
0.0
 40
0.0
 40
0.0
 40
0.0
 40
0.0
 40
0.0202203453923045
 40
0.2756290078969209
 40
0.4558420565570513
 40
0.636071964371352
 40
0.8180284317166704
 40
1.0
 40
1.0
 40
1.0
 40
1.0
 10
76.51346613547467
 20
-126.5102842540891
 30
0.0
 10
76.51483924802558
 20
-126.5102842540891
 30
0.0
 10
76.53355651733006
 20
-126.510284254089
 30
0.0
 10
76.47089569166211
 20
-126.5102842540891
 30
0.0
 10
76.34668360402287
 20
-126.5102842540891
 30
0.0
 10
76.17955006319453
 20
-126.5102842540891
 30
0.0
 10
75.97119177794086
 20
-126.5102842540891
 30
0.0
 10
75.7999541356487
 20
-126.5102842540891
 30
0.0
 10
75.71433176180982
 20
-126.5102842540891
 30
0.0
  0
SPLINE
  5
2E3
330
1F
100
AcDbEntity
  8
0
  6
Continuous
 62
     7
370
    15
100
AcDbSpline
210
0.0
220
0.0
230
1.0
 70
    24
 71
     3
 72
    13
 73
     9
 74
     0
 42
0.00000001
 43
0.00000001
 12
1.0
 22
0.0
 32
0.0
 13
1.0
 23
0.0
 33
0.0
 40
0.0
 40
0.0
 40
0.0
 40
0.0
 40
0.1803392466035289
 40
0.3606639639180498
 40
0.5425235369716405
 40
0.7243652827471758
 40
0.9733559776709657
 40
1.0
 40
1.0
 40
1.0
 40
1.0
 10
75.71433176180982
 20
-144.5102909298093
 30
0.0
 10
75.79921210694306
 20
-144.5102909298093
 30
0.0
 10
75.96896595870327
 20
-144.5102909298093
 30
0.0
 10
76.17727785397669
 20
-144.5102909298094
 30
0.0
 10
76.3455129928672
 20
-144.5102909298092
 30
0.0
 10
76.46969966454671
 20
-144.5102909298094
 30
0.0
 10
76.53173830855263
 20
-144.5102909298091
 30
0.0
 10
76.51419351431672
 20
-144.5102909298093
 30
0.0
 10
76.51249755999704
 20
-144.5102909298093
 30
0.0
  0
SPLINE
  5
2E4
330
1F
100
AcDbEntity
  8
0
  6
Continuous
 62
     7
370
    15
100
AcDbSpline
210
0.0
220
0.0
230
1.0
 70
     8
 71
     3
 72
    16
 73
    12
 74
     0
 42
0.00000001
 43
0.00000001
 12
1.0
 22
0.0
 32
0.0
 13
1.0
 23
0.0
 33
0.0
 40
0.0
 40
0.0
 40
0.0
 40
0.0
 40
0.2500000000000017
 40
0.2500000000000017
 40
0.5000000000000034
 40
0.5000000000000034
 40
0.6250000000000043
 40
0.6250000000000043
 40
0.7500000000000051
 40
0.7500000000000051
 40
1.0
 40
1.0
 40
1.0
 40
1.0
 10
75.71432903992144
 20
-135.5102906913907
 30
0.0
 10
75.95925055450374
 20
-136.2450552351378
 30
0.0
 10
76.16111027454035
 20
-136.9851768365541
 30
0.0
 10
76.44075154613746
 20
-138.4808558546144
 30
0.0
 10
76.51761068086576
 20
-139.2365280235631
 30
0.0
 10
76.51845484203486
 20
-140.3842736308191
 30
0.0
 10
76.49966575536483
 20
-140.7686556422665
 30
0.0
 10
76.42639826328394
 20
-141.5290038094394
 30
0.0
 10
76.37199421162065
 20
-141.9066287281114
 30
0.0
 10
76.16191515326855
 20
-143.0327803884068
 30
0.0
 10
75.95955586010118
 20
-143.7746102308507
 30
0.0
 10
75.71432903992121
 20
-144.5102906913907
 30
0.0
  0
LINE
  5
2E5
330
1F
100
AcDbEntity
  8
0
  6
Continuous
 62
     7
370
    15
100
AcDbLine
 10
76.9511877455
 20
-143.7602856846
 30
0.0
 11
76.9511877455
 21
-127.2602894993
 31
0.0
  0
LINE
  5
2E6
330
1F
100
AcDbEntity
  8
0
  6
Continuous
 62
     7
370
    15
100
AcDbLine
 10
67.7880464949
 20
-144.5102909298
 30
0.0
 11
75.7143317618
 21
-144.5102909298
 31
0.0
  0
LINE
  5
2E7
330
1F
100
AcDbEntity
  8
0
  6
Continuous
 62
     7
370
    15
100
AcDbLine
 10
117.0511885442
 20
252.489708951
 30
0.0
 11
117.0511885442
 21
264.4897034674
 31
0.0
  0
LINE
  5
2E8
330
1F
100
AcDbEntity
  8
0
  6
Continuous
 62
     7
370
    15
100
AcDbLine
 10
117.0511885442
 20
-141.5102848501
 30
0.0
 11
117.0511885442
 21
-129.5102903338
 31
0.0
  0
LINE
  5
2E9
330
1F
100
AcDbEntity
  8
0
  6
Continuous
 62
     7
370
    15
100
AcDbLine
 10
194.2511896499
 20
224.4466027527
 30
0.0
 11
194.2511896499
 21
227.2312125473
 31
0.0
  0
SPLINE
  5
2EA
330
1F
100
AcDbEntity
  8
0
  6
Continuous
 62
     7
370
    15
100
AcDbSpline
210
0.0
220
0.0
230
1.0
 70
     8
 71
     3
 72
    11
 73
     7
 74
     0
 42
0.00000001
 43
0.00000001
 12
1.0
 22
0.0
 32
0.0
 13
1.0
 23
0.0
 33
0.0
 40
0.0
 40
0.0
 40
0.0
 40
0.0
 40
0.3051699504125144
 40
0.6104256002272926
 40
0.9155253263334632
 40
1.0
 40
1.0
 40
1.0
 40
1.0
 10
175.1588850178447
 20
227.2312125472873
 30
0.0
 10
175.0026615117305
 20
226.9515243169162
 30
0.0
 10
174.6901706280101
 20
226.39206931268
 30
0.0
 10
174.3050289653133
 20
225.5424994060076
 30
0.0
 10
174.0452797404496
 20
224.8937467265707
 30
0.0
 10
173.947990337707
 20
224.5262829870461
 30
0.0
 10
173.9268942632403
 20
224.4466027526706
 30
0.0
  0
LINE
  5
2EB
330
1F
100
AcDbEntity
  8
0
  6
Continuous
 62
     7
370
    15
100
AcDbLine
 10
194.2511896499
 20
227.2312125473
 30
0.0
 11
175.1588850178
 21
227.2312125473
 31
0.0
  0
LINE
  5
2EC
330
1F
100
AcDbEntity
  8
0
  6
Continuous
 62
     8
370
     0
100
AcDbLine
 10
60.8001767554
 20
203.0500700979
 30
0.0
 11
60.8001767554
 21
-80.0706514807
 31
0.0
  0
LINE
  5
2ED
330
1F
100
AcDbEntity
  8
0
  6
Continuous
 62
     8
370
     0
100
AcDbLine
 10
57.8115998664
 20
200.2954414396
 30
0.0
 11
57.8115998664
 21
-77.3160228224
 31
0.0
  0
LINE
  5
2EE
330
1F
100
AcDbEntity
  8
0
  6
Continuous
 62
     8
370
     0
100
AcDbLine
 10
57.8115998664
 20
269.7511693745
 30
0.0
 11
57.8115998664
 21
218.4466054945
 31
0.0
  0
LINE
  5
2EF
330
1F
100
AcDbEntity
  8
0
  6
Continuous
 62
     8
370
     0
100
AcDbLine
 10
57.8115998664
 20
-95.4671868773
 30
0.0
 11
57.8115998664
 21
-146.7717507572
 31
0.0
  0
LINE
  5
2F0
330
1F
100
AcDbEntity
  8
0
  6
Continuous
 62
     8
370
     0
100
AcDbLine
 10
56.3893287339
 20
253.4664800672
 30
0.0
 11
56.3893287339
 21
218.4466054945
 31
0.0
  0
LINE
  5
2F1
330
1F
100
AcDbEntity
  8
0
  6
Continuous
 62
     8
370
     0
100
AcDbLine
 10
56.3893287339
 20
194.4466015606
 30
0.0
 11
56.3893287339
 21
165.9897124677
 31
0.0
  0
LINE
  5
2F2
330
1F
100
AcDbEntity
  8
0
  6
Continuous
 62
     8
370
     0
100
AcDbLine
 10
56.3893287339
 20
-43.0102938504
 30
0.0
 11
56.3893287339
 21
-71.4671829434
 31
0.0
  0
LINE
  5
2F3
330
1F
100
AcDbEntity
  8
0
  6
Continuous
 62
     8
370
     0
100
AcDbLine
 10
56.3893287339
 20
-95.4671868773
 30
0.0
 11
56.3893287339
 21
-130.48706145
 31
0.0
  0
LINE
  5
2F4
330
1F
100
AcDbEntity
  8
0
  6
Continuous
 62
     8
370
     0
100
AcDbLine
 10
56.3893287339
 20
153.9897105007
 30
0.0
 11
56.3893287339
 21
-31.0102918835
 31
0.0
  0
LINE
  5
2F5
330
1F
100
AcDbEntity
  8
0
  6
Continuous
 62
     8
370
     0
100
AcDbLine
 10
51.6700266757
 20
248.9371529131
 30
0.0
 11
51.6700266757
 21
218.4466054945
 31
0.0
  0
LINE
  5
2F6
330
1F
100
AcDbEntity
  8
0
  6
Continuous
 62
     8
370
     0
100
AcDbLine
 10
51.6700266757
 20
194.4466015606
 30
0.0
 11
51.6700266757
 21
165.9897124677
 31
0.0
  0
LINE
  5
2F7
330
1F
100
AcDbEntity
  8
0
  6
Continuous
 62
     8
370
     0
100
AcDbLine
 10
51.6700266757
 20
153.9897105007
 30
0.0
 11
51.6700266757
 21
-31.0102918835
 31
0.0
  0
LINE
  5
2F8
330
1F
100
AcDbEntity
  8
0
  6
Continuous
 62
     8
370
     0
100
AcDbLine
 10
51.6700266757
 20
-43.0102938504
 30
0.0
 11
51.6700266757
 21
-71.4671829434
 31
0.0
  0
LINE
  5
2F9
330
1F
100
AcDbEntity
  8
0
  6
Continuous
 62
     8
370
     0
100
AcDbLine
 10
51.6700266757
 20
-95.4671868773
 30
0.0
 11
51.6700266757
 21
-125.9577342959
 31
0.0
  0
LINE
  5
2FA
330
1F
100
AcDbEntity
  8
0
  6
Continuous
 62
     8
370
     0
100
AcDbLine
 10
26.4203517594
 20
247.6138701944
 30
0.0
 11
26.4203517594
 21
218.4466054945
 31
0.0
  0
LINE
  5
2FB
330
1F
100
AcDbEntity
  8
0
  6
Continuous
 62
     8
370
     0
100
AcDbLine
 10
26.4203517594
 20
194.4466015606
 30
0.0
 11
26.4203517594
 21
165.9897124677
 31
0.0
  0
LINE
  5
2FC
330
1F
100
AcDbEntity
  8
0
  6
Continuous
 62
     8
370
     0
100
AcDbLine
 10
26.4203517594
 20
153.9897105007
 30
0.0
 11
26.4203517594
 21
-31.0102918835
 31
0.0
  0
LINE
  5
2FD
330
1F
100
AcDbEntity
  8
0
  6
Continuous
 62
     8
370
     0
100
AcDbLine
 10
26.4203517594
 20
-43.0102938504
 30
0.0
 11
26.4203517594
 21
-71.4671829434
 31
0.0
  0
LINE
  5
2FE
330
1F
100
AcDbEntity
  8
0
  6
Continuous
 62
     8
370
     0
100
AcDbLine
 10
26.4203517594
 20
-95.4671868773
 30
0.0
 11
26.4203517594
 21
-124.6344515772
 31
0.0
  0
LINE
  5
2FF
330
1F
100
AcDbEntity
  8
0
  6
Continuous
 62
     8
370
     0
100
AcDbLine
 10
60.8001767554
 20
-95.4671868773
 30
0.0
 11
60.8001767554
 21
-149.5102861614
 31
0.0
  0
LINE
  5
300
330
1F
100
AcDbEntity
  8
0
  6
Continuous
 62
     8
370
     0
100
AcDbLine
 10
60.8001767554
 20
272.4897047787
 30
0.0
 11
60.8001767554
 21
218.4466054945
 31
0.0
  0
LINE
  5
301
330
1F
100
AcDbEntity
  8
FORMAT
  6
CENTERX2
370
     0
100
AcDbLine
 10
-258.4869706487
 20
61.4897093086
 30
0.0
 11
351.6323428239
 21
61.4897093086
 31
0.0
  0
ENDSEC
  0
SECTION
  2
OBJECTS
  0
DICTIONARY
  5
C
330
0
100
AcDbDictionary
281
     1
  3
ACAD_GROUP
350
D
  3
ACAD_LAYOUT
350
1A
  3
ACAD_MLINESTYLE
350
17
  3
ACAD_PLOTSETTINGS
350
19
  3
ACAD_PLOTSTYLENAME
350
E
  0
DICTIONARY
  5
D
102
{ACAD_REACTORS
330
C
102
}
330
C
100
AcDbDictionary
281
     1
  0
DICTIONARY
  5
1A
102
{ACAD_REACTORS
330
C
102
}
330
C
100
AcDbDictionary
281
     1
  3
Layout1
350
1E
  3
Layout2
350
26
  3
Model
350
22
  0
DICTIONARY
  5
17
102
{ACAD_REACTORS
330
C
102
}
330
C
100
AcDbDictionary
281
     1
  3
Standard
350
18
  0
DICTIONARY
  5
19
102
{ACAD_REACTORS
330
C
102
}
330
C
100
AcDbDictionary
281
     1
  0
ACDBDICTIONARYWDFLT
  5
E
102
{ACAD_REACTORS
330
C
102
}
330
C
100
AcDbDictionary
281
     1
  3
Normal
350
F
100
AcDbDictionaryWithDefault
340
F
  0
LAYOUT
  5
1E
102
{ACAD_REACTORS
330
1A
102
}
330
1A
100
AcDbPlotSettings
  1

  2
none_device
  4

  6

 40
0.0
 41
0.0
 42
0.0
 43
0.0
 44
0.0
 45
0.0
 46
0.0
 47
0.0
 48
0.0
 49
0.0
140
0.0
141
0.0
142
1.0
143
1.0
 70
   688
 72
     0
 73
     0
 74
     5
  7

 75
    16
147
1.0
148
0.0
149
0.0
100
AcDbLayout
  1
Layout1
 70
     1
 71
     1
 10
0.0
 20
0.0
 11
420.0
 21
297.0
 12
0.0
 22
0.0
 32
0.0
 14
1.0000000000E+20
 24
1.0000000000E+20
 34
1.0000000000E+20
 15
-1.0000000000E+20
 25
-1.0000000000E+20
 35
-1.0000000000E+20
146
0.0
 13
0.0
 23
0.0
 33
0.0
 16
1.0
 26
0.0
 36
0.0
 17
0.0
 27
1.0
 37
0.0
 76
     0
330
1B
  0
LAYOUT
  5
26
102
{ACAD_REACTORS
330
1A
102
}
330
1A
100
AcDbPlotSettings
  1

  2
none_device
  4

  6

 40
0.0
 41
0.0
 42
0.0
 43
0.0
 44
0.0
 45
0.0
 46
0.0
 47
0.0
 48
0.0
 49
0.0
140
0.0
141
0.0
142
1.0
143
1.0
 70
   688
 72
     0
 73
     0
 74
     5
  7

 75
    16
147
1.0
148
0.0
149
0.0
100
AcDbLayout
  1
Layout2
 70
     1
 71
     2
 10
0.0
 20
0.0
 11
0.0
 21
0.0
 12
0.0
 22
0.0
 32
0.0
 14
0.0
 24
0.0
 34
0.0
 15
0.0
 25
0.0
 35
0.0
146
0.0
 13
0.0
 23
0.0
 33
0.0
 16
1.0
 26
0.0
 36
0.0
 17
0.0
 27
1.0
 37
0.0
 76
     0
330
23
  0
LAYOUT
  5
22
102
{ACAD_REACTORS
330
1A
102
}
330
1A
100
AcDbPlotSettings
  1

  2
none_device
  4

  6

 40
0.0
 41
0.0
 42
0.0
 43
0.0
 44
0.0
 45
0.0
 46
0.0
 47
0.0
 48
0.0
 49
0.0
140
0.0
141
0.0
142
1.0
143
1.0
 70
  1712
 72
     0
 73
     0
 74
     0
  7

 75
     0
147
1.0
148
0.0
149
0.0
100
AcDbLayout
  1
Model
 70
     1
 71
     0
 10
0.0
 20
0.0
 11
841.0
 21
594.0
 12
0.0
 22
0.0
 32
0.0
 14
0.0
 24
0.0
 34
0.0
 15
841.0
 25
594.0
 35
0.0
146
0.0
 13
0.0
 23
0.0
 33
0.0
 16
1.0
 26
0.0
 36
0.0
 17
0.0
 27
1.0
 37
0.0
 76
     0
330
1F
331
29
  0
MLINESTYLE
  5
18
102
{ACAD_REACTORS
330
17
102
}
330
17
100
AcDbMlineStyle
  2
Standard
 70
     0
  3

 62
   256
 51
90.0
 52
90.0
 71
     2
 49
0.5
 62
   256
  6
BYLAYER
 49
-0.5
 62
   256
  6
BYLAYER
  0
ACDBPLACEHOLDER
  5
F
102
{ACAD_REACTORS
330
E
102
}
330
E
  0
ENDSEC
  0
EOF
