  0
SECTION
  2
HEADER
  9
$ACADVER
  1
AC1015
  9
$ACADMAINTVER
 70
     6
  9
$DWGCODEPAGE
  3
ANSI_1252
  9
$INSBASE
 10
0.0
 20
0.0
 30
0.0
  9
$EXTMIN
 10
0.0
 20
0.0
 30
0.0
  9
$EXTMAX
 10
841.0
 20
594.0
 30
0.0
  9
$LIMMIN
 10
0.0
 20
0.0
  9
$LIMMAX
 10
841.0
 20
594.0
  9
$ORTHOMODE
 70
     0
  9
$REGENMODE
 70
     1
  9
$FILLMODE
 70
     1
  9
$QTEXTMODE
 70
     0
  9
$MIRRTEXT
 70
     1
  9
$LTSCALE
 40
1.0
  9
$ATTMODE
 70
     1
  9
$TEXTSIZE
 40
2.5
  9
$TRACEWID
 40
1.0
  9
$TEXTSTYLE
  7
Standard
  9
$CLAYER
  8
0
  9
$CELTYPE
  6
ByLayer
  9
$CECOLOR
 62
   256
  9
$CELTSCALE
 40
1.0
  9
$DISPSILH
 70
     0
  9
$DIMSCALE
 40
1.0
  9
$DIMASZ
 40
2.5
  9
$DIMEXO
 40
1.0
  9
$DIMDLI
 40
3.75
  9
$DIMRND
 40
0.0
  9
$DIMDLE
 40
0.0
  9
$DIMEXE
 40
1.0
  9
$DIMTP
 40
0.0
  9
$DIMTM
 40
0.0
  9
$DIMTXT
 40
2.5
  9
$DIMCEN
 40
2.5
  9
$DIMTSZ
 40
0.0
  9
$DIMTOL
 70
     0
  9
$DIMLIM
 70
     0
  9
$DIMTIH
 70
     1
  9
$DIMTOH
 70
     1
  9
$DIMSE1
 70
     0
  9
$DIMSE2
 70
     0
  9
$DIMTAD
 70
     1
  9
$DIMZIN
 70
     0
  9
$DIMBLK
  1

  9
$DIMASO
 70
     1
  9
$DIMSHO
 70
     1
  9
$DIMPOST
  1

  9
$DIMAPOST
  1

  9
$DIMALT
 70
     0
  9
$DIMALTD
 70
     3
  9
$DIMALTF
 40
0.0393700787
  9
$DIMLFAC
 40
1.0
  9
$DIMTOFL
 70
     1
  9
$DIMTVP
 40
0.0
  9
$DIMTIX
 70
     0
  9
$DIMSOXD
 70
     0
  9
$DIMSAH
 70
     0
  9
$DIMBLK1
  1

  9
$DIMBLK2
  1

  9
$DIMSTYLE
  2
ISO-25
  9
$DIMCLRD
 70
     0
  9
$DIMCLRE
 70
     0
  9
$DIMCLRT
 70
     0
  9
$DIMTFAC
 40
1.0
  9
$DIMGAP
 40
1.524
  9
$DIMJUST
 70
     0
  9
$DIMSD1
 70
     0
  9
$DIMSD2
 70
     0
  9
$DIMTOLJ
 70
     0
  9
$DIMTZIN
 70
     0
  9
$DIMALTZ
 70
     0
  9
$DIMALTTZ
 70
     0
  9
$DIMUPT
 70
     0
  9
$DIMDEC
 70
     2
  9
$DIMTDEC
 70
     2
  9
$DIMALTU
 70
     2
  9
$DIMALTTD
 70
     3
  9
$DIMTXSTY
  7
Standard
  9
$DIMAUNIT
 70
     0
  9
$DIMADEC
 70
     2
  9
$DIMALTRND
 40
0.0
  9
$DIMAZIN
 70
     0
  9
$DIMDSEP
 70
    44
  9
$DIMATFIT
 70
     3
  9
$DIMFRAC
 70
     0
  9
$DIMLDRBLK
  1

  9
$DIMLUNIT
 70
     2
  9
$DIMLWD
 70
    -2
  9
$DIMLWE
 70
    -2
  9
$DIMTMOVE
 70
     0
  9
$LUNITS
 70
     2
  9
$LUPREC
 70
     2
  9
$SKETCHINC
 40
1.0
  9
$FILLETRAD
 40
10.0
  9
$AUNITS
 70
     0
  9
$AUPREC
 70
     2
  9
$MENU
  1
.
  9
$ELEVATION
 40
0.0
  9
$PELEVATION
 40
0.0
  9
$THICKNESS
 40
0.0
  9
$LIMCHECK
 70
     0
  9
$CHAMFERA
 40
10.0
  9
$CHAMFERB
 40
10.0
  9
$CHAMFERC
 40
20.0
  9
$CHAMFERD
 40
0.0
  9
$SKPOLY
 70
     0
  9
$TDCREATE
 40
2457521.370395116
  9
$TDUCREATE
 40
2457521.287061783
  9
$TDUPDATE
 40
2457521.370397651
  9
$TDUUPDATE
 40
2457521.287064317
  9
$TDINDWG
 40
0.0000000116
  9
$TDUSRTIMER
 40
0.0000000116
  9
$USRTIMER
 70
     1
  9
$ANGBASE
 50
0.0
  9
$ANGDIR
 70
     0
  9
$PDMODE
 70
     0
  9
$PDSIZE
 40
-1.0
  9
$PLINEWID
 40
0.0
  9
$SPLFRAME
 70
     0
  9
$SPLINETYPE
 70
     6
  9
$SPLINESEGS
 70
     8
  9
$HANDSEED
  5
334
  9
$SURFTAB1
 70
     6
  9
$SURFTAB2
 70
     6
  9
$SURFTYPE
 70
     6
  9
$SURFU
 70
     6
  9
$SURFV
 70
     6
  9
$UCSBASE
  2

  9
$UCSNAME
  2

  9
$UCSORG
 10
0.0
 20
0.0
 30
0.0
  9
$UCSXDIR
 10
1.0
 20
0.0
 30
0.0
  9
$UCSYDIR
 10
0.0
 20
1.0
 30
0.0
  9
$UCSORTHOREF
  2

  9
$UCSORTHOVIEW
 70
     0
  9
$UCSORGTOP
 10
0.0
 20
0.0
 30
0.0
  9
$UCSORGBOTTOM
 10
0.0
 20
0.0
 30
0.0
  9
$UCSORGLEFT
 10
0.0
 20
0.0
 30
0.0
  9
$UCSORGRIGHT
 10
0.0
 20
0.0
 30
0.0
  9
$UCSORGFRONT
 10
0.0
 20
0.0
 30
0.0
  9
$UCSORGBACK
 10
0.0
 20
0.0
 30
0.0
  9
$PUCSBASE
  2

  9
$PUCSNAME
  2

  9
$PUCSORG
 10
0.0
 20
0.0
 30
0.0
  9
$PUCSXDIR
 10
1.0
 20
0.0
 30
0.0
  9
$PUCSYDIR
 10
0.0
 20
1.0
 30
0.0
  9
$PUCSORTHOREF
  2

  9
$PUCSORTHOVIEW
 70
     0
  9
$PUCSORGTOP
 10
0.0
 20
0.0
 30
0.0
  9
$PUCSORGBOTTOM
 10
0.0
 20
0.0
 30
0.0
  9
$PUCSORGLEFT
 10
0.0
 20
0.0
 30
0.0
  9
$PUCSORGRIGHT
 10
0.0
 20
0.0
 30
0.0
  9
$PUCSORGFRONT
 10
0.0
 20
0.0
 30
0.0
  9
$PUCSORGBACK
 10
0.0
 20
0.0
 30
0.0
  9
$USERI1
 70
     0
  9
$USERI2
 70
     0
  9
$USERI3
 70
     0
  9
$USERI4
 70
     0
  9
$USERI5
 70
     0
  9
$USERR1
 40
0.0
  9
$USERR2
 40
0.0
  9
$USERR3
 40
0.0
  9
$USERR4
 40
0.0
  9
$USERR5
 40
0.0
  9
$WORLDVIEW
 70
     1
  9
$SHADEDGE
 70
     3
  9
$SHADEDIF
 70
    70
  9
$TILEMODE
 70
     1
  9
$MAXACTVP
 70
    64
  9
$PINSBASE
 10
0.0
 20
0.0
 30
0.0
  9
$PLIMCHECK
 70
     0
  9
$PEXTMIN
 10
1.0000000000E+20
 20
1.0000000000E+20
 30
1.0000000000E+20
  9
$PEXTMAX
 10
-1.0000000000E+20
 20
-1.0000000000E+20
 30
-1.0000000000E+20
  9
$PLIMMIN
 10
0.0
 20
0.0
  9
$PLIMMAX
 10
420.0
 20
297.0
  9
$UNITMODE
 70
     0
  9
$VISRETAIN
 70
     1
  9
$PLINEGEN
 70
     0
  9
$PSLTSCALE
 70
     1
  9
$TREEDEPTH
 70
  3020
  9
$CMLSTYLE
  2
Standard
  9
$CMLJUST
 70
     0
  9
$CMLSCALE
 40
20.0
  9
$PROXYGRAPHICS
 70
     1
  9
$MEASUREMENT
 70
     1
  9
$CELWEIGHT
370
    -1
  9
$ENDCAPS
280
     0
  9
$JOINSTYLE
280
     0
  9
$LWDISPLAY
290
     1
  9
$INSUNITS
 70
     4
  9
$HYPERLINKBASE
  1

  9
$STYLESHEET
  1

  9
$XEDIT
290
     1
  9
$CEPSNTYPE
380
     0
  9
$PSTYLEMODE
290
     1
  9
$FINGERPRINTGUID
  2
{CB4E46A1-404B-4988-BE22-E762F66FBCCC}
  9
$VERSIONGUID
  2
{FAEB1C32-E019-11D5-929B-00C0DF256EC4}
  9
$EXTNAMES
290
     1
  9
$PSVPSCALE
 40
0.0
  9
$OLESTARTUP
290
     0
  0
ENDSEC
  0
SECTION
  2
CLASSES
  0
CLASS
  1
ACDBDICTIONARYWDFLT
  2
AcDbDictionaryWithDefault
  3
ObjectDBX Classes
 90
        0
280
     0
281
     0
  0
CLASS
  1
VISUALSTYLE
  2
AcDbVisualStyle
  3
ObjectDBX Classes
 90
     4095
280
     0
281
     0
  0
CLASS
  1
MATERIAL
  2
AcDbMaterial
  3
ObjectDBX Classes
 90
     1153
280
     0
281
     0
  0
CLASS
  1
ACDBPLACEHOLDER
  2
AcDbPlaceHolder
  3
ObjectDBX Classes
 90
        0
280
     0
281
     0
  0
CLASS
  1
LAYOUT
  2
AcDbLayout
  3
ObjectDBX Classes
 90
        0
280
     0
281
     0
  0
ENDSEC
  0
SECTION
  2
TABLES
  0
TABLE
  2
VPORT
  5
8
330
0
100
AcDbSymbolTable
 70
     1
  0
VPORT
  5
29
330
8
100
AcDbSymbolTableRecord
100
AcDbViewportTableRecord
  2
*Active
 70
     0
 10
0.0
 20
0.0
 11
1.0
 21
1.0
 12
420.5
 22
297.0
 13
0.0
 23
0.0
 14
10.0
 24
10.0
 15
10.0
 25
10.0
 16
0.0
 26
0.0
 36
1.0
 17
0.0
 27
0.0
 37
0.0
 40
594.0
 41
1.4158249158
 42
50.0
 43
0.0
 44
0.0
 50
0.0
 51
0.0
 71
     0
 72
  2000
 73
     1
 74
     3
 75
     0
 76
     0
 77
     0
 78
     0
281
     0
 65
     1
110
0.0
120
0.0
130
0.0
111
1.0
121
0.0
131
0.0
112
0.0
122
1.0
132
0.0
 79
     0
146
0.0
  0
ENDTAB
  0
TABLE
  2
LTYPE
  5
5
330
0
100
AcDbSymbolTable
 70
     6
  0
LTYPE
  5
14
330
5
100
AcDbSymbolTableRecord
100
AcDbLinetypeTableRecord
  2
ByBlock
 70
     0
  3

 72
    65
 73
     0
 40
0.0
  0
LTYPE
  5
15
330
5
100
AcDbSymbolTableRecord
100
AcDbLinetypeTableRecord
  2
ByLayer
 70
     0
  3

 72
    65
 73
     0
 40
0.0
  0
LTYPE
  5
16
330
5
100
AcDbSymbolTableRecord
100
AcDbLinetypeTableRecord
  2
Continuous
 70
     0
  3
Solid line
 72
    65
 73
     0
 40
0.0
  0
LTYPE
  5
3F
330
5
100
AcDbSymbolTableRecord
100
AcDbLinetypeTableRecord
  2
HIDDEN
 70
     0
  3
Hidden __ __ __ __ __ __ __ __ __ __ __ __ __ __
 72
    65
 73
     2
 40
1.905
 49
1.27
 74
     0
 49
-0.635
 74
     0
  0
LTYPE
  5
40
330
5
100
AcDbSymbolTableRecord
100
AcDbLinetypeTableRecord
  2
PHANTOM
 70
     0
  3
Phantom ______  __  __  ______  __  __  ______
 72
    65
 73
     6
 40
12.7
 49
6.35
 74
     0
 49
-1.27
 74
     0
 49
1.27
 74
     0
 49
-1.27
 74
     0
 49
1.27
 74
     0
 49
-1.27
 74
     0
  0
LTYPE
  5
41
330
5
100
AcDbSymbolTableRecord
100
AcDbLinetypeTableRecord
  2
CENTER
 70
     0
  3
Center ____ _ ____ _ ____ _ ____ _ ____ _ ____
 72
    65
 73
     4
 40
10.16
 49
6.35
 74
     0
 49
-1.27
 74
     0
 49
1.27
 74
     0
 49
-1.27
 74
     0
  0
LTYPE
  5
42
330
5
100
AcDbSymbolTableRecord
100
AcDbLinetypeTableRecord
  2
CENTERX2
 70
     0
  3
Center (2x) ________  __  ________  __  _____
 72
    65
 73
     4
 40
20.32
 49
12.7
 74
     0
 49
-2.54
 74
     0
 49
2.54
 74
     0
 49
-2.54
 74
     0
  0
LTYPE
  5
43
330
5
100
AcDbSymbolTableRecord
100
AcDbLinetypeTableRecord
  2
DOT2
 70
     0
  3
Dot (.5x) ........................................
 72
    65
 73
     2
 40
0.635
 49
0.0
 74
     0
 49
-0.635
 74
     0
  0
ENDTAB
  0
TABLE
  2
LAYER
  5
2
330
0
100
AcDbSymbolTable
 70
     3
  0
LAYER
  5
10
330
2
100
AcDbSymbolTableRecord
100
AcDbLayerTableRecord
  2
0
 70
     0
 62
     7
  6
Continuous
370
    -3
390
F
  0
LAYER
  5
44
330
2
100
AcDbSymbolTableRecord
100
AcDbLayerTableRecord
  2
FORMAT
 70
     0
 62
     7
  6
Continuous
370
    -3
390
F
  0
LAYER
  5
45
330
2
100
AcDbSymbolTableRecord
100
AcDbLayerTableRecord
  2
PROTOTYPE
 70
     0
 62
     7
  6
Continuous
370
    -3
390
F
  0
ENDTAB
  0
TABLE
  2
STYLE
  5
3
330
0
100
AcDbSymbolTable
 70
     2
  0
STYLE
  5
11
330
3
100
AcDbSymbolTableRecord
100
AcDbTextStyleTableRecord
  2
Standard
 70
     0
 40
0.0
 41
1.0
 50
0.0
 71
     0
 42
2.5
  3
txt
  4

  0
STYLE
  5
8C
330
3
100
AcDbSymbolTableRecord
100
AcDbTextStyleTableRecord
  2
SLDTEXTSTYLE0
 70
     0
 40
0.0
 41
0.605
 50
0.0
 71
     0
 42
0.2
  3
TXT
  4

  0
ENDTAB
  0
TABLE
  2
VIEW
  5
6
330
0
100
AcDbSymbolTable
 70
     0
  0
ENDTAB
  0
TABLE
  2
UCS
  5
7
330
0
100
AcDbSymbolTable
 70
     0
  0
ENDTAB
  0
TABLE
  2
APPID
  5
9
330
0
100
AcDbSymbolTable
 70
     1
  0
APPID
  5
12
330
9
100
AcDbSymbolTableRecord
100
AcDbRegAppTableRecord
  2
ACAD
 70
     0
  0
ENDTAB
  0
TABLE
  2
DIMSTYLE
  5
A
330
0
100
AcDbSymbolTable
 70
     1
100
AcDbDimStyleTable
  0
DIMSTYLE
105
27
330
A
100
AcDbSymbolTableRecord
100
AcDbDimStyleTableRecord
  2
ISO-25
 70
     0
 41
2.5
 42
0.625
 43
3.75
 44
1.25
 73
     0
 74
     0
 77
     1
 78
     8
140
2.5
141
2.5
143
0.0393700787
147
0.625
171
     3
172
     1
178
     0
271
     2
272
     2
274
     3
278
    44
283
     0
284
     8
340
11
  0
ENDTAB
  0
TABLE
  2
BLOCK_RECORD
  5
1
330
0
100
AcDbSymbolTable
 70
     2
  0
BLOCK_RECORD
  5
1F
330
1
100
AcDbSymbolTableRecord
100
AcDbBlockTableRecord
  2
*Model_Space
340
22
  0
BLOCK_RECORD
  5
1B
330
1
100
AcDbSymbolTableRecord
100
AcDbBlockTableRecord
  2
*Paper_Space
340
1E
  0
BLOCK_RECORD
  5
23
330
1
100
AcDbSymbolTableRecord
100
AcDbBlockTableRecord
  2
*Paper_Space0
340
26
  0
BLOCK_RECORD
  5
328
330
1
100
AcDbSymbolTableRecord
100
AcDbBlockTableRecord
  2
SW_CENTERMARKSYMBOL_0
340
0
102
{BLKREFS
331
333
102
}
  0
ENDTAB
  0
ENDSEC
  0
SECTION
  2
BLOCKS
  0
BLOCK
  5
20
330
1F
100
AcDbEntity
  8
0
100
AcDbBlockBegin
  2
*Model_Space
 70
     0
 10
0.0
 20
0.0
 30
0.0
  3
*Model_Space
  1

  0
ENDBLK
  5
21
330
1F
100
AcDbEntity
  8
0
100
AcDbBlockEnd
  0
BLOCK
  5
1C
330
1B
100
AcDbEntity
 67
     1
  8
0
100
AcDbBlockBegin
  2
*Paper_Space
 70
     0
 10
0.0
 20
0.0
 30
0.0
  3
*Paper_Space
  1

  0
ENDBLK
  5
1D
330
1B
100
AcDbEntity
 67
     1
  8
0
100
AcDbBlockEnd
  0
BLOCK
  5
24
330
23
100
AcDbEntity
  8
0
100
AcDbBlockBegin
  2
*Paper_Space0
 70
     0
 10
0.0
 20
0.0
 30
0.0
  3
*Paper_Space0
  1

  0
ENDBLK
  5
25
330
23
100
AcDbEntity
  8
0
100
AcDbBlockEnd
  0
BLOCK
  5
329
330
328
100
AcDbEntity
  8
0
100
AcDbBlockBegin
  2
SW_CENTERMARKSYMBOL_0
 70
     0
 10
0.0
 20
0.0
 30
0.0
  3
SW_CENTERMARKSYMBOL_0
  1

  0
LINE
  5
32B
330
328
100
AcDbEntity
  8
FORMAT
 62
     0
100
AcDbLine
 10
0.0
 20
0.0
 30
0.0
 11
0.0
 21
2.5
 31
0.0
  0
LINE
  5
32C
330
328
100
AcDbEntity
  8
FORMAT
 62
     0
100
AcDbLine
 10
0.0
 20
0.0
 30
0.0
 11
-2.5
 21
0.0
 31
0.0
  0
LINE
  5
32D
330
328
100
AcDbEntity
  8
FORMAT
 62
     0
100
AcDbLine
 10
0.0
 20
0.0
 30
0.0
 11
0.0
 21
-2.5
 31
0.0
  0
LINE
  5
32E
330
328
100
AcDbEntity
  8
FORMAT
 62
     0
100
AcDbLine
 10
0.0
 20
0.0
 30
0.0
 11
2.5
 21
0.0
 31
0.0
  0
LINE
  5
32F
330
328
100
AcDbEntity
  8
FORMAT
 62
     0
100
AcDbLine
 10
0.0
 20
5.0
 30
0.0
 11
0.0
 21
598.9022651534
 31
0.0
  0
LINE
  5
330
330
328
100
AcDbEntity
  8
FORMAT
 62
     0
100
AcDbLine
 10
-5.0
 20
0.0
 30
0.0
 11
-284.0861869841
 21
0.0
 31
0.0
  0
LINE
  5
331
330
328
100
AcDbEntity
  8
FORMAT
 62
     0
100
AcDbLine
 10
0.0
 20
-5.0
 30
0.0
 11
0.0
 21
-278.2854955152
 31
0.0
  0
LINE
  5
332
330
328
100
AcDbEntity
  8
FORMAT
 62
     0
100
AcDbLine
 10
5.0
 20
0.0
 30
0.0
 11
275.3114668418
 21
0.0
 31
0.0
  0
ENDBLK
  5
32A
330
328
100
AcDbEntity
  8
0
100
AcDbBlockEnd
  0
ENDSEC
  0
SECTION
  2
ENTITIES
  0
LINE
  5
46
330
1F
100
AcDbEntity
  8
FORMAT
370
    30
100
AcDbLine
 10
13.0
 20
12.8671069427
 30
0.0
 11
828.0
 21
12.8671069427
 31
0.0
  0
LINE
  5
47
330
1F
100
AcDbEntity
  8
FORMAT
370
    30
100
AcDbLine
 10
13.0
 20
12.8671069427
 30
0.0
 11
13.0
 21
580.8671069427
 31
0.0
  0
LINE
  5
48
330
1F
100
AcDbEntity
  8
0
  6
Continuous
 62
     7
370
    30
100
AcDbLine
 10
114.88
 20
12.8671069427
 30
0.0
 11
114.88
 21
6.8671069427
 31
0.0
  0
LINE
  5
49
330
1F
100
AcDbEntity
  8
FORMAT
370
    30
100
AcDbLine
 10
828.0
 20
12.8671069427
 30
0.0
 11
828.0
 21
580.8671069427
 31
0.0
  0
LINE
  5
4A
330
1F
100
AcDbEntity
  8
FORMAT
370
    30
100
AcDbLine
 10
828.0
 20
12.8671069427
 30
0.0
 11
828.0
 21
6.8671069427
 31
0.0
  0
LINE
  5
4B
330
1F
100
AcDbEntity
  8
0
  6
Continuous
 62
     7
370
    30
100
AcDbLine
 10
165.82
 20
12.8671069427
 30
0.0
 11
165.82
 21
6.8671069427
 31
0.0
  0
LINE
  5
4C
330
1F
100
AcDbEntity
  8
0
  6
Continuous
 62
     7
370
    30
100
AcDbLine
 10
216.76
 20
12.8671069427
 30
0.0
 11
216.76
 21
6.8671069427
 31
0.0
  0
LINE
  5
4D
330
1F
100
AcDbEntity
  8
0
  6
Continuous
 62
     7
370
    30
100
AcDbLine
 10
267.7
 20
12.8671069427
 30
0.0
 11
267.7
 21
6.8671069427
 31
0.0
  0
LINE
  5
4E
330
1F
100
AcDbEntity
  8
0
  6
Continuous
 62
     7
370
    30
100
AcDbLine
 10
318.64
 20
12.8671069427
 30
0.0
 11
318.64
 21
6.8671069427
 31
0.0
  0
LINE
  5
4F
330
1F
100
AcDbEntity
  8
0
  6
Continuous
 62
     7
370
    30
100
AcDbLine
 10
369.58
 20
12.8671069427
 30
0.0
 11
369.58
 21
6.8671069427
 31
0.0
  0
LINE
  5
50
330
1F
100
AcDbEntity
  8
0
  6
Continuous
 62
     7
370
    30
100
AcDbLine
 10
420.52
 20
12.8671069427
 30
0.0
 11
420.52
 21
6.8671069427
 31
0.0
  0
LINE
  5
51
330
1F
100
AcDbEntity
  8
0
  6
Continuous
 62
     7
370
    30
100
AcDbLine
 10
471.46
 20
12.8671069427
 30
0.0
 11
471.46
 21
6.8671069427
 31
0.0
  0
LINE
  5
52
330
1F
100
AcDbEntity
  8
0
  6
Continuous
 62
     7
370
    30
100
AcDbLine
 10
522.4
 20
12.8671069427
 30
0.0
 11
522.4
 21
6.8671069427
 31
0.0
  0
LINE
  5
53
330
1F
100
AcDbEntity
  8
0
  6
Continuous
 62
     7
370
    30
100
AcDbLine
 10
573.34
 20
12.8671069427
 30
0.0
 11
573.34
 21
6.8671069427
 31
0.0
  0
LINE
  5
54
330
1F
100
AcDbEntity
  8
0
  6
Continuous
 62
     7
370
    30
100
AcDbLine
 10
624.28
 20
12.8671069427
 30
0.0
 11
624.28
 21
6.8671069427
 31
0.0
  0
LINE
  5
55
330
1F
100
AcDbEntity
  8
0
  6
Continuous
 62
     7
370
    30
100
AcDbLine
 10
675.22
 20
12.8671069427
 30
0.0
 11
675.22
 21
6.8671069427
 31
0.0
  0
LINE
  5
56
330
1F
100
AcDbEntity
  8
0
  6
Continuous
 62
     7
370
    30
100
AcDbLine
 10
726.16
 20
12.8671069427
 30
0.0
 11
726.16
 21
6.8671069427
 31
0.0
  0
LINE
  5
57
330
1F
100
AcDbEntity
  8
0
  6
Continuous
 62
     7
370
    30
100
AcDbLine
 10
777.1
 20
12.8671069427
 30
0.0
 11
777.1
 21
6.8671069427
 31
0.0
  0
LINE
  5
58
330
1F
100
AcDbEntity
  8
0
  6
Continuous
 62
     7
370
    30
100
AcDbLine
 10
828.0
 20
116.1471069427
 30
0.0
 11
834.0
 21
116.1471069427
 31
0.0
  0
LINE
  5
59
330
1F
100
AcDbEntity
  8
0
  6
Continuous
 62
     7
370
    30
100
AcDbLine
 10
828.0
 20
167.7871069427
 30
0.0
 11
834.0
 21
167.7871069427
 31
0.0
  0
LINE
  5
5A
330
1F
100
AcDbEntity
  8
0
  6
Continuous
 62
     7
370
    30
100
AcDbLine
 10
828.0
 20
219.4271069427
 30
0.0
 11
834.0
 21
219.4271069427
 31
0.0
  0
LINE
  5
5B
330
1F
100
AcDbEntity
  8
0
  6
Continuous
 62
     7
370
    30
100
AcDbLine
 10
828.0
 20
271.0671069427
 30
0.0
 11
834.0
 21
271.0671069427
 31
0.0
  0
LINE
  5
5C
330
1F
100
AcDbEntity
  8
0
  6
Continuous
 62
     7
370
    30
100
AcDbLine
 10
828.0
 20
322.7071069427
 30
0.0
 11
834.0
 21
322.7071069427
 31
0.0
  0
LINE
  5
5D
330
1F
100
AcDbEntity
  8
0
  6
Continuous
 62
     7
370
    30
100
AcDbLine
 10
63.94
 20
12.8671069427
 30
0.0
 11
63.94
 21
6.8671069427
 31
0.0
  0
LINE
  5
5E
330
1F
100
AcDbEntity
  8
0
  6
Continuous
 62
     7
370
    30
100
AcDbLine
 10
828.0
 20
374.3471069427
 30
0.0
 11
834.0
 21
374.3471069427
 31
0.0
  0
LINE
  5
5F
330
1F
100
AcDbEntity
  8
0
  6
Continuous
 62
     7
370
    30
100
AcDbLine
 10
13.0
 20
12.8671069427
 30
0.0
 11
13.0
 21
6.8671069427
 31
0.0
  0
LINE
  5
60
330
1F
100
AcDbEntity
  8
FORMAT
  6
Continuous
 62
     7
370
    30
100
AcDbLine
 10
828.0
 20
12.8671069427
 30
0.0
 11
834.0
 21
12.8671069427
 31
0.0
  0
LINE
  5
61
330
1F
100
AcDbEntity
  8
0
  6
Continuous
 62
     7
370
    30
100
AcDbLine
 10
828.0
 20
425.9871069427
 30
0.0
 11
834.0
 21
425.9871069427
 31
0.0
  0
LINE
  5
62
330
1F
100
AcDbEntity
  8
0
  6
Continuous
 62
     7
370
    30
100
AcDbLine
 10
828.0
 20
477.6271069427
 30
0.0
 11
834.0
 21
477.6271069427
 31
0.0
  0
LINE
  5
63
330
1F
100
AcDbEntity
  8
0
  6
Continuous
 62
     7
370
    30
100
AcDbLine
 10
828.0
 20
529.2671069427
 30
0.0
 11
834.0
 21
529.2671069427
 31
0.0
  0
LINE
  5
64
330
1F
100
AcDbEntity
  8
0
  6
Continuous
 62
     7
370
    30
100
AcDbLine
 10
7.0
 20
580.8671069427
 30
0.0
 11
13.0
 21
580.8671069427
 31
0.0
  0
LINE
  5
65
330
1F
100
AcDbEntity
  8
0
  6
Continuous
 62
     7
370
    30
100
AcDbLine
 10
7.0
 20
12.8671069427
 30
0.0
 11
13.0
 21
12.8671069427
 31
0.0
  0
LINE
  5
66
330
1F
100
AcDbEntity
  8
0
  6
Continuous
 62
     7
370
    30
100
AcDbLine
 10
165.82
 20
586.8671069427
 30
0.0
 11
165.82
 21
580.8671069427
 31
0.0
  0
LINE
  5
67
330
1F
100
AcDbEntity
  8
0
  6
Continuous
 62
     7
370
    30
100
AcDbLine
 10
471.46
 20
586.8671069427
 30
0.0
 11
471.46
 21
580.8671069427
 31
0.0
  0
LINE
  5
68
330
1F
100
AcDbEntity
  8
0
  6
Continuous
 62
     7
370
    30
100
AcDbLine
 10
420.52
 20
586.8671069427
 30
0.0
 11
420.52
 21
580.8671069427
 31
0.0
  0
LINE
  5
69
330
1F
100
AcDbEntity
  8
0
  6
Continuous
 62
     7
370
    30
100
AcDbLine
 10
777.1
 20
586.8671069427
 30
0.0
 11
777.1
 21
580.8671069427
 31
0.0
  0
LINE
  5
6A
330
1F
100
AcDbEntity
  8
0
  6
Continuous
 62
     7
370
    30
100
AcDbLine
 10
726.16
 20
586.8671069427
 30
0.0
 11
726.16
 21
580.8671069427
 31
0.0
  0
LINE
  5
6B
330
1F
100
AcDbEntity
  8
0
  6
Continuous
 62
     7
370
    30
100
AcDbLine
 10
114.88
 20
586.8671069427
 30
0.0
 11
114.88
 21
580.8671069427
 31
0.0
  0
LINE
  5
6C
330
1F
100
AcDbEntity
  8
0
  6
Continuous
 62
     7
370
    30
100
AcDbLine
 10
522.4
 20
586.8671069427
 30
0.0
 11
522.4
 21
580.8671069427
 31
0.0
  0
LINE
  5
6D
330
1F
100
AcDbEntity
  8
0
  6
Continuous
 62
     7
370
    30
100
AcDbLine
 10
216.76
 20
586.8671069427
 30
0.0
 11
216.76
 21
580.8671069427
 31
0.0
  0
LINE
  5
6E
330
1F
100
AcDbEntity
  8
0
  6
Continuous
 62
     7
370
    30
100
AcDbLine
 10
369.58
 20
586.8671069427
 30
0.0
 11
369.58
 21
580.8671069427
 31
0.0
  0
LINE
  5
6F
330
1F
100
AcDbEntity
  8
0
  6
Continuous
 62
     7
370
    30
100
AcDbLine
 10
624.28
 20
586.8671069427
 30
0.0
 11
624.28
 21
580.8671069427
 31
0.0
  0
LINE
  5
70
330
1F
100
AcDbEntity
  8
0
  6
Continuous
 62
     7
370
    30
100
AcDbLine
 10
675.22
 20
586.8671069427
 30
0.0
 11
675.22
 21
580.8671069427
 31
0.0
  0
LINE
  5
71
330
1F
100
AcDbEntity
  8
0
  6
Continuous
 62
     7
370
    30
100
AcDbLine
 10
318.64
 20
586.8671069427
 30
0.0
 11
318.64
 21
580.8671069427
 31
0.0
  0
LINE
  5
72
330
1F
100
AcDbEntity
  8
0
  6
Continuous
 62
     7
370
    30
100
AcDbLine
 10
573.34
 20
586.8671069427
 30
0.0
 11
573.34
 21
580.8671069427
 31
0.0
  0
LINE
  5
73
330
1F
100
AcDbEntity
  8
0
  6
Continuous
 62
     7
370
    30
100
AcDbLine
 10
267.7
 20
586.8671069427
 30
0.0
 11
267.7
 21
580.8671069427
 31
0.0
  0
LINE
  5
74
330
1F
100
AcDbEntity
  8
0
  6
Continuous
 62
     7
370
    30
100
AcDbLine
 10
63.94
 20
586.8671069427
 30
0.0
 11
63.94
 21
580.8671069427
 31
0.0
  0
LINE
  5
75
330
1F
100
AcDbEntity
  8
0
  6
Continuous
 62
     7
370
    30
100
AcDbLine
 10
828.0
 20
64.5071069427
 30
0.0
 11
834.0
 21
64.5071069427
 31
0.0
  0
LINE
  5
76
330
1F
100
AcDbEntity
  8
0
  6
Continuous
 62
     7
370
    30
100
AcDbLine
 10
7.0
 20
167.7871069427
 30
0.0
 11
13.0
 21
167.7871069427
 31
0.0
  0
LINE
  5
77
330
1F
100
AcDbEntity
  8
0
  6
Continuous
 62
     7
370
    30
100
AcDbLine
 10
13.0
 20
586.8671069427
 30
0.0
 11
13.0
 21
580.8671069427
 31
0.0
  0
LINE
  5
78
330
1F
100
AcDbEntity
  8
0
  6
Continuous
 62
     7
370
    30
100
AcDbLine
 10
7.0
 20
477.6271069427
 30
0.0
 11
13.0
 21
477.6271069427
 31
0.0
  0
LINE
  5
79
330
1F
100
AcDbEntity
  8
0
  6
Continuous
 62
     7
370
    30
100
AcDbLine
 10
7.0
 20
529.2671069427
 30
0.0
 11
13.0
 21
529.2671069427
 31
0.0
  0
LINE
  5
7A
330
1F
100
AcDbEntity
  8
0
  6
Continuous
 62
     7
370
    30
100
AcDbLine
 10
7.0
 20
374.3471069427
 30
0.0
 11
13.0
 21
374.3471069427
 31
0.0
  0
LINE
  5
7B
330
1F
100
AcDbEntity
  8
0
  6
Continuous
 62
     7
370
    30
100
AcDbLine
 10
828.0
 20
580.8671069427
 30
0.0
 11
834.0
 21
580.8671069427
 31
0.0
  0
LINE
  5
7C
330
1F
100
AcDbEntity
  8
0
  6
Continuous
 62
     7
370
    30
100
AcDbLine
 10
7.0
 20
425.9871069427
 30
0.0
 11
13.0
 21
425.9871069427
 31
0.0
  0
LINE
  5
7D
330
1F
100
AcDbEntity
  8
0
  6
Continuous
 62
     7
370
    30
100
AcDbLine
 10
13.0
 20
580.8671069427
 30
0.0
 11
828.0
 21
580.8671069427
 31
0.0
  0
LINE
  5
7E
330
1F
100
AcDbEntity
  8
0
  6
Continuous
 62
     7
370
    30
100
AcDbLine
 10
7.0
 20
64.5071069427
 30
0.0
 11
13.0
 21
64.5071069427
 31
0.0
  0
LINE
  5
7F
330
1F
100
AcDbEntity
  8
0
  6
Continuous
 62
     7
370
    30
100
AcDbLine
 10
7.0
 20
219.4271069427
 30
0.0
 11
13.0
 21
219.4271069427
 31
0.0
  0
LINE
  5
80
330
1F
100
AcDbEntity
  8
0
  6
Continuous
 62
     7
370
    30
100
AcDbLine
 10
7.0
 20
271.0671069427
 30
0.0
 11
13.0
 21
271.0671069427
 31
0.0
  0
LINE
  5
81
330
1F
100
AcDbEntity
  8
0
  6
Continuous
 62
     7
370
    30
100
AcDbLine
 10
7.0
 20
322.7071069427
 30
0.0
 11
13.0
 21
322.7071069427
 31
0.0
  0
LINE
  5
82
330
1F
100
AcDbEntity
  8
0
  6
Continuous
 62
     7
370
    30
100
AcDbLine
 10
828.0
 20
586.8671069427
 30
0.0
 11
828.0
 21
580.8671069427
 31
0.0
  0
LINE
  5
83
330
1F
100
AcDbEntity
  8
0
  6
Continuous
 62
     7
370
    30
100
AcDbLine
 10
7.0
 20
116.1471069427
 30
0.0
 11
13.0
 21
116.1471069427
 31
0.0
  0
LINE
  5
84
330
1F
100
AcDbEntity
  8
FORMAT
100
AcDbLine
 10
420.5
 20
12.8671069427
 30
0.0
 11
420.5
 21
4.8671069427
 31
0.0
  0
LINE
  5
85
330
1F
100
AcDbEntity
  8
FORMAT
100
AcDbLine
 10
210.25
 20
12.8671069427
 30
0.0
 11
210.25
 21
4.8671069427
 31
0.0
  0
LINE
  5
86
330
1F
100
AcDbEntity
  8
FORMAT
  6
Continuous
 62
     7
370
     0
100
AcDbLine
 10
644.0
 20
12.8671069427
 30
0.0
 11
644.0
 21
4.8671069427
 31
0.0
  0
LINE
  5
87
330
1F
100
AcDbEntity
  8
0
  6
Continuous
 62
     7
370
     0
100
AcDbLine
 10
210.25
 20
588.8671069427
 30
0.0
 11
210.25
 21
580.8671069427
 31
0.0
  0
LINE
  5
88
330
1F
100
AcDbEntity
  8
0
  6
Continuous
 62
     7
370
     0
100
AcDbLine
 10
420.5
 20
588.8671069427
 30
0.0
 11
420.5
 21
580.8671069427
 31
0.0
  0
LINE
  5
89
330
1F
100
AcDbEntity
  8
0
  6
Continuous
 62
     7
370
     0
100
AcDbLine
 10
630.75
 20
588.8671069427
 30
0.0
 11
630.75
 21
580.8671069427
 31
0.0
  0
LINE
  5
8A
330
1F
100
AcDbEntity
  8
FORMAT
100
AcDbLine
 10
828.0
 20
296.8671069427
 30
0.0
 11
836.0
 21
296.8671069427
 31
0.0
  0
LINE
  5
8B
330
1F
100
AcDbEntity
  8
0
  6
Continuous
 62
     7
370
     0
100
AcDbLine
 10
5.0
 20
296.8671069427
 30
0.0
 11
13.0
 21
296.8671069427
 31
0.0
  0
MTEXT
  5
8D
330
1F
100
AcDbEntity
  8
FORMAT
100
AcDbMText
 10
37.5504191961
 20
10.9423147578
 30
0.0
 40
2.6458333333
 41
0.0
 71
     1
 72
     1
  1
A
  7
SLDTEXTSTYLE0
 73
     1
 44
1.0
  0
MTEXT
  5
8E
330
1F
100
AcDbEntity
  8
FORMAT
100
AcDbMText
 10
828.9767730496
 20
40.3656938402
 30
0.0
 40
2.6458333333
 41
0.0
 71
     1
 72
     1
  1
11
  7
SLDTEXTSTYLE0
 73
     1
 44
1.0
  0
MTEXT
  5
8F
330
1F
100
AcDbEntity
  8
FORMAT
100
AcDbMText
 10
88.4904191961
 20
10.9423147578
 30
0.0
 40
2.6458333333
 41
0.0
 71
     1
 72
     1
  1
B
  7
SLDTEXTSTYLE0
 73
     1
 44
1.0
  0
MTEXT
  5
90
330
1F
100
AcDbEntity
  8
FORMAT
100
AcDbMText
 10
139.4304191961
 20
10.9423147578
 30
0.0
 40
2.6458333333
 41
0.0
 71
     1
 72
     1
  1
C
  7
SLDTEXTSTYLE0
 73
     1
 44
1.0
  0
MTEXT
  5
91
330
1F
100
AcDbEntity
  8
FORMAT
100
AcDbMText
 10
190.3704191961
 20
10.9423147578
 30
0.0
 40
2.6458333333
 41
0.0
 71
     1
 72
     1
  1
D
  7
SLDTEXTSTYLE0
 73
     1
 44
1.0
  0
MTEXT
  5
92
330
1F
100
AcDbEntity
  8
FORMAT
100
AcDbMText
 10
241.3104191961
 20
10.9423147578
 30
0.0
 40
2.6458333333
 41
0.0
 71
     1
 72
     1
  1
E
  7
SLDTEXTSTYLE0
 73
     1
 44
1.0
  0
MTEXT
  5
93
330
1F
100
AcDbEntity
  8
FORMAT
100
AcDbMText
 10
292.2504191961
 20
10.9423147578
 30
0.0
 40
2.6458333333
 41
0.0
 71
     1
 72
     1
  1
F
  7
SLDTEXTSTYLE0
 73
     1
 44
1.0
  0
MTEXT
  5
94
330
1F
100
AcDbEntity
  8
FORMAT
100
AcDbMText
 10
343.1904191961
 20
10.9423147578
 30
0.0
 40
2.6458333333
 41
0.0
 71
     1
 72
     1
  1
G
  7
SLDTEXTSTYLE0
 73
     1
 44
1.0
  0
MTEXT
  5
95
330
1F
100
AcDbEntity
  8
FORMAT
100
AcDbMText
 10
394.1304191961
 20
10.9423147578
 30
0.0
 40
2.6458333333
 41
0.0
 71
     1
 72
     1
  1
H
  7
SLDTEXTSTYLE0
 73
     1
 44
1.0
  0
MTEXT
  5
96
330
1F
100
AcDbEntity
  8
FORMAT
100
AcDbMText
 10
445.0704191961
 20
10.9423147578
 30
0.0
 40
2.6458333333
 41
0.0
 71
     1
 72
     1
  1
I
  7
SLDTEXTSTYLE0
 73
     1
 44
1.0
  0
MTEXT
  5
97
330
1F
100
AcDbEntity
  8
FORMAT
100
AcDbMText
 10
496.0104191961
 20
10.9423147578
 30
0.0
 40
2.6458333333
 41
0.0
 71
     1
 72
     1
  1
J
  7
SLDTEXTSTYLE0
 73
     1
 44
1.0
  0
MTEXT
  5
98
330
1F
100
AcDbEntity
  8
FORMAT
100
AcDbMText
 10
546.9504191961
 20
10.9423147578
 30
0.0
 40
2.6458333333
 41
0.0
 71
     1
 72
     1
  1
K
  7
SLDTEXTSTYLE0
 73
     1
 44
1.0
  0
MTEXT
  5
99
330
1F
100
AcDbEntity
  8
FORMAT
100
AcDbMText
 10
597.8904191961
 20
10.9423147578
 30
0.0
 40
2.6458333333
 41
0.0
 71
     1
 72
     1
  1
L
  7
SLDTEXTSTYLE0
 73
     1
 44
1.0
  0
MTEXT
  5
9A
330
1F
100
AcDbEntity
  8
FORMAT
100
AcDbMText
 10
648.8304191961
 20
10.9423147578
 30
0.0
 40
2.6458333333
 41
0.0
 71
     1
 72
     1
  1
M
  7
SLDTEXTSTYLE0
 73
     1
 44
1.0
  0
MTEXT
  5
9B
330
1F
100
AcDbEntity
  8
FORMAT
100
AcDbMText
 10
699.7704191961
 20
10.9423147578
 30
0.0
 40
2.6458333333
 41
0.0
 71
     1
 72
     1
  1
N
  7
SLDTEXTSTYLE0
 73
     1
 44
1.0
  0
MTEXT
  5
9C
330
1F
100
AcDbEntity
  8
FORMAT
100
AcDbMText
 10
750.7104191961
 20
10.9423147578
 30
0.0
 40
2.6458333333
 41
0.0
 71
     1
 72
     1
  1
O
  7
SLDTEXTSTYLE0
 73
     1
 44
1.0
  0
MTEXT
  5
9D
330
1F
100
AcDbEntity
  8
FORMAT
100
AcDbMText
 10
801.6504191961
 20
10.9423147578
 30
0.0
 40
2.6458333333
 41
0.0
 71
     1
 72
     1
  1
P
  7
SLDTEXTSTYLE0
 73
     1
 44
1.0
  0
MTEXT
  5
9E
330
1F
100
AcDbEntity
  8
FORMAT
100
AcDbMText
 10
828.9767730496
 20
92.0056938402
 30
0.0
 40
2.6458333333
 41
0.0
 71
     1
 72
     1
  1
10
  7
SLDTEXTSTYLE0
 73
     1
 44
1.0
  0
MTEXT
  5
9F
330
1F
100
AcDbEntity
  8
FORMAT
100
AcDbMText
 10
829.9767730496
 20
143.6456938402
 30
0.0
 40
2.6458333333
 41
0.0
 71
     1
 72
     1
  1
9
  7
SLDTEXTSTYLE0
 73
     1
 44
1.0
  0
MTEXT
  5
A0
330
1F
100
AcDbEntity
  8
FORMAT
100
AcDbMText
 10
829.9767730496
 20
195.2856938402
 30
0.0
 40
2.6458333333
 41
0.0
 71
     1
 72
     1
  1
8
  7
SLDTEXTSTYLE0
 73
     1
 44
1.0
  0
MTEXT
  5
A1
330
1F
100
AcDbEntity
  8
FORMAT
100
AcDbMText
 10
829.9767730496
 20
246.9256938402
 30
0.0
 40
2.6458333333
 41
0.0
 71
     1
 72
     1
  1
7
  7
SLDTEXTSTYLE0
 73
     1
 44
1.0
  0
MTEXT
  5
A2
330
1F
100
AcDbEntity
  8
FORMAT
100
AcDbMText
 10
829.9767730496
 20
296.5656938402
 30
0.0
 40
2.6458333333
 41
0.0
 71
     1
 72
     1
  1
6
  7
SLDTEXTSTYLE0
 73
     1
 44
1.0
  0
MTEXT
  5
A3
330
1F
100
AcDbEntity
  8
FORMAT
100
AcDbMText
 10
829.9767730496
 20
350.2056938402
 30
0.0
 40
2.6458333333
 41
0.0
 71
     1
 72
     1
  1
5
  7
SLDTEXTSTYLE0
 73
     1
 44
1.0
  0
MTEXT
  5
A4
330
1F
100
AcDbEntity
  8
FORMAT
100
AcDbMText
 10
829.9767730496
 20
401.8456938402
 30
0.0
 40
2.6458333333
 41
0.0
 71
     1
 72
     1
  1
4
  7
SLDTEXTSTYLE0
 73
     1
 44
1.0
  0
MTEXT
  5
A5
330
1F
100
AcDbEntity
  8
FORMAT
100
AcDbMText
 10
829.9767730496
 20
453.4856938402
 30
0.0
 40
2.6458333333
 41
0.0
 71
     1
 72
     1
  1
3
  7
SLDTEXTSTYLE0
 73
     1
 44
1.0
  0
MTEXT
  5
A6
330
1F
100
AcDbEntity
  8
FORMAT
100
AcDbMText
 10
829.9767730496
 20
505.1256938402
 30
0.0
 40
2.6458333333
 41
0.0
 71
     1
 72
     1
  1
2
  7
SLDTEXTSTYLE0
 73
     1
 44
1.0
  0
MTEXT
  5
A7
330
1F
100
AcDbEntity
  8
FORMAT
100
AcDbMText
 10
829.9767730496
 20
556.7656938402
 30
0.0
 40
2.6458333333
 41
0.0
 71
     1
 72
     1
  1
1
  7
SLDTEXTSTYLE0
 73
     1
 44
1.0
  0
MTEXT
  5
A8
330
1F
100
AcDbEntity
  8
FORMAT
100
AcDbMText
 10
343.1904191961
 20
584.9423147578
 30
0.0
 40
2.6458333333
 41
0.0
 71
     1
 72
     1
  1
G
  7
SLDTEXTSTYLE0
 73
     1
 44
1.0
  0
MTEXT
  5
A9
330
1F
100
AcDbEntity
  8
FORMAT
100
AcDbMText
 10
445.0704191961
 20
584.9423147578
 30
0.0
 40
2.6458333333
 41
0.0
 71
     1
 72
     1
  1
I
  7
SLDTEXTSTYLE0
 73
     1
 44
1.0
  0
MTEXT
  5
AA
330
1F
100
AcDbEntity
  8
FORMAT
100
AcDbMText
 10
750.7104191961
 20
584.9423147578
 30
0.0
 40
2.6458333333
 41
0.0
 71
     1
 72
     1
  1
O
  7
SLDTEXTSTYLE0
 73
     1
 44
1.0
  0
MTEXT
  5
AB
330
1F
100
AcDbEntity
  8
FORMAT
100
AcDbMText
 10
139.4304191961
 20
584.9423147578
 30
0.0
 40
2.6458333333
 41
0.0
 71
     1
 72
     1
  1
C
  7
SLDTEXTSTYLE0
 73
     1
 44
1.0
  0
MTEXT
  5
AC
330
1F
100
AcDbEntity
  8
FORMAT
100
AcDbMText
 10
801.6504191961
 20
584.9423147578
 30
0.0
 40
2.6458333333
 41
0.0
 71
     1
 72
     1
  1
P
  7
SLDTEXTSTYLE0
 73
     1
 44
1.0
  0
MTEXT
  5
AD
330
1F
100
AcDbEntity
  8
FORMAT
100
AcDbMText
 10
241.3104191961
 20
584.9423147578
 30
0.0
 40
2.6458333333
 41
0.0
 71
     1
 72
     1
  1
E
  7
SLDTEXTSTYLE0
 73
     1
 44
1.0
  0
MTEXT
  5
AE
330
1F
100
AcDbEntity
  8
FORMAT
100
AcDbMText
 10
546.9504191961
 20
584.9423147578
 30
0.0
 40
2.6458333333
 41
0.0
 71
     1
 72
     1
  1
K
  7
SLDTEXTSTYLE0
 73
     1
 44
1.0
  0
MTEXT
  5
AF
330
1F
100
AcDbEntity
  8
FORMAT
100
AcDbMText
 10
648.8304191961
 20
584.9423147578
 30
0.0
 40
2.6458333333
 41
0.0
 71
     1
 72
     1
  1
M
  7
SLDTEXTSTYLE0
 73
     1
 44
1.0
  0
MTEXT
  5
B0
330
1F
100
AcDbEntity
  8
FORMAT
100
AcDbMText
 10
37.5504191961
 20
584.9423147578
 30
0.0
 40
2.6458333333
 41
0.0
 71
     1
 72
     1
  1
A
  7
SLDTEXTSTYLE0
 73
     1
 44
1.0
  0
MTEXT
  5
B1
330
1F
100
AcDbEntity
  8
FORMAT
100
AcDbMText
 10
88.4904191961
 20
584.9423147578
 30
0.0
 40
2.6458333333
 41
0.0
 71
     1
 72
     1
  1
B
  7
SLDTEXTSTYLE0
 73
     1
 44
1.0
  0
MTEXT
  5
B2
330
1F
100
AcDbEntity
  8
FORMAT
100
AcDbMText
 10
190.3704191961
 20
584.9423147578
 30
0.0
 40
2.6458333333
 41
0.0
 71
     1
 72
     1
  1
D
  7
SLDTEXTSTYLE0
 73
     1
 44
1.0
  0
MTEXT
  5
B3
330
1F
100
AcDbEntity
  8
FORMAT
100
AcDbMText
 10
292.2504191961
 20
584.9423147578
 30
0.0
 40
2.6458333333
 41
0.0
 71
     1
 72
     1
  1
F
  7
SLDTEXTSTYLE0
 73
     1
 44
1.0
  0
MTEXT
  5
B4
330
1F
100
AcDbEntity
  8
FORMAT
100
AcDbMText
 10
394.1304191961
 20
584.9423147578
 30
0.0
 40
2.6458333333
 41
0.0
 71
     1
 72
     1
  1
H
  7
SLDTEXTSTYLE0
 73
     1
 44
1.0
  0
MTEXT
  5
B5
330
1F
100
AcDbEntity
  8
FORMAT
100
AcDbMText
 10
496.0104191961
 20
584.9423147578
 30
0.0
 40
2.6458333333
 41
0.0
 71
     1
 72
     1
  1
J
  7
SLDTEXTSTYLE0
 73
     1
 44
1.0
  0
MTEXT
  5
B6
330
1F
100
AcDbEntity
  8
FORMAT
100
AcDbMText
 10
597.8904191961
 20
584.9423147578
 30
0.0
 40
2.6458333333
 41
0.0
 71
     1
 72
     1
  1
L
  7
SLDTEXTSTYLE0
 73
     1
 44
1.0
  0
MTEXT
  5
B7
330
1F
100
AcDbEntity
  8
FORMAT
100
AcDbMText
 10
699.7704191961
 20
584.9423147578
 30
0.0
 40
2.6458333333
 41
0.0
 71
     1
 72
     1
  1
N
  7
SLDTEXTSTYLE0
 73
     1
 44
1.0
  0
MTEXT
  5
B8
330
1F
100
AcDbEntity
  8
FORMAT
100
AcDbMText
 10
8.9767730496
 20
556.7656938402
 30
0.0
 40
2.6458333333
 41
0.0
 71
     1
 72
     1
  1
1
  7
SLDTEXTSTYLE0
 73
     1
 44
1.0
  0
MTEXT
  5
B9
330
1F
100
AcDbEntity
  8
FORMAT
100
AcDbMText
 10
7.9767730496
 20
92.0056938402
 30
0.0
 40
2.6458333333
 41
0.0
 71
     1
 72
     1
  1
10
  7
SLDTEXTSTYLE0
 73
     1
 44
1.0
  0
MTEXT
  5
BA
330
1F
100
AcDbEntity
  8
FORMAT
100
AcDbMText
 10
8.9767730496
 20
401.8456938402
 30
0.0
 40
2.6458333333
 41
0.0
 71
     1
 72
     1
  1
4
  7
SLDTEXTSTYLE0
 73
     1
 44
1.0
  0
MTEXT
  5
BB
330
1F
100
AcDbEntity
  8
FORMAT
100
AcDbMText
 10
8.9767730496
 20
246.9256938402
 30
0.0
 40
2.6458333333
 41
0.0
 71
     1
 72
     1
  1
7
  7
SLDTEXTSTYLE0
 73
     1
 44
1.0
  0
MTEXT
  5
BC
330
1F
100
AcDbEntity
  8
FORMAT
100
AcDbMText
 10
8.9767730496
 20
505.1256938402
 30
0.0
 40
2.6458333333
 41
0.0
 71
     1
 72
     1
  1
2
  7
SLDTEXTSTYLE0
 73
     1
 44
1.0
  0
MTEXT
  5
BD
330
1F
100
AcDbEntity
  8
FORMAT
100
AcDbMText
 10
7.9767730496
 20
40.3656938402
 30
0.0
 40
2.6458333333
 41
0.0
 71
     1
 72
     1
  1
11
  7
SLDTEXTSTYLE0
 73
     1
 44
1.0
  0
MTEXT
  5
BE
330
1F
100
AcDbEntity
  8
FORMAT
100
AcDbMText
 10
8.9767730496
 20
195.2856938402
 30
0.0
 40
2.6458333333
 41
0.0
 71
     1
 72
     1
  1
8
  7
SLDTEXTSTYLE0
 73
     1
 44
1.0
  0
MTEXT
  5
BF
330
1F
100
AcDbEntity
  8
FORMAT
100
AcDbMText
 10
8.9767730496
 20
350.2056938402
 30
0.0
 40
2.6458333333
 41
0.0
 71
     1
 72
     1
  1
5
  7
SLDTEXTSTYLE0
 73
     1
 44
1.0
  0
MTEXT
  5
C0
330
1F
100
AcDbEntity
  8
FORMAT
100
AcDbMText
 10
8.9767730496
 20
143.6456938402
 30
0.0
 40
2.6458333333
 41
0.0
 71
     1
 72
     1
  1
9
  7
SLDTEXTSTYLE0
 73
     1
 44
1.0
  0
MTEXT
  5
C1
330
1F
100
AcDbEntity
  8
FORMAT
100
AcDbMText
 10
8.9767730496
 20
296.5656938402
 30
0.0
 40
2.6458333333
 41
0.0
 71
     1
 72
     1
  1
6
  7
SLDTEXTSTYLE0
 73
     1
 44
1.0
  0
MTEXT
  5
C2
330
1F
100
AcDbEntity
  8
FORMAT
100
AcDbMText
 10
8.9767730496
 20
453.4856938402
 30
0.0
 40
2.6458333333
 41
0.0
 71
     1
 72
     1
  1
3
  7
SLDTEXTSTYLE0
 73
     1
 44
1.0
  0
LINE
  5
C3
330
1F
100
AcDbEntity
  8
0
  6
Continuous
 62
     7
370
    15
100
AcDbLine
 10
-381.7145202291
 20
132.6421282694
 30
0.0
 11
-360.214513911
 21
132.6421282694
 31
0.0
  0
LINE
  5
C4
330
1F
100
AcDbEntity
  8
0
  6
Continuous
 62
     7
370
    15
100
AcDbLine
 10
-360.214513911
 20
652.6421091959
 30
0.0
 11
-381.7145202291
 21
652.6421091959
 31
0.0
  0
LINE
  5
C5
330
1F
100
AcDbEntity
  8
0
  6
Continuous
 62
     7
370
    15
100
AcDbLine
 10
412.2854795325
 20
652.6421091959
 30
0.0
 11
390.7854881155
 21
652.6421091959
 31
0.0
  0
LINE
  5
C6
330
1F
100
AcDbEntity
  8
0
  6
Continuous
 62
     7
370
    15
100
AcDbLine
 10
390.7854881155
 20
132.6421282694
 30
0.0
 11
412.2854795325
 21
132.6421282694
 31
0.0
  0
LINE
  5
C7
330
1F
100
AcDbEntity
  8
0
  6
Continuous
 62
     7
370
    15
100
AcDbLine
 10
-3.0885759723
 20
927.9219291613
 30
0.0
 11
-5.7553771865
 21
924.9319217608
 31
0.0
  0
LINE
  5
C8
330
1F
100
AcDbEntity
  8
0
  6
Continuous
 62
     7
370
    15
100
AcDbLine
 10
-72.3850402963
 20
852.9686413214
 30
0.0
 11
-295.9779698384
 21
629.3757043287
 31
0.0
  0
ARC
  5
C9
330
1F
100
AcDbEntity
  8
0
  6
Continuous
 62
     7
370
    15
100
AcDbCircle
 10
-279.7145137918
 20
176.6421187327
 30
0.0
 40
23.00000000000006
100
AcDbArc
 50
180.0
 51
270.0
  0
LINE
  5
CA
330
1F
100
AcDbEntity
  8
0
  6
Continuous
 62
     7
370
    15
100
AcDbLine
 10
-279.7145146859
 20
153.6421261236
 30
0.0
 11
-214.1288660449
 21
153.6421261236
 31
0.0
  0
ARC
  5
CB
330
1F
100
AcDbEntity
  8
0
  6
Continuous
 62
     7
370
    15
100
AcDbCircle
 10
-279.7145137918
 20
613.1122482052
 30
0.0
 40
23.00000000000006
100
AcDbArc
 50
135.0256046353
 51
180.0
  0
ARC
  5
CC
330
1F
100
AcDbEntity
  8
0
  6
Continuous
 62
     7
370
    15
100
AcDbCircle
 10
129.8474987728
 20
717.2041312973
 30
0.0
 40
239.0000000000001
100
AcDbArc
 50
13.6059827672
 51
76.3940172328
  0
LINE
  5
CD
330
1F
100
AcDbEntity
  8
0
  6
Continuous
 62
     7
370
    15
100
AcDbLine
 10
412.2854795325
 20
176.1421195671
 30
0.0
 11
415.2855005133
 21
179.1421256468
 31
0.0
  0
LINE
  5
CE
330
1F
100
AcDbEntity
  8
0
  6
Continuous
 62
     7
370
    15
100
AcDbLine
 10
415.2855005133
 20
606.1421118185
 30
0.0
 11
412.2854795325
 21
609.1421178982
 31
0.0
  0
LINE
  5
CF
330
1F
100
AcDbEntity
  8
0
  6
Continuous
 62
     7
370
    15
100
AcDbLine
 10
-381.7145202291
 20
609.1421178982
 30
0.0
 11
-384.7145114076
 21
606.1421118185
 31
0.0
  0
LINE
  5
D0
330
1F
100
AcDbEntity
  8
0
  6
Continuous
 62
     7
370
    15
100
AcDbLine
 10
-384.7145114076
 20
179.1421256468
 30
0.0
 11
-381.7145202291
 21
176.1421195671
 31
0.0
  0
ARC
  5
D1
330
1F
100
AcDbEntity
  8
0
  6
Continuous
 62
     7
370
    15
100
AcDbCircle
 10
-351.2145137918
 20
596.6421187327
 30
0.0
 40
9.000000000000114
100
AcDbArc
 50
180.0
 51
270.0
  0
ARC
  5
D2
330
1F
100
AcDbEntity
  8
0
  6
Continuous
 62
     7
370
    15
100
AcDbCircle
 10
-351.2145137918
 20
188.6421187327
 30
0.0
 40
9.000000000000057
100
AcDbArc
 50
90.0
 51
180.0
  0
ARC
  5
D3
330
1F
100
AcDbEntity
  8
0
  6
Continuous
 62
     7
370
    15
100
AcDbCircle
 10
-311.7145137918
 20
188.6421187327
 30
0.0
 40
9.0
100
AcDbArc
 50
0.0
 51
90.0
  0
ARC
  5
D4
330
1F
100
AcDbEntity
  8
0
  6
Continuous
 62
     7
370
    15
100
AcDbCircle
 10
381.7854862082
 20
192.6421187327
 30
0.0
 40
9.0
100
AcDbArc
 50
0.0
 51
90.0
  0
ARC
  5
D5
330
1F
100
AcDbEntity
  8
0
  6
Continuous
 62
     7
370
    15
100
AcDbCircle
 10
381.7854862082
 20
592.6421187327
 30
0.0
 40
9.000000000000114
100
AcDbArc
 50
270.0
 51
0.0
  0
LINE
  5
D6
330
1F
100
AcDbEntity
  8
0
  6
Continuous
 62
     7
370
    15
100
AcDbLine
 10
-311.7145124805
 20
587.6421115801
 30
0.0
 11
-351.2145105732
 21
587.6421115801
 31
0.0
  0
LINE
  5
D7
330
1F
100
AcDbEntity
  8
0
  6
Continuous
 62
     7
370
    15
100
AcDbLine
 10
-351.2145105732
 20
197.6421258852
 30
0.0
 11
-311.7145124805
 21
197.6421258852
 31
0.0
  0
LINE
  5
D8
330
1F
100
AcDbEntity
  8
0
  6
Continuous
 62
     7
370
    15
100
AcDbLine
 10
381.7854847777
 20
583.642118375
 30
0.0
 11
369.6378793585
 21
583.642118375
 31
0.0
  0
LINE
  5
D9
330
1F
100
AcDbEntity
  8
0
  6
Continuous
 62
     7
370
    15
100
AcDbLine
 10
-47.7174643409
 20
201.6421190903
 30
0.0
 11
381.7854847777
 21
201.6421190903
 31
0.0
  0
ARC
  5
DA
330
1F
100
AcDbEntity
  8
0
  6
Continuous
 62
     7
370
    15
100
AcDbCircle
 10
129.8474987728
 20
717.2041312973
 30
0.0
 40
239.0
100
AcDbArc
 50
337.2438444873
 51
0.0
  0
ARC
  5
DB
330
1F
100
AcDbEntity
  8
0
  6
Continuous
 62
     7
370
    15
100
AcDbCircle
 10
129.8474987728
 20
717.2041312973
 30
0.0
 40
239.0
100
AcDbArc
 50
0.0
 51
10.4624929198
  0
ARC
  5
DC
330
1F
100
AcDbEntity
  8
0
  6
Continuous
 62
     7
370
    15
100
AcDbCircle
 10
129.8474987728
 20
717.2041312973
 30
0.0
 40
239.0000000000001
100
AcDbArc
 50
79.5375070802
 51
112.7561555127
  0
ARC
  5
DD
330
1F
100
AcDbEntity
  8
0
  6
Continuous
 62
     7
370
    15
100
AcDbCircle
 10
-311.7145137918
 20
596.6421187327
 30
0.0
 40
9.000000000000114
100
AcDbArc
 50
270.0
 51
0.0
  0
LINE
  5
DE
330
1F
100
AcDbEntity
  8
0
  6
Continuous
 62
     7
370
    15
100
AcDbLine
 10
130.0646688807
 20
763.656028311
 30
0.0
 11
142.8183343279
 21
776.3581953451
 31
0.0
  0
LINE
  5
DF
330
1F
100
AcDbEntity
  8
0
  6
Continuous
 62
     7
370
    15
100
AcDbLine
 10
143.9896252024
 20
775.1868746683
 30
0.0
 11
142.8183343279
 21
776.3581953451
 31
0.0
  0
LINE
  5
E0
330
1F
100
AcDbEntity
  8
0
  6
Continuous
 62
     7
370
    15
100
AcDbLine
 10
131.2617089617
 20
762.4589584276
 30
0.0
 11
143.9896252024
 21
775.1868746683
 31
0.0
  0
LINE
  5
E1
330
1F
100
AcDbEntity
  8
0
  6
Continuous
 62
     7
370
    15
100
AcDbLine
 10
131.2617089617
 20
762.4589584276
 30
0.0
 11
130.0646688807
 21
763.656028311
 31
0.0
  0
LINE
  5
E2
330
1F
100
AcDbEntity
  8
0
  6
Continuous
 62
     7
370
    15
100
AcDbLine
 10
145.0502898562
 20
748.6703775332
 30
0.0
 11
157.7782060969
 21
761.3982937739
 31
0.0
  0
LINE
  5
E3
330
1F
100
AcDbEntity
  8
0
  6
Continuous
 62
     7
370
    15
100
AcDbLine
 10
131.6152539122
 20
762.1054134771
 30
0.0
 11
142.2218706477
 21
751.4987967417
 31
0.0
  0
LINE
  5
E4
330
1F
100
AcDbEntity
  8
0
  6
Continuous
 62
     7
370
    15
100
AcDbLine
 10
157.7782060969
 20
761.3982937739
 30
0.0
 11
143.9896252024
 21
775.1868746683
 31
0.0
  0
LINE
  5
E5
330
1F
100
AcDbEntity
  8
0
  6
Continuous
 62
     7
370
    15
100
AcDbLine
 10
145.0502898562
 20
748.6703775332
 30
0.0
 11
142.2218706477
 21
751.4987967417
 31
0.0
  0
LINE
  5
E6
330
1F
100
AcDbEntity
  8
0
  6
Continuous
 62
     7
370
    15
100
AcDbLine
 10
131.6152539122
 20
762.1054134771
 30
0.0
 11
131.2617089617
 21
762.4589584276
 31
0.0
  0
LINE
  5
E7
330
1F
100
AcDbEntity
  8
0
  6
Continuous
 62
     7
370
    15
100
AcDbLine
 10
75.0467207301
 20
705.536880295
 30
0.0
 11
85.6533374655
 21
694.9302635595
 31
0.0
  0
LINE
  5
E8
330
1F
100
AcDbEntity
  8
0
  6
Continuous
 62
     7
370
    15
100
AcDbLine
 10
131.6152539122
 20
762.1054134771
 30
0.0
 11
75.0467207301
 21
705.536880295
 31
0.0
  0
LINE
  5
E9
330
1F
100
AcDbEntity
  8
0
  6
Continuous
 62
     7
370
    15
100
AcDbLine
 10
142.2218706477
 20
751.4987967417
 30
0.0
 11
85.6533374655
 21
694.9302635595
 31
0.0
  0
LINE
  5
EA
330
1F
100
AcDbEntity
  8
0
  6
Continuous
 62
     7
370
    15
100
AcDbLine
 10
175.1023259032
 20
718.6183414862
 30
0.0
 11
187.8302421439
 21
731.3462577269
 31
0.0
  0
LINE
  5
EB
330
1F
100
AcDbEntity
  8
0
  6
Continuous
 62
     7
370
    15
100
AcDbLine
 10
175.1023259032
 20
718.6183414862
 30
0.0
 11
174.7487809527
 21
718.9718864367
 31
0.0
  0
LINE
  5
EC
330
1F
100
AcDbEntity
  8
0
  6
Continuous
 62
     7
370
    15
100
AcDbLine
 10
174.7487809527
 20
718.9718864367
 30
0.0
 11
164.1421642172
 21
729.5785031721
 31
0.0
  0
LINE
  5
ED
330
1F
100
AcDbEntity
  8
0
  6
Continuous
 62
     7
370
    15
100
AcDbLine
 10
187.8302421439
 20
731.3462577269
 30
0.0
 11
174.0416612494
 21
745.1348386213
 31
0.0
  0
LINE
  5
EE
330
1F
100
AcDbEntity
  8
0
  6
Continuous
 62
     7
370
    15
100
AcDbLine
 10
161.3137450087
 20
732.4069223807
 30
0.0
 11
174.0416612494
 21
745.1348386213
 31
0.0
  0
LINE
  5
EF
330
1F
100
AcDbEntity
  8
0
  6
Continuous
 62
     7
370
    15
100
AcDbLine
 10
164.1421642172
 20
729.5785031721
 30
0.0
 11
161.3137450087
 21
732.4069223807
 31
0.0
  0
LINE
  5
F0
330
1F
100
AcDbEntity
  8
0
  6
Continuous
 62
     7
370
    15
100
AcDbLine
 10
189.0015628207
 20
730.1749668524
 30
0.0
 11
176.2993957865
 21
717.4213014052
 31
0.0
  0
LINE
  5
F1
330
1F
100
AcDbEntity
  8
0
  6
Continuous
 62
     7
370
    15
100
AcDbLine
 10
176.2993957865
 20
717.4213014052
 30
0.0
 11
175.1023259032
 21
718.6183414862
 31
0.0
  0
LINE
  5
F2
330
1F
100
AcDbEntity
  8
0
  6
Continuous
 62
     7
370
    15
100
AcDbLine
 10
189.0015628207
 20
730.1749668524
 30
0.0
 11
187.8302421439
 21
731.3462577269
 31
0.0
  0
LINE
  5
F3
330
1F
100
AcDbEntity
  8
0
  6
Continuous
 62
     7
370
    15
100
AcDbLine
 10
174.7487809527
 20
718.9718864367
 30
0.0
 11
118.1802477705
 21
662.4033532545
 31
0.0
  0
LINE
  5
F4
330
1F
100
AcDbEntity
  8
0
  6
Continuous
 62
     7
370
    15
100
AcDbLine
 10
118.1802477705
 20
662.4033532545
 30
0.0
 11
107.5736310351
 21
673.00996999
 31
0.0
  0
LINE
  5
F5
330
1F
100
AcDbEntity
  8
0
  6
Continuous
 62
     7
370
    15
100
AcDbLine
 10
164.1421642172
 20
729.5785031721
 30
0.0
 11
107.5736310351
 21
673.00996999
 31
0.0
  0
LINE
  5
F6
330
1F
100
AcDbEntity
  8
0
  6
Continuous
 62
     7
370
    15
100
AcDbLine
 10
146.8180742133
 20
778.0153236792
 30
0.0
 11
166.1941137183
 21
797.3913631842
 31
0.0
  0
LINE
  5
F7
330
1F
100
AcDbEntity
  8
0
  6
Continuous
 62
     7
370
    15
100
AcDbLine
 10
210.0347306597
 20
753.5507462427
 30
0.0
 11
166.1941137183
 21
797.3913631842
 31
0.0
  0
LINE
  5
F8
330
1F
100
AcDbEntity
  8
0
  6
Continuous
 62
     7
370
    15
100
AcDbLine
 10
190.6586911547
 20
734.1747067377
 30
0.0
 11
210.0347306597
 21
753.5507462427
 31
0.0
  0
LINE
  5
F9
330
1F
100
AcDbEntity
  8
0
  6
Continuous
 62
     7
370
    15
100
AcDbLine
 10
190.6586911547
 20
734.1747067377
 30
0.0
 11
146.8180742133
 21
778.0153236792
 31
0.0
  0
LWPOLYLINE
  5
FA
330
1F
100
AcDbEntity
  8
0
  6
Continuous
 62
     7
370
    15
100
AcDbPolyline
 90
       43
 70
   128
 43
0.0
 10
174.0416612494
 20
745.1348386213
 10
174.0189220774
 20
745.1575777933
 10
173.9508535731
 20
745.2256761
 10
173.8377835619
 20
745.3387163088
 10
173.6803974974
 20
745.4961321756
 10
173.4795596468
 20
745.6969700262
 10
173.2363726961
 20
745.9401569769
 10
172.9522373545
 20
746.2242923185
 10
172.6287033427
 20
746.5478263304
 10
172.2675886023
 20
746.9089410708
 10
171.8709196913
 20
747.3056099817
 10
171.4409317839
 20
747.7355978891
 10
170.9799792635
 20
748.1965206072
 10
170.4907145369
 20
748.6858151362
 10
169.975819813
 20
749.2007098601
 10
169.4381561148
 20
749.7383437559
 10
168.8807930815
 20
750.2957365915
 10
168.3068003523
 20
750.8696995184
 10
167.7194263804
 20
751.4571032927
 10
167.1219196188
 20
752.0546100542
 10
166.5176179278
 20
752.658881943
 10
165.9099485743
 20
753.2665810988
 10
165.3022494185
 20
753.8742504522
 10
164.6979775298
 20
754.4785521433
 10
164.1004707682
 20
755.0760589049
 10
163.5130669939
 20
755.6634328768
 10
162.9391040671
 20
756.237425606
 10
162.3817112315
 20
756.7947886393
 10
161.8440773356
 20
757.3324523375
 10
161.3291826117
 20
757.8473470614
 10
160.8398880827
 20
758.336611788
 10
160.3789653647
 20
758.7975643084
 10
159.9489774573
 20
759.2275522158
 10
159.5523085463
 20
759.6242211268
 10
159.1911938059
 20
759.9853358671
 10
158.8676597941
 20
760.308869879
 10
158.5835244524
 20
760.5930052206
 10
158.3403375018
 20
760.8361921713
 10
158.1394996512
 20
761.0370300219
 10
157.9820837843
 20
761.1944160864
 10
157.8690435755
 20
761.3074860975
 10
157.8009452689
 20
761.3755546019
 10
157.7782060969
 20
761.3982937739
  0
LWPOLYLINE
  5
FB
330
1F
100
AcDbEntity
  8
0
  6
Continuous
 62
     7
370
    15
100
AcDbPolyline
 90
       43
 70
   128
 43
0.0
 10
161.3137450087
 20
732.4069223807
 10
161.2910058367
 20
732.4296615526
 10
161.2229373324
 20
732.4977598593
 10
161.1098673212
 20
732.6108000681
 10
160.9524812567
 20
732.7681861326
 10
160.7516434061
 20
732.9690537855
 10
160.5084564555
 20
733.2122109339
 10
160.2242913115
 20
733.4963760779
 10
159.9007572997
 20
733.8199100897
 10
159.5396723616
 20
734.1810248301
 10
159.1430034506
 20
734.5776639387
 10
158.7130155432
 20
735.0076816485
 10
158.2520630228
 20
735.4686043665
 10
157.7627982962
 20
735.9578988955
 10
157.24787377
 20
736.4727936194
 10
156.7102398741
 20
737.0104275152
 10
156.1528768408
 20
737.5677905485
 10
155.5788841116
 20
738.1417832777
 10
154.9915101397
 20
738.729187052
 10
154.3940033781
 20
739.3266938135
 10
153.7897016871
 20
739.9309657023
 10
153.1820323336
 20
740.5386648581
 10
152.5743331778
 20
741.1463342116
 10
151.9700612891
 20
741.7506359026
 10
151.3725545275
 20
742.3481426642
 10
150.7851507532
 20
742.9355166361
 10
150.2111580241
 20
743.5095093653
 10
149.6537949908
 20
744.0668723986
 10
149.1161610949
 20
744.6045062945
 10
148.601266371
 20
745.1194308207
 10
148.111971842
 20
745.6086955473
 10
147.651049124
 20
746.0696480677
 10
147.2210314143
 20
746.4996359751
 10
146.8243923056
 20
746.8963048861
 10
146.4632775652
 20
747.2573898241
 10
146.1397435534
 20
747.580923836
 10
145.8555784094
 20
747.8650889799
 10
145.6124212611
 20
748.1082759306
 10
145.4115536082
 20
748.3091137812
 10
145.2541675436
 20
748.4664998457
 10
145.1411273348
 20
748.5795698568
 10
145.0730290282
 20
748.6476383612
 10
145.0502898562
 20
748.6703775332
  0
LINE
  5
FC
330
1F
100
AcDbEntity
  8
0
  6
Continuous
 62
     7
370
    15
100
AcDbLine
 10
390.7854881155
 20
392.6421187327
 30
0.0
 11
412.2854795325
 21
392.6421187327
 31
0.0
  0
LINE
  5
FD
330
1F
100
AcDbEntity
  8
0
  6
Continuous
 62
     7
370
    15
100
AcDbLine
 10
412.2854795325
 20
392.6421187327
 30
0.0
 11
412.2854795325
 21
387.6892968521
 31
0.0
  0
LINE
  5
FE
330
1F
100
AcDbEntity
  8
0
  6
Continuous
 62
     7
370
    15
100
AcDbLine
 10
412.2854795325
 20
387.6892968521
 30
0.0
 11
390.7854881155
 21
387.6892968521
 31
0.0
  0
LINE
  5
FF
330
1F
100
AcDbEntity
  8
0
  6
Continuous
 62
     7
370
    15
100
AcDbLine
 10
390.7854881155
 20
387.6892968521
 30
0.0
 11
390.7854881155
 21
392.6421187327
 31
0.0
  0
LINE
  5
100
330
1F
100
AcDbEntity
  8
0
  6
Continuous
 62
     7
370
    15
100
AcDbLine
 10
-381.7145202291
 20
387.6892968521
 30
0.0
 11
-381.7145202291
 21
132.6421282694
 31
0.0
  0
LINE
  5
101
330
1F
100
AcDbEntity
  8
0
  6
Continuous
 62
     7
370
    15
100
AcDbLine
 10
-360.214513911
 20
387.6892968521
 30
0.0
 11
-381.7145202291
 21
387.6892968521
 31
0.0
  0
LINE
  5
102
330
1F
100
AcDbEntity
  8
0
  6
Continuous
 62
     7
370
    15
100
AcDbLine
 10
-360.214513911
 20
387.6892968521
 30
0.0
 11
-360.214513911
 21
132.6421282694
 31
0.0
  0
LINE
  5
103
330
1F
100
AcDbEntity
  8
0
  6
Continuous
 62
     7
370
    15
100
AcDbLine
 10
-381.7145202291
 20
387.6892968521
 30
0.0
 11
-381.7145202291
 21
392.6421187327
 31
0.0
  0
LINE
  5
104
330
1F
100
AcDbEntity
  8
0
  6
Continuous
 62
     7
370
    15
100
AcDbLine
 10
-381.7145202291
 20
392.6421187327
 30
0.0
 11
-360.214513911
 21
392.6421187327
 31
0.0
  0
LINE
  5
105
330
1F
100
AcDbEntity
  8
0
  6
Continuous
 62
     7
370
    15
100
AcDbLine
 10
-360.214513911
 20
392.6421187327
 30
0.0
 11
-360.214513911
 21
387.6892968521
 31
0.0
  0
LINE
  5
106
330
1F
100
AcDbEntity
  8
0
  6
Continuous
 62
     7
370
    15
100
AcDbLine
 10
-381.7145202291
 20
392.6421187327
 30
0.0
 11
-381.7145202291
 21
397.5949406132
 31
0.0
  0
LINE
  5
107
330
1F
100
AcDbEntity
  8
0
  6
Continuous
 62
     7
370
    15
100
AcDbLine
 10
-381.7145202291
 20
397.5949406132
 30
0.0
 11
-360.214513911
 21
397.5949406132
 31
0.0
  0
LINE
  5
108
330
1F
100
AcDbEntity
  8
0
  6
Continuous
 62
     7
370
    15
100
AcDbLine
 10
-360.214513911
 20
397.5949406132
 30
0.0
 11
-360.214513911
 21
392.6421187327
 31
0.0
  0
LINE
  5
109
330
1F
100
AcDbEntity
  8
0
  6
Continuous
 62
     7
370
    15
100
AcDbLine
 10
-360.214513911
 20
652.6421091959
 30
0.0
 11
-360.214513911
 21
397.5949406132
 31
0.0
  0
LINE
  5
10A
330
1F
100
AcDbEntity
  8
0
  6
Continuous
 62
     7
370
    15
100
AcDbLine
 10
-381.7145202291
 20
652.6421091959
 30
0.0
 11
-381.7145202291
 21
397.5949406132
 31
0.0
  0
LINE
  5
10B
330
1F
100
AcDbEntity
  8
0
  6
Continuous
 62
     7
370
    15
100
AcDbLine
 10
412.2854795325
 20
652.6421091959
 30
0.0
 11
412.2854795325
 21
397.5949406132
 31
0.0
  0
LINE
  5
10C
330
1F
100
AcDbEntity
  8
0
  6
Continuous
 62
     7
370
    15
100
AcDbLine
 10
390.7854881155
 20
397.5949406132
 30
0.0
 11
412.2854795325
 21
397.5949406132
 31
0.0
  0
LINE
  5
10D
330
1F
100
AcDbEntity
  8
0
  6
Continuous
 62
     7
370
    15
100
AcDbLine
 10
390.7854881155
 20
652.6421091959
 30
0.0
 11
390.7854881155
 21
397.5949406132
 31
0.0
  0
LINE
  5
10E
330
1F
100
AcDbEntity
  8
0
  6
Continuous
 62
     7
370
    15
100
AcDbLine
 10
390.7854881155
 20
387.6892968521
 30
0.0
 11
390.7854881155
 21
132.6421282694
 31
0.0
  0
LINE
  5
10F
330
1F
100
AcDbEntity
  8
0
  6
Continuous
 62
     7
370
    15
100
AcDbLine
 10
412.2854795325
 20
387.6892968521
 30
0.0
 11
412.2854795325
 21
132.6421282694
 31
0.0
  0
LINE
  5
110
330
1F
100
AcDbEntity
  8
0
  6
Continuous
 62
     7
370
    15
100
AcDbLine
 10
412.2854795325
 20
397.5949406132
 30
0.0
 11
412.2854795325
 21
392.6421187327
 31
0.0
  0
LINE
  5
111
330
1F
100
AcDbEntity
  8
0
  6
Continuous
 62
     7
370
    15
100
AcDbLine
 10
390.7854881155
 20
392.6421187327
 30
0.0
 11
390.7854881155
 21
397.5949406132
 31
0.0
  0
ARC
  5
112
330
1F
100
AcDbEntity
  8
0
  6
Continuous
 62
     7
370
    15
100
AcDbCircle
 10
-214.1288662839
 20
275.6421187327
 30
0.0
 40
122.0
100
AcDbArc
 50
270.0
 51
288.0837856525
  0
LINE
  5
113
330
1F
100
AcDbEntity
  8
0
  6
Continuous
 62
     7
370
    15
100
AcDbLine
 10
-194.7145137918
 20
392.6421187327
 30
0.0
 11
-194.7145137918
 21
382.2298634306
 31
0.0
  0
SPLINE
  5
114
330
1F
100
AcDbEntity
  8
0
  6
Continuous
 62
     7
370
    15
100
AcDbSpline
210
0.0
220
0.0
230
1.0
 70
     8
 71
     3
 72
    30
 73
    26
 74
     0
 42
0.00000001
 43
0.00000001
 12
1.0
 22
0.0
 32
0.0
 13
1.0
 23
0.0
 33
0.0
 40
0.0
 40
0.0
 40
0.0
 40
0.0
 40
0.2500000000000001
 40
0.2500000000000001
 40
0.5000000000000002
 40
0.5000000000000002
 40
0.6250000000000002
 40
0.6250000000000002
 40
0.7500000000000003
 40
0.7500000000000003
 40
0.8125000000000002
 40
0.8125000000000002
 40
0.8750000000000001
 40
0.8750000000000001
 40
0.9062500000000001
 40
0.9062500000000001
 40
0.9375000000000001
 40
0.9375000000000001
 40
0.9687500000000001
 40
0.9687500000000001
 40
0.9843750000000001
 40
0.9843750000000001
 40
0.9921875000000001
 40
0.9921875000000001
 40
1.0
 40
1.0
 40
1.0
 40
1.0
 10
-156.5591495045359
 20
338.3823251729566
 30
0.0
 10
-159.92233760478
 20
342.6380395458615
 30
0.0
 10
-163.3046191175294
 20
346.9302223049051
 30
0.0
 10
-170.102161622145
 20
355.5907399600234
 30
0.0
 10
-173.5171482882172
 20
359.9609761277582
 30
0.0
 10
-178.630924200801
 20
366.5950710599782
 30
0.0
 10
-180.3315999303873
 20
368.8157165769027
 30
0.0
 10
-183.7079843584282
 20
373.2884396291258
 30
0.0
 10
-185.3851021824685
 20
375.5402158535362
 30
0.0
 10
-187.8432128924681
 20
378.9683019251089
 30
0.0
 10
-188.6522926320112
 20
380.118725663087
 30
0.0
 10
-190.2311290435127
 20
382.4477318230944
 30
0.0
 10
-191.0025495134777
 20
383.6263805825768
 30
0.0
 10
-192.0938210454981
 20
385.436193029608
 30
0.0
 10
-192.4459115550164
 20
386.0459098561687
 30
0.0
 10
-193.1121825234421
 20
387.2861809724195
 30
0.0
 10
-193.4271249278712
 20
387.9173775899419
 30
0.0
 10
-193.9893078496907
 20
389.2119488043688
 30
0.0
 10
-194.2365976166952
 20
389.8743031222403
 30
0.0
 10
-194.5092961736553
 20
390.8962903009148
 30
0.0
 10
-194.5835057143429
 20
391.2423279093416
 30
0.0
 10
-194.6603514109825
 20
391.7639075937609
 30
0.0
 10
-194.6802860002081
 20
391.9384533548265
 30
0.0
 10
-194.7073680374769
 20
392.2890886014098
 30
0.0
 10
-194.7144912344207
 20
392.4664027964188
 30
0.0
 10
-194.714513791811
 20
392.6421187326566
 30
0.0
  0
LWPOLYLINE
  5
115
330
1F
100
AcDbEntity
  8
0
  6
Continuous
 62
     7
370
    15
100
AcDbPolyline
 90
        3
 70
   128
 43
0.0
 10
-47.7174792421
 20
201.6421190903
 10
-121.215996517
 20
177.6421151564
 10
-176.259159295
 20
159.668483536
  0
LWPOLYLINE
  5
116
330
1F
100
AcDbEntity
  8
0
  6
Continuous
 62
     7
370
    15
100
AcDbPolyline
 90
       54
 70
   128
 43
0.0
 10
26.5428748
 20
898.2904932902
 10
28.1021770108
 20
896.7311761782
 10
29.69739102
 20
895.1359770701
 10
31.3280995953
 20
893.5052535936
 10
32.993885504
 20
891.8394825861
 10
34.6943166125
 20
890.1390514776
 10
36.4289756882
 20
888.4044073031
 10
38.1974007952
 20
886.6359672949
 10
39.9991597998
 20
884.8342082903
 10
41.8337758648
 20
882.9996071264
 10
43.7008019555
 20
881.1325810358
 10
45.5997314322
 20
879.2336366579
 10
47.530102359
 20
877.3032806322
 10
49.4914080965
 20
875.3419599936
 10
51.4831569064
 20
873.3502111838
 10
53.504842149
 20
871.3285408423
 10
55.5559422839
 20
869.2774258062
 10
57.6359357703
 20
867.1974323198
 10
59.7443010676
 20
865.0890968248
 10
61.8804719317
 20
862.9528961584
 10
64.0439119208
 20
860.7894561693
 10
66.2341143954
 20
858.5992834971
 10
68.4504535067
 20
856.3829145834
 10
70.692392813
 20
854.1409752772
 10
72.9593958723
 20
851.8740020201
 10
75.2508070338
 20
849.5825610563
 10
77.5661196577
 20
847.2672782347
 10
79.9046780932
 20
844.9286899969
 10
82.265916096
 20
842.5674519941
 10
84.6492376196
 20
840.1841304705
 10
87.0540168154
 20
837.7793512747
 10
89.4796576369
 20
835.3537104532
 10
91.9255342352
 20
832.9078338549
 10
94.3910207617
 20
830.4423473284
 10
96.8754913676
 20
827.9579065249
 10
99.3782904017
 20
825.4551074907
 10
101.8987920153
 20
822.9345760748
 10
104.4363703596
 20
820.3970275328
 10
106.9903399813
 20
817.8430281088
 10
109.5601048338
 20
815.2732632563
 10
112.1449496615
 20
812.6884184286
 10
114.7442486155
 20
810.0891194746
 10
117.3573460448
 20
807.4760220453
 10
119.9835564959
 20
804.8498115942
 10
122.6221945155
 20
802.2111735747
 10
125.2726342547
 20
799.5607636377
 10
127.9341306555
 20
796.8992374346
 10
130.6060876715
 20
794.2273102209
 10
133.2877304423
 20
791.5456376478
 10
135.9784629214
 20
788.8549051687
 10
138.6775400507
 20
786.1558280394
 10
141.3843061793
 20
783.4490917132
 10
144.0980460513
 20
780.7353518412
 10
146.8180742133
 20
778.0153236792
  0
LWPOLYLINE
  5
117
330
1F
100
AcDbEntity
  8
0
  6
Continuous
 62
     7
370
    15
100
AcDbPolyline
 90
       54
 70
   128
 43
0.0
 10
190.6586911547
 20
734.1747067377
 10
193.3787193167
 20
731.4546785757
 10
196.0924591887
 20
728.7409387037
 10
198.7991955149
 20
726.0341725752
 10
201.4982726443
 20
723.3350954458
 10
204.1890051234
 20
720.6443629667
 10
206.8706776965
 20
717.962720196
 10
209.5426049101
 20
715.29076318
 10
212.2041311133
 20
712.6292667791
 10
214.8545410502
 20
709.9788270399
 10
217.4931790697
 20
707.3401890204
 10
220.1193895209
 20
704.7139785692
 10
222.7324869501
 20
702.10088114
 10
225.3317859042
 20
699.5015821859
 10
227.9166307318
 20
696.9167373583
 10
230.4863955843
 20
694.3469725058
 10
233.0403950083
 20
691.7930028841
 10
235.5779435503
 20
689.2554245398
 10
238.0984749663
 20
686.7349229262
 10
240.6012740004
 20
684.232123892
 10
243.0857148039
 20
681.7476532862
 10
245.5512013304
 20
679.2821667597
 10
247.9970779288
 20
676.8362901613
 10
250.4227187502
 20
674.4106493399
 10
252.827497946
 20
672.0058701441
 10
255.2108194697
 20
669.6225486204
 10
257.5720574725
 20
667.2613106177
 10
259.9106457102
 20
664.9227521822
 10
262.2259285319
 20
662.6074395582
 10
264.5173694956
 20
660.3160283968
 10
266.7843427527
 20
658.0490253374
 10
269.0262820589
 20
655.8070860312
 10
271.2426509726
 20
653.5907469198
 10
273.4328236449
 20
651.4005444452
 10
275.596263634
 20
649.2371044562
 10
277.7324643004
 20
647.100933592
 10
279.8407997954
 20
644.9925682947
 10
281.9207932818
 20
642.9125748083
 10
283.9719083178
 20
640.8614746735
 10
285.9935786593
 20
638.8397894308
 10
287.9853274691
 20
636.848040621
 10
289.9466481078
 20
634.8867348835
 10
291.8770041335
 20
632.9563639567
 10
293.7759485114
 20
631.0574344799
 10
295.642974602
 20
629.1904083893
 10
297.4775757658
 20
627.3557923243
 10
299.2793347704
 20
625.5540333197
 10
301.0477747786
 20
623.7856082127
 10
302.7824189532
 20
622.0509491369
 10
304.4828500616
 20
620.3505180285
 10
306.1486210692
 20
618.6847321198
 10
307.7793445456
 20
617.0540235445
 10
309.3745436537
 20
615.4588095352
 10
310.9338607657
 20
613.8995073244
  0
ELLIPSE
  5
118
330
1F
100
AcDbEntity
  8
0
  6
Continuous
 62
     7
370
    15
100
AcDbEllipse
 10
147.1705416107
 20
734.5271741351
 30
0.0
 11
170.5923685004233
 21
-170.5923685004201
 31
0.0
210
0.0
220
0.0
230
1.0
 40
0.0874897569
 41
0.581550104903471
 42
0.5853122036720797
  0
ELLIPSE
  5
119
330
1F
100
AcDbEntity
  8
0
  6
Continuous
 62
     7
370
    15
100
AcDbEllipse
 10
-21.7923295626
 20
565.5643029619
 30
0.0
 11
324.2104784756324
 21
324.2104784756317
 31
0.0
210
0.0
220
0.0
230
1.0
 40
0.4931043843
 41
5.163054394605995
 42
5.182190290778501
  0
ELLIPSE
  5
11A
330
1F
100
AcDbEntity
  8
0
  6
Continuous
 62
     7
370
    15
100
AcDbEllipse
 10
-21.7923295626
 20
565.5643029619
 30
0.0
 11
324.2104784756315
 21
324.2104784756327
 31
0.0
210
0.0
220
0.0
230
1.0
 40
0.4931043843
 41
1.100995016401134
 42
1.120130912573604
  0
ELLIPSE
  5
11B
330
1F
100
AcDbEntity
  8
0
  6
Continuous
 62
     7
370
    15
100
AcDbEllipse
 10
147.1705416107
 20
734.5271741351
 30
0.0
 11
170.5923685004229
 21
-170.5923685004225
 31
0.0
210
0.0
220
0.0
230
1.0
 40
0.0874897569
 41
2.556280449917742
 42
2.560042548686349
  0
ELLIPSE
  5
11C
330
1F
100
AcDbEntity
  8
0
  6
Continuous
 62
     7
370
    15
100
AcDbEllipse
 10
-59.1133452058
 20
528.2432873186
 30
0.0
 11
340.4453123451735
 21
340.4453123451748
 31
0.0
210
0.0
220
0.0
230
1.0
 40
0.496404311
 41
1.020016965847113
 42
1.095703527712805
  0
ELLIPSE
  5
11D
330
1F
100
AcDbEntity
  8
0
  6
Continuous
 62
     7
370
    15
100
AcDbEllipse
 10
-59.1133452059
 20
528.2432873186
 30
0.0
 11
340.4453123451746
 21
340.445312345174
 31
0.0
210
0.0
220
0.0
230
1.0
 40
0.496404311
 41
5.241351794616293
 42
5.263168341332486
  0
SPLINE
  5
11E
330
1F
100
AcDbEntity
  8
0
  6
Continuous
 62
     7
370
    15
100
AcDbSpline
210
0.0
220
0.0
230
1.0
 70
     8
 71
     3
 72
   114
 73
   110
 74
     0
 42
0.00000001
 43
0.00000001
 12
1.0
 22
0.0
 32
0.0
 13
1.0
 23
0.0
 33
0.0
 40
0.0
 40
0.0
 40
0.0
 40
0.0
 40
0.010020005757048
 40
0.0200271546882397
 40
0.0300214502853943
 40
0.0400028960538161
 40
0.0499714955123731
 40
0.0599272521935475
 40
0.0698701696435175
 40
0.0798002514222143
 40
0.0897175011033916
 40
0.0996219222746962
 40
0.1095135185377342
 40
0.1193922935081374
 40
0.1292582508156382
 40
0.1391113941041312
 40
0.1489517270317494
 40
0.1587792532709332
 40
0.1685939765084952
 40
0.1783959004457012
 40
0.1881850287983324
 40
0.1979613652967611
 40
0.2077249136860245
 40
0.2174756777258944
 40
0.227213661190949
 40
0.2369388678706526
 40
0.2466513015694248
 40
0.2563509661067118
 40
0.26603786531707
 40
0.2757120030502319
 40
0.2853733831711896
 40
0.2950220095602625
 40
0.304657886113185
 40
0.3142810167411678
 40
0.3238914053709943
 40
0.333489055945081
 40
0.3430739724215684
 40
0.3526461587743882
 40
0.3622056189933578
 40
0.371752357084243
 40
0.3812863770688507
 40
0.3908076829851025
 40
0.4003162788871243
 40
0.4098121688453095
 40
0.4192953569464292
 40
0.4287658472936843
 40
0.4382236440068146
 40
0.4476687512221612
 40
0.4571011730927683
 40
0.4665209137884513
 40
0.4759279774958986
 40
0.485322368418741
 40
0.4947040907776475
 40
0.5040731488104094
 40
0.5134295467720271
 40
0.5227732889347971
 40
0.5321043795883986
 40
0.5414228230399871
 40
0.550728623614277
 40
0.5600217856536365
 40
0.5693023135181747
 40
0.5785702115858318
 40
0.5878254842524718
 40
0.5970681359319746
 40
0.6062981710563276
 40
0.6155155940757145
 40
0.6247204094586182
 40
0.6339126216919038
 40
0.6430922352809199
 40
0.6522592547495923
 40
0.6614136846405166
 40
0.67055552951506
 40
0.6796847939534507
 40
0.6888014825548818
 40
0.6979055999376046
 40
0.706997150739031
 40
0.7160761396158277
 40
0.7251425712440189
 40
0.7341964503190855
 40
0.7432377815560697
 40
0.7522665696896658
 40
0.761282819474338
 40
0.7702865356844054
 40
0.7792777231141604
 40
0.7882563865779625
 40
0.7972225309103477
 40
0.8061761609661319
 40
0.8151172816205161
 40
0.8240458977691945
 40
0.8329620143284583
 40
0.8418656362353063
 40
0.8507567684475519
 40
0.8596354159439323
 40
0.8685015837242175
 40
0.8773552768093188
 40
0.8861965002414043
 40
0.8950252590840054
 40
0.9038415584221318
 40
0.912645403362383
 40
0.9214367990330633
 40
0.9302157505842935
 40
0.9389822631881293
 40
0.9477363420386706
 40
0.9564779923521852
 40
0.9652072193672206
 40
0.973924028344726
 40
0.9826284245681643
 40
0.9913204133436364
 40
1.0
 40
1.0
 40
1.0
 40
1.0
 10
-102.3110742541387
 20
272.5780903498754
 30
0.0
 10
-102.0548560857448
 20
272.2451866397332
 30
0.0
 10
-101.5427485064899
 20
271.5798063733978
 30
0.0
 10
-100.7803017655276
 20
270.5892974651129
 30
0.0
 10
-100.0226942519263
 20
269.6051678408367
 30
0.0
 10
-99.27031909260523
 20
268.6279321566842
 30
0.0
 10
-98.52309764536307
 20
267.6574792695455
 30
0.0
 10
-97.78107681908374
 20
266.6938647800936
 30
0.0
 10
-97.04426933317083
 20
265.7370990832659
 30
0.0
 10
-96.31269643971082
 20
264.7872040527786
 30
0.0
 10
-95.5863765006503
 20
263.8441978843298
 30
0.0
 10
-94.8653280450784
 20
262.9080991514634
 30
0.0
 10
-94.14956895411262
 20
261.9789257234031
 30
0.0
 10
-93.43911668141169
 20
261.0566950569827
 30
0.0
 10
-92.73398819675947
 20
260.1414241211322
 30
0.0
 10
-92.03420000373883
 20
259.2331294196571
 30
0.0
 10
-91.33976813761927
 20
258.3318269877624
 30
0.0
 10
-90.65070816856499
 20
257.4375323956241
 30
0.0
 10
-89.96703520344784
 20
256.5502607501056
 30
0.0
 10
-89.28876388806046
 20
255.6700266969966
 30
0.0
 10
-88.6159084092494
 20
254.7968444231393
 30
0.0
 10
-87.9484824970964
 20
253.9307276586112
 30
0.0
 10
-87.28649942711138
 20
253.0716896789182
 30
0.0
 10
-86.62997202244944
 20
252.2197433072114
 30
0.0
 10
-85.97891265614479
 20
251.3749009165206
 30
0.0
 10
-85.33333325336501
 20
250.5371744320095
 30
0.0
 10
-84.6932452936843
 20
249.7065753332481
 30
0.0
 10
-84.0586598133738
 20
248.8831146565036
 30
0.0
 10
-83.42958740771195
 20
248.0668029970503
 30
0.0
 10
-82.80603823331018
 20
247.2576505114956
 30
0.0
 10
-82.18802201045771
 20
246.4556669201246
 30
0.0
 10
-81.5755480254821
 20
245.6608615092608
 30
0.0
 10
-80.9686251331268
 20
244.8732431336438
 30
0.0
 10
-80.36726175894455
 20
244.0928202188221
 30
0.0
 10
-79.77146590170707
 20
243.3196007635635
 30
0.0
 10
-79.18124513582907
 20
242.5535923422787
 30
0.0
 10
-78.59660661380846
 20
241.7948021074617
 30
0.0
 10
-78.01755706868057
 20
241.0432367921439
 30
0.0
 10
-77.44410281648697
 20
240.2989027123627
 30
0.0
 10
-76.87624975875742
 20
239.5618057696441
 30
0.0
 10
-76.31400338500723
 20
238.8319514534993
 30
0.0
 10
-75.75736877524503
 20
238.1093448439332
 30
0.0
 10
-75.20635060249703
 20
237.3939906139682
 30
0.0
 10
-74.66095313533994
 20
236.6858930321767
 30
0.0
 10
-74.12118024044942
 20
235.9850559652308
 30
0.0
 10
-73.5870353851579
 20
235.291482880459
 30
0.0
 10
-73.05852164002572
 20
234.6051768484179
 30
0.0
 10
-72.53564168142184
 20
233.9261405454724
 30
0.0
 10
-72.01839779411688
 20
233.2543762563895
 30
0.0
 10
-71.50679187388523
 20
232.5898858769396
 30
0.0
 10
-71.00082543011824
 20
231.9326709165106
 30
0.0
 10
-70.50049958844707
 20
231.2827325007296
 30
0.0
 10
-70.00581509337474
 20
230.6400713740959
 30
0.0
 10
-69.51677231091719
 20
230.004687902622
 30
0.0
 10
-69.03337123125414
 20
229.3765820764835
 30
0.0
 10
-68.55561147138708
 20
228.7557535126784
 30
0.0
 10
-68.08349227780633
 20
228.1422014576935
 30
0.0
 10
-67.61701252916639
 20
227.5359247901793
 30
0.0
 10
-67.1561707389668
 20
226.936922023632
 30
0.0
 10
-66.70096505824341
 20
226.3451913090837
 30
0.0
 10
-66.25139327826321
 20
225.760730437798
 30
0.0
 10
-65.8074528332285
 20
225.1835368439733
 30
0.0
 10
-65.36914080298598
 20
224.6136076074531
 30
0.0
 10
-64.93645391574148
 20
224.0509394564396
 30
0.0
 10
-64.50938855078242
 20
223.4955287702164
 30
0.0
 10
-64.08794074120259
 20
222.9473715818744
 30
0.0
 10
-63.6721061766351
 20
222.4064635810428
 30
0.0
 10
-63.26188020598858
 20
221.872800116627
 30
0.0
 10
-62.85725784018725
 20
221.3463761995478
 30
0.0
 10
-62.45823375491727
 20
220.8271865054879
 30
0.0
 10
-62.0648022933753
 20
220.3152253776407
 30
0.0
 10
-61.67695746902108
 20
219.8104868294626
 30
0.0
 10
-61.29469296833431
 20
219.3129645474301
 30
0.0
 10
-60.9180021535734
 20
218.8226518937981
 30
0.0
 10
-60.54687806553755
 20
218.3395419093628
 30
0.0
 10
-60.18131342633218
 20
217.8636273162262
 30
0.0
 10
-59.82130064213473
 20
217.3949005205629
 30
0.0
 10
-59.46683180596499
 20
216.9333536153891
 30
0.0
 10
-59.1178987004545
 20
216.4789783833336
 30
0.0
 10
-58.77449280062
 20
216.0317662994098
 30
0.0
 10
-58.43660527663583
 20
215.5917085337891
 30
0.0
 10
-58.10422699660908
 20
215.1587959545756
 30
0.0
 10
-57.77734852935431
 20
214.7330191305807
 30
0.0
 10
-57.45596014716956
 20
214.3143683340996
 30
0.0
 10
-57.14005182861121
 20
213.9028335436857
 30
0.0
 10
-56.82961326127086
 20
213.498404446928
 30
0.0
 10
-56.52463384455
 20
213.1010704432247
 30
0.0
 10
-56.22510269243505
 20
212.7108206465596
 30
0.0
 10
-55.93100863627176
 20
212.3276438882756
 30
0.0
 10
-55.64234022753775
 20
211.9515287198478
 30
0.0
 10
-55.3590857406151
 20
211.5824634156554
 30
0.0
 10
-55.08123317555955
 20
211.2204359757512
 30
0.0
 10
-54.8087702608718
 20
210.8654341286342
 30
0.0
 10
-54.54168445625618
 20
210.517445334004
 30
0.0
 10
-54.2799629554126
 20
210.176456785564
 30
0.0
 10
-54.02359268869814
 20
209.8424554136482
 30
0.0
 10
-53.77256032626102
 20
209.5154278884773
 30
0.0
 10
-53.52685227940032
 20
209.1953606210703
 30
0.0
 10
-53.28645470852586
 20
208.8822397728677
 30
0.0
 10
-53.05135350651552
 20
208.5760512328984
 30
0.0
 10
-52.82153437368581
 20
208.2767807158016
 30
0.0
 10
-52.59698255156506
 20
207.9844134097551
 30
0.0
 10
-52.37768382730829
 20
207.6989353005878
 30
0.0
 10
-52.16362080608031
 20
207.4203282535708
 30
0.0
 10
-51.95478680600707
 20
207.1485883422591
 30
0.0
 10
-51.7511341249276
 20
206.8836576030056
 30
0.0
 10
-51.55276671248802
 20
206.6256782001006
 30
0.0
 10
-51.35922265649537
 20
206.3740459070373
 30
0.0
 10
-51.23441598704848
 20
206.211856226182
 30
0.0
 10
-51.17205720404647
 20
206.130819281935
 30
0.0
  0
SPLINE
  5
11F
330
1F
100
AcDbEntity
  8
0
  6
Continuous
 62
     7
370
    15
100
AcDbSpline
210
0.0
220
0.0
230
1.0
 70
     8
 71
     3
 72
    54
 73
    50
 74
     0
 42
0.00000001
 43
0.00000001
 12
1.0
 22
0.0
 32
0.0
 13
1.0
 23
0.0
 33
0.0
 40
0.0
 40
0.0
 40
0.0
 40
0.0
 40
0.0154602233039946
 40
0.0307433081631958
 40
0.04584925456049
 40
0.0607780624790773
 40
0.0755297319024593
 40
0.0901042628144613
 40
0.1045016551992147
 40
0.1187219090411798
 40
0.1327650243251418
 40
0.1466310010362191
 40
0.1603198391598692
 40
0.1738315386818897
 40
0.1871660995884334
 40
0.2003235218660051
 40
0.2133038055014801
 40
0.2261069504820963
 40
0.2387329567954846
 40
0.2511818244296525
 40
0.2634535533730156
 40
0.2755481436143916
 40
0.2874655951430219
 40
0.2992059079485782
 40
0.3107690820211781
 40
0.3221551173513932
 40
0.3333640139302732
 40
0.3443957717493519
 40
0.3552503908006706
 40
0.3659278710767943
 40
0.3764282125708358
 40
0.3867514152764725
 40
0.3968974791879695
 40
0.4068664043002159
 40
0.4166581906087386
 40
0.4262728381097434
 40
0.435710346800147
 40
0.5438405470736278
 40
0.6166489544136594
 40
0.6643741078068628
 40
0.7135015244390703
 40
0.764032155732058
 40
0.8159668755811672
 40
0.8440335203984153
 40
0.8731422876040636
 40
0.9032932537714279
 40
0.9344864876292069
 40
0.9667220510698252
 40
1.0
 40
1.0
 40
1.0
 40
1.0
 10
-102.3110787168266
 20
272.5780961484506
 30
0.0
 10
-102.5583424953827
 20
272.8777851997621
 30
0.0
 10
-103.0500369807905
 20
273.4737295581613
 30
0.0
 10
-103.7884643421705
 20
274.3675991203332
 30
0.0
 10
-104.5219599566349
 20
275.2547116413779
 30
0.0
 10
-105.2507260117714
 20
276.1352671172457
 30
0.0
 10
-105.97450310993
 20
277.0090067274676
 30
0.0
 10
-106.6931578067232
 20
277.875796875897
 30
0.0
 10
-107.406527880048
 20
278.7354753805489
 30
0.0
 10
-108.1144629990843
 20
279.5878919002354
 30
0.0
 10
-108.8168139653976
 20
280.4328972394471
 30
0.0
 10
-109.5134354862532
 20
281.2703461048876
 30
0.0
 10
-110.2041853877305
 20
282.1000963230026
 30
0.0
 10
-110.8889247640736
 20
282.9220089881698
 30
0.0
 10
-111.567517880741
 20
283.735948366055
 30
0.0
 10
-112.2398321421345
 20
284.5417818612607
 30
0.0
 10
-112.905738042296
 20
285.3393799680455
 30
0.0
 10
-113.5651091200882
 20
286.1286162254994
 30
0.0
 10
-114.2178219132413
 20
286.9093671715931
 30
0.0
 10
-114.8637559127809
 20
287.6815122976068
 30
0.0
 10
-115.5027935174734
 20
288.4449340025755
 30
0.0
 10
-116.13481998842
 20
289.1995175478858
 30
0.0
 10
-116.7597234038005
 20
289.9451510120184
 30
0.0
 10
-117.3773946137951
 20
290.6817252454775
 30
0.0
 10
-117.9877271957248
 20
291.4091338259103
 30
0.0
 10
-118.5906174093729
 20
292.1272730135131
 30
0.0
 10
-119.1859641527427
 20
292.8360417064861
 30
0.0
 10
-119.7736689174343
 20
293.5353413975213
 30
0.0
 10
-120.3536357467175
 20
294.2250761278386
 30
0.0
 10
-120.9257711852068
 20
294.9051524515713
 30
0.0
 10
-121.4899842606331
 20
295.5754793639916
 30
0.0
 10
-122.0461863504102
 20
296.2359683629603
 30
0.0
 10
-122.5942914690483
 20
296.8865330274121
 30
0.0
 10
-123.1342150269536
 20
297.5270903539479
 30
0.0
 10
-123.6658781474142
 20
298.1575557048682
 30
0.0
 10
-124.1891917919172
 20
298.7778609686897
 30
0.0
 10
-126.5022685713384
 20
301.5181579608433
 30
0.0
 10
-130.0107839070252
 20
305.6736721220736
 30
0.0
 10
-134.2845543619162
 20
310.769401658438
 30
0.0
 10
-137.4572489492944
 20
314.6213729453909
 30
0.0
 10
-140.2252212446648
 20
318.0056873831317
 30
0.0
 10
-143.0820217286683
 20
321.5269313288009
 30
0.0
 10
-145.551065574302
 20
324.5919959975759
 30
0.0
 10
-147.6208548809965
 20
327.173980618502
 30
0.0
 10
-149.2814028115815
 20
329.2510242936407
 30
0.0
 10
-151.0056681376131
 20
331.4131638439935
 30
0.0
 10
-152.7943197709704
 20
333.6611376024276
 30
0.0
 10
-154.647388725095
 20
335.9945313635321
 30
0.0
 10
-155.9071455305284
 20
337.5844510678463
 30
0.0
 10
-156.5470459284552
 20
338.3920595261409
 30
0.0
  0
LINE
  5
120
330
1F
100
AcDbEntity
  8
0
  6
Continuous
 62
     7
370
    15
100
AcDbLine
 10
-280.1655206812
 20
392.6421187327
 30
0.0
 11
-194.7145137918
 21
392.6421187327
 31
0.0
  0
LINE
  5
121
330
1F
100
AcDbEntity
  8
0
  6
Continuous
 62
     7
370
    15
100
AcDbLine
 10
-284.0112198126
 20
392.6421187327
 30
0.0
 11
-280.1655206812
 21
392.6421187327
 31
0.0
  0
LWPOLYLINE
  5
122
330
1F
100
AcDbEntity
  8
0
  6
Continuous
 62
     7
370
    15
100
AcDbPolyline
 90
       54
 70
   128
 43
0.0
 10
206.2150266039
 20
749.7310421869
 10
208.9350547659
 20
747.0110140249
 10
211.6487946379
 20
744.297274153
 10
214.3555607664
 20
741.5905378267
 10
217.0546378958
 20
738.8914308951
 10
219.7453405726
 20
736.2007282183
 10
222.4270131457
 20
733.5190556452
 10
225.0989403593
 20
730.8471284315
 10
227.7604665625
 20
728.1856022284
 10
230.4109063017
 20
725.5351922915
 10
233.0495443213
 20
722.8965244696
 10
235.6757547724
 20
720.2703438208
 10
238.2888223994
 20
717.6572463915
 10
240.8881213534
 20
715.0579474375
 10
243.4729959834
 20
712.4730728075
 10
246.0427310336
 20
709.9033377573
 10
248.5967304575
 20
707.3493383333
 10
251.1343088019
 20
704.811759989
 10
253.6548104155
 20
702.2912583754
 10
256.1576094496
 20
699.7884593413
 10
258.6420800555
 20
697.3039887354
 10
261.107566582
 20
694.8385320112
 10
263.553413378
 20
692.3926554129
 10
265.9790541994
 20
689.9670145914
 10
268.3838631976
 20
687.5622353956
 10
270.7671847212
 20
685.178913872
 10
273.128422724
 20
682.8176460669
 10
275.4669811594
 20
680.4790876314
 10
277.7822937834
 20
678.1638048098
 10
280.0737049448
 20
675.872363846
 10
282.3406782019
 20
673.605390589
 10
284.5826473105
 20
671.3634214804
 10
286.7989864218
 20
669.1470823691
 10
288.9891590941
 20
666.9569096968
 10
291.1526288855
 20
664.7934399054
 10
293.2887997496
 20
662.6572690413
 10
295.3971650469
 20
660.5489037439
 10
297.4771585333
 20
658.4689102575
 10
299.528243767
 20
656.4178250239
 10
301.5499439108
 20
654.3961546824
 10
303.5416927206
 20
652.4043760702
 10
305.502983557
 20
650.4430852339
 10
307.4333395827
 20
648.5126994059
 10
309.3322839606
 20
646.6137848303
 10
311.1993398535
 20
644.7467587397
 10
313.0339112151
 20
642.9121575758
 10
314.835700022
 20
641.1103836701
 10
316.6041102278
 20
639.3419585631
 10
318.3387842047
 20
637.6072994873
 10
320.0391855109
 20
635.9068683788
 10
321.705016123
 20
634.2410824701
 10
323.3356799948
 20
632.6103738949
 10
324.9309387076
 20
631.0151598856
 10
326.4901962149
 20
629.4558576748
  0
LWPOLYLINE
  5
123
330
1F
100
AcDbEntity
  8
0
  6
Continuous
 62
     7
370
    15
100
AcDbPolyline
 90
       54
 70
   128
 43
0.0
 10
42.0992251503
 20
913.8468287394
 10
43.6585273611
 20
912.287571232
 10
45.2537413704
 20
910.6923125193
 10
46.8844499457
 20
909.0616486475
 10
48.5502358544
 20
907.3958180353
 10
50.2506669629
 20
905.6954167292
 10
51.9853260386
 20
903.9607427523
 10
53.7537511456
 20
902.1923325464
 10
55.5555250513
 20
900.3905437395
 10
57.3901262152
 20
898.555972378
 10
59.2571523058
 20
896.688916485
 10
61.1560668814
 20
894.7899721071
 10
63.0864527094
 20
892.8596160814
 10
65.0477435458
 20
890.8983252451
 10
67.0395221579
 20
888.9065764353
 10
69.0611924994
 20
886.8848762915
 10
71.1122777331
 20
884.8337910578
 10
73.1922712195
 20
882.7537975714
 10
75.3006365168
 20
880.6454322741
 10
77.4368073809
 20
878.50926141
 10
79.6002771723
 20
876.3457916186
 10
81.7904498446
 20
874.1556189463
 10
84.0067889559
 20
871.939279835
 10
86.2487580645
 20
869.6973107264
 10
88.5157313216
 20
867.4303374693
 10
90.8071722853
 20
865.1389263079
 10
93.122455107
 20
862.8236136839
 10
95.4610135424
 20
860.4850552485
 10
97.8222813475
 20
858.1238172457
 10
100.2056028712
 20
855.740495722
 10
102.610382067
 20
853.3356867239
 10
105.0360228884
 20
850.9100459025
 10
107.4818994868
 20
848.4641991064
 10
109.9473562109
 20
845.9987125799
 10
112.4318268168
 20
843.5142419741
 10
114.9346258509
 20
841.01144294
 10
117.4551274645
 20
838.4909413263
 10
119.9927058089
 20
835.953362982
 10
122.5467052328
 20
833.399363558
 10
125.116440283
 20
830.8296285078
 10
127.701314913
 20
828.2447538778
 10
130.300613867
 20
825.6454549238
 10
132.9137112963
 20
823.0323872969
 10
135.5398919451
 20
820.4061768458
 10
138.178559767
 20
817.7675388262
 10
140.8289697039
 20
815.117099087
 10
143.4904959071
 20
812.4555728838
 10
146.1624231207
 20
809.7836456701
 10
148.8440956938
 20
807.1019730971
 10
151.5347983706
 20
804.4112704203
 10
154.2339053023
 20
801.7121932909
 10
156.9406416285
 20
799.0054271624
 10
159.6543815005
 20
796.2916872904
 10
162.3744096625
 20
793.5716591284
  0
LINE
  5
124
330
1F
100
AcDbEntity
  8
0
  6
Continuous
 62
     7
370
    15
100
AcDbLine
 10
-302.7145165932
 20
176.6421131298
 30
0.0
 11
-302.7145165932
 21
386.1854940161
 31
0.0
  0
SPLINE
  5
125
330
1F
100
AcDbEntity
  8
0
  6
Continuous
 62
     7
370
    15
100
AcDbSpline
210
0.0
220
0.0
230
1.0
 70
    24
 71
     3
 72
    20
 73
    16
 74
     0
 42
0.00000001
 43
0.00000001
 12
1.0
 22
0.0
 32
0.0
 13
1.0
 23
0.0
 33
0.0
 40
0.0
 40
0.0
 40
0.0
 40
0.0
 40
0.1249999999999964
 40
0.1249999999999964
 40
0.187499999999997
 40
0.187499999999997
 40
0.2499999999999976
 40
0.2499999999999976
 40
0.4999999999999984
 40
0.4999999999999984
 40
0.6249999999999992
 40
0.6249999999999992
 40
0.7500000000000001
 40
0.7500000000000001
 40
1.0
 40
1.0
 40
1.0
 40
1.0
 10
-299.2278944657929
 20
392.6421187326565
 30
0.0
 10
-298.8141111953136
 20
392.6421187326565
 30
0.0
 10
-298.3653291237657
 20
392.6421187326565
 30
0.0
 10
-297.637819463885
 20
392.6421187326565
 30
0.0
 10
-297.385593371233
 20
392.6421187326565
 30
0.0
 10
-296.8683223977226
 20
392.6421187326565
 30
0.0
 10
-296.6028053098581
 20
392.6421187326565
 30
0.0
 10
-295.2413506340447
 20
392.6421187326565
 30
0.0
 10
-294.0448700041066
 20
392.6421187326565
 30
0.0
 10
-292.0865388688917
 20
392.6421187326565
 30
0.0
 10
-291.4019970217403
 20
392.6421187326565
 30
0.0
 10
-290.0052792367207
 20
392.6421187326565
 30
0.0
 10
-289.2916721453776
 20
392.6421187326565
 30
0.0
 10
-287.1060917555213
 20
392.6421187326565
 30
0.0
 10
-285.5898588946068
 20
392.6421187326565
 30
0.0
 10
-284.0112170885141
 20
392.6421187326565
 30
0.0
  0
LINE
  5
126
330
1F
100
AcDbEntity
  8
0
  6
Continuous
 62
     7
370
    15
100
AcDbLine
 10
263.3301045763
 20
562.8710917637
 30
0.0
 11
263.0657281744
 21
562.4093494818
 31
0.0
  0
LINE
  5
127
330
1F
100
AcDbEntity
  8
0
  6
Continuous
 62
     7
370
    15
100
AcDbLine
 10
-24.9472830427
 20
850.4223606989
 30
0.0
 11
-24.4855407608
 21
850.6867371008
 31
0.0
  0
LWPOLYLINE
  5
128
330
1F
100
AcDbEntity
  8
0
  6
Continuous
 62
     7
370
    15
100
AcDbPolyline
 90
        5
 70
   128
 43
0.0
 10
-51.1720601452
 20
206.130825679
 10
-49.6720645559
 20
204.1818133995
 10
-48.5947702062
 20
202.7820281193
 10
-47.9396704567
 20
201.9308290884
 10
-47.7174792421
 20
201.6421190903
  0
SPLINE
  5
129
330
1F
100
AcDbEntity
  8
0
  6
Continuous
 62
     7
370
    15
100
AcDbSpline
210
0.0
220
0.0
230
1.0
 70
    24
 71
     3
 72
    16
 73
    12
 74
     0
 42
0.00000001
 43
0.00000001
 12
1.0
 22
0.0
 32
0.0
 13
1.0
 23
0.0
 33
0.0
 40
0.0
 40
0.0
 40
0.0
 40
0.0
 40
0.2499999999999999
 40
0.2499999999999999
 40
0.4999999999999998
 40
0.4999999999999998
 40
0.6250000000000001
 40
0.6250000000000001
 40
0.7500000000000006
 40
0.7500000000000006
 40
1.0
 40
1.0
 40
1.0
 40
1.0
 10
-302.7145137918109
 20
392.6421187326565
 30
0.0
 10
-302.7145137918109
 20
392.6421187326565
 30
0.0
 10
-302.6392393751377
 20
392.6421187326565
 30
0.0
 10
-302.3438878029095
 20
392.6421187326565
 30
0.0
 10
-302.1237963794187
 20
392.6421187326565
 30
0.0
 10
-301.6829202805577
 20
392.6421187326565
 30
0.0
 10
-301.5171207797975
 20
392.6421187326565
 30
0.0
 10
-301.1486472148578
 20
392.6421187326565
 30
0.0
 10
-300.9475442050474
 20
392.6421187326565
 30
0.0
 10
-300.2948339123311
 20
392.6421187326565
 30
0.0
 10
-299.7940580405904
 20
392.6421187326565
 30
0.0
 10
-299.2278944657929
 20
392.6421187326565
 30
0.0
  0
LINE
  5
12A
330
1F
100
AcDbEntity
  8
0
  6
Continuous
 62
     7
370
    15
100
AcDbLine
 10
-302.7145165932
 20
411.5361429259
 30
0.0
 11
-302.7145165932
 21
392.6421187327
 31
0.0
  0
LINE
  5
12B
330
1F
100
AcDbEntity
  8
0
  6
Continuous
 62
     7
370
    15
100
AcDbLine
 10
-302.7145165932
 20
543.7480888769
 30
0.0
 11
-302.7145165932
 21
613.1122491762
 31
0.0
  0
ARC
  5
12C
330
1F
100
AcDbEntity
  8
0
  6
Continuous
 62
     7
370
    15
100
AcDbCircle
 10
149.9537224476
 20
734.4047817286
 30
0.0
 40
141.5202723813543
100
AcDbArc
 50
335.9582538813
 51
345.0927465907
  0
ARC
  5
12D
330
1F
100
AcDbEntity
  8
0
  6
Continuous
 62
     7
370
    15
100
AcDbCircle
 10
147.0481492042
 20
737.3103549721
 30
0.0
 40
141.5202723813543
100
AcDbArc
 50
104.9072534093
 51
114.0417461187
  0
SPLINE
  5
12E
330
1F
100
AcDbEntity
  8
0
  6
Continuous
 62
     7
370
    15
100
AcDbSpline
210
0.0
220
0.0
230
1.0
 70
    24
 71
     3
 72
    10
 73
     6
 74
     0
 42
0.00000001
 43
0.00000001
 12
1.0
 22
0.0
 32
0.0
 13
1.0
 23
0.0
 33
0.0
 40
0.0
 40
0.0
 40
0.0
 40
0.0
 40
0.5
 40
0.5
 40
1.0
 40
1.0
 40
1.0
 40
1.0
 10
-302.7145137918109
 20
386.1854938346193
 30
0.0
 10
-302.7145137918109
 20
387.1173622599096
 30
0.0
 10
-302.7145137918109
 20
388.1632666574078
 30
0.0
 10
-302.7145137918109
 20
390.352489990113
 30
0.0
 10
-302.7145137918109
 20
391.4969602042746
 30
0.0
 10
-302.7145137918109
 20
392.6421187326565
 30
0.0
  0
LINE
  5
12F
330
1F
100
AcDbEntity
  8
0
  6
Continuous
 62
     7
370
    15
100
AcDbLine
 10
415.2855005133
 20
606.1421118185
 30
0.0
 11
415.2855005133
 21
179.1421256468
 31
0.0
  0
LINE
  5
130
330
1F
100
AcDbEntity
  8
0
  6
Continuous
 62
     7
370
    15
100
AcDbLine
 10
-384.7145114076
 20
606.1421118185
 30
0.0
 11
-384.7145114076
 21
179.1421256468
 31
0.0
  0
SPLINE
  5
131
330
1F
100
AcDbEntity
  8
0
  6
Continuous
 62
     7
370
    15
100
AcDbSpline
210
0.0
220
0.0
230
1.0
 70
     8
 71
     3
 72
    24
 73
    20
 74
     0
 42
0.00000001
 43
0.00000001
 12
1.0
 22
0.0
 32
0.0
 13
1.0
 23
0.0
 33
0.0
 40
0.0
 40
0.0
 40
0.0
 40
0.0
 40
0.124999999999998
 40
0.124999999999998
 40
0.1874999999999982
 40
0.1874999999999982
 40
0.2499999999999983
 40
0.2499999999999983
 40
0.3749999999999986
 40
0.3749999999999986
 40
0.499999999999999
 40
0.499999999999999
 40
0.6249999999999992
 40
0.6249999999999992
 40
0.7499999999999994
 40
0.7499999999999994
 40
0.8749999999999998
 40
0.8749999999999998
 40
1.0
 40
1.0
 40
1.0
 40
1.0
 10
258.5907799382189
 20
554.1425556799513
 30
0.0
 10
258.3487510573121
 20
553.7026984566672
 30
0.0
 10
258.1487116824756
 20
553.2443044596462
 30
0.0
 10
257.9166664690598
 20
552.5266879304771
 30
0.0
 10
257.8507142369359
 20
552.2824514430633
 30
0.0
 10
257.743365296252
 20
551.7831381362839
 30
0.0
 10
257.7019734843012
 20
551.5269324594362
 30
0.0
 10
257.6197113885187
 20
550.7584412056588
 30
0.0
 10
257.6189489081245
 20
550.2416774036799
 30
0.0
 10
257.7325580366139
 20
549.1987049119833
 30
0.0
 10
257.8500317583749
 20
548.6668714644294
 30
0.0
 10
258.1958355409153
 20
547.6493147568334
 30
0.0
 10
258.4236005948362
 20
547.1576448074622
 30
0.0
 10
258.9899291450174
 20
546.2088560441231
 30
0.0
 10
259.3205087792883
 20
545.7659049326742
 30
0.0
 10
260.0591531042804
 20
544.9475722624258
 30
0.0
 10
260.4724776806314
 20
544.5679560395904
 30
0.0
 10
261.3442683227005
 20
543.8938327967581
 30
0.0
 10
261.8049329256266
 20
543.5958749376058
 30
0.0
 10
262.2880715302773
 20
543.3333972358674
 30
0.0
  0
ELLIPSE
  5
132
330
1F
100
AcDbEntity
  8
0
  6
Continuous
 62
     7
370
    15
100
AcDbEllipse
 10
76.4878233801
 20
392.6421187327
 30
0.0
 11
576.2871005557603
 21
-69.95721197930543
 31
0.0
210
0.0
220
0.0
230
1.0
 40
0.3084005987
 41
1.18247776806241
 42
1.214679831968777
  0
ELLIPSE
  5
133
330
1F
100
AcDbEntity
  8
0
  6
Continuous
 62
     7
370
    15
100
AcDbEllipse
 10
488.9063655016
 20
392.6421187327
 30
0.0
 11
192.0975059894966
 21
-190.6327677354618
 31
0.0
210
0.0
220
0.0
230
1.0
 40
0.0616270696
 41
2.521593824151279
 42
2.524781733386442
  0
LINE
  5
134
330
1F
100
AcDbEntity
  8
0
  6
Continuous
 62
     7
370
    15
100
AcDbLine
 10
153.9837744105
 20
917.409994404
 30
0.0
 11
110.6413330901
 21
874.0675530836
 31
0.0
  0
LINE
  5
135
330
1F
100
AcDbEntity
  8
0
  6
Continuous
 62
     7
370
    15
100
AcDbLine
 10
146.2056066859
 20
925.1881621287
 30
0.0
 11
88.481756674
 21
867.4643121168
 31
0.0
  0
LINE
  5
136
330
1F
100
AcDbEntity
  8
0
  6
Continuous
 62
     7
370
    15
100
AcDbLine
 10
337.8315296042
 20
733.5622392103
 30
0.0
 11
280.1076795924
 21
675.8383891985
 31
0.0
  0
LINE
  5
137
330
1F
100
AcDbEntity
  8
0
  6
Continuous
 62
     7
370
    15
100
AcDbLine
 10
330.0533618796
 20
741.3404069349
 30
0.0
 11
286.7109205592
 21
697.9979656145
 31
0.0
  0
LINE
  5
138
330
1F
100
AcDbEntity
  8
0
  6
Continuous
 62
     7
370
    15
100
AcDbLine
 10
194.9013199675
 20
973.8839052126
 30
0.0
 11
202.6794876921
 21
966.105737488
 31
0.0
  0
LWPOLYLINE
  5
139
330
1F
100
AcDbEntity
  8
0
  6
Continuous
 62
     7
370
    15
100
AcDbPolyline
 90
       52
 70
   128
 43
0.0
 10
202.6794876921
 20
966.105737488
 10
202.6572253573
 20
966.0834453509
 10
202.5904383528
 20
966.0166285441
 10
202.479156481
 20
965.9053466723
 10
202.3234989512
 20
965.7497189448
 10
202.1235849726
 20
965.5498049662
 10
201.8795337546
 20
965.3057835505
 10
201.591613518
 20
965.0178335116
 10
201.2599732745
 20
964.686193268
 10
200.8849110472
 20
964.3111608431
 10
200.4667248595
 20
963.8929746554
 10
200.0057425368
 20
963.4319923327
 10
199.502321707
 20
962.9285118982
 10
198.9568498003
 20
962.3830697939
 10
198.3697738516
 20
961.7959640429
 10
197.7415408957
 20
961.1677310869
 10
197.072657572
 20
960.4988477633
 10
196.3636305201
 20
959.7898505137
 10
195.6150557864
 20
959.0412757799
 10
194.8274698126
 20
958.2537196085
 10
194.0015580523
 20
957.4277780459
 10
193.1379165518
 20
956.5641067431
 10
192.2372307646
 20
955.6634805605
 10
191.3002457487
 20
954.7264955446
 10
190.3276767599
 20
953.7538669512
 10
189.3202688563
 20
952.7464888498
 10
188.2788565028
 20
951.7050764963
 10
187.2042443621
 20
950.6304643557
 10
186.0972668993
 20
949.5234868929
 10
184.9587883818
 20
948.3850381777
 10
183.7897326815
 20
947.2159526751
 10
182.5910236704
 20
946.017243664
 10
181.3635554182
 20
944.7898052141
 10
180.1083412039
 20
943.5345909998
 10
178.8263645041
 20
942.2526143
 10
177.5186385977
 20
940.944828789
 10
176.1861469614
 20
939.612366955
 10
174.8299922812
 20
938.2562420771
 10
173.4512176382
 20
936.8774674341
 10
172.0509257185
 20
935.4771755144
 10
170.630219208
 20
934.0564392016
 10
169.1901709902
 20
932.6163909838
 10
167.7319731581
 20
931.1581633494
 10
166.2567283976
 20
929.6829483912
 10
164.7656288016
 20
928.1918785975
 10
163.2598664629
 20
926.6860864565
 10
161.7405738699
 20
925.1667640612
 10
160.2089729178
 20
923.6352227137
 10
158.6662855017
 20
922.092475693
 10
157.1137037146
 20
920.5398939058
 10
155.5524494517
 20
918.9786694452
 10
153.9837744105
 20
917.409994404
  0
LWPOLYLINE
  5
13A
330
1F
100
AcDbEntity
  8
0
  6
Continuous
 62
     7
370
    15
100
AcDbPolyline
 90
       52
 70
   128
 43
0.0
 10
194.9013199675
 20
973.8839052126
 10
194.8790576327
 20
973.8616130755
 10
194.8122408259
 20
973.7947962687
 10
194.7009887564
 20
973.6835740015
 10
194.5453312266
 20
973.5278866694
 10
194.3453874457
 20
973.3279726908
 10
194.10136603
 20
973.0839512751
 10
193.8134159911
 20
972.7960012362
 10
193.4818055498
 20
972.4643609926
 10
193.1067433226
 20
972.0893285677
 10
192.6885571349
 20
971.67114238
 10
192.2275748122
 20
971.2101600573
 10
191.7241539824
 20
970.7067392275
 10
191.1786820757
 20
970.1612375185
 10
190.591606127
 20
969.5741913721
 10
189.9633731711
 20
968.9459584162
 10
189.2944898474
 20
968.2770750925
 10
188.5854627955
 20
967.5680182383
 10
187.8368582594
 20
966.8194435045
 10
187.049302088
 20
966.0318873331
 10
186.2233903277
 20
965.2059457705
 10
185.3597488272
 20
964.3423340723
 10
184.45906304
 20
963.4416482851
 10
183.5220780241
 20
962.5046632692
 10
182.5495090353
 20
961.5320942804
 10
181.5421011317
 20
960.5246565745
 10
180.5006887782
 20
959.4832442209
 10
179.4260766375
 20
958.4086320803
 10
178.3190991747
 20
957.3016546175
 10
177.1806206572
 20
956.1632059023
 10
176.0115649569
 20
954.9941203997
 10
174.8128261435
 20
953.7954113886
 10
173.5853876936
 20
952.5679729387
 10
172.3301734793
 20
951.3127587244
 10
171.0481967795
 20
950.0307820246
 10
169.7404410708
 20
948.7229965136
 10
168.4079792368
 20
947.3905346796
 10
167.0518245566
 20
946.0344098017
 10
165.6730499136
 20
944.6556351587
 10
164.2727579939
 20
943.255343239
 10
162.8520216811
 20
941.8346069262
 10
161.4120032656
 20
940.3945587084
 10
159.9538054335
 20
938.9363906786
 10
158.478560673
 20
937.4611161158
 10
156.987461077
 20
935.9700463221
 10
155.4816987383
 20
934.4642541811
 10
153.9624061453
 20
932.9449913904
 10
152.4308051932
 20
931.4133904383
 10
150.8881177771
 20
929.8707030222
 10
149.33553599
 20
928.3181212351
 10
147.7742817271
 20
926.7568371699
 10
146.2056066859
 20
925.1881621287
  0
LINE
  5
13B
330
1F
100
AcDbEntity
  8
0
  6
Continuous
 62
     7
370
    15
100
AcDbLine
 10
386.5272726881
 20
782.257952492
 30
0.0
 11
378.7491049635
 21
790.0361202166
 31
0.0
  0
LWPOLYLINE
  5
13C
330
1F
100
AcDbEntity
  8
0
  6
Continuous
 62
     7
370
    15
100
AcDbPolyline
 90
       52
 70
   128
 43
0.0
 10
378.7491049635
 20
790.0361202166
 10
378.7268128264
 20
790.0138578817
 10
378.6599960196
 20
789.9470708773
 10
378.5487141478
 20
789.8357890055
 10
378.3930864203
 20
789.6801314757
 10
378.1931724417
 20
789.4802174971
 10
377.949151026
 20
789.236166279
 10
377.6612009871
 20
788.9482460425
 10
377.3295607436
 20
788.6166057989
 10
376.9545283186
 20
788.2415435717
 10
376.5363421309
 20
787.8233573839
 10
376.0753598082
 20
787.3623750612
 10
375.5718793738
 20
786.8589542315
 10
375.0264372694
 20
786.3134823248
 10
374.4393315184
 20
785.7264063761
 10
373.8110985625
 20
785.0981734202
 10
373.1422152388
 20
784.4292900965
 10
372.4332179892
 20
783.7202630446
 10
371.6846432555
 20
782.9716883108
 10
370.897087084
 20
782.1841023371
 10
370.0711455214
 20
781.3581905768
 10
369.2074742186
 20
780.4945490763
 10
368.306848036
 20
779.5938632891
 10
367.3698630202
 20
778.6568782732
 10
366.3972344267
 20
777.6843092844
 10
365.3898563254
 20
776.6769013807
 10
364.3484439719
 20
775.6354890272
 10
363.2738318312
 20
774.5608768866
 10
362.1668543684
 20
773.4538994238
 10
361.0284056532
 20
772.3154209063
 10
359.8593201506
 20
771.146365206
 10
358.6606111395
 20
769.9476561949
 10
357.4331726897
 20
768.7201879427
 10
356.1779584753
 20
767.4649737284
 10
354.8959817755
 20
766.1829970286
 10
353.5881962645
 20
764.8752711222
 10
352.2557344305
 20
763.5427794859
 10
350.8996095526
 20
762.1866248057
 10
349.5208349097
 20
760.8078501627
 10
348.12054299
 20
759.407558243
 10
346.6998066771
 20
757.9868517325
 10
345.2597584593
 20
756.5468035147
 10
343.8015308249
 20
755.0886056826
 10
342.3263158667
 20
753.6133609221
 10
340.835246073
 20
752.122261326
 10
339.329453932
 20
750.6164989874
 10
337.8101315367
 20
749.0972063944
 10
336.2785901892
 20
747.5656054423
 10
334.7358431685
 20
746.0229180262
 10
333.1832613814
 20
744.4703362391
 10
331.6220369208
 20
742.9090819761
 10
330.0533618796
 20
741.3404069349
  0
LWPOLYLINE
  5
13D
330
1F
100
AcDbEntity
  8
0
  6
Continuous
 62
     7
370
    15
100
AcDbPolyline
 90
       52
 70
   128
 43
0.0
 10
386.5272726881
 20
782.257952492
 10
386.504980551
 20
782.2356901571
 10
386.4381637442
 20
782.1688733503
 10
386.326941477
 20
782.0576212809
 10
386.1712541449
 20
781.901963751
 10
385.9713401663
 20
781.7020199701
 10
385.7273187506
 20
781.4579985544
 10
385.4393687117
 20
781.1700485155
 10
385.1077284682
 20
780.8384380743
 10
384.7326960432
 20
780.4633758471
 10
384.3145098555
 20
780.0451896593
 10
383.8535275328
 20
779.5842073366
 10
383.350106703
 20
779.0807865069
 10
382.804604994
 20
778.5353146002
 10
382.2175588477
 20
777.9482386515
 10
381.5893258917
 20
777.3200056955
 10
380.9204425681
 20
776.6511223719
 10
380.2113857138
 20
775.94209532
 10
379.4628109801
 20
775.1934907839
 10
378.6752548087
 20
774.4059346125
 10
377.849313246
 20
773.5800228521
 10
376.9857015478
 20
772.7163813517
 10
376.0850157606
 20
771.8156955645
 10
375.1480307448
 20
770.8787105486
 10
374.175461756
 20
769.9061415598
 10
373.16802405
 20
768.8987336561
 10
372.1266116965
 20
767.8573213026
 10
371.0519995558
 20
766.782709162
 10
369.945022093
 20
765.6757316992
 10
368.8065733778
 20
764.5372531817
 10
367.6374878752
 20
763.3681974814
 10
366.4387788641
 20
762.169458668
 10
365.2113404143
 20
760.9420202181
 10
363.9561261999
 20
759.6868060038
 10
362.6741495001
 20
758.4048293039
 10
361.3663639891
 20
757.0970735953
 10
360.0339021551
 20
755.7646117613
 10
358.6777772772
 20
754.408457081
 10
357.2990026343
 20
753.0296824381
 10
355.8987107146
 20
751.6293905184
 10
354.4779744017
 20
750.2086542055
 10
353.0379261839
 20
748.7686357901
 10
351.5797581541
 20
747.310437958
 10
350.1044835913
 20
745.8351931975
 10
348.6134137976
 20
744.3440936014
 10
347.1076216566
 20
742.8383312628
 10
345.588358866
 20
741.3190386698
 10
344.0567579138
 20
739.7874377176
 10
342.5140704977
 20
738.2447503016
 10
340.9614887106
 20
736.6921685145
 10
339.4002046454
 20
735.1309142515
 10
337.8315296042
 20
733.5622392103
  0
LINE
  5
13E
330
1F
100
AcDbEntity
  8
0
  6
Continuous
 62
     7
370
    15
100
AcDbLine
 10
0.6388749945
 20
899.9636552736
 30
0.0
 11
9.9258597958
 21
909.2506549761
 31
0.0
  0
LINE
  5
13F
330
1F
100
AcDbEntity
  8
0
  6
Continuous
 62
     7
370
    15
100
AcDbLine
 10
9.9258597958
 20
909.2506549761
 30
0.0
 11
23.7144406903
 21
895.4620740816
 31
0.0
  0
LINE
  5
140
330
1F
100
AcDbEntity
  8
0
  6
Continuous
 62
     7
370
    15
100
AcDbLine
 10
14.427455889
 20
886.1751041815
 30
0.0
 11
23.7144406903
 21
895.4620740816
 31
0.0
  0
LINE
  5
141
330
1F
100
AcDbEntity
  8
0
  6
Continuous
 62
     7
370
    15
100
AcDbLine
 10
14.427455889
 20
886.1751041815
 30
0.0
 11
0.6388749945
 21
899.9636552736
 31
0.0
  0
LINE
  5
142
330
1F
100
AcDbEntity
  8
0
  6
Continuous
 62
     7
370
    15
100
AcDbLine
 10
-29.4131610525
 20
930.0157211229
 30
0.0
 11
-20.1261762512
 21
939.3027208254
 31
0.0
  0
LINE
  5
143
330
1F
100
AcDbEntity
  8
0
  6
Continuous
 62
     7
370
    15
100
AcDbLine
 10
-6.3375953567
 20
925.5141399309
 30
0.0
 11
-20.1261762512
 21
939.3027208254
 31
0.0
  0
LINE
  5
144
330
1F
100
AcDbEntity
  8
0
  6
Continuous
 62
     7
370
    15
100
AcDbLine
 10
-29.4131610525
 20
930.0157211229
 30
0.0
 11
-15.624580158
 21
916.2271402285
 31
0.0
  0
LINE
  5
145
330
1F
100
AcDbEntity
  8
0
  6
Continuous
 62
     7
370
    15
100
AcDbLine
 10
-15.624580158
 20
916.2271402285
 30
0.0
 11
-6.3375953567
 21
925.5141399309
 31
0.0
  0
LINE
  5
146
330
1F
100
AcDbEntity
  8
0
  6
Continuous
 62
     7
370
    15
100
AcDbLine
 10
321.8940224516
 20
597.2824923203
 30
0.0
 11
308.1054415572
 21
611.0710732147
 31
0.0
  0
LINE
  5
147
330
1F
100
AcDbEntity
  8
0
  6
Continuous
 62
     7
370
    15
100
AcDbLine
 10
312.6070227492
 20
587.995507519
 30
0.0
 11
321.8940224516
 21
597.2824923203
 31
0.0
  0
LINE
  5
148
330
1F
100
AcDbEntity
  8
0
  6
Continuous
 62
     7
370
    15
100
AcDbLine
 10
298.818471657
 20
601.7840884134
 30
0.0
 11
312.6070227492
 21
587.995507519
 31
0.0
  0
LINE
  5
149
330
1F
100
AcDbEntity
  8
0
  6
Continuous
 62
     7
370
    15
100
AcDbLine
 10
298.818471657
 20
601.7840884134
 30
0.0
 11
308.1054415572
 21
611.0710732147
 31
0.0
  0
LINE
  5
14A
330
1F
100
AcDbEntity
  8
0
  6
Continuous
 62
     7
370
    15
100
AcDbLine
 10
312.6070227492
 20
587.995507519
 30
0.0
 11
311.3697495329
 21
586.7582194016
 31
0.0
  0
ELLIPSE
  5
14B
330
1F
100
AcDbEntity
  8
0
  6
Continuous
 62
     7
370
    15
100
AcDbEllipse
 10
319.5014914737
 20
578.6264984652
 30
0.0
 11
8.131727983645362
 21
-8.131727983645078
 31
0.0
210
0.0
220
0.0
230
1.0
 40
0.0874886635
 41
3.141592653589635
 42
6.283185307179586
  0
LINE
  5
14C
330
1F
100
AcDbEntity
  8
0
  6
Continuous
 62
     7
370
    15
100
AcDbLine
 10
328.870507704
 20
571.7320523665
 30
0.0
 11
327.6332344878
 21
570.4947642491
 31
0.0
  0
LINE
  5
14D
330
1F
100
AcDbEntity
  8
0
  6
Continuous
 62
     7
370
    15
100
AcDbLine
 10
342.6590885985
 20
557.943471472
 30
0.0
 11
328.870507704
 21
571.7320523665
 31
0.0
  0
LINE
  5
14E
330
1F
100
AcDbEntity
  8
0
  6
Continuous
 62
     7
370
    15
100
AcDbLine
 10
331.5341200697
 20
568.738811414
 30
0.0
 11
342.1407070029
 21
558.1322095797
 31
0.0
  0
LINE
  5
14F
330
1F
100
AcDbEntity
  8
0
  6
Continuous
 62
     7
370
    15
100
AcDbLine
 10
328.2580103743
 20
565.4626868174
 30
0.0
 11
309.3248929846
 21
584.3957744047
 31
0.0
  0
ELLIPSE
  5
150
330
1F
100
AcDbEntity
  8
0
  6
Continuous
 62
     7
370
    15
100
AcDbEllipse
 10
147.1705416107
 20
734.5271741351
 30
0.0
 11
170.5923685004233
 21
-170.5923685004201
 31
0.0
210
0.0
220
0.0
230
1.0
 40
0.0874897569
 41
0.4145488153023392
 42
0.4560768441571943
  0
LINE
  5
151
330
1F
100
AcDbEntity
  8
0
  6
Continuous
 62
     7
370
    15
100
AcDbLine
 10
299.0072097647
 20
601.265721719
 30
0.0
 11
309.6137966978
 21
590.6591198847
 31
0.0
  0
LINE
  5
152
330
1F
100
AcDbEntity
  8
0
  6
Continuous
 62
     7
370
    15
100
AcDbLine
 10
339.3882837164
 20
554.6726665899
 30
0.0
 11
342.6590885985
 21
557.943471472
 31
0.0
  0
LINE
  5
153
330
1F
100
AcDbEntity
  8
0
  6
Continuous
 62
     7
370
    15
100
AcDbLine
 10
297.611537205
 20
600.5771837637
 30
0.0
 11
298.818471657
 21
601.7840884134
 31
0.0
  0
LINE
  5
154
330
1F
100
AcDbEntity
  8
0
  6
Continuous
 62
     7
370
    15
100
AcDbLine
 10
-18.6178211105
 20
918.8907525942
 30
0.0
 11
-29.2244229448
 21
929.4973395273
 31
0.0
  0
LINE
  5
155
330
1F
100
AcDbEntity
  8
0
  6
Continuous
 62
     7
370
    15
100
AcDbLine
 10
-32.854107393
 20
926.5748045847
 30
0.0
 11
-32.5005475414
 21
926.2212298319
 31
0.0
  0
ELLIPSE
  5
156
330
1F
100
AcDbEntity
  8
0
  6
Continuous
 62
     7
370
    15
100
AcDbEllipse
 10
-8.7301340593
 20
906.8581239982
 30
0.0
 11
8.13172798364525
 21
-8.131727983645307
 31
0.0
210
0.0
220
0.0
230
1.0
 40
0.0874886635
 41
3.141592653589954
 42
6.283185307179586
  0
LINE
  5
157
330
1F
100
AcDbEntity
  8
0
  6
Continuous
 62
     7
370
    15
100
AcDbLine
 10
13.9090891945
 20
886.3638422892
 30
0.0
 11
3.3024873602
 21
896.9704292223
 31
0.0
  0
LINE
  5
158
330
1F
100
AcDbEntity
  8
0
  6
Continuous
 62
     7
370
    15
100
AcDbLine
 10
-21.2987486255
 20
916.2097952768
 30
0.0
 11
0.6215598452
 21
894.2895315096
 31
0.0
  0
LINE
  5
159
330
1F
100
AcDbEntity
  8
0
  6
Continuous
 62
     7
370
    15
100
AcDbLine
 10
0.6388749945
 20
899.9636552736
 30
0.0
 11
-0.5984131229
 21
898.7263820574
 31
0.0
  0
LINE
  5
15A
330
1F
100
AcDbEntity
  8
0
  6
Continuous
 62
     7
370
    15
100
AcDbLine
 10
-32.854107393
 20
926.5748045847
 30
0.0
 11
-29.4131610525
 21
930.0157211229
 31
0.0
  0
LINE
  5
15B
330
1F
100
AcDbEntity
  8
0
  6
Continuous
 62
     7
370
    15
100
AcDbLine
 10
-15.624580158
 20
916.2271402285
 30
0.0
 11
-16.8618682754
 21
914.9898670122
 31
0.0
  0
LINE
  5
15C
330
1F
100
AcDbEntity
  8
0
  6
Continuous
 62
     7
370
    15
100
AcDbLine
 10
13.2205512392
 20
884.9681697294
 30
0.0
 11
14.427455889
 21
886.1751041815
 31
0.0
  0
LINE
  5
15D
330
1F
100
AcDbEntity
  8
0
  6
Continuous
 62
     7
370
    15
100
AcDbLine
 10
328.870507704
 20
571.7320523665
 30
0.0
 11
338.1575074065
 21
581.0190371678
 31
0.0
  0
LINE
  5
15E
330
1F
100
AcDbEntity
  8
0
  6
Continuous
 62
     7
370
    15
100
AcDbLine
 10
342.6590885985
 20
557.943471472
 30
0.0
 11
351.9460883009
 21
567.2304562733
 31
0.0
  0
LINE
  5
15F
330
1F
100
AcDbEntity
  8
0
  6
Continuous
 62
     7
370
    15
100
AcDbLine
 10
338.1575074065
 20
581.0190371678
 30
0.0
 11
351.9460883009
 21
567.2304562733
 31
0.0
  0
LINE
  5
160
330
1F
100
AcDbEntity
  8
0
  6
Continuous
 62
     7
370
    15
100
AcDbLine
 10
51.6262527573
 20
923.3738563463
 30
0.0
 11
17.7521582711
 21
957.2479508326
 31
0.0
  0
LINE
  5
161
330
1F
100
AcDbEntity
  8
0
  6
Continuous
 62
     7
370
    15
100
AcDbLine
 10
26.5428748
 20
898.2904932902
 30
0.0
 11
51.6262527573
 21
923.3738563463
 31
0.0
  0
LINE
  5
162
330
1F
100
AcDbEntity
  8
0
  6
Continuous
 62
     7
370
    15
100
AcDbLine
 10
26.5428748
 20
898.2904932902
 30
0.0
 11
-17.9378215206
 21
942.7711747095
 31
0.0
  0
LINE
  5
163
330
1F
100
AcDbEntity
  8
0
  6
Continuous
 62
     7
370
    15
100
AcDbLine
 10
-17.9378215206
 20
942.7711747095
 30
0.0
 11
-3.5015616548
 21
957.2074792788
 31
0.0
  0
LINE
  5
164
330
1F
100
AcDbEntity
  8
0
  6
Continuous
 62
     7
370
    15
100
AcDbLine
 10
-3.5015616548
 20
957.2074792788
 30
0.0
 11
17.7521582711
 21
957.2479508326
 31
0.0
  0
LINE
  5
165
330
1F
100
AcDbEntity
  8
0
  6
Continuous
 62
     7
370
    15
100
AcDbLine
 10
355.4145421851
 20
569.4188110039
 30
0.0
 11
369.8508467543
 21
583.8550708696
 31
0.0
  0
LINE
  5
166
330
1F
100
AcDbEntity
  8
0
  6
Continuous
 62
     7
370
    15
100
AcDbLine
 10
369.8508467543
 20
583.8550708696
 30
0.0
 11
369.8913183081
 21
605.1087907955
 31
0.0
  0
LINE
  5
167
330
1F
100
AcDbEntity
  8
0
  6
Continuous
 62
     7
370
    15
100
AcDbLine
 10
310.9338607657
 20
613.8995073244
 30
0.0
 11
355.4145421851
 21
569.4188110039
 31
0.0
  0
LINE
  5
168
330
1F
100
AcDbEntity
  8
0
  6
Continuous
 62
     7
370
    15
100
AcDbLine
 10
310.9338607657
 20
613.8995073244
 30
0.0
 11
336.0172238219
 21
638.9828852818
 31
0.0
  0
LINE
  5
169
330
1F
100
AcDbEntity
  8
0
  6
Continuous
 62
     7
370
    15
100
AcDbLine
 10
336.0172238219
 20
638.9828852818
 30
0.0
 11
369.8913183081
 21
605.1087907955
 31
0.0
  0
LINE
  5
16A
330
1F
100
AcDbEntity
  8
0
  6
Continuous
 62
     7
370
    15
100
AcDbLine
 10
-56.5421704185
 20
837.1257565424
 30
0.0
 11
-53.6684963834
 21
834.2520974085
 31
0.0
  0
LINE
  5
16B
330
1F
100
AcDbEntity
  8
0
  6
Continuous
 62
     7
370
    15
100
AcDbLine
 10
3.3024873602
 20
896.9704292223
 30
0.0
 11
-56.5421704185
 21
837.1257565424
 31
0.0
  0
LINE
  5
16C
330
1F
100
AcDbEntity
  8
0
  6
Continuous
 62
     7
370
    15
100
AcDbLine
 10
-17.5683472288
 20
854.8863909647
 30
0.0
 11
13.9090891945
 21
886.3638422892
 31
0.0
  0
LINE
  5
16D
330
1F
100
AcDbEntity
  8
0
  6
Continuous
 62
     7
370
    15
100
AcDbLine
 10
309.6137966978
 20
590.6591198847
 30
0.0
 11
262.2880663741
 21
543.3333895609
 31
0.0
  0
LINE
  5
16E
330
1F
100
AcDbEntity
  8
0
  6
Continuous
 62
     7
370
    15
100
AcDbLine
 10
267.5297584402
 20
569.7882852957
 30
0.0
 11
299.0072097647
 21
601.265721719
 31
0.0
  0
LINE
  5
16F
330
1F
100
AcDbEntity
  8
0
  6
Continuous
 62
     7
370
    15
100
AcDbLine
 10
331.5341200697
 20
568.738811414
 30
0.0
 11
297.624024378
 21
534.8287306234
 31
0.0
  0
LINE
  5
170
330
1F
100
AcDbEntity
  8
0
  6
Continuous
 62
     7
370
    15
100
AcDbLine
 10
314.6574821341
 20
530.6489847109
 30
0.0
 11
342.1407070029
 21
558.1322095797
 31
0.0
  0
LINE
  5
171
330
1F
100
AcDbEntity
  8
0
  6
Continuous
 62
     7
370
    15
100
AcDbLine
 10
-18.6178211105
 20
918.8907525942
 30
0.0
 11
-78.4624863398
 21
859.0460799143
 31
0.0
  0
LINE
  5
172
330
1F
100
AcDbEntity
  8
0
  6
Continuous
 62
     7
370
    15
100
AcDbLine
 10
-78.4624863398
 20
859.0460799143
 30
0.0
 11
-89.0690881741
 21
869.6526966498
 31
0.0
  0
LINE
  5
173
330
1F
100
AcDbEntity
  8
0
  6
Continuous
 62
     7
370
    15
100
AcDbLine
 10
-89.0690881741
 20
869.6526966498
 30
0.0
 11
-29.2244229448
 21
929.4973395273
 31
0.0
  0
LWPOLYLINE
  5
174
330
1F
100
AcDbEntity
  8
0
  6
Continuous
 62
     7
370
    15
100
AcDbPolyline
 90
       43
 70
   128
 43
0.0
 10
321.8940224516
 20
597.2824923203
 10
321.9167914259
 20
597.2597531483
 10
321.9848599303
 20
597.1916697428
 10
322.0979299414
 20
597.0786146328
 10
322.2552862036
 20
596.9212285683
 10
322.4561538565
 20
596.7203758165
 10
322.6993408072
 20
596.477203767
 10
322.9834761488
 20
596.1930535242
 10
323.3070101607
 20
595.8695195124
 10
323.6680950987
 20
595.508404772
 10
324.0647640097
 20
595.111735861
 10
324.4947519171
 20
594.6817479536
 10
324.9557342398
 20
594.2208103344
 10
325.4449691641
 20
593.7315307066
 10
325.9598936903
 20
593.2166210816
 10
326.4975275862
 20
592.6789871857
 10
327.0548906195
 20
592.1216241524
 10
327.6288833487
 20
591.5476314232
 10
328.216287123
 20
590.9602425501
 10
328.8137640822
 20
590.3627357885
 10
329.4180955756
 20
589.7584489987
 10
330.025764929
 20
589.150764744
 10
330.6334342825
 20
588.5430804894
 10
331.2377061713
 20
587.9387936995
 10
331.8352427351
 20
587.3412869379
 10
332.4226465094
 20
586.7538980648
 10
332.9966392386
 20
586.1799053356
 10
333.5540022719
 20
585.6225423023
 10
334.0916361678
 20
585.0848935053
 10
334.6065010893
 20
584.5699987814
 10
335.0957956183
 20
584.0807191536
 10
335.5567183363
 20
583.6197815344
 10
335.9867062437
 20
583.1897787258
 10
336.3833751547
 20
582.793124716
 10
336.7445196974
 20
582.4320099756
 10
337.0680537093
 20
582.1084759638
 10
337.3521890509
 20
581.824325721
 10
337.5953760016
 20
581.5811536715
 10
337.7962436545
 20
581.3803009197
 10
337.9535999167
 20
581.2229148552
 10
338.0666699278
 20
581.1098597452
 10
338.1347384322
 20
581.0417763397
 10
338.1575074065
 20
581.0190371678
  0
LWPOLYLINE
  5
175
330
1F
100
AcDbEntity
  8
0
  6
Continuous
 62
     7
370
    15
100
AcDbPolyline
 90
       43
 70
   128
 43
0.0
 10
9.9258597958
 20
909.2506549761
 10
9.9031206238
 20
909.2734239504
 10
9.8350372183
 20
909.3414924547
 10
9.7219821083
 20
909.4545624659
 10
9.5645960438
 20
909.6119187281
 10
9.3637432921
 20
909.812786381
 10
9.1205712426
 20
910.0559733317
 10
8.8364209998
 20
910.3401086733
 10
8.5128869879
 20
910.6636426851
 10
8.1517722475
 20
911.0247276232
 10
7.7551033366
 20
911.4213965342
 10
7.3251154292
 20
911.8513844416
 10
6.8641778099
 20
912.3123667643
 10
6.3748981821
 20
912.8016016886
 10
5.8599885571
 20
913.3165262148
 10
5.3223546612
 20
913.8541601107
 10
4.7649916279
 20
914.411523144
 10
4.1909988987
 20
914.9855158732
 10
3.6036100256
 20
915.5729196474
 10
3.0061032641
 20
916.1703966066
 10
2.4018164742
 20
916.7747281
 10
1.7941322195
 20
917.3823974535
 10
1.1864479649
 20
917.990066807
 10
0.582161175
 20
918.5943386957
 10
-0.0153455865
 20
919.1918752596
 10
-0.6027344597
 20
919.7792790339
 10
-1.1767271888
 20
920.3532717631
 10
-1.7340902221
 20
920.9106347963
 10
-2.2717390192
 20
921.4482686922
 10
-2.7866337431
 20
921.9631336138
 10
-3.2759133709
 20
922.4524281428
 10
-3.7368509901
 20
922.9133508608
 10
-4.1668537986
 20
923.3433387682
 10
-4.5635078085
 20
923.7400076792
 10
-4.9246225488
 20
924.1011522219
 10
-5.2481565607
 20
924.4246862337
 10
-5.5323068035
 20
924.7088215754
 10
-5.775478853
 20
924.9520085261
 10
-5.9763316047
 20
925.1528761789
 10
-6.1337176693
 20
925.3102324412
 10
-6.2467727792
 20
925.4233024523
 10
-6.3148561847
 20
925.4913709566
 10
-6.3375953567
 20
925.5141399309
  0
LINE
  5
176
330
1F
100
AcDbEntity
  8
0
  6
Continuous
 62
     7
370
    15
100
AcDbLine
 10
-78.4624863398
 20
859.0460799143
 30
0.0
 11
-56.5421704185
 21
837.1257565424
 31
0.0
  0
LINE
  5
177
330
1F
100
AcDbEntity
  8
0
  6
Continuous
 62
     7
370
    15
100
AcDbLine
 10
376.8002118933
 20
590.8044807121
 30
0.0
 11
369.8508467543
 21
583.8550708696
 31
0.0
  0
LINE
  5
178
330
1F
100
AcDbEntity
  8
0
  6
Continuous
 62
     7
370
    15
100
AcDbLine
 10
376.8002118933
 20
590.8044807121
 30
0.0
 11
369.8772516119
 21
597.7274558947
 31
0.0
  0
LINE
  5
179
330
1F
100
AcDbEntity
  8
0
  6
Continuous
 62
     7
370
    15
100
AcDbLine
 10
3.4478481877
 20
964.1568444178
 30
0.0
 11
-3.5015616548
 21
957.2074792788
 31
0.0
  0
LINE
  5
17A
330
1F
100
AcDbEntity
  8
0
  6
Continuous
 62
     7
370
    15
100
AcDbLine
 10
3.4478481877
 20
964.1568444178
 30
0.0
 11
10.3708233702
 21
957.2338841364
 31
0.0
  0
SPLINE
  5
17B
330
1F
100
AcDbEntity
  8
0
  6
Continuous
 62
     8
370
     0
100
AcDbSpline
210
0.0
220
0.0
230
1.0
 70
     8
 71
     3
 72
    74
 73
    70
 74
     0
 42
0.00000001
 43
0.00000001
 12
1.0
 22
0.0
 32
0.0
 13
1.0
 23
0.0
 33
0.0
 40
0.0
 40
0.0
 40
0.0
 40
0.0
 40
0.0312499999999999
 40
0.0312499999999999
 40
0.0624999999999997
 40
0.0624999999999997
 40
0.1249999999999994
 40
0.1249999999999994
 40
0.1874999999999991
 40
0.1874999999999991
 40
0.2187499999999989
 40
0.2187499999999989
 40
0.2499999999999986
 40
0.2499999999999986
 40
0.3124999999999982
 40
0.3124999999999982
 40
0.3437499999999979
 40
0.3437499999999979
 40
0.3749999999999976
 40
0.3749999999999976
 40
0.4062499999999973
 40
0.4062499999999973
 40
0.4218749999999972
 40
0.4218749999999972
 40
0.4374999999999973
 40
0.4374999999999973
 40
0.4687499999999973
 40
0.4687499999999973
 40
0.4999999999999973
 40
0.4999999999999973
 40
0.5312499999999974
 40
0.5312499999999974
 40
0.5624999999999976
 40
0.5624999999999976
 40
0.5937499999999976
 40
0.5937499999999976
 40
0.6249999999999977
 40
0.6249999999999977
 40
0.6874999999999979
 40
0.6874999999999979
 40
0.7187499999999981
 40
0.7187499999999981
 40
0.7499999999999983
 40
0.7499999999999983
 40
0.7812499999999986
 40
0.7812499999999986
 40
0.8124999999999987
 40
0.8124999999999987
 40
0.8281249999999989
 40
0.8281249999999989
 40
0.843749999999999
 40
0.843749999999999
 40
0.8749999999999992
 40
0.8749999999999992
 40
0.9062499999999994
 40
0.9062499999999994
 40
0.9374999999999996
 40
0.9374999999999996
 40
0.9687499999999998
 40
0.9687499999999998
 40
0.9843749999999999
 40
0.9843749999999999
 40
0.9921874999999999
 40
0.9921874999999999
 40
0.9960937499999999
 40
0.9960937499999999
 40
0.9980468749999999
 40
0.9980468749999999
 40
1.0
 40
1.0
 40
1.0
 40
1.0
 10
-176.2591601677179
 20
159.6684779401361
 30
0.0
 10
-176.259160167718
 20
159.6684779401361
 30
0.0
 10
-176.2651721420353
 20
159.7562591949454
 30
0.0
 10
-176.2881838690103
 20
160.1074035765841
 30
0.0
 10
-176.3052145365794
 20
160.3703236318161
 30
0.0
 10
-176.3746620680118
 20
161.416170540192
 30
0.0
 10
-176.4424953878955
 20
162.4562899698583
 30
0.0
 10
-176.6270985234963
 20
165.213109587223
 30
0.0
 10
-176.7403186535038
 20
166.9305590835161
 30
0.0
 10
-176.9503691430548
 20
170.0210687161392
 30
0.0
 10
-177.0261676793227
 20
171.1379745419435
 30
0.0
 10
-177.1894639459696
 20
173.5446678555089
 30
0.0
 10
-177.2764517520836
 20
174.8270836346567
 30
0.0
 10
-177.5595469008387
 20
178.9065135840775
 30
0.0
 10
-177.7674036199723
 20
181.9375904568433
 30
0.0
 10
-178.1218523956539
 20
186.941020608233
 30
0.0
 10
-178.246631973873
 20
188.6854509761689
 30
0.0
 10
-178.5062838976674
 20
192.3283243425912
 30
0.0
 10
-178.6416404432715
 20
194.2266183959595
 30
0.0
 10
-178.9283883643025
 20
198.1775396163511
 30
0.0
 10
-179.0801246491326
 20
200.230243402728
 30
0.0
 10
-179.3152201192743
 20
203.4281462522719
 30
0.0
 10
-179.395083771881
 20
204.5138577379776
 30
0.0
 10
-179.5582818935015
 20
206.7250854022024
 30
0.0
 10
-179.6416852253519
 20
207.8515333667451
 30
0.0
 10
-179.8976159153007
 20
211.2809067017608
 30
0.0
 10
-180.0773645527792
 20
213.6352111160121
 30
0.0
 10
-180.4459381239911
 20
218.4818753634021
 30
0.0
 10
-180.6354165107194
 20
220.9739694018101
 30
0.0
 10
-181.0295434933187
 20
226.0956546031186
 30
0.0
 10
-181.2363648422869
 20
228.7234350766589
 30
0.0
 10
-181.6602926232668
 20
234.10458148038
 30
0.0
 10
-181.8768984908587
 20
236.8548269130449
 30
0.0
 10
-182.3234571287963
 20
242.4735970177685
 30
0.0
 10
-182.5556019494466
 20
245.3417735461364
 30
0.0
 10
-183.0334165670261
 20
251.1976075381642
 30
0.0
 10
-183.2775608519497
 20
254.1900227849063
 30
0.0
 10
-184.0239594595081
 20
263.2810899216502
 30
0.0
 10
-184.5510996737139
 20
269.5088703081777
 30
0.0
 10
-185.3632715032739
 20
279.0984629662192
 30
0.0
 10
-185.6383134400206
 20
282.3362048947397
 30
0.0
 10
-186.2082129941249
 20
288.8928561881054
 30
0.0
 10
-186.4969056421872
 20
292.2126006815055
 30
0.0
 10
-187.0825502633885
 20
298.9349838639075
 30
0.0
 10
-187.3791731556463
 20
302.3376530094411
 30
0.0
 10
-187.9907909461208
 20
309.2259223042722
 30
0.0
 10
-188.3028142227596
 20
312.7119476977335
 30
0.0
 10
-188.7751967292638
 20
318.0054685087688
 30
0.0
 10
-188.9336356992151
 20
319.7806981469684
 30
0.0
 10
-189.2532685544516
 20
323.3527880080538
 30
0.0
 10
-189.4146532000677
 20
325.1519703856901
 30
0.0
 10
-189.9039819028544
 20
330.5609940587132
 30
0.0
 10
-190.2348787306336
 20
334.1828483011302
 30
0.0
 10
-190.8963302139015
 20
341.458737227441
 30
0.0
 10
-191.2271451608262
 20
345.1127362300386
 30
0.0
 10
-191.9004046761059
 20
352.4516194385998
 30
0.0
 10
-192.2418335718603
 20
356.1366245398886
 30
0.0
 10
-192.9234249178646
 20
363.5388095486693
 30
0.0
 10
-193.2621288074982
 20
367.2561181830349
 30
0.0
 10
-193.7801485579773
 20
372.8554253791237
 30
0.0
 10
-193.9542633614329
 20
374.7257770592998
 30
0.0
 10
-194.2190217840035
 20
377.5370870293114
 30
0.0
 10
-194.3076787073618
 20
378.4751720948554
 30
0.0
 10
-194.4444017894547
 20
379.8834899061277
 30
0.0
 10
-194.4904282562941
 20
380.3531433037639
 30
0.0
 10
-194.5636859084755
 20
381.0576191329911
 30
0.0
 10
-194.5887418907511
 20
381.2924498037178
 30
0.0
 10
-194.6437121587226
 20
381.7617916183829
 30
0.0
 10
-194.6715295285277
 20
381.9964960571607
 30
0.0
 10
-194.714513791811
 20
382.2298666086523
 30
0.0
  0
SPLINE
  5
17C
330
1F
100
AcDbEntity
  8
0
  6
Continuous
 62
     8
370
     0
100
AcDbSpline
210
0.0
220
0.0
230
1.0
 70
     8
 71
     3
 72
    70
 73
    66
 74
     0
 42
0.00000001
 43
0.00000001
 12
1.0
 22
0.0
 32
0.0
 13
1.0
 23
0.0
 33
0.0
 40
0.0
 40
0.0
 40
0.0
 40
0.0
 40
0.001953125
 40
0.001953125
 40
0.00390625
 40
0.00390625
 40
0.0078125
 40
0.0078125
 40
0.0156249999999999
 40
0.0156249999999999
 40
0.0312499999999998
 40
0.0312499999999998
 40
0.0624999999999997
 40
0.0624999999999997
 40
0.0937499999999996
 40
0.0937499999999996
 40
0.1249999999999994
 40
0.1249999999999994
 40
0.1406249999999994
 40
0.1406249999999994
 40
0.1562499999999994
 40
0.1562499999999994
 40
0.1874999999999994
 40
0.1874999999999994
 40
0.2499999999999994
 40
0.2499999999999994
 40
0.3124999999999995
 40
0.3124999999999995
 40
0.3749999999999996
 40
0.3749999999999996
 40
0.3906249999999995
 40
0.3906249999999995
 40
0.4062499999999994
 40
0.4062499999999994
 40
0.4374999999999992
 40
0.4374999999999992
 40
0.4999999999999984
 40
0.4999999999999984
 40
0.5312499999999981
 40
0.5312499999999981
 40
0.546874999999998
 40
0.546874999999998
 40
0.5624999999999979
 40
0.5624999999999979
 40
0.6249999999999981
 40
0.6249999999999981
 40
0.6874999999999984
 40
0.6874999999999984
 40
0.7499999999999989
 40
0.7499999999999989
 40
0.7656249999999989
 40
0.7656249999999989
 40
0.781249999999999
 40
0.781249999999999
 40
0.8124999999999991
 40
0.8124999999999991
 40
0.8749999999999994
 40
0.8749999999999994
 40
0.9374999999999997
 40
0.9374999999999997
 40
0.9531249999999998
 40
0.9531249999999998
 40
0.9687499999999998
 40
0.9687499999999998
 40
1.0
 40
1.0
 40
1.0
 40
1.0
 10
-194.8424436089154
 20
382.2299473323667
 30
0.0
 10
-194.842520376797
 20
381.9905640753476
 30
0.0
 10
-194.8590786197304
 20
381.7515834839976
 30
0.0
 10
-194.8913797574454
 20
381.2740559794706
 30
0.0
 10
-194.90977566632
 20
381.0354591913835
 30
0.0
 10
-194.9666126522955
 20
380.3198788878765
 30
0.0
 10
-195.0069929486122
 20
379.8430852313749
 30
0.0
 10
-195.1291794195966
 20
378.4136939327514
 30
0.0
 10
-195.2126874056896
 20
377.4618951518069
 30
0.0
 10
-195.463953762509
 20
374.6093963946279
 30
0.0
 10
-195.6331848024889
 20
372.7116581654864
 30
0.0
 10
-196.1440566220111
 20
367.0299780870011
 30
0.0
 10
-196.4838193180871
 20
363.2571207977468
 30
0.0
 10
-197.153734398411
 20
355.7403654788748
 30
0.0
 10
-197.4863379220769
 20
351.9966823144427
 30
0.0
 10
-198.1535833733026
 20
344.5392804206898
 30
0.0
 10
-198.4849045748846
 20
340.8252742146259
 30
0.0
 10
-198.9768530195883
 20
335.2763243430795
 30
0.0
 10
-199.1401753124474
 20
333.4303679354835
 30
0.0
 10
-199.466486547623
 20
329.7459710394132
 30
0.0
 10
-199.6298290937948
 20
327.9063477722006
 30
0.0
 10
-200.1178262689965
 20
322.4067599582922
 30
0.0
 10
-200.4382230752323
 20
318.7802292855829
 30
0.0
 10
-201.3838530423934
 20
308.0177758045922
 30
0.0
 10
-202.0009964599415
 20
300.9992760220658
 30
0.0
 10
-203.1936782447833
 20
287.2680812611625
 30
0.0
 10
-203.7760902050356
 20
280.5558856455984
 30
0.0
 10
-204.9002938868443
 20
267.4397756874416
 30
0.0
 10
-205.4475173393882
 20
261.0362022739918
 30
0.0
 10
-206.1068523180022
 20
253.2313608987941
 30
0.0
 10
-206.2373070458525
 20
251.6823101044798
 30
0.0
 10
-206.4952372329716
 20
248.6149635944286
 30
0.0
 10
-206.622861433057
 20
247.0956155841653
 30
0.0
 10
-207.0022399958519
 20
242.5804977927859
 30
0.0
 10
-207.2497571715301
 20
239.6275903815128
 30
0.0
 10
-207.9726942393961
 20
230.940504044967
 30
0.0
 10
-208.4324912518884
 20
225.373273562601
 30
0.0
 10
-209.0830854305187
 20
217.4388425379721
 30
0.0
 10
-209.2928648795554
 20
214.8617951801188
 30
0.0
 10
-209.5987295636549
 20
211.0979154126599
 30
0.0
 10
-209.6993450942367
 20
209.8602490452999
 30
0.0
 10
-209.8975897110287
 20
207.4189094902081
 30
0.0
 10
-209.9952602273255
 20
206.2142523237092
 30
0.0
 10
-210.473841763905
 20
200.2944862461397
 30
0.0
 10
-210.8263520377066
 20
195.8808668911055
 30
0.0
 10
-211.4808167427821
 20
187.6789293547663
 30
0.0
 10
-211.7791491715184
 20
183.8905831135622
 30
0.0
 10
-212.3273988621119
 20
176.9374329906622
 30
0.0
 10
-212.5738362340073
 20
173.7725361107061
 30
0.0
 10
-212.851318253195
 20
170.2156251909242
 30
0.0
 10
-212.9052319913689
 20
169.5242462203572
 30
0.0
 10
-213.0096844943996
 20
168.1819110321592
 30
0.0
 10
-213.0602742992077
 20
167.5302894248997
 30
0.0
 10
-213.206269086748
 20
165.6451989399625
 30
0.0
 10
-213.2960460342061
 20
164.479272017279
 30
0.0
 10
-213.5457389947089
 20
161.2496048565453
 30
0.0
 10
-213.6836303818169
 20
159.4533675098191
 30
0.0
 10
-213.9052477000072
 20
156.5667951324689
 30
0.0
 10
-213.9886927712625
 20
155.4764505022399
 30
0.0
 10
-214.0585736013355
 20
154.5619225268855
 30
0.0
 10
-214.0708998913979
 20
154.4014856080499
 30
0.0
 10
-214.0920640866195
 20
154.1259279141387
 30
0.0
 10
-214.1009077637601
 20
154.0107558007698
 30
0.0
 10
-214.1220423496098
 20
153.7342911832746
 30
0.0
 10
-214.1288662839212
 20
153.6421187326558
 30
0.0
 10
-214.1288662839212
 20
153.6421187326558
 30
0.0
  0
SPLINE
  5
17D
330
1F
100
AcDbEntity
  8
0
  6
Continuous
 62
     8
370
     0
100
AcDbSpline
210
0.0
220
0.0
230
1.0
 70
     8
 71
     3
 72
     8
 73
     4
 74
     0
 42
0.00000001
 43
0.00000001
 12
1.0
 22
0.0
 32
0.0
 13
1.0
 23
0.0
 33
0.0
 40
0.0
 40
0.0
 40
0.0
 40
0.0
 40
1.0
 40
1.0
 40
1.0
 40
1.0
 10
-194.8424436089277
 20
382.2299473324076
 30
0.0
 10
-194.7998003287405
 20
382.2299194504458
 30
0.0
 10
-194.7571570485534
 20
382.2298925425227
 30
0.0
 10
-194.714513791811
 20
382.2298666086533
 30
0.0
  0
SPLINE
  5
17E
330
1F
100
AcDbEntity
  8
0
  6
Continuous
 62
     8
370
     0
100
AcDbSpline
210
0.0
220
0.0
230
1.0
 70
     8
 71
     3
 72
    66
 73
    62
 74
     0
 42
0.00000001
 43
0.00000001
 12
1.0
 22
0.0
 32
0.0
 13
1.0
 23
0.0
 33
0.0
 40
0.0
 40
0.0
 40
0.0
 40
0.0
 40
0.0045228998387878
 40
0.0095831236165904
 40
0.0151849365827246
 40
0.0213330011644942
 40
0.0280323689753548
 40
0.0352884734570505
 40
0.0431071238694567
 40
0.0514945013497933
 40
0.0604571578094036
 40
0.0700020185014512
 40
0.0801362948400398
 40
0.0908671981383085
 40
0.1022021029881636
 40
0.1141486058481013
 40
0.126714530224194
 40
0.139907940398015
 40
0.1537370335457105
 40
0.168209464026841
 40
0.1833326587243527
 40
0.1991140620519982
 40
0.2155611690026268
 40
0.2326812618135267
 40
0.2504803704680019
 40
0.3029337353064259
 40
0.3543666093954237
 40
0.4046081206050175
 40
0.4535030923252494
 40
0.5009146030850682
 40
0.5239479169360987
 40
0.5465723124190933
 40
0.5687757432208002
 40
0.5905473193969586
 40
0.6118773709124596
 40
0.6327572548078193
 40
0.6531793875105651
 40
0.6731371967938485
 40
0.6926249928056614
 40
0.711637936413655
 40
0.7301723240144983
 40
0.7482252212576411
 40
0.7657942904682989
 40
0.7828777973302138
 40
0.79947492117937
 40
0.8155856217786267
 40
0.8312102231875845
 40
0.8463494116740499
 40
0.8610042536037781
 40
0.875176521759381
 40
0.8888684844858132
 40
0.9020825755957644
 40
0.9148213933493358
 40
0.927087699524238
 40
0.9388844537871428
 40
0.9502150476564154
 40
0.9610830286137257
 40
0.9714919517928556
 40
0.9814453790486761
 40
0.9909468749281506
 40
1.0
 40
1.0
 40
1.0
 40
1.0
 10
-47.71747238463927
 20
201.6421187326558
 30
0.0
 10
-47.72272029230912
 20
201.6411957471198
 30
0.0
 10
-47.73383956306923
 20
201.6392401246645
 30
0.0
 10
-47.7622577911746
 20
201.6447105064612
 30
0.0
 10
-47.80246713104084
 20
201.6590245265539
 30
0.0
 10
-47.85762122944131
 20
201.6857314007833
 30
0.0
 10
-47.92992262834758
 20
201.7278747908466
 30
0.0
 10
-48.02219203204031
 20
201.7890872241701
 30
0.0
 10
-48.1373963610291
 20
201.8732697071376
 30
0.0
 10
-48.27880536543494
 20
201.9847078930629
 30
0.0
 10
-48.44995838167207
 20
202.1280577554824
 30
0.0
 10
-48.65468543570675
 20
202.3083675454356
 30
0.0
 10
-48.89712239117966
 20
202.5311035487734
 30
0.0
 10
-49.18165903453059
 20
202.80208039729
 30
0.0
 10
-49.5129819304714
 20
203.1275238150854
 30
0.0
 10
-49.89609566997191
 20
203.5141007332979
 30
0.0
 10
-50.33633357747444
 20
203.9689368429828
 30
0.0
 10
-50.83936191188909
 20
204.4996260792555
 30
0.0
 10
-51.41120647221495
 20
205.1142736115525
 30
0.0
 10
-52.05809351894655
 20
205.821280930181
 30
0.0
 10
-52.78651904414769
 20
206.6294518950777
 30
0.0
 10
-53.60333322956778
 20
207.5480936440547
 30
0.0
 10
-54.51568057578898
 20
208.5869998363587
 30
0.0
 10
-55.5311822064394
 20
209.756475071451
 30
0.0
 10
-57.37300017295694
 20
211.90042840234
 30
0.0
 10
-60.26222419282276
 20
215.3159555789879
 30
0.0
 10
-64.51240249380474
 20
220.4247798536992
 30
0.0
 10
-69.20846616335241
 20
226.1434725937178
 30
0.0
 10
-74.27413808804091
 20
232.3766244017036
 30
0.0
 10
-78.77428793036461
 20
237.9629737019651
 30
0.0
 10
-82.48620392015168
 20
242.5969190975611
 30
0.0
 10
-85.28717434229686
 20
246.1047649594969
 30
0.0
 10
-88.12413038595822
 20
249.6686589507219
 30
0.0
 10
-90.98813110146659
 20
253.2770701873229
 30
0.0
 10
-93.87073296136013
 20
256.9191626055082
 30
0.0
 10
-96.76395051098535
 20
260.5846232400056
 30
0.0
 10
-99.65970577403608
 20
264.2629535414343
 30
0.0
 10
-102.5505102180994
 20
267.9443787718552
 30
0.0
 10
-105.4294025055657
 20
271.6197694139653
 30
0.0
 10
-108.2898919757623
 20
275.2805648617484
 30
0.0
 10
-111.1256052739581
 20
278.9183034706987
 30
0.0
 10
-113.9307370424795
 20
282.5252283654385
 30
0.0
 10
-116.699948129125
 20
286.0941546448904
 30
0.0
 10
-119.4283990220977
 20
289.6185168180696
 30
0.0
 10
-122.1115000173064
 20
293.0920361844003
 30
0.0
 10
-124.7450617247723
 20
296.50892766608
 30
0.0
 10
-127.3253377489872
 20
299.8639568026358
 30
0.0
 10
-129.8489506765552
 20
303.1523458369234
 30
0.0
 10
-132.3129130125959
 20
306.3698025129711
 30
0.0
 10
-134.7144892420519
 20
309.5123400564846
 30
0.0
 10
-137.0512803381244
 20
312.5763933250195
 30
0.0
 10
-139.3212055252217
 20
315.5587939511225
 30
0.0
 10
-141.5224550028086
 20
318.4567107038949
 30
0.0
 10
-143.6534751602454
 20
321.2676314389262
 30
0.0
 10
-145.7129665403775
 20
323.989361753989
 30
0.0
 10
-147.6998185996501
 20
326.6199402907224
 30
0.0
 10
-149.6131613730548
 20
329.1577178284785
 30
0.0
 10
-151.4522672226175
 20
331.6011881485674
 30
0.0
 10
-153.2167223170596
 20
333.9493520405051
 30
0.0
 10
-154.9057335726633
 20
336.2003274703683
 30
0.0
 10
-156.0087426834606
 20
337.6729098075156
 30
0.0
 10
-156.5469201790631
 20
338.3914085637966
 30
0.0
  0
SPLINE
  5
17F
330
1F
100
AcDbEntity
  8
0
  6
Continuous
 62
     8
370
     0
100
AcDbSpline
210
0.0
220
0.0
230
1.0
 70
     8
 71
     3
 72
     9
 73
     5
 74
     0
 42
0.00000001
 43
0.00000001
 12
1.0
 22
0.0
 32
0.0
 13
1.0
 23
0.0
 33
0.0
 40
0.0
 40
0.0
 40
0.0
 40
0.0
 40
0.4998792590333557
 40
1.0
 40
1.0
 40
1.0
 40
1.0
 10
335.3650894033794
 20
589.4683084890492
 30
0.0
 10
334.7263848253714
 20
589.1820471339408
 30
0.0
 10
333.4486671236143
 20
588.6093861364393
 30
0.0
 10
332.1225399468148
 20
588.0146621396309
 30
0.0
 10
331.4593162405376
 20
587.7172283336765
 30
0.0
  0
LWPOLYLINE
  5
180
330
1F
100
AcDbEntity
  8
0
  6
Continuous
 62
     8
370
     0
100
AcDbPolyline
 90
       56
 70
   128
 43
0.0
 10
263.3301045763
 20
562.8710917637
 10
261.8758108485
 20
564.3254003927
 10
260.384115206
 20
565.8170662329
 10
258.8554646838
 20
567.3457316563
 10
257.2902169096
 20
568.9109645292
 10
255.6888189185
 20
570.5123774216
 10
254.0516581404
 20
572.1495232985
 10
252.3791816103
 20
573.8219998285
 10
250.6718363631
 20
575.529359977
 10
248.9300396311
 20
577.2711418078
 10
247.154298054
 20
579.0469131872
 10
245.3449990618
 20
580.8561823771
 10
243.5027088988
 20
582.6984874413
 10
241.6278447974
 20
584.5733515427
 10
239.7209133971
 20
586.4802680418
 10
237.7824511397
 20
588.4187452004
 10
235.81290506
 20
590.3882763788
 10
233.8128414023
 20
592.3883400366
 10
231.7827668059
 20
594.418414633
 10
229.7232177126
 20
596.4779637262
 10
227.6347305643
 20
598.5664508745
 10
225.5178716051
 20
600.6833247349
 10
223.3731474745
 20
602.8280339644
 10
221.2011840212
 20
605.0000123188
 10
219.0024878847
 20
607.1986935541
 10
216.7776849139
 20
609.4235114262
 10
214.5273413527
 20
611.6738549873
 10
212.2520532477
 20
613.9491430924
 10
209.952386843
 20
616.2487945959
 10
207.6289977896
 20
618.5721985504
 10
205.2824523318
 20
620.9187440083
 10
202.9133763182
 20
623.2878051207
 10
200.5224254
 20
625.67877094
 10
198.1101658213
 20
628.0910156176
 10
195.6772830355
 20
630.5239133045
 10
193.2244028914
 20
632.9768083498
 10
190.7521214354
 20
635.4490600035
 10
188.2611539233
 20
637.9400275156
 10
185.7521262038
 20
640.4490552351
 10
183.2257237303
 20
642.9754875109
 10
180.6825425494
 20
645.5186388895
 10
178.1232979166
 20
648.0778835222
 10
175.5486752856
 20
650.6525359556
 10
172.9593005049
 20
653.241880934
 10
170.3558888304
 20
655.8452926085
 10
167.7391257155
 20
658.4620557234
 10
165.1096668112
 20
661.0915146277
 10
162.4682571757
 20
663.7329540655
 10
159.8155226576
 20
666.3856587813
 10
157.1522083151
 20
669.0490029261
 10
154.4789697993
 20
671.7222116396
 10
151.7965521681
 20
674.4046292708
 10
149.1056408751
 20
677.0955405638
 10
146.4069511759
 20
679.794230263
 10
143.701168524
 20
682.5000129149
 10
140.9890379774
 20
685.2121434614
  0
LWPOLYLINE
  5
181
330
1F
100
AcDbEntity
  8
0
  6
Continuous
 62
     8
370
     0
100
AcDbPolyline
 90
       56
 70
   128
 43
0.0
 10
97.855510937
 20
728.3456705019
 10
95.1433803904
 20
731.0578010485
 10
92.4375977385
 20
733.7635837004
 10
89.7389080393
 20
736.4622733996
 10
87.0479967463
 20
739.1531846926
 10
84.3655791151
 20
741.8356023237
 10
81.6923704016
 20
744.5088408396
 10
79.0290262568
 20
747.1721551821
 10
76.3763215411
 20
749.8248897001
 10
73.7348821032
 20
752.4662993357
 10
71.1054231989
 20
755.0957582399
 10
68.488660084
 20
757.7125213549
 10
65.8852484095
 20
760.3159330294
 10
63.2959034312
 20
762.90530781
 10
60.7212509978
 20
765.4799304411
 10
58.162006365
 20
768.0391750738
 10
55.6188549864
 20
770.5823562548
 10
53.0924227106
 20
773.1087587282
 10
50.5833949911
 20
775.6177864477
 10
48.092427479
 20
778.1087539599
 10
45.6201758253
 20
780.5810354159
 10
43.1672807801
 20
783.03391556
 10
40.7343830931
 20
785.4667983458
 10
38.3221384156
 20
787.8790579245
 10
35.9311725962
 20
790.2700088427
 10
33.5621114838
 20
792.6390848562
 10
31.215566026
 20
794.9856303141
 10
28.8921620715
 20
797.3090193674
 10
26.5925105679
 20
799.6086857721
 10
24.3172224629
 20
801.8839738772
 10
22.0668789017
 20
804.1343174383
 10
19.8420610297
 20
806.3591204092
 10
17.6433797943
 20
808.5578165457
 10
15.4714014399
 20
810.729779999
 10
13.3266922104
 20
812.8745041296
 10
11.2098183501
 20
814.9913630888
 10
9.1213312018
 20
817.0798502371
 10
7.0617821085
 20
819.1393993303
 10
5.0317075121
 20
821.1694739267
 10
3.0316438544
 20
823.1695375845
 10
1.0621126759
 20
825.1390836641
 10
-0.8763644827
 20
827.0775459215
 10
-2.7832809818
 20
828.9844773218
 10
-4.6581450832
 20
830.8593414232
 10
-6.5004501474
 20
832.7016315863
 10
-8.3097193372
 20
834.5109305784
 10
-10.0854907167
 20
836.2866721556
 10
-11.8272725475
 20
838.0284688875
 10
-13.5346326959
 20
839.7358141348
 10
-15.207109226
 20
841.4082906649
 10
-16.8442551029
 20
843.0454514429
 10
-18.4456679952
 20
844.6468494341
 10
-20.0109008682
 20
846.2120972082
 10
-21.5395662916
 20
847.7407477305
 10
-23.0312321317
 20
849.2324433729
 10
-24.4855407608
 20
850.6867371008
  0
LWPOLYLINE
  5
182
330
1F
100
AcDbEntity
  8
0
  6
Continuous
 62
     8
370
     0
100
AcDbPolyline
 90
        9
 70
   128
 43
0.0
 10
130.382421242
 20
695.8187601969
 10
127.6449289191
 20
698.5562823221
 10
124.9052312243
 20
701.2959502146
 10
122.1641328204
 20
704.0370784208
 10
119.4222893584
 20
706.7789218828
 10
116.6804458964
 20
709.5207653448
 10
113.9393176901
 20
712.2618637488
 10
111.1996497977
 20
715.0015614435
 10
108.4621276724
 20
717.7390537665
  0
LWPOLYLINE
  5
183
330
1F
100
AcDbEntity
  8
0
  6
Continuous
 62
     8
370
     0
100
AcDbPolyline
 90
       56
 70
   128
 43
0.0
 10
-24.9472830427
 20
850.4223606989
 10
-23.4938833845
 20
848.9689610407
 10
-22.0029924047
 20
847.4780700609
 10
-20.4749975336
 20
845.9500751898
 10
-18.9103011024
 20
844.3853638575
 10
-17.3093054426
 20
842.7843830988
 10
-15.6724426878
 20
841.1474905417
 10
-14.0001300705
 20
839.4751928255
 10
-12.2928146255
 20
837.7678773806
 10
-10.5509433878
 20
836.026021044
 10
-8.7749931944
 20
834.2500708506
 10
-6.9654110801
 20
832.4404738352
 10
-5.1226738823
 20
830.5977366373
 10
-3.2472584379
 20
828.7223360941
 10
-1.3396862877
 20
826.8147490427
 10
0.5995657313
 20
824.8755119249
 10
2.5699760783
 20
822.905101578
 10
4.5710232127
 20
820.9040246412
 10
6.602200495
 20
818.8728771612
 10
8.6629565823
 20
816.8121061728
 10
10.7527401316
 20
814.7223375246
 10
12.8710296023
 20
812.6040480539
 10
15.017243849
 20
810.4578338072
 10
17.1908315289
 20
808.2842312262
 10
19.3912114966
 20
806.0838661596
 10
21.617817508
 20
803.8572452471
 10
23.8700535166
 20
801.6050241396
 10
26.1473234761
 20
799.327739279
 10
28.4490313399
 20
797.0260463164
 10
30.7745810616
 20
794.7004816935
 10
33.1233616936
 20
792.3517010615
 10
35.494732486
 20
789.9803302691
 10
37.8880973923
 20
787.5869653628
 10
40.3028156626
 20
785.1722619936
 10
42.738246547
 20
782.7368162081
 10
45.1937492955
 20
780.2813134596
 10
47.6686831581
 20
777.8063795969
 10
50.1624073851
 20
775.3126702711
 10
52.6742514241
 20
772.800811331
 10
55.2035596239
 20
770.2715180323
 10
57.7496614325
 20
767.7254162237
 10
60.3118862975
 20
765.1631913588
 10
62.8895785677
 20
762.5854990885
 10
65.4820229876
 20
759.9930546686
 10
68.0885937083
 20
757.386483948
 10
70.7085456717
 20
754.7665319845
 10
73.3412232268
 20
752.1338544294
 10
75.9859409201
 20
749.4891367361
 10
78.6419536936
 20
746.8330941603
 10
81.3086356985
 20
744.1664419577
 10
83.9852418768
 20
741.4898357794
 10
86.6710569727
 20
738.8040206835
 10
89.3653955328
 20
736.1096523211
 10
92.0675721037
 20
733.4075055525
 10
94.776811825
 20
730.6982658312
 10
97.4924590456
 20
727.9826186106
  0
LWPOLYLINE
  5
184
330
1F
100
AcDbEntity
  8
0
  6
Continuous
 62
     8
370
     0
100
AcDbPolyline
 90
        9
 70
   128
 43
0.0
 10
108.0990757811
 20
717.3760018751
 10
110.836568104
 20
714.6384797499
 10
113.5762657988
 20
711.8988118574
 10
116.3173642027
 20
709.1576836512
 10
119.0592076647
 20
706.4158401892
 10
121.8010511267
 20
703.6739967272
 10
124.542179333
 20
700.9328983233
 10
127.2818472254
 20
698.1932006285
 10
130.0193693507
 20
695.4557083056
  0
LWPOLYLINE
  5
185
330
1F
100
AcDbEntity
  8
0
  6
Continuous
 62
     8
370
     0
100
AcDbPolyline
 90
       56
 70
   128
 43
0.0
 10
140.6259860861
 20
684.8490915701
 10
143.3416333067
 20
682.1334443495
 10
146.050873028
 20
679.4242046282
 10
148.7530197966
 20
676.7220280573
 10
151.447388159
 20
674.0276894972
 10
154.1332032549
 20
671.3418744013
 10
156.8098094332
 20
668.665268223
 10
159.4764616358
 20
665.9985862181
 10
162.1325042117
 20
663.3425734446
 10
164.777221905
 20
660.6978557512
 10
167.4098994601
 20
658.0651781962
 10
170.0298514235
 20
655.4452262327
 10
172.6364221442
 20
652.8386555121
 10
175.228866564
 20
650.2462110922
 10
177.8065588343
 20
647.6685188219
 10
180.3687836993
 20
645.106293957
 10
182.9148855078
 20
642.5601921484
 10
185.4441788065
 20
640.0308839485
 10
187.9560377467
 20
637.5190399096
 10
190.4497470724
 20
635.0253156826
 10
192.9246809351
 20
632.5503818199
 10
195.3801836836
 20
630.0948790714
 10
197.8156294691
 20
627.6594481871
 10
200.2303328383
 20
625.2447299168
 10
202.6236977446
 20
622.8513650105
 10
204.995068537
 20
620.4799942181
 10
207.343849169
 20
618.1312135861
 10
209.6694137919
 20
615.8056638643
 10
211.9711067545
 20
613.5039560005
 10
214.2483916151
 20
611.2266860411
 10
216.5006127226
 20
608.9744500324
 10
218.7272336352
 20
606.747844021
 10
220.9275987017
 20
604.5474640534
 10
223.1012012827
 20
602.3738763735
 10
225.2474155295
 20
600.2276621267
 10
227.3657050002
 20
598.1093726561
 10
229.4554736483
 20
596.0195891068
 10
231.5162446368
 20
593.9588330195
 10
233.5473921168
 20
591.9276557371
 10
235.5484690535
 20
589.9266086027
 10
237.5188794005
 20
587.9561982557
 10
239.4581165182
 20
586.0169462368
 10
241.3657035696
 20
584.1093740866
 10
243.2411041129
 20
582.2339586422
 10
245.0838413107
 20
580.3912214443
 10
246.8934383261
 20
578.5816393301
 10
248.6693885195
 20
576.8056891367
 10
250.4112448561
 20
575.063817899
 10
252.1185603011
 20
573.356502454
 10
253.7908580172
 20
571.6841898367
 10
255.4277505743
 20
570.0473270819
 10
257.028731333
 20
568.4463314221
 10
258.5934426653
 20
566.8816349909
 10
260.1214375365
 20
565.3536401198
 10
261.6123285162
 20
563.86274914
 10
263.0657281744
 20
562.4093494818
  0
SPLINE
  5
186
330
1F
100
AcDbEntity
  8
0
  6
Continuous
 62
     8
370
     0
100
AcDbSpline
210
0.0
220
0.0
230
1.0
 70
     8
 71
     3
 72
    77
 73
    73
 74
     0
 42
0.00000001
 43
0.00000001
 12
1.0
 22
0.0
 32
0.0
 13
1.0
 23
0.0
 33
0.0
 40
0.0
 40
0.0
 40
0.0
 40
0.0
 40
0.0156249999999999
 40
0.0156249999999999
 40
0.0312499999999997
 40
0.0312499999999997
 40
0.0624999999999994
 40
0.0624999999999994
 40
0.0937499999999992
 40
0.0937499999999992
 40
0.1249999999999989
 40
0.1249999999999989
 40
0.1406249999999988
 40
0.1406249999999988
 40
0.1562499999999987
 40
0.1562499999999987
 40
0.1874999999999984
 40
0.1874999999999984
 40
0.2187499999999982
 40
0.2187499999999982
 40
0.2343749999999981
 40
0.2343749999999981
 40
0.242187499999998
 40
0.242187499999998
 40
0.2499999999999979
 40
0.2499999999999979
 40
0.2656249999999978
 40
0.2656249999999978
 40
0.2812499999999978
 40
0.3124999999999977
 40
0.3203124999999977
 40
0.3203124999999977
 40
0.3281249999999976
 40
0.3281249999999976
 40
0.3437499999999977
 40
0.3437499999999977
 40
0.3749999999999979
 40
0.3749999999999979
 40
0.3906249999999979
 40
0.3906249999999979
 40
0.4062499999999981
 40
0.4062499999999981
 40
0.4218749999999981
 40
0.4218749999999981
 40
0.4374999999999982
 40
0.4374999999999982
 40
0.4687499999999983
 40
0.4687499999999983
 40
0.4999999999999984
 40
0.5312499999999986
 40
0.5312499999999986
 40
0.5624999999999988
 40
0.5624999999999988
 40
0.5937499999999989
 40
0.5937499999999989
 40
0.6249999999999991
 40
0.6249999999999991
 40
0.6874999999999993
 40
0.6874999999999993
 40
0.7499999999999996
 40
0.7499999999999996
 40
0.8124999999999998
 40
0.8124999999999998
 40
0.8437499999999997
 40
0.8437499999999997
 40
0.8749999999999997
 40
0.8749999999999997
 40
0.9374999999999998
 40
0.9374999999999998
 40
0.9687499999999998
 40
0.9687499999999998
 40
1.0
 40
1.0
 40
1.0
 40
1.0
 10
-51.1720167526315
 20
206.1307667215117
 30
0.0
 10
-51.25967355397429
 20
206.9484488237026
 30
0.0
 10
-51.3526802028732
 20
207.8367211281239
 30
0.0
 10
-51.54734595895957
 20
209.7584453890446
 30
0.0
 10
-51.64892782639996
 20
210.7920906207367
 30
0.0
 10
-51.9585917215332
 20
214.0785555463935
 30
0.0
 10
-52.17244939443222
 20
216.5235028829971
 30
0.0
 10
-52.58659436191044
 20
221.904119994709
 30
0.0
 10
-52.78553957514928
 20
224.8416112081145
 30
0.0
 10
-53.12458017538007
 20
231.2124822386104
 30
0.0
 10
-53.26596365984104
 20
234.6431850257076
 30
0.0
 10
-53.39720888569696
 20
240.1739271964448
 30
0.0
 10
-53.42693463304732
 20
242.0797242031072
 30
0.0
 10
-53.45003730889692
 20
245.9937181900778
 30
0.0
 10
-53.44334861735719
 20
248.0003216394471
 30
0.0
 10
-53.35684627958526
 20
254.1528193346405
 30
0.0
 10
-53.21045187378062
 20
258.4395653829113
 30
0.0
 10
-52.66422163609688
 20
267.3711418045306
 30
0.0
 10
-52.26445738049362
 20
272.016102336526
 30
0.0
 10
-51.39886841417571
 20
279.2499467088194
 30
0.0
 10
-51.06611011453205
 20
281.7056103674566
 30
0.0
 10
-50.48861651593542
 20
285.4560115032439
 30
0.0
 10
-50.28310389686744
 20
286.7172480166751
 30
0.0
 10
-49.84348622200335
 20
289.2634749892572
 30
0.0
 10
-49.60959074527835
 20
290.547493136698
 30
0.0
 10
-48.86557464249491
 20
294.4177878860201
 30
0.0
 10
-48.31396956131348
 20
297.0163476221518
 30
0.0
 10
-47.08967980325268
 20
302.2390146695686
 30
0.0
 10
-45.07115523754401
 20
310.1153390027349
 30
0.0
 10
-42.02365233077213
 20
319.4275307429763
 30
0.0
 10
-39.3688626116423
 20
326.1226520576452
 30
0.0
 10
-38.26739126422913
 20
328.8035901301425
 30
0.0
 10
-37.69644173195477
 20
330.1464430082905
 30
0.0
 10
-35.92600345158439
 20
334.1702644802809
 30
0.0
 10
-34.67067514039834
 20
336.8434845046189
 30
0.0
 10
-30.71334326632075
 20
344.7570326339727
 30
0.0
 10
-27.80526135599856
 20
349.924906663347
 30
0.0
 10
-23.05711221259268
 20
357.5134957771054
 30
0.0
 10
-21.41028464643138
 20
360.0160187036914
 30
0.0
 10
-17.99252871719875
 20
364.9676701891954
 30
0.0
 10
-16.2193196802228
 20
367.4189865726792
 30
0.0
 10
-12.55950645178724
 20
372.2626243893841
 30
0.0
 10
-10.6746984228285
 20
374.6532166130336
 30
0.0
 10
-6.823311377067654
 20
379.3496804148949
 30
0.0
 10
-4.859047322930687
 20
381.6521170360525
 30
0.0
 10
1.142474142903971
 20
388.441841997728
 30
0.0
 10
5.289460352016329
 20
392.8113596155827
 30
0.0
 10
13.82236258471023
 20
401.2948785360356
 30
0.0
 10
22.59472323949113
 20
409.5222811709165
 30
0.0
 10
31.77135386428379
 20
417.3198425469462
 30
0.0
 10
41.11279603700049
 20
424.9436789496964
 30
0.0
 10
45.85623938106942
 20
428.6591841851515
 30
0.0
 10
55.40800141580976
 20
435.8901617206114
 30
0.0
 10
60.2179880064373
 20
439.4081488467635
 30
0.0
 10
69.90124540801762
 20
446.2906424530838
 30
0.0
 10
74.7726393030082
 20
449.6546643108058
 30
0.0
 10
89.45804060600942
 20
459.5526120601378
 30
0.0
 10
99.34331036970472
 20
465.8923007384714
 30
0.0
 10
119.2274690988982
 20
478.2089769026128
 30
0.0
 10
129.2284417791828
 20
484.1814126536896
 30
0.0
 10
149.2980764806891
 20
495.85317126308
 30
0.0
 10
159.3675506852895
 20
501.5501408631129
 30
0.0
 10
174.5009638804201
 20
509.9366785201569
 30
0.0
 10
179.5506856459212
 20
512.7054983879223
 30
0.0
 10
189.6090292974868
 20
518.1697818714721
 30
0.0
 10
194.6216645222839
 20
520.867517864836
 30
0.0
 10
209.607968372351
 20
528.8673203282406
 30
0.0
 10
219.5281641346801
 20
534.0757345768307
 30
0.0
 10
234.2790152678888
 20
541.721853760705
 30
0.0
 10
239.1744493749914
 20
544.2429292331885
 30
0.0
 10
248.9189421037204
 20
549.2322603707619
 30
0.0
 10
253.7677838172728
 20
551.7003576838094
 30
0.0
 10
258.5906630045245
 20
554.1424964688212
 30
0.0
  0
LWPOLYLINE
  5
187
330
1F
100
AcDbEntity
  8
0
  6
Continuous
 62
     8
370
     0
100
AcDbPolyline
 90
       51
 70
   128
 43
0.0
 10
-295.9779698384
 20
629.3757043287
 10
-295.9765616787
 20
629.3478242561
 10
-295.9652889502
 20
629.1247687742
 10
-295.9427434933
 20
628.6788366243
 10
-295.9089476597
 20
628.0103109285
 10
-295.8639312518
 20
627.119668524
 10
-295.8077091706
 20
626.0075203583
 10
-295.7403335703
 20
624.6746412918
 10
-295.6618491542
 20
623.1219551966
 10
-295.5723006261
 20
621.3505349562
 10
-295.4717624915
 20
619.3616024658
 10
-295.3603018057
 20
617.1565584347
 10
-295.2379856241
 20
614.7369227812
 10
-295.104910804
 20
612.1043644354
 10
-294.9611667526
 20
609.2607162401
 10
-294.8068503273
 20
606.2079451487
 10
-294.6420732868
 20
602.9481671259
 10
-294.4669399393
 20
599.4836471483
 10
-294.2815843952
 20
595.8167992041
 10
-294.0861258638
 20
591.9501266882
 10
-293.8807059062
 20
587.8863565132
 10
-293.6654586327
 20
583.6282751963
 10
-293.4405479562
 20
579.1788480684
 10
-293.2061154378
 20
574.5411447689
 10
-292.96232499
 20
569.7184137509
 10
-292.709355427
 20
564.713963072
 10
-292.4473706615
 20
559.5312796042
 10
-292.1765644086
 20
554.1739545271
 10
-291.8971154821
 20
548.64569823
 10
-291.6092175973
 20
542.9503552124
 10
-291.3130719197
 20
537.0918593809
 10
-291.0088870657
 20
531.0742936537
 10
-290.6968716514
 20
524.9018005535
 10
-290.3772417438
 20
518.578686516
 10
-290.0502208603
 20
512.1093101308
 10
-289.7160325182
 20
505.4981789992
 10
-289.3749076855
 20
498.7498752281
 10
-289.0270847809
 20
491.8690628812
 10
-288.6728096736
 20
484.8605177805
 10
-288.312320782
 20
477.7291126058
 10
-287.9458639753
 20
470.4797721908
 10
-287.5737074745
 20
463.117533128
 10
-287.1961045992
 20
455.6474990651
 10
-286.8133086693
 20
448.074851881
 10
-286.4255953562
 20
440.4048367843
 10
-286.0332254303
 20
432.6427734897
 10
-285.6364820135
 20
424.7940450415
 10
-285.2356258762
 20
416.8640903637
 10
-284.8309401405
 20
408.8584098473
 10
-284.4227079284
 20
400.7825523123
 10
-284.0112198126
 20
392.6421187327
  0
LWPOLYLINE
  5
188
330
1F
100
AcDbEntity
  8
0
  6
Continuous
 62
     8
370
     0
100
AcDbPolyline
 90
       18
 70
   128
 43
0.0
 10
-279.7145146859
 20
382.5320785374
 10
-279.751499368
 20
383.3348208547
 10
-279.7882381809
 20
384.135111931
 10
-279.8245076072
 20
384.9277824603
 10
-279.8600692284
 20
385.7077143595
 10
-279.8946846259
 20
386.4698705703
 10
-279.9281377328
 20
387.209329053
 10
-279.9602124822
 20
387.9213158481
 10
-279.990700258
 20
388.601231619
 10
-280.0194073451
 20
389.2446870424
 10
-280.0461400282
 20
389.8475263242
 10
-280.0707343948
 20
390.405856536
 10
-280.0930265319
 20
390.9160720624
 10
-280.1128823292
 20
391.3748782335
 10
-280.1301527751
 20
391.7793122793
 10
-280.1447484625
 20
392.1267624802
 10
-280.1565650833
 20
392.4149850183
 10
-280.1655206812
 20
392.6421187327
  0
SPLINE
  5
189
330
1F
100
AcDbEntity
  8
0
  6
Continuous
 62
     8
370
     0
100
AcDbSpline
210
0.0
220
0.0
230
1.0
 70
     8
 71
     3
 72
    10
 73
     6
 74
     0
 42
0.00000001
 43
0.00000001
 12
1.0
 22
0.0
 32
0.0
 13
1.0
 23
0.0
 33
0.0
 40
0.0
 40
0.0
 40
0.0
 40
0.0
 40
0.5
 40
0.5
 40
1.0
 40
1.0
 40
1.0
 40
1.0
 10
-286.5285766151685
 20
382.5136149645686
 30
0.0
 10
-285.4188051550589
 20
382.4897263513013
 30
0.0
 10
-284.295859570535
 20
382.4799072401512
 30
0.0
 10
-282.0244949371314
 20
382.4853086075664
 30
0.0
 10
-280.8760753705098
 20
382.5005131750868
 30
0.0
 10
-279.7145137918109
 20
382.5320782737118
 30
0.0
  0
LWPOLYLINE
  5
18A
330
1F
100
AcDbEntity
  8
0
  6
Continuous
 62
     8
370
     0
100
AcDbPolyline
 90
       18
 70
   128
 43
0.0
 10
-286.5285772812
 20
382.5136150673
 10
-286.5084309113
 20
383.3228477717
 10
-286.4690024388
 20
384.1294411078
 10
-286.410552634
 20
384.9281107515
 10
-286.3334614766
 20
385.7136212729
 10
-286.238235606
 20
386.4808261834
 10
-286.1254934204
 20
387.2246977382
 10
-285.9959799779
 20
387.9403613948
 10
-285.8505446446
 20
388.6231270127
 10
-285.6901410949
 20
389.2685209841
 10
-285.5158124101
 20
389.8723134745
 10
-285.3287059796
 20
390.4305479929
 10
-285.1300511491
 20
390.9395664206
 10
-284.9211443198
 20
391.3960332258
 10
-284.7033563984
 20
391.7969570004
 10
-284.4781178963
 20
392.1397105998
 10
-284.2468965781
 20
392.4220479068
 10
-284.0112198126
 20
392.6421187327
  0
SPLINE
  5
18B
330
1F
100
AcDbEntity
  8
0
  6
Continuous
 62
     8
370
     0
100
AcDbSpline
210
0.0
220
0.0
230
1.0
 70
     8
 71
     3
 72
    30
 73
    26
 74
     0
 42
0.00000001
 43
0.00000001
 12
1.0
 22
0.0
 32
0.0
 13
1.0
 23
0.0
 33
0.0
 40
0.0
 40
0.0
 40
0.0
 40
0.0
 40
0.1250000000000046
 40
0.1250000000000046
 40
0.1875000000000055
 40
0.1875000000000055
 40
0.2500000000000064
 40
0.2500000000000064
 40
0.3750000000000088
 40
0.3750000000000088
 40
0.4375000000000087
 40
0.4375000000000087
 40
0.5000000000000087
 40
0.5000000000000087
 40
0.6250000000000062
 40
0.6250000000000062
 40
0.6875000000000059
 40
0.6875000000000059
 40
0.7500000000000057
 40
0.7500000000000057
 40
0.8750000000000036
 40
0.8750000000000036
 40
0.9375000000000018
 40
0.9375000000000018
 40
1.0
 40
1.0
 40
1.0
 40
1.0
 10
-302.7145137918109
 20
386.185493834617
 30
0.0
 10
-302.7145137918109
 20
385.7667156010939
 30
0.0
 10
-302.6242685923314
 20
385.4191167255474
 30
0.0
 10
-302.3439385119479
 20
384.9615767906653
 30
0.0
 10
-302.2265518310476
 20
384.8208002135102
 30
0.0
 10
-301.9464653367513
 20
384.5603715954481
 30
0.0
 10
-301.7835071226432
 20
384.4402849441992
 30
0.0
 10
-301.2260810918402
 20
384.1046720902705
 30
0.0
 10
-300.7634759356988
 20
383.9134972032269
 30
0.0
 10
-299.9270511609699
 20
383.6609684436225
 30
0.0
 10
-299.6255049664989
 20
383.5830231394649
 30
0.0
 10
-298.9853050597791
 20
383.4392680791788
 30
0.0
 10
-298.6456129559548
 20
383.3731402359929
 30
0.0
 10
-297.5685517383324
 20
383.1891527473821
 30
0.0
 10
-296.7735665350823
 20
383.0855438032744
 30
0.0
 10
-295.462305175063
 20
382.9509801691336
 30
0.0
 10
-295.0047259491543
 20
382.9096455619699
 30
0.0
 10
-294.0661685048294
 20
382.8343746049182
 30
0.0
 10
-293.5832494835026
 20
382.8002224561177
 30
0.0
 10
-292.0943330719157
 20
382.7065702425787
 30
0.0
 10
-291.0484310758683
 20
382.6557777396686
 30
0.0
 10
-289.3980515849886
 20
382.5927254960531
 30
0.0
 10
-288.8317677284044
 20
382.5738627940102
 30
0.0
 10
-287.6891999325224
 20
382.5406173634433
 30
0.0
 10
-287.1118515770814
 20
382.52617036944
 30
0.0
 10
-286.5285766151685
 20
382.5136149645712
 30
0.0
  0
LINE
  5
18C
330
1F
100
AcDbEntity
  8
0
  6
Continuous
 62
     8
370
     0
100
AcDbLine
 10
-279.7145146859
 20
382.5320785374
 30
0.0
 11
-279.7145146859
 21
153.6421261236
 31
0.0
  0
ARC
  5
18D
330
1F
100
AcDbEntity
  8
0
  6
Continuous
 62
     8
370
     0
100
AcDbCircle
 10
-294.6522315389
 20
386.0015139554
 30
0.0
 40
8.064383978928232
100
AcDbArc
 50
124.5684946091
 51
178.6927463218
  0
SPLINE
  5
18E
330
1F
100
AcDbEntity
  8
0
  6
Continuous
 62
     8
370
     0
100
AcDbSpline
210
0.0
220
0.0
230
1.0
 70
     8
 71
     3
 72
    18
 73
    14
 74
     0
 42
0.00000001
 43
0.00000001
 12
1.0
 22
0.0
 32
0.0
 13
1.0
 23
0.0
 33
0.0
 40
0.0
 40
0.0
 40
0.0
 40
0.0
 40
0.125
 40
0.125
 40
0.25
 40
0.25
 40
0.5
 40
0.5
 40
0.75
 40
0.75
 40
0.875
 40
0.875
 40
1.0
 40
1.0
 40
1.0
 40
1.0
 10
-279.7145137918109
 20
382.5320782737118
 30
0.0
 10
-276.1480662993762
 20
382.7035471218549
 30
0.0
 10
-272.5871717915343
 20
382.9335607451479
 30
0.0
 10
-265.4736947330443
 20
383.481251706027
 30
0.0
 10
-261.921127307616
 20
383.7990886626474
 30
0.0
 10
-251.2729451420839
 20
384.8530618501998
 30
0.0
 10
-244.1864842957436
 20
385.6884289619835
 30
0.0
 10
-230.0287387841407
 20
387.5087279720555
 30
0.0
 10
-222.9598596973219
 20
388.4942945011811
 30
0.0
 10
-212.3640682564004
 20
390.0238360561696
 30
0.0
 10
-208.8334018083957
 20
390.5423877754908
 30
0.0
 10
-201.7733010587349
 20
391.5879967548136
 30
0.0
 10
-198.2421257484118
 20
392.1153270823717
 30
0.0
 10
-194.7145137918114
 20
392.6421187326566
 30
0.0
  0
SPLINE
  5
18F
330
1F
100
AcDbEntity
  8
0
  6
Continuous
 62
     8
370
     0
100
AcDbSpline
210
0.0
220
0.0
230
1.0
 70
     8
 71
     3
 72
    30
 73
    26
 74
     0
 42
0.00000001
 43
0.00000001
 12
1.0
 22
0.0
 32
0.0
 13
1.0
 23
0.0
 33
0.0
 40
0.0
 40
0.0
 40
0.0
 40
0.0
 40
0.1249999999999996
 40
0.1249999999999996
 40
0.1562499999999995
 40
0.1562499999999995
 40
0.1874999999999995
 40
0.1874999999999995
 40
0.2499999999999994
 40
0.2499999999999994
 40
0.3749999999999994
 40
0.3749999999999994
 40
0.4999999999999994
 40
0.4999999999999994
 40
0.5624999999999996
 40
0.5624999999999996
 40
0.5937499999999998
 40
0.5937499999999998
 40
0.625
 40
0.625
 40
0.75
 40
0.75
 40
0.875
 40
0.875
 40
1.0
 40
1.0
 40
1.0
 40
1.0
 10
-302.7145137918109
 20
411.5361432085064
 30
0.0
 10
-302.7145137918109
 20
417.786348294942
 30
0.0
 10
-302.6819283983156
 20
423.990602700681
 30
0.0
 10
-302.6305060200215
 20
431.6884200580831
 30
0.0
 10
-302.619636073234
 20
433.2255575535985
 30
0.0
 10
-302.5973618666774
 20
436.2865465098172
 30
0.0
 10
-302.5859518602311
 20
437.8112917011154
 30
0.0
 10
-302.5516644935464
 20
442.3683796380155
 30
0.0
 10
-302.5287618650058
 20
445.3835826067877
 30
0.0
 10
-302.4647849328217
 20
454.3611373640811
 30
0.0
 10
-302.4288748425341
 20
460.2555576381012
 30
0.0
 10
-302.385001256125
 20
471.8629177432778
 30
0.0
 10
-302.3769590538524
 20
477.5758658260312
 30
0.0
 10
-302.3868259894994
 20
486.0059734632674
 30
0.0
 10
-302.3936756442299
 20
488.7927581150291
 30
0.0
 10
-302.4086457549685
 20
492.9373460153972
 30
0.0
 10
-302.4144103544386
 20
494.3117402062271
 30
0.0
 10
-302.4272687597283
 20
497.0379906917134
 30
0.0
 10
-302.4343665839453
 20
498.3910560505845
 30
0.0
 10
-302.4726503447952
 20
505.1063066537968
 30
0.0
 10
-302.5124063866587
 20
510.31854342964
 30
0.0
 10
-302.5926948043799
 20
520.424292414904
 30
0.0
 10
-302.6331283293272
 20
525.3178182279244
 30
0.0
 10
-302.6940803749552
 20
534.7800656271708
 30
0.0
 10
-302.714513791811
 20
539.3488341623257
 30
0.0
 10
-302.7145137918109
 20
543.7480942568045
 30
0.0
  0
LWPOLYLINE
  5
190
330
1F
100
AcDbEntity
  8
0
  6
Continuous
 62
     8
370
     0
100
AcDbPolyline
 90
       19
 70
   128
 43
0.0
 10
-311.7145124805
 20
410.7025831446
 10
-310.9301153553
 20
410.7057552293
 10
-310.1516786945
 20
410.715247269
 10
-309.3851406109
 20
410.7309866205
 10
-308.6363349092
 20
410.7528522119
 10
-307.9109463823
 20
410.7806819931
 10
-307.2145108116
 20
410.8142598972
 10
-306.5523255599
 20
410.8533307418
 10
-305.9294272196
 20
410.8975983665
 10
-305.3505543602
 20
410.9467274949
 10
-304.8201102746
 20
411.0003418729
 10
-304.3421480787
 20
411.0580335811
 10
-303.9202887547
 20
411.1193630353
 10
-303.5577435029
 20
411.1838664368
 10
-303.2572764886
 20
411.251048322
 10
-303.0211824906
 20
411.3204020515
 10
-302.8512421978
 20
411.3913967714
 10
-302.7487594617
 20
411.4634941772
 10
-302.7145165932
 20
411.5361429259
  0
SPLINE
  5
191
330
1F
100
AcDbEntity
  8
0
  6
Continuous
 62
     8
370
     0
100
AcDbSpline
210
0.0
220
0.0
230
1.0
 70
     8
 71
     3
 72
    30
 73
    26
 74
     0
 42
0.00000001
 43
0.00000001
 12
1.0
 22
0.0
 32
0.0
 13
1.0
 23
0.0
 33
0.0
 40
0.0
 40
0.0
 40
0.0
 40
0.0
 40
0.1250000000000002
 40
0.1250000000000002
 40
0.2500000000000005
 40
0.2500000000000005
 40
0.3750000000000005
 40
0.3750000000000005
 40
0.4062500000000007
 40
0.4062500000000007
 40
0.4375000000000008
 40
0.4375000000000008
 40
0.5000000000000007
 40
0.5000000000000007
 40
0.6250000000000006
 40
0.6250000000000006
 40
0.7500000000000004
 40
0.7500000000000004
 40
0.8125000000000006
 40
0.8125000000000006
 40
0.8437500000000004
 40
0.8437500000000004
 40
0.8750000000000004
 40
0.8750000000000004
 40
1.0
 40
1.0
 40
1.0
 40
1.0
 10
-311.7145137918109
 20
537.0816541601507
 30
0.0
 10
-311.7145137918109
 20
533.0041413669874
 30
0.0
 10
-311.6859952958549
 20
528.7479188945947
 30
0.0
 10
-311.6011798445518
 20
519.8891113945042
 30
0.0
 10
-311.5449828568627
 20
515.286497471158
 30
0.0
 10
-311.4333865654453
 20
505.7366887737291
 30
0.0
 10
-311.3781081828654
 20
500.7895036050751
 30
0.0
 10
-311.3248114913034
 20
494.3857373769822
 30
0.0
 10
-311.3149268101216
 20
493.0939723875381
 30
0.0
 10
-311.297014523281
 20
490.4882156478361
 30
0.0
 10
-311.2889798858653
 20
489.1727797263329
 30
0.0
 10
-311.2681211456452
 20
485.2034476378396
 30
0.0
 10
-311.2585912354443
 20
482.5323491647862
 30
0.0
 10
-311.244873637802
 20
474.4457978650949
 30
0.0
 10
-311.2560722458092
 20
468.9572466810733
 30
0.0
 10
-311.3170293707095
 20
457.7884483460037
 30
0.0
 10
-311.3669010775007
 20
452.1081985308085
 30
0.0
 10
-311.4558436665311
 20
443.4427708893608
 30
0.0
 10
-311.4876985715881
 20
440.5300806221049
 30
0.0
 10
-311.5354252046079
 20
436.1241991290356
 30
0.0
 10
-311.5513135208313
 20
434.6494283314537
 30
0.0
 10
-311.5823426999442
 20
431.6874794492789
 30
0.0
 10
-311.5974941874584
 20
430.1991515696793
 30
0.0
 10
-311.6691512685819
 20
422.7475627098626
 30
0.0
 10
-311.7145137918109
 20
416.7455667773728
 30
0.0
 10
-311.7145137918109
 20
410.70258330516
 30
0.0
  0
LWPOLYLINE
  5
192
330
1F
100
AcDbEntity
  8
0
  6
Continuous
 62
     8
370
     0
100
AcDbPolyline
 90
       19
 70
   128
 43
0.0
 10
-311.7145124805
 20
537.0816520855
 10
-310.9301153553
 20
537.107028763
 10
-310.1516786945
 20
537.1829352781
 10
-309.3851406109
 20
537.3088053867
 10
-308.6363349092
 20
537.4836854145
 10
-307.9109463823
 20
537.7062491581
 10
-307.2145108116
 20
537.974782984
 10
-306.5523255599
 20
538.2872603342
 10
-305.9294272196
 20
538.6413119242
 10
-305.3505543602
 20
539.0342108414
 10
-304.8201102746
 20
539.4629917547
 10
-304.3421480787
 20
539.9243764088
 10
-303.9202887547
 20
540.4148779318
 10
-303.5577435029
 20
540.9307412312
 10
-303.2572764886
 20
541.4680324003
 10
-303.0211824906
 20
542.0226983235
 10
-302.8512421978
 20
542.5904772684
 10
-302.7487594617
 20
543.1670777008
 10
-302.7145165932
 20
543.7480888769
  0
LINE
  5
193
330
1F
100
AcDbEntity
  8
0
  6
Continuous
 62
     8
370
     0
100
AcDbLine
 10
-351.2145105732
 20
587.6421115801
 30
0.0
 11
-351.2145105732
 21
197.6421258852
 31
0.0
  0
LINE
  5
194
330
1F
100
AcDbEntity
  8
0
  6
Continuous
 62
     8
370
     0
100
AcDbLine
 10
-311.7145124805
 20
197.6421258852
 30
0.0
 11
-311.7145124805
 21
410.7025831446
 31
0.0
  0
LINE
  5
195
330
1F
100
AcDbEntity
  8
0
  6
Continuous
 62
     8
370
     0
100
AcDbLine
 10
381.7854847777
 20
392.6421187327
 30
0.0
 11
381.7854847777
 21
583.642118375
 31
0.0
  0
LINE
  5
196
330
1F
100
AcDbEntity
  8
0
  6
Continuous
 62
     8
370
     0
100
AcDbLine
 10
381.7854847777
 20
201.6421190903
 30
0.0
 11
381.7854847777
 21
392.6421187327
 31
0.0
  0
LINE
  5
197
330
1F
100
AcDbEntity
  8
0
  6
Continuous
 62
     8
370
     0
100
AcDbLine
 10
-311.7145124805
 20
537.0816520855
 30
0.0
 11
-311.7145124805
 21
587.6421115801
 31
0.0
  0
SPLINE
  5
198
330
1F
100
AcDbEntity
  8
0
  6
Continuous
 62
     8
370
     0
100
AcDbSpline
210
0.0
220
0.0
230
1.0
 70
     8
 71
     3
 72
    14
 73
    10
 74
     0
 42
0.00000001
 43
0.00000001
 12
1.0
 22
0.0
 32
0.0
 13
1.0
 23
0.0
 33
0.0
 40
0.0
 40
0.0
 40
0.0
 40
0.0
 40
0.25
 40
0.25
 40
0.5
 40
0.5
 40
0.75
 40
0.75
 40
1.0
 40
1.0
 40
1.0
 40
1.0
 10
268.9650972642573
 20
550.0104744394486
 30
0.0
 10
269.2395611032504
 20
549.5174633091914
 30
0.0
 10
269.5334048277601
 20
549.0460599824875
 30
0.0
 10
270.1419734724249
 20
548.1671079800452
 30
0.0
 10
270.4565958570641
 20
547.7596032659766
 30
0.0
 10
271.0889544252307
 20
547.0203989309069
 30
0.0
 10
271.4066241529399
 20
546.6886658332827
 30
0.0
 10
272.0302718849376
 20
546.1039086159566
 30
0.0
 10
272.336227855615
 20
545.8508053473955
 30
0.0
 10
272.6310855845432
 20
545.6348986417274
 30
0.0
  0
SPLINE
  5
199
330
1F
100
AcDbEntity
  8
0
  6
Continuous
 62
     8
370
     0
100
AcDbSpline
210
0.0
220
0.0
230
1.0
 70
     8
 71
     3
 72
    83
 73
    79
 74
     0
 42
0.00000001
 43
0.00000001
 12
1.0
 22
0.0
 32
0.0
 13
1.0
 23
0.0
 33
0.0
 40
0.0
 40
0.0
 40
0.0
 40
0.0
 40
0.0625000000000004
 40
0.0625000000000004
 40
0.1250000000000008
 40
0.1250000000000008
 40
0.1562500000000011
 40
0.1562500000000011
 40
0.1718750000000011
 40
0.1718750000000011
 40
0.1875000000000012
 40
0.1875000000000012
 40
0.2187500000000012
 40
0.2187500000000012
 40
0.2500000000000013
 40
0.2500000000000013
 40
0.3125000000000013
 40
0.3125000000000013
 40
0.3437500000000012
 40
0.3437500000000012
 40
0.3750000000000012
 40
0.4062500000000012
 40
0.4062500000000012
 40
0.4375000000000012
 40
0.4375000000000012
 40
0.4531250000000011
 40
0.4531250000000011
 40
0.468750000000001
 40
0.468750000000001
 40
0.484375000000001
 40
0.484375000000001
 40
0.5000000000000009
 40
0.5312500000000009
 40
0.5312500000000009
 40
0.562500000000001
 40
0.562500000000001
 40
0.578125000000001
 40
0.578125000000001
 40
0.593750000000001
 40
0.593750000000001
 40
0.6093750000000009
 40
0.6093750000000009
 40
0.6250000000000009
 40
0.6250000000000009
 40
0.6562500000000009
 40
0.6562500000000009
 40
0.6640625000000009
 40
0.6640625000000009
 40
0.6718750000000008
 40
0.6718750000000008
 40
0.6875000000000008
 40
0.6875000000000008
 40
0.7187500000000008
 40
0.7187500000000008
 40
0.7500000000000007
 40
0.7500000000000007
 40
0.7656250000000007
 40
0.7656250000000007
 40
0.7812500000000007
 40
0.7812500000000007
 40
0.8125000000000006
 40
0.8125000000000006
 40
0.8437500000000004
 40
0.8437500000000004
 40
0.8593750000000004
 40
0.8593750000000004
 40
0.8750000000000003
 40
0.8750000000000003
 40
0.8906250000000003
 40
0.8906250000000003
 40
0.9062500000000003
 40
0.9375000000000002
 40
0.9375000000000002
 40
0.9687500000000001
 40
0.9687500000000001
 40
0.9843750000000001
 40
0.9843750000000001
 40
1.0
 40
1.0
 40
1.0
 40
1.0
 10
272.631085584282
 20
545.6348986416053
 30
0.0
 10
262.7809795227462
 20
541.0308557374561
 30
0.0
 10
252.8168169809332
 20
536.3255429991422
 30
0.0
 10
232.704567647563
 20
526.7015582127664
 30
0.0
 10
222.5554566331159
 20
521.7830180589964
 30
0.0
 10
207.2165247396728
 20
514.2239025993606
 30
0.0
 10
202.084390196807
 20
511.6741221758872
 30
0.0
 10
194.360799492837
 20
507.8005469617494
 30
0.0
 10
191.7822975258534
 20
506.5013332522415
 30
0.0
 10
186.6162481230543
 20
503.8853368577409
 30
0.0
 10
184.0280678171911
 20
502.5682154064639
 30
0.0
 10
176.2583956176134
 20
498.5931451702309
 30
0.0
 10
171.0753323312589
 20
495.9133210824698
 30
0.0
 10
160.7283359376462
 20
490.4988714760891
 30
0.0
 10
155.5615224494809
 20
487.762541719804
 30
0.0
 10
140.087905338782
 20
479.4535008980315
 30
0.0
 10
129.8063597128735
 20
473.7834866526354
 30
0.0
 10
114.4731985004801
 20
465.0131002863981
 30
0.0
 10
109.3772545675881
 20
462.0449348185555
 30
0.0
 10
99.22271287931444
 20
456.006173307548
 30
0.0
 10
89.10569998951662
 20
449.8646745043957
 30
0.0
 10
79.08682228053398
 20
443.4738276794368
 30
0.0
 10
69.12855095389115
 20
436.9363701248159
 30
0.0
 10
64.17983228367375
 20
433.5941168082784
 30
0.0
 10
56.81522348714074
 20
428.4451019478822
 30
0.0
 10
54.36941843222115
 20
426.7058069471958
 30
0.0
 10
49.49815966767995
 20
423.1757374834127
 30
0.0
 10
47.0736748456505
 20
421.3856292964307
 30
0.0
 10
42.25647133663104
 20
417.7547260756126
 30
0.0
 10
39.86318085839019
 20
415.9134276036228
 30
0.0
 10
35.12545816229226
 20
412.1866209771837
 30
0.0
 10
28.08842267965367
 20
406.5263981371172
 30
0.0
 10
21.28308241577204
 20
400.6319275777039
 30
0.0
 10
12.4562236525724
 20
392.5213750490696
 30
0.0
 10
8.164921582627493
 20
388.3418653498348
 30
0.0
 10
1.952216846528521
 20
381.8432126677729
 30
0.0
 10
-0.0812008706084499
 20
379.6386480026388
 30
0.0
 10
-4.065914251915325
 20
375.14531830339
 30
0.0
 10
-6.021239180852122
 20
372.850091506733
 30
0.0
 10
-9.828809774008462
 20
368.1837319258818
 30
0.0
 10
-11.6809392566567
 20
365.8127861186549
 30
0.0
 10
-15.25216874525054
 20
361.0177103242801
 30
0.0
 10
-16.97101333288911
 20
358.5938023987159
 30
0.0
 10
-21.92767101832865
 20
351.2353236385491
 30
0.0
 10
-24.96227514281921
 20
346.2159834130669
 30
0.0
 10
-28.39878523580655
 20
339.7984674057602
 30
0.0
 10
-29.06818009649129
 20
338.5081634549413
 30
0.0
 10
-30.37164853129914
 20
335.9120617434375
 30
0.0
 10
-31.00627320613994
 20
334.6049762519892
 30
0.0
 10
-32.85390897856779
 20
330.667913643359
 30
0.0
 10
-34.00948886299732
 20
328.0228708243625
 30
0.0
 10
-37.21852799153755
 20
320.1178418027624
 30
0.0
 10
-39.02698150043032
 20
314.8665765773478
 30
0.0
 10
-42.07340600639245
 20
304.4422754645281
 30
0.0
 10
-43.311124263753
 20
299.2709335051046
 30
0.0
 10
-44.80912923029584
 20
291.5978177197036
 30
0.0
 10
-45.24899028309895
 20
289.0523228202857
 30
0.0
 10
-46.01193076826876
 20
284.0641347303094
 30
0.0
 10
-46.33680234950166
 20
281.6140758630244
 30
0.0
 10
-47.16718335199019
 20
274.3958702867756
 30
0.0
 10
-47.52984048240513
 20
269.7593556842295
 30
0.0
 10
-47.98293391721603
 20
260.8425713895609
 30
0.0
 10
-48.07439056743701
 20
256.5618726978822
 30
0.0
 10
-48.07102571628821
 20
250.4174241658482
 30
0.0
 10
-48.04657648604144
 20
248.414515480926
 30
0.0
 10
-47.95961294330556
 20
244.5032919430167
 30
0.0
 10
-47.89716875716926
 20
242.597154419257
 30
0.0
 10
-47.7437277225419
 20
238.9066245497757
 30
0.0
 10
-47.65271635532084
 20
237.1250249218723
 30
0.0
 10
-47.45187302536427
 20
233.6889570380411
 30
0.0
 10
-47.12140643863122
 20
228.7222348064837
 30
0.0
 10
-46.72909742330012
 20
224.3172259008733
 30
0.0
 10
-46.19684741618698
 20
218.9424250602412
 30
0.0
 10
-45.92757072282319
 20
216.5024322573969
 30
0.0
 10
-45.54259554060411
 20
213.2265545781005
 30
0.0
 10
-45.4171366855595
 20
212.1968928060263
 30
0.0
 10
-45.17789539188033
 20
210.2839263282119
 30
0.0
 10
-45.06423765759995
 20
209.4008137729173
 30
0.0
 10
-44.95761373708396
 20
208.5890226822232
 30
0.0
  0
SPLINE
  5
19A
330
1F
100
AcDbEntity
  8
0
  6
Continuous
 62
     8
370
     0
100
AcDbSpline
210
0.0
220
0.0
230
1.0
 70
     8
 71
     3
 72
    14
 73
    10
 74
     0
 42
0.00000001
 43
0.00000001
 12
1.0
 22
0.0
 32
0.0
 13
1.0
 23
0.0
 33
0.0
 40
0.0
 40
0.0
 40
0.0
 40
0.0
 40
0.25
 40
0.25
 40
0.5
 40
0.5
 40
0.75
 40
0.75
 40
1.0
 40
1.0
 40
1.0
 40
1.0
 10
-51.17205473882022
 20
206.1308160787534
 30
0.0
 10
-50.76867606630459
 20
206.5061037467592
 30
0.0
 10
-50.32174091125871
 20
206.8520755739621
 30
0.0
 10
-49.35859873760948
 20
207.4609091768268
 30
0.0
 10
-48.84250250492697
 20
207.7236189504957
 30
0.0
 10
-47.76817306532743
 20
208.1486114999344
 30
0.0
 10
-47.21012284808126
 20
208.3108218853437
 30
0.0
 10
-46.0837266442406
 20
208.5285857047089
 30
0.0
 10
-45.51556896063824
 20
208.5841728219575
 30
0.0
 10
-44.9576138651322
 20
208.5891773921382
 30
0.0
  0
SPLINE
  5
19B
330
1F
100
AcDbEntity
  8
0
  6
Continuous
 62
     8
370
     0
100
AcDbSpline
210
0.0
220
0.0
230
1.0
 70
     8
 71
     3
 72
    12
 73
     8
 74
     0
 42
0.00000001
 43
0.00000001
 12
1.0
 22
0.0
 32
0.0
 13
1.0
 23
0.0
 33
0.0
 40
0.0
 40
0.0
 40
0.0
 40
0.0
 40
0.5
 40
0.5
 40
0.75
 40
0.75
 40
1.0
 40
1.0
 40
1.0
 40
1.0
 10
-44.95754019900647
 20
208.5891771178918
 30
0.0
 10
-44.65498283422436
 20
206.2863973191611
 30
0.0
 10
-44.7821224157034
 20
204.5549850941899
 30
0.0
 10
-45.50141448633602
 20
202.8134642639229
 30
0.0
 10
-45.82999317169786
 20
202.3758740303854
 30
0.0
 10
-46.65222570830177
 20
201.7902116186462
 30
0.0
 10
-47.16400865109996
 20
201.6421187326557
 30
0.0
 10
-47.71746957450412
 20
201.6421187326557
 30
0.0
  0
SPLINE
  5
19C
330
1F
100
AcDbEntity
  8
0
  6
Continuous
 62
     8
370
     0
100
AcDbSpline
210
0.0
220
0.0
230
1.0
 70
     8
 71
     3
 72
    14
 73
    10
 74
     0
 42
0.00000001
 43
0.00000001
 12
1.0
 22
0.0
 32
0.0
 13
1.0
 23
0.0
 33
0.0
 40
0.0
 40
0.0
 40
0.0
 40
0.0
 40
0.25
 40
0.25
 40
0.5
 40
0.5
 40
0.75
 40
0.75
 40
1.0
 40
1.0
 40
1.0
 40
1.0
 10
272.6310855842819
 20
545.6348986416053
 30
0.0
 10
277.3838790767202
 20
547.6471842102394
 30
0.0
 10
282.0716545048022
 20
549.6274477790279
 30
0.0
 10
291.2970724406642
 20
553.5169628010084
 30
0.0
 10
295.8348130879717
 20
555.4262535679867
 30
0.0
 10
304.7332977437084
 20
559.1639085037343
 30
0.0
 10
309.094217521391
 20
560.9923441859257
 30
0.0
 10
317.6013865589671
 20
564.5537952769907
 30
0.0
 10
321.7479802838361
 20
566.2869519481441
 30
0.0
 10
325.7593189852224
 20
567.9613586431885
 30
0.0
  0
SPLINE
  5
19D
330
1F
100
AcDbEntity
  8
0
  6
Continuous
 62
     8
370
     0
100
AcDbSpline
210
0.0
220
0.0
230
1.0
 70
     8
 71
     3
 72
    12
 73
     8
 74
     0
 42
0.00000001
 43
0.00000001
 12
1.0
 22
0.0
 32
0.0
 13
1.0
 23
0.0
 33
0.0
 40
0.0
 40
0.0
 40
0.0
 40
0.0
 40
0.1907245005773704
 40
0.3814376315227315
 40
0.5739460926562175
 40
0.766429535042102
 40
1.0
 40
1.0
 40
1.0
 40
1.0
 10
346.4542951452618
 20
578.3790580436832
 30
0.0
 10
346.3467054029728
 20
578.2153428316105
 30
0.0
 10
346.1315323321262
 20
577.8879221669963
 30
0.0
 10
345.6984126483868
 20
577.3722271173108
 30
0.0
 10
345.1684706718448
 20
576.8404919023848
 30
0.0
 10
344.4902794285395
 20
576.2553818423963
 30
0.0
 10
343.8867602326194
 20
575.8453833073393
 30
0.0
 10
343.5559000837688
 20
575.6206146881229
 30
0.0
  0
LINE
  5
19E
330
1F
100
AcDbEntity
  8
0
  6
Continuous
 62
     8
370
     0
100
AcDbLine
 10
146.2056066859
 20
925.1881621287
 30
0.0
 11
153.9837744105
 21
917.409994404
 31
0.0
  0
LINE
  5
19F
330
1F
100
AcDbEntity
  8
0
  6
Continuous
 62
     8
370
     0
100
AcDbLine
 10
337.8315296042
 20
733.5622392103
 30
0.0
 11
330.0533618796
 21
741.3404069349
 31
0.0
  0
ARC
  5
1A0
330
1F
100
AcDbEntity
  8
0
  6
Continuous
 62
     8
370
     0
100
AcDbCircle
 10
281.9376315231
 20
556.3704962391
 30
0.0
 40
14.20791395756887
100
AcDbArc
 50
205.7863575952
 51
229.078395065
  0
SPLINE
  5
1A1
330
1F
100
AcDbEntity
  8
0
  6
Continuous
 62
     8
370
     0
100
AcDbSpline
210
0.0
220
0.0
230
1.0
 70
     8
 71
     3
 72
    13
 73
     9
 74
     0
 42
0.00000001
 43
0.00000001
 12
1.0
 22
0.0
 32
0.0
 13
1.0
 23
0.0
 33
0.0
 40
0.0
 40
0.0
 40
0.0
 40
0.0
 40
0.166232792941743
 40
0.332496656418079
 40
0.4987374927180372
 40
0.6658161349251953
 40
0.8329160977769136
 40
1.0
 40
1.0
 40
1.0
 40
1.0
 10
313.8963904249554
 20
579.8243067667133
 30
0.0
 10
312.4402777432164
 20
579.16838956296
 30
0.0
 10
309.527780218039
 20
577.8564325581139
 30
0.0
 10
305.0430475864607
 20
575.8334938950544
 30
0.0
 10
300.477434036421
 20
573.7718612292748
 30
0.0
 10
295.8283709717495
 20
571.6699690561995
 30
0.0
 10
291.1093275437301
 20
569.5339845990278
 30
0.0
 10
287.9130359133842
 20
568.0848317117812
 30
0.0
 10
286.3149669039135
 20
567.3602900907642
 30
0.0
  0
ARC
  5
1A2
330
1F
100
AcDbEntity
  8
0
  6
Continuous
 62
     8
370
     0
100
AcDbCircle
 10
341.5230176635
 20
584.8551431572
 30
0.0
 40
7.694242967053481
100
AcDbArc
 50
143.1615618431
 51
176.4401046535
  0
LINE
  5
1A3
330
1F
100
AcDbEntity
  8
FORMAT
  6
CENTERX2
370
     0
100
AcDbLine
 10
442.4382319526
 20
392.6421187327
 30
0.0
 11
-408.7293078299
 21
392.6421187327
 31
0.0
  0
ARC
  5
1A4
330
1F
100
AcDbEntity
  8
0
  6
Continuous
 62
     7
370
    15
100
AcDbCircle
 10
129.8474987728
 20
-223.9202490805
 30
0.0
 40
239.0
100
AcDbArc
 50
42.5495470006
 51
62.8948262956
  0
ARC
  5
1A5
330
1F
100
AcDbEntity
  8
0
  6
Continuous
 62
     7
370
    15
100
AcDbCircle
 10
129.8474987728
 20
-223.9202490805
 30
0.0
 40
239.0
100
AcDbArc
 50
297.1051737044
 51
317.4504529994
  0
LINE
  5
1A6
330
1F
100
AcDbEntity
  8
0
  6
Continuous
 62
     7
370
    15
100
AcDbLine
 10
75.0467207301
 20
15.0797435285
 30
0.0
 11
-194.7145137918
 21
15.0797435285
 31
0.0
  0
LINE
  5
1A7
330
1F
100
AcDbEntity
  8
0
  6
Continuous
 62
     7
370
    15
100
AcDbLine
 10
-194.7145137918
 20
-462.9202416895
 30
0.0
 11
75.0467207301
 21
-462.9202416895
 31
0.0
  0
LINE
  5
1A8
330
1F
100
AcDbEntity
  8
0
  6
Continuous
 62
     7
370
    15
100
AcDbLine
 10
-381.7145202291
 20
-7.420249915
 30
0.0
 11
-384.7145114076
 21
-10.4202559946
 31
0.0
  0
LINE
  5
1A9
330
1F
100
AcDbEntity
  8
0
  6
Continuous
 62
     7
370
    15
100
AcDbLine
 10
-384.7145114076
 20
-437.4202421664
 30
0.0
 11
-381.7145202291
 21
-440.420248246
 31
0.0
  0
LINE
  5
1AA
330
1F
100
AcDbEntity
  8
0
  6
Continuous
 62
     7
370
    15
100
AcDbLine
 10
412.2854795325
 20
-440.420248246
 30
0.0
 11
415.2855005133
 21
-437.4202421664
 31
0.0
  0
LINE
  5
1AB
330
1F
100
AcDbEntity
  8
0
  6
Continuous
 62
     7
370
    15
100
AcDbLine
 10
415.2855005133
 20
-10.4202559946
 30
0.0
 11
412.2854795325
 21
-7.420249915
 31
0.0
  0
ARC
  5
1AC
330
1F
100
AcDbEntity
  8
0
  6
Continuous
 62
     7
370
    15
100
AcDbCircle
 10
-351.2145137918
 20
-19.9202490805
 30
0.0
 40
9.000000000000057
100
AcDbArc
 50
180.0
 51
270.0
  0
ARC
  5
1AD
330
1F
100
AcDbEntity
  8
0
  6
Continuous
 62
     7
370
    15
100
AcDbCircle
 10
-351.2145137918
 20
-427.9202490805
 30
0.0
 40
9.000000000000057
100
AcDbArc
 50
90.0
 51
180.0
  0
ARC
  5
1AE
330
1F
100
AcDbEntity
  8
0
  6
Continuous
 62
     7
370
    15
100
AcDbCircle
 10
381.7854862082
 20
-423.9202490805
 30
0.0
 40
9.0
100
AcDbArc
 50
0.0
 51
90.0
  0
ARC
  5
1AF
330
1F
100
AcDbEntity
  8
0
  6
Continuous
 62
     7
370
    15
100
AcDbCircle
 10
381.7854862082
 20
-23.9202490805
 30
0.0
 40
9.000000000000007
100
AcDbArc
 50
270.0
 51
0.0
  0
LINE
  5
1B0
330
1F
100
AcDbEntity
  8
0
  6
Continuous
 62
     7
370
    15
100
AcDbLine
 10
-311.7145124805
 20
-28.9202562331
 30
0.0
 11
-351.2145105732
 21
-28.9202562331
 31
0.0
  0
LINE
  5
1B1
330
1F
100
AcDbEntity
  8
0
  6
Continuous
 62
     7
370
    15
100
AcDbLine
 10
-351.2145105732
 20
-418.920241928
 30
0.0
 11
-311.7145124805
 21
-418.920241928
 31
0.0
  0
LINE
  5
1B2
330
1F
100
AcDbEntity
  8
0
  6
Continuous
 62
     7
370
    15
100
AcDbLine
 10
381.7854847777
 20
-32.9202494381
 30
0.0
 11
290.5209090578
 21
-32.9202494381
 31
0.0
  0
LINE
  5
1B3
330
1F
100
AcDbEntity
  8
0
  6
Continuous
 62
     7
370
    15
100
AcDbLine
 10
290.5209090578
 20
-414.9202487229
 30
0.0
 11
381.7854847777
 21
-414.9202487229
 31
0.0
  0
ARC
  5
1B4
330
1F
100
AcDbEntity
  8
0
  6
Continuous
 62
     7
370
    15
100
AcDbCircle
 10
-311.7145137918
 20
-19.9202490805
 30
0.0
 40
9.000000000000007
100
AcDbArc
 50
270.0
 51
0.0
  0
ARC
  5
1B5
330
1F
100
AcDbEntity
  8
0
  6
Continuous
 62
     7
370
    15
100
AcDbCircle
 10
-311.7145137918
 20
-427.9202490805
 30
0.0
 40
9.0
100
AcDbArc
 50
0.0
 51
90.0
  0
SPLINE
  5
1B6
330
1F
100
AcDbEntity
  8
0
  6
Continuous
 62
     7
370
    15
100
AcDbSpline
210
0.0
220
0.0
230
1.0
 70
     8
 71
     3
 72
    20
 73
    16
 74
     0
 42
0.00000001
 43
0.00000001
 12
1.0
 22
0.0
 32
0.0
 13
1.0
 23
0.0
 33
0.0
 40
0.0
 40
0.0
 40
0.0
 40
0.0
 40
0.0214116789812401
 40
0.1509289307193018
 40
0.2669112065702811
 40
0.3703522340410803
 40
0.4648607535145563
 40
0.5526751165573288
 40
0.6322380286568481
 40
0.7055420515490959
 40
0.7741745333047348
 40
0.8391103926151411
 40
0.9079408633181485
 40
0.9658201746793064
 40
1.0
 40
1.0
 40
1.0
 40
1.0
 10
-205.0295678880925
 20
15.07387247100353
 30
0.0
 10
-205.5607773604388
 20
15.07360268449762
 30
0.0
 10
-209.3052234507913
 20
15.0717009845468
 30
0.0
 10
-215.9296097649034
 20
15.05958512100703
 30
0.0
 10
-224.5943201340887
 20
15.04146576591001
 30
0.0
 10
-232.3956539947196
 20
15.02054631965152
 30
0.0
 10
-239.5027266964464
 20
14.99910932578893
 30
0.0
 10
-246.0214515315648
 20
14.97762904567787
 30
0.0
 10
-252.0173975954607
 20
14.95689204965356
 30
0.0
 10
-257.5403343495329
 20
14.93785657749658
 30
0.0
 10
-262.7030826824143
 20
14.92063299068094
 30
0.0
 10
-267.7584076521059
 20
14.9047552177897
 30
0.0
 10
-272.5493025951849
 20
14.8912396591086
 30
0.0
 10
-276.5738491189853
 20
14.88105433861492
 30
0.0
 10
-278.8784589101294
 20
14.87656432365522
 30
0.0
 10
-279.7341171634312
 20
14.87489726558208
 30
0.0
  0
SPLINE
  5
1B7
330
1F
100
AcDbEntity
  8
0
  6
Continuous
 62
     7
370
    15
100
AcDbSpline
210
0.0
220
0.0
230
1.0
 70
     8
 71
     3
 72
    20
 73
    16
 74
     0
 42
0.00000001
 43
0.00000001
 12
1.0
 22
0.0
 32
0.0
 13
1.0
 23
0.0
 33
0.0
 40
0.0
 40
0.0
 40
0.0
 40
0.0
 40
0.020176443190075
 40
0.0758758260463199
 40
0.1358743919785202
 40
0.2008761792926555
 40
0.2681309336799703
 40
0.3391453678768079
 40
0.4148376707174336
 40
0.4966455655375679
 40
0.5867031610027483
 40
0.6837803172939582
 40
0.7895676681511155
 40
0.9080037909710983
 40
1.0
 40
1.0
 40
1.0
 40
1.0
 10
-279.7341097128506
 20
-462.7154103277635
 30
0.0
 10
-279.2269216692558
 20
-462.7163466383964
 30
0.0
 10
-277.3195829274355
 20
-462.7198677417962
 30
0.0
 10
-273.9066412930251
 20
-462.7282471074134
 30
0.0
 10
-269.3701008514965
 20
-462.7405286517154
 30
0.0
 10
-264.5473334758541
 20
-462.7552029731642
 30
0.0
 10
-259.4524551352937
 20
-462.7718654244375
 30
0.0
 10
-254.0942870838894
 20
-462.7901882446915
 30
0.0
 10
-248.3766780331518
 20
-462.8100171060465
 30
0.0
 10
-242.1877754695539
 20
-462.8309567793884
 30
0.0
 10
-235.4697850396683
 20
-462.8520213475952
 30
0.0
 10
-228.1587667700986
 20
-462.8727570411193
 30
0.0
 10
-220.1455997936733
 20
-462.8918963975705
 30
0.0
 10
-212.2639732970829
 20
-462.9073139622181
 30
0.0
 10
-207.0218978091158
 20
-462.9122136842877
 30
0.0
 10
-204.7301821392889
 20
-462.9143557308626
 30
0.0
  0
SPLINE
  5
1B8
330
1F
100
AcDbEntity
  8
0
  6
Continuous
 62
     7
370
    15
100
AcDbSpline
210
0.0
220
0.0
230
1.0
 70
     8
 71
     3
 72
    31
 73
    27
 74
     0
 42
0.00000001
 43
0.00000001
 12
1.0
 22
0.0
 32
0.0
 13
1.0
 23
0.0
 33
0.0
 40
0.0
 40
0.0
 40
0.0
 40
0.0
 40
0.0040549790075832
 40
0.0479519345041864
 40
0.0920119560242504
 40
0.1362202890160474
 40
0.1805562519724424
 40
0.2249942792550157
 40
0.2695055758349505
 40
0.314048659428857
 40
0.3585908975725737
 40
0.4030990572059041
 40
0.4475440271209081
 40
0.4918987702958419
 40
0.5361390813408298
 40
0.5802476404250259
 40
0.6242093441138732
 40
0.6675737705607013
 40
0.7102843316207577
 40
0.7532672320708405
 40
0.7964875694738454
 40
0.83988679182979
 40
0.883390002101311
 40
0.9269255046602607
 40
0.970442256567566
 40
0.9999999999999999
 40
0.9999999999999999
 40
0.9999999999999999
 40
0.9999999999999999
 10
-286.5168798697109
 20
13.82943179622173
 30
0.0
 10
-286.5500810158849
 20
13.81982688630057
 30
0.0
 10
-286.9426993707074
 20
13.70624454454319
 30
0.0
 10
-287.6809814317777
 20
13.43921249005992
 30
0.0
 10
-288.7285239279571
 20
13.02512238952863
 30
0.0
 10
-289.7562732318182
 20
12.55387272123934
 30
0.0
 10
-290.7632847573287
 20
12.0335075814442
 30
0.0
 10
-291.7459469527767
 20
11.46348776825123
 30
0.0
 10
-292.7011952169303
 20
10.8457917274154
 30
0.0
 10
-293.6259055226633
 20
10.18214151411578
 30
0.0
 10
-294.5169838719795
 20
9.474512020129138
 30
0.0
 10
-295.3715915321895
 20
8.725066244358176
 30
0.0
 10
-296.1870192097318
 20
7.936085972703371
 30
0.0
 10
-296.9607404104699
 20
7.109976008372931
 30
0.0
 10
-297.6904489719282
 20
6.249242466121796
 30
0.0
 10
-298.3740182029125
 20
5.356459750662124
 30
0.0
 10
-299.0074924787324
 20
4.437318518933725
 30
0.0
 10
-299.5874299206822
 20
3.498478785679909
 30
0.0
 10
-300.1164392773364
 20
2.541118824817057
 30
0.0
 10
-300.5979724868253
 20
1.562203289494829
 30
0.0
 10
-301.0341754652082
 20
0.5581239085502843
 30
0.0
 10
-301.4230551796717
 20
-0.4672143067688539
 30
0.0
 10
-301.7635858342889
 20
-1.509412447125158
 30
0.0
 10
-302.0518176709712
 20
-2.564261730862633
 30
0.0
 10
-302.2700911389436
 20
-3.513673115822097
 30
0.0
 10
-302.3692426740993
 20
-4.112365810553603
 30
0.0
 10
-302.4093482625599
 20
-4.354529714436533
 30
0.0
  0
SPLINE
  5
1B9
330
1F
100
AcDbEntity
  8
0
  6
Continuous
 62
     7
370
    15
100
AcDbSpline
210
0.0
220
0.0
230
1.0
 70
     8
 71
     3
 72
    14
 73
    10
 74
     0
 42
0.00000001
 43
0.00000001
 12
1.0
 22
0.0
 32
0.0
 13
1.0
 23
0.0
 33
0.0
 40
0.0
 40
0.0
 40
0.0
 40
0.0
 40
0.0391265026284132
 40
0.2026327531795529
 40
0.3665007028955052
 40
0.5306627693079663
 40
0.6950448306703855
 40
0.8595664144333303
 40
1.0
 40
1.0
 40
1.0
 40
1.0
 10
-279.7327909600849
 20
14.86649301066875
 30
0.0
 10
-279.8226143307569
 20
14.86781707862148
 30
0.0
 10
-280.287801753001
 20
14.87467431135706
 30
0.0
 10
-281.1293042337934
 20
14.83317218254332
 30
0.0
 10
-282.2544242336775
 20
14.73933614389805
 30
0.0
 10
-283.375698989515
 20
14.58649558105279
 30
0.0
 10
-284.4892092293641
 20
14.37851994710118
 30
0.0
 10
-285.5397105493126
 20
14.13359453719831
 30
0.0
 10
-286.2105583532923
 20
13.93203922422587
 30
0.0
 10
-286.5194875729198
 20
13.83922185912609
 30
0.0
  0
SPLINE
  5
1BA
330
1F
100
AcDbEntity
  8
0
  6
Continuous
 62
     7
370
    15
100
AcDbSpline
210
0.0
220
0.0
230
1.0
 70
     8
 71
     3
 72
    30
 73
    26
 74
     0
 42
0.00000001
 43
0.00000001
 12
1.0
 22
0.0
 32
0.0
 13
1.0
 23
0.0
 33
0.0
 40
0.0
 40
0.0
 40
0.0
 40
0.0
 40
0.040470892594231
 40
0.083535330383695
 40
0.1269508228397769
 40
0.1706706730580028
 40
0.214634783650909
 40
0.2587694666642831
 40
0.3029692650719343
 40
0.3471385740539913
 40
0.3911132511331833
 40
0.43428580096228
 40
0.4775679551028442
 40
0.5210698679729229
 40
0.5647882322347982
 40
0.6087167453475993
 40
0.6528414144131928
 40
0.6971440605301967
 40
0.7415998869628485
 40
0.7861810228650304
 40
0.830855246436292
 40
0.8755848899955815
 40
0.9203274072092795
 40
0.9650495617215739
 40
1.0
 40
1.0
 40
1.0
 40
1.0
 10
-302.4068821203823
 20
-443.5276469944429
 30
0.0
 10
-302.3477045537451
 20
-443.858318500675
 30
0.0
 10
-302.2255570728406
 20
-444.5408523355106
 30
0.0
 10
-301.9766850032977
 20
-445.5707874396143
 30
0.0
 10
-301.6752001100662
 20
-446.618060589914
 30
0.0
 10
-301.3199806304177
 20
-447.6601209726246
 30
0.0
 10
-300.9126506058794
 20
-448.6924589501679
 30
0.0
 10
-300.4535006661387
 20
-449.7099538953576
 30
0.0
 10
-299.9437686107248
 20
-450.7072700289797
 30
0.0
 10
-299.3854223390675
 20
-451.6785166095716
 30
0.0
 10
-298.7832133964325
 20
-452.6144239585875
 30
0.0
 10
-298.1391025599127
 20
-453.5136215467224
 30
0.0
 10
-297.4539427637421
 20
-454.3776994106778
 30
0.0
 10
-296.7241393132367
 20
-455.2113865040463
 30
0.0
 10
-295.9505659767558
 20
-456.0130220250122
 30
0.0
 10
-295.1349481348355
 20
-456.7802738899567
 30
0.0
 10
-294.2791085743092
 20
-457.5106923491496
 30
0.0
 10
-293.3851832204102
 20
-458.2018989377893
 30
0.0
 10
-292.4554638828365
 20
-458.8514605916142
 30
0.0
 10
-291.4925656495357
 20
-459.4571645041588
 30
0.0
 10
-290.4991734585287
 20
-460.0165408176261
 30
0.0
 10
-289.4785474333867
 20
-460.5281106952438
 30
0.0
 10
-288.4331692842534
 20
-460.9877731606367
 30
0.0
 10
-287.445962675252
 20
-461.3717738624652
 30
0.0
 10
-286.7998358035078
 20
-461.5772875724483
 30
0.0
 10
-286.5163955819721
 20
-461.6674414633226
 30
0.0
  0
SPLINE
  5
1BB
330
1F
100
AcDbEntity
  8
0
  6
Continuous
 62
     7
370
    15
100
AcDbSpline
210
0.0
220
0.0
230
1.0
 70
     8
 71
     3
 72
    14
 73
    10
 74
     0
 42
0.00000001
 43
0.00000001
 12
1.0
 22
0.0
 32
0.0
 13
1.0
 23
0.0
 33
0.0
 40
0.0
 40
0.0
 40
0.0
 40
0.0
 40
0.1611137530866703
 40
0.323883202460587
 40
0.4868437384822868
 40
0.6499634164788322
 40
0.8131820879081774
 40
0.9764458834068691
 40
0.9999999999999999
 40
0.9999999999999999
 40
0.9999999999999999
 40
0.9999999999999999
 10
-286.5202549827213
 20
-461.6828641651583
 30
0.0
 10
-286.1652086677032
 20
-461.7872672680456
 30
0.0
 10
-285.4514673804027
 20
-461.9971463793079
 30
0.0
 10
-284.360620977754
 20
-462.2459029305649
 30
0.0
 10
-283.2554600325255
 20
-462.4457698589188
 30
0.0
 10
-282.1405578561087
 20
-462.5922503788219
 30
0.0
 10
-281.0194493608601
 20
-462.6796864957168
 30
0.0
 10
-280.215582378415
 20
-462.7172636822903
 30
0.0
 10
-279.7867470249658
 20
-462.7095572301367
 30
0.0
 10
-279.732679201376
 20
-462.7085855959368
 30
0.0
  0
LWPOLYLINE
  5
1BC
330
1F
100
AcDbEntity
  8
0
  6
Continuous
 62
     7
370
    15
100
AcDbPolyline
 90
       52
 70
   128
 43
0.0
 10
146.2056066859
 20
-53.2417378186
 10
147.7742817271
 20
-53.5853287934
 10
149.33553599
 20
-53.991027808
 10
150.8881177771
 20
-54.4585219382
 10
152.4308051932
 20
-54.9874386548
 10
153.9624061453
 20
-55.5773607253
 10
155.4816987383
 20
-56.2278262137
 10
156.987461077
 20
-56.9383284806
 10
158.478560673
 20
-57.7082863806
 10
159.9538054335
 20
-58.5371187685
 10
161.4120032656
 20
-59.4241550921
 10
162.8520216811
 20
-60.368724799
 10
164.2727579939
 20
-61.3700381278
 10
165.6730499136
 20
-62.4273500203
 10
167.0518245566
 20
-63.5398111103
 10
168.4079792368
 20
-64.7065273283
 10
169.7404410708
 20
-65.9266195057
 10
171.0481967795
 20
-67.1990892647
 10
172.3301734793
 20
-68.5229531287
 10
173.5853876936
 20
-69.8971680163
 10
174.8128261435
 20
-71.3206461428
 10
176.0115649569
 20
-72.7922699212
 10
177.1806206572
 20
-74.3108919619
 10
178.3190991747
 20
-75.8752903698
 10
179.4260766375
 20
-77.4842581509
 10
180.5006887782
 20
-79.1365138052
 10
181.5421011317
 20
-80.8307609318
 10
182.5495090353
 20
-82.5656584261
 10
183.5220780241
 20
-84.3398502825
 10
184.45906304
 20
-86.1519357918
 10
185.3597488272
 20
-88.0004993437
 10
186.2233903277
 20
-89.8840657233
 10
187.049302088
 20
-91.8011597155
 10
187.8368582594
 20
-93.7502763031
 10
188.5854627955
 20
-95.7298657654
 10
189.2944898474
 20
-97.7383932827
 10
189.9633731711
 20
-99.7742569803
 10
190.591606127
 20
-101.8358698843
 10
191.1786820757
 20
-103.9215928672
 10
191.7241539824
 20
-106.0297868012
 10
192.2275748122
 20
-108.1587976573
 10
192.6885571349
 20
-110.306949055
 10
193.1067433226
 20
-112.4725497125
 10
193.4818055498
 20
-114.6538859962
 10
193.8134159911
 20
-116.8492517231
 10
194.10136603
 20
-119.0569034575
 10
194.3453874457
 20
-121.2751201151
 10
194.5453312266
 20
-123.502143359
 10
194.7009887564
 20
-125.7362223028
 10
194.8122408259
 20
-127.9755986093
 10
194.8790576327
 20
-130.218506491
 10
194.9013199675
 20
-132.463187611
  0
LINE
  5
1BD
330
1F
100
AcDbEntity
  8
0
  6
Continuous
 62
     7
370
    15
100
AcDbLine
 10
194.9013199675
 20
-132.463187611
 30
0.0
 11
194.9013199675
 21
-315.3773105501
 31
0.0
  0
LWPOLYLINE
  5
1BE
330
1F
100
AcDbEntity
  8
0
  6
Continuous
 62
     7
370
    15
100
AcDbPolyline
 90
       52
 70
   128
 43
0.0
 10
194.9013199675
 20
-315.3773105501
 10
194.8790576327
 20
-317.62199167
 10
194.8122408259
 20
-319.8648995517
 10
194.7009887564
 20
-322.1042758583
 10
194.5453312266
 20
-324.338354802
 10
194.3453874457
 20
-326.5653780459
 10
194.10136603
 20
-328.7835947035
 10
193.8134159911
 20
-330.9912464379
 10
193.4818055498
 20
-333.1866121648
 10
193.1067433226
 20
-335.3679484485
 10
192.6885571349
 20
-337.533549106
 10
192.2275748122
 20
-339.6817005037
 10
191.7241539824
 20
-341.8107113598
 10
191.1786820757
 20
-343.9189052938
 10
190.591606127
 20
-346.0046282767
 10
189.9633731711
 20
-348.0662411807
 10
189.2944898474
 20
-350.1021048783
 10
188.5854627955
 20
-352.1106323956
 10
187.8368582594
 20
-354.0902218579
 10
187.049302088
 20
-356.0393384455
 10
186.2233903277
 20
-357.9564324377
 10
185.3597488272
 20
-359.8399988173
 10
184.45906304
 20
-361.6885623692
 10
183.5220780241
 20
-363.5006478785
 10
182.5495090353
 20
-365.2748397349
 10
181.5421011317
 20
-367.0097372292
 10
180.5006887782
 20
-368.7039843558
 10
179.4260766375
 20
-370.3562400101
 10
178.3190991747
 20
-371.9652077912
 10
177.1806206572
 20
-373.5296061991
 10
176.0115649569
 20
-375.0482282399
 10
174.8128261435
 20
-376.5198520182
 10
173.5853876936
 20
-377.9433301447
 10
172.3301734793
 20
-379.3175450324
 10
171.0481967795
 20
-380.6414088963
 10
169.7404410708
 20
-381.9138786553
 10
168.4079792368
 20
-383.1339708327
 10
167.0518245566
 20
-384.3006870507
 10
165.6730499136
 20
-385.4131481408
 10
164.2727579939
 20
-386.4704600333
 10
162.8520216811
 20
-387.471773362
 10
161.4120032656
 20
-388.4163430689
 10
159.9538054335
 20
-389.3033793925
 10
158.478560673
 20
-390.1322117804
 10
156.987461077
 20
-390.9021696804
 10
155.4816987383
 20
-391.6126719473
 10
153.9624061453
 20
-392.2631374358
 10
152.4308051932
 20
-392.8530595063
 10
150.8881177771
 20
-393.3819762228
 10
149.33553599
 20
-393.849470353
 10
147.7742817271
 20
-394.2551693676
 10
146.2056066859
 20
-394.5987603425
  0
LINE
  5
1BF
330
1F
100
AcDbEntity
  8
0
  6
Continuous
 62
     7
370
    15
100
AcDbLine
 10
146.2056066859
 20
-394.5987603425
 30
0.0
 11
88.481756674
 21
-406.0716411828
 31
0.0
  0
LINE
  5
1C0
330
1F
100
AcDbEntity
  8
0
  6
Continuous
 62
     7
370
    15
100
AcDbLine
 10
88.481756674
 20
-405.1155826806
 30
0.0
 11
88.481756674
 21
-406.0716411828
 31
0.0
  0
LWPOLYLINE
  5
1C1
330
1F
100
AcDbEntity
  8
0
  6
Continuous
 62
     7
370
    15
100
AcDbPolyline
 90
      120
 70
   128
 43
0.0
 10
88.481756674
 20
-42.7249154805
 10
90.9882809985
 20
-44.2725649832
 10
93.472811209
 20
-45.889549589
 10
95.9343936312
 20
-47.5752434491
 10
98.3721043932
 20
-49.3290058135
 10
100.7849898207
 20
-51.1501512288
 10
103.1720962393
 20
-53.0379942416
 10
105.5324997771
 20
-54.9917897938
 10
107.8653361666
 20
-57.0107779263
 10
110.1696815359
 20
-59.0941837786
 10
112.4446120131
 20
-61.2412175892
 10
114.689293133
 20
-63.4510448931
 10
116.9028606284
 20
-65.7228014229
 10
119.0844204295
 20
-68.0556080101
 10
121.2331678736
 20
-70.4485854863
 10
123.3482386935
 20
-72.9007950781
 10
125.4288580286
 20
-75.4112980126
 10
127.4741914141
 20
-77.9791257142
 10
129.4834639895
 20
-80.6032649039
 10
131.4558710921
 20
-83.2827321051
 10
133.3906974661
 20
-86.0164842366
 10
135.2871980536
 20
-88.8034633158
 10
137.1445979941
 20
-91.6425815581
 10
138.9621820319
 20
-94.5327660798
 10
140.7392945158
 20
-97.4728843926
 10
142.4752201903
 20
-100.4618040083
 10
144.1692736018
 20
-103.4983849882
 10
145.8208289015
 20
-106.5814426897
 10
147.4292304385
 20
-109.7097850202
 10
148.9938821661
 20
-112.8822124361
 10
150.5141582358
 20
-116.0974955915
 10
151.9894626009
 20
-119.3543976901
 10
153.4192588198
 20
-122.6516521333
 10
154.8029508459
 20
-125.9879997729
 10
156.1400618422
 20
-129.3621442078
 10
157.4300255644
 20
-132.7727890371
 10
158.6723353732
 20
-136.2186080574
 10
159.8665740359
 20
-139.6982825159
 10
161.0122349131
 20
-143.2104564069
 10
162.1089007723
 20
-146.753788626
 10
163.1561245787
 20
-150.3269082664
 10
164.1534890997
 20
-153.9284220694
 10
165.1006665099
 20
-157.5569591282
 10
165.9972395766
 20
-161.2111112832
 10
166.8428804743
 20
-164.8894591986
 10
167.6372613776
 20
-168.59059844
 10
168.3800842631
 20
-172.3130910455
 10
169.0710213053
 20
-176.0554990529
 10
169.709863888
 20
-179.8163845001
 10
170.2963437903
 20
-183.594294524
 10
170.8302225935
 20
-187.3877688108
 10
171.3113214838
 20
-191.1953395961
 10
171.7394020426
 20
-195.0155447035
 10
172.1143450606
 20
-198.8469051926
 10
172.4360015261
 20
-202.6879421233
 10
172.7042522299
 20
-206.5371765552
 10
172.9189481604
 20
-210.3931183724
 10
173.0800595152
 20
-214.2542821153
 10
173.1874968874
 20
-218.119175805
 10
173.2412304747
 20
-221.9863092091
 10
173.2412304747
 20
-225.8541889519
 10
173.1874968874
 20
-229.721322356
 10
173.0800595152
 20
-233.5862160458
 10
172.9189481604
 20
-237.4473797886
 10
172.7042522299
 20
-241.3033216058
 10
172.4360015261
 20
-245.1525560378
 10
172.1143450606
 20
-248.9935929684
 10
171.7394020426
 20
-252.8249534576
 10
171.3113214838
 20
-256.6451585649
 10
170.8302225935
 20
-260.4527293502
 10
170.2963437903
 20
-264.246203637
 10
169.709863888
 20
-268.0241136609
 10
169.0710213053
 20
-271.7849991082
 10
168.3800842631
 20
-275.5274071156
 10
167.6372613776
 20
-279.249899721
 10
166.8428804743
 20
-282.9510389625
 10
165.9972395766
 20
-286.6293868779
 10
165.1006665099
 20
-290.2835390328
 10
164.1534890997
 20
-293.9120760916
 10
163.1561245787
 20
-297.5135898946
 10
162.1089007723
 20
-301.086709535
 10
161.0122349131
 20
-304.6300417541
 10
159.8665740359
 20
-308.1422156452
 10
158.6723353732
 20
-311.6218901037
 10
157.4300255644
 20
-315.0677091239
 10
156.1400618422
 20
-318.4783539532
 10
154.8029508459
 20
-321.8524983881
 10
153.4192588198
 20
-325.1888460277
 10
151.9894626009
 20
-328.4861004709
 10
150.5141582358
 20
-331.7430025695
 10
148.9938821661
 20
-334.958285725
 10
147.4292304385
 20
-338.1307131408
 10
145.8208289015
 20
-341.2590554713
 10
144.1692736018
 20
-344.3421131729
 10
142.4752201903
 20
-347.3786941527
 10
140.7392945158
 20
-350.3676137684
 10
138.9621820319
 20
-353.3077320813
 10
137.1445979941
 20
-356.1979166029
 10
135.2871980536
 20
-359.0370348452
 10
133.3906974661
 20
-361.8240139245
 10
131.4558710921
 20
-364.5577660559
 10
129.4834639895
 20
-367.2372332571
 10
127.4741914141
 20
-369.8613724469
 10
125.4288580286
 20
-372.4292001484
 10
123.3482386935
 20
-374.9397030829
 10
121.2331678736
 20
-377.3919126748
 10
119.0844204295
 20
-379.7848901509
 10
116.9028606284
 20
-382.1176967381
 10
114.689293133
 20
-384.3894532679
 10
112.4446120131
 20
-386.5992805718
 10
110.1696815359
 20
-388.7463143824
 10
107.8653361666
 20
-390.8297202347
 10
105.5324997771
 20
-392.8487083672
 10
103.1720962393
 20
-394.8025039195
 10
100.7849898207
 20
-396.6903469323
 10
98.3721043932
 20
-398.5114923476
 10
95.9343936312
 20
-400.265254712
 10
93.472811209
 20
-401.950948572
 10
90.9882809985
 20
-403.5679331778
 10
88.481756674
 20
-405.1155826806
  0
LINE
  5
1C2
330
1F
100
AcDbEntity
  8
0
  6
Continuous
 62
     7
370
    15
100
AcDbLine
 10
88.481756674
 20
-41.7688569783
 30
0.0
 11
88.481756674
 21
-42.7249154805
 31
0.0
  0
LINE
  5
1C3
330
1F
100
AcDbEntity
  8
0
  6
Continuous
 62
     7
370
    15
100
AcDbLine
 10
88.481756674
 20
-41.7688569783
 30
0.0
 11
146.2056066859
 21
-53.2417378186
 31
0.0
  0
LWPOLYLINE
  5
1C4
330
1F
100
AcDbEntity
  8
0
  6
Continuous
 62
     7
370
    15
100
AcDbPolyline
 90
       52
 70
   128
 43
0.0
 10
153.9837744105
 20
-53.2417378186
 10
155.5524494517
 20
-53.5853287934
 10
157.1137037146
 20
-53.991027808
 10
158.6662855017
 20
-54.4585219382
 10
160.2089729178
 20
-54.9874386548
 10
161.7405738699
 20
-55.5773607253
 10
163.2598664629
 20
-56.2278262137
 10
164.7656288016
 20
-56.9383284806
 10
166.2567283976
 20
-57.7082863806
 10
167.7319731581
 20
-58.5371187685
 10
169.1901709902
 20
-59.4241550921
 10
170.630219208
 20
-60.368724799
 10
172.0509257185
 20
-61.3700381278
 10
173.4512176382
 20
-62.4273500203
 10
174.8299922812
 20
-63.5398111103
 10
176.1861469614
 20
-64.7065273283
 10
177.5186385977
 20
-65.9266195057
 10
178.8263645041
 20
-67.1990892647
 10
180.1083412039
 20
-68.5229531287
 10
181.3635554182
 20
-69.8971680163
 10
182.5910236704
 20
-71.3206461428
 10
183.7897326815
 20
-72.7922699212
 10
184.9587883818
 20
-74.3108919619
 10
186.0972668993
 20
-75.8752903698
 10
187.2042443621
 20
-77.4842581509
 10
188.2788565028
 20
-79.1365138052
 10
189.3202688563
 20
-80.8307609318
 10
190.3276767599
 20
-82.5656584261
 10
191.3002457487
 20
-84.3398502825
 10
192.2372307646
 20
-86.1519357918
 10
193.1379165518
 20
-88.0004993437
 10
194.0015580523
 20
-89.8840657233
 10
194.8274698126
 20
-91.8011597155
 10
195.6150557864
 20
-93.7502763031
 10
196.3636305201
 20
-95.7298657654
 10
197.072657572
 20
-97.7383932827
 10
197.7415408957
 20
-99.7742569803
 10
198.3697738516
 20
-101.8358698843
 10
198.9568498003
 20
-103.9215928672
 10
199.502321707
 20
-106.0297868012
 10
200.0057425368
 20
-108.1587976573
 10
200.4667248595
 20
-110.306949055
 10
200.8849110472
 20
-112.4725497125
 10
201.2599732745
 20
-114.6538859962
 10
201.591613518
 20
-116.8492517231
 10
201.8795337546
 20
-119.0569034575
 10
202.1235849726
 20
-121.2751201151
 10
202.3234989512
 20
-123.502143359
 10
202.479156481
 20
-125.7362223028
 10
202.5904383528
 20
-127.9755986093
 10
202.6572253573
 20
-130.218506491
 10
202.6794876921
 20
-132.463187611
  0
LINE
  5
1C5
330
1F
100
AcDbEntity
  8
0
  6
Continuous
 62
     7
370
    15
100
AcDbLine
 10
202.6794876921
 20
-132.463187611
 30
0.0
 11
202.6794876921
 21
-315.3773105501
 31
0.0
  0
LWPOLYLINE
  5
1C6
330
1F
100
AcDbEntity
  8
0
  6
Continuous
 62
     7
370
    15
100
AcDbPolyline
 90
       52
 70
   128
 43
0.0
 10
202.6794876921
 20
-315.3773105501
 10
202.6572253573
 20
-317.62199167
 10
202.5904383528
 20
-319.8648995517
 10
202.479156481
 20
-322.1042758583
 10
202.3234989512
 20
-324.338354802
 10
202.1235849726
 20
-326.5653780459
 10
201.8795337546
 20
-328.7835947035
 10
201.591613518
 20
-330.9912464379
 10
201.2599732745
 20
-333.1866121648
 10
200.8849110472
 20
-335.3679484485
 10
200.4667248595
 20
-337.533549106
 10
200.0057425368
 20
-339.6817005037
 10
199.502321707
 20
-341.8107113598
 10
198.9568498003
 20
-343.9189052938
 10
198.3697738516
 20
-346.0046282767
 10
197.7415408957
 20
-348.0662411807
 10
197.072657572
 20
-350.1021048783
 10
196.3636305201
 20
-352.1106323956
 10
195.6150557864
 20
-354.0902218579
 10
194.8274698126
 20
-356.0393384455
 10
194.0015580523
 20
-357.9564324377
 10
193.1379165518
 20
-359.8399988173
 10
192.2372307646
 20
-361.6885623692
 10
191.3002457487
 20
-363.5006478785
 10
190.3276767599
 20
-365.2748397349
 10
189.3202688563
 20
-367.0097372292
 10
188.2788565028
 20
-368.7039843558
 10
187.2042443621
 20
-370.3562400101
 10
186.0972668993
 20
-371.9652077912
 10
184.9587883818
 20
-373.5296061991
 10
183.7897326815
 20
-375.0482282399
 10
182.5910236704
 20
-376.5198520182
 10
181.3635554182
 20
-377.9433301447
 10
180.1083412039
 20
-379.3175450324
 10
178.8263645041
 20
-380.6414088963
 10
177.5186385977
 20
-381.9138786553
 10
176.1861469614
 20
-383.1339708327
 10
174.8299922812
 20
-384.3006870507
 10
173.4512176382
 20
-385.4131481408
 10
172.0509257185
 20
-386.4704600333
 10
170.630219208
 20
-387.471773362
 10
169.1901709902
 20
-388.4163430689
 10
167.7319731581
 20
-389.3033793925
 10
166.2567283976
 20
-390.1322117804
 10
164.7656288016
 20
-390.9021696804
 10
163.2598664629
 20
-391.6126719473
 10
161.7405738699
 20
-392.2631374358
 10
160.2089729178
 20
-392.8530595063
 10
158.6662855017
 20
-393.3819762228
 10
157.1137037146
 20
-393.849470353
 10
155.5524494517
 20
-394.2551693676
 10
153.9837744105
 20
-394.5987603425
  0
LINE
  5
1C7
330
1F
100
AcDbEntity
  8
0
  6
Continuous
 62
     7
370
    15
100
AcDbLine
 10
-2.3814711702
 20
-223.9202490805
 30
0.0
 11
24.3072237837
 21
-223.9202490805
 31
0.0
  0
LINE
  5
1C8
330
1F
100
AcDbEntity
  8
0
  6
Continuous
 62
     7
370
    15
100
AcDbLine
 10
3.4478481877
 20
-129.6919292568
 30
0.0
 11
-2.3814711702
 21
-223.9202490805
 31
0.0
  0
LINE
  5
1C9
330
1F
100
AcDbEntity
  8
0
  6
Continuous
 62
     7
370
    15
100
AcDbLine
 10
3.4478481877
 20
-129.6919292568
 30
0.0
 11
14.054450022
 21
-129.6919292568
 31
0.0
  0
LINE
  5
1CA
330
1F
100
AcDbEntity
  8
0
  6
Continuous
 62
     7
370
    15
100
AcDbLine
 10
14.054450022
 20
-129.6919292568
 30
0.0
 11
17.7521582711
 21
-69.920249915
 31
0.0
  0
LINE
  5
1CB
330
1F
100
AcDbEntity
  8
0
  6
Continuous
 62
     7
370
    15
100
AcDbLine
 10
51.6262527573
 20
-69.920249915
 30
0.0
 11
17.7521582711
 21
-69.920249915
 31
0.0
  0
LINE
  5
1CC
330
1F
100
AcDbEntity
  8
0
  6
Continuous
 62
     7
370
    15
100
AcDbLine
 10
48.0896260607
 20
-127.0881078003
 30
0.0
 11
51.6262527573
 21
-69.920249915
 31
0.0
  0
ARC
  5
1CD
330
1F
100
AcDbEntity
  8
0
  6
Continuous
 62
     7
370
    15
100
AcDbCircle
 10
335.9216847516
 20
-249.1175370091
 30
0.0
 40
312.6315332836411
100
AcDbArc
 50
157.02497288
 51
175.3770950271
  0
LINE
  5
1CE
330
1F
100
AcDbEntity
  8
0
  6
Continuous
 62
     7
370
    15
100
AcDbLine
 10
-17.9378215206
 20
-69.920249915
 30
0.0
 11
-3.5015616548
 21
-69.920249915
 31
0.0
  0
LINE
  5
1CF
330
1F
100
AcDbEntity
  8
0
  6
Continuous
 62
     7
370
    15
100
AcDbLine
 10
-3.5015616548
 20
-69.920249915
 30
0.0
 11
-7.1183864009
 21
-128.3845982312
 31
0.0
  0
LINE
  5
1D0
330
1F
100
AcDbEntity
  8
0
  6
Continuous
 62
     7
370
    15
100
AcDbLine
 10
3.4478481877
 20
-129.6919292568
 30
0.0
 11
-7.1183864009
 21
-128.3845982312
 31
0.0
  0
LINE
  5
1D1
330
1F
100
AcDbEntity
  8
0
  6
Continuous
 62
     7
370
    15
100
AcDbLine
 10
3.4478481877
 20
-318.1485689043
 30
0.0
 11
-2.3814711702
 21
-223.9202490805
 31
0.0
  0
LINE
  5
1D2
330
1F
100
AcDbEntity
  8
0
  6
Continuous
 62
     7
370
    15
100
AcDbLine
 10
3.4478481877
 20
-318.1485689043
 30
0.0
 11
-7.1183864009
 21
-319.4558999299
 31
0.0
  0
LINE
  5
1D3
330
1F
100
AcDbEntity
  8
0
  6
Continuous
 62
     7
370
    15
100
AcDbLine
 10
-3.5015616548
 20
-377.920248246
 30
0.0
 11
-7.1183864009
 21
-319.4558999299
 31
0.0
  0
LINE
  5
1D4
330
1F
100
AcDbEntity
  8
0
  6
Continuous
 62
     7
370
    15
100
AcDbLine
 10
-17.9378215206
 20
-377.920248246
 30
0.0
 11
-3.5015616548
 21
-377.920248246
 31
0.0
  0
LINE
  5
1D5
330
1F
100
AcDbEntity
  8
0
  6
Continuous
 62
     7
370
    15
100
AcDbLine
 10
-17.9378215206
 20
-377.920248246
 30
0.0
 11
-17.9378215206
 21
-295.9410778044
 31
0.0
  0
SPLINE
  5
1D6
330
1F
100
AcDbEntity
  8
0
  6
Continuous
 62
     7
370
    15
100
AcDbSpline
210
0.0
220
0.0
230
1.0
 70
     8
 71
     3
 72
    31
 73
    27
 74
     0
 42
0.00000001
 43
0.00000001
 12
1.0
 22
0.0
 32
0.0
 13
1.0
 23
0.0
 33
0.0
 40
0.0
 40
0.0
 40
0.0
 40
0.0
 40
0.0387431438873015
 40
0.0774905088396108
 40
0.1162326252360221
 40
0.1551617556448004
 40
0.1940964521829492
 40
0.2330244876176318
 40
0.2723512309405799
 40
0.3117021252855133
 40
0.3510591835352515
 40
0.3904064908908329
 40
0.4297302181778919
 40
0.4699169323599
 40
0.510131469137545
 40
0.5503557354420073
 40
0.5905710703369467
 40
0.6307584697337727
 40
0.6765570990061349
 40
0.7223797980355242
 40
0.7682053021790557
 40
0.8140077644698199
 40
0.8604948319865786
 40
0.9069999316322116
 40
0.9535084517612993
 40
0.9999999999999999
 40
0.9999999999999999
 40
0.9999999999999999
 40
0.9999999999999999
 10
-17.93782152057835
 20
-151.8994203566026
 30
0.0
 10
-17.50205757094714
 20
-153.6960505844813
 30
0.0
 10
-16.63048219520832
 20
-157.2895067830777
 30
0.0
 10
-15.42605873555636
 20
-162.7277451542035
 30
0.0
 10
-14.30066683404879
 20
-168.2089952991411
 30
0.0
 10
-13.26661631576004
 20
-173.7357823755304
 30
0.0
 10
-12.32676850599498
 20
-179.305472127957
 30
0.0
 10
-11.48453658504131
 20
-184.9263177106239
 30
0.0
 10
-10.74612908275857
 20
-190.5970842777643
 30
0.0
 10
-10.11616866939313
 20
-196.3152805995161
 30
0.0
 10
-9.599748800127845
 20
-202.0572509529437
 30
0.0
 10
-9.20010711688779
 20
-207.8165112567904
 30
0.0
 10
-8.918203545032199
 20
-213.63050506219
 30
0.0
 10
-8.76064551680711
 20
-219.4965110182296
 30
0.0
 10
-8.729903674805971
 20
-225.410715521236
 30
0.0
 10
-8.826294473551211
 20
-231.3249018691145
 30
0.0
 10
-9.049179471694146
 20
-237.23092746735
 30
0.0
 10
-9.414393473451716
 20
-243.3970498250139
 30
0.0
 10
-9.942475919611782
 20
-249.81670679244
 30
0.0
 10
-10.6490850039862
 20
-256.4814577635279
 30
0.0
 10
-11.50597415639876
 20
-263.1110065123555
 30
0.0
 10
-12.51259994950446
 20
-269.7315569546536
 30
0.0
 10
-13.66514156176218
 20
-276.3386869545388
 30
0.0
 10
-14.96029207877356
 20
-282.9283778633933
 30
0.0
 10
-16.37436880449405
 20
-289.4696764136613
 30
0.0
 10
-17.41673402344354
 20
-293.7842064651235
 30
0.0
 10
-17.93782152057838
 20
-295.9410778044176
 30
0.0
  0
LINE
  5
1D7
330
1F
100
AcDbEntity
  8
0
  6
Continuous
 62
     7
370
    15
100
AcDbLine
 10
-17.9378215206
 20
-151.8994203566
 30
0.0
 11
-17.9378215206
 21
-69.920249915
 31
0.0
  0
LINE
  5
1D8
330
1F
100
AcDbEntity
  8
0
  6
Continuous
 62
     7
370
    15
100
AcDbLine
 10
-7.1183864009
 20
-128.3845982312
 30
0.0
 11
14.054450022
 21
-129.6919292568
 31
0.0
  0
LINE
  5
1D9
330
1F
100
AcDbEntity
  8
0
  6
Continuous
 62
     7
370
    15
100
AcDbLine
 10
48.0896260607
 20
-320.7523903607
 30
0.0
 11
51.6262527573
 21
-377.920248246
 31
0.0
  0
LINE
  5
1DA
330
1F
100
AcDbEntity
  8
0
  6
Continuous
 62
     7
370
    15
100
AcDbLine
 10
51.6262527573
 20
-377.920248246
 30
0.0
 11
17.7521582711
 21
-377.920248246
 31
0.0
  0
LINE
  5
1DB
330
1F
100
AcDbEntity
  8
0
  6
Continuous
 62
     7
370
    15
100
AcDbLine
 10
14.054450022
 20
-318.1485689043
 30
0.0
 11
17.7521582711
 21
-377.920248246
 31
0.0
  0
LINE
  5
1DC
330
1F
100
AcDbEntity
  8
0
  6
Continuous
 62
     7
370
    15
100
AcDbLine
 10
3.4478481877
 20
-318.1485689043
 30
0.0
 11
14.054450022
 21
-318.1485689043
 31
0.0
  0
ARC
  5
1DD
330
1F
100
AcDbEntity
  8
0
  6
Continuous
 62
     7
370
    15
100
AcDbCircle
 10
335.5008454532
 20
-198.8263211453
 30
0.0
 40
312.203740187381
100
AcDbArc
 50
184.6102227564
 51
202.9877093365
  0
LINE
  5
1DE
330
1F
100
AcDbEntity
  8
0
  6
Continuous
 62
     7
370
    15
100
AcDbLine
 10
-7.1183864009
 20
-319.4558999299
 30
0.0
 11
14.054450022
 21
-318.1485689043
 31
0.0
  0
LINE
  5
1DF
330
1F
100
AcDbEntity
  8
0
  6
Continuous
 62
     7
370
    15
100
AcDbLine
 10
-3.5015616548
 20
-69.920249915
 30
0.0
 11
17.7521582711
 21
-69.920249915
 31
0.0
  0
LINE
  5
1E0
330
1F
100
AcDbEntity
  8
0
  6
Continuous
 62
     7
370
    15
100
AcDbLine
 10
-3.5015616548
 20
-377.920248246
 30
0.0
 11
17.7521582711
 21
-377.920248246
 31
0.0
  0
ARC
  5
1E1
330
1F
100
AcDbEntity
  8
0
  6
Continuous
 62
     7
370
    15
100
AcDbCircle
 10
246.3836658846
 20
-258.9004586127
 30
0.0
 40
215.2019410658237
100
AcDbArc
 50
203.9171924513
 51
222.7992875449
  0
ARC
  5
1E2
330
1F
100
AcDbEntity
  8
0
  6
Continuous
 62
     7
370
    15
100
AcDbCircle
 10
246.3836658846
 20
-188.9400395483
 30
0.0
 40
215.2019410658238
100
AcDbArc
 50
137.2007124551
 51
156.0828075487
  0
LWPOLYLINE
  5
1E3
330
1F
100
AcDbEntity
  8
0
  6
Continuous
 62
     7
370
    15
100
AcDbPolyline
 90
       39
 70
   128
 43
0.0
 10
89.3924858439
 20
-41.7688569783
 10
91.5579821932
 20
-39.5516088961
 10
93.749406563
 20
-37.3858294247
 10
95.9660734999
 20
-35.272159314
 10
98.207446562
 20
-33.211149907
 10
100.472840296
 20
-31.2034121512
 10
102.7616288531
 20
-29.2494824885
 10
105.0731863844
 20
-27.3499122618
 10
107.4068870413
 20
-25.5052230118
 10
109.7620453703
 20
-23.7159511803
 10
112.1380057204
 20
-21.9825885056
 10
114.5341422427
 20
-20.3056118248
 10
116.9497396815
 20
-18.6854979752
 10
119.3841423857
 20
-17.1226790904
 10
121.836664902
 20
-15.6176171063
 10
124.3066515791
 20
-14.1707292555
 10
126.7933573592
 20
-12.7824029683
 10
129.2961563933
 20
-11.4530405758
 10
131.8143036234
 20
-10.1829997061
 10
134.3470837939
 20
-8.9726528882
 10
136.8938412535
 20
-7.8223279475
 10
139.453801142
 20
-6.7323527096
 10
142.0263078081
 20
-5.7030102967
 10
144.610616194
 20
-4.734613633
 10
147.2060110438
 20
-3.8274160384
 10
149.8117472994
 20
-2.9816857336
 10
152.4271097052
 20
-2.1976462363
 10
155.0513830054
 20
-1.4755210637
 10
157.6838221419
 20
-0.8155188321
 10
160.3236820567
 20
-0.2178183554
 10
162.970247494
 20
0.3174164535
 10
165.6227435934
 20
0.7900365831
 10
168.2804849017
 20
1.1999228241
 10
170.9426965582
 20
1.5469261648
 10
173.6086037028
 20
1.8309720995
 10
176.2775208819
 20
2.0519861223
 10
178.9486732352
 20
2.2098937275
 10
181.6213157046
 20
2.3046502115
 10
184.2947330344
 20
2.3362406732
  0
ARC
  5
1E4
330
1F
100
AcDbEntity
  8
0
  6
Continuous
 62
     7
370
    15
100
AcDbCircle
 10
183.6191281222
 20
-116.8920308321
 30
0.0
 40
119.2301856416544
100
AcDbArc
 50
62.4629178644
 51
89.6753379438
  0
LWPOLYLINE
  5
1E5
330
1F
100
AcDbEntity
  8
0
  6
Continuous
 62
     7
370
    15
100
AcDbPolyline
 90
      105
 70
   128
 43
0.0
 10
305.9171166289
 20
-385.5386308192
 10
306.1457004416
 20
-385.2890810727
 10
308.1727948058
 20
-383.0302438496
 10
310.1710405218
 20
-380.7204893588
 10
312.1397819388
 20
-378.360547757
 10
314.0783038008
 20
-375.9511790036
 10
315.9860696661
 20
-373.4931430577
 10
317.8624238837
 20
-370.987244582
 10
319.7067704069
 20
-368.4342733382
 10
321.5185131895
 20
-365.83504889
 10
323.2971157896
 20
-363.1904057024
 10
325.0419821608
 20
-360.5011782406
 10
326.7525162566
 20
-357.768245673
 10
328.4282412398
 20
-354.9924871682
 10
330.068561064
 20
-352.1747520922
 10
331.6729988921
 20
-349.3159941195
 10
333.2410182822
 20
-346.4170849679
 10
334.7721423972
 20
-343.4789783119
 10
336.2657751906
 20
-340.5026054738
 10
337.7215590346
 20
-337.4889201282
 10
339.139017092
 20
-334.4388833998
 10
340.517612921
 20
-331.3534713148
 10
341.8569888937
 20
-328.2336822508
 10
343.1566681731
 20
-325.0805071352
 10
344.4162931311
 20
-321.8949517964
 10
345.6353869307
 20
-318.6780369638
 10
346.813591944
 20
-315.4307982682
 10
347.9505505431
 20
-312.1542713402
 10
349.0459051001
 20
-308.8494992612
 10
350.0992383826
 20
-305.5175549148
 10
351.1102523672
 20
-302.1594888328
 10
352.0786490309
 20
-298.7763813494
 10
353.0040707457
 20
-295.3693127988
 10
353.8862194884
 20
-291.9393784164
 10
354.724916445
 20
-288.487680888
 10
355.5197443831
 20
-285.0153117238
 10
356.2705840933
 20
-281.5233922361
 10
356.9770779478
 20
-278.0130325614
 10
357.6391067374
 20
-274.485365188
 10
358.2563724387
 20
-270.9415114282
 10
358.8286962378
 20
-267.3826074956
 10
359.3558993208
 20
-263.8097933291
 10
359.8378624785
 20
-260.2242125927
 10
360.2744068968
 20
-256.6270126759
 10
360.6653537619
 20
-253.0193465559
 10
361.0105838644
 20
-249.4023653476
 10
361.3100375998
 20
-245.7772276162
 10
361.563536154
 20
-242.1450956522
 10
361.7710795271
 20
-238.5071317463
 10
361.9326081145
 20
-234.8644981889
 10
362.0480027068
 20
-231.2183614618
 10
362.1172036993
 20
-227.5698892104
 10
362.1403303015
 20
-223.9202490805
 10
362.1172036993
 20
-220.2706089506
 10
362.0480027068
 20
-216.6221366993
 10
361.9326081145
 20
-212.9759999721
 10
361.7710795271
 20
-209.3333664148
 10
361.563536154
 20
-205.6954025088
 10
361.3100375998
 20
-202.0632705449
 10
361.0105838644
 20
-198.4381328134
 10
360.6653537619
 20
-194.8211516051
 10
360.2744068968
 20
-191.2134854852
 10
359.8378624785
 20
-187.6162855683
 10
359.3558993208
 20
-184.0307048319
 10
358.8286962378
 20
-180.4578906654
 10
358.2563724387
 20
-176.8989867328
 10
357.6391067374
 20
-173.355132973
 10
356.9770779478
 20
-169.8274655996
 10
356.2705840933
 20
-166.3171059249
 10
355.5197443831
 20
-162.8251864372
 10
354.724916445
 20
-159.352817273
 10
353.8862194884
 20
-155.9011197446
 10
353.0040707457
 20
-152.4711853622
 10
352.0786490309
 20
-149.0641168116
 10
351.1102523672
 20
-145.6810093282
 10
350.0992383826
 20
-142.3229432462
 10
349.0459051001
 20
-138.9909988998
 10
347.9505505431
 20
-135.6862268208
 10
346.813591944
 20
-132.4096998928
 10
345.6353869307
 20
-129.1624611972
 10
344.4162931311
 20
-125.9455463646
 10
343.1566681731
 20
-122.7599910258
 10
341.8569888937
 20
-119.6068159102
 10
340.517612921
 20
-116.4870268463
 10
339.139017092
 20
-113.4016147612
 10
337.7215590346
 20
-110.3515780328
 10
336.2657751906
 20
-107.3378926872
 10
334.7721423972
 20
-104.3615198492
 10
333.2410182822
 20
-101.4234131931
 10
331.6729988921
 20
-98.5245040415
 10
330.068561064
 20
-95.6657460688
 10
328.4282412398
 20
-92.8480109929
 10
326.7525162566
 20
-90.072252488
 10
325.0419821608
 20
-87.3393199204
 10
323.2971157896
 20
-84.6500924586
 10
321.5185131895
 20
-82.0054492711
 10
319.7067704069
 20
-79.4062248229
 10
317.8624238837
 20
-76.853253579
 10
315.9860696661
 20
-74.3473551033
 10
314.0783038008
 20
-71.8893191575
 10
312.1397819388
 20
-69.479950404
 10
310.1710405218
 20
-67.1200088023
 10
308.1727948058
 20
-64.8102543114
 10
306.1457004416
 20
-62.5514170884
 10
305.9171166289
 20
-62.3018673418
  0
ARC
  5
1E6
330
1F
100
AcDbEntity
  8
0
  6
Continuous
 62
     7
370
    15
100
AcDbCircle
 10
183.645445414
 20
-331.0545653868
 30
0.0
 40
119.1239429386892
100
AcDbArc
 50
270.3122934283
 51
297.5494507635
  0
LWPOLYLINE
  5
1E7
330
1F
100
AcDbEntity
  8
0
  6
Continuous
 62
     7
370
    15
100
AcDbPolyline
 90
       39
 70
   128
 43
0.0
 10
184.2947330344
 20
-450.1767388342
 10
181.6213157046
 20
-450.1451483725
 10
178.9486732352
 20
-450.0503918885
 10
176.2775208819
 20
-449.8924842833
 10
173.6086037028
 20
-449.6714702605
 10
170.9426965582
 20
-449.3874243258
 10
168.2804849017
 20
-449.0404209851
 10
165.6227435934
 20
-448.6305347441
 10
162.970247494
 20
-448.1579146145
 10
160.3236820567
 20
-447.6226798056
 10
157.6838221419
 20
-447.024979329
 10
155.0513830054
 20
-446.3649770974
 10
152.4271097052
 20
-445.6428519247
 10
149.8117472994
 20
-444.8588124274
 10
147.2060110438
 20
-444.0130821227
 10
144.610616194
 20
-443.105884528
 10
142.0263078081
 20
-442.1374878643
 10
139.453801142
 20
-441.1081454514
 10
136.8938412535
 20
-440.0181702136
 10
134.3470837939
 20
-438.8678452729
 10
131.8143036234
 20
-437.6574984549
 10
129.2961563933
 20
-436.3874575852
 10
126.7933573592
 20
-435.0580951928
 10
124.3066515791
 20
-433.6697689055
 10
121.836664902
 20
-432.2228810547
 10
119.3841423857
 20
-430.7178190707
 10
116.9497396815
 20
-429.1550001858
 10
114.5341422427
 20
-427.5348863362
 10
112.1380057204
 20
-425.8579096554
 10
109.7620453703
 20
-424.1245469807
 10
107.4068870413
 20
-422.3352751492
 10
105.0731863844
 20
-420.4905858992
 10
102.7616288531
 20
-418.5910156725
 10
100.472840296
 20
-416.6370860098
 10
98.207446562
 20
-414.6293482541
 10
95.9660734999
 20
-412.568338847
 10
93.749406563
 20
-410.4546687363
 10
91.5579821932
 20
-408.2888892649
 10
89.3924858439
 20
-406.0716411828
  0
LWPOLYLINE
  5
1E8
330
1F
100
AcDbEntity
  8
0
  6
Continuous
 62
     7
370
    15
100
AcDbPolyline
 90
        9
 70
   128
 43
0.0
 10
89.3924858439
 20
-406.0716411828
 10
91.978016125
 20
-405.7031205653
 10
94.5857789385
 20
-405.3375205754
 10
97.2147610056
 20
-404.9749902247
 10
99.8638894427
 20
-404.6156785248
 10
102.532180773
 20
-404.2597046851
 10
105.218562113
 20
-403.907217717
 10
107.9219605791
 20
-403.5583666323
 10
110.6413330901
 20
-403.2132706402
  0
LWPOLYLINE
  5
1E9
330
1F
100
AcDbEntity
  8
0
  6
Continuous
 62
     7
370
    15
100
AcDbPolyline
 90
        9
 70
   128
 43
0.0
 10
110.6413330901
 20
-44.6272275208
 10
107.9219605791
 20
-44.2821315287
 10
105.218562113
 20
-43.933280444
 10
102.532180773
 20
-43.580793476
 10
99.8638894427
 20
-43.2248196362
 10
97.2147610056
 20
-42.8655079363
 10
94.5857789385
 20
-42.5029775856
 10
91.978016125
 20
-42.1373775958
 10
89.3924858439
 20
-41.7688569783
  0
LINE
  5
1EA
330
1F
100
AcDbEntity
  8
0
  6
Continuous
 62
     7
370
    15
100
AcDbLine
 10
-29.4131610525
 20
-69.920249915
 30
0.0
 11
-20.1261762512
 21
-69.920249915
 31
0.0
  0
LINE
  5
1EB
330
1F
100
AcDbEntity
  8
0
  6
Continuous
 62
     7
370
    15
100
AcDbLine
 10
-20.1261762512
 20
-69.920249915
 30
0.0
 11
-20.1261762512
 21
-377.920248246
 31
0.0
  0
LINE
  5
1EC
330
1F
100
AcDbEntity
  8
0
  6
Continuous
 62
     7
370
    15
100
AcDbLine
 10
-29.4131610525
 20
-377.920248246
 30
0.0
 11
-20.1261762512
 21
-377.920248246
 31
0.0
  0
LINE
  5
1ED
330
1F
100
AcDbEntity
  8
0
  6
Continuous
 62
     7
370
    15
100
AcDbLine
 10
-32.854107393
 20
-322.2991755961
 30
0.0
 11
-29.4131610525
 21
-377.920248246
 31
0.0
  0
LINE
  5
1EE
330
1F
100
AcDbEntity
  8
0
  6
Continuous
 62
     7
370
    15
100
AcDbLine
 10
-32.854107393
 20
-125.5413225649
 30
0.0
 11
-32.854107393
 21
-322.2991755961
 31
0.0
  0
LINE
  5
1EF
330
1F
100
AcDbEntity
  8
0
  6
Continuous
 62
     7
370
    15
100
AcDbLine
 10
-32.854107393
 20
-125.5413225649
 30
0.0
 11
-29.4131610525
 21
-69.920249915
 31
0.0
  0
LINE
  5
1F0
330
1F
100
AcDbEntity
  8
0
  6
Continuous
 62
     7
370
    15
100
AcDbLine
 10
-17.9378215206
 20
-69.920249915
 30
0.0
 11
-20.1261762512
 21
-69.920249915
 31
0.0
  0
LINE
  5
1F1
330
1F
100
AcDbEntity
  8
0
  6
Continuous
 62
     7
370
    15
100
AcDbLine
 10
-17.9378215206
 20
-377.920248246
 30
0.0
 11
-20.1261762512
 21
-377.920248246
 31
0.0
  0
LINE
  5
1F2
330
1F
100
AcDbEntity
  8
0
  6
Continuous
 62
     7
370
    15
100
AcDbLine
 10
-89.0690881741
 20
-114.5966357349
 30
0.0
 11
-29.594031347
 21
-72.8438577412
 31
0.0
  0
LINE
  5
1F3
330
1F
100
AcDbEntity
  8
0
  6
Continuous
 62
     7
370
    15
100
AcDbLine
 10
-89.0690881741
 20
-333.2438624261
 30
0.0
 11
-29.594031347
 21
-374.9966404198
 31
0.0
  0
LINE
  5
1F4
330
1F
100
AcDbEntity
  8
0
  6
Continuous
 62
     7
370
    15
100
AcDbLine
 10
-89.0690881741
 20
-114.5966357349
 30
0.0
 11
-89.0690881741
 21
-333.2438624261
 31
0.0
  0
LINE
  5
1F5
330
1F
100
AcDbEntity
  8
0
  6
Continuous
 62
     7
370
    15
100
AcDbLine
 10
130.0646688807
 20
15.6017461063
 30
0.0
 11
142.8183343279
 21
16.6447528841
 31
0.0
  0
LWPOLYLINE
  5
1F6
330
1F
100
AcDbEntity
  8
0
  6
Continuous
 62
     7
370
    15
100
AcDbPolyline
 90
        3
 70
   128
 43
0.0
 10
142.8183343279
 20
16.6447528841
 10
145.6903841364
 20
17.1612867357
 10
146.8180742133
 20
17.345092559
  0
LWPOLYLINE
  5
1F7
330
1F
100
AcDbEntity
  8
0
  6
Continuous
 62
     7
370
    15
100
AcDbPolyline
 90
       49
 70
   128
 43
0.0
 10
146.8180742133
 20
17.0942762138
 10
144.0980460513
 20
16.5682205202
 10
141.3843061793
 20
15.9807869436
 10
138.6775400507
 20
15.3321095945
 10
135.9784629214
 20
14.6223672868
 10
133.2877304423
 20
13.8517090322
 10
130.6060876715
 20
13.0203732492
 10
127.9341306555
 20
12.1285387517
 10
125.2726342547
 20
11.1764439584
 10
122.6221945155
 20
10.164342189
 10
119.9835564959
 20
9.0924867631
 10
117.3573460448
 20
7.9611459018
 10
114.7442486155
 20
6.7706027271
 10
112.1449496615
 20
5.5211850645
 10
109.5601048338
 20
4.2131909372
 10
106.9903399813
 20
2.8469481708
 10
104.4363703596
 20
1.4228292944
 10
101.8987920153
 20
-0.0588229655
 10
99.3782904017
 20
-1.5976062773
 10
96.8754913676
 20
-3.1931630133
 10
94.3910207617
 20
-4.8450461386
 10
91.9255342352
 20
-6.552868223
 10
89.4796576369
 20
-8.3161822318
 10
87.0540168154
 20
-10.1345262288
 10
84.6492376196
 20
-12.0074382781
 10
82.265916096
 20
-13.9344564436
 10
79.9046780932
 20
-15.9150889872
 10
77.5661196577
 20
-17.9487994669
 10
75.2508070338
 20
-20.0350961445
 10
72.9593958723
 20
-22.1734425782
 10
70.692392813
 20
-24.3633023261
 10
68.4504535067
 20
-26.6040942429
 10
66.2341143954
 20
-28.8952520846
 10
64.0439119208
 20
-31.2361947058
 10
61.8804719317
 20
-33.6263260601
 10
59.7443010676
 20
-36.0650352
 10
57.6359357703
 20
-38.5517111777
 10
55.5559422839
 20
-41.0856983422
 10
53.504842149
 20
-43.6663559435
 10
51.4831569064
 20
-46.2930283307
 10
49.4914080965
 20
-48.9650449513
 10
47.530102359
 20
-51.681720352
 10
45.5997314322
 20
-54.4423690794
 10
43.7008019555
 20
-57.246290779
 10
41.8337758648
 20
-60.0927552937
 10
39.9991597998
 20
-62.9810324667
 10
38.1974007952
 20
-65.9103921412
 10
36.4289756882
 20
-68.8801041602
 10
35.8229901659
 20
-69.920249915
  0
LWPOLYLINE
  5
1F8
330
1F
100
AcDbEntity
  8
0
  6
Continuous
 62
     7
370
    15
100
AcDbPolyline
 90
       49
 70
   128
 43
0.0
 10
35.8229901659
 20
-377.920248246
 10
36.4289756882
 20
-378.9603940009
 10
38.1974007952
 20
-381.9301060198
 10
39.9991597998
 20
-384.8594656943
 10
41.8337758648
 20
-387.7477428673
 10
43.7008019555
 20
-390.5942073821
 10
45.5997314322
 20
-393.3981290816
 10
47.530102359
 20
-396.158777809
 10
49.4914080965
 20
-398.8754532097
 10
51.4831569064
 20
-401.5474698304
 10
53.504842149
 20
-404.1741422175
 10
55.5559422839
 20
-406.7547998188
 10
57.6359357703
 20
-409.2887869833
 10
59.7443010676
 20
-411.775462961
 10
61.8804719317
 20
-414.2141721009
 10
64.0439119208
 20
-416.6043034552
 10
66.2341143954
 20
-418.9452460764
 10
68.4504535067
 20
-421.2364039181
 10
70.692392813
 20
-423.477195835
 10
72.9593958723
 20
-425.6670555829
 10
75.2508070338
 20
-427.8054020165
 10
77.5661196577
 20
-429.8916986941
 10
79.9046780932
 20
-431.9254091738
 10
82.265916096
 20
-433.9060417174
 10
84.6492376196
 20
-435.833059883
 10
87.0540168154
 20
-437.7059719323
 10
89.4796576369
 20
-439.5243159293
 10
91.9255342352
 20
-441.287629938
 10
94.3910207617
 20
-442.9954520224
 10
96.8754913676
 20
-444.6473351477
 10
99.3782904017
 20
-446.2428918837
 10
101.8987920153
 20
-447.7816751955
 10
104.4363703596
 20
-449.2633274554
 10
106.9903399813
 20
-450.6874463318
 10
109.5601048338
 20
-452.0536890982
 10
112.1449496615
 20
-453.3616832255
 10
114.7442486155
 20
-454.6111008881
 10
117.3573460448
 20
-455.8016440628
 10
119.9835564959
 20
-456.9329849242
 10
122.6221945155
 20
-458.00484035
 10
125.2726342547
 20
-459.0169421195
 10
127.9341306555
 20
-459.9690369128
 10
130.6060876715
 20
-460.8608714102
 10
133.2877304423
 20
-461.6922071932
 10
135.9784629214
 20
-462.4628654479
 10
138.6775400507
 20
-463.1726077555
 10
141.3843061793
 20
-463.8212851046
 10
144.0980460513
 20
-464.4087186812
 10
146.8180742133
 20
-464.9347743748
  0
LWPOLYLINE
  5
1F9
330
1F
100
AcDbEntity
  8
0
  6
Continuous
 62
     7
370
    15
100
AcDbPolyline
 90
        3
 70
   128
 43
0.0
 10
142.8183343279
 20
-464.4852510451
 10
145.6903841364
 20
-465.0017848967
 10
146.8180742133
 20
-465.18559072
  0
LINE
  5
1FA
330
1F
100
AcDbEntity
  8
0
  6
Continuous
 62
     7
370
    15
100
AcDbLine
 10
130.0646688807
 20
-463.4422442673
 30
0.0
 11
142.8183343279
 21
-464.4852510451
 31
0.0
  0
LINE
  5
1FB
330
1F
100
AcDbEntity
  8
0
  6
Continuous
 62
     7
370
    15
100
AcDbLine
 10
97.855510937
 20
-460.9809151648
 30
0.0
 11
130.0686921942
 21
-463.6053374766
 31
0.0
  0
LINE
  5
1FC
330
1F
100
AcDbEntity
  8
0
  6
Continuous
 62
     7
370
    15
100
AcDbLine
 10
97.855510937
 20
13.1404170038
 30
0.0
 11
130.0686921942
 21
15.7648393156
 31
0.0
  0
LINE
  5
1FD
330
1F
100
AcDbEntity
  8
0
  6
Continuous
 62
     7
370
    15
100
AcDbLine
 10
89.3924858439
 20
-41.7688569783
 30
0.0
 11
88.481756674
 21
-41.7688569783
 31
0.0
  0
LINE
  5
1FE
330
1F
100
AcDbEntity
  8
0
  6
Continuous
 62
     7
370
    15
100
AcDbLine
 10
110.6413330901
 20
-44.6272275208
 30
0.0
 11
153.9837744105
 21
-53.2417378186
 31
0.0
  0
LINE
  5
1FF
330
1F
100
AcDbEntity
  8
0
  6
Continuous
 62
     7
370
    15
100
AcDbLine
 10
88.481756674
 20
-406.0716411828
 30
0.0
 11
89.3924858439
 21
-406.0716411828
 31
0.0
  0
LINE
  5
200
330
1F
100
AcDbEntity
  8
0
  6
Continuous
 62
     7
370
    15
100
AcDbLine
 10
153.9837744105
 20
-394.5987603425
 30
0.0
 11
110.6413330901
 21
-403.2132706402
 31
0.0
  0
LWPOLYLINE
  5
201
330
1F
100
AcDbEntity
  8
0
  6
Continuous
 62
     7
370
    15
100
AcDbPolyline
 90
       49
 70
   128
 43
0.0
 10
162.3744096625
 20
17.0942762138
 10
159.6543815005
 20
16.5682205202
 10
156.9406416285
 20
15.9807869436
 10
154.2339053023
 20
15.3321095945
 10
151.5347983706
 20
14.6223672868
 10
148.8440956938
 20
13.8517090322
 10
146.1624231207
 20
13.0203732492
 10
143.4904959071
 20
12.1285387517
 10
140.8289697039
 20
11.1764439584
 10
138.178559767
 20
10.164342189
 10
135.5398919451
 20
9.0924867631
 10
132.9137112963
 20
7.9611459018
 10
130.300613867
 20
6.7706027271
 10
127.701314913
 20
5.5211850645
 10
125.116440283
 20
4.2131909372
 10
122.5467052328
 20
2.8469481708
 10
119.9927058089
 20
1.4228292944
 10
117.4551274645
 20
-0.0588229655
 10
114.9346258509
 20
-1.5976062773
 10
112.4318268168
 20
-3.1931630133
 10
109.9473562109
 20
-4.8450461386
 10
107.4818994868
 20
-6.552868223
 10
105.0360228884
 20
-8.3161822318
 10
102.610382067
 20
-10.1345262288
 10
100.2056028712
 20
-12.0074382781
 10
97.8222813475
 20
-13.9344564436
 10
95.4610135424
 20
-15.9150889872
 10
93.122455107
 20
-17.9487994669
 10
90.8071722853
 20
-20.0350961445
 10
88.5157313216
 20
-22.1734425782
 10
86.2487580645
 20
-24.3633023261
 10
84.0067889559
 20
-26.6040942429
 10
81.7904498446
 20
-28.8952520846
 10
79.6002771723
 20
-31.2361947058
 10
77.4368073809
 20
-33.6263260601
 10
75.3006365168
 20
-36.0650352
 10
73.1922712195
 20
-38.5517111777
 10
71.1122777331
 20
-41.0856983422
 10
69.0611924994
 20
-43.6663559435
 10
67.0395221579
 20
-46.2930283307
 10
65.0477435458
 20
-48.9650449513
 10
63.0864527094
 20
-51.681720352
 10
61.1560668814
 20
-54.4423690794
 10
59.2571523058
 20
-57.246290779
 10
57.3901262152
 20
-60.0927552937
 10
55.5555250513
 20
-62.9810324667
 10
53.7537511456
 20
-65.9103921412
 10
51.9853260386
 20
-68.8801041602
 10
51.3793405163
 20
-69.920249915
  0
LINE
  5
202
330
1F
100
AcDbEntity
  8
0
  6
Continuous
 62
     7
370
    15
100
AcDbLine
 10
162.3744096625
 20
17.0942762138
 30
0.0
 11
162.3744096625
 21
2.3362406732
 31
0.0
  0
LINE
  5
203
330
1F
100
AcDbEntity
  8
0
  6
Continuous
 62
     7
370
    15
100
AcDbLine
 10
184.2947330344
 20
2.3362406732
 30
0.0
 11
162.3744096625
 21
2.3362406732
 31
0.0
  0
LINE
  5
204
330
1F
100
AcDbEntity
  8
0
  6
Continuous
 62
     7
370
    15
100
AcDbLine
 10
146.8180742133
 20
17.0942762138
 30
0.0
 11
162.3744096625
 21
17.0942762138
 31
0.0
  0
LINE
  5
205
330
1F
100
AcDbEntity
  8
0
  6
Continuous
 62
     7
370
    15
100
AcDbLine
 10
162.3744096625
 20
-450.1767388342
 30
0.0
 11
162.3744096625
 21
-464.9347743748
 31
0.0
  0
LWPOLYLINE
  5
206
330
1F
100
AcDbEntity
  8
0
  6
Continuous
 62
     7
370
    15
100
AcDbPolyline
 90
       49
 70
   128
 43
0.0
 10
51.3793405163
 20
-377.920248246
 10
51.9853260386
 20
-378.9603940009
 10
53.7537511456
 20
-381.9301060198
 10
55.5555250513
 20
-384.8594656943
 10
57.3901262152
 20
-387.7477428673
 10
59.2571523058
 20
-390.5942073821
 10
61.1560668814
 20
-393.3981290816
 10
63.0864527094
 20
-396.158777809
 10
65.0477435458
 20
-398.8754532097
 10
67.0395221579
 20
-401.5474698304
 10
69.0611924994
 20
-404.1741422175
 10
71.1122777331
 20
-406.7547998188
 10
73.1922712195
 20
-409.2887869833
 10
75.3006365168
 20
-411.775462961
 10
77.4368073809
 20
-414.2141721009
 10
79.6002771723
 20
-416.6043034552
 10
81.7904498446
 20
-418.9452460764
 10
84.0067889559
 20
-421.2364039181
 10
86.2487580645
 20
-423.477195835
 10
88.5157313216
 20
-425.6670555829
 10
90.8071722853
 20
-427.8054020165
 10
93.122455107
 20
-429.8916986941
 10
95.4610135424
 20
-431.9254091738
 10
97.8222813475
 20
-433.9060417174
 10
100.2056028712
 20
-435.833059883
 10
102.610382067
 20
-437.7059719323
 10
105.0360228884
 20
-439.5243159293
 10
107.4818994868
 20
-441.287629938
 10
109.9473562109
 20
-442.9954520224
 10
112.4318268168
 20
-444.6473351477
 10
114.9346258509
 20
-446.2428918837
 10
117.4551274645
 20
-447.7816751955
 10
119.9927058089
 20
-449.2633274554
 10
122.5467052328
 20
-450.6874463318
 10
125.116440283
 20
-452.0536890982
 10
127.701314913
 20
-453.3616832255
 10
130.300613867
 20
-454.6111008881
 10
132.9137112963
 20
-455.8016440628
 10
135.5398919451
 20
-456.9329849242
 10
138.178559767
 20
-458.00484035
 10
140.8289697039
 20
-459.0169421195
 10
143.4904959071
 20
-459.9690369128
 10
146.1624231207
 20
-460.8608714102
 10
148.8440956938
 20
-461.6922071932
 10
151.5347983706
 20
-462.4628654479
 10
154.2339053023
 20
-463.1726077555
 10
156.9406416285
 20
-463.8212851046
 10
159.6543815005
 20
-464.4087186812
 10
162.3744096625
 20
-464.9347743748
  0
LINE
  5
207
330
1F
100
AcDbEntity
  8
0
  6
Continuous
 62
     7
370
    15
100
AcDbLine
 10
184.2947330344
 20
-450.1767388342
 30
0.0
 11
162.3744096625
 21
-450.1767388342
 31
0.0
  0
LINE
  5
208
330
1F
100
AcDbEntity
  8
0
  6
Continuous
 62
     7
370
    15
100
AcDbLine
 10
162.3744096625
 20
-464.9347743748
 30
0.0
 11
146.8180742133
 21
-464.9347743748
 31
0.0
  0
ELLIPSE
  5
209
330
1F
100
AcDbEntity
  8
0
  6
Continuous
 62
     7
370
    15
100
AcDbEllipse
 10
-194.7145137918
 20
-223.9202490805
 30
0.0
 11
337.9970414071706
 21
0.0
 31
0.0
210
0.0
220
0.0
230
1.0
 40
0.7071067812
 41
1.826385878372553
 42
1.838164193751161
  0
ELLIPSE
  5
20A
330
1F
100
AcDbEntity
  8
0
  6
Continuous
 62
     7
370
    15
100
AcDbEllipse
 10
-194.7145137918
 20
-223.9202490805
 30
0.0
 11
337.9970414071706
 21
0.0
 31
0.0
210
0.0
220
0.0
230
1.0
 40
0.7071067812
 41
1.570796326794897
 42
1.826385878372553
  0
LINE
  5
20B
330
1F
100
AcDbEntity
  8
0
  6
Continuous
 62
     7
370
    15
100
AcDbLine
 10
75.0467207301
 20
13.1256350519
 30
0.0
 11
97.4924590456
 21
13.1256350519
 31
0.0
  0
LINE
  5
20C
330
1F
100
AcDbEntity
  8
0
  6
Continuous
 62
     7
370
    15
100
AcDbLine
 10
75.0467207301
 20
-460.9661332129
 30
0.0
 11
97.4924590456
 21
-460.9661332129
 31
0.0
  0
ELLIPSE
  5
20D
330
1F
100
AcDbEntity
  8
0
  6
Continuous
 62
     7
370
    15
100
AcDbEllipse
 10
-194.7145137918
 20
-223.9202490805
 30
0.0
 11
337.9970414071706
 21
0.0
 31
0.0
210
0.0
220
0.0
230
1.0
 40
0.7071067812
 41
4.456799428807043
 42
4.712388980384699
  0
ELLIPSE
  5
20E
330
1F
100
AcDbEntity
  8
0
  6
Continuous
 62
     7
370
    15
100
AcDbEllipse
 10
-194.7145137918
 20
-223.9202490805
 30
0.0
 11
337.9970414071706
 21
0.0
 31
0.0
210
0.0
220
0.0
230
1.0
 40
0.7071067812
 41
4.445021113428436
 42
4.456799428807043
  0
LINE
  5
20F
330
1F
100
AcDbEntity
  8
0
  6
Continuous
 62
     7
370
    15
100
AcDbLine
 10
97.855510937
 20
13.1404170038
 30
0.0
 11
97.4924590456
 21
13.1256350519
 31
0.0
  0
LINE
  5
210
330
1F
100
AcDbEntity
  8
0
  6
Continuous
 62
     7
370
    15
100
AcDbLine
 10
97.855510937
 20
-460.9809151648
 30
0.0
 11
97.4924590456
 21
-460.9661332129
 31
0.0
  0
LINE
  5
211
330
1F
100
AcDbEntity
  8
0
  6
Continuous
 62
     7
370
    15
100
AcDbLine
 10
146.8180742133
 20
17.0942762138
 30
0.0
 11
146.8180742133
 21
64.0797385217
 31
0.0
  0
LINE
  5
212
330
1F
100
AcDbEntity
  8
0
  6
Continuous
 62
     7
370
    15
100
AcDbLine
 10
146.8180742133
 20
64.0797385217
 30
0.0
 11
166.1941137183
 21
64.0797385217
 31
0.0
  0
LINE
  5
213
330
1F
100
AcDbEntity
  8
0
  6
Continuous
 62
     7
370
    15
100
AcDbLine
 10
166.1941137183
 20
64.0797385217
 30
0.0
 11
162.3744096625
 21
2.3362406732
 31
0.0
  0
LINE
  5
214
330
1F
100
AcDbEntity
  8
0
  6
Continuous
 62
     7
370
    15
100
AcDbLine
 10
210.0347306597
 20
64.0797385217
 30
0.0
 11
166.1941137183
 21
64.0797385217
 31
0.0
  0
LINE
  5
215
330
1F
100
AcDbEntity
  8
0
  6
Continuous
 62
     7
370
    15
100
AcDbLine
 10
210.0347306597
 20
64.0797385217
 30
0.0
 11
206.2150266039
 21
2.3362406732
 31
0.0
  0
LINE
  5
216
330
1F
100
AcDbEntity
  8
0
  6
Continuous
 62
     7
370
    15
100
AcDbLine
 10
206.2150266039
 20
2.3362406732
 30
0.0
 11
184.2947330344
 21
2.3362406732
 31
0.0
  0
LINE
  5
217
330
1F
100
AcDbEntity
  8
0
  6
Continuous
 62
     7
370
    15
100
AcDbLine
 10
206.2150266039
 20
-450.1767388342
 30
0.0
 11
184.2947330344
 21
-450.1767388342
 31
0.0
  0
LINE
  5
218
330
1F
100
AcDbEntity
  8
0
  6
Continuous
 62
     7
370
    15
100
AcDbLine
 10
210.0347306597
 20
-511.9202366827
 30
0.0
 11
206.2150266039
 21
-450.1767388342
 31
0.0
  0
LINE
  5
219
330
1F
100
AcDbEntity
  8
0
  6
Continuous
 62
     7
370
    15
100
AcDbLine
 10
210.0347306597
 20
-511.9202366827
 30
0.0
 11
166.1941137183
 21
-511.9202366827
 31
0.0
  0
LINE
  5
21A
330
1F
100
AcDbEntity
  8
0
  6
Continuous
 62
     7
370
    15
100
AcDbLine
 10
166.1941137183
 20
-511.9202366827
 30
0.0
 11
162.3744096625
 21
-450.1767388342
 31
0.0
  0
LINE
  5
21B
330
1F
100
AcDbEntity
  8
0
  6
Continuous
 62
     7
370
    15
100
AcDbLine
 10
146.8180742133
 20
-511.9202366827
 30
0.0
 11
166.1941137183
 21
-511.9202366827
 31
0.0
  0
LINE
  5
21C
330
1F
100
AcDbEntity
  8
0
  6
Continuous
 62
     7
370
    15
100
AcDbLine
 10
146.8180742133
 20
-464.9347743748
 30
0.0
 11
146.8180742133
 21
-511.9202366827
 31
0.0
  0
LWPOLYLINE
  5
21D
330
1F
100
AcDbEntity
  8
0
  6
Continuous
 62
     7
370
    15
100
AcDbPolyline
 90
       52
 70
   128
 43
0.0
 10
337.8315296042
 20
-53.2417378186
 10
339.4002046454
 20
-53.5853287934
 10
340.9614887106
 20
-53.991027808
 10
342.5140704977
 20
-54.4585219382
 10
344.0567579138
 20
-54.9874386548
 10
345.588358866
 20
-55.5773607253
 10
347.1076216566
 20
-56.2278262137
 10
348.6134137976
 20
-56.9383284806
 10
350.1044835913
 20
-57.7082863806
 10
351.5797581541
 20
-58.5371187685
 10
353.0379261839
 20
-59.4241550921
 10
354.4779744017
 20
-60.368724799
 10
355.8987107146
 20
-61.3700381278
 10
357.2990026343
 20
-62.4273500203
 10
358.6777772772
 20
-63.5398111103
 10
360.0339021551
 20
-64.7065273283
 10
361.3663639891
 20
-65.9266195057
 10
362.6741495001
 20
-67.1990892647
 10
363.9561261999
 20
-68.5229531287
 10
365.2113404143
 20
-69.8971680163
 10
366.4387788641
 20
-71.3206461428
 10
367.6374878752
 20
-72.7922699212
 10
368.8065733778
 20
-74.3108919619
 10
369.945022093
 20
-75.8752903698
 10
371.0519995558
 20
-77.4842581509
 10
372.1266116965
 20
-79.1365138052
 10
373.16802405
 20
-80.8307609318
 10
374.175461756
 20
-82.5656584261
 10
375.1480307448
 20
-84.3398502825
 10
376.0850157606
 20
-86.1519357918
 10
376.9857015478
 20
-88.0004993437
 10
377.849313246
 20
-89.8840657233
 10
378.6752548087
 20
-91.8011597155
 10
379.4628109801
 20
-93.7502763031
 10
380.2113857138
 20
-95.7298657654
 10
380.9204425681
 20
-97.7383932827
 10
381.5893258917
 20
-99.7742569803
 10
382.2175588477
 20
-101.8358698843
 10
382.804604994
 20
-103.9215928672
 10
383.350106703
 20
-106.0297868012
 10
383.8535275328
 20
-108.1587976573
 10
384.3145098555
 20
-110.306949055
 10
384.7326960432
 20
-112.4725497125
 10
385.1077284682
 20
-114.6538859962
 10
385.4393687117
 20
-116.8492517231
 10
385.7273187506
 20
-119.0569034575
 10
385.9713401663
 20
-121.2751201151
 10
386.1712541449
 20
-123.502143359
 10
386.326941477
 20
-125.7362223028
 10
386.4381637442
 20
-127.9755986093
 10
386.504980551
 20
-130.218506491
 10
386.5272726881
 20
-132.463187611
  0
LWPOLYLINE
  5
21E
330
1F
100
AcDbEntity
  8
0
  6
Continuous
 62
     7
370
    15
100
AcDbPolyline
 90
       52
 70
   128
 43
0.0
 10
330.0533618796
 20
-53.2417378186
 10
331.6220369208
 20
-53.5853287934
 10
333.1832613814
 20
-53.991027808
 10
334.7358431685
 20
-54.4585219382
 10
336.2785901892
 20
-54.9874386548
 10
337.8101315367
 20
-55.5773607253
 10
339.329453932
 20
-56.2278262137
 10
340.835246073
 20
-56.9383284806
 10
342.3263158667
 20
-57.7082863806
 10
343.8015308249
 20
-58.5371187685
 10
345.2597584593
 20
-59.4241550921
 10
346.6998066771
 20
-60.368724799
 10
348.12054299
 20
-61.3700381278
 10
349.5208349097
 20
-62.4273500203
 10
350.8996095526
 20
-63.5398111103
 10
352.2557344305
 20
-64.7065273283
 10
353.5881962645
 20
-65.9266195057
 10
354.8959817755
 20
-67.1990892647
 10
356.1779584753
 20
-68.5229531287
 10
357.4331726897
 20
-69.8971680163
 10
358.6606111395
 20
-71.3206461428
 10
359.8593201506
 20
-72.7922699212
 10
361.0284056532
 20
-74.3108919619
 10
362.1668543684
 20
-75.8752903698
 10
363.2738318312
 20
-77.4842581509
 10
364.3484439719
 20
-79.1365138052
 10
365.3898563254
 20
-80.8307609318
 10
366.3972344267
 20
-82.5656584261
 10
367.3698630202
 20
-84.3398502825
 10
368.306848036
 20
-86.1519357918
 10
369.2074742186
 20
-88.0004993437
 10
370.0711455214
 20
-89.8840657233
 10
370.897087084
 20
-91.8011597155
 10
371.6846432555
 20
-93.7502763031
 10
372.4332179892
 20
-95.7298657654
 10
373.1422152388
 20
-97.7383932827
 10
373.8110985625
 20
-99.7742569803
 10
374.4393315184
 20
-101.8358698843
 10
375.0264372694
 20
-103.9215928672
 10
375.5718793738
 20
-106.0297868012
 10
376.0753598082
 20
-108.1587976573
 10
376.5363421309
 20
-110.306949055
 10
376.9545283186
 20
-112.4725497125
 10
377.3295607436
 20
-114.6538859962
 10
377.6612009871
 20
-116.8492517231
 10
377.949151026
 20
-119.0569034575
 10
378.1931724417
 20
-121.2751201151
 10
378.3930864203
 20
-123.502143359
 10
378.5487141478
 20
-125.7362223028
 10
378.6599960196
 20
-127.9755986093
 10
378.7268128264
 20
-130.218506491
 10
378.7491049635
 20
-132.463187611
  0
LINE
  5
21F
330
1F
100
AcDbEntity
  8
0
  6
Continuous
 62
     7
370
    15
100
AcDbLine
 10
288.2225539553
 20
-44.9276647328
 30
0.0
 11
330.0533618796
 21
-53.2417378186
 31
0.0
  0
LINE
  5
220
330
1F
100
AcDbEntity
  8
0
  6
Continuous
 62
     7
370
    15
100
AcDbLine
 10
378.7491049635
 20
-132.463187611
 30
0.0
 11
378.7491049635
 21
-315.3773105501
 31
0.0
  0
LWPOLYLINE
  5
221
330
1F
100
AcDbEntity
  8
0
  6
Continuous
 62
     7
370
    15
100
AcDbPolyline
 90
       52
 70
   128
 43
0.0
 10
378.7491049635
 20
-315.3773105501
 10
378.7268128264
 20
-317.62199167
 10
378.6599960196
 20
-319.8648995517
 10
378.5487141478
 20
-322.1042758583
 10
378.3930864203
 20
-324.338354802
 10
378.1931724417
 20
-326.5653780459
 10
377.949151026
 20
-328.7835947035
 10
377.6612009871
 20
-330.9912464379
 10
377.3295607436
 20
-333.1866121648
 10
376.9545283186
 20
-335.3679484485
 10
376.5363421309
 20
-337.533549106
 10
376.0753598082
 20
-339.6817005037
 10
375.5718793738
 20
-341.8107113598
 10
375.0264372694
 20
-343.9189052938
 10
374.4393315184
 20
-346.0046282767
 10
373.8110985625
 20
-348.0662411807
 10
373.1422152388
 20
-350.1021048783
 10
372.4332179892
 20
-352.1106323956
 10
371.6846432555
 20
-354.0902218579
 10
370.897087084
 20
-356.0393384455
 10
370.0711455214
 20
-357.9564324377
 10
369.2074742186
 20
-359.8399988173
 10
368.306848036
 20
-361.6885623692
 10
367.3698630202
 20
-363.5006478785
 10
366.3972344267
 20
-365.2748397349
 10
365.3898563254
 20
-367.0097372292
 10
364.3484439719
 20
-368.7039843558
 10
363.2738318312
 20
-370.3562400101
 10
362.1668543684
 20
-371.9652077912
 10
361.0284056532
 20
-373.5296061991
 10
359.8593201506
 20
-375.0482282399
 10
358.6606111395
 20
-376.5198520182
 10
357.4331726897
 20
-377.9433301447
 10
356.1779584753
 20
-379.3175450324
 10
354.8959817755
 20
-380.6414088963
 10
353.5881962645
 20
-381.9138786553
 10
352.2557344305
 20
-383.1339708327
 10
350.8996095526
 20
-384.3006870507
 10
349.5208349097
 20
-385.4131481408
 10
348.12054299
 20
-386.4704600333
 10
346.6998066771
 20
-387.471773362
 10
345.2597584593
 20
-388.4163430689
 10
343.8015308249
 20
-389.3033793925
 10
342.3263158667
 20
-390.1322117804
 10
340.835246073
 20
-390.9021696804
 10
339.329453932
 20
-391.6126719473
 10
337.8101315367
 20
-392.2631374358
 10
336.2785901892
 20
-392.8530595063
 10
334.7358431685
 20
-393.3819762228
 10
333.1832613814
 20
-393.849470353
 10
331.6220369208
 20
-394.2551693676
 10
330.0533618796
 20
-394.5987603425
  0
LINE
  5
222
330
1F
100
AcDbEntity
  8
0
  6
Continuous
 62
     7
370
    15
100
AcDbLine
 10
330.0533618796
 20
-394.5987603425
 30
0.0
 11
288.2225539553
 21
-402.9128334282
 31
0.0
  0
LINE
  5
223
330
1F
100
AcDbEntity
  8
0
  6
Continuous
 62
     7
370
    15
100
AcDbLine
 10
386.5272726881
 20
-132.463187611
 30
0.0
 11
386.5272726881
 21
-315.3773105501
 31
0.0
  0
LWPOLYLINE
  5
224
330
1F
100
AcDbEntity
  8
0
  6
Continuous
 62
     7
370
    15
100
AcDbPolyline
 90
       52
 70
   128
 43
0.0
 10
386.5272726881
 20
-315.3773105501
 10
386.504980551
 20
-317.62199167
 10
386.4381637442
 20
-319.8648995517
 10
386.326941477
 20
-322.1042758583
 10
386.1712541449
 20
-324.338354802
 10
385.9713401663
 20
-326.5653780459
 10
385.7273187506
 20
-328.7835947035
 10
385.4393687117
 20
-330.9912464379
 10
385.1077284682
 20
-333.1866121648
 10
384.7326960432
 20
-335.3679484485
 10
384.3145098555
 20
-337.533549106
 10
383.8535275328
 20
-339.6817005037
 10
383.350106703
 20
-341.8107113598
 10
382.804604994
 20
-343.9189052938
 10
382.2175588477
 20
-346.0046282767
 10
381.5893258917
 20
-348.0662411807
 10
380.9204425681
 20
-350.1021048783
 10
380.2113857138
 20
-352.1106323956
 10
379.4628109801
 20
-354.0902218579
 10
378.6752548087
 20
-356.0393384455
 10
377.849313246
 20
-357.9564324377
 10
376.9857015478
 20
-359.8399988173
 10
376.0850157606
 20
-361.6885623692
 10
375.1480307448
 20
-363.5006478785
 10
374.175461756
 20
-365.2748397349
 10
373.16802405
 20
-367.0097372292
 10
372.1266116965
 20
-368.7039843558
 10
371.0519995558
 20
-370.3562400101
 10
369.945022093
 20
-371.9652077912
 10
368.8065733778
 20
-373.5296061991
 10
367.6374878752
 20
-375.0482282399
 10
366.4387788641
 20
-376.5198520182
 10
365.2113404143
 20
-377.9433301447
 10
363.9561261999
 20
-379.3175450324
 10
362.6741495001
 20
-380.6414088963
 10
361.3663639891
 20
-381.9138786553
 10
360.0339021551
 20
-383.1339708327
 10
358.6777772772
 20
-384.3006870507
 10
357.2990026343
 20
-385.4131481408
 10
355.8987107146
 20
-386.4704600333
 10
354.4779744017
 20
-387.471773362
 10
353.0379261839
 20
-388.4163430689
 10
351.5797581541
 20
-389.3033793925
 10
350.1044835913
 20
-390.1322117804
 10
348.6134137976
 20
-390.9021696804
 10
347.1076216566
 20
-391.6126719473
 10
345.588358866
 20
-392.2631374358
 10
344.0567579138
 20
-392.8530595063
 10
342.5140704977
 20
-393.3819762228
 10
340.9614887106
 20
-393.849470353
 10
339.4002046454
 20
-394.2551693676
 10
337.8315296042
 20
-394.5987603425
  0
LINE
  5
225
330
1F
100
AcDbEntity
  8
0
  6
Continuous
 62
     7
370
    15
100
AcDbLine
 10
146.8180742133
 20
64.0797385217
 30
0.0
 11
143.9896252024
 21
64.0797385217
 31
0.0
  0
LINE
  5
226
330
1F
100
AcDbEntity
  8
0
  6
Continuous
 62
     7
370
    15
100
AcDbLine
 10
143.9896252024
 20
64.0797385217
 30
0.0
 11
142.8183343279
 21
16.6447528841
 31
0.0
  0
LINE
  5
227
330
1F
100
AcDbEntity
  8
0
  6
Continuous
 62
     7
370
    15
100
AcDbLine
 10
131.2617089617
 20
64.0797385217
 30
0.0
 11
143.9896252024
 21
64.0797385217
 31
0.0
  0
LINE
  5
228
330
1F
100
AcDbEntity
  8
0
  6
Continuous
 62
     7
370
    15
100
AcDbLine
 10
131.2617089617
 20
64.0797385217
 30
0.0
 11
130.0646688807
 21
15.6017461063
 31
0.0
  0
LINE
  5
229
330
1F
100
AcDbEntity
  8
0
  6
Continuous
 62
     7
370
    15
100
AcDbLine
 10
143.9896252024
 20
-511.9202366827
 30
0.0
 11
142.8183343279
 21
-464.4852510451
 31
0.0
  0
LINE
  5
22A
330
1F
100
AcDbEntity
  8
0
  6
Continuous
 62
     7
370
    15
100
AcDbLine
 10
131.2617089617
 20
-511.9202366827
 30
0.0
 11
143.9896252024
 21
-511.9202366827
 31
0.0
  0
LINE
  5
22B
330
1F
100
AcDbEntity
  8
0
  6
Continuous
 62
     7
370
    15
100
AcDbLine
 10
131.2617089617
 20
-511.9202366827
 30
0.0
 11
130.0646688807
 21
-463.4422442673
 31
0.0
  0
LINE
  5
22C
330
1F
100
AcDbEntity
  8
0
  6
Continuous
 62
     7
370
    15
100
AcDbLine
 10
146.8180742133
 20
-511.9202366827
 30
0.0
 11
143.9896252024
 21
-511.9202366827
 31
0.0
  0
LWPOLYLINE
  5
22D
330
1F
100
AcDbEntity
  8
0
  6
Continuous
 62
     7
370
    15
100
AcDbPolyline
 90
       40
 70
   128
 43
0.0
 10
301.315429436
 20
-45.9839931487
 10
299.528243767
 20
-43.6663559435
 10
297.4771585333
 20
-41.0856983422
 10
295.3971650469
 20
-38.5517111777
 10
293.2887997496
 20
-36.0650352
 10
291.1526288855
 20
-33.6263260601
 10
288.9891590941
 20
-31.2361947058
 10
286.7989864218
 20
-28.8952520846
 10
284.5826473105
 20
-26.6040942429
 10
282.3406782019
 20
-24.3633023261
 10
280.0737049448
 20
-22.1734425782
 10
277.7822937834
 20
-20.0350961445
 10
275.4669811594
 20
-17.9487994669
 10
273.128422724
 20
-15.9150889872
 10
270.7671847212
 20
-13.9344564436
 10
268.3838631976
 20
-12.0074382781
 10
265.9790541994
 20
-10.1345262288
 10
263.553413378
 20
-8.3161822318
 10
261.107566582
 20
-6.552868223
 10
258.6420800555
 20
-4.8450461386
 10
256.1576094496
 20
-3.1931630133
 10
253.6548104155
 20
-1.5976062773
 10
251.1343088019
 20
-0.0588229655
 10
248.5967304575
 20
1.4228292944
 10
246.0427310336
 20
2.8469481708
 10
243.4729959834
 20
4.2131909372
 10
240.8881213534
 20
5.5211850645
 10
238.2888223994
 20
6.7706027271
 10
235.6757547724
 20
7.9611459018
 10
233.0495443213
 20
9.0924867631
 10
230.4109063017
 20
10.164342189
 10
227.7604665625
 20
11.1764439584
 10
225.0989403593
 20
12.1285387517
 10
222.4270131457
 20
13.0203732492
 10
219.7453405726
 20
13.8517090322
 10
217.0546378958
 20
14.6223672868
 10
214.3555607664
 20
15.3321095945
 10
211.6487946379
 20
15.9807869436
 10
208.9350547659
 20
16.5682205202
 10
207.1176495421
 20
16.9266530515
  0
LWPOLYLINE
  5
22E
330
1F
100
AcDbEntity
  8
0
  6
Continuous
 62
     7
370
    15
100
AcDbPolyline
 90
       40
 70
   128
 43
0.0
 10
207.1176495421
 20
-464.7671512125
 10
208.9350547659
 20
-464.4087186812
 10
211.6487946379
 20
-463.8212851046
 10
214.3555607664
 20
-463.1726077555
 10
217.0546378958
 20
-462.4628654479
 10
219.7453405726
 20
-461.6922071932
 10
222.4270131457
 20
-460.8608714102
 10
225.0989403593
 20
-459.9690369128
 10
227.7604665625
 20
-459.0169421195
 10
230.4109063017
 20
-458.00484035
 10
233.0495443213
 20
-456.9329849242
 10
235.6757547724
 20
-455.8016440628
 10
238.2888223994
 20
-454.6111008881
 10
240.8881213534
 20
-453.3616832255
 10
243.4729959834
 20
-452.0536890982
 10
246.0427310336
 20
-450.6874463318
 10
248.5967304575
 20
-449.2633274554
 10
251.1343088019
 20
-447.7816751955
 10
253.6548104155
 20
-446.2428918837
 10
256.1576094496
 20
-444.6473351477
 10
258.6420800555
 20
-442.9954520224
 10
261.107566582
 20
-441.287629938
 10
263.553413378
 20
-439.5243159293
 10
265.9790541994
 20
-437.7059719323
 10
268.3838631976
 20
-435.833059883
 10
270.7671847212
 20
-433.9060417174
 10
273.128422724
 20
-431.9254091738
 10
275.4669811594
 20
-429.8916986941
 10
277.7822937834
 20
-427.8054020165
 10
280.0737049448
 20
-425.6670555829
 10
282.3406782019
 20
-423.477195835
 10
284.5826473105
 20
-421.2364039181
 10
286.7989864218
 20
-418.9452460764
 10
288.9891590941
 20
-416.6043034552
 10
291.1526288855
 20
-414.2141721009
 10
293.2887997496
 20
-411.775462961
 10
295.3971650469
 20
-409.2887869833
 10
297.4771585333
 20
-406.7547998188
 10
299.528243767
 20
-404.1741422175
 10
301.315429436
 20
-401.8565050124
  0
LINE
  5
22F
330
1F
100
AcDbEntity
  8
0
  6
Continuous
 62
     7
370
    15
100
AcDbLine
 10
75.0467207301
 20
24.3673988821
 30
0.0
 11
75.0467207301
 21
13.1256350519
 31
0.0
  0
LINE
  5
230
330
1F
100
AcDbEntity
  8
0
  6
Continuous
 62
     7
370
    15
100
AcDbLine
 10
131.2554802763
 20
63.8271638395
 30
0.0
 11
75.0467207301
 21
24.3673988821
 31
0.0
  0
LINE
  5
231
330
1F
100
AcDbEntity
  8
0
  6
Continuous
 62
     7
370
    15
100
AcDbLine
 10
131.2554802763
 20
-511.6676620005
 30
0.0
 11
75.0467207301
 21
-472.2078970431
 31
0.0
  0
LINE
  5
232
330
1F
100
AcDbEntity
  8
0
  6
Continuous
 62
     7
370
    15
100
AcDbLine
 10
75.0467207301
 20
-472.2078970431
 30
0.0
 11
75.0467207301
 21
-460.9661332129
 31
0.0
  0
LINE
  5
233
330
1F
100
AcDbEntity
  8
0
  6
Continuous
 62
     7
370
    15
100
AcDbLine
 10
285.9315004218
 20
-42.9263642786
 30
0.0
 11
337.8315296042
 21
-53.2417378186
 31
0.0
  0
LINE
  5
234
330
1F
100
AcDbEntity
  8
0
  6
Continuous
 62
     7
370
    15
100
AcDbLine
 10
337.8315296042
 20
-394.5987603425
 30
0.0
 11
285.9315004218
 21
-404.9141338824
 31
0.0
  0
LINE
  5
235
330
1F
100
AcDbEntity
  8
0
  6
Continuous
 62
     7
370
    15
100
AcDbLine
 10
-381.7145202291
 20
-483.8730624674
 30
0.0
 11
-360.214513911
 21
-483.8730624674
 31
0.0
  0
LINE
  5
236
330
1F
100
AcDbEntity
  8
0
  6
Continuous
 62
     7
370
    15
100
AcDbLine
 10
-381.7145202291
 20
36.0325643064
 30
0.0
 11
-360.214513911
 21
36.0325643064
 31
0.0
  0
LINE
  5
237
330
1F
100
AcDbEntity
  8
0
  6
Continuous
 62
     7
370
    15
100
AcDbLine
 10
-381.7145202291
 20
36.0325643064
 30
0.0
 11
-381.7145202291
 21
-483.8730624674
 31
0.0
  0
LINE
  5
238
330
1F
100
AcDbEntity
  8
0
  6
Continuous
 62
     7
370
    15
100
AcDbLine
 10
-360.214513911
 20
36.0325643064
 30
0.0
 11
-360.214513911
 21
-483.8730624674
 31
0.0
  0
LINE
  5
239
330
1F
100
AcDbEntity
  8
0
  6
Continuous
 62
     7
370
    15
100
AcDbLine
 10
390.7854881155
 20
-483.8730624674
 30
0.0
 11
412.2854795325
 21
-483.8730624674
 31
0.0
  0
LINE
  5
23A
330
1F
100
AcDbEntity
  8
0
  6
Continuous
 62
     7
370
    15
100
AcDbLine
 10
390.7854881155
 20
36.0325643064
 30
0.0
 11
412.2854795325
 21
36.0325643064
 31
0.0
  0
LINE
  5
23B
330
1F
100
AcDbEntity
  8
0
  6
Continuous
 62
     7
370
    15
100
AcDbLine
 10
412.2854795325
 20
36.0325643064
 30
0.0
 11
412.2854795325
 21
-483.8730624674
 31
0.0
  0
LINE
  5
23C
330
1F
100
AcDbEntity
  8
0
  6
Continuous
 62
     7
370
    15
100
AcDbLine
 10
390.7854881155
 20
36.0325643064
 30
0.0
 11
390.7854881155
 21
-483.8730624674
 31
0.0
  0
LINE
  5
23D
330
1F
100
AcDbEntity
  8
0
  6
Continuous
 62
     7
370
    15
100
AcDbLine
 10
369.556578623
 20
-75.3315917014
 30
0.0
 11
369.8913183081
 21
-69.920249915
 31
0.0
  0
LINE
  5
23E
330
1F
100
AcDbEntity
  8
0
  6
Continuous
 62
     7
370
    15
100
AcDbLine
 10
365.2317848074
 20
-69.920249915
 30
0.0
 11
369.8913183081
 21
-69.920249915
 31
0.0
  0
LINE
  5
23F
330
1F
100
AcDbEntity
  8
0
  6
Continuous
 62
     7
370
    15
100
AcDbLine
 10
369.556578623
 20
-372.5089064597
 30
0.0
 11
369.8913183081
 21
-377.920248246
 31
0.0
  0
LINE
  5
240
330
1F
100
AcDbEntity
  8
0
  6
Continuous
 62
     7
370
    15
100
AcDbLine
 10
365.2317848074
 20
-377.920248246
 30
0.0
 11
369.8913183081
 21
-377.920248246
 31
0.0
  0
SPLINE
  5
241
330
1F
100
AcDbEntity
  8
0
  6
Continuous
 62
     7
370
    15
100
AcDbSpline
210
0.0
220
0.0
230
1.0
 70
     8
 71
     3
 72
    16
 73
    12
 74
     0
 42
0.00000001
 43
0.00000001
 12
1.0
 22
0.0
 32
0.0
 13
1.0
 23
0.0
 33
0.0
 40
0.0
 40
0.0
 40
0.0
 40
0.0
 40
0.2499999999999999
 40
0.2499999999999999
 40
0.4999999999999998
 40
0.4999999999999998
 40
0.6250000000000001
 40
0.6250000000000001
 40
0.7500000000000006
 40
0.7500000000000006
 40
1.0
 40
1.0
 40
1.0
 40
1.0
 10
-302.7145137918109
 20
-16.45097424686068
 30
0.0
 10
-302.7145137918109
 20
-15.35154535353328
 30
0.0
 10
-302.6392393751377
 20
-14.26487698554005
 30
0.0
 10
-302.3438878029095
 20
-12.1160872218137
 30
0.0
 10
-302.1237963794187
 20
-11.05396824478208
 30
0.0
 10
-301.6829202805577
 20
-9.47956225749852
 30
0.0
 10
-301.5171207797975
 20
-8.957011484784616
 30
0.0
 10
-301.1486472148578
 20
-7.922198382481427
 30
0.0
 10
-300.9475442050474
 20
-7.4141472836253
 30
0.0
 10
-300.2948339123311
 20
-5.917396153093085
 30
0.0
 10
-299.7940580405904
 20
-4.955969226302287
 30
0.0
 10
-299.2278944657929
 20
-4.030811912407117
 30
0.0
  0
SPLINE
  5
242
330
1F
100
AcDbEntity
  8
0
  6
Continuous
 62
     7
370
    15
100
AcDbSpline
210
0.0
220
0.0
230
1.0
 70
     8
 71
     3
 72
    20
 73
    16
 74
     0
 42
0.00000001
 43
0.00000001
 12
1.0
 22
0.0
 32
0.0
 13
1.0
 23
0.0
 33
0.0
 40
0.0
 40
0.0
 40
0.0
 40
0.0
 40
0.1249999999999964
 40
0.1249999999999964
 40
0.187499999999997
 40
0.187499999999997
 40
0.2499999999999976
 40
0.2499999999999976
 40
0.4999999999999984
 40
0.4999999999999984
 40
0.6249999999999992
 40
0.6249999999999992
 40
0.7500000000000001
 40
0.7500000000000001
 40
1.0
 40
1.0
 40
1.0
 40
1.0
 10
-299.2278944657929
 20
-4.030811912407117
 30
0.0
 10
-298.8141111953136
 20
-3.354656405249207
 30
0.0
 10
-298.3653291237657
 20
-2.697914226702319
 30
0.0
 10
-297.637819463885
 20
-1.742940658477937
 30
0.0
 10
-297.385593371233
 20
-1.428950983635408
 30
0.0
 10
-296.8683223977226
 20
-0.818008105025636
 30
0.0
 10
-296.6028053098581
 20
-0.5203548335909192
 30
0.0
 10
-295.2413506340447
 20
0.9294327782572165
 30
0.0
 10
-294.0448700041066
 20
1.967340448458449
 30
0.0
 10
-292.0865388688917
 20
3.338324871847292
 30
0.0
 10
-291.4019970217403
 20
3.766181166566684
 30
0.0
 10
-290.0052792367207
 20
4.540113740461149
 30
0.0
 10
-289.2916721453776
 20
4.887840825697015
 30
0.0
 10
-287.1060917555213
 20
5.815840479069578
 30
0.0
 10
-285.5898588946068
 20
6.282216978844041
 30
0.0
 10
-284.0112170885141
 20
6.587992399421982
 30
0.0
  0
SPLINE
  5
243
330
1F
100
AcDbEntity
  8
0
  6
Continuous
 62
     7
370
    15
100
AcDbSpline
210
0.0
220
0.0
230
1.0
 70
     8
 71
     3
 72
    20
 73
    16
 74
     0
 42
0.00000001
 43
0.00000001
 12
1.0
 22
0.0
 32
0.0
 13
1.0
 23
0.0
 33
0.0
 40
0.0
 40
0.0
 40
0.0
 40
0.0
 40
0.1249999999999964
 40
0.1249999999999964
 40
0.187499999999997
 40
0.187499999999997
 40
0.2499999999999976
 40
0.2499999999999976
 40
0.4999999999999984
 40
0.4999999999999984
 40
0.6249999999999992
 40
0.6249999999999992
 40
0.7500000000000001
 40
0.7500000000000001
 40
1.0
 40
1.0
 40
1.0
 40
1.0
 10
-299.2278944657929
 20
-443.8096862486132
 30
0.0
 10
-298.8141111953136
 20
-444.4858417557711
 30
0.0
 10
-298.3653291237657
 20
-445.1425839343179
 30
0.0
 10
-297.637819463885
 20
-446.0975575025423
 30
0.0
 10
-297.385593371233
 20
-446.4115471773849
 30
0.0
 10
-296.8683223977226
 20
-447.0224900559946
 30
0.0
 10
-296.6028053098581
 20
-447.3201433274294
 30
0.0
 10
-295.2413506340447
 20
-448.7699309392775
 30
0.0
 10
-294.0448700041066
 20
-449.8078386094787
 30
0.0
 10
-292.0865388688917
 20
-451.1788230328676
 30
0.0
 10
-291.4019970217403
 20
-451.606679327587
 30
0.0
 10
-290.0052792367207
 20
-452.3806119014814
 30
0.0
 10
-289.2916721453776
 20
-452.7283389867173
 30
0.0
 10
-287.1060917555213
 20
-453.6563386400899
 30
0.0
 10
-285.5898588946068
 20
-454.1227151398643
 30
0.0
 10
-284.0112170885141
 20
-454.4284905604422
 30
0.0
  0
SPLINE
  5
244
330
1F
100
AcDbEntity
  8
0
  6
Continuous
 62
     7
370
    15
100
AcDbSpline
210
0.0
220
0.0
230
1.0
 70
     8
 71
     3
 72
    16
 73
    12
 74
     0
 42
0.00000001
 43
0.00000001
 12
1.0
 22
0.0
 32
0.0
 13
1.0
 23
0.0
 33
0.0
 40
0.0
 40
0.0
 40
0.0
 40
0.0
 40
0.2499999999999999
 40
0.2499999999999999
 40
0.4999999999999998
 40
0.4999999999999998
 40
0.6250000000000001
 40
0.6250000000000001
 40
0.7500000000000006
 40
0.7500000000000006
 40
1.0
 40
1.0
 40
1.0
 40
1.0
 10
-302.7145137918109
 20
-431.3895239141596
 30
0.0
 10
-302.7145137918109
 20
-432.488952807487
 30
0.0
 10
-302.6392393751377
 20
-433.5756211754802
 30
0.0
 10
-302.3438878029095
 20
-435.7244109392066
 30
0.0
 10
-302.1237963794187
 20
-436.7865299162382
 30
0.0
 10
-301.6829202805577
 20
-438.3609359035217
 30
0.0
 10
-301.5171207797975
 20
-438.8834866762357
 30
0.0
 10
-301.1486472148578
 20
-439.9182997785389
 30
0.0
 10
-300.9475442050474
 20
-440.426350877395
 30
0.0
 10
-300.2948339123311
 20
-441.9231020079272
 30
0.0
 10
-299.7940580405904
 20
-442.884528934718
 30
0.0
 10
-299.2278944657929
 20
-443.8096862486132
 30
0.0
  0
LINE
  5
245
330
1F
100
AcDbEntity
  8
0
  6
Continuous
 62
     7
370
    15
100
AcDbLine
 10
-302.7145165932
 20
-427.0434013365
 30
0.0
 11
-302.7145165932
 21
-431.3895187138
 31
0.0
  0
LINE
  5
246
330
1F
100
AcDbEntity
  8
0
  6
Continuous
 62
     7
370
    15
100
AcDbLine
 10
-302.7145165932
 20
-360.971280074
 30
0.0
 11
-302.7145165932
 21
-86.869218087
 31
0.0
  0
LINE
  5
247
330
1F
100
AcDbEntity
  8
0
  6
Continuous
 62
     7
370
    15
100
AcDbLine
 10
-302.7145165932
 20
-20.7970968245
 30
0.0
 11
-302.7145165932
 21
-16.4509794472
 31
0.0
  0
LINE
  5
248
330
1F
100
AcDbEntity
  8
0
  6
Continuous
 62
     7
370
    15
100
AcDbLine
 10
-384.7145114076
 20
-10.4202559946
 30
0.0
 11
-384.7145114076
 21
-437.4202421664
 31
0.0
  0
LINE
  5
249
330
1F
100
AcDbEntity
  8
0
  6
Continuous
 62
     7
370
    15
100
AcDbLine
 10
415.2855005133
 20
-10.4202559946
 30
0.0
 11
415.2855005133
 21
-437.4202421664
 31
0.0
  0
SPLINE
  5
24A
330
1F
100
AcDbEntity
  8
0
  6
Continuous
 62
     7
370
    15
100
AcDbSpline
210
0.0
220
0.0
230
1.0
 70
     8
 71
     3
 72
    10
 73
     6
 74
     0
 42
0.00000001
 43
0.00000001
 12
1.0
 22
0.0
 32
0.0
 13
1.0
 23
0.0
 33
0.0
 40
0.0
 40
0.0
 40
0.0
 40
0.0
 40
0.3189651661708743
 40
0.9868685136741552
 40
1.0
 40
1.0
 40
1.0
 40
1.0
 10
-205.0205815565701
 20
15.07375326171398
 30
0.0
 10
-203.9246052182228
 20
15.07512489336782
 30
0.0
 10
-200.5336877928779
 20
15.07936867994719
 30
0.0
 10
-197.0989861719491
 20
15.07974521933544
 30
0.0
 10
-194.7596206567586
 20
15.07974356049899
 30
0.0
 10
-194.7145137918114
 20
15.07974352851391
 30
0.0
  0
SPLINE
  5
24B
330
1F
100
AcDbEntity
  8
0
  6
Continuous
 62
     7
370
    15
100
AcDbSpline
210
0.0
220
0.0
230
1.0
 70
     8
 71
     3
 72
    10
 73
     6
 74
     0
 42
0.00000001
 43
0.00000001
 12
1.0
 22
0.0
 32
0.0
 13
1.0
 23
0.0
 33
0.0
 40
0.0
 40
0.0
 40
0.0
 40
0.0
 40
0.2985927241873459
 40
0.9864756990484677
 40
0.9999999999999999
 40
0.9999999999999999
 40
0.9999999999999999
 40
0.9999999999999999
 10
-204.7211939451213
 20
-462.9145941494417
 30
0.0
 10
-203.7250200717346
 20
-462.9158318796782
 30
0.0
 10
-200.433910682524
 20
-462.9199210308912
 30
0.0
 10
-197.098986245687
 20
-462.9202431793909
 30
0.0
 10
-194.7596206581535
 20
-462.9202417177177
 30
0.0
 10
-194.7145137918114
 20
-462.9202416895342
 30
0.0
  0
SPLINE
  5
24C
330
1F
100
AcDbEntity
  8
0
  6
Continuous
 62
     7
370
    15
100
AcDbSpline
210
0.0
220
0.0
230
1.0
 70
     8
 71
     3
 72
     9
 73
     5
 74
     0
 42
0.00000001
 43
0.00000001
 12
1.0
 22
0.0
 32
0.0
 13
1.0
 23
0.0
 33
0.0
 40
0.0
 40
0.0
 40
0.0
 40
0.0
 40
0.5246481442187937
 40
1.0
 40
1.0
 40
1.0
 40
1.0
 10
-302.7145165932293
 20
-8.01677319988725
 30
0.0
 10
-302.7021549845354
 20
-7.382850994149259
 30
0.0
 10
-302.678593272119
 20
-6.174570334580992
 30
0.0
 10
-302.4968048212999
 20
-4.951856947381095
 30
0.0
 10
-302.4103913438435
 20
-4.370637869687083
 30
0.0
  0
SPLINE
  5
24D
330
1F
100
AcDbEntity
  8
0
  6
Continuous
 62
     7
370
    15
100
AcDbSpline
210
0.0
220
0.0
230
1.0
 70
    24
 71
     3
 72
    10
 73
     6
 74
     0
 42
0.00000001
 43
0.00000001
 12
1.0
 22
0.0
 32
0.0
 13
1.0
 23
0.0
 33
0.0
 40
0.0
 40
0.0
 40
0.0
 40
0.0
 40
0.5
 40
0.5
 40
1.0
 40
1.0
 40
1.0
 40
1.0
 10
-302.7145137918109
 20
-8.016770658030692
 30
0.0
 10
-302.7145137918109
 20
-9.526250625185446
 30
0.0
 10
-302.7145137918109
 20
-10.9613576987187
 30
0.0
 10
-302.7145137918109
 20
-13.74640748648306
 30
0.0
 10
-302.7145137918109
 20
-15.09769452613732
 30
0.0
 10
-302.7145137918109
 20
-16.45097424686062
 30
0.0
  0
SPLINE
  5
24E
330
1F
100
AcDbEntity
  8
0
  6
Continuous
 62
     7
370
    15
100
AcDbSpline
210
0.0
220
0.0
230
1.0
 70
    24
 71
     3
 72
    10
 73
     6
 74
     0
 42
0.00000001
 43
0.00000001
 12
1.0
 22
0.0
 32
0.0
 13
1.0
 23
0.0
 33
0.0
 40
0.0
 40
0.0
 40
0.0
 40
0.0
 40
0.5
 40
0.5
 40
1.0
 40
1.0
 40
1.0
 40
1.0
 10
-302.7145137918109
 20
-439.8237275029896
 30
0.0
 10
-302.7145137918109
 20
-438.3142475358348
 30
0.0
 10
-302.7145137918109
 20
-436.8791404623016
 30
0.0
 10
-302.7145137918109
 20
-434.0940906745372
 30
0.0
 10
-302.7145137918109
 20
-432.7428036348829
 30
0.0
 10
-302.7145137918109
 20
-431.3895239141596
 30
0.0
  0
SPLINE
  5
24F
330
1F
100
AcDbEntity
  8
0
  6
Continuous
 62
     7
370
    15
100
AcDbSpline
210
0.0
220
0.0
230
1.0
 70
     8
 71
     3
 72
     9
 73
     5
 74
     0
 42
0.00000001
 43
0.00000001
 12
1.0
 22
0.0
 32
0.0
 13
1.0
 23
0.0
 33
0.0
 40
0.0
 40
0.0
 40
0.0
 40
0.0
 40
0.5212115622847913
 40
0.9999999999999999
 40
0.9999999999999999
 40
0.9999999999999999
 40
0.9999999999999999
 10
-302.7145165932293
 20
-439.823724961133
 30
0.0
 10
-302.7017046056329
 20
-440.4605909602248
 30
0.0
 10
-302.67712344028
 20
-441.6824863385621
 30
0.0
 10
-302.4931641240698
 20
-442.9191335354192
 30
0.0
 10
-302.4050865304584
 20
-443.5112259148073
 30
0.0
  0
LINE
  5
250
330
1F
100
AcDbEntity
  8
0
  6
Continuous
 62
     8
370
     0
100
AcDbLine
 10
194.9013199675
 20
-132.463187611
 30
0.0
 11
202.6794876921
 21
-132.463187611
 31
0.0
  0
LINE
  5
251
330
1F
100
AcDbEntity
  8
0
  6
Continuous
 62
     8
370
     0
100
AcDbLine
 10
146.2056066859
 20
-53.2417378186
 30
0.0
 11
153.9837744105
 21
-53.2417378186
 31
0.0
  0
LINE
  5
252
330
1F
100
AcDbEntity
  8
0
  6
Continuous
 62
     8
370
     0
100
AcDbLine
 10
194.9013199675
 20
-315.3773105501
 30
0.0
 11
202.6794876921
 21
-315.3773105501
 31
0.0
  0
LINE
  5
253
330
1F
100
AcDbEntity
  8
0
  6
Continuous
 62
     8
370
     0
100
AcDbLine
 10
146.2056066859
 20
-394.5987603425
 30
0.0
 11
153.9837744105
 21
-394.5987603425
 31
0.0
  0
LWPOLYLINE
  5
254
330
1F
100
AcDbEntity
  8
0
  6
Continuous
 62
     8
370
     0
100
AcDbPolyline
 90
       47
 70
   128
 43
0.0
 10
97.855510937
 20
-460.9809151648
 10
95.1433803904
 20
-460.4558131455
 10
92.4375977385
 20
-459.8686775921
 10
89.7389080393
 20
-459.2196426152
 10
87.0479967463
 20
-458.5088572262
 10
84.3655791151
 20
-457.7365449427
 10
81.6923704016
 20
-456.9028994797
 10
79.0290262568
 20
-456.0081145524
 10
76.3763215411
 20
-455.0524583815
 10
73.7348821032
 20
-454.0361544846
 10
71.1054231989
 20
-452.9594859837
 10
68.488660084
 20
-451.8227360009
 10
65.8852484095
 20
-450.6261876582
 10
63.2959034312
 20
-449.3701687811
 10
60.7212509978
 20
-448.0550071953
 10
58.162006365
 20
-446.6810307263
 10
55.6188549864
 20
-445.2486268042
 10
53.0924227106
 20
-443.758153057
 10
50.5833949911
 20
-442.2100118159
 10
48.092427479
 20
-440.6046054123
 10
45.6201758253
 20
-438.9423510788
 10
43.1672807801
 20
-437.2236809491
 10
40.7343830931
 20
-435.449056959
 10
38.3221384156
 20
-433.6189410447
 10
35.9311725962
 20
-431.7338100432
 10
33.5621114838
 20
-429.7941705941
 10
31.215566026
 20
-427.8004995345
 10
28.8921620715
 20
-425.7533631085
 10
26.5925105679
 20
-423.6532679556
 10
24.3172224629
 20
-421.5007654189
 10
22.0668789017
 20
-419.2964366435
 10
19.8420610297
 20
-417.0408627747
 10
17.6433797943
 20
-414.7346100567
 10
15.4714014399
 20
-412.3783043383
 10
13.3266922104
 20
-409.972556567
 10
11.2098183501
 20
-407.5179925917
 10
9.1213312018
 20
-405.0152680634
 10
7.0617821085
 20
-402.4650386332
 10
5.0317075121
 20
-399.8679599522
 10
3.0316438544
 20
-397.224732375
 10
1.0621126759
 20
-394.536041355
 10
-0.8763644827
 20
-391.8025872467
 10
-2.7832809818
 20
-389.025085306
 10
-4.6581450832
 20
-386.2042656897
 10
-6.5004501474
 20
-383.3408734559
 10
-8.3097193372
 20
-380.4356685637
 10
-9.8294291628
 20
-377.920248246
  0
LWPOLYLINE
  5
255
330
1F
100
AcDbEntity
  8
0
  6
Continuous
 62
     8
370
     0
100
AcDbPolyline
 90
       47
 70
   128
 43
0.0
 10
97.855510937
 20
13.1404170038
 10
95.1433803904
 20
12.6153149845
 10
92.4375977385
 20
12.0281794311
 10
89.7389080393
 20
11.3791444542
 10
87.0479967463
 20
10.6683590652
 10
84.3655791151
 20
9.8960467817
 10
81.6923704016
 20
9.0624013187
 10
79.0290262568
 20
8.1676163913
 10
76.3763215411
 20
7.2119602205
 10
73.7348821032
 20
6.1956563236
 10
71.1054231989
 20
5.1189878227
 10
68.488660084
 20
3.9822378398
 10
65.8852484095
 20
2.7856894971
 10
63.2959034312
 20
1.5296706201
 10
60.7212509978
 20
0.2145090343
 10
58.162006365
 20
-1.1594674347
 10
55.6188549864
 20
-2.5918713568
 10
53.0924227106
 20
-4.0823451041
 10
50.5833949911
 20
-5.6304863451
 10
48.092427479
 20
-7.2358927487
 10
45.6201758253
 20
-8.8981470822
 10
43.1672807801
 20
-10.616817212
 10
40.7343830931
 20
-12.391441202
 10
38.3221384156
 20
-14.2215571164
 10
35.9311725962
 20
-16.1066881178
 10
33.5621114838
 20
-18.046327567
 10
31.215566026
 20
-20.0399986266
 10
28.8921620715
 20
-22.0871350525
 10
26.5925105679
 20
-24.1872302054
 10
24.3172224629
 20
-26.3397327422
 10
22.0668789017
 20
-28.5440615176
 10
19.8420610297
 20
-30.7996353863
 10
17.6433797943
 20
-33.1058881043
 10
15.4714014399
 20
-35.4621938227
 10
13.3266922104
 20
-37.867941594
 10
11.2098183501
 20
-40.3225055693
 10
9.1213312018
 20
-42.8252300976
 10
7.0617821085
 20
-45.3754595278
 10
5.0317075121
 20
-47.9725382088
 10
3.0316438544
 20
-50.615765786
 10
1.0621126759
 20
-53.304456806
 10
-0.8763644827
 20
-56.0379109143
 10
-2.7832809818
 20
-58.815412855
 10
-4.6581450832
 20
-61.6362324713
 10
-6.5004501474
 20
-64.4996247052
 10
-8.3097193372
 20
-67.4048295973
 10
-9.8294291628
 20
-69.920249915
  0
LWPOLYLINE
  5
256
330
1F
100
AcDbEntity
  8
0
  6
Continuous
 62
     8
370
     0
100
AcDbPolyline
 90
       47
 70
   128
 43
0.0
 10
-10.1789358986
 20
-69.920249915
 10
-8.7749931944
 20
-67.5942084549
 10
-6.9654110801
 20
-64.6827301739
 10
-5.1226738823
 20
-61.8131241559
 10
-3.2472584379
 20
-58.9861652611
 10
-1.3396862877
 20
-56.2025985478
 10
0.5995657313
 20
-53.4631541727
 10
2.5699760783
 20
-50.7685473917
 10
4.5710232127
 20
-48.1194785593
 10
6.602200495
 20
-45.5166629313
 10
8.6629565823
 20
-42.960785961
 10
10.7527401316
 20
-40.4525032996
 10
12.8710296023
 20
-37.9924705981
 10
15.017243849
 20
-35.5813584088
 10
17.1908315289
 20
-33.2197925805
 10
19.3912114966
 20
-30.9083840607
 10
21.617817508
 20
-28.6477586983
 10
23.8700535166
 20
-26.4384976386
 10
26.1473234761
 20
-24.2811820267
 10
28.4490313399
 20
-22.1763781069
 10
30.7745810616
 20
-20.1246521233
 10
33.1233616936
 20
-18.1265256165
 10
35.494732486
 20
-16.1825350283
 10
37.8880973923
 20
-14.2932018994
 10
40.3028156626
 20
-12.4590030669
 10
42.738246547
 20
-10.6804302691
 10
45.1937492955
 20
-8.9579603432
 10
47.6686831581
 20
-7.2920254229
 10
50.1624073851
 20
-5.6830874442
 10
52.6742514241
 20
-4.1315487383
 10
55.2035596239
 20
-2.6378265379
 10
57.7496614325
 20
-1.2023231743
 10
60.3118862975
 20
0.1746037246
 10
62.8895785677
 20
1.4925667287
 10
65.4820229876
 20
2.7512529136
 10
68.0885937083
 20
3.9503046514
 10
70.7085456717
 20
5.0894090177
 10
73.3412232268
 20
6.1682828905
 10
75.9859409201
 20
7.1866133453
 10
78.6419536936
 20
8.1441619636
 10
81.3086356985
 20
9.0406605245
 10
83.9852418768
 20
9.8758855106
 10
86.6710569727
 20
10.6495985033
 10
89.3653955328
 20
11.3616057874
 10
92.0675721037
 20
12.0117285492
 10
94.776811825
 20
12.5997879745
 10
97.4924590456
 20
13.1256350519
  0
LWPOLYLINE
  5
257
330
1F
100
AcDbEntity
  8
0
  6
Continuous
 62
     8
370
     0
100
AcDbPolyline
 90
       47
 70
   128
 43
0.0
 10
-10.1789358986
 20
-377.920248246
 10
-8.7749931944
 20
-380.2462897061
 10
-6.9654110801
 20
-383.1577679871
 10
-5.1226738823
 20
-386.0273740052
 10
-3.2472584379
 20
-388.8543328999
 10
-1.3396862877
 20
-391.6378996132
 10
0.5995657313
 20
-394.3773439883
 10
2.5699760783
 20
-397.0719507693
 10
4.5710232127
 20
-399.7210196017
 10
6.602200495
 20
-402.3238352297
 10
8.6629565823
 20
-404.8797122
 10
10.7527401316
 20
-407.3879948615
 10
12.8710296023
 20
-409.8480275629
 10
15.017243849
 20
-412.2591397522
 10
17.1908315289
 20
-414.6207055806
 10
19.3912114966
 20
-416.9321141003
 10
21.617817508
 20
-419.1927394627
 10
23.8700535166
 20
-421.4020005225
 10
26.1473234761
 20
-423.5593161343
 10
28.4490313399
 20
-425.6641200541
 10
30.7745810616
 20
-427.7158460377
 10
33.1233616936
 20
-429.7139725445
 10
35.494732486
 20
-431.6579631327
 10
37.8880973923
 20
-433.5472962616
 10
40.3028156626
 20
-435.3814950942
 10
42.738246547
 20
-437.1600678919
 10
45.1937492955
 20
-438.8825378178
 10
47.6686831581
 20
-440.5484727381
 10
50.1624073851
 20
-442.1574107169
 10
52.6742514241
 20
-443.7089494227
 10
55.2035596239
 20
-445.2026716231
 10
57.7496614325
 20
-446.6381749867
 10
60.3118862975
 20
-448.0151018856
 10
62.8895785677
 20
-449.3330648898
 10
65.4820229876
 20
-450.5917510746
 10
68.0885937083
 20
-451.7908028124
 10
70.7085456717
 20
-452.9299071787
 10
73.3412232268
 20
-454.0087810515
 10
75.9859409201
 20
-455.0271115063
 10
78.6419536936
 20
-455.9846601246
 10
81.3086356985
 20
-456.8811586855
 10
83.9852418768
 20
-457.7163836716
 10
86.6710569727
 20
-458.4900966643
 10
89.3653955328
 20
-459.2021039484
 10
92.0675721037
 20
-459.8522267102
 10
94.776811825
 20
-460.4402861355
 10
97.4924590456
 20
-460.9661332129
  0
ELLIPSE
  5
258
330
1F
100
AcDbEntity
  8
0
  6
Continuous
 62
     8
370
     0
100
AcDbEllipse
 10
-279.7145137918
 20
-223.9202490805
 30
0.0
 11
0.0
 21
239.000000000001
 31
0.0
210
0.0
220
0.0
230
1.0
 40
0.0680479329
 41
0.2673678669562645
 42
2.874224786633528
  0
LINE
  5
259
330
1F
100
AcDbEntity
  8
0
  6
Continuous
 62
     8
370
     0
100
AcDbLine
 10
337.8315296042
 20
-53.2417378186
 30
0.0
 11
330.0533618796
 21
-53.2417378186
 31
0.0
  0
LINE
  5
25A
330
1F
100
AcDbEntity
  8
0
  6
Continuous
 62
     8
370
     0
100
AcDbLine
 10
386.5272726881
 20
-132.463187611
 30
0.0
 11
378.7491049635
 21
-132.463187611
 31
0.0
  0
LINE
  5
25B
330
1F
100
AcDbEntity
  8
0
  6
Continuous
 62
     8
370
     0
100
AcDbLine
 10
386.5272726881
 20
-315.3773105501
 30
0.0
 11
378.7491049635
 21
-315.3773105501
 31
0.0
  0
LINE
  5
25C
330
1F
100
AcDbEntity
  8
0
  6
Continuous
 62
     8
370
     0
100
AcDbLine
 10
337.8315296042
 20
-394.5987603425
 30
0.0
 11
330.0533618796
 21
-394.5987603425
 31
0.0
  0
SPLINE
  5
25D
330
1F
100
AcDbEntity
  8
0
  6
Continuous
 62
     8
370
     0
100
AcDbSpline
210
0.0
220
0.0
230
1.0
 70
     8
 71
     3
 72
    30
 73
    26
 74
     0
 42
0.00000001
 43
0.00000001
 12
1.0
 22
0.0
 32
0.0
 13
1.0
 23
0.0
 33
0.0
 40
0.0
 40
0.0
 40
0.0
 40
0.0
 40
0.1249999999999996
 40
0.1249999999999996
 40
0.1562499999999995
 40
0.1562499999999995
 40
0.1874999999999995
 40
0.1874999999999995
 40
0.2499999999999994
 40
0.2499999999999994
 40
0.3749999999999994
 40
0.3749999999999994
 40
0.4999999999999994
 40
0.4999999999999994
 40
0.5624999999999996
 40
0.5624999999999996
 40
0.5937499999999998
 40
0.5937499999999998
 40
0.625
 40
0.625
 40
0.75
 40
0.75
 40
0.875
 40
0.875
 40
1.0
 40
1.0
 40
1.0
 40
1.0
 10
-302.7145137918109
 20
-427.0434034453094
 30
0.0
 10
-302.7145137918109
 20
-426.1840969490357
 30
0.0
 10
-302.6819283983156
 20
-425.0748347022658
 30
0.0
 10
-302.6305060200215
 20
-423.374778059468
 30
0.0
 10
-302.619636073234
 20
-423.01893590878
 30
0.0
 10
-302.5973618666774
 20
-422.2776162568115
 30
0.0
 10
-302.5859518602311
 20
-421.891952500654
 30
0.0
 10
-302.5516644935464
 20
-420.6902037793039
 30
0.0
 10
-302.5287618650058
 20
-419.8293815715463
 30
0.0
 10
-302.4647849328217
 20
-417.0692379145867
 30
0.0
 10
-302.4288748425341
 20
-414.992555394868
 30
0.0
 10
-302.385001256125
 20
-410.3652316438321
 30
0.0
 10
-302.3769590538524
 20
-407.8146127010884
 30
0.0
 10
-302.3868259894994
 20
-403.6248426572876
 30
0.0
 10
-302.3936756442299
 20
-402.1675293645224
 30
0.0
 10
-302.4086457549685
 20
-399.8886216156555
 30
0.0
 10
-302.4144103544386
 20
-399.1141125179271
 30
0.0
 10
-302.4272687597283
 20
-397.5400815383261
 30
0.0
 10
-302.4343665839453
 20
-396.7398999367109
 30
0.0
 10
-302.4726503447952
 20
-392.6734493367817
 30
0.0
 10
-302.5124063866587
 20
-389.2109207642048
 30
0.0
 10
-302.5926948043799
 20
-381.8685651169066
 30
0.0
 10
-302.6331283293272
 20
-377.9887550775197
 30
0.0
 10
-302.6940803749552
 20
-369.8037140371926
 30
0.0
 10
-302.714513791811
 20
-365.4985438383604
 30
0.0
 10
-302.7145137918109
 20
-360.9712766610994
 30
0.0
  0
SPLINE
  5
25E
330
1F
100
AcDbEntity
  8
0
  6
Continuous
 62
     8
370
     0
100
AcDbSpline
210
0.0
220
0.0
230
1.0
 70
     8
 71
     3
 72
    30
 73
    26
 74
     0
 42
0.00000001
 43
0.00000001
 12
1.0
 22
0.0
 32
0.0
 13
1.0
 23
0.0
 33
0.0
 40
0.0
 40
0.0
 40
0.0
 40
0.0
 40
0.1249999999999996
 40
0.1249999999999996
 40
0.1562499999999995
 40
0.1562499999999995
 40
0.1874999999999995
 40
0.1874999999999995
 40
0.2499999999999994
 40
0.2499999999999994
 40
0.3749999999999994
 40
0.3749999999999994
 40
0.4999999999999994
 40
0.4999999999999994
 40
0.5624999999999996
 40
0.5624999999999996
 40
0.5937499999999998
 40
0.5937499999999998
 40
0.625
 40
0.625
 40
0.75
 40
0.75
 40
0.875
 40
0.875
 40
1.0
 40
1.0
 40
1.0
 40
1.0
 10
-302.7145137918109
 20
-20.79709471571089
 30
0.0
 10
-302.7145137918109
 20
-21.65640121198459
 30
0.0
 10
-302.6819283983156
 20
-22.76566345875447
 30
0.0
 10
-302.6305060200215
 20
-24.46572010155226
 30
0.0
 10
-302.619636073234
 20
-24.82156225224036
 30
0.0
 10
-302.5973618666774
 20
-25.5628819042088
 30
0.0
 10
-302.5859518602311
 20
-25.94854566036623
 30
0.0
 10
-302.5516644935464
 20
-27.1502943817164
 30
0.0
 10
-302.5287618650058
 20
-28.01111658947403
 30
0.0
 10
-302.4647849328217
 20
-30.77126024643362
 30
0.0
 10
-302.4288748425341
 20
-32.84794276615233
 30
0.0
 10
-302.385001256125
 20
-37.47526651718813
 30
0.0
 10
-302.3769590538524
 20
-40.02588545993188
 30
0.0
 10
-302.3868259894994
 20
-44.21565550373271
 30
0.0
 10
-302.3936756442299
 20
-45.67296879649785
 30
0.0
 10
-302.4086457549685
 20
-47.95187654536481
 30
0.0
 10
-302.4144103544386
 20
-48.7263856430932
 30
0.0
 10
-302.4272687597283
 20
-50.30041662269419
 30
0.0
 10
-302.4343665839453
 20
-51.10059822430934
 30
0.0
 10
-302.4726503447952
 20
-55.16704882423853
 30
0.0
 10
-302.5124063866587
 20
-58.62957739681543
 30
0.0
 10
-302.5926948043799
 20
-65.97193304411373
 30
0.0
 10
-302.6331283293272
 20
-69.85174308350054
 30
0.0
 10
-302.6940803749552
 20
-78.0367841238277
 30
0.0
 10
-302.714513791811
 20
-82.34195432265986
 30
0.0
 10
-302.7145137918109
 20
-86.86922149992088
 30
0.0
  0
LINE
  5
25F
330
1F
100
AcDbEntity
  8
0
  6
Continuous
 62
     8
370
     0
100
AcDbLine
 10
-351.2145105732
 20
-28.9202562331
 30
0.0
 11
-351.2145105732
 21
-418.920241928
 31
0.0
  0
LWPOLYLINE
  5
260
330
1F
100
AcDbEntity
  8
0
  6
Continuous
 62
     8
370
     0
100
AcDbPolyline
 90
       19
 70
   128
 43
0.0
 10
-311.7145124805
 20
-92.9155877589
 10
-310.9301153553
 20
-92.892580366
 10
-310.1516786945
 20
-92.8237370013
 10
-309.3851406109
 20
-92.7095643042
 10
-308.6363349092
 20
-92.5509563445
 10
-307.9109463823
 20
-92.3490903138
 10
-307.2145108116
 20
-92.1055308341
 10
-306.5523255599
 20
-91.8221107481
 10
-305.9294272196
 20
-91.5010056256
 10
-305.3505543602
 20
-91.1446443556
 10
-304.8201102746
 20
-90.7557538508
 10
-304.3421480787
 20
-90.3372696398
 10
-303.9202887547
 20
-89.8924103735
 10
-303.5577435029
 20
-89.4245288132
 10
-303.2572764886
 20
-88.9372012375
 10
-303.0211824906
 20
-88.4341380356
 10
-302.8512421978
 20
-87.9191688059
 10
-302.7487594617
 20
-87.3961976527
 10
-302.7145165932
 20
-86.869218087
  0
LWPOLYLINE
  5
261
330
1F
100
AcDbEntity
  8
0
  6
Continuous
 62
     8
370
     0
100
AcDbPolyline
 90
       19
 70
   128
 43
0.0
 10
-311.7145124805
 20
-354.9249104022
 10
-310.9301153553
 20
-354.947917795
 10
-310.1516786945
 20
-355.0167611597
 10
-309.3851406109
 20
-355.1309338568
 10
-308.6363349092
 20
-355.2895418166
 10
-307.9109463823
 20
-355.4914078473
 10
-307.2145108116
 20
-355.734967327
 10
-306.5523255599
 20
-356.0183874129
 10
-305.9294272196
 20
-356.3394925354
 10
-305.3505543602
 20
-356.6958538054
 10
-304.8201102746
 20
-357.0847443102
 10
-304.3421480787
 20
-357.5032285212
 10
-303.9202887547
 20
-357.9480877875
 10
-303.5577435029
 20
-358.4159693478
 10
-303.2572764886
 20
-358.9032969235
 10
-303.0211824906
 20
-359.4063601254
 10
-302.8512421978
 20
-359.9213293551
 10
-302.7487594617
 20
-360.4443005084
 10
-302.7145165932
 20
-360.971280074
  0
LINE
  5
262
330
1F
100
AcDbEntity
  8
0
  6
Continuous
 62
     8
370
     0
100
AcDbLine
 10
-311.7145124805
 20
-354.9249104022
 30
0.0
 11
-311.7145124805
 21
-92.9155877589
 31
0.0
  0
LINE
  5
263
330
1F
100
AcDbEntity
  8
0
  6
Continuous
 62
     8
370
     0
100
AcDbLine
 10
381.7854847777
 20
-414.9202487229
 30
0.0
 11
381.7854847777
 21
-347.4393120764
 31
0.0
  0
LINE
  5
264
330
1F
100
AcDbEntity
  8
0
  6
Continuous
 62
     8
370
     0
100
AcDbLine
 10
381.7854847777
 20
-100.4011860846
 30
0.0
 11
381.7854847777
 21
-32.9202494381
 31
0.0
  0
SPLINE
  5
265
330
1F
100
AcDbEntity
  8
0
  6
Continuous
 62
     8
370
     0
100
AcDbSpline
210
0.0
220
0.0
230
1.0
 70
     8
 71
     3
 72
    30
 73
    26
 74
     0
 42
0.00000001
 43
0.00000001
 12
1.0
 22
0.0
 32
0.0
 13
1.0
 23
0.0
 33
0.0
 40
0.0
 40
0.0
 40
0.0
 40
0.0
 40
0.1250000000000002
 40
0.1250000000000002
 40
0.2500000000000005
 40
0.2500000000000005
 40
0.3750000000000005
 40
0.3750000000000005
 40
0.4062500000000007
 40
0.4062500000000007
 40
0.4375000000000008
 40
0.4375000000000008
 40
0.5000000000000007
 40
0.5000000000000007
 40
0.6250000000000006
 40
0.6250000000000006
 40
0.7500000000000004
 40
0.7500000000000004
 40
0.8125000000000006
 40
0.8125000000000006
 40
0.8437500000000004
 40
0.8437500000000004
 40
0.8750000000000004
 40
0.8750000000000004
 40
1.0
 40
1.0
 40
1.0
 40
1.0
 10
-311.7145137918109
 20
-92.91559036377048
 30
0.0
 10
-311.7145137918109
 20
-88.41991777232755
 30
0.0
 10
-311.6859952958549
 20
-84.14802233665108
 30
0.0
 10
-311.6011798445518
 20
-76.03763663004698
 30
0.0
 10
-311.5449828568627
 20
-72.19918138539077
 30
0.0
 10
-311.4333865654453
 20
-64.95313221062118
 30
0.0
 10
-311.3781081828654
 20
-61.54552493264659
 30
0.0
 10
-311.3248114913034
 20
-57.56066396828929
 30
0.0
 10
-311.3149268101216
 20
-56.77745249367211
 30
0.0
 10
-311.297014523281
 20
-55.23880175438553
 30
0.0
 10
-311.2889798858653
 20
-54.48256128741372
 30
0.0
 10
-311.2681211456452
 20
-52.26188308137045
 30
0.0
 10
-311.2585912354443
 20
-50.84850639312358
 30
0.0
 10
-311.244873637802
 20
-46.80592256693053
 30
0.0
 10
-311.2560722458092
 20
-44.37384464694352
 30
0.0
 10
-311.3170293707095
 20
-40.02662266373017
 30
0.0
 10
-311.3669010775007
 20
-38.11148738661485
 30
0.0
 10
-311.4558436665311
 20
-35.62972520145713
 30
0.0
 10
-311.4876985715881
 20
-34.86773060578147
 30
0.0
 10
-311.5354252046079
 20
-33.82399295405847
 30
0.0
 10
-311.5513135208313
 20
-33.49262966873049
 30
0.0
 10
-311.5823426999442
 20
-32.86331489314382
 30
0.0
 10
-311.5974941874584
 20
-32.56516291014455
 30
0.0
 10
-311.6691512685819
 20
-31.16273886738399
 30
0.0
 10
-311.7145137918109
 20
-30.32051405440991
 30
0.0
 10
-311.7145137918109
 20
-29.75841034945229
 30
0.0
  0
SPLINE
  5
266
330
1F
100
AcDbEntity
  8
0
  6
Continuous
 62
     8
370
     0
100
AcDbSpline
210
0.0
220
0.0
230
1.0
 70
     8
 71
     3
 72
    30
 73
    26
 74
     0
 42
0.00000001
 43
0.00000001
 12
1.0
 22
0.0
 32
0.0
 13
1.0
 23
0.0
 33
0.0
 40
0.0
 40
0.0
 40
0.0
 40
0.0
 40
0.1250000000000002
 40
0.1250000000000002
 40
0.2500000000000005
 40
0.2500000000000005
 40
0.3750000000000005
 40
0.3750000000000005
 40
0.4062500000000007
 40
0.4062500000000007
 40
0.4375000000000008
 40
0.4375000000000008
 40
0.5000000000000007
 40
0.5000000000000007
 40
0.6250000000000006
 40
0.6250000000000006
 40
0.7500000000000004
 40
0.7500000000000004
 40
0.8125000000000006
 40
0.8125000000000006
 40
0.8437500000000004
 40
0.8437500000000004
 40
0.8750000000000004
 40
0.8750000000000004
 40
1.0
 40
1.0
 40
1.0
 40
1.0
 10
-311.7145137918109
 20
-354.9249077972498
 30
0.0
 10
-311.7145137918109
 20
-359.4205803886927
 30
0.0
 10
-311.6859952958549
 20
-363.6924758243692
 30
0.0
 10
-311.6011798445518
 20
-371.8028615309733
 30
0.0
 10
-311.5449828568627
 20
-375.6413167756295
 30
0.0
 10
-311.4333865654453
 20
-382.887365950399
 30
0.0
 10
-311.3781081828654
 20
-386.2949732283737
 30
0.0
 10
-311.3248114913034
 20
-390.279834192731
 30
0.0
 10
-311.3149268101216
 20
-391.0630456673481
 30
0.0
 10
-311.297014523281
 20
-392.6016964066348
 30
0.0
 10
-311.2889798858653
 20
-393.3579368736065
 30
0.0
 10
-311.2681211456452
 20
-395.5786150796499
 30
0.0
 10
-311.2585912354443
 20
-396.9919917678967
 30
0.0
 10
-311.244873637802
 20
-401.0345755940897
 30
0.0
 10
-311.2560722458092
 20
-403.4666535140767
 30
0.0
 10
-311.3170293707095
 20
-407.8138754972901
 30
0.0
 10
-311.3669010775007
 20
-409.7290107744054
 30
0.0
 10
-311.4558436665311
 20
-412.2107729595631
 30
0.0
 10
-311.4876985715881
 20
-412.9727675552388
 30
0.0
 10
-311.5354252046079
 20
-414.0165052069618
 30
0.0
 10
-311.5513135208313
 20
-414.3478684922898
 30
0.0
 10
-311.5823426999442
 20
-414.9771832678765
 30
0.0
 10
-311.5974941874584
 20
-415.2753352508757
 30
0.0
 10
-311.6691512685819
 20
-416.6777592936363
 30
0.0
 10
-311.7145137918109
 20
-417.5199841066104
 30
0.0
 10
-311.7145137918109
 20
-418.082087811568
 30
0.0
  0
LINE
  5
267
330
1F
100
AcDbEntity
  8
0
  6
Continuous
 62
     8
370
     0
100
AcDbLine
 10
-311.7145124805
 20
-29.7584167479
 30
0.0
 11
-311.7145124805
 21
-28.9202562331
 31
0.0
  0
LINE
  5
268
330
1F
100
AcDbEntity
  8
0
  6
Continuous
 62
     8
370
     0
100
AcDbLine
 10
-311.7145124805
 20
-418.920241928
 30
0.0
 11
-311.7145124805
 21
-418.0820814131
 31
0.0
  0
ARC
  5
269
330
1F
100
AcDbEntity
  8
0
  6
Continuous
 62
     8
370
     0
100
AcDbCircle
 10
-311.6952204371
 20
-20.7777127057
 30
0.0
 40
8.980724763405576
100
AcDbArc
 50
269.876919342
 51
359.8763319123
  0
ARC
  5
26A
330
1F
100
AcDbEntity
  8
0
  6
Continuous
 62
     8
370
     0
100
AcDbCircle
 10
-311.6952204371
 20
-427.0627854553
 30
0.0
 40
8.980724763405615
100
AcDbArc
 50
0.1236680877
 51
90.123080658
  0
ARC
  5
26B
330
1F
100
AcDbEntity
  8
0
  6
Continuous
 62
     8
370
     0
100
AcDbCircle
 10
-243.1542335934
 20
8.9951503474
 30
0.0
 40
37.04937136167249
100
AcDbArc
 50
170.868767469
 51
182.5981083429
  0
ARC
  5
26C
330
1F
100
AcDbEntity
  8
0
  6
Continuous
 62
     8
370
     0
100
AcDbCircle
 10
-243.153021078
 20
-456.8356153614
 30
0.0
 40
37.05058112818532
100
AcDbArc
 50
177.4020278601
 51
189.1309837474
  0
ARC
  5
26D
330
1F
100
AcDbEntity
  8
0
  6
Continuous
 62
     8
370
     0
100
AcDbCircle
 10
-347.687143722
 20
-11.380657772
 30
0.0
 40
66.16264469020787
100
AcDbArc
 50
15.7584838209
 51
22.409881044
  0
ARC
  5
26E
330
1F
100
AcDbEntity
  8
0
  6
Continuous
 62
     8
370
     0
100
AcDbCircle
 10
-297.7988786897
 20
-8.7987151416
 30
0.0
 40
4.977442033701457
100
AcDbArc
 50
106.6842778034
 51
170.9615558014
  0
ARC
  5
26F
330
1F
100
AcDbEntity
  8
0
  6
Continuous
 62
     8
370
     0
100
AcDbCircle
 10
-297.7988786897
 20
-439.0417830194
 30
0.0
 40
4.977442033701458
100
AcDbArc
 50
189.0384441986
 51
253.3157221966
  0
ARC
  5
270
330
1F
100
AcDbEntity
  8
0
  6
Continuous
 62
     8
370
     0
100
AcDbCircle
 10
-347.6933488113
 20
-436.4578082418
 30
0.0
 40
66.1691684585884
100
AcDbArc
 50
337.5905310799
 51
344.2412818908
  0
LINE
  5
271
330
1F
100
AcDbEntity
  8
FORMAT
100
AcDbLine
 10
-416.2055585876
 20
-223.9202490805
 30
0.0
 11
445.4234963725
 21
-223.9202490805
 31
0.0
  0
LINE
  5
272
330
1F
100
AcDbEntity
  8
0
  6
Continuous
 62
     7
370
    15
100
AcDbLine
 10
546.8457536822
 20
694.9302635595
 30
0.0
 11
546.8457536822
 21
495.0091026232
 31
0.0
  0
LINE
  5
273
330
1F
100
AcDbEntity
  8
0
  6
Continuous
 62
     7
370
    15
100
AcDbLine
 10
1024.8457389003
 20
495.0091026232
 30
0.0
 11
1024.8457389003
 21
694.9302635595
 31
0.0
  0
CIRCLE
  5
274
330
1F
100
AcDbEntity
  8
0
  6
Continuous
 62
     7
370
    15
100
AcDbCircle
 10
785.8457462912
 20
392.6421187327
 30
0.0
 40
213.5
  0
CIRCLE
  5
275
330
1F
100
AcDbEntity
  8
0
  6
Continuous
 62
     7
370
    15
100
AcDbCircle
 10
785.8457462912
 20
392.6421187327
 30
0.0
 40
168.0
  0
CIRCLE
  5
276
330
1F
100
AcDbEntity
  8
0
  6
Continuous
 62
     7
370
    15
100
AcDbCircle
 10
785.8457462912
 20
392.6421187327
 30
0.0
 40
216.5
  0
ARC
  5
277
330
1F
100
AcDbEntity
  8
0
  6
Continuous
 62
     7
370
    15
100
AcDbCircle
 10
785.8457462912
 20
392.6421187327
 30
0.0
 40
260.0
100
AcDbArc
 50
1.0915113485
 51
178.9084886515
  0
LINE
  5
278
330
1F
100
AcDbEntity
  8
0
  6
Continuous
 62
     7
370
    15
100
AcDbLine
 10
1040.8457415229
 20
392.6421187327
 30
0.0
 11
1045.7985596782
 21
397.5949406132
 31
0.0
  0
LINE
  5
279
330
1F
100
AcDbEntity
  8
0
  6
Continuous
 62
     7
370
    15
100
AcDbLine
 10
1045.7985596782
 20
387.6892968521
 30
0.0
 11
1040.8457415229
 21
392.6421187327
 31
0.0
  0
LINE
  5
27A
330
1F
100
AcDbEntity
  8
0
  6
Continuous
 62
     7
370
    15
100
AcDbLine
 10
525.8929329043
 20
387.6892968521
 30
0.0
 11
530.8457510596
 21
392.6421187327
 31
0.0
  0
ARC
  5
27B
330
1F
100
AcDbEntity
  8
0
  6
Continuous
 62
     7
370
    15
100
AcDbCircle
 10
785.8457462912
 20
392.6421187327
 30
0.0
 40
260.0
100
AcDbArc
 50
181.0915113485
 51
358.9084886515
  0
LINE
  5
27C
330
1F
100
AcDbEntity
  8
0
  6
Continuous
 62
     7
370
    15
100
AcDbLine
 10
530.8457510596
 20
392.6421187327
 30
0.0
 11
525.8929329043
 21
397.5949406132
 31
0.0
  0
ARC
  5
27D
330
1F
100
AcDbEntity
  8
0
  6
Continuous
 62
     7
370
    15
100
AcDbCircle
 10
668.0400070001
 20
683.8224365884
 30
0.0
 40
121.201193093363
100
AcDbArc
 50
169.6791457505
 51
174.7415870599
  0
LINE
  5
27E
330
1F
100
AcDbEntity
  8
0
  6
Continuous
 62
     7
370
    15
100
AcDbLine
 10
548.7998621589
 20
705.536880295
 30
0.0
 11
548.7998621589
 21
727.9826186106
 31
0.0
  0
ELLIPSE
  5
27F
330
1F
100
AcDbEntity
  8
0
  6
Continuous
 62
     7
370
    15
100
AcDbEllipse
 10
785.8457462912
 20
528.2432873186
 30
0.0
 11
-225.610878677066
 21
377.1437325256009
 31
0.0
210
0.0
220
0.0
230
1.0
 40
0.2091287929
 41
5.523792506487782
 42
5.599479068353479
  0
ARC
  5
280
330
1F
100
AcDbEntity
  8
0
  6
Continuous
 62
     7
370
    15
100
AcDbCircle
 10
785.8457462912
 20
525.9682976273
 30
0.0
 40
327.0941051783972
100
AcDbArc
 50
70.4744735883
 51
109.5255264117
  0
ELLIPSE
  5
281
330
1F
100
AcDbEntity
  8
0
  6
Continuous
 62
     7
370
    15
100
AcDbEllipse
 10
785.8457462912
 20
528.2432873186
 30
0.0
 11
225.610878677066
 21
377.1437325256009
 31
0.0
210
0.0
220
0.0
230
1.0
 40
0.2091287929
 41
0.6837062388261481
 42
0.7593928006918402
  0
LINE
  5
282
330
1F
100
AcDbEntity
  8
0
  6
Continuous
 62
     7
370
    15
100
AcDbLine
 10
1022.8916304236
 20
705.536880295
 30
0.0
 11
1022.8916304236
 21
727.9826186106
 31
0.0
  0
ARC
  5
283
330
1F
100
AcDbEntity
  8
0
  6
Continuous
 62
     7
370
    15
100
AcDbCircle
 10
903.6514855824
 20
683.8224365884
 30
0.0
 40
121.201193093363
100
AcDbArc
 50
5.2584129401
 51
10.3208542495
  0
LINE
  5
284
330
1F
100
AcDbEntity
  8
0
  6
Continuous
 62
     7
370
    15
100
AcDbLine
 10
676.5221329456
 20
869.6526966498
 30
0.0
 11
634.5098810321
 21
929.4973395273
 31
0.0
  0
LINE
  5
285
330
1F
100
AcDbEntity
  8
0
  6
Continuous
 62
     7
370
    15
100
AcDbLine
 10
676.5221329456
 20
859.0460799143
 30
0.0
 11
676.5221329456
 21
869.6526966498
 31
0.0
  0
LINE
  5
286
330
1F
100
AcDbEntity
  8
0
  6
Continuous
 62
     7
370
    15
100
AcDbLine
 10
634.5098810321
 20
918.8907525942
 30
0.0
 11
676.5221329456
 21
859.0460799143
 31
0.0
  0
LINE
  5
287
330
1F
100
AcDbEntity
  8
0
  6
Continuous
 62
     7
370
    15
100
AcDbLine
 10
634.5098810321
 20
918.8907525942
 30
0.0
 11
634.5098810321
 21
929.4973395273
 31
0.0
  0
LINE
  5
288
330
1F
100
AcDbEntity
  8
0
  6
Continuous
 62
     7
370
    15
100
AcDbLine
 10
687.4668197757
 20
926.2212298319
 30
0.0
 11
634.5098810321
 21
929.4973395273
 31
0.0
  0
LINE
  5
289
330
1F
100
AcDbEntity
  8
0
  6
Continuous
 62
     7
370
    15
100
AcDbLine
 10
884.2246728068
 20
926.2212298319
 30
0.0
 11
687.4668197757
 21
926.2212298319
 31
0.0
  0
LINE
  5
28A
330
1F
100
AcDbEntity
  8
0
  6
Continuous
 62
     7
370
    15
100
AcDbLine
 10
884.2246728068
 20
926.2212298319
 30
0.0
 11
937.1816115504
 21
929.4973395273
 31
0.0
  0
LINE
  5
28B
330
1F
100
AcDbEntity
  8
0
  6
Continuous
 62
     7
370
    15
100
AcDbLine
 10
895.1693596369
 20
869.6526966498
 30
0.0
 11
937.1816115504
 21
929.4973395273
 31
0.0
  0
LINE
  5
28C
330
1F
100
AcDbEntity
  8
0
  6
Continuous
 62
     7
370
    15
100
AcDbLine
 10
676.5221329456
 20
869.6526966498
 30
0.0
 11
895.1693596369
 21
869.6526966498
 31
0.0
  0
LINE
  5
28D
330
1F
100
AcDbEntity
  8
0
  6
Continuous
 62
     7
370
    15
100
AcDbLine
 10
676.5221329456
 20
837.1257565424
 30
0.0
 11
676.5221329456
 21
834.2520974085
 31
0.0
  0
LINE
  5
28E
330
1F
100
AcDbEntity
  8
0
  6
Continuous
 62
     7
370
    15
100
AcDbLine
 10
677.8457434898
 20
837.1257565424
 30
0.0
 11
676.5221329456
 21
837.1257565424
 31
0.0
  0
LINE
  5
28F
330
1F
100
AcDbEntity
  8
0
  6
Continuous
 62
     7
370
    15
100
AcDbLine
 10
677.8457434898
 20
859.0460799143
 30
0.0
 11
677.8457434898
 21
837.1257565424
 31
0.0
  0
LINE
  5
290
330
1F
100
AcDbEntity
  8
0
  6
Continuous
 62
     7
370
    15
100
AcDbLine
 10
677.8457434898
 20
859.0460799143
 30
0.0
 11
676.5221329456
 21
859.0460799143
 31
0.0
  0
LINE
  5
291
330
1F
100
AcDbEntity
  8
0
  6
Continuous
 62
     7
370
    15
100
AcDbLine
 10
895.1693596369
 20
859.0460799143
 30
0.0
 11
895.1693596369
 21
869.6526966498
 31
0.0
  0
LINE
  5
292
330
1F
100
AcDbEntity
  8
0
  6
Continuous
 62
     7
370
    15
100
AcDbLine
 10
893.8457490927
 20
859.0460799143
 30
0.0
 11
895.1693596369
 21
859.0460799143
 31
0.0
  0
LINE
  5
293
330
1F
100
AcDbEntity
  8
0
  6
Continuous
 62
     7
370
    15
100
AcDbLine
 10
893.8457490927
 20
859.0460799143
 30
0.0
 11
893.8457490927
 21
837.1257565424
 31
0.0
  0
LINE
  5
294
330
1F
100
AcDbEntity
  8
0
  6
Continuous
 62
     7
370
    15
100
AcDbLine
 10
893.8457490927
 20
837.1257565424
 30
0.0
 11
895.1693596369
 21
837.1257565424
 31
0.0
  0
LINE
  5
295
330
1F
100
AcDbEntity
  8
0
  6
Continuous
 62
     7
370
    15
100
AcDbLine
 10
895.1693596369
 20
837.1257565424
 30
0.0
 11
895.1693596369
 21
834.2520974085
 31
0.0
  0
LINE
  5
296
330
1F
100
AcDbEntity
  8
0
  6
Continuous
 62
     7
370
    15
100
AcDbLine
 10
937.1816115504
 20
918.8907525942
 30
0.0
 11
895.1693596369
 21
859.0460799143
 31
0.0
  0
LINE
  5
297
330
1F
100
AcDbEntity
  8
0
  6
Continuous
 62
     7
370
    15
100
AcDbLine
 10
937.1816115504
 20
918.8907525942
 30
0.0
 11
937.1816115504
 21
929.4973395273
 31
0.0
  0
LINE
  5
298
330
1F
100
AcDbEntity
  8
0
  6
Continuous
 62
     7
370
    15
100
AcDbLine
 10
634.5098810321
 20
896.9704292223
 30
0.0
 11
676.5221329456
 21
837.1257565424
 31
0.0
  0
LINE
  5
299
330
1F
100
AcDbEntity
  8
0
  6
Continuous
 62
     7
370
    15
100
AcDbLine
 10
650.59708525
 20
895.9752104685
 30
0.0
 11
634.5098810321
 21
896.9704292223
 31
0.0
  0
LINE
  5
29A
330
1F
100
AcDbEntity
  8
0
  6
Continuous
 62
     7
370
    15
100
AcDbLine
 10
634.5098810321
 20
886.3638422892
 30
0.0
 11
634.5098810321
 21
896.9704292223
 31
0.0
  0
LINE
  5
29B
330
1F
100
AcDbEntity
  8
0
  6
Continuous
 62
     7
370
    15
100
AcDbLine
 10
660.764743579
 20
850.4223606989
 30
0.0
 11
660.5098592168
 21
850.6867371008
 31
0.0
  0
ELLIPSE
  5
29C
330
1F
100
AcDbEntity
  8
0
  6
Continuous
 62
     7
370
    15
100
AcDbEllipse
 10
759.645583107
 20
565.5643029619
 30
0.0
 11
-215.021388487895
 21
358.705598717662
 31
0.0
210
0.0
220
0.0
230
1.0
 40
0.2080386357
 41
5.497104758744002
 42
5.516240654916472
  0
LINE
  5
29D
330
1F
100
AcDbEntity
  8
0
  6
Continuous
 62
     7
370
    15
100
AcDbLine
 10
656.6077219373
 20
854.8863909647
 30
0.0
 11
634.5098810321
 21
886.3638422892
 31
0.0
  0
ELLIPSE
  5
29E
330
1F
100
AcDbEntity
  8
0
  6
Continuous
 62
     7
370
    15
100
AcDbEllipse
 10
812.0459094754
 20
565.5643029619
 30
0.0
 11
215.0213884878951
 21
358.705598717662
 31
0.0
210
0.0
220
0.0
230
1.0
 40
0.2080386357
 41
0.7669446522631516
 42
0.7860805484356217
  0
LINE
  5
29F
330
1F
100
AcDbEntity
  8
0
  6
Continuous
 62
     7
370
    15
100
AcDbLine
 10
910.9267490035
 20
850.4223606989
 30
0.0
 11
911.1816333657
 21
850.6867371008
 31
0.0
  0
LINE
  5
2A0
330
1F
100
AcDbEntity
  8
0
  6
Continuous
 62
     7
370
    15
100
AcDbLine
 10
937.1816115504
 20
896.9704292223
 30
0.0
 11
895.1693596369
 21
837.1257565424
 31
0.0
  0
LINE
  5
2A1
330
1F
100
AcDbEntity
  8
0
  6
Continuous
 62
     7
370
    15
100
AcDbLine
 10
937.1816115504
 20
886.3638422892
 30
0.0
 11
937.1816115504
 21
896.9704292223
 31
0.0
  0
LINE
  5
2A2
330
1F
100
AcDbEntity
  8
0
  6
Continuous
 62
     7
370
    15
100
AcDbLine
 10
915.0837706452
 20
854.8863909647
 30
0.0
 11
937.1816115504
 21
886.3638422892
 31
0.0
  0
LINE
  5
2A3
330
1F
100
AcDbEntity
  8
0
  6
Continuous
 62
     7
370
    15
100
AcDbLine
 10
921.0944073325
 20
895.9752104685
 30
0.0
 11
937.1816115504
 21
896.9704292223
 31
0.0
  0
LINE
  5
2A4
330
1F
100
AcDbEntity
  8
0
  6
Continuous
 62
     7
370
    15
100
AcDbLine
 10
631.8457471257
 20
930.0157211229
 30
0.0
 11
631.8457471257
 21
939.3027208254
 31
0.0
  0
LINE
  5
2A5
330
1F
100
AcDbEntity
  8
0
  6
Continuous
 62
     7
370
    15
100
AcDbLine
 10
631.8457471257
 20
939.3027208254
 30
0.0
 11
939.8457454568
 21
939.3027208254
 31
0.0
  0
LINE
  5
2A6
330
1F
100
AcDbEntity
  8
0
  6
Continuous
 62
     7
370
    15
100
AcDbLine
 10
939.8457454568
 20
930.0157211229
 30
0.0
 11
939.8457454568
 21
939.3027208254
 31
0.0
  0
LINE
  5
2A7
330
1F
100
AcDbEntity
  8
0
  6
Continuous
 62
     7
370
    15
100
AcDbLine
 10
884.2246728068
 20
926.5748045847
 30
0.0
 11
939.8457454568
 21
930.0157211229
 31
0.0
  0
LINE
  5
2A8
330
1F
100
AcDbEntity
  8
0
  6
Continuous
 62
     7
370
    15
100
AcDbLine
 10
687.4668197757
 20
926.5748045847
 30
0.0
 11
884.2246728068
 21
926.5748045847
 31
0.0
  0
LINE
  5
2A9
330
1F
100
AcDbEntity
  8
0
  6
Continuous
 62
     7
370
    15
100
AcDbLine
 10
687.4668197757
 20
926.5748045847
 30
0.0
 11
631.8457471257
 21
930.0157211229
 31
0.0
  0
LINE
  5
2AA
330
1F
100
AcDbEntity
  8
0
  6
Continuous
 62
     7
370
    15
100
AcDbLine
 10
634.7693549519
 20
885.9942338869
 30
0.0
 11
631.8457471257
 21
886.1751041815
 31
0.0
  0
LINE
  5
2AB
330
1F
100
AcDbEntity
  8
0
  6
Continuous
 62
     7
370
    15
100
AcDbLine
 10
631.8457471257
 20
886.1751041815
 30
0.0
 11
631.8457471257
 21
899.9636552736
 31
0.0
  0
LINE
  5
2AC
330
1F
100
AcDbEntity
  8
0
  6
Continuous
 62
     7
370
    15
100
AcDbLine
 10
631.8457471257
 20
899.9636552736
 30
0.0
 11
648.5213087922
 21
898.9320776865
 31
0.0
  0
LINE
  5
2AD
330
1F
100
AcDbEntity
  8
0
  6
Continuous
 62
     7
370
    15
100
AcDbLine
 10
631.8457471257
 20
916.2271402285
 30
0.0
 11
636.5856425887
 21
915.9338853762
 31
0.0
  0
LINE
  5
2AE
330
1F
100
AcDbEntity
  8
0
  6
Continuous
 62
     7
370
    15
100
AcDbLine
 10
631.8457471257
 20
930.0157211229
 30
0.0
 11
631.8457471257
 21
916.2271402285
 31
0.0
  0
LINE
  5
2AF
330
1F
100
AcDbEntity
  8
0
  6
Continuous
 62
     7
370
    15
100
AcDbLine
 10
687.4668197757
 20
926.5748045847
 30
0.0
 11
687.4668197757
 21
926.2212298319
 31
0.0
  0
LINE
  5
2B0
330
1F
100
AcDbEntity
  8
0
  6
Continuous
 62
     7
370
    15
100
AcDbLine
 10
884.2246728068
 20
926.5748045847
 30
0.0
 11
884.2246728068
 21
926.2212298319
 31
0.0
  0
LINE
  5
2B1
330
1F
100
AcDbEntity
  8
0
  6
Continuous
 62
     7
370
    15
100
AcDbLine
 10
939.8457454568
 20
930.0157211229
 30
0.0
 11
939.8457454568
 21
916.2271402285
 31
0.0
  0
LINE
  5
2B2
330
1F
100
AcDbEntity
  8
0
  6
Continuous
 62
     7
370
    15
100
AcDbLine
 10
939.8457454568
 20
916.2271402285
 30
0.0
 11
935.1058499938
 21
915.9338853762
 31
0.0
  0
LINE
  5
2B3
330
1F
100
AcDbEntity
  8
0
  6
Continuous
 62
     7
370
    15
100
AcDbLine
 10
939.8457454568
 20
899.9636552736
 30
0.0
 11
923.1701837903
 21
898.9320776865
 31
0.0
  0
LINE
  5
2B4
330
1F
100
AcDbEntity
  8
0
  6
Continuous
 62
     7
370
    15
100
AcDbLine
 10
939.8457454568
 20
886.1751041815
 30
0.0
 11
939.8457454568
 21
899.9636552736
 31
0.0
  0
LINE
  5
2B5
330
1F
100
AcDbEntity
  8
0
  6
Continuous
 62
     7
370
    15
100
AcDbLine
 10
936.9221376305
 20
885.9942338869
 30
0.0
 11
939.8457454568
 21
886.1751041815
 31
0.0
  0
LINE
  5
2B6
330
1F
100
AcDbEntity
  8
0
  6
Continuous
 62
     7
370
    15
100
AcDbLine
 10
631.8457471257
 20
942.7711747095
 30
0.0
 11
631.8457471257
 21
957.2074792788
 31
0.0
  0
LINE
  5
2B7
330
1F
100
AcDbEntity
  8
0
  6
Continuous
 62
     7
370
    15
100
AcDbLine
 10
631.8457471257
 20
957.2074792788
 30
0.0
 11
690.3100954419
 21
953.5906098292
 31
0.0
  0
LINE
  5
2B8
330
1F
100
AcDbEntity
  8
0
  6
Continuous
 62
     7
370
    15
100
AcDbLine
 10
691.6174264675
 20
964.1568444178
 30
0.0
 11
690.3100954419
 21
953.5906098292
 31
0.0
  0
LINE
  5
2B9
330
1F
100
AcDbEntity
  8
0
  6
Continuous
 62
     7
370
    15
100
AcDbLine
 10
691.6174264675
 20
964.1568444178
 30
0.0
 11
785.8457462912
 21
958.3275697634
 31
0.0
  0
LINE
  5
2BA
330
1F
100
AcDbEntity
  8
0
  6
Continuous
 62
     7
370
    15
100
AcDbLine
 10
880.074066115
 20
964.1568444178
 30
0.0
 11
785.8457462912
 21
958.3275697634
 31
0.0
  0
LINE
  5
2BB
330
1F
100
AcDbEntity
  8
0
  6
Continuous
 62
     7
370
    15
100
AcDbLine
 10
880.074066115
 20
964.1568444178
 30
0.0
 11
881.3813971406
 21
953.5906098292
 31
0.0
  0
LINE
  5
2BC
330
1F
100
AcDbEntity
  8
0
  6
Continuous
 62
     7
370
    15
100
AcDbLine
 10
939.8457454568
 20
957.2074792788
 30
0.0
 11
881.3813971406
 21
953.5906098292
 31
0.0
  0
LINE
  5
2BD
330
1F
100
AcDbEntity
  8
0
  6
Continuous
 62
     7
370
    15
100
AcDbLine
 10
939.8457454568
 20
942.7711747095
 30
0.0
 11
939.8457454568
 21
957.2074792788
 31
0.0
  0
LINE
  5
2BE
330
1F
100
AcDbEntity
  8
0
  6
Continuous
 62
     7
370
    15
100
AcDbLine
 10
939.8457454568
 20
942.7711747095
 30
0.0
 11
857.8665750151
 21
942.7711747095
 31
0.0
  0
SPLINE
  5
2BF
330
1F
100
AcDbEntity
  8
0
  6
Continuous
 62
     7
370
    15
100
AcDbSpline
210
0.0
220
0.0
230
1.0
 70
     8
 71
     3
 72
    31
 73
    27
 74
     0
 42
0.00000001
 43
0.00000001
 12
1.0
 22
0.0
 32
0.0
 13
1.0
 23
0.0
 33
0.0
 40
0.0
 40
0.0
 40
0.0
 40
0.0
 40
0.0387431438873015
 40
0.0774905088396108
 40
0.1162326252360221
 40
0.1551617556448004
 40
0.1940964521829492
 40
0.2330244876176318
 40
0.2723512309405799
 40
0.3117021252855133
 40
0.3510591835352515
 40
0.3904064908908329
 40
0.4297302181778919
 40
0.4699169323599
 40
0.510131469137545
 40
0.5503557354420073
 40
0.5905710703369467
 40
0.6307584697337727
 40
0.6765570990061349
 40
0.7223797980355242
 40
0.7682053021790557
 40
0.8140077644698199
 40
0.8604948319865786
 40
0.9069999316322116
 40
0.9535084517612993
 40
0.9999999999999999
 40
0.9999999999999999
 40
0.9999999999999999
 40
0.9999999999999999
 10
713.8249175673295
 20
942.7711747095235
 30
0.0
 10
715.6215477952081
 20
943.2069322861283
 30
0.0
 10
719.2150039938045
 20
944.0784949151197
 30
0.0
 10
724.6532423649303
 20
945.2830139790453
 30
0.0
 10
730.1344925098681
 20
946.4083106491395
 30
0.0
 10
735.6612795862573
 20
947.4423779808957
 30
0.0
 10
741.230969338684
 20
948.3822542377018
 30
0.0
 10
746.8518149213508
 20
949.2244447942691
 30
0.0
 10
752.5225814884913
 20
949.9629001216907
 30
0.0
 10
758.2407778102429
 20
950.5928895468495
 30
0.0
 10
763.9827481636705
 20
951.109234735725
 30
0.0
 10
769.7420084675173
 20
951.508877921023
 30
0.0
 10
775.5560022729169
 20
951.7908506006851
 30
0.0
 10
781.4220082289564
 20
951.9483999957835
 30
0.0
 10
787.3362127319629
 20
951.9791056292287
 30
0.0
 10
793.2503990798413
 20
951.8826895614621
 30
0.0
 10
799.1564246780767
 20
951.6598524458391
 30
0.0
 10
805.3225470357409
 20
951.2945580546015
 30
0.0
 10
811.7422040031669
 20
950.7665756962197
 30
0.0
 10
818.4069549742549
 20
950.059917492889
 30
0.0
 10
825.0365037230823
 20
949.2030310154797
 30
0.0
 10
831.6570541653805
 20
948.1964438209533
 30
0.0
 10
838.2641841652658
 20
947.0438338593023
 30
0.0
 10
844.8538750741201
 20
945.7487395056902
 30
0.0
 10
851.3951736243881
 20
944.3345962386301
 30
0.0
 10
855.7097036758503
 20
943.292251812264
 30
0.0
 10
857.8665750151445
 20
942.7711747095234
 30
0.0
  0
LINE
  5
2C0
330
1F
100
AcDbEntity
  8
0
  6
Continuous
 62
     7
370
    15
100
AcDbLine
 10
713.8249175673
 20
942.7711747095
 30
0.0
 11
631.8457471257
 21
942.7711747095
 31
0.0
  0
ARC
  5
2C1
330
1F
100
AcDbEntity
  8
0
  6
Continuous
 62
     7
370
    15
100
AcDbCircle
 10
788.9422459169
 20
1204.2023895963
 30
0.0
 40
270.3642788143459
100
AcDbArc
 50
281.5392288405
 51
284.7695170285
  0
ARC
  5
2C2
330
1F
100
AcDbEntity
  8
0
  6
Continuous
 62
     7
370
    15
100
AcDbCircle
 10
782.7002081062
 20
1203.9925611651
 30
0.0
 40
270.1488818940196
100
AcDbArc
 50
255.2291948323
 51
258.4620592987
  0
LINE
  5
2C3
330
1F
100
AcDbEntity
  8
0
  6
Continuous
 62
     7
370
    15
100
AcDbLine
 10
548.7850802069
 20
728.3456705019
 30
0.0
 11
548.7998621589
 21
727.9826186106
 31
0.0
  0
LINE
  5
2C4
330
1F
100
AcDbEntity
  8
0
  6
Continuous
 62
     7
370
    15
100
AcDbLine
 10
1022.9064123755
 20
728.3456705019
 30
0.0
 11
1022.8916304236
 21
727.9826186106
 31
0.0
  0
ARC
  5
2C5
330
1F
100
AcDbEntity
  8
0
  6
Continuous
 62
     7
370
    15
100
AcDbCircle
 10
668.2413733865
 20
740.1233868608
 30
0.0
 40
124.1679984397458
100
AcDbArc
 50
169.075075213
 51
169.8029214421
  0
LINE
  5
2C6
330
1F
100
AcDbEntity
  8
0
  6
Continuous
 62
     7
370
    15
100
AcDbLine
 10
546.3237511044
 20
763.656028311
 30
0.0
 11
545.2807443267
 21
776.3581953451
 31
0.0
  0
LINE
  5
2C7
330
1F
100
AcDbEntity
  8
0
  6
Continuous
 62
     7
370
    15
100
AcDbLine
 10
544.538279069
 20
776.3398669169
 30
0.0
 11
544.8312209969
 21
778.0153236792
 31
0.0
  0
LWPOLYLINE
  5
2C8
330
1F
100
AcDbEntity
  8
0
  6
Continuous
 62
     7
370
    15
100
AcDbPolyline
 90
       49
 70
   128
 43
0.0
 10
544.8312209969
 20
778.0153236792
 10
545.3572766906
 20
780.7353518412
 10
545.9447102671
 20
783.4490917132
 10
546.5933876162
 20
786.1558280394
 10
547.3031299239
 20
788.8549051687
 10
548.0737881785
 20
791.5456376478
 10
548.9051239615
 20
794.2273102209
 10
549.796958459
 20
796.8992374346
 10
550.7490532523
 20
799.5607636377
 10
551.7611550217
 20
802.2111735747
 10
552.8330104476
 20
804.8498115942
 10
553.9643513089
 20
807.4760220453
 10
555.1548944836
 20
810.0891194746
 10
556.4043121463
 20
812.6884184286
 10
557.7123062735
 20
815.2732632563
 10
559.0785490399
 20
817.8430281088
 10
560.5026679164
 20
820.3970275328
 10
561.9843201762
 20
822.9345760748
 10
563.523103488
 20
825.4551074907
 10
565.118660224
 20
827.9579065249
 10
566.7705433493
 20
830.4423473284
 10
568.4783654338
 20
832.9078338549
 10
570.2416794425
 20
835.3537104532
 10
572.0600234395
 20
837.7793512747
 10
573.9329354888
 20
840.1841304705
 10
575.8599536544
 20
842.5674519941
 10
577.8405861979
 20
844.9286899969
 10
579.8742966777
 20
847.2672782347
 10
581.9605933553
 20
849.5825610563
 10
584.0989397889
 20
851.8740020201
 10
586.2887995368
 20
854.1409752772
 10
588.5295914536
 20
856.3829145834
 10
590.8207492953
 20
858.5992834971
 10
593.1616919165
 20
860.7894561693
 10
595.5518232709
 20
862.9528961584
 10
597.9905324107
 20
865.0890968248
 10
600.4772083884
 20
867.1974323198
 10
603.0111955529
 20
869.2774258062
 10
605.5918531543
 20
871.3285408423
 10
608.2185255414
 20
873.3502111838
 10
610.890542162
 20
875.3419599936
 10
613.6072175628
 20
877.3032806322
 10
616.3678662902
 20
879.2336366579
 10
619.1717879897
 20
881.1325810358
 10
622.0182525044
 20
882.9996071264
 10
624.9065296775
 20
884.8342082903
 10
627.8358893519
 20
886.6359672949
 10
630.8056013709
 20
888.4044073031
 10
631.8457471257
 20
889.0103779242
  0
LWPOLYLINE
  5
2C9
330
1F
100
AcDbEntity
  8
0
  6
Continuous
 62
     7
370
    15
100
AcDbPolyline
 90
       49
 70
   128
 43
0.0
 10
939.8457454568
 20
889.0103779242
 10
940.8858912116
 20
888.4044073031
 10
943.8556032306
 20
886.6359672949
 10
946.784962905
 20
884.8342082903
 10
949.673240078
 20
882.9996071264
 10
952.5197045928
 20
881.1325810358
 10
955.3236262923
 20
879.2336366579
 10
958.0842750197
 20
877.3032806322
 10
960.8009504205
 20
875.3419599936
 10
963.4729670411
 20
873.3502111838
 10
966.0996394282
 20
871.3285408423
 10
968.6802970296
 20
869.2774258062
 10
971.2142841941
 20
867.1974323198
 10
973.7009601718
 20
865.0890968248
 10
976.1396693116
 20
862.9528961584
 10
978.5298006659
 20
860.7894561693
 10
980.8707432872
 20
858.5992834971
 10
983.1619011288
 20
856.3829145834
 10
985.4026930457
 20
854.1409752772
 10
987.5925527936
 20
851.8740020201
 10
989.7308992272
 20
849.5825610563
 10
991.8171959048
 20
847.2672782347
 10
993.8509063845
 20
844.9286899969
 10
995.8315389281
 20
842.5674519941
 10
997.7585570937
 20
840.1841304705
 10
999.631469143
 20
837.7793512747
 10
1001.44981314
 20
835.3537104532
 10
1003.2131271487
 20
832.9078338549
 10
1004.9209492331
 20
830.4423473284
 10
1006.5728323584
 20
827.9579065249
 10
1008.1683890944
 20
825.4551074907
 10
1009.7071724063
 20
822.9345760748
 10
1011.1888246661
 20
820.3970275328
 10
1012.6129435426
 20
817.8430281088
 10
1013.9791863089
 20
815.2732632563
 10
1015.2871804362
 20
812.6884184286
 10
1016.5365980988
 20
810.0891194746
 10
1017.7271412736
 20
807.4760220453
 10
1018.8584821349
 20
804.8498115942
 10
1019.9303375607
 20
802.2111735747
 10
1020.9424393302
 20
799.5607636377
 10
1021.8945341235
 20
796.8992374346
 10
1022.7863686209
 20
794.2273102209
 10
1023.617704404
 20
791.5456376478
 10
1024.3883626586
 20
788.8549051687
 10
1025.0981049662
 20
786.1558280394
 10
1025.7467823153
 20
783.4490917132
 10
1026.3342158919
 20
780.7353518412
 10
1026.8602715855
 20
778.0153236792
  0
LINE
  5
2CA
330
1F
100
AcDbEntity
  8
0
  6
Continuous
 62
     7
370
    15
100
AcDbLine
 10
1026.8602715855
 20
778.0153236792
 30
0.0
 11
1027.1532135135
 21
776.3398669169
 31
0.0
  0
LINE
  5
2CB
330
1F
100
AcDbEntity
  8
0
  6
Continuous
 62
     7
370
    15
100
AcDbLine
 10
1025.367741478
 20
763.656028311
 30
0.0
 11
1026.4107482558
 21
776.3581953451
 31
0.0
  0
ARC
  5
2CC
330
1F
100
AcDbEntity
  8
0
  6
Continuous
 62
     7
370
    15
100
AcDbCircle
 10
903.450119196
 20
740.1233868608
 30
0.0
 40
124.1679984397458
100
AcDbArc
 50
10.1970785579
 51
10.924924787
  0
LINE
  5
2CD
330
1F
100
AcDbEntity
  8
0
  6
Continuous
 62
     7
370
    15
100
AcDbLine
 10
1022.9064123755
 20
728.3456705019
 30
0.0
 11
1025.6568389064
 21
762.1054134771
 31
0.0
  0
LINE
  5
2CE
330
1F
100
AcDbEntity
  8
0
  6
Continuous
 62
     7
370
    15
100
AcDbLine
 10
548.7850802069
 20
728.3456705019
 30
0.0
 11
546.0346536761
 21
762.1054134771
 31
0.0
  0
LINE
  5
2CF
330
1F
100
AcDbEntity
  8
0
  6
Continuous
 62
     7
370
    15
100
AcDbLine
 10
939.8457454568
 20
909.2506549761
 30
0.0
 11
939.8457454568
 21
916.2271402285
 31
0.0
  0
LINE
  5
2D0
330
1F
100
AcDbEntity
  8
0
  6
Continuous
 62
     7
370
    15
100
AcDbLine
 10
939.8457454568
 20
939.3027208254
 30
0.0
 11
939.8457454568
 21
942.7711747095
 31
0.0
  0
LINE
  5
2D1
330
1F
100
AcDbEntity
  8
0
  6
Continuous
 62
     7
370
    15
100
AcDbLine
 10
631.8457471257
 20
909.2506549761
 30
0.0
 11
631.8457471257
 21
916.2271402285
 31
0.0
  0
LINE
  5
2D2
330
1F
100
AcDbEntity
  8
0
  6
Continuous
 62
     7
370
    15
100
AcDbLine
 10
631.8457471257
 20
939.3027208254
 30
0.0
 11
631.8457471257
 21
942.7711747095
 31
0.0
  0
LINE
  5
2D3
330
1F
100
AcDbEntity
  8
0
  6
Continuous
 62
     7
370
    15
100
AcDbLine
 10
690.3150649792
 20
953.6308429644
 30
0.0
 11
631.8457471257
 21
957.2479508326
 31
0.0
  0
LINE
  5
2D4
330
1F
100
AcDbEntity
  8
0
  6
Continuous
 62
     7
370
    15
100
AcDbLine
 10
631.8457471257
 20
957.2074792788
 30
0.0
 11
631.8457471257
 21
957.2479508326
 31
0.0
  0
LINE
  5
2D5
330
1F
100
AcDbEntity
  8
0
  6
Continuous
 62
     7
370
    15
100
AcDbLine
 10
881.3764276033
 20
953.6308429644
 30
0.0
 11
939.8457454568
 21
957.2479508326
 31
0.0
  0
LINE
  5
2D6
330
1F
100
AcDbEntity
  8
0
  6
Continuous
 62
     7
370
    15
100
AcDbLine
 10
939.8457454568
 20
957.2074792788
 30
0.0
 11
939.8457454568
 21
957.2479508326
 31
0.0
  0
LINE
  5
2D7
330
1F
100
AcDbEntity
  8
0
  6
Continuous
 62
     7
370
    15
100
AcDbLine
 10
631.8457471257
 20
899.9636552736
 30
0.0
 11
631.8457471257
 21
909.2506549761
 31
0.0
  0
LINE
  5
2D8
330
1F
100
AcDbEntity
  8
0
  6
Continuous
 62
     7
370
    15
100
AcDbLine
 10
641.2774222022
 20
909.2506549761
 30
0.0
 11
631.8457471257
 21
909.2506549761
 31
0.0
  0
LINE
  5
2D9
330
1F
100
AcDbEntity
  8
0
  6
Continuous
 62
     7
370
    15
100
AcDbLine
 10
939.8457454568
 20
899.9636552736
 30
0.0
 11
939.8457454568
 21
909.2506549761
 31
0.0
  0
LINE
  5
2DA
330
1F
100
AcDbEntity
  8
0
  6
Continuous
 62
     7
370
    15
100
AcDbLine
 10
930.4140703803
 20
909.2506549761
 30
0.0
 11
939.8457454568
 21
909.2506549761
 31
0.0
  0
LWPOLYLINE
  5
2DB
330
1F
100
AcDbEntity
  8
0
  6
Continuous
 62
     7
370
    15
100
AcDbPolyline
 90
       49
 70
   128
 43
0.0
 10
544.8312209969
 20
793.5716591284
 10
545.3572766906
 20
796.2916872904
 10
545.9447102671
 20
799.0054271624
 10
546.5933876162
 20
801.7121932909
 10
547.3031299239
 20
804.4112704203
 10
548.0737881785
 20
807.1019730971
 10
548.9051239615
 20
809.7836456701
 10
549.796958459
 20
812.4555728838
 10
550.7490532523
 20
815.117099087
 10
551.7611550217
 20
817.7675388262
 10
552.8330104476
 20
820.4061768458
 10
553.9643513089
 20
823.0323872969
 10
555.1548944836
 20
825.6454549238
 10
556.4043121463
 20
828.2447538778
 10
557.7123062735
 20
830.8296285078
 10
559.0785490399
 20
833.399363558
 10
560.5026679164
 20
835.953362982
 10
561.9843201762
 20
838.4909413263
 10
563.523103488
 20
841.01144294
 10
565.118660224
 20
843.5142419741
 10
566.7705433493
 20
845.9987125799
 10
568.4783654338
 20
848.4641991064
 10
570.2416794425
 20
850.9100459025
 10
572.0600234395
 20
853.3356867239
 10
573.9329354888
 20
855.740495722
 10
575.8599536544
 20
858.1238172457
 10
577.8405861979
 20
860.4850552485
 10
579.8742966777
 20
862.8236136839
 10
581.9605933553
 20
865.1389263079
 10
584.0989397889
 20
867.4303374693
 10
586.2887995368
 20
869.6973107264
 10
588.5295914536
 20
871.939279835
 10
590.8207492953
 20
874.1556189463
 10
593.1616919165
 20
876.3457916186
 10
595.5518232709
 20
878.50926141
 10
597.9905324107
 20
880.6454322741
 10
600.4772083884
 20
882.7537975714
 10
603.0111955529
 20
884.8337910578
 10
605.5918531543
 20
886.8848762915
 10
608.2185255414
 20
888.9065764353
 10
610.890542162
 20
890.8983252451
 10
613.6072175628
 20
892.8596160814
 10
616.3678662902
 20
894.7899721071
 10
619.1717879897
 20
896.688916485
 10
622.0182525044
 20
898.555972378
 10
624.9065296775
 20
900.3905437395
 10
627.8358893519
 20
902.1923325464
 10
630.8056013709
 20
903.9607427523
 10
631.8457471257
 20
904.5667431757
  0
LINE
  5
2DC
330
1F
100
AcDbEntity
  8
0
  6
Continuous
 62
     7
370
    15
100
AcDbLine
 10
544.8312209969
 20
778.0153236792
 30
0.0
 11
544.8312209969
 21
793.5716591284
 31
0.0
  0
LWPOLYLINE
  5
2DD
330
1F
100
AcDbEntity
  8
0
  6
Continuous
 62
     7
370
    15
100
AcDbPolyline
 90
       49
 70
   128
 43
0.0
 10
939.8457454568
 20
904.5667431757
 10
940.8858912116
 20
903.9607427523
 10
943.8556032306
 20
902.1923325464
 10
946.784962905
 20
900.3905437395
 10
949.673240078
 20
898.555972378
 10
952.5197045928
 20
896.688916485
 10
955.3236262923
 20
894.7899721071
 10
958.0842750197
 20
892.8596160814
 10
960.8009504205
 20
890.8983252451
 10
963.4729670411
 20
888.9065764353
 10
966.0996394282
 20
886.8848762915
 10
968.6802970296
 20
884.8337910578
 10
971.2142841941
 20
882.7537975714
 10
973.7009601718
 20
880.6454322741
 10
976.1396693116
 20
878.50926141
 10
978.5298006659
 20
876.3457916186
 10
980.8707432872
 20
874.1556189463
 10
983.1619011288
 20
871.939279835
 10
985.4026930457
 20
869.6973107264
 10
987.5925527936
 20
867.4303374693
 10
989.7308992272
 20
865.1389263079
 10
991.8171959048
 20
862.8236136839
 10
993.8509063845
 20
860.4850552485
 10
995.8315389281
 20
858.1238172457
 10
997.7585570937
 20
855.740495722
 10
999.631469143
 20
853.3356867239
 10
1001.44981314
 20
850.9100459025
 10
1003.2131271487
 20
848.4641991064
 10
1004.9209492331
 20
845.9987125799
 10
1006.5728323584
 20
843.5142419741
 10
1008.1683890944
 20
841.01144294
 10
1009.7071724063
 20
838.4909413263
 10
1011.1888246661
 20
835.953362982
 10
1012.6129435426
 20
833.399363558
 10
1013.9791863089
 20
830.8296285078
 10
1015.2871804362
 20
828.2447538778
 10
1016.5365980988
 20
825.6454549238
 10
1017.7271412736
 20
823.0323872969
 10
1018.8584821349
 20
820.4061768458
 10
1019.9303375607
 20
817.7675388262
 10
1020.9424393302
 20
815.117099087
 10
1021.8945341235
 20
812.4555728838
 10
1022.7863686209
 20
809.7836456701
 10
1023.617704404
 20
807.1019730971
 10
1024.3883626586
 20
804.4112704203
 10
1025.0981049662
 20
801.7121932909
 10
1025.7467823153
 20
799.0054271624
 10
1026.3342158919
 20
796.2916872904
 10
1026.8602715855
 20
793.5716591284
  0
LINE
  5
2DE
330
1F
100
AcDbEntity
  8
0
  6
Continuous
 62
     7
370
    15
100
AcDbLine
 10
1026.8602715855
 20
793.5716591284
 30
0.0
 11
1026.8602715855
 21
778.0153236792
 31
0.0
  0
LINE
  5
2DF
330
1F
100
AcDbEntity
  8
0
  6
Continuous
 62
     7
370
    15
100
AcDbLine
 10
497.845758689
 20
762.1054134771
 30
0.0
 11
497.845758689
 21
751.4987967417
 31
0.0
  0
LINE
  5
2E0
330
1F
100
AcDbEntity
  8
0
  6
Continuous
 62
     7
370
    15
100
AcDbLine
 10
497.845758689
 20
762.1054134771
 30
0.0
 11
537.5580983287
 21
705.536880295
 31
0.0
  0
LINE
  5
2E1
330
1F
100
AcDbEntity
  8
0
  6
Continuous
 62
     7
370
    15
100
AcDbLine
 10
537.5580983287
 20
705.536880295
 30
0.0
 11
537.5580983287
 21
694.9302635595
 31
0.0
  0
LINE
  5
2E2
330
1F
100
AcDbEntity
  8
0
  6
Continuous
 62
     7
370
    15
100
AcDbLine
 10
497.845758689
 20
751.4987967417
 30
0.0
 11
537.5580983287
 21
694.9302635595
 31
0.0
  0
LINE
  5
2E3
330
1F
100
AcDbEntity
  8
0
  6
Continuous
 62
     7
370
    15
100
AcDbLine
 10
546.0346536761
 20
762.1054134771
 30
0.0
 11
497.845758689
 21
762.1054134771
 31
0.0
  0
LINE
  5
2E4
330
1F
100
AcDbEntity
  8
0
  6
Continuous
 62
     7
370
    15
100
AcDbLine
 10
537.5580983287
 20
705.536880295
 30
0.0
 11
548.7998621589
 21
705.536880295
 31
0.0
  0
LINE
  5
2E5
330
1F
100
AcDbEntity
  8
0
  6
Continuous
 62
     7
370
    15
100
AcDbLine
 10
537.5580983287
 20
694.9302635595
 30
0.0
 11
547.3488913899
 21
694.9302635595
 31
0.0
  0
LINE
  5
2E6
330
1F
100
AcDbEntity
  8
0
  6
Continuous
 62
     7
370
    15
100
AcDbLine
 10
1025.6568389064
 20
762.1054134771
 30
0.0
 11
1073.8457338935
 21
762.1054134771
 31
0.0
  0
LINE
  5
2E7
330
1F
100
AcDbEntity
  8
0
  6
Continuous
 62
     7
370
    15
100
AcDbLine
 10
1073.8457338935
 20
762.1054134771
 30
0.0
 11
1034.1333942538
 21
705.536880295
 31
0.0
  0
LINE
  5
2E8
330
1F
100
AcDbEntity
  8
0
  6
Continuous
 62
     7
370
    15
100
AcDbLine
 10
1034.1333942538
 20
705.536880295
 30
0.0
 11
1022.8916304236
 21
705.536880295
 31
0.0
  0
LINE
  5
2E9
330
1F
100
AcDbEntity
  8
0
  6
Continuous
 62
     7
370
    15
100
AcDbLine
 10
1034.1333942538
 20
705.536880295
 30
0.0
 11
1034.1333942538
 21
694.9302635595
 31
0.0
  0
LINE
  5
2EA
330
1F
100
AcDbEntity
  8
0
  6
Continuous
 62
     7
370
    15
100
AcDbLine
 10
1034.1333942538
 20
694.9302635595
 30
0.0
 11
1024.3426011926
 21
694.9302635595
 31
0.0
  0
LINE
  5
2EB
330
1F
100
AcDbEntity
  8
0
  6
Continuous
 62
     7
370
    15
100
AcDbLine
 10
1073.8457338935
 20
762.1054134771
 30
0.0
 11
1073.8457338935
 21
751.4987967417
 31
0.0
  0
LINE
  5
2EC
330
1F
100
AcDbEntity
  8
0
  6
Continuous
 62
     7
370
    15
100
AcDbLine
 10
1073.8457338935
 20
751.4987967417
 30
0.0
 11
1034.1333942538
 21
694.9302635595
 31
0.0
  0
ARC
  5
2ED
330
1F
100
AcDbEntity
  8
0
  6
Continuous
 62
     7
370
    15
100
AcDbCircle
 10
664.3069226054
 20
914.0531016735
 30
0.0
 40
50.38549857268811
100
AcDbArc
 50
130.1099391615
 51
167.2323825064
  0
LWPOLYLINE
  5
2EE
330
1F
100
AcDbEntity
  8
0
  6
Continuous
 62
     7
370
    15
100
AcDbPolyline
 90
       30
 70
   128
 43
0.0
 10
637.2570889121
 20
956.9132111475
 10
637.8007875806
 20
957.3016546175
 10
639.4097553616
 20
958.4086320803
 10
641.062011016
 20
959.4832442209
 10
642.7562581425
 20
960.5246565745
 10
644.4911556369
 20
961.5320942804
 10
646.2653474932
 20
962.5046632692
 10
648.0774330025
 20
963.4416482851
 10
649.9259965545
 20
964.3423340723
 10
651.809562934
 20
965.2059457705
 10
653.7266569262
 20
966.0318873331
 10
655.6757735139
 20
966.8194435045
 10
657.6553629762
 20
967.5680182383
 10
659.6638904935
 20
968.2770750925
 10
661.699754191
 20
968.9459584162
 10
663.7613670951
 20
969.5741913721
 10
665.847090078
 20
970.1612375185
 10
667.9552840119
 20
970.7067392275
 10
670.0842948681
 20
971.2101600573
 10
672.2324462658
 20
971.67114238
 10
674.3980469232
 20
972.0893285677
 10
676.5793832069
 20
972.4643609926
 10
678.7747489339
 20
972.7960012362
 10
680.9824006682
 20
973.0839512751
 10
683.2006173259
 20
973.3279726908
 10
685.4276405698
 20
973.5278866694
 10
687.6617195135
 20
973.6835740015
 10
689.90109582
 20
973.7947962687
 10
692.1440037018
 20
973.8616130755
 10
694.3886848217
 20
973.8839052126
  0
LINE
  5
2EF
330
1F
100
AcDbEntity
  8
0
  6
Continuous
 62
     7
370
    15
100
AcDbLine
 10
694.3886848217
 20
973.8839052126
 30
0.0
 11
877.3028077608
 21
973.8839052126
 31
0.0
  0
LWPOLYLINE
  5
2F0
330
1F
100
AcDbEntity
  8
0
  6
Continuous
 62
     7
370
    15
100
AcDbPolyline
 90
       30
 70
   128
 43
0.0
 10
877.3028077608
 20
973.8839052126
 10
879.5474888807
 20
973.8616130755
 10
881.7903967624
 20
973.7947962687
 10
884.029773069
 20
973.6835740015
 10
886.2638520127
 20
973.5278866694
 10
888.4908752566
 20
973.3279726908
 10
890.7090919143
 20
973.0839512751
 10
892.9167436486
 20
972.7960012362
 10
895.1121093756
 20
972.4643609926
 10
897.2934456592
 20
972.0893285677
 10
899.4590463167
 20
971.67114238
 10
901.6071977144
 20
971.2101600573
 10
903.7362085706
 20
970.7067392275
 10
905.8444025045
 20
970.1612375185
 10
907.9301254874
 20
969.5741913721
 10
909.9917383915
 20
968.9459584162
 10
912.027602089
 20
968.2770750925
 10
914.0361296063
 20
967.5680182383
 10
916.0157190686
 20
966.8194435045
 10
917.9648356562
 20
966.0318873331
 10
919.8819296485
 20
965.2059457705
 10
921.765496028
 20
964.3423340723
 10
923.6140595799
 20
963.4416482851
 10
925.4261450892
 20
962.5046632692
 10
927.2003369456
 20
961.5320942804
 10
928.9352344399
 20
960.5246565745
 10
930.6294815665
 20
959.4832442209
 10
932.2817372208
 20
958.4086320803
 10
933.8907050019
 20
957.3016546175
 10
934.4344036704
 20
956.9132111475
  0
ARC
  5
2F1
330
1F
100
AcDbEntity
  8
0
  6
Continuous
 62
     7
370
    15
100
AcDbCircle
 10
907.3845699771
 20
914.0531016735
 30
0.0
 40
50.385498572688
100
AcDbArc
 50
12.7676174936
 51
49.8900608385
  0
LINE
  5
2F2
330
1F
100
AcDbEntity
  8
0
  6
Continuous
 62
     7
370
    15
100
AcDbLine
 10
956.5242575532
 20
925.1881621287
 30
0.0
 11
963.7820022231
 21
888.6720619604
 31
0.0
  0
LINE
  5
2F3
330
1F
100
AcDbEntity
  8
0
  6
Continuous
 62
     7
370
    15
100
AcDbLine
 10
607.9094903594
 20
888.6720619604
 30
0.0
 11
615.1672350293
 21
925.1881621287
 31
0.0
  0
LINE
  5
2F4
330
1F
100
AcDbEntity
  8
0
  6
Continuous
 62
     7
370
    15
100
AcDbLine
 10
537.5580983287
 20
662.4033532545
 30
0.0
 11
537.5580983287
 21
673.00996999
 31
0.0
  0
LINE
  5
2F5
330
1F
100
AcDbEntity
  8
0
  6
Continuous
 62
     7
370
    15
100
AcDbLine
 10
497.845758689
 20
718.9718864367
 30
0.0
 11
537.5580983287
 21
662.4033532545
 31
0.0
  0
LINE
  5
2F6
330
1F
100
AcDbEntity
  8
0
  6
Continuous
 62
     7
370
    15
100
AcDbLine
 10
497.845758689
 20
718.9718864367
 30
0.0
 11
497.845758689
 21
729.5785031721
 31
0.0
  0
LINE
  5
2F7
330
1F
100
AcDbEntity
  8
0
  6
Continuous
 62
     7
370
    15
100
AcDbLine
 10
497.845758689
 20
729.5785031721
 30
0.0
 11
537.5580983287
 21
673.00996999
 31
0.0
  0
LINE
  5
2F8
330
1F
100
AcDbEntity
  8
0
  6
Continuous
 62
     7
370
    15
100
AcDbLine
 10
537.5580983287
 20
673.00996999
 30
0.0
 11
546.8457536822
 21
673.00996999
 31
0.0
  0
LINE
  5
2F9
330
1F
100
AcDbEntity
  8
0
  6
Continuous
 62
     7
370
    15
100
AcDbLine
 10
513.2342772609
 20
729.5785031721
 30
0.0
 11
497.845758689
 21
729.5785031721
 31
0.0
  0
LINE
  5
2FA
330
1F
100
AcDbEntity
  8
0
  6
Continuous
 62
     7
370
    15
100
AcDbLine
 10
537.5580983287
 20
662.4033532545
 30
0.0
 11
546.8457536822
 21
662.4033532545
 31
0.0
  0
LINE
  5
2FB
330
1F
100
AcDbEntity
  8
0
  6
Continuous
 62
     7
370
    15
100
AcDbLine
 10
1058.4572153216
 20
729.5785031721
 30
0.0
 11
1073.8457338935
 21
729.5785031721
 31
0.0
  0
LINE
  5
2FC
330
1F
100
AcDbEntity
  8
0
  6
Continuous
 62
     7
370
    15
100
AcDbLine
 10
1073.8457338935
 20
729.5785031721
 30
0.0
 11
1034.1333942538
 21
673.00996999
 31
0.0
  0
LINE
  5
2FD
330
1F
100
AcDbEntity
  8
0
  6
Continuous
 62
     7
370
    15
100
AcDbLine
 10
1034.1333942538
 20
673.00996999
 30
0.0
 11
1024.8457389003
 21
673.00996999
 31
0.0
  0
LINE
  5
2FE
330
1F
100
AcDbEntity
  8
0
  6
Continuous
 62
     7
370
    15
100
AcDbLine
 10
1034.1333942538
 20
662.4033532545
 30
0.0
 11
1034.1333942538
 21
673.00996999
 31
0.0
  0
LINE
  5
2FF
330
1F
100
AcDbEntity
  8
0
  6
Continuous
 62
     7
370
    15
100
AcDbLine
 10
1034.1333942538
 20
662.4033532545
 30
0.0
 11
1024.8457389003
 21
662.4033532545
 31
0.0
  0
LINE
  5
300
330
1F
100
AcDbEntity
  8
0
  6
Continuous
 62
     7
370
    15
100
AcDbLine
 10
1073.8457338935
 20
718.9718864367
 30
0.0
 11
1073.8457338935
 21
729.5785031721
 31
0.0
  0
LINE
  5
301
330
1F
100
AcDbEntity
  8
0
  6
Continuous
 62
     7
370
    15
100
AcDbLine
 10
1073.8457338935
 20
718.9718864367
 30
0.0
 11
1034.1333942538
 21
662.4033532545
 31
0.0
  0
LINE
  5
302
330
1F
100
AcDbEntity
  8
0
  6
Continuous
 62
     7
370
    15
100
AcDbLine
 10
497.845758689
 20
762.1054134771
 30
0.0
 11
497.845758689
 21
762.4589584276
 31
0.0
  0
LINE
  5
303
330
1F
100
AcDbEntity
  8
0
  6
Continuous
 62
     7
370
    15
100
AcDbLine
 10
497.845758689
 20
762.4589584276
 30
0.0
 11
546.3237511044
 21
763.656028311
 31
0.0
  0
LINE
  5
304
330
1F
100
AcDbEntity
  8
0
  6
Continuous
 62
     7
370
    15
100
AcDbLine
 10
497.845758689
 20
762.4589584276
 30
0.0
 11
497.845758689
 21
775.1868746683
 31
0.0
  0
LINE
  5
305
330
1F
100
AcDbEntity
  8
0
  6
Continuous
 62
     7
370
    15
100
AcDbLine
 10
497.845758689
 20
775.1868746683
 30
0.0
 11
545.2807443267
 21
776.3581953451
 31
0.0
  0
LINE
  5
306
330
1F
100
AcDbEntity
  8
0
  6
Continuous
 62
     7
370
    15
100
AcDbLine
 10
1073.8457338935
 20
762.4589584276
 30
0.0
 11
1025.367741478
 21
763.656028311
 31
0.0
  0
LINE
  5
307
330
1F
100
AcDbEntity
  8
0
  6
Continuous
 62
     7
370
    15
100
AcDbLine
 10
1073.8457338935
 20
762.1054134771
 30
0.0
 11
1073.8457338935
 21
762.4589584276
 31
0.0
  0
LINE
  5
308
330
1F
100
AcDbEntity
  8
0
  6
Continuous
 62
     7
370
    15
100
AcDbLine
 10
1073.8457338935
 20
775.1868746683
 30
0.0
 11
1026.4107482558
 21
776.3581953451
 31
0.0
  0
LINE
  5
309
330
1F
100
AcDbEntity
  8
0
  6
Continuous
 62
     7
370
    15
100
AcDbLine
 10
1073.8457338935
 20
762.4589584276
 30
0.0
 11
1073.8457338935
 21
775.1868746683
 31
0.0
  0
LINE
  5
30A
330
1F
100
AcDbEntity
  8
0
  6
Continuous
 62
     7
370
    15
100
AcDbLine
 10
497.845758689
 20
729.5785031721
 30
0.0
 11
497.845758689
 21
732.4069223807
 31
0.0
  0
LINE
  5
30B
330
1F
100
AcDbEntity
  8
0
  6
Continuous
 62
     7
370
    15
100
AcDbLine
 10
497.845758689
 20
732.4069223807
 30
0.0
 11
511.2486677295
 21
732.4069223807
 31
0.0
  0
LINE
  5
30C
330
1F
100
AcDbEntity
  8
0
  6
Continuous
 62
     7
370
    15
100
AcDbLine
 10
499.8313682204
 20
748.6703775332
 30
0.0
 11
497.845758689
 21
748.6703775332
 31
0.0
  0
LINE
  5
30D
330
1F
100
AcDbEntity
  8
0
  6
Continuous
 62
     7
370
    15
100
AcDbLine
 10
497.845758689
 20
748.6703775332
 30
0.0
 11
497.845758689
 21
751.4987967417
 31
0.0
  0
LINE
  5
30E
330
1F
100
AcDbEntity
  8
0
  6
Continuous
 62
     7
370
    15
100
AcDbLine
 10
1071.8601243621
 20
748.6703775332
 30
0.0
 11
1073.8457338935
 21
748.6703775332
 31
0.0
  0
LINE
  5
30F
330
1F
100
AcDbEntity
  8
0
  6
Continuous
 62
     7
370
    15
100
AcDbLine
 10
1073.8457338935
 20
732.4069223807
 30
0.0
 11
1060.442824853
 21
732.4069223807
 31
0.0
  0
LINE
  5
310
330
1F
100
AcDbEntity
  8
0
  6
Continuous
 62
     7
370
    15
100
AcDbLine
 10
1073.8457338935
 20
729.5785031721
 30
0.0
 11
1073.8457338935
 21
732.4069223807
 31
0.0
  0
LINE
  5
311
330
1F
100
AcDbEntity
  8
0
  6
Continuous
 62
     7
370
    15
100
AcDbLine
 10
1073.8457338935
 20
748.6703775332
 30
0.0
 11
1073.8457338935
 21
751.4987967417
 31
0.0
  0
LINE
  5
312
330
1F
100
AcDbEntity
  8
0
  6
Continuous
 62
     7
370
    15
100
AcDbLine
 10
544.8312209969
 20
778.0153236792
 30
0.0
 11
497.845758689
 21
778.0153236792
 31
0.0
  0
LINE
  5
313
330
1F
100
AcDbEntity
  8
0
  6
Continuous
 62
     7
370
    15
100
AcDbLine
 10
497.845758689
 20
745.1348386213
 30
0.0
 11
497.845758689
 21
748.6703775332
 31
0.0
  0
LINE
  5
314
330
1F
100
AcDbEntity
  8
0
  6
Continuous
 62
     7
370
    15
100
AcDbLine
 10
497.845758689
 20
775.1868746683
 30
0.0
 11
497.845758689
 21
778.0153236792
 31
0.0
  0
LINE
  5
315
330
1F
100
AcDbEntity
  8
0
  6
Continuous
 62
     7
370
    15
100
AcDbLine
 10
497.845758689
 20
797.3913631842
 30
0.0
 11
544.9988441592
 21
794.4742820665
 31
0.0
  0
LINE
  5
316
330
1F
100
AcDbEntity
  8
0
  6
Continuous
 62
     7
370
    15
100
AcDbLine
 10
497.845758689
 20
778.0153236792
 30
0.0
 11
497.845758689
 21
797.3913631842
 31
0.0
  0
LINE
  5
317
330
1F
100
AcDbEntity
  8
0
  6
Continuous
 62
     7
370
    15
100
AcDbLine
 10
1073.8457338935
 20
778.0153236792
 30
0.0
 11
1073.8457338935
 21
797.3913631842
 31
0.0
  0
LINE
  5
318
330
1F
100
AcDbEntity
  8
0
  6
Continuous
 62
     7
370
    15
100
AcDbLine
 10
1026.8602715855
 20
778.0153236792
 30
0.0
 11
1073.8457338935
 21
778.0153236792
 31
0.0
  0
LINE
  5
319
330
1F
100
AcDbEntity
  8
0
  6
Continuous
 62
     7
370
    15
100
AcDbLine
 10
1073.8457338935
 20
797.3913631842
 30
0.0
 11
1026.6926484233
 21
794.4742820665
 31
0.0
  0
LINE
  5
31A
330
1F
100
AcDbEntity
  8
0
  6
Continuous
 62
     7
370
    15
100
AcDbLine
 10
1073.8457338935
 20
745.1348386213
 30
0.0
 11
1073.8457338935
 21
748.6703775332
 31
0.0
  0
LINE
  5
31B
330
1F
100
AcDbEntity
  8
0
  6
Continuous
 62
     7
370
    15
100
AcDbLine
 10
1073.8457338935
 20
775.1868746683
 30
0.0
 11
1073.8457338935
 21
778.0153236792
 31
0.0
  0
LINE
  5
31C
330
1F
100
AcDbEntity
  8
0
  6
Continuous
 62
     7
370
    15
100
AcDbLine
 10
497.845758689
 20
732.4069223807
 30
0.0
 11
497.845758689
 21
745.1348386213
 31
0.0
  0
LINE
  5
31D
330
1F
100
AcDbEntity
  8
0
  6
Continuous
 62
     7
370
    15
100
AcDbLine
 10
497.845758689
 20
745.1348386213
 30
0.0
 11
502.3133950358
 21
745.1348386213
 31
0.0
  0
LINE
  5
31E
330
1F
100
AcDbEntity
  8
0
  6
Continuous
 62
     7
370
    15
100
AcDbLine
 10
1073.8457338935
 20
732.4069223807
 30
0.0
 11
1073.8457338935
 21
745.1348386213
 31
0.0
  0
LINE
  5
31F
330
1F
100
AcDbEntity
  8
0
  6
Continuous
 62
     7
370
    15
100
AcDbLine
 10
1073.8457338935
 20
745.1348386213
 30
0.0
 11
1069.3780975467
 21
745.1348386213
 31
0.0
  0
LINE
  5
320
330
1F
100
AcDbEntity
  8
0
  6
Continuous
 62
     7
370
    15
100
AcDbLine
 10
498.0983333712
 20
718.6121128008
 30
0.0
 11
497.845758689
 21
718.6183414862
 31
0.0
  0
LINE
  5
321
330
1F
100
AcDbEntity
  8
0
  6
Continuous
 62
     7
370
    15
100
AcDbLine
 10
497.845758689
 20
718.6183414862
 30
0.0
 11
497.845758689
 21
718.9718864367
 31
0.0
  0
LINE
  5
322
330
1F
100
AcDbEntity
  8
0
  6
Continuous
 62
     7
370
    15
100
AcDbLine
 10
1073.5931592112
 20
718.6121128008
 30
0.0
 11
1073.8457338935
 21
718.6183414862
 31
0.0
  0
LINE
  5
323
330
1F
100
AcDbEntity
  8
0
  6
Continuous
 62
     7
370
    15
100
AcDbLine
 10
1073.8457338935
 20
718.6183414862
 30
0.0
 11
1073.8457338935
 21
718.9718864367
 31
0.0
  0
LWPOLYLINE
  5
324
330
1F
100
AcDbEntity
  8
0
  6
Continuous
 62
     8
370
     0
100
AcDbPolyline
 90
       56
 70
   128
 43
0.0
 10
660.764743579
 20
850.4223606989
 10
657.4782030707
 20
848.9689610407
 10
654.2254434949
 20
847.4780700609
 10
651.0073142176
 20
845.9500751898
 10
647.8246497041
 20
844.3853638575
 10
644.6782844191
 20
842.7843830988
 10
641.5690528279
 20
841.1474905417
 10
638.4977893954
 20
839.4751928255
 10
635.465268982
 20
837.7678773806
 10
632.4723111516
 20
836.026021044
 10
629.5197056657
 20
834.2500708506
 10
626.6082273846
 20
832.4404738352
 10
623.7386213666
 20
830.5977366373
 10
620.9116624718
 20
828.7223360941
 10
618.1280957585
 20
826.8147490427
 10
615.3886513835
 20
824.8755119249
 10
612.6940446025
 20
822.905101578
 10
610.0449757701
 20
820.9040246412
 10
607.442160142
 20
818.8728771612
 10
604.8862831717
 20
816.8121061728
 10
602.3780005103
 20
814.7223375246
 10
599.9179678088
 20
812.6040480539
 10
597.5068556195
 20
810.4578338072
 10
595.1452897912
 20
808.2842312262
 10
592.8338812714
 20
806.0838661596
 10
590.573255909
 20
803.8572452471
 10
588.3639948493
 20
801.6050241396
 10
586.2066792374
 20
799.327739279
 10
584.1018753176
 20
797.0260463164
 10
582.050149334
 20
794.7004816935
 10
580.0520228272
 20
792.3517010615
 10
578.108032239
 20
789.9803302691
 10
576.2186991101
 20
787.5869653628
 10
574.3845002776
 20
785.1722619936
 10
572.6059274798
 20
782.7368162081
 10
570.8834575539
 20
780.2813134596
 10
569.2175226336
 20
777.8063795969
 10
567.6085846549
 20
775.3126702711
 10
566.0570459491
 20
772.800811331
 10
564.5633237487
 20
770.2715180323
 10
563.1278203851
 20
767.7254162237
 10
561.7508934861
 20
765.1631913588
 10
560.432930482
 20
762.5854990885
 10
559.1742442971
 20
759.9930546686
 10
557.9751925593
 20
757.386483948
 10
556.836088193
 20
754.7665319845
 10
555.7572143203
 20
752.1338544294
 10
554.7388838654
 20
749.4891367361
 10
553.7813352471
 20
746.8330941603
 10
552.8848366862
 20
744.1664419577
 10
552.0496117001
 20
741.4898357794
 10
551.2758987075
 20
738.8040206835
 10
550.5638914233
 20
736.1096523211
 10
549.9137686616
 20
733.4075055525
 10
549.3257092362
 20
730.6982658312
 10
548.7998621589
 20
727.9826186106
  0
LWPOLYLINE
  5
325
330
1F
100
AcDbEntity
  8
0
  6
Continuous
 62
     8
370
     0
100
AcDbPolyline
 90
       56
 70
   128
 43
0.0
 10
910.9267490035
 20
850.4223606989
 10
914.2132895118
 20
848.9689610407
 10
917.4660490876
 20
847.4780700609
 10
920.6841783648
 20
845.9500751898
 10
923.8668428784
 20
844.3853638575
 10
927.0132081633
 20
842.7843830988
 10
930.1224397546
 20
841.1474905417
 10
933.1937031871
 20
839.4751928255
 10
936.2262236005
 20
837.7678773806
 10
939.2191814309
 20
836.026021044
 10
942.1717869168
 20
834.2500708506
 10
945.0832651978
 20
832.4404738352
 10
947.9528712159
 20
830.5977366373
 10
950.7798301106
 20
828.7223360941
 10
953.563396824
 20
826.8147490427
 10
956.302841199
 20
824.8755119249
 10
958.99744798
 20
822.905101578
 10
961.6465168124
 20
820.9040246412
 10
964.2493324405
 20
818.8728771612
 10
966.8052094107
 20
816.8121061728
 10
969.3134920722
 20
814.7223375246
 10
971.7735247737
 20
812.6040480539
 10
974.184636963
 20
810.4578338072
 10
976.5462027913
 20
808.2842312262
 10
978.857611311
 20
806.0838661596
 10
981.1182366734
 20
803.8572452471
 10
983.3274977332
 20
801.6050241396
 10
985.484813345
 20
799.327739279
 10
987.5896172648
 20
797.0260463164
 10
989.6413432484
 20
794.7004816935
 10
991.6394697552
 20
792.3517010615
 10
993.5834603434
 20
789.9803302691
 10
995.4727934724
 20
787.5869653628
 10
997.3069923049
 20
785.1722619936
 10
999.0855651027
 20
782.7368162081
 10
1000.8080350285
 20
780.2813134596
 10
1002.4739699488
 20
777.8063795969
 10
1004.0829079276
 20
775.3126702711
 10
1005.6344466334
 20
772.800811331
 10
1007.1281688338
 20
770.2715180323
 10
1008.5636721974
 20
767.7254162237
 10
1009.9405990964
 20
765.1631913588
 10
1011.2585621005
 20
762.5854990885
 10
1012.5172482854
 20
759.9930546686
 10
1013.7163000232
 20
757.386483948
 10
1014.8554043895
 20
754.7665319845
 10
1015.9342782622
 20
752.1338544294
 10
1016.952608717
 20
749.4891367361
 10
1017.9101573354
 20
746.8330941603
 10
1018.8066558963
 20
744.1664419577
 10
1019.6418808823
 20
741.4898357794
 10
1020.415593875
 20
738.8040206835
 10
1021.1276011592
 20
736.1096523211
 10
1021.7777239209
 20
733.4075055525
 10
1022.3657833463
 20
730.6982658312
 10
1022.8916304236
 20
727.9826186106
  0
LWPOLYLINE
  5
326
330
1F
100
AcDbEntity
  8
0
  6
Continuous
 62
     8
370
     0
100
AcDbPolyline
 90
       56
 70
   128
 43
0.0
 10
548.7850802069
 20
728.3456705019
 10
549.3101822263
 20
731.0578010485
 10
549.8973177796
 20
733.7635837004
 10
550.5463527566
 20
736.4622733996
 10
551.2571381455
 20
739.1531846926
 10
552.029450429
 20
741.8356023237
 10
552.863095892
 20
744.5088408396
 10
553.7578808194
 20
747.1721551821
 10
554.7135369902
 20
749.8248897001
 10
555.7298408871
 20
752.4662993357
 10
556.806509388
 20
755.0957582399
 10
557.9432593709
 20
757.7125213549
 10
559.1398077136
 20
760.3159330294
 10
560.3958265906
 20
762.90530781
 10
561.7109881764
 20
765.4799304411
 10
563.0849646455
 20
768.0391750738
 10
564.5173685675
 20
770.5823562548
 10
566.0078423148
 20
773.1087587282
 10
567.5559835559
 20
775.6177864477
 10
569.1613899594
 20
778.1087539599
 10
570.8236442929
 20
780.5810354159
 10
572.5423144227
 20
783.03391556
 10
574.3169384127
 20
785.4667983458
 10
576.1470543271
 20
787.8790579245
 10
578.0321853286
 20
790.2700088427
 10
579.9718247777
 20
792.6390848562
 10
581.9654958373
 20
794.9856303141
 10
584.0126322633
 20
797.3090193674
 10
586.1127274161
 20
799.6086857721
 10
588.2652299529
 20
801.8839738772
 10
590.4695587283
 20
804.1343174383
 10
592.725132597
 20
806.3591204092
 10
595.031385315
 20
808.5578165457
 10
597.3876910334
 20
810.729779999
 10
599.7934388047
 20
812.8745041296
 10
602.24800278
 20
814.9913630888
 10
604.7507273083
 20
817.0798502371
 10
607.3009567385
 20
819.1393993303
 10
609.8980354195
 20
821.1694739267
 10
612.5412629967
 20
823.1695375845
 10
615.2299540168
 20
825.1390836641
 10
617.963408125
 20
827.0775459215
 10
620.7409100657
 20
828.9844773218
 10
623.561729682
 20
830.8593414232
 10
626.4251219159
 20
832.7016315863
 10
629.3303268081
 20
834.5109305784
 10
632.2765993005
 20
836.2866721556
 10
635.2631645327
 20
838.0284688875
 10
638.2892178422
 20
839.7358141348
 10
641.3539992696
 20
841.4082906649
 10
644.4566743499
 20
843.0454514429
 10
647.5964533215
 20
844.6468494341
 10
650.7725017196
 20
846.2120972082
 10
653.9839701777
 20
847.7407477305
 10
657.2300540334
 20
849.2324433729
 10
660.5098592168
 20
850.6867371008
  0
LWPOLYLINE
  5
327
330
1F
100
AcDbEntity
  8
0
  6
Continuous
 62
     8
370
     0
100
AcDbPolyline
 90
       56
 70
   128
 43
0.0
 10
1022.9064123755
 20
728.3456705019
 10
1022.3813103562
 20
731.0578010485
 10
1021.7941748029
 20
733.7635837004
 10
1021.1451398259
 20
736.4622733996
 10
1020.434354437
 20
739.1531846926
 10
1019.6620421534
 20
741.8356023237
 10
1018.8283966904
 20
744.5088408396
 10
1017.9336117631
 20
747.1721551821
 10
1016.9779555922
 20
749.8248897001
 10
1015.9616516953
 20
752.4662993357
 10
1014.8849831944
 20
755.0957582399
 10
1013.7482332116
 20
757.7125213549
 10
1012.5516848689
 20
760.3159330294
 10
1011.2956659919
 20
762.90530781
 10
1009.9805044061
 20
765.4799304411
 10
1008.606527937
 20
768.0391750738
 10
1007.1741240149
 20
770.5823562548
 10
1005.6836502677
 20
773.1087587282
 10
1004.1355090266
 20
775.6177864477
 10
1002.5301026231
 20
778.1087539599
 10
1000.8678482896
 20
780.5810354159
 10
999.1491781598
 20
783.03391556
 10
997.3745541697
 20
785.4667983458
 10
995.5444382554
 20
787.8790579245
 10
993.6593072539
 20
790.2700088427
 10
991.7196678048
 20
792.6390848562
 10
989.7259967452
 20
794.9856303141
 10
987.6788603192
 20
797.3090193674
 10
985.5787651664
 20
799.6086857721
 10
983.4262626296
 20
801.8839738772
 10
981.2219338542
 20
804.1343174383
 10
978.9663599854
 20
806.3591204092
 10
976.6601072675
 20
808.5578165457
 10
974.303801549
 20
810.729779999
 10
971.8980537778
 20
812.8745041296
 10
969.4434898024
 20
814.9913630888
 10
966.9407652741
 20
817.0798502371
 10
964.3905358439
 20
819.1393993303
 10
961.7934571629
 20
821.1694739267
 10
959.1502295857
 20
823.1695375845
 10
956.4615385657
 20
825.1390836641
 10
953.7280844575
 20
827.0775459215
 10
950.9505825167
 20
828.9844773218
 10
948.1297629004
 20
830.8593414232
 10
945.2663706666
 20
832.7016315863
 10
942.3611657744
 20
834.5109305784
 10
939.414893282
 20
836.2866721556
 10
936.4283280497
 20
838.0284688875
 10
933.4022747403
 20
839.7358141348
 10
930.3374933129
 20
841.4082906649
 10
927.2348182326
 20
843.0454514429
 10
924.0950392609
 20
844.6468494341
 10
920.9189908629
 20
846.2120972082
 10
917.7075224047
 20
847.7407477305
 10
914.4614385491
 20
849.2324433729
 10
911.1816333657
 20
850.6867371008
  0
INSERT
  5
333
330
1F
100
AcDbEntity
  8
FORMAT
100
AcDbBlockReference
  2
SW_CENTERMARKSYMBOL_0
 10
785.8457462912
 20
392.6421187327
 30
0.0
  0
ENDSEC
  0
SECTION
  2
OBJECTS
  0
DICTIONARY
  5
C
330
0
100
AcDbDictionary
281
     1
  3
ACAD_GROUP
350
D
  3
ACAD_LAYOUT
350
1A
  3
ACAD_MLINESTYLE
350
17
  3
ACAD_PLOTSETTINGS
350
19
  3
ACAD_PLOTSTYLENAME
350
E
  0
DICTIONARY
  5
D
102
{ACAD_REACTORS
330
C
102
}
330
C
100
AcDbDictionary
281
     1
  0
DICTIONARY
  5
1A
102
{ACAD_REACTORS
330
C
102
}
330
C
100
AcDbDictionary
281
     1
  3
Layout1
350
1E
  3
Layout2
350
26
  3
Model
350
22
  0
DICTIONARY
  5
17
102
{ACAD_REACTORS
330
C
102
}
330
C
100
AcDbDictionary
281
     1
  3
Standard
350
18
  0
DICTIONARY
  5
19
102
{ACAD_REACTORS
330
C
102
}
330
C
100
AcDbDictionary
281
     1
  0
ACDBDICTIONARYWDFLT
  5
E
102
{ACAD_REACTORS
330
C
102
}
330
C
100
AcDbDictionary
281
     1
  3
Normal
350
F
100
AcDbDictionaryWithDefault
340
F
  0
LAYOUT
  5
1E
102
{ACAD_REACTORS
330
1A
102
}
330
1A
100
AcDbPlotSettings
  1

  2
none_device
  4

  6

 40
0.0
 41
0.0
 42
0.0
 43
0.0
 44
0.0
 45
0.0
 46
0.0
 47
0.0
 48
0.0
 49
0.0
140
0.0
141
0.0
142
1.0
143
1.0
 70
   688
 72
     0
 73
     0
 74
     5
  7

 75
    16
147
1.0
148
0.0
149
0.0
100
AcDbLayout
  1
Layout1
 70
     1
 71
     1
 10
0.0
 20
0.0
 11
420.0
 21
297.0
 12
0.0
 22
0.0
 32
0.0
 14
1.0000000000E+20
 24
1.0000000000E+20
 34
1.0000000000E+20
 15
-1.0000000000E+20
 25
-1.0000000000E+20
 35
-1.0000000000E+20
146
0.0
 13
0.0
 23
0.0
 33
0.0
 16
1.0
 26
0.0
 36
0.0
 17
0.0
 27
1.0
 37
0.0
 76
     0
330
1B
  0
LAYOUT
  5
26
102
{ACAD_REACTORS
330
1A
102
}
330
1A
100
AcDbPlotSettings
  1

  2
none_device
  4

  6

 40
0.0
 41
0.0
 42
0.0
 43
0.0
 44
0.0
 45
0.0
 46
0.0
 47
0.0
 48
0.0
 49
0.0
140
0.0
141
0.0
142
1.0
143
1.0
 70
   688
 72
     0
 73
     0
 74
     5
  7

 75
    16
147
1.0
148
0.0
149
0.0
100
AcDbLayout
  1
Layout2
 70
     1
 71
     2
 10
0.0
 20
0.0
 11
0.0
 21
0.0
 12
0.0
 22
0.0
 32
0.0
 14
0.0
 24
0.0
 34
0.0
 15
0.0
 25
0.0
 35
0.0
146
0.0
 13
0.0
 23
0.0
 33
0.0
 16
1.0
 26
0.0
 36
0.0
 17
0.0
 27
1.0
 37
0.0
 76
     0
330
23
  0
LAYOUT
  5
22
102
{ACAD_REACTORS
330
1A
102
}
330
1A
100
AcDbPlotSettings
  1

  2
none_device
  4

  6

 40
0.0
 41
0.0
 42
0.0
 43
0.0
 44
0.0
 45
0.0
 46
0.0
 47
0.0
 48
0.0
 49
0.0
140
0.0
141
0.0
142
1.0
143
1.0
 70
  1712
 72
     0
 73
     0
 74
     0
  7

 75
     0
147
1.0
148
0.0
149
0.0
100
AcDbLayout
  1
Model
 70
     1
 71
     0
 10
0.0
 20
0.0
 11
841.0
 21
594.0
 12
0.0
 22
0.0
 32
0.0
 14
0.0
 24
0.0
 34
0.0
 15
841.0
 25
594.0
 35
0.0
146
0.0
 13
0.0
 23
0.0
 33
0.0
 16
1.0
 26
0.0
 36
0.0
 17
0.0
 27
1.0
 37
0.0
 76
     0
330
1F
331
29
  0
MLINESTYLE
  5
18
102
{ACAD_REACTORS
330
17
102
}
330
17
100
AcDbMlineStyle
  2
Standard
 70
     0
  3

 62
   256
 51
90.0
 52
90.0
 71
     2
 49
0.5
 62
   256
  6
BYLAYER
 49
-0.5
 62
   256
  6
BYLAYER
  0
ACDBPLACEHOLDER
  5
F
102
{ACAD_REACTORS
330
E
102
}
330
E
  0
ENDSEC
  0
EOF
