ISO-10303-21;
HEADER;
FILE_DESCRIPTION (( 'STEP AP203' ),
    '1' );
FILE_NAME ('0507553000 outline drawing.STEP',
    '2014-06-27T07:34:02',
    ( '' ),
    ( '' ),
    'SwSTEP 2.0',
    'SolidWorks 2012',
    '' );
FILE_SCHEMA (( 'CONFIG_CONTROL_DESIGN' ));
ENDSEC;

DATA;
#1 = PRODUCT ( '0507553000 outline drawing', '0507553000 outline drawing', '', ( #194 ) ) ;
#2 = PERSON ( 'UNSPECIFIED', 'UNSPECIFIED', 'UNSPECIFIED', ('UNSPECIFIED'), ('UNSPECIFIED'), ('UNSPECIFIED') ) ;
#3 = CC_DESIGN_APPROVAL ( #7, ( #17 ) ) ;
#4 = CC_DESIGN_DATE_AND_TIME_ASSIGNMENT ( #316, #145, ( #29 ) ) ;
#5 = PRODUCT_RELATED_PRODUCT_CATEGORY ( 'detail', '', ( #1 ) ) ;
#6 = EDGE_CURVE ( 'NONE', #352, #352, #320, .T. ) ;
#7 = APPROVAL ( #199, 'UNSPECIFIED' ) ;
#8 = AXIS2_PLACEMENT_3D ( 'NONE', #143, #148, #151 ) ;
#9 = EDGE_CURVE ( 'NONE', #275, #338, #253, .T. ) ;
#10 = EDGE_CURVE ( 'NONE', #338, #275, #241, .T. ) ;
#11 = CC_DESIGN_DATE_AND_TIME_ASSIGNMENT ( #260, #129, ( #53 ) ) ;
#12 = EDGE_CURVE ( 'NONE', #358, #328, #268, .T. ) ;
#13 = EDGE_CURVE ( 'NONE', #357, #357, #355, .T. ) ;
#14 = CC_DESIGN_PERSON_AND_ORGANIZATION_ASSIGNMENT ( #279, #126, ( #1 ) ) ;
#15 = AXIS2_PLACEMENT_3D ( 'NONE', #161, #180, #184 ) ;
#16 = AXIS2_PLACEMENT_3D ( 'NONE', #159, #171, #172 ) ;
#17 = PRODUCT_DEFINITION_FORMATION_WITH_SPECIFIED_SOURCE ( 'ANY', '', #1, .NOT_KNOWN. ) ;
#18 = AXIS2_PLACEMENT_3D ( 'NONE', #120, #187, #155 ) ;
#19 = AXIS2_PLACEMENT_3D ( 'NONE', #82, #83, #79 ) ;
#20 = AXIS2_PLACEMENT_3D ( 'NONE', #95, #87, #113 ) ;
#21 = EDGE_CURVE ( 'NONE', #334, #334, #312, .T. ) ;
#22 = AXIS2_PLACEMENT_3D ( 'NONE', #86, #94, #99 ) ;
#23 = AXIS2_PLACEMENT_3D ( 'NONE', #108, #102, #101 ) ;
#24 = APPROVAL ( #156, 'UNSPECIFIED' ) ;
#25 = AXIS2_PLACEMENT_3D ( 'NONE', #96, #70, #114 ) ;
#26 = CC_DESIGN_PERSON_AND_ORGANIZATION_ASSIGNMENT ( #297, #142, ( #53 ) ) ;
#27 =( GEOMETRIC_REPRESENTATION_CONTEXT ( 3 ) GLOBAL_UNCERTAINTY_ASSIGNED_CONTEXT ( ( #205 ) ) GLOBAL_UNIT_ASSIGNED_CONTEXT ( ( #137, #140, #152 ) ) REPRESENTATION_CONTEXT ( 'NONE', 'WORKASPACE' ) );
#28 = CC_DESIGN_PERSON_AND_ORGANIZATION_ASSIGNMENT ( #322, #132, ( #17 ) ) ;
#29 = PRODUCT_DEFINITION ( 'UNKNOWN', '', #17, #220 ) ;
#30 = AXIS2_PLACEMENT_3D ( 'NONE', #89, #67, #76 ) ;
#31 = EDGE_CURVE ( 'NONE', #242, #292, #257, .T. ) ;
#32 = CC_DESIGN_PERSON_AND_ORGANIZATION_ASSIGNMENT ( #359, #119, ( #29 ) ) ;
#33 = AXIS2_PLACEMENT_3D ( 'NONE', #124, #138, #116 ) ;
#34 = APPROVAL ( #170, 'UNSPECIFIED' ) ;
#35 = CC_DESIGN_PERSON_AND_ORGANIZATION_ASSIGNMENT ( #318, #164, ( #17 ) ) ;
#36 = EDGE_CURVE ( 'NONE', #292, #328, #204, .T. ) ;
#37 = EDGE_CURVE ( 'NONE', #358, #333, #321, .T. ) ;
#38 = CC_DESIGN_APPROVAL ( #24, ( #29 ) ) ;
#39 = EDGE_CURVE ( 'NONE', #328, #358, #348, .T. ) ;
#40 = CC_DESIGN_APPROVAL ( #34, ( #53 ) ) ;
#41 = AXIS2_PLACEMENT_3D ( 'NONE', #178, #133, #136 ) ;
#42 = EDGE_CURVE ( 'NONE', #228, #333, #271, .T. ) ;
#43 = AXIS2_PLACEMENT_3D ( 'NONE', #177, #165, #167 ) ;
#44 = EDGE_CURVE ( 'NONE', #228, #275, #202, .T. ) ;
#45 = AXIS2_PLACEMENT_3D ( 'NONE', #68, #69, #115 ) ;
#46 = AXIS2_PLACEMENT_3D ( 'NONE', #166, #153, #122 ) ;
#47 = AXIS2_PLACEMENT_3D ( 'NONE', #109, #97, #90 ) ;
#48 = AXIS2_PLACEMENT_3D ( 'NONE', #98, #81, #107 ) ;
#49 = AXIS2_PLACEMENT_3D ( 'NONE', #127, #149, #130 ) ;
#50 = AXIS2_PLACEMENT_3D ( 'NONE', #139, #147, #176 ) ;
#51 = EDGE_CURVE ( 'NONE', #333, #228, #283, .T. ) ;
#52 = AXIS2_PLACEMENT_3D ( 'NONE', #135, #168, #118 ) ;
#53 = SECURITY_CLASSIFICATION ( '', '', #158 ) ;
#54 = EDGE_CURVE ( 'NONE', #331, #331, #344, .T. ) ;
#55 = AXIS2_PLACEMENT_3D ( 'NONE', #92, #72, #93 ) ;
#56 = AXIS2_PLACEMENT_3D ( 'NONE', #65, #112, #150 ) ;
#57 = EDGE_CURVE ( 'NONE', #328, #228, #236, .T. ) ;
#58 = EDGE_CURVE ( 'NONE', #333, #338, #206, .T. ) ;
#59 = AXIS2_PLACEMENT_3D ( 'NONE', #85, #77, #105 ) ;
#60 = CC_DESIGN_SECURITY_CLASSIFICATION ( #53, ( #17 ) ) ;
#61 = EDGE_CURVE ( 'NONE', #292, #242, #288, .T. ) ;
#62 = AXIS2_PLACEMENT_3D ( 'NONE', #190, #193, #131 ) ;
#63 = AXIS2_PLACEMENT_3D ( 'NONE', #163, #175, #157 ) ;
#64 = EDGE_CURVE ( 'NONE', #242, #358, #200, .T. ) ;
#65 = CARTESIAN_POINT ( 'NONE',  ( 0.0000000000000000000, 148.0000000000000000, 0.0000000000000000000 ) ) ;
#66 = CARTESIAN_POINT ( 'NONE',  ( -15.12546292645122900, 149.1999999999999900, -34.31428815028148400 ) ) ;
#67 = DIRECTION ( 'NONE',  ( 0.0000000000000000000, 1.000000000000000000, 0.0000000000000000000 ) ) ;
#68 = CARTESIAN_POINT ( 'NONE',  ( 0.0000000000000000000, 150.0000000000000000, 0.0000000000000000000 ) ) ;
#69 = DIRECTION ( 'NONE',  ( -0.0000000000000000000, 1.000000000000000000, -0.0000000000000000000 ) ) ;
#70 = DIRECTION ( 'NONE',  ( -0.0000000000000000000, 1.000000000000000000, -0.0000000000000000000 ) ) ;
#71 = CARTESIAN_POINT ( 'NONE',  ( 9.148516255457543900, 51.47778574088744100, -36.50655076917314500 ) ) ;
#72 = DIRECTION ( 'NONE',  ( -0.0000000000000000000, 1.000000000000000000, -0.0000000000000000000 ) ) ;
#73 = CARTESIAN_POINT ( 'NONE',  ( 15.12546292645122900, 149.1999999999999900, -35.62176822198119200 ) ) ;
#74 = CARTESIAN_POINT ( 'NONE',  ( -5.999999999999974200, -6.938893903907228400E-015, -37.01688803775919500 ) ) ;
#75 = CARTESIAN_POINT ( 'NONE',  ( -15.12546292645122900, 149.1999999999999900, 0.0000000000000000000 ) ) ;
#76 = DIRECTION ( 'NONE',  ( 0.0000000000000000000, 0.0000000000000000000, 1.000000000000000000 ) ) ;
#77 = DIRECTION ( 'NONE',  ( -0.0000000000000000000, 1.000000000000000000, -0.0000000000000000000 ) ) ;
#78 = CARTESIAN_POINT ( 'NONE',  ( 15.12546292645122900, 149.1999999999999900, 0.0000000000000000000 ) ) ;
#79 = DIRECTION ( 'NONE',  ( 0.0000000000000000000, 0.0000000000000000000, 1.000000000000000000 ) ) ;
#80 = CARTESIAN_POINT ( 'NONE',  ( -9.148516255457547400, 51.47778574088748400, -36.50655076917314500 ) ) ;
#81 = DIRECTION ( 'NONE',  ( 0.0000000000000000000, -1.000000000000000000, 0.0000000000000000000 ) ) ;
#82 = CARTESIAN_POINT ( 'NONE',  ( 0.0000000000000000000, 149.1999999999999900, 0.0000000000000000000 ) ) ;
#83 = DIRECTION ( 'NONE',  ( -0.0000000000000000000, 1.000000000000000000, -0.0000000000000000000 ) ) ;
#84 = CARTESIAN_POINT ( 'NONE',  ( 5.999999999999974200, -6.938893903907228400E-015, -37.01688803775919500 ) ) ;
#85 = CARTESIAN_POINT ( 'NONE',  ( 0.0000000000000000000, 0.0000000000000000000, 0.0000000000000000000 ) ) ;
#86 = CARTESIAN_POINT ( 'NONE',  ( 0.0000000000000000000, 148.0000000000000000, 0.0000000000000000000 ) ) ;
#87 = DIRECTION ( 'NONE',  ( -0.0000000000000000000, 1.000000000000000000, -0.0000000000000000000 ) ) ;
#88 = CARTESIAN_POINT ( 'NONE',  ( 15.17439302257161400, 150.0000000000000000, -35.60095218384655900 ) ) ;
#89 = CARTESIAN_POINT ( 'NONE',  ( 0.0000000000000000000, 150.0000000000000000, 0.0000000000000000000 ) ) ;
#90 = DIRECTION ( 'NONE',  ( 0.0000000000000000000, 0.0000000000000000000, 1.000000000000000000 ) ) ;
#91 = CARTESIAN_POINT ( 'NONE',  ( 15.15808775869531600, 149.7334112921228400, -35.60790206769004800 ) ) ;
#92 = CARTESIAN_POINT ( 'NONE',  ( 0.0000000000000000000, 149.1999999999999900, 0.0000000000000000000 ) ) ;
#93 = DIRECTION ( 'NONE',  ( 0.0000000000000000000, 0.0000000000000000000, 1.000000000000000000 ) ) ;
#94 = DIRECTION ( 'NONE',  ( 0.0000000000000000000, 1.000000000000000000, 0.0000000000000000000 ) ) ;
#95 = CARTESIAN_POINT ( 'NONE',  ( 0.0000000000000000000, 149.1999999999999900, 0.0000000000000000000 ) ) ;
#96 = CARTESIAN_POINT ( 'NONE',  ( 0.0000000000000000000, 149.1999999999999900, 0.0000000000000000000 ) ) ;
#97 = DIRECTION ( 'NONE',  ( -0.0000000000000000000, 1.000000000000000000, -0.0000000000000000000 ) ) ;
#98 = CARTESIAN_POINT ( 'NONE',  ( 0.0000000000000000000, 2.000000000000000000, 0.0000000000000000000 ) ) ;
#99 = DIRECTION ( 'NONE',  ( 0.0000000000000000000, 0.0000000000000000000, 1.000000000000000000 ) ) ;
#100 = CARTESIAN_POINT ( 'NONE',  ( 15.14177772408923800, 149.4667445835032700, -35.61484074815989200 ) ) ;
#101 = DIRECTION ( 'NONE',  ( 0.0000000000000000000, 0.0000000000000000000, -1.000000000000000000 ) ) ;
#102 = DIRECTION ( 'NONE',  ( 0.0000000000000000000, -1.000000000000000000, 0.0000000000000000000 ) ) ;
#103 = DIRECTION ( 'NONE',  ( 0.0000000000000000000, 0.0000000000000000000, 1.000000000000000000 ) ) ;
#104 = CARTESIAN_POINT ( 'NONE',  ( 15.12546292645122700, 149.1999999999999900, -34.31428815028149200 ) ) ;
#105 = DIRECTION ( 'NONE',  ( 0.0000000000000000000, 0.0000000000000000000, 1.000000000000000000 ) ) ;
#106 = CARTESIAN_POINT ( 'NONE',  ( 12.20681957843638100, 101.4806030736722700, -35.60080272294559500 ) ) ;
#107 = DIRECTION ( 'NONE',  ( 0.0000000000000000000, 0.0000000000000000000, -1.000000000000000000 ) ) ;
#108 = CARTESIAN_POINT ( 'NONE',  ( 0.0000000000000000000, 0.0000000000000000000, 0.0000000000000000000 ) ) ;
#109 = CARTESIAN_POINT ( 'NONE',  ( 0.0000000000000000000, 0.0000000000000000000, 0.0000000000000000000 ) ) ;
#110 = DIRECTION ( 'NONE',  ( 0.0000000000000000000, 0.0000000000000000000, 1.000000000000000000 ) ) ;
#111 = CARTESIAN_POINT ( 'NONE',  ( -12.20681957843638400, 101.4806030736723300, -35.60080272294558800 ) ) ;
#112 = DIRECTION ( 'NONE',  ( -0.0000000000000000000, 1.000000000000000000, -0.0000000000000000000 ) ) ;
#113 = DIRECTION ( 'NONE',  ( 0.0000000000000000000, 0.0000000000000000000, 1.000000000000000000 ) ) ;
#114 = DIRECTION ( 'NONE',  ( 0.0000000000000000000, 0.0000000000000000000, 1.000000000000000000 ) ) ;
#115 = DIRECTION ( 'NONE',  ( 0.0000000000000000000, 0.0000000000000000000, 1.000000000000000000 ) ) ;
#116 = DIRECTION ( 'NONE',  ( 0.0000000000000000000, 0.0000000000000000000, 1.000000000000000000 ) ) ;
#117 = CARTESIAN_POINT ( 'NONE',  ( 15.12546292645122700, 149.1999999999999900, -34.31428815028149200 ) ) ;
#118 = DIRECTION ( 'NONE',  ( 0.0000000000000000000, 0.0000000000000000000, 1.000000000000000000 ) ) ;
#119 = PERSON_AND_ORGANIZATION_ROLE ( 'creator' ) ;
#120 = CARTESIAN_POINT ( 'NONE',  ( 0.0000000000000000000, 73.82962905067505200, 0.0000000000000000000 ) ) ;
#121 = CARTESIAN_POINT ( 'NONE',  ( -15.12546292645122900, 149.1999999999999900, -34.31428815028148400 ) ) ;
#122 = DIRECTION ( 'NONE',  ( 0.0000000000000000000, 0.0000000000000000000, 1.000000000000000000 ) ) ;
#123 = APPLICATION_PROTOCOL_DEFINITION ( 'international standard', 'config_control_design', 1994, #162 ) ;
#124 = CARTESIAN_POINT ( 'NONE',  ( 0.0000000000000000000, 73.82962905067505200, 0.0000000000000000000 ) ) ;
#125 = CARTESIAN_POINT ( 'NONE',  ( -15.17439302257161400, 150.0000000000000000, -35.60095218384655900 ) ) ;
#126 = PERSON_AND_ORGANIZATION_ROLE ( 'design_owner' ) ;
#127 = CARTESIAN_POINT ( 'NONE',  ( 0.0000000000000000000, 149.1999999999999900, 0.0000000000000000000 ) ) ;
#128 = APPLICATION_CONTEXT ( 'configuration controlled 3d designs of mechanical parts and assemblies' ) ;
#129 = DATE_TIME_ROLE ( 'classification_date' ) ;
#130 = DIRECTION ( 'NONE',  ( 0.0000000000000000000, 0.0000000000000000000, 1.000000000000000000 ) ) ;
#131 = DIRECTION ( 'NONE',  ( 0.0000000000000000000, 0.0000000000000000000, 1.000000000000000000 ) ) ;
#132 = PERSON_AND_ORGANIZATION_ROLE ( 'creator' ) ;
#133 = DIRECTION ( 'NONE',  ( 0.0000000000000000000, 0.0000000000000000000, 1.000000000000000000 ) ) ;
#134 = CARTESIAN_POINT ( 'NONE',  ( -15.12546292645122900, 149.1999999999999900, -35.62176822198119200 ) ) ;
#135 = CARTESIAN_POINT ( 'NONE',  ( 0.0000000000000000000, 73.82962905067505200, 0.0000000000000000000 ) ) ;
#136 = DIRECTION ( 'NONE',  ( 1.000000000000000000, 0.0000000000000000000, 0.0000000000000000000 ) ) ;
#137 =( LENGTH_UNIT ( ) NAMED_UNIT ( * ) SI_UNIT ( .MILLI., .METRE. ) );
#138 = DIRECTION ( 'NONE',  ( -0.0000000000000000000, 1.000000000000000000, -0.0000000000000000000 ) ) ;
#139 = CARTESIAN_POINT ( 'NONE',  ( 0.0000000000000000000, 150.0000000000000000, 0.0000000000000000000 ) ) ;
#140 =( NAMED_UNIT ( * ) PLANE_ANGLE_UNIT ( ) SI_UNIT ( $, .RADIAN. ) );
#141 = CARTESIAN_POINT ( 'NONE',  ( 0.0000000000000000000, 2.000000000000000000, -36.70000000000001000 ) ) ;
#142 = PERSON_AND_ORGANIZATION_ROLE ( 'classification_officer' ) ;
#143 = CARTESIAN_POINT ( 'NONE',  ( 0.0000000000000000000, 149.1999999999999900, 0.0000000000000000000 ) ) ;
#144 = APPLICATION_PROTOCOL_DEFINITION ( 'international standard', 'config_control_design', 1994, #128 ) ;
#145 = DATE_TIME_ROLE ( 'creation_date' ) ;
#146 = PLANE ( 'NONE',  #8 ) ;
#147 = DIRECTION ( 'NONE',  ( 0.0000000000000000000, -1.000000000000000000, 0.0000000000000000000 ) ) ;
#148 = DIRECTION ( 'NONE',  ( -0.0000000000000000000, 1.000000000000000000, 0.0000000000000000000 ) ) ;
#149 = DIRECTION ( 'NONE',  ( -0.0000000000000000000, 1.000000000000000000, 0.0000000000000000000 ) ) ;
#150 = DIRECTION ( 'NONE',  ( 0.0000000000000000000, 0.0000000000000000000, 1.000000000000000000 ) ) ;
#151 = DIRECTION ( 'NONE',  ( 0.0000000000000000000, 0.0000000000000000000, 1.000000000000000000 ) ) ;
#152 =( NAMED_UNIT ( * ) SI_UNIT ( $, .STERADIAN. ) SOLID_ANGLE_UNIT ( ) );
#153 = DIRECTION ( 'NONE',  ( -0.0000000000000000000, 1.000000000000000000, 0.0000000000000000000 ) ) ;
#154 = CARTESIAN_POINT ( 'NONE',  ( 15.17439302257161400, 150.0000000000000000, -35.60095218384655900 ) ) ;
#155 = DIRECTION ( 'NONE',  ( 0.0000000000000000000, 0.0000000000000000000, 1.000000000000000000 ) ) ;
#156 = APPROVAL_STATUS ( 'not_yet_approved' ) ;
#157 = DIRECTION ( 'NONE',  ( 0.0000000000000000000, -0.0000000000000000000, -1.000000000000000000 ) ) ;
#158 = SECURITY_CLASSIFICATION_LEVEL ( 'unclassified' ) ;
#159 = CARTESIAN_POINT ( 'NONE',  ( 0.0000000000000000000, 2.000000000000000000, 0.0000000000000000000 ) ) ;
#160 = PLANE ( 'NONE',  #49 ) ;
#161 = CARTESIAN_POINT ( 'NONE',  ( 0.0000000000000000000, 148.0000000000000000, 0.0000000000000000000 ) ) ;
#162 = APPLICATION_CONTEXT ( 'configuration controlled 3d designs of mechanical parts and assemblies' ) ;
#163 = CARTESIAN_POINT ( 'NONE',  ( 0.0000000000000000000, 2.000000000000000000, 0.0000000000000000000 ) ) ;
#164 = PERSON_AND_ORGANIZATION_ROLE ( 'design_supplier' ) ;
#165 = DIRECTION ( 'NONE',  ( -0.0000000000000000000, 1.000000000000000000, -0.0000000000000000000 ) ) ;
#166 = CARTESIAN_POINT ( 'NONE',  ( 0.0000000000000000000, 0.0000000000000000000, 0.0000000000000000000 ) ) ;
#167 = DIRECTION ( 'NONE',  ( 0.0000000000000000000, 0.0000000000000000000, 1.000000000000000000 ) ) ;
#168 = DIRECTION ( 'NONE',  ( -0.0000000000000000000, 1.000000000000000000, -0.0000000000000000000 ) ) ;
#169 = CARTESIAN_POINT ( 'NONE',  ( 15.12546292645122900, 149.1999999999999900, -35.62176822198119200 ) ) ;
#170 = APPROVAL_STATUS ( 'not_yet_approved' ) ;
#171 = DIRECTION ( 'NONE',  ( -0.0000000000000000000, -1.000000000000000000, -0.0000000000000000000 ) ) ;
#172 = DIRECTION ( 'NONE',  ( 0.0000000000000000000, 0.0000000000000000000, -1.000000000000000000 ) ) ;
#173 = APPROVAL_ROLE ( '' ) ;
#174 = CARTESIAN_POINT ( 'NONE',  ( -5.999999999999974200, -6.938893903907228400E-015, -37.01688803775919500 ) ) ;
#175 = DIRECTION ( 'NONE',  ( 0.0000000000000000000, -1.000000000000000000, 0.0000000000000000000 ) ) ;
#176 = DIRECTION ( 'NONE',  ( 0.0000000000000000000, -0.0000000000000000000, -1.000000000000000000 ) ) ;
#177 = CARTESIAN_POINT ( 'NONE',  ( 0.0000000000000000000, 73.82962905067505200, 0.0000000000000000000 ) ) ;
#178 = CARTESIAN_POINT ( 'NONE',  ( 0.0000000000000000000, 0.0000000000000000000, 0.0000000000000000000 ) ) ;
#179 = CARTESIAN_POINT ( 'NONE',  ( 0.0000000000000000000, 150.0000000000000000, 36.70000000000001000 ) ) ;
#180 = DIRECTION ( 'NONE',  ( 0.0000000000000000000, 1.000000000000000000, 0.0000000000000000000 ) ) ;
#181 = PLANE ( 'NONE',  #63 ) ;
#182 = CARTESIAN_POINT ( 'NONE',  ( -15.15808775869531600, 149.7334112921228400, -35.60790206769004800 ) ) ;
#183 = PLANE ( 'NONE',  #46 ) ;
#184 = DIRECTION ( 'NONE',  ( 0.0000000000000000000, -0.0000000000000000000, 1.000000000000000000 ) ) ;
#185 = CARTESIAN_POINT ( 'NONE',  ( -15.17439302257161400, 150.0000000000000000, -35.60095218384655900 ) ) ;
#186 = CARTESIAN_POINT ( 'NONE',  ( -15.14177772408923800, 149.4667445835032700, -35.61484074815989200 ) ) ;
#187 = DIRECTION ( 'NONE',  ( -0.0000000000000000000, 1.000000000000000000, -0.0000000000000000000 ) ) ;
#188 = CARTESIAN_POINT ( 'NONE',  ( -15.12546292645122900, 149.1999999999999900, -35.62176822198119200 ) ) ;
#189 = PLANE ( 'NONE',  #15 ) ;
#190 = CARTESIAN_POINT ( 'NONE',  ( 0.0000000000000000000, 150.0000000000000000, 0.0000000000000000000 ) ) ;
#191 = CARTESIAN_POINT ( 'NONE',  ( 5.999999999999974200, -6.938893903907228400E-015, -37.01688803775919500 ) ) ;
#192 = CARTESIAN_POINT ( 'NONE',  ( 0.0000000000000000000, 148.0000000000000000, 36.70000000000001000 ) ) ;
#193 = DIRECTION ( 'NONE',  ( -0.0000000000000000000, 1.000000000000000000, -0.0000000000000000000 ) ) ;
#194 = MECHANICAL_CONTEXT ( 'NONE', #162, 'mechanical' ) ;
#195 = APPROVAL_ROLE ( '' ) ;
#196 = PLANE ( 'NONE',  #50 ) ;
#197 = APPROVAL_ROLE ( '' ) ;
#198 = CARTESIAN_POINT ( 'NONE',  ( 0.0000000000000000000, 0.0000000000000000000, -36.70000000000001000 ) ) ;
#199 = APPROVAL_STATUS ( 'not_yet_approved' ) ;
#200 =( BOUNDED_CURVE ( )  B_SPLINE_CURVE ( 3, ( #185, #182, #186, #134 ),
 .UNSPECIFIED., .F., .T. ) 
 B_SPLINE_CURVE_WITH_KNOTS ( ( 4, 4 ),
 ( 1.167879585276386600, 1.169253587508924700 ),
 .UNSPECIFIED. ) 
 CURVE ( )  GEOMETRIC_REPRESENTATION_ITEM ( )  RATIONAL_B_SPLINE_CURVE ( ( 1.000000000000000000, 0.9999998426764948900, 0.9999998426764948900, 1.000000000000000000 ) ) 
 REPRESENTATION_ITEM ( '' )  );
#201 = MANIFOLD_SOLID_BREP ( 'Cut-Extrude2', #354 ) ;
#202 =( BOUNDED_CURVE ( )  B_SPLINE_CURVE ( 3, ( #104, #106, #71, #84 ),
 .UNSPECIFIED., .F., .T. ) 
 B_SPLINE_CURVE_WITH_KNOTS ( ( 4, 4 ),
 ( 1.155626126034403400, 1.410105673842986700 ),
 .UNSPECIFIED. ) 
 CURVE ( )  GEOMETRIC_REPRESENTATION_ITEM ( )  RATIONAL_B_SPLINE_CURVE ( ( 1.000000000000000000, 0.9946106236843022000, 0.9946106236843022000, 1.000000000000000000 ) ) 
 REPRESENTATION_ITEM ( '' )  );
#203 = ADVANCED_BREP_SHAPE_REPRESENTATION ( '0507553000 outline drawing', ( #201, #41 ), #27 ) ;
#204 =( BOUNDED_CURVE ( )  B_SPLINE_CURVE ( 3, ( #88, #91, #100, #73 ),
 .UNSPECIFIED., .F., .T. ) 
 B_SPLINE_CURVE_WITH_KNOTS ( ( 4, 4 ),
 ( 1.167879585276386600, 1.169253587508924700 ),
 .UNSPECIFIED. ) 
 CURVE ( )  GEOMETRIC_REPRESENTATION_ITEM ( )  RATIONAL_B_SPLINE_CURVE ( ( 1.000000000000000000, 0.9999998426764948900, 0.9999998426764948900, 1.000000000000000000 ) ) 
 REPRESENTATION_ITEM ( '' )  );
#205 = UNCERTAINTY_MEASURE_WITH_UNIT (LENGTH_MEASURE( 1.000000000000000100E-005 ), #137, 'distance_accuracy_value', 'NONE');
#206 =( BOUNDED_CURVE ( )  B_SPLINE_CURVE ( 3, ( #66, #111, #80, #74 ),
 .UNSPECIFIED., .F., .T. ) 
 B_SPLINE_CURVE_WITH_KNOTS ( ( 4, 4 ),
 ( 1.155626126034403200, 1.410105673842986700 ),
 .UNSPECIFIED. ) 
 CURVE ( )  GEOMETRIC_REPRESENTATION_ITEM ( )  RATIONAL_B_SPLINE_CURVE ( ( 1.000000000000000000, 0.9946106236843022000, 0.9946106236843022000, 1.000000000000000000 ) ) 
 REPRESENTATION_ITEM ( '' )  );
#207 = ADVANCED_FACE ( 'NONE', ( #353, #232 ), #335, .F. ) ;
#208 = ADVANCED_FACE ( 'NONE', ( #314 ), #229, .T. ) ;
#209 = ADVANCED_FACE ( 'NONE', ( #227, #269 ), #296, .F. ) ;
#210 = ADVANCED_FACE ( 'NONE', ( #240, #327 ), #183, .F. ) ;
#211 = ADVANCED_FACE ( 'NONE', ( #317 ), #160, .F. ) ;
#212 = ADVANCED_FACE ( 'NONE', ( #299 ), #351, .T. ) ;
#213 = ADVANCED_FACE ( 'NONE', ( #310, #298 ), #196, .F. ) ;
#214 = ADVANCED_FACE ( 'NONE', ( #313 ), #243, .T. ) ;
#215 = ADVANCED_FACE ( 'NONE', ( #230 ), #181, .T. ) ;
#216 = ADVANCED_FACE ( 'NONE', ( #309 ), #189, .T. ) ;
#217 = ADVANCED_FACE ( 'NONE', ( #270 ), #146, .F. ) ;
#218 = ADVANCED_FACE ( 'NONE', ( #311 ), #356, .T. ) ;
#219 = PRODUCT_DEFINITION_SHAPE ( 'NONE', 'NONE',  #29 ) ;
#220 = DESIGN_CONTEXT ( 'detailed design', #128, 'design' ) ;
#221 = CALENDAR_DATE ( 2014, 27, 6 ) ;
#222 = ORIENTED_EDGE ( 'NONE', *, *, #54, .F. ) ;
#223 = CALENDAR_DATE ( 2014, 27, 6 ) ;
#224 = ORIENTED_EDGE ( 'NONE', *, *, #36, .T. ) ;
#225 = COORDINATED_UNIVERSAL_TIME_OFFSET ( 8, 0, .AHEAD. ) ;
#226 = VECTOR ( 'NONE', #103, 1000.000000000000000 ) ;
#227 = FACE_OUTER_BOUND ( 'NONE', #254, .T. ) ;
#228 = VERTEX_POINT ( 'NONE', #117 ) ;
#229 = CYLINDRICAL_SURFACE ( 'NONE', #33, 38.69999999999998900 ) ;
#230 = FACE_OUTER_BOUND ( 'NONE', #265, .T. ) ;
#231 = EDGE_LOOP ( 'NONE', ( #345, #302 ) ) ;
#232 = FACE_OUTER_BOUND ( 'NONE', #346, .T. ) ;
#233 = APPROVAL_DATE_TIME ( #347, #24 ) ;
#234 = EDGE_LOOP ( 'NONE', ( #238, #256, #325, #303 ) ) ;
#235 = CALENDAR_DATE ( 2014, 27, 6 ) ;
#236 = LINE ( 'NONE', #78, #226 ) ;
#237 = LOCAL_TIME ( 15, 34, 2.000000000000000000, #255 ) ;
#238 = ORIENTED_EDGE ( 'NONE', *, *, #36, .F. ) ;
#239 = DATE_AND_TIME ( #235, #237 ) ;
#240 = FACE_BOUND ( 'NONE', #343, .T. ) ;
#241 = CIRCLE ( 'NONE', #59, 37.49999999999999300 ) ;
#242 = VERTEX_POINT ( 'NONE', #125 ) ;
#243 = CYLINDRICAL_SURFACE ( 'NONE', #18, 37.49999999999999300 ) ;
#244 = COORDINATED_UNIVERSAL_TIME_OFFSET ( 8, 0, .AHEAD. ) ;
#245 = EDGE_LOOP ( 'NONE', ( #246, #330 ) ) ;
#246 = ORIENTED_EDGE ( 'NONE', *, *, #10, .F. ) ;
#247 = CALENDAR_DATE ( 2014, 27, 6 ) ;
#248 = PERSON_AND_ORGANIZATION ( #2, #301 ) ;
#249 = LOCAL_TIME ( 15, 34, 2.000000000000000000, #339 ) ;
#250 = ORIENTED_EDGE ( 'NONE', *, *, #54, .T. ) ;
#251 = SHAPE_DEFINITION_REPRESENTATION ( #219, #203 ) ;
#252 = APPROVAL_PERSON_ORGANIZATION ( #332, #24, #173 ) ;
#253 = CIRCLE ( 'NONE', #47, 37.49999999999999300 ) ;
#254 = EDGE_LOOP ( 'NONE', ( #222 ) ) ;
#255 = COORDINATED_UNIVERSAL_TIME_OFFSET ( 8, 0, .AHEAD. ) ;
#256 = ORIENTED_EDGE ( 'NONE', *, *, #31, .F. ) ;
#257 = CIRCLE ( 'NONE', #45, 38.69999999999998900 ) ;
#258 = EDGE_LOOP ( 'NONE', ( #329 ) ) ;
#259 = ORIENTED_EDGE ( 'NONE', *, *, #61, .F. ) ;
#260 = DATE_AND_TIME ( #263, #337 ) ;
#261 = ORIENTED_EDGE ( 'NONE', *, *, #42, .T. ) ;
#262 = ORIENTED_EDGE ( 'NONE', *, *, #39, .T. ) ;
#263 = CALENDAR_DATE ( 2014, 27, 6 ) ;
#264 = EDGE_LOOP ( 'NONE', ( #287, #326, #272, #308 ) ) ;
#265 = EDGE_LOOP ( 'NONE', ( #250 ) ) ;
#266 = ORIENTED_EDGE ( 'NONE', *, *, #51, .F. ) ;
#267 = ORIENTED_EDGE ( 'NONE', *, *, #6, .F. ) ;
#268 = CIRCLE ( 'NONE', #25, 38.69999999999998900 ) ;
#269 = FACE_OUTER_BOUND ( 'NONE', #277, .T. ) ;
#270 = FACE_OUTER_BOUND ( 'NONE', #341, .T. ) ;
#271 = CIRCLE ( 'NONE', #20, 37.49999999999999300 ) ;
#272 = ORIENTED_EDGE ( 'NONE', *, *, #37, .T. ) ;
#273 = APPROVAL_DATE_TIME ( #290, #34 ) ;
#274 = ORIENTED_EDGE ( 'NONE', *, *, #9, .T. ) ;
#275 = VERTEX_POINT ( 'NONE', #191 ) ;
#276 = ORIENTED_EDGE ( 'NONE', *, *, #10, .T. ) ;
#277 = EDGE_LOOP ( 'NONE', ( #280 ) ) ;
#278 = ORIENTED_EDGE ( 'NONE', *, *, #13, .T. ) ;
#279 = PERSON_AND_ORGANIZATION ( #2, #301 ) ;
#280 = ORIENTED_EDGE ( 'NONE', *, *, #6, .T. ) ;
#281 = ORIENTED_EDGE ( 'NONE', *, *, #57, .T. ) ;
#282 = APPROVAL_DATE_TIME ( #239, #7 ) ;
#283 = CIRCLE ( 'NONE', #19, 37.49999999999999300 ) ;
#284 = EDGE_LOOP ( 'NONE', ( #259, #224, #262, #285 ) ) ;
#285 = ORIENTED_EDGE ( 'NONE', *, *, #64, .F. ) ;
#286 = ORIENTED_EDGE ( 'NONE', *, *, #58, .F. ) ;
#287 = ORIENTED_EDGE ( 'NONE', *, *, #57, .F. ) ;
#288 = CIRCLE ( 'NONE', #62, 38.69999999999998900 ) ;
#289 = LOCAL_TIME ( 15, 34, 2.000000000000000000, #305 ) ;
#290 = DATE_AND_TIME ( #223, #289 ) ;
#291 = ORIENTED_EDGE ( 'NONE', *, *, #13, .F. ) ;
#292 = VERTEX_POINT ( 'NONE', #154 ) ;
#293 = EDGE_LOOP ( 'NONE', ( #291 ) ) ;
#294 = ORIENTED_EDGE ( 'NONE', *, *, #21, .T. ) ;
#295 = ORIENTED_EDGE ( 'NONE', *, *, #37, .F. ) ;
#296 = CYLINDRICAL_SURFACE ( 'NONE', #16, 36.70000000000001000 ) ;
#297 = PERSON_AND_ORGANIZATION ( #2, #301 ) ;
#298 = FACE_OUTER_BOUND ( 'NONE', #231, .T. ) ;
#299 = FACE_OUTER_BOUND ( 'NONE', #234, .T. ) ;
#300 = EDGE_LOOP ( 'NONE', ( #304, #266, #319, #276 ) ) ;
#301 = ORGANIZATION ( 'UNSPECIFIED', 'UNSPECIFIED', '' ) ;
#302 = ORIENTED_EDGE ( 'NONE', *, *, #61, .T. ) ;
#303 = ORIENTED_EDGE ( 'NONE', *, *, #12, .T. ) ;
#304 = ORIENTED_EDGE ( 'NONE', *, *, #44, .F. ) ;
#305 = COORDINATED_UNIVERSAL_TIME_OFFSET ( 8, 0, .AHEAD. ) ;
#306 = ORIENTED_EDGE ( 'NONE', *, *, #42, .F. ) ;
#307 = PERSON_AND_ORGANIZATION ( #2, #301 ) ;
#308 = ORIENTED_EDGE ( 'NONE', *, *, #51, .T. ) ;
#309 = FACE_OUTER_BOUND ( 'NONE', #342, .T. ) ;
#310 = FACE_BOUND ( 'NONE', #258, .T. ) ;
#311 = FACE_OUTER_BOUND ( 'NONE', #300, .T. ) ;
#312 = CIRCLE ( 'NONE', #30, 36.70000000000001000 ) ;
#313 = FACE_OUTER_BOUND ( 'NONE', #323, .T. ) ;
#314 = FACE_OUTER_BOUND ( 'NONE', #284, .T. ) ;
#315 = ORIENTED_EDGE ( 'NONE', *, *, #39, .F. ) ;
#316 = DATE_AND_TIME ( #247, #249 ) ;
#317 = FACE_OUTER_BOUND ( 'NONE', #264, .T. ) ;
#318 = PERSON_AND_ORGANIZATION ( #2, #301 ) ;
#319 = ORIENTED_EDGE ( 'NONE', *, *, #58, .T. ) ;
#320 = CIRCLE ( 'NONE', #23, 36.70000000000001000 ) ;
#321 = LINE ( 'NONE', #75, #349 ) ;
#322 = PERSON_AND_ORGANIZATION ( #2, #301 ) ;
#323 = EDGE_LOOP ( 'NONE', ( #306, #324, #274, #286 ) ) ;
#324 = ORIENTED_EDGE ( 'NONE', *, *, #44, .T. ) ;
#325 = ORIENTED_EDGE ( 'NONE', *, *, #64, .T. ) ;
#326 = ORIENTED_EDGE ( 'NONE', *, *, #12, .F. ) ;
#327 = FACE_OUTER_BOUND ( 'NONE', #245, .T. ) ;
#328 = VERTEX_POINT ( 'NONE', #169 ) ;
#329 = ORIENTED_EDGE ( 'NONE', *, *, #21, .F. ) ;
#330 = ORIENTED_EDGE ( 'NONE', *, *, #9, .F. ) ;
#331 = VERTEX_POINT ( 'NONE', #141 ) ;
#332 = PERSON_AND_ORGANIZATION ( #2, #301 ) ;
#333 = VERTEX_POINT ( 'NONE', #121 ) ;
#334 = VERTEX_POINT ( 'NONE', #179 ) ;
#335 = CYLINDRICAL_SURFACE ( 'NONE', #56, 36.70000000000001000 ) ;
#336 = APPROVAL_PERSON_ORGANIZATION ( #248, #7, #197 ) ;
#337 = LOCAL_TIME ( 15, 34, 2.000000000000000000, #244 ) ;
#338 = VERTEX_POINT ( 'NONE', #174 ) ;
#339 = COORDINATED_UNIVERSAL_TIME_OFFSET ( 8, 0, .AHEAD. ) ;
#340 = LOCAL_TIME ( 15, 34, 2.000000000000000000, #225 ) ;
#341 = EDGE_LOOP ( 'NONE', ( #315, #281, #261, #295 ) ) ;
#342 = EDGE_LOOP ( 'NONE', ( #278 ) ) ;
#343 = EDGE_LOOP ( 'NONE', ( #267 ) ) ;
#344 = CIRCLE ( 'NONE', #48, 36.70000000000001000 ) ;
#345 = ORIENTED_EDGE ( 'NONE', *, *, #31, .T. ) ;
#346 = EDGE_LOOP ( 'NONE', ( #294 ) ) ;
#347 = DATE_AND_TIME ( #221, #340 ) ;
#348 = CIRCLE ( 'NONE', #55, 38.69999999999998900 ) ;
#349 = VECTOR ( 'NONE', #110, 1000.000000000000000 ) ;
#350 = APPROVAL_PERSON_ORGANIZATION ( #307, #34, #195 ) ;
#351 = CYLINDRICAL_SURFACE ( 'NONE', #52, 38.69999999999998900 ) ;
#352 = VERTEX_POINT ( 'NONE', #198 ) ;
#353 = FACE_OUTER_BOUND ( 'NONE', #293, .T. ) ;
#354 = CLOSED_SHELL ( 'NONE', ( #212, #211, #218, #210, #213, #208, #217, #214, #207, #216, #209, #215 ) ) ;
#355 = CIRCLE ( 'NONE', #22, 36.70000000000001000 ) ;
#356 = CYLINDRICAL_SURFACE ( 'NONE', #43, 37.49999999999999300 ) ;
#357 = VERTEX_POINT ( 'NONE', #192 ) ;
#358 = VERTEX_POINT ( 'NONE', #188 ) ;
#359 = PERSON_AND_ORGANIZATION ( #2, #301 ) ;
ENDSEC;
END-ISO-10303-21;
