  0
SECTION
  2
HEADER
  9
$ACADVER
  1
AC1015
  9
$ACADMAINTVER
 70
     6
  9
$DWGCODEPAGE
  3
ANSI_1252
  9
$INSBASE
 10
0.0
 20
0.0
 30
0.0
  9
$EXTMIN
 10
0.0
 20
0.0
 30
0.0
  9
$EXTMAX
 10
594.0
 20
420.0
 30
0.0
  9
$LIMMIN
 10
0.0
 20
0.0
  9
$LIMMAX
 10
594.0
 20
420.0
  9
$ORTHOMODE
 70
     0
  9
$REGENMODE
 70
     1
  9
$FILLMODE
 70
     1
  9
$QTEXTMODE
 70
     0
  9
$MIRRTEXT
 70
     1
  9
$LTSCALE
 40
1.0
  9
$ATTMODE
 70
     1
  9
$TEXTSIZE
 40
2.5
  9
$TRACEWID
 40
1.0
  9
$TEXTSTYLE
  7
Standard
  9
$CLAYER
  8
0
  9
$CELTYPE
  6
ByLayer
  9
$CECOLOR
 62
   256
  9
$CELTSCALE
 40
1.0
  9
$DISPSILH
 70
     0
  9
$DIMSCALE
 40
1.0
  9
$DIMASZ
 40
2.5
  9
$DIMEXO
 40
1.0
  9
$DIMDLI
 40
3.75
  9
$DIMRND
 40
0.0
  9
$DIMDLE
 40
0.0
  9
$DIMEXE
 40
1.0
  9
$DIMTP
 40
0.0
  9
$DIMTM
 40
0.0
  9
$DIMTXT
 40
2.5
  9
$DIMCEN
 40
2.5
  9
$DIMTSZ
 40
0.0
  9
$DIMTOL
 70
     0
  9
$DIMLIM
 70
     0
  9
$DIMTIH
 70
     1
  9
$DIMTOH
 70
     1
  9
$DIMSE1
 70
     0
  9
$DIMSE2
 70
     0
  9
$DIMTAD
 70
     1
  9
$DIMZIN
 70
     0
  9
$DIMBLK
  1

  9
$DIMASO
 70
     1
  9
$DIMSHO
 70
     1
  9
$DIMPOST
  1

  9
$DIMAPOST
  1

  9
$DIMALT
 70
     0
  9
$DIMALTD
 70
     3
  9
$DIMALTF
 40
0.0393700787
  9
$DIMLFAC
 40
1.0
  9
$DIMTOFL
 70
     1
  9
$DIMTVP
 40
0.0
  9
$DIMTIX
 70
     0
  9
$DIMSOXD
 70
     0
  9
$DIMSAH
 70
     0
  9
$DIMBLK1
  1

  9
$DIMBLK2
  1

  9
$DIMSTYLE
  2
ISO-25
  9
$DIMCLRD
 70
     0
  9
$DIMCLRE
 70
     0
  9
$DIMCLRT
 70
     0
  9
$DIMTFAC
 40
1.0
  9
$DIMGAP
 40
1.524
  9
$DIMJUST
 70
     0
  9
$DIMSD1
 70
     0
  9
$DIMSD2
 70
     0
  9
$DIMTOLJ
 70
     0
  9
$DIMTZIN
 70
     0
  9
$DIMALTZ
 70
     0
  9
$DIMALTTZ
 70
     0
  9
$DIMUPT
 70
     0
  9
$DIMDEC
 70
     2
  9
$DIMTDEC
 70
     2
  9
$DIMALTU
 70
     2
  9
$DIMALTTD
 70
     3
  9
$DIMTXSTY
  7
Standard
  9
$DIMAUNIT
 70
     0
  9
$DIMADEC
 70
     2
  9
$DIMALTRND
 40
0.0
  9
$DIMAZIN
 70
     0
  9
$DIMDSEP
 70
    44
  9
$DIMATFIT
 70
     3
  9
$DIMFRAC
 70
     0
  9
$DIMLDRBLK
  1

  9
$DIMLUNIT
 70
     2
  9
$DIMLWD
 70
    -2
  9
$DIMLWE
 70
    -2
  9
$DIMTMOVE
 70
     0
  9
$LUNITS
 70
     2
  9
$LUPREC
 70
     2
  9
$SKETCHINC
 40
1.0
  9
$FILLETRAD
 40
10.0
  9
$AUNITS
 70
     0
  9
$AUPREC
 70
     2
  9
$MENU
  1
.
  9
$ELEVATION
 40
0.0
  9
$PELEVATION
 40
0.0
  9
$THICKNESS
 40
0.0
  9
$LIMCHECK
 70
     0
  9
$CHAMFERA
 40
10.0
  9
$CHAMFERB
 40
10.0
  9
$CHAMFERC
 40
20.0
  9
$CHAMFERD
 40
0.0
  9
$SKPOLY
 70
     0
  9
$TDCREATE
 40
2457655.471996308
  9
$TDUCREATE
 40
2457655.388662974
  9
$TDUPDATE
 40
2457655.471997396
  9
$TDUUPDATE
 40
2457655.388664063
  9
$TDINDWG
 40
0.0000000116
  9
$TDUSRTIMER
 40
0.0000000116
  9
$USRTIMER
 70
     1
  9
$ANGBASE
 50
0.0
  9
$ANGDIR
 70
     0
  9
$PDMODE
 70
     0
  9
$PDSIZE
 40
-1.0
  9
$PLINEWID
 40
0.0
  9
$SPLFRAME
 70
     0
  9
$SPLINETYPE
 70
     6
  9
$SPLINESEGS
 70
     8
  9
$HANDSEED
  5
23F
  9
$SURFTAB1
 70
     6
  9
$SURFTAB2
 70
     6
  9
$SURFTYPE
 70
     6
  9
$SURFU
 70
     6
  9
$SURFV
 70
     6
  9
$UCSBASE
  2

  9
$UCSNAME
  2

  9
$UCSORG
 10
0.0
 20
0.0
 30
0.0
  9
$UCSXDIR
 10
1.0
 20
0.0
 30
0.0
  9
$UCSYDIR
 10
0.0
 20
1.0
 30
0.0
  9
$UCSORTHOREF
  2

  9
$UCSORTHOVIEW
 70
     0
  9
$UCSORGTOP
 10
0.0
 20
0.0
 30
0.0
  9
$UCSORGBOTTOM
 10
0.0
 20
0.0
 30
0.0
  9
$UCSORGLEFT
 10
0.0
 20
0.0
 30
0.0
  9
$UCSORGRIGHT
 10
0.0
 20
0.0
 30
0.0
  9
$UCSORGFRONT
 10
0.0
 20
0.0
 30
0.0
  9
$UCSORGBACK
 10
0.0
 20
0.0
 30
0.0
  9
$PUCSBASE
  2

  9
$PUCSNAME
  2

  9
$PUCSORG
 10
0.0
 20
0.0
 30
0.0
  9
$PUCSXDIR
 10
1.0
 20
0.0
 30
0.0
  9
$PUCSYDIR
 10
0.0
 20
1.0
 30
0.0
  9
$PUCSORTHOREF
  2

  9
$PUCSORTHOVIEW
 70
     0
  9
$PUCSORGTOP
 10
0.0
 20
0.0
 30
0.0
  9
$PUCSORGBOTTOM
 10
0.0
 20
0.0
 30
0.0
  9
$PUCSORGLEFT
 10
0.0
 20
0.0
 30
0.0
  9
$PUCSORGRIGHT
 10
0.0
 20
0.0
 30
0.0
  9
$PUCSORGFRONT
 10
0.0
 20
0.0
 30
0.0
  9
$PUCSORGBACK
 10
0.0
 20
0.0
 30
0.0
  9
$USERI1
 70
     0
  9
$USERI2
 70
     0
  9
$USERI3
 70
     0
  9
$USERI4
 70
     0
  9
$USERI5
 70
     0
  9
$USERR1
 40
0.0
  9
$USERR2
 40
0.0
  9
$USERR3
 40
0.0
  9
$USERR4
 40
0.0
  9
$USERR5
 40
0.0
  9
$WORLDVIEW
 70
     1
  9
$SHADEDGE
 70
     3
  9
$SHADEDIF
 70
    70
  9
$TILEMODE
 70
     1
  9
$MAXACTVP
 70
    64
  9
$PINSBASE
 10
0.0
 20
0.0
 30
0.0
  9
$PLIMCHECK
 70
     0
  9
$PEXTMIN
 10
1.0000000000E+20
 20
1.0000000000E+20
 30
1.0000000000E+20
  9
$PEXTMAX
 10
-1.0000000000E+20
 20
-1.0000000000E+20
 30
-1.0000000000E+20
  9
$PLIMMIN
 10
0.0
 20
0.0
  9
$PLIMMAX
 10
420.0
 20
297.0
  9
$UNITMODE
 70
     0
  9
$VISRETAIN
 70
     1
  9
$PLINEGEN
 70
     0
  9
$PSLTSCALE
 70
     1
  9
$TREEDEPTH
 70
  3020
  9
$CMLSTYLE
  2
Standard
  9
$CMLJUST
 70
     0
  9
$CMLSCALE
 40
20.0
  9
$PROXYGRAPHICS
 70
     1
  9
$MEASUREMENT
 70
     1
  9
$CELWEIGHT
370
    -1
  9
$ENDCAPS
280
     0
  9
$JOINSTYLE
280
     0
  9
$LWDISPLAY
290
     1
  9
$INSUNITS
 70
     4
  9
$HYPERLINKBASE
  1

  9
$STYLESHEET
  1

  9
$XEDIT
290
     1
  9
$CEPSNTYPE
380
     0
  9
$PSTYLEMODE
290
     1
  9
$FINGERPRINTGUID
  2
{67885A75-0A3E-45E6-93D2-DA7CB81B0163}
  9
$VERSIONGUID
  2
{FAEB1C32-E019-11D5-929B-00C0DF256EC4}
  9
$EXTNAMES
290
     1
  9
$PSVPSCALE
 40
0.0
  9
$OLESTARTUP
290
     0
  0
ENDSEC
  0
SECTION
  2
CLASSES
  0
CLASS
  1
ACDBDICTIONARYWDFLT
  2
AcDbDictionaryWithDefault
  3
ObjectDBX Classes
 90
        0
280
     0
281
     0
  0
CLASS
  1
VISUALSTYLE
  2
AcDbVisualStyle
  3
ObjectDBX Classes
 90
     4095
280
     0
281
     0
  0
CLASS
  1
MATERIAL
  2
AcDbMaterial
  3
ObjectDBX Classes
 90
     1153
280
     0
281
     0
  0
CLASS
  1
ACDBPLACEHOLDER
  2
AcDbPlaceHolder
  3
ObjectDBX Classes
 90
        0
280
     0
281
     0
  0
CLASS
  1
LAYOUT
  2
AcDbLayout
  3
ObjectDBX Classes
 90
        0
280
     0
281
     0
  0
ENDSEC
  0
SECTION
  2
TABLES
  0
TABLE
  2
VPORT
  5
8
330
0
100
AcDbSymbolTable
 70
     1
  0
VPORT
  5
29
330
8
100
AcDbSymbolTableRecord
100
AcDbViewportTableRecord
  2
*Active
 70
     0
 10
0.0
 20
0.0
 11
1.0
 21
1.0
 12
297.0
 22
210.0
 13
0.0
 23
0.0
 14
10.0
 24
10.0
 15
10.0
 25
10.0
 16
0.0
 26
0.0
 36
1.0
 17
0.0
 27
0.0
 37
0.0
 40
420.0
 41
1.4142857143
 42
50.0
 43
0.0
 44
0.0
 50
0.0
 51
0.0
 71
     0
 72
  2000
 73
     1
 74
     3
 75
     0
 76
     0
 77
     0
 78
     0
281
     0
 65
     1
110
0.0
120
0.0
130
0.0
111
1.0
121
0.0
131
0.0
112
0.0
122
1.0
132
0.0
 79
     0
146
0.0
  0
ENDTAB
  0
TABLE
  2
LTYPE
  5
5
330
0
100
AcDbSymbolTable
 70
     6
  0
LTYPE
  5
14
330
5
100
AcDbSymbolTableRecord
100
AcDbLinetypeTableRecord
  2
ByBlock
 70
     0
  3

 72
    65
 73
     0
 40
0.0
  0
LTYPE
  5
15
330
5
100
AcDbSymbolTableRecord
100
AcDbLinetypeTableRecord
  2
ByLayer
 70
     0
  3

 72
    65
 73
     0
 40
0.0
  0
LTYPE
  5
16
330
5
100
AcDbSymbolTableRecord
100
AcDbLinetypeTableRecord
  2
Continuous
 70
     0
  3
Solid line
 72
    65
 73
     0
 40
0.0
  0
LTYPE
  5
3F
330
5
100
AcDbSymbolTableRecord
100
AcDbLinetypeTableRecord
  2
HIDDEN
 70
     0
  3
Hidden __ __ __ __ __ __ __ __ __ __ __ __ __ __
 72
    65
 73
     2
 40
1.905
 49
1.27
 74
     0
 49
-0.635
 74
     0
  0
LTYPE
  5
40
330
5
100
AcDbSymbolTableRecord
100
AcDbLinetypeTableRecord
  2
PHANTOM
 70
     0
  3
Phantom ______  __  __  ______  __  __  ______
 72
    65
 73
     6
 40
12.7
 49
6.35
 74
     0
 49
-1.27
 74
     0
 49
1.27
 74
     0
 49
-1.27
 74
     0
 49
1.27
 74
     0
 49
-1.27
 74
     0
  0
LTYPE
  5
41
330
5
100
AcDbSymbolTableRecord
100
AcDbLinetypeTableRecord
  2
CENTER
 70
     0
  3
Center ____ _ ____ _ ____ _ ____ _ ____ _ ____
 72
    65
 73
     4
 40
10.16
 49
6.35
 74
     0
 49
-1.27
 74
     0
 49
1.27
 74
     0
 49
-1.27
 74
     0
  0
LTYPE
  5
42
330
5
100
AcDbSymbolTableRecord
100
AcDbLinetypeTableRecord
  2
CENTERX2
 70
     0
  3
Center (2x) ________  __  ________  __  _____
 72
    65
 73
     4
 40
20.32
 49
12.7
 74
     0
 49
-2.54
 74
     0
 49
2.54
 74
     0
 49
-2.54
 74
     0
  0
LTYPE
  5
43
330
5
100
AcDbSymbolTableRecord
100
AcDbLinetypeTableRecord
  2
DOT2
 70
     0
  3
Dot (.5x) ........................................
 72
    65
 73
     2
 40
0.635
 49
0.0
 74
     0
 49
-0.635
 74
     0
  0
ENDTAB
  0
TABLE
  2
LAYER
  5
2
330
0
100
AcDbSymbolTable
 70
     3
  0
LAYER
  5
10
330
2
100
AcDbSymbolTableRecord
100
AcDbLayerTableRecord
  2
0
 70
     0
 62
     7
  6
Continuous
370
    -3
390
F
  0
LAYER
  5
44
330
2
100
AcDbSymbolTableRecord
100
AcDbLayerTableRecord
  2
FORMAT
 70
     0
 62
     7
  6
Continuous
370
    -3
390
F
  0
LAYER
  5
45
330
2
100
AcDbSymbolTableRecord
100
AcDbLayerTableRecord
  2
PROTOTYPE
 70
     0
 62
     7
  6
Continuous
370
    -3
390
F
  0
ENDTAB
  0
TABLE
  2
STYLE
  5
3
330
0
100
AcDbSymbolTable
 70
     1
  0
STYLE
  5
11
330
3
100
AcDbSymbolTableRecord
100
AcDbTextStyleTableRecord
  2
Standard
 70
     0
 40
0.0
 41
1.0
 50
0.0
 71
     0
 42
2.5
  3
txt
  4

  0
ENDTAB
  0
TABLE
  2
VIEW
  5
6
330
0
100
AcDbSymbolTable
 70
     0
  0
ENDTAB
  0
TABLE
  2
UCS
  5
7
330
0
100
AcDbSymbolTable
 70
     0
  0
ENDTAB
  0
TABLE
  2
APPID
  5
9
330
0
100
AcDbSymbolTable
 70
     1
  0
APPID
  5
12
330
9
100
AcDbSymbolTableRecord
100
AcDbRegAppTableRecord
  2
ACAD
 70
     0
  0
ENDTAB
  0
TABLE
  2
DIMSTYLE
  5
A
330
0
100
AcDbSymbolTable
 70
     1
100
AcDbDimStyleTable
  0
DIMSTYLE
105
27
330
A
100
AcDbSymbolTableRecord
100
AcDbDimStyleTableRecord
  2
ISO-25
 70
     0
 41
2.5
 42
0.625
 43
3.75
 44
1.25
 73
     0
 74
     0
 77
     1
 78
     8
140
2.5
141
2.5
143
0.0393700787
147
0.625
171
     3
172
     1
178
     0
271
     2
272
     2
274
     3
278
    44
283
     0
284
     8
340
11
  0
ENDTAB
  0
TABLE
  2
BLOCK_RECORD
  5
1
330
0
100
AcDbSymbolTable
 70
     2
  0
BLOCK_RECORD
  5
1F
330
1
100
AcDbSymbolTableRecord
100
AcDbBlockTableRecord
  2
*Model_Space
340
22
  0
BLOCK_RECORD
  5
1B
330
1
100
AcDbSymbolTableRecord
100
AcDbBlockTableRecord
  2
*Paper_Space
340
1E
  0
BLOCK_RECORD
  5
23
330
1
100
AcDbSymbolTableRecord
100
AcDbBlockTableRecord
  2
*Paper_Space0
340
26
  0
BLOCK_RECORD
  5
233
330
1
100
AcDbSymbolTableRecord
100
AcDbBlockTableRecord
  2
SW_CENTERMARKSYMBOL_0
340
0
102
{BLKREFS
331
23E
102
}
  0
ENDTAB
  0
ENDSEC
  0
SECTION
  2
BLOCKS
  0
BLOCK
  5
20
330
1F
100
AcDbEntity
  8
0
100
AcDbBlockBegin
  2
*Model_Space
 70
     0
 10
0.0
 20
0.0
 30
0.0
  3
*Model_Space
  1

  0
ENDBLK
  5
21
330
1F
100
AcDbEntity
  8
0
100
AcDbBlockEnd
  0
BLOCK
  5
1C
330
1B
100
AcDbEntity
 67
     1
  8
0
100
AcDbBlockBegin
  2
*Paper_Space
 70
     0
 10
0.0
 20
0.0
 30
0.0
  3
*Paper_Space
  1

  0
ENDBLK
  5
1D
330
1B
100
AcDbEntity
 67
     1
  8
0
100
AcDbBlockEnd
  0
BLOCK
  5
24
330
23
100
AcDbEntity
  8
0
100
AcDbBlockBegin
  2
*Paper_Space0
 70
     0
 10
0.0
 20
0.0
 30
0.0
  3
*Paper_Space0
  1

  0
ENDBLK
  5
25
330
23
100
AcDbEntity
  8
0
100
AcDbBlockEnd
  0
BLOCK
  5
234
330
233
100
AcDbEntity
  8
0
100
AcDbBlockBegin
  2
SW_CENTERMARKSYMBOL_0
 70
     0
 10
0.0
 20
0.0
 30
0.0
  3
SW_CENTERMARKSYMBOL_0
  1

  0
LINE
  5
236
330
233
100
AcDbEntity
  8
FORMAT
 62
     0
100
AcDbLine
 10
0.0
 20
0.0
 30
0.0
 11
0.0
 21
2.5
 31
0.0
  0
LINE
  5
237
330
233
100
AcDbEntity
  8
FORMAT
 62
     0
100
AcDbLine
 10
0.0
 20
0.0
 30
0.0
 11
-2.5
 21
0.0
 31
0.0
  0
LINE
  5
238
330
233
100
AcDbEntity
  8
FORMAT
 62
     0
100
AcDbLine
 10
0.0
 20
0.0
 30
0.0
 11
0.0
 21
-2.5
 31
0.0
  0
LINE
  5
239
330
233
100
AcDbEntity
  8
FORMAT
 62
     0
100
AcDbLine
 10
0.0
 20
0.0
 30
0.0
 11
2.5
 21
0.0
 31
0.0
  0
LINE
  5
23A
330
233
100
AcDbEntity
  8
FORMAT
 62
     0
100
AcDbLine
 10
0.0
 20
5.0
 30
0.0
 11
0.0
 21
193.3197783656
 31
0.0
  0
LINE
  5
23B
330
233
100
AcDbEntity
  8
FORMAT
 62
     0
100
AcDbLine
 10
-5.0
 20
0.0
 30
0.0
 11
-192.8063899621
 21
0.0
 31
0.0
  0
LINE
  5
23C
330
233
100
AcDbEntity
  8
FORMAT
 62
     0
100
AcDbLine
 10
0.0
 20
-5.0
 30
0.0
 11
0.0
 21
-195.9307812054
 31
0.0
  0
LINE
  5
23D
330
233
100
AcDbEntity
  8
FORMAT
 62
     0
100
AcDbLine
 10
5.0
 20
0.0
 30
0.0
 11
194.9998261596
 21
0.0
 31
0.0
  0
ENDBLK
  5
235
330
233
100
AcDbEntity
  8
0
100
AcDbBlockEnd
  0
ENDSEC
  0
SECTION
  2
ENTITIES
  0
LINE
  5
46
330
1F
100
AcDbEntity
  8
0
  6
Continuous
 62
     7
370
    15
100
AcDbLine
 10
-343.0431456294
 20
1465.6540722091
 30
0.0
 11
-341.9057930036
 21
1452.6540722091
 31
0.0
  0
LINE
  5
47
330
1F
100
AcDbEntity
  8
0
  6
Continuous
 62
     7
370
    15
100
AcDbLine
 10
15.8195017447
 20
1452.6540722091
 30
0.0
 11
16.9568543706
 21
1465.6540722091
 31
0.0
  0
ARC
  5
48
330
1F
100
AcDbEntity
  8
0
  6
Continuous
 62
     7
370
    15
100
AcDbCircle
 10
-332.0431456294
 20
1465.6540722091
 30
0.0
 40
11.0
100
AcDbArc
 50
90.0
 51
180.0
  0
ARC
  5
49
330
1F
100
AcDbEntity
  8
0
  6
Continuous
 62
     7
370
    15
100
AcDbCircle
 10
5.9568543706
 20
1465.6540722091
 30
0.0
 40
11.0
100
AcDbArc
 50
0.0
 51
90.0
  0
LINE
  5
4A
330
1F
100
AcDbEntity
  8
0
  6
Continuous
 62
     7
370
    15
100
AcDbLine
 10
-10.5431456294
 20
1047.8540722091
 30
0.0
 11
-10.5431456294
 21
1066.8540722091
 31
0.0
  0
LINE
  5
4B
330
1F
100
AcDbEntity
  8
0
  6
Continuous
 62
     7
370
    15
100
AcDbLine
 10
-315.5431456294
 20
1066.8540722091
 30
0.0
 11
-315.5431456294
 21
1047.8540722091
 31
0.0
  0
LINE
  5
4C
330
1F
100
AcDbEntity
  8
0
  6
Continuous
 62
     7
370
    15
100
AcDbLine
 10
-84.4931456294
 20
1066.8540722091
 30
0.0
 11
-84.4931456294
 21
1152.9540722091
 31
0.0
  0
LINE
  5
4D
330
1F
100
AcDbEntity
  8
0
  6
Continuous
 62
     7
370
    15
100
AcDbLine
 10
-241.5931456294
 20
1152.9540722091
 30
0.0
 11
-241.5931456294
 21
1066.8540722091
 31
0.0
  0
LINE
  5
4E
330
1F
100
AcDbEntity
  8
0
  6
Continuous
 62
     7
370
    15
100
AcDbLine
 10
-97.9931456294
 20
1407.5254993385
 30
0.0
 11
-125.2519398417
 21
1408.9540722091
 31
0.0
  0
LINE
  5
4F
330
1F
100
AcDbEntity
  8
0
  6
Continuous
 62
     7
370
    15
100
AcDbLine
 10
-200.8343514172
 20
1408.9540722091
 30
0.0
 11
-228.0931456294
 21
1407.5254993385
 31
0.0
  0
LINE
  5
50
330
1F
100
AcDbEntity
  8
0
  6
Continuous
 62
     7
370
    15
100
AcDbLine
 10
-123.0431456294
 20
1412.7540722091
 30
0.0
 11
-123.0431456294
 21
1420.7540722091
 31
0.0
  0
LINE
  5
51
330
1F
100
AcDbEntity
  8
0
  6
Continuous
 62
     7
370
    15
100
AcDbLine
 10
-203.0431456294
 20
1420.7540722091
 30
0.0
 11
-203.0431456294
 21
1412.7540722091
 31
0.0
  0
LINE
  5
52
330
1F
100
AcDbEntity
  8
0
  6
Continuous
 62
     7
370
    15
100
AcDbLine
 10
-125.2519398417
 20
1408.9540722091
 30
0.0
 11
-125.5843967631
 21
1412.7540722091
 31
0.0
  0
LINE
  5
53
330
1F
100
AcDbEntity
  8
0
  6
Continuous
 62
     7
370
    15
100
AcDbLine
 10
-200.5018944958
 20
1412.7540722091
 30
0.0
 11
-200.8343514172
 21
1408.9540722091
 31
0.0
  0
LINE
  5
54
330
1F
100
AcDbEntity
  8
0
  6
Continuous
 62
     7
370
    15
100
AcDbLine
 10
-155.0431456294
 20
1447.4540722091
 30
0.0
 11
-155.0431456294
 21
1452.6540722091
 31
0.0
  0
LINE
  5
55
330
1F
100
AcDbEntity
  8
0
  6
Continuous
 62
     7
370
    15
100
AcDbLine
 10
-171.0431456294
 20
1452.6540722091
 30
0.0
 11
-171.0431456294
 21
1447.4540722091
 31
0.0
  0
ARC
  5
56
330
1F
100
AcDbEntity
  8
0
  6
Continuous
 62
     7
370
    15
100
AcDbCircle
 10
-163.0431456294
 20
1488.9540722091
 30
0.0
 40
17.50000000000003
100
AcDbArc
 50
180.0
 51
224.6126317563
  0
ARC
  5
57
330
1F
100
AcDbEntity
  8
0
  6
Continuous
 62
     7
370
    15
100
AcDbCircle
 10
-163.0431456294
 20
1488.9540722091
 30
0.0
 40
17.50000000000016
100
AcDbArc
 50
315.4052786243
 51
180.0
  0
ARC
  5
58
330
1F
100
AcDbEntity
  8
0
  6
Continuous
 62
     7
370
    15
100
AcDbCircle
 10
-163.0431456294
 20
1488.9540722091
 30
0.0
 40
31.5
100
AcDbArc
 50
337.0090327421
 51
0.0
  0
ARC
  5
59
330
1F
100
AcDbEntity
  8
0
  6
Continuous
 62
     7
370
    15
100
AcDbCircle
 10
-163.0431456294
 20
1488.9540722091
 30
0.0
 40
31.50000000000006
100
AcDbArc
 50
0.0
 51
202.9970143256
  0
LINE
  5
5A
330
1F
100
AcDbEntity
  8
0
  6
Continuous
 62
     7
370
    15
100
AcDbLine
 10
-267.3431456294
 20
1270.3540722091
 30
0.0
 11
-289.0431456294
 21
1270.3540722091
 31
0.0
  0
LINE
  5
5B
330
1F
100
AcDbEntity
  8
0
  6
Continuous
 62
     7
370
    15
100
AcDbLine
 10
-289.0431456294
 20
1262.3540722091
 30
0.0
 11
-267.3431456294
 21
1262.3540722091
 31
0.0
  0
LINE
  5
5C
330
1F
100
AcDbEntity
  8
0
  6
Continuous
 62
     7
370
    15
100
AcDbLine
 10
-267.3431456294
 20
1243.3540722091
 30
0.0
 11
-289.0431456294
 21
1243.3540722091
 31
0.0
  0
LINE
  5
5D
330
1F
100
AcDbEntity
  8
0
  6
Continuous
 62
     7
370
    15
100
AcDbLine
 10
-289.0431456294
 20
1235.3540722091
 30
0.0
 11
-267.3431456294
 21
1235.3540722091
 31
0.0
  0
ARC
  5
5E
330
1F
100
AcDbEntity
  8
0
  6
Continuous
 62
     7
370
    15
100
AcDbCircle
 10
-289.0431456294
 20
1252.8540722091
 30
0.0
 40
9.500000000000227
100
AcDbArc
 50
180.0
 51
270.0
  0
ARC
  5
5F
330
1F
100
AcDbEntity
  8
0
  6
Continuous
 62
     7
370
    15
100
AcDbCircle
 10
-289.0431456294
 20
1252.8540722091
 30
0.0
 40
9.500000000000057
100
AcDbArc
 50
90.0
 51
180.0
  0
ARC
  5
60
330
1F
100
AcDbEntity
  8
0
  6
Continuous
 62
     7
370
    15
100
AcDbCircle
 10
-289.0431456294
 20
1252.8540722091
 30
0.0
 40
17.50000000000023
100
AcDbArc
 50
90.0
 51
270.0
  0
LINE
  5
61
330
1F
100
AcDbEntity
  8
0
  6
Continuous
 62
     7
370
    15
100
AcDbLine
 10
-78.5324342404
 20
1234.7613103484
 30
0.0
 11
-74.0431456294
 21
1235.1540722091
 31
0.0
  0
LINE
  5
62
330
1F
100
AcDbEntity
  8
0
  6
Continuous
 62
     7
370
    15
100
AcDbLine
 10
-74.2841941349
 20
1270.5751612207
 30
0.0
 11
-78.0041910528
 21
1270.9006187794
 31
0.0
  0
LINE
  5
63
330
1F
100
AcDbEntity
  8
0
  6
Continuous
 62
     7
370
    15
100
AcDbLine
 10
-74.6317651554
 20
1238.8755994001
 30
0.0
 11
-74.0431456294
 21
1261.3540722091
 31
0.0
  0
LINE
  5
64
330
1F
100
AcDbEntity
  8
0
  6
Continuous
 62
     7
370
    15
100
AcDbLine
 10
-74.0431456294
 20
1261.3540722091
 30
0.0
 11
-74.2844346446
 21
1270.5685279436
 31
0.0
  0
LINE
  5
65
330
1F
100
AcDbEntity
  8
0
  6
Continuous
 62
     7
370
    15
100
AcDbLine
 10
-121.8801947255
 20
1412.7540722091
 30
0.0
 11
-121.8801947255
 21
1420.7540722091
 31
0.0
  0
LINE
  5
66
330
1F
100
AcDbEntity
  8
0
  6
Continuous
 62
     7
370
    15
100
AcDbLine
 10
-343.0431456294
 20
1465.6540722091
 30
0.0
 11
16.9568543706
 21
1465.6540722091
 31
0.0
  0
LINE
  5
67
330
1F
100
AcDbEntity
  8
0
  6
Continuous
 62
     7
370
    15
100
AcDbLine
 10
-341.9057930036
 20
1452.6540722091
 30
0.0
 11
15.8195017447
 21
1452.6540722091
 31
0.0
  0
LINE
  5
68
330
1F
100
AcDbEntity
  8
0
  6
Continuous
 62
     7
370
    15
100
AcDbLine
 10
-332.0431456294
 20
1476.6540722091
 30
0.0
 11
5.9568543706
 21
1476.6540722091
 31
0.0
  0
LINE
  5
69
330
1F
100
AcDbEntity
  8
0
  6
Continuous
 62
     7
370
    15
100
AcDbLine
 10
-10.5431456294
 20
1047.8540722091
 30
0.0
 11
-315.5431456294
 21
1047.8540722091
 31
0.0
  0
LINE
  5
6A
330
1F
100
AcDbEntity
  8
0
  6
Continuous
 62
     7
370
    15
100
AcDbLine
 10
-10.5431456294
 20
1066.8540722091
 30
0.0
 11
-315.5431456294
 21
1066.8540722091
 31
0.0
  0
LINE
  5
6B
330
1F
100
AcDbEntity
  8
0
  6
Continuous
 62
     7
370
    15
100
AcDbLine
 10
-105.0431456294
 20
1280.8540722091
 30
0.0
 11
-105.0431456294
 21
1224.8540722091
 31
0.0
  0
LINE
  5
6C
330
1F
100
AcDbEntity
  8
0
  6
Continuous
 62
     7
370
    15
100
AcDbLine
 10
-221.0431456294
 20
1224.8540722091
 30
0.0
 11
-105.0431456294
 21
1224.8540722091
 31
0.0
  0
LINE
  5
6D
330
1F
100
AcDbEntity
  8
0
  6
Continuous
 62
     7
370
    15
100
AcDbLine
 10
-221.0431456294
 20
1280.8540722091
 30
0.0
 11
-221.0431456294
 21
1224.8540722091
 31
0.0
  0
LINE
  5
6E
330
1F
100
AcDbEntity
  8
0
  6
Continuous
 62
     7
370
    15
100
AcDbLine
 10
-105.0431456294
 20
1280.8540722091
 30
0.0
 11
-221.0431456294
 21
1280.8540722091
 31
0.0
  0
LINE
  5
6F
330
1F
100
AcDbEntity
  8
0
  6
Continuous
 62
     7
370
    15
100
AcDbLine
 10
-199.1556456294
 20
1353.8540722091
 30
0.0
 11
-173.5312126186
 21
1353.8540722091
 31
0.0
  0
SPLINE
  5
70
330
1F
100
AcDbEntity
  8
0
  6
Continuous
 62
     7
370
    15
100
AcDbSpline
210
0.0
220
0.0
230
1.0
 70
     8
 71
     3
 72
    10
 73
     6
 74
     0
 42
0.00000001
 43
0.00000001
 12
1.0
 22
0.0
 32
0.0
 13
1.0
 23
0.0
 33
0.0
 40
0.0
 40
0.0
 40
0.0
 40
0.0
 40
0.5
 40
0.5
 40
1.0
 40
1.0
 40
1.0
 40
1.0
 10
-173.531212618645
 20
1353.854072209141
 30
0.0
 10
-173.4569711626109
 20
1353.854072209141
 30
0.0
 10
-173.384299396839
 20
1353.831827722761
 30
0.0
 10
-173.2620741669404
 20
1353.750336731232
 30
0.0
 10
-173.2131874764115
 20
1353.691213821243
 30
0.0
 10
-173.184757793953
 20
1353.622578496277
 30
0.0
  0
LINE
  5
71
330
1F
100
AcDbEntity
  8
0
  6
Continuous
 62
     7
370
    15
100
AcDbLine
 10
-173.184757794
 20
1353.6225784963
 30
0.0
 11
-163.3896004541
 21
1329.9749768009
 31
0.0
  0
SPLINE
  5
72
330
1F
100
AcDbEntity
  8
0
  6
Continuous
 62
     7
370
    15
100
AcDbSpline
210
0.0
220
0.0
230
1.0
 70
     8
 71
     3
 72
    14
 73
    10
 74
     0
 42
0.00000001
 43
0.00000001
 12
1.0
 22
0.0
 32
0.0
 13
1.0
 23
0.0
 33
0.0
 40
0.0
 40
0.0
 40
0.0
 40
0.0
 40
0.25
 40
0.25
 40
0.5
 40
0.5
 40
0.75
 40
0.75
 40
1.0
 40
1.0
 40
1.0
 40
1.0
 10
-163.389600454117
 20
1329.974976800866
 30
0.0
 10
-163.3611539453099
 20
1329.906300853502
 30
0.0
 10
-163.3127105285089
 20
1329.84762061413
 30
0.0
 10
-163.1904604857256
 20
1329.765878425974
 30
0.0
 10
-163.1164392362553
 20
1329.74348584004
 30
0.0
 10
-162.9698801863867
 20
1329.743480336495
 30
0.0
 10
-162.8958930102694
 20
1329.765845228023
 30
0.0
 10
-162.7735777787378
 20
1329.84761417503
 30
0.0
 10
-162.7251373135341
 20
1329.906300853518
 30
0.0
 10
-162.6966908047335
 20
1329.974976800866
 30
0.0
  0
LINE
  5
73
330
1F
100
AcDbEntity
  8
0
  6
Continuous
 62
     7
370
    15
100
AcDbLine
 10
-162.6966908047
 20
1329.9749768009
 30
0.0
 11
-152.9015334649
 21
1353.6225784963
 31
0.0
  0
SPLINE
  5
74
330
1F
100
AcDbEntity
  8
0
  6
Continuous
 62
     7
370
    15
100
AcDbSpline
210
0.0
220
0.0
230
1.0
 70
     8
 71
     3
 72
    10
 73
     6
 74
     0
 42
0.00000001
 43
0.00000001
 12
1.0
 22
0.0
 32
0.0
 13
1.0
 23
0.0
 33
0.0
 40
0.0
 40
0.0
 40
0.0
 40
0.0
 40
0.5
 40
0.5
 40
1.0
 40
1.0
 40
1.0
 40
1.0
 10
-152.9015334648973
 20
1353.622578496278
 30
0.0
 10
-152.8731041281713
 20
1353.69121298657
 30
0.0
 10
-152.824707410841
 20
1353.74985074168
 30
0.0
 10
-152.70262016872
 20
1353.831566443139
 30
0.0
 10
-152.6293190928546
 20
1353.854072209141
 30
0.0
 10
-152.555078640206
 20
1353.854072209141
 30
0.0
  0
LINE
  5
75
330
1F
100
AcDbEntity
  8
0
  6
Continuous
 62
     7
370
    15
100
AcDbLine
 10
-152.5550786402
 20
1353.8540722091
 30
0.0
 11
-124.9056456294
 21
1353.8540722091
 31
0.0
  0
SPLINE
  5
76
330
1F
100
AcDbEntity
  8
0
  6
Continuous
 62
     7
370
    15
100
AcDbSpline
210
0.0
220
0.0
230
1.0
 70
     8
 71
     3
 72
    10
 73
     6
 74
     0
 42
0.00000001
 43
0.00000001
 12
1.0
 22
0.0
 32
0.0
 13
1.0
 23
0.0
 33
0.0
 40
0.0
 40
0.0
 40
0.0
 40
0.0
 40
0.5
 40
0.5
 40
1.0
 40
1.0
 40
1.0
 40
1.0
 10
-124.9056456294253
 20
1353.854072209141
 30
0.0
 10
-124.8070941403598
 20
1353.854072209141
 30
0.0
 10
-124.7106191865654
 20
1353.813979008519
 30
0.0
 10
-124.571856875606
 20
1353.676006069886
 30
0.0
 10
-124.5306456294243
 20
1353.578635405173
 30
0.0
 10
-124.5306456294242
 20
1353.479072209141
 30
0.0
  0
LINE
  5
77
330
1F
100
AcDbEntity
  8
0
  6
Continuous
 62
     7
370
    15
100
AcDbLine
 10
-124.5306456294
 20
1353.4790722091
 30
0.0
 11
-124.5306456294
 21
1346.7290722091
 31
0.0
  0
SPLINE
  5
78
330
1F
100
AcDbEntity
  8
0
  6
Continuous
 62
     7
370
    15
100
AcDbSpline
210
0.0
220
0.0
230
1.0
 70
     8
 71
     3
 72
    10
 73
     6
 74
     0
 42
0.00000001
 43
0.00000001
 12
1.0
 22
0.0
 32
0.0
 13
1.0
 23
0.0
 33
0.0
 40
0.0
 40
0.0
 40
0.0
 40
0.0
 40
0.5
 40
0.5
 40
1.0
 40
1.0
 40
1.0
 40
1.0
 10
-124.5306456294253
 20
1346.729072209141
 30
0.0
 10
-124.5306456294253
 20
1346.629526816869
 30
0.0
 10
-124.5717729887358
 20
1346.532320271694
 30
0.0
 10
-124.7103236857441
 20
1346.394360985237
 30
0.0
 10
-124.8071110384874
 20
1346.35407220914
 30
0.0
 10
-124.9056456294285
 20
1346.354072209141
 30
0.0
  0
LINE
  5
79
330
1F
100
AcDbEntity
  8
0
  6
Continuous
 62
     7
370
    15
100
AcDbLine
 10
-124.9056456294
 20
1346.3540722091
 30
0.0
 11
-147.5437388558
 21
1346.3540722091
 31
0.0
  0
SPLINE
  5
7A
330
1F
100
AcDbEntity
  8
0
  6
Continuous
 62
     7
370
    15
100
AcDbSpline
210
0.0
220
0.0
230
1.0
 70
     8
 71
     3
 72
    10
 73
     6
 74
     0
 42
0.00000001
 43
0.00000001
 12
1.0
 22
0.0
 32
0.0
 13
1.0
 23
0.0
 33
0.0
 40
0.0
 40
0.0
 40
0.0
 40
0.0
 40
0.5
 40
0.5
 40
1.0
 40
1.0
 40
1.0
 40
1.0
 10
-147.5437388558108
 20
1346.354072209141
 30
0.0
 10
-147.617956912022
 20
1346.35407220914
 30
0.0
 10
-147.6906130975961
 20
1346.331842668569
 30
0.0
 10
-147.8128382406197
 20
1346.250373814444
 30
0.0
 10
-147.8617509092367
 20
1346.191245420419
 30
0.0
 10
-147.8901936805028
 20
1346.122578496277
 30
0.0
  0
LINE
  5
7B
330
1F
100
AcDbEntity
  8
0
  6
Continuous
 62
     7
370
    15
100
AcDbLine
 10
-147.8901936805
 20
1346.1225784963
 30
0.0
 11
-159.5035045372
 21
1318.085565922
 31
0.0
  0
SPLINE
  5
7C
330
1F
100
AcDbEntity
  8
0
  6
Continuous
 62
     7
370
    15
100
AcDbSpline
210
0.0
220
0.0
230
1.0
 70
     8
 71
     3
 72
    10
 73
     6
 74
     0
 42
0.00000001
 43
0.00000001
 12
1.0
 22
0.0
 32
0.0
 13
1.0
 23
0.0
 33
0.0
 40
0.0
 40
0.0
 40
0.0
 40
0.0
 40
0.5
 40
0.5
 40
1.0
 40
1.0
 40
1.0
 40
1.0
 10
-159.5035045371916
 20
1318.085565922004
 30
0.0
 10
-159.5319243795189
 20
1318.016954353217
 30
0.0
 10
-159.5803043963656
 20
1317.958319841504
 30
0.0
 10
-159.7023831773921
 20
1317.876592543372
 30
0.0
 10
-159.7756990636495
 20
1317.854072209141
 30
0.0
 10
-159.8499593618836
 20
1317.854072209141
 30
0.0
  0
LINE
  5
7D
330
1F
100
AcDbEntity
  8
0
  6
Continuous
 62
     7
370
    15
100
AcDbLine
 10
-159.8499593619
 20
1317.8540722091
 30
0.0
 11
-166.236331897
 21
1317.8540722091
 31
0.0
  0
LINE
  5
7E
330
1F
100
AcDbEntity
  8
0
  6
Continuous
 62
     7
370
    15
100
AcDbLine
 10
-166.5827867217
 20
1318.085565922
 30
0.0
 11
-178.1960975783
 21
1346.1225784963
 31
0.0
  0
SPLINE
  5
7F
330
1F
100
AcDbEntity
  8
0
  6
Continuous
 62
     7
370
    15
100
AcDbSpline
210
0.0
220
0.0
230
1.0
 70
     8
 71
     3
 72
    10
 73
     6
 74
     0
 42
0.00000001
 43
0.00000001
 12
1.0
 22
0.0
 32
0.0
 13
1.0
 23
0.0
 33
0.0
 40
0.0
 40
0.0
 40
0.0
 40
0.0
 40
0.5
 40
0.5
 40
1.0
 40
1.0
 40
1.0
 40
1.0
 10
-178.196097578348
 20
1346.122578496278
 30
0.0
 10
-178.2245395902415
 20
1346.191243587132
 30
0.0
 10
-178.2729580706983
 20
1346.249884983798
 30
0.0
 10
-178.3950553824903
 20
1346.331585034265
 30
0.0
 10
-178.4683365619203
 20
1346.354072209141
 30
0.0
 10
-178.5425524030391
 20
1346.354072209141
 30
0.0
  0
LINE
  5
80
330
1F
100
AcDbEntity
  8
0
  6
Continuous
 62
     7
370
    15
100
AcDbLine
 10
-178.542552403
 20
1346.3540722091
 30
0.0
 11
-199.1556456294
 21
1346.3540722091
 31
0.0
  0
SPLINE
  5
81
330
1F
100
AcDbEntity
  8
0
  6
Continuous
 62
     7
370
    15
100
AcDbSpline
210
0.0
220
0.0
230
1.0
 70
     8
 71
     3
 72
    10
 73
     6
 74
     0
 42
0.00000001
 43
0.00000001
 12
1.0
 22
0.0
 32
0.0
 13
1.0
 23
0.0
 33
0.0
 40
0.0
 40
0.0
 40
0.0
 40
0.0
 40
0.5
 40
0.5
 40
1.0
 40
1.0
 40
1.0
 40
1.0
 10
-199.1556456294253
 20
1346.354072209141
 30
0.0
 10
-199.2542480356679
 20
1346.35407220914
 30
0.0
 10
-199.3507622491775
 20
1346.394219251811
 30
0.0
 10
-199.4894823429588
 20
1346.532221892825
 30
0.0
 10
-199.5306456294262
 20
1346.629563664618
 30
0.0
 10
-199.5306456294264
 20
1346.72907220914
 30
0.0
  0
LINE
  5
82
330
1F
100
AcDbEntity
  8
0
  6
Continuous
 62
     7
370
    15
100
AcDbLine
 10
-199.5306456294
 20
1346.7290722091
 30
0.0
 11
-199.5306456294
 21
1353.4790722091
 31
0.0
  0
SPLINE
  5
83
330
1F
100
AcDbEntity
  8
0
  6
Continuous
 62
     7
370
    15
100
AcDbSpline
210
0.0
220
0.0
230
1.0
 70
     8
 71
     3
 72
    10
 73
     6
 74
     0
 42
0.00000001
 43
0.00000001
 12
1.0
 22
0.0
 32
0.0
 13
1.0
 23
0.0
 33
0.0
 40
0.0
 40
0.0
 40
0.0
 40
0.0
 40
0.5
 40
0.5
 40
1.0
 40
1.0
 40
1.0
 40
1.0
 10
-199.5306456294253
 20
1353.479072209141
 30
0.0
 10
-199.5306456294253
 20
1353.578564851212
 30
0.0
 10
-199.4895721202233
 20
1353.675734648792
 30
0.0
 10
-199.3510518413289
 20
1353.813735366323
 30
0.0
 10
-199.2542328474999
 20
1353.854072209142
 30
0.0
 10
-199.1556456294223
 20
1353.854072209141
 30
0.0
  0
SPLINE
  5
84
330
1F
100
AcDbEntity
  8
0
  6
Continuous
 62
     7
370
    15
100
AcDbSpline
210
0.0
220
0.0
230
1.0
 70
     8
 71
     3
 72
    10
 73
     6
 74
     0
 42
0.00000001
 43
0.00000001
 12
1.0
 22
0.0
 32
0.0
 13
1.0
 23
0.0
 33
0.0
 40
0.0
 40
0.0
 40
0.0
 40
0.0
 40
0.5
 40
0.5
 40
1.0
 40
1.0
 40
1.0
 40
1.0
 10
-166.2363318969672
 20
1317.854072209141
 30
0.0
 10
-166.3105922986935
 20
1317.854072209141
 30
0.0
 10
-166.3832756713653
 20
1317.876328534155
 30
0.0
 10
-166.5055001134691
 20
1317.957836067924
 30
0.0
 10
-166.5543668477913
 20
1318.016954277071
 30
0.0
 10
-166.5827867216589
 20
1318.085565922004
 30
0.0
  0
SPLINE
  5
85
330
1F
100
AcDbEntity
  8
0
  6
Continuous
 62
     7
370
    15
100
AcDbSpline
210
0.0
220
0.0
230
1.0
 70
     8
 71
     3
 72
    10
 73
     6
 74
     0
 42
0.00000001
 43
0.00000001
 12
1.0
 22
0.0
 32
0.0
 13
1.0
 23
0.0
 33
0.0
 40
0.0
 40
0.0
 40
0.0
 40
0.0
 40
0.5
 40
0.5
 40
1.0
 40
1.0
 40
1.0
 40
1.0
 10
-180.3917552755101
 20
1343.586544533864
 30
0.0
 10
-180.3175480853694
 20
1343.586544533864
 30
0.0
 10
-180.2448991896474
 20
1343.564321946844
 30
0.0
 10
-180.1226741321601
 20
1343.482863444663
 30
0.0
 10
-180.0737493489115
 20
1343.423732536612
 30
0.0
 10
-180.0453004508181
 20
1343.355050821
 30
0.0
  0
LINE
  5
86
330
1F
100
AcDbEntity
  8
0
  6
Continuous
 62
     7
370
    15
100
AcDbLine
 10
-180.0453004508
 20
1343.355050821
 30
0.0
 11
-169.6972215923
 21
1318.3725784963
 31
0.0
  0
LINE
  5
87
330
1F
100
AcDbEntity
  8
0
  6
Continuous
 62
     7
370
    15
100
AcDbLine
 10
-170.043676417
 20
1317.8540722091
 30
0.0
 11
-177.349823769
 21
1317.8540722091
 31
0.0
  0
SPLINE
  5
88
330
1F
100
AcDbEntity
  8
0
  6
Continuous
 62
     7
370
    15
100
AcDbSpline
210
0.0
220
0.0
230
1.0
 70
     8
 71
     3
 72
    10
 73
     6
 74
     0
 42
0.00000001
 43
0.00000001
 12
1.0
 22
0.0
 32
0.0
 13
1.0
 23
0.0
 33
0.0
 40
0.0
 40
0.0
 40
0.0
 40
0.0
 40
0.5
 40
0.5
 40
1.0
 40
1.0
 40
1.0
 40
1.0
 10
-177.349823768973
 20
1317.854072209141
 30
0.0
 10
-177.4240511671293
 20
1317.85407220914
 30
0.0
 10
-177.4967106889073
 20
1317.876306958231
 30
0.0
 10
-177.618933400505
 20
1317.957780676442
 30
0.0
 10
-177.6678388241689
 20
1318.016906244777
 30
0.0
 10
-177.6962785936646
 20
1318.085565922004
 30
0.0
  0
LINE
  5
89
330
1F
100
AcDbEntity
  8
0
  6
Continuous
 62
     7
370
    15
100
AcDbLine
 10
-177.6962785937
 20
1318.085565922
 30
0.0
 11
-179.6791241252
 21
1322.8725784963
 31
0.0
  0
SPLINE
  5
8A
330
1F
100
AcDbEntity
  8
0
  6
Continuous
 62
     7
370
    15
100
AcDbSpline
210
0.0
220
0.0
230
1.0
 70
     8
 71
     3
 72
    10
 73
     6
 74
     0
 42
0.00000001
 43
0.00000001
 12
1.0
 22
0.0
 32
0.0
 13
1.0
 23
0.0
 33
0.0
 40
0.0
 40
0.0
 40
0.0
 40
0.0
 40
0.5
 40
0.5
 40
1.0
 40
1.0
 40
1.0
 40
1.0
 10
-179.6791241251795
 20
1322.872578496278
 30
0.0
 10
-179.7075708408474
 20
1322.941254943048
 30
0.0
 10
-179.7559973778461
 20
1322.999897663876
 30
0.0
 10
-179.878098382223
 20
1323.081591900894
 30
0.0
 10
-179.951372177624
 20
1323.104072209141
 30
0.0
 10
-180.0255789498705
 20
1323.104072209141
 30
0.0
  0
LINE
  5
8B
330
1F
100
AcDbEntity
  8
0
  6
Continuous
 62
     7
370
    15
100
AcDbLine
 10
-180.0255789499
 20
1323.1040722091
 30
0.0
 11
-191.2000159356
 21
1323.1040722091
 31
0.0
  0
SPLINE
  5
8C
330
1F
100
AcDbEntity
  8
0
  6
Continuous
 62
     7
370
    15
100
AcDbSpline
210
0.0
220
0.0
230
1.0
 70
     8
 71
     3
 72
    10
 73
     6
 74
     0
 42
0.00000001
 43
0.00000001
 12
1.0
 22
0.0
 32
0.0
 13
1.0
 23
0.0
 33
0.0
 40
0.0
 40
0.0
 40
0.0
 40
0.0
 40
0.5
 40
0.5
 40
1.0
 40
1.0
 40
1.0
 40
1.0
 10
-191.2000159355539
 20
1323.104072209141
 30
0.0
 10
-191.2741414261858
 20
1323.10407220914
 30
0.0
 10
-191.3467291867273
 20
1323.081903541197
 30
0.0
 10
-191.4689482412973
 20
1323.000531491314
 30
0.0
 10
-191.5179707313041
 20
1322.941383652676
 30
0.0
 10
-191.5464707602454
 20
1322.872578496278
 30
0.0
  0
LINE
  5
8D
330
1F
100
AcDbEntity
  8
0
  6
Continuous
 62
     7
370
    15
100
AcDbLine
 10
-191.5464707602
 20
1322.8725784963
 30
0.0
 11
-193.5293162918
 21
1318.085565922
 31
0.0
  0
SPLINE
  5
8E
330
1F
100
AcDbEntity
  8
0
  6
Continuous
 62
     7
370
    15
100
AcDbSpline
210
0.0
220
0.0
230
1.0
 70
     8
 71
     3
 72
    10
 73
     6
 74
     0
 42
0.00000001
 43
0.00000001
 12
1.0
 22
0.0
 32
0.0
 13
1.0
 23
0.0
 33
0.0
 40
0.0
 40
0.0
 40
0.0
 40
0.0
 40
0.5
 40
0.5
 40
1.0
 40
1.0
 40
1.0
 40
1.0
 10
-193.5293162917604
 20
1318.085565922004
 30
0.0
 10
-193.5578282428186
 20
1318.016731983069
 30
0.0
 10
-193.6063659604807
 20
1317.958071709279
 30
0.0
 10
-193.7285169866313
 20
1317.876458213048
 30
0.0
 10
-193.8016885035723
 20
1317.854072209141
 30
0.0
 10
-193.8757711164508
 20
1317.854072209141
 30
0.0
  0
LINE
  5
8F
330
1F
100
AcDbEntity
  8
0
  6
Continuous
 62
     7
370
    15
100
AcDbLine
 10
-193.8757711165
 20
1317.8540722091
 30
0.0
 11
-201.1819184684
 21
1317.8540722091
 31
0.0
  0
SPLINE
  5
90
330
1F
100
AcDbEntity
  8
0
  6
Continuous
 62
     7
370
    15
100
AcDbSpline
210
0.0
220
0.0
230
1.0
 70
     8
 71
     3
 72
    10
 73
     6
 74
     0
 42
0.00000001
 43
0.00000001
 12
1.0
 22
0.0
 32
0.0
 13
1.0
 23
0.0
 33
0.0
 40
0.0
 40
0.0
 40
0.0
 40
0.0
 40
0.5
 40
0.5
 40
1.0
 40
1.0
 40
1.0
 40
1.0
 10
-201.1819184684257
 20
1317.854072209141
 30
0.0
 10
-201.3050302025428
 20
1317.85407220914
 30
0.0
 10
-201.4240449985301
 20
1317.917352813004
 30
0.0
 10
-201.5617174835123
 20
1318.12161548926
 30
0.0
 10
-201.5758977308818
 20
1318.257844354083
 30
0.0
 10
-201.5283732931172
 20
1318.372578496278
 30
0.0
  0
LINE
  5
91
330
1F
100
AcDbEntity
  8
0
  6
Continuous
 62
     7
370
    15
100
AcDbLine
 10
-201.5283732931
 20
1318.3725784962
 30
0.0
 11
-194.4057806532
 21
1335.5680382467
 31
0.0
  0
SPLINE
  5
92
330
1F
100
AcDbEntity
  8
0
  6
Continuous
 62
     7
370
    15
100
AcDbSpline
210
0.0
220
0.0
230
1.0
 70
     8
 71
     3
 72
    10
 73
     6
 74
     0
 42
0.00000001
 43
0.00000001
 12
1.0
 22
0.0
 32
0.0
 13
1.0
 23
0.0
 33
0.0
 40
0.0
 40
0.0
 40
0.0
 40
0.0
 40
0.5
 40
0.5
 40
1.0
 40
1.0
 40
1.0
 40
1.0
 10
-194.4057806532407
 20
1335.568038246727
 30
0.0
 10
-194.3583017743554
 20
1335.682662400058
 30
0.0
 10
-194.3719973665926
 20
1335.817822464453
 30
0.0
 10
-194.5095530619429
 20
1336.022962684932
 30
0.0
 10
-194.6289115797032
 20
1336.086544533863
 30
0.0
 10
-194.7522354779311
 20
1336.086544533864
 30
0.0
  0
LINE
  5
93
330
1F
100
AcDbEntity
  8
0
  6
Continuous
 62
     7
370
    15
100
AcDbLine
 10
-194.7522354779
 20
1336.0865445339
 30
0.0
 11
-199.1556456294
 21
1336.0865445339
 31
0.0
  0
SPLINE
  5
94
330
1F
100
AcDbEntity
  8
0
  6
Continuous
 62
     7
370
    15
100
AcDbSpline
210
0.0
220
0.0
230
1.0
 70
     8
 71
     3
 72
    10
 73
     6
 74
     0
 42
0.00000001
 43
0.00000001
 12
1.0
 22
0.0
 32
0.0
 13
1.0
 23
0.0
 33
0.0
 40
0.0
 40
0.0
 40
0.0
 40
0.0
 40
0.5
 40
0.5
 40
1.0
 40
1.0
 40
1.0
 40
1.0
 10
-199.1556456294253
 20
1336.086544533864
 30
0.0
 10
-199.254248035668
 20
1336.086544533864
 30
0.0
 10
-199.3507622491777
 20
1336.126691576534
 30
0.0
 10
-199.4894823429589
 20
1336.264694217548
 30
0.0
 10
-199.5306456294262
 20
1336.362035989341
 30
0.0
 10
-199.5306456294263
 20
1336.461544533863
 30
0.0
  0
LINE
  5
95
330
1F
100
AcDbEntity
  8
0
  6
Continuous
 62
     7
370
    15
100
AcDbLine
 10
-199.5306456294
 20
1336.4615445339
 30
0.0
 11
-199.5306456294
 21
1343.2115445339
 31
0.0
  0
SPLINE
  5
96
330
1F
100
AcDbEntity
  8
0
  6
Continuous
 62
     7
370
    15
100
AcDbSpline
210
0.0
220
0.0
230
1.0
 70
     8
 71
     3
 72
    10
 73
     6
 74
     0
 42
0.00000001
 43
0.00000001
 12
1.0
 22
0.0
 32
0.0
 13
1.0
 23
0.0
 33
0.0
 40
0.0
 40
0.0
 40
0.0
 40
0.0
 40
0.5
 40
0.5
 40
1.0
 40
1.0
 40
1.0
 40
1.0
 10
-199.5306456294252
 20
1343.211544533864
 30
0.0
 10
-199.5306456294252
 20
1343.311037175936
 30
0.0
 10
-199.489572120223
 20
1343.408206973515
 30
0.0
 10
-199.3510518413273
 20
1343.546207691047
 30
0.0
 10
-199.2542328475004
 20
1343.586544533865
 30
0.0
 10
-199.1556456294222
 20
1343.586544533864
 30
0.0
  0
LINE
  5
97
330
1F
100
AcDbEntity
  8
0
  6
Continuous
 62
     7
370
    15
100
AcDbLine
 10
-199.1556456294
 20
1343.5865445339
 30
0.0
 11
-180.3917552755
 21
1343.5865445339
 31
0.0
  0
LINE
  5
98
330
1F
100
AcDbEntity
  8
0
  6
Continuous
 62
     7
370
    15
100
AcDbLine
 10
-183.2098457106
 20
1330.0415722091
 30
0.0
 11
-188.0157491748
 21
1330.0415722091
 31
0.0
  0
SPLINE
  5
99
330
1F
100
AcDbEntity
  8
0
  6
Continuous
 62
     7
370
    15
100
AcDbSpline
210
0.0
220
0.0
230
1.0
 70
     8
 71
     3
 72
    10
 73
     6
 74
     0
 42
0.00000001
 43
0.00000001
 12
1.0
 22
0.0
 32
0.0
 13
1.0
 23
0.0
 33
0.0
 40
0.0
 40
0.0
 40
0.0
 40
0.0
 40
0.5
 40
0.5
 40
1.0
 40
1.0
 40
1.0
 40
1.0
 10
-182.8633908859226
 20
1330.560078496278
 30
0.0
 10
-182.8159640933006
 20
1330.44558009031
 30
0.0
 10
-182.8295441785593
 20
1330.310693447708
 30
0.0
 10
-182.9666540601745
 20
1330.105610171968
 30
0.0
 10
-183.0862144106517
 20
1330.041572209141
 30
0.0
 10
-183.2098457106135
 20
1330.041572209141
 30
0.0
  0
LINE
  5
9A
330
1F
100
AcDbEntity
  8
0
  6
Continuous
 62
     7
370
    15
100
AcDbLine
 10
-185.266342618
 20
1336.3613171577
 30
0.0
 11
-182.8633908859
 21
1330.5600784963
 31
0.0
  0
SPLINE
  5
9B
330
1F
100
AcDbEntity
  8
0
  6
Continuous
 62
     7
370
    15
100
AcDbSpline
210
0.0
220
0.0
230
1.0
 70
     8
 71
     3
 72
    14
 73
    10
 74
     0
 42
0.00000001
 43
0.00000001
 12
1.0
 22
0.0
 32
0.0
 13
1.0
 23
0.0
 33
0.0
 40
0.0
 40
0.0
 40
0.0
 40
0.0
 40
0.25
 40
0.25
 40
0.5
 40
0.5
 40
0.75
 40
0.75
 40
1.0
 40
1.0
 40
1.0
 40
1.0
 10
-185.9592522674043
 20
1336.361317157637
 30
0.0
 10
-185.9307557541938
 20
1336.430113826309
 30
0.0
 10
-185.8822285573862
 20
1336.488805319389
 30
0.0
 10
-185.7599459434913
 20
1336.570484140825
 30
0.0
 10
-185.6860115122113
 20
1336.5928060811
 30
0.0
 10
-185.5396324437219
 20
1336.592815658294
 30
0.0
 10
-185.4657321366441
 20
1336.570526962533
 30
0.0
 10
-185.3433729767596
 20
1336.488822499354
 30
0.0
 10
-185.2948399790286
 20
1336.430115873075
 30
0.0
 10
-185.2663426180203
 20
1336.361317157636
 30
0.0
  0
LINE
  5
9C
330
1F
100
AcDbEntity
  8
0
  6
Continuous
 62
     7
370
    15
100
AcDbLine
 10
-188.3622039995
 20
1330.5600784963
 30
0.0
 11
-185.9592522674
 21
1336.3613171576
 31
0.0
  0
SPLINE
  5
9D
330
1F
100
AcDbEntity
  8
0
  6
Continuous
 62
     7
370
    15
100
AcDbSpline
210
0.0
220
0.0
230
1.0
 70
     8
 71
     3
 72
    10
 73
     6
 74
     0
 42
0.00000001
 43
0.00000001
 12
1.0
 22
0.0
 32
0.0
 13
1.0
 23
0.0
 33
0.0
 40
0.0
 40
0.0
 40
0.0
 40
0.0
 40
0.5
 40
0.5
 40
1.0
 40
1.0
 40
1.0
 40
1.0
 10
-188.0157491748107
 20
1330.041572209141
 30
0.0
 10
-188.1392792316777
 20
1330.04157220914
 30
0.0
 10
-188.2584476257437
 20
1330.105278752388
 30
0.0
 10
-188.3957810415879
 20
1330.309886059448
 30
0.0
 10
-188.4096523604797
 20
1330.445528019694
 30
0.0
 10
-188.3622039995024
 20
1330.560078496278
 30
0.0
  0
SPLINE
  5
9E
330
1F
100
AcDbEntity
  8
0
  6
Continuous
 62
     7
370
    15
100
AcDbSpline
210
0.0
220
0.0
230
1.0
 70
     8
 71
     3
 72
    10
 73
     6
 74
     0
 42
0.00000001
 43
0.00000001
 12
1.0
 22
0.0
 32
0.0
 13
1.0
 23
0.0
 33
0.0
 40
0.0
 40
0.0
 40
0.0
 40
0.0
 40
0.5
 40
0.5
 40
1.0
 40
1.0
 40
1.0
 40
1.0
 10
-169.6972215923077
 20
1318.372578496278
 30
0.0
 10
-169.6498255320957
 20
1318.258154284911
 30
0.0
 10
-169.663337493385
 20
1318.123428558445
 30
0.0
 10
-169.8001859928385
 20
1317.918378322669
 30
0.0
 10
-169.9198610992316
 20
1317.854072209141
 30
0.0
 10
-170.0436764169991
 20
1317.854072209141
 30
0.0
  0
SPLINE
  5
9F
330
1F
100
AcDbEntity
  8
0
  6
Continuous
 62
     7
370
    15
100
AcDbSpline
210
0.0
220
0.0
230
1.0
 70
     8
 71
     3
 72
    16
 73
    12
 74
     0
 42
0.00000001
 43
0.00000001
 12
1.0
 22
0.0
 32
0.0
 13
1.0
 23
0.0
 33
0.0
 40
0.0
 40
0.0
 40
0.0
 40
0.0
 40
0.2499999999999617
 40
0.2499999999999617
 40
0.3749999999999681
 40
0.3749999999999681
 40
0.4999999999999745
 40
0.4999999999999745
 40
0.7499999999999872
 40
0.7499999999999872
 40
1.0
 40
1.0
 40
1.0
 40
1.0
 10
-127.3904336933235
 20
1335.886605509474
 30
0.0
 10
-127.8018767309226
 20
1335.10718007294
 30
0.0
 10
-128.2750696341593
 20
1334.375852781504
 30
0.0
 10
-129.0733402200397
 20
1333.347636076489
 30
0.0
 10
-129.3542669432347
 20
1333.016429240059
 30
0.0
 10
-129.9461431480768
 20
1332.377324905272
 30
0.0
 10
-130.2581151700972
 20
1332.06850884157
 30
0.0
 10
-131.2338096054871
 20
1331.184364477517
 30
0.0
 10
-131.9257893303233
 20
1330.660477592211
 30
0.0
 10
-133.3893606556798
 20
1329.738023922148
 30
0.0
 10
-134.1609496245588
 20
1329.33945476763
 30
0.0
 10
-134.9743667674446
 20
1329.006571033352
 30
0.0
  0
SPLINE
  5
A0
330
1F
100
AcDbEntity
  8
0
  6
Continuous
 62
     7
370
    15
100
AcDbSpline
210
0.0
220
0.0
230
1.0
 70
     8
 71
     3
 72
    10
 73
     6
 74
     0
 42
0.00000001
 43
0.00000001
 12
1.0
 22
0.0
 32
0.0
 13
1.0
 23
0.0
 33
0.0
 40
0.0
 40
0.0
 40
0.0
 40
0.0
 40
0.5
 40
0.5
 40
1.0
 40
1.0
 40
1.0
 40
1.0
 10
-134.9743667674426
 20
1329.006571033353
 30
0.0
 10
-135.0761779212075
 20
1328.964905723797
 30
0.0
 10
-135.1564616637688
 20
1328.877301274819
 30
0.0
 10
-135.2227023109533
 20
1328.669747327037
 30
0.0
 10
-135.207899923945
 20
1328.551093736849
 30
0.0
 10
-135.1486065880732
 20
1328.458021842711
 30
0.0
  0
LINE
  5
A1
330
1F
100
AcDbEntity
  8
0
  6
Continuous
 62
     7
370
    15
100
AcDbLine
 10
-135.1486065881
 20
1328.4580218427
 30
0.0
 11
-128.7604085778
 21
1318.4305595623
 31
0.0
  0
SPLINE
  5
A2
330
1F
100
AcDbEntity
  8
0
  6
Continuous
 62
     7
370
    15
100
AcDbSpline
210
0.0
220
0.0
230
1.0
 70
     8
 71
     3
 72
    12
 73
     8
 74
     0
 42
0.00000001
 43
0.00000001
 12
1.0
 22
0.0
 32
0.0
 13
1.0
 23
0.0
 33
0.0
 40
0.0
 40
0.0
 40
0.0
 40
0.0
 40
0.25
 40
0.25
 40
0.5
 40
0.5
 40
1.0
 40
1.0
 40
1.0
 40
1.0
 10
-128.7604085778361
 20
1318.430559562271
 30
0.0
 10
-128.724154818007
 20
1318.37365255835
 30
0.0
 10
-128.7039998968472
 20
1318.30770977469
 30
0.0
 10
-128.6997427802568
 20
1318.174367042809
 30
0.0
 10
-128.7160186068636
 20
1318.10650053824
 30
0.0
 10
-128.812970784565
 20
1317.930768434154
 30
0.0
 10
-128.9424980488401
 20
1317.85407220914
 30
0.0
 10
-129.0766803700187
 20
1317.854072209141
 30
0.0
  0
LINE
  5
A3
330
1F
100
AcDbEntity
  8
0
  6
Continuous
 62
     7
370
    15
100
AcDbLine
 10
-129.07668037
 20
1317.8540722091
 30
0.0
 11
-136.382827722
 21
1317.8540722091
 31
0.0
  0
SPLINE
  5
A4
330
1F
100
AcDbEntity
  8
0
  6
Continuous
 62
     7
370
    15
100
AcDbSpline
210
0.0
220
0.0
230
1.0
 70
     8
 71
     3
 72
     8
 73
     4
 74
     0
 42
0.00000001
 43
0.00000001
 12
1.0
 22
0.0
 32
0.0
 13
1.0
 23
0.0
 33
0.0
 40
0.0
 40
0.0
 40
0.0
 40
0.0
 40
1.0
 40
1.0
 40
1.0
 40
1.0
 10
-136.3828277219895
 20
1317.854072209141
 30
0.0
 10
-136.5092754773572
 20
1317.854072209141
 30
0.0
 10
-136.6309169778222
 20
1317.920559712094
 30
0.0
 10
-136.6990995141704
 20
1318.027584856012
 30
0.0
  0
LINE
  5
A5
330
1F
100
AcDbEntity
  8
0
  6
Continuous
 62
     7
370
    15
100
AcDbLine
 10
-136.6990995142
 20
1318.027584856
 30
0.0
 11
-143.4112070989
 21
1328.5634833239
 31
0.0
  0
SPLINE
  5
A6
330
1F
100
AcDbEntity
  8
0
  6
Continuous
 62
     7
370
    15
100
AcDbSpline
210
0.0
220
0.0
230
1.0
 70
     8
 71
     3
 72
    14
 73
    10
 74
     0
 42
0.00000001
 43
0.00000001
 12
1.0
 22
0.0
 32
0.0
 13
1.0
 23
0.0
 33
0.0
 40
0.0
 40
0.0
 40
0.0
 40
0.0
 40
0.25
 40
0.25
 40
0.5
 40
0.5
 40
0.75
 40
0.75
 40
1.0
 40
1.0
 40
1.0
 40
1.0
 10
-143.4112070989308
 20
1328.563483323871
 30
0.0
 10
-143.4482076176717
 20
1328.621562504485
 30
0.0
 10
-143.5006786662046
 20
1328.668247939328
 30
0.0
 10
-143.6223666450922
 20
1328.728301889363
 30
0.0
 10
-143.6922022936411
 20
1328.74148347687
 30
0.0
 10
-143.8277810571916
 20
1328.729684264159
 30
0.0
 10
-143.8936180170214
 20
1328.705046784132
 30
0.0
 10
-144.0038612690483
 20
1328.624481876825
 30
0.0
 10
-144.0475700883603
 20
1328.569149684803
 30
0.0
 10
-144.0739337158027
 20
1328.505502257878
 30
0.0
  0
LINE
  5
A7
330
1F
100
AcDbEntity
  8
0
  6
Continuous
 62
     7
370
    15
100
AcDbLine
 10
-144.0739337158
 20
1328.5055022579
 30
0.0
 11
-148.3900126652
 21
1318.085565922
 31
0.0
  0
SPLINE
  5
A8
330
1F
100
AcDbEntity
  8
0
  6
Continuous
 62
     7
370
    15
100
AcDbSpline
210
0.0
220
0.0
230
1.0
 70
     8
 71
     3
 72
    10
 73
     6
 74
     0
 42
0.00000001
 43
0.00000001
 12
1.0
 22
0.0
 32
0.0
 13
1.0
 23
0.0
 33
0.0
 40
0.0
 40
0.0
 40
0.0
 40
0.0
 40
0.5
 40
0.5
 40
1.0
 40
1.0
 40
1.0
 40
1.0
 10
-148.3900126651858
 20
1318.085565922004
 30
0.0
 10
-148.4184517884679
 20
1318.016907804874
 30
0.0
 10
-148.4668641911018
 20
1317.958268668447
 30
0.0
 10
-148.5889566286395
 20
1317.876565411788
 30
0.0
 10
-148.662242053005
 20
1317.854072209141
 30
0.0
 10
-148.7364674898787
 20
1317.854072209141
 30
0.0
  0
LINE
  5
A9
330
1F
100
AcDbEntity
  8
0
  6
Continuous
 62
     7
370
    15
100
AcDbLine
 10
-148.7364674899
 20
1317.8540722091
 30
0.0
 11
-156.0426148419
 21
1317.8540722091
 31
0.0
  0
SPLINE
  5
AA
330
1F
100
AcDbEntity
  8
0
  6
Continuous
 62
     7
370
    15
100
AcDbSpline
210
0.0
220
0.0
230
1.0
 70
     8
 71
     3
 72
    10
 73
     6
 74
     0
 42
0.00000001
 43
0.00000001
 12
1.0
 22
0.0
 32
0.0
 13
1.0
 23
0.0
 33
0.0
 40
0.0
 40
0.0
 40
0.0
 40
0.0
 40
0.5
 40
0.5
 40
1.0
 40
1.0
 40
1.0
 40
1.0
 10
-156.0426148418512
 20
1317.854072209141
 30
0.0
 10
-156.1664304828339
 20
1317.854072209141
 30
0.0
 10
-156.2857070233918
 20
1317.918072019009
 30
0.0
 10
-156.4228079684181
 20
1318.12292083845
 30
0.0
 10
-156.436465883246
 20
1318.258153907108
 30
0.0
 10
-156.3890696665429
 20
1318.372578496278
 30
0.0
  0
LINE
  5
AB
330
1F
100
AcDbEntity
  8
0
  6
Continuous
 62
     7
370
    15
100
AcDbLine
 10
-156.3890696665
 20
1318.3725784963
 30
0.0
 11
-146.040990808
 21
1343.355050821
 31
0.0
  0
SPLINE
  5
AC
330
1F
100
AcDbEntity
  8
0
  6
Continuous
 62
     7
370
    15
100
AcDbSpline
210
0.0
220
0.0
230
1.0
 70
     8
 71
     3
 72
    10
 73
     6
 74
     0
 42
0.00000001
 43
0.00000001
 12
1.0
 22
0.0
 32
0.0
 13
1.0
 23
0.0
 33
0.0
 40
0.0
 40
0.0
 40
0.0
 40
0.0
 40
0.5
 40
0.5
 40
1.0
 40
1.0
 40
1.0
 40
1.0
 10
-146.0409908080321
 20
1343.355050821001
 30
0.0
 10
-146.0125428637042
 20
1343.423730234019
 30
0.0
 10
-145.9641142235644
 20
1343.482373298914
 30
0.0
 10
-145.8420122574964
 20
1343.564066017098
 30
0.0
 10
-145.7687403907656
 20
1343.586544533864
 30
0.0
 10
-145.6945359833411
 20
1343.586544533864
 30
0.0
  0
LINE
  5
AD
330
1F
100
AcDbEntity
  8
0
  6
Continuous
 62
     7
370
    15
100
AcDbLine
 10
-145.6945359833
 20
1343.5865445339
 30
0.0
 11
-138.3883886314
 21
1343.5865445339
 31
0.0
  0
SPLINE
  5
AE
330
1F
100
AcDbEntity
  8
0
  6
Continuous
 62
     7
370
    15
100
AcDbSpline
210
0.0
220
0.0
230
1.0
 70
     8
 71
     3
 72
    10
 73
     6
 74
     0
 42
0.00000001
 43
0.00000001
 12
1.0
 22
0.0
 32
0.0
 13
1.0
 23
0.0
 33
0.0
 40
0.0
 40
0.0
 40
0.0
 40
0.0
 40
0.5
 40
0.5
 40
1.0
 40
1.0
 40
1.0
 40
1.0
 10
-138.3883886313668
 20
1343.586544533864
 30
0.0
 10
-138.2648506587997
 20
1343.586544533864
 30
0.0
 10
-138.1456793880943
 20
1343.522829941742
 30
0.0
 10
-138.0083523748668
 20
1343.318216112425
 30
0.0
 10
-137.9944868780488
 20
1343.182585265309
 30
0.0
 10
-138.0419338066751
 20
1343.068038246727
 30
0.0
  0
LINE
  5
AF
330
1F
100
AcDbEntity
  8
0
  6
Continuous
 62
     7
370
    15
100
AcDbLine
 10
-138.0419338067
 20
1343.0680382467
 30
0.0
 11
-141.3159730541
 21
1335.1638082918
 31
0.0
  0
SPLINE
  5
B0
330
1F
100
AcDbEntity
  8
0
  6
Continuous
 62
     7
370
    15
100
AcDbSpline
210
0.0
220
0.0
230
1.0
 70
     8
 71
     3
 72
    10
 73
     6
 74
     0
 42
0.00000001
 43
0.00000001
 12
1.0
 22
0.0
 32
0.0
 13
1.0
 23
0.0
 33
0.0
 40
0.0
 40
0.0
 40
0.0
 40
0.0
 40
0.5
 40
0.5
 40
1.0
 40
1.0
 40
1.0
 40
1.0
 10
-141.3159730541243
 20
1335.163808291793
 30
0.0
 10
-141.3624340474827
 20
1335.051641531506
 30
0.0
 10
-141.3503406799666
 20
1334.919680801761
 30
0.0
 10
-141.2204124439716
 20
1334.716653427492
 30
0.0
 10
-141.1054251082626
 20
1334.650424918988
 30
0.0
 10
-140.9844645437196
 20
1334.645599979456
 30
0.0
  0
SPLINE
  5
B1
330
1F
100
AcDbEntity
  8
0
  6
Continuous
 62
     7
370
    15
100
AcDbSpline
210
0.0
220
0.0
230
1.0
 70
     8
 71
     3
 72
    26
 73
    22
 74
     0
 42
0.00000001
 43
0.00000001
 12
1.0
 22
0.0
 32
0.0
 13
1.0
 23
0.0
 33
0.0
 40
0.0
 40
0.0
 40
0.0
 40
0.0
 40
0.1249999999999772
 40
0.1249999999999772
 40
0.1874999999999696
 40
0.1874999999999696
 40
0.2499999999999619
 40
0.2499999999999619
 40
0.3749999999999471
 40
0.3749999999999471
 40
0.4374999999999525
 40
0.4374999999999525
 40
0.4999999999999579
 40
0.4999999999999579
 40
0.6249999999999684
 40
0.6249999999999684
 40
0.7499999999999789
 40
0.7499999999999789
 40
0.8749999999999893
 40
0.8749999999999893
 40
1.0
 40
1.0
 40
1.0
 40
1.0
 10
-140.9844645437187
 20
1334.645599979456
 30
0.0
 10
-140.4137726335658
 20
1334.622835916078
 30
0.0
 10
-139.850865246715
 20
1334.659100720356
 30
0.0
 10
-139.017689515046
 20
1334.798377909485
 30
0.0
 10
-138.741843364588
 20
1334.859065228902
 30
0.0
 10
-138.1940058478469
 20
1335.009733883003
 30
0.0
 10
-137.9224845731452
 20
1335.099806112402
 30
0.0
 10
-137.1323783976424
 20
1335.407820957656
 30
0.0
 10
-136.6316286278136
 20
1335.664749129705
 30
0.0
 10
-135.9196252711214
 20
1336.127922186599
 30
0.0
 10
-135.6876789643911
 20
1336.296446155893
 30
0.0
 10
-135.2463782974279
 20
1336.653431244933
 30
0.0
 10
-135.0363125599531
 20
1336.842146866196
 30
0.0
 10
-134.4371685206757
 20
1337.438306543132
 30
0.0
 10
-134.0775744287123
 20
1337.877322381326
 30
0.0
 10
-133.4499979782151
 20
1338.831086724511
 30
0.0
 10
-133.1901257813365
 20
1339.332667977788
 30
0.0
 10
-132.7749456661304
 20
1340.383776304843
 30
0.0
 10
-132.6192344085005
 20
1340.939439793511
 30
0.0
 10
-132.4279196788669
 20
1342.058749623656
 30
0.0
 10
-132.3899861784428
 20
1342.62483120841
 30
0.0
 10
-132.4114148488993
 20
1343.197522794733
 30
0.0
  0
SPLINE
  5
B2
330
1F
100
AcDbEntity
  8
0
  6
Continuous
 62
     7
370
    15
100
AcDbSpline
210
0.0
220
0.0
230
1.0
 70
     8
 71
     3
 72
    10
 73
     6
 74
     0
 42
0.00000001
 43
0.00000001
 12
1.0
 22
0.0
 32
0.0
 13
1.0
 23
0.0
 33
0.0
 40
0.0
 40
0.0
 40
0.0
 40
0.0
 40
0.5
 40
0.5
 40
1.0
 40
1.0
 40
1.0
 40
1.0
 10
-132.4114148488994
 20
1343.197522794733
 30
0.0
 10
-132.4152189807795
 20
1343.299190059879
 30
0.0
 10
-132.3759046454408
 20
1343.40011523556
 30
0.0
 10
-132.2368913418769
 20
1343.544032877005
 30
0.0
 10
-132.1377349471264
 20
1343.586544533864
 30
0.0
 10
-132.0366770861495
 20
1343.586544533864
 30
0.0
  0
LINE
  5
B3
330
1F
100
AcDbEntity
  8
0
  6
Continuous
 62
     7
370
    15
100
AcDbLine
 10
-132.0366770861
 20
1343.5865445339
 30
0.0
 11
-124.9056456294
 21
1343.5865445339
 31
0.0
  0
SPLINE
  5
B4
330
1F
100
AcDbEntity
  8
0
  6
Continuous
 62
     7
370
    15
100
AcDbSpline
210
0.0
220
0.0
230
1.0
 70
     8
 71
     3
 72
    10
 73
     6
 74
     0
 42
0.00000001
 43
0.00000001
 12
1.0
 22
0.0
 32
0.0
 13
1.0
 23
0.0
 33
0.0
 40
0.0
 40
0.0
 40
0.0
 40
0.0
 40
0.5
 40
0.5
 40
1.0
 40
1.0
 40
1.0
 40
1.0
 10
-124.9056456294253
 20
1343.586544533864
 30
0.0
 10
-124.8070941403598
 20
1343.586544533863
 30
0.0
 10
-124.7106191865654
 20
1343.546451333242
 30
0.0
 10
-124.571856875606
 20
1343.408478394609
 30
0.0
 10
-124.5306456294244
 20
1343.311107729896
 30
0.0
 10
-124.5306456294242
 20
1343.211544533865
 30
0.0
  0
LINE
  5
B5
330
1F
100
AcDbEntity
  8
0
  6
Continuous
 62
     7
370
    15
100
AcDbLine
 10
-124.5306456294
 20
1343.2115445339
 30
0.0
 11
-124.5306456294
 21
1336.4615445339
 31
0.0
  0
SPLINE
  5
B6
330
1F
100
AcDbEntity
  8
0
  6
Continuous
 62
     7
370
    15
100
AcDbSpline
210
0.0
220
0.0
230
1.0
 70
     8
 71
     3
 72
    10
 73
     6
 74
     0
 42
0.00000001
 43
0.00000001
 12
1.0
 22
0.0
 32
0.0
 13
1.0
 23
0.0
 33
0.0
 40
0.0
 40
0.0
 40
0.0
 40
0.0
 40
0.5
 40
0.5
 40
1.0
 40
1.0
 40
1.0
 40
1.0
 10
-124.5306456294253
 20
1336.461544533864
 30
0.0
 10
-124.5306456294253
 20
1336.361999141592
 30
0.0
 10
-124.5717729887359
 20
1336.264792596417
 30
0.0
 10
-124.7103236857441
 20
1336.126833309961
 30
0.0
 10
-124.8071110384874
 20
1336.086544533863
 30
0.0
 10
-124.9056456294285
 20
1336.086544533864
 30
0.0
  0
LINE
  5
B7
330
1F
100
AcDbEntity
  8
0
  6
Continuous
 62
     7
370
    15
100
AcDbLine
 10
-124.9056456294
 20
1336.0865445339
 30
0.0
 11
-127.0588033949
 21
1336.0865445339
 31
0.0
  0
SPLINE
  5
B8
330
1F
100
AcDbEntity
  8
0
  6
Continuous
 62
     7
370
    15
100
AcDbSpline
210
0.0
220
0.0
230
1.0
 70
     8
 71
     3
 72
     8
 73
     4
 74
     0
 42
0.00000001
 43
0.00000001
 12
1.0
 22
0.0
 32
0.0
 13
1.0
 23
0.0
 33
0.0
 40
0.0
 40
0.0
 40
0.0
 40
0.0
 40
1.0
 40
1.0
 40
1.0
 40
1.0
 10
-127.058803394921
 20
1336.086544533864
 30
0.0
 10
-127.1952864960912
 20
1336.086544533864
 30
0.0
 10
-127.3262644105974
 20
1336.008165887535
 30
0.0
 10
-127.3904336933243
 20
1335.886605509472
 30
0.0
  0
SPLINE
  5
B9
330
1F
100
AcDbEntity
  8
0
  6
Continuous
 62
     7
370
    15
100
AcDbSpline
210
0.0
220
0.0
230
1.0
 70
     8
 71
     3
 72
    18
 73
    14
 74
     0
 42
0.00000001
 43
0.00000001
 12
1.0
 22
0.0
 32
0.0
 13
1.0
 23
0.0
 33
0.0
 40
0.0
 40
0.0
 40
0.0
 40
0.0
 40
0.2500000000000003
 40
0.2500000000000003
 40
0.3750000000000003
 40
0.3750000000000003
 40
0.5000000000000004
 40
0.5000000000000004
 40
0.7500000000000002
 40
0.7500000000000002
 40
0.8750000000000002
 40
0.8750000000000002
 40
1.0
 40
1.0
 40
1.0
 40
1.0
 10
-163.0431456295549
 20
1408.002410130019
 30
0.0
 10
-157.918670622049
 20
1408.002410130019
 30
0.0
 10
-152.8017120056725
 20
1407.972579947938
 30
0.0
 10
-145.1375418528553
 20
1407.887091840696
 30
0.0
 10
-142.5846973882856
 20
1407.85187978696
 30
0.0
 10
-137.482773089895
 20
1407.769328428376
 30
0.0
 10
-134.9325589318159
 20
1407.721970813268
 30
0.0
 10
-127.2981119687266
 20
1407.564153600115
 30
0.0
 10
-122.2296686429685
 20
1407.438067553495
 30
0.0
 10
-114.6589116765048
 20
1407.226489055363
 30
0.0
 10
-112.1396282225395
 20
1407.152170189195
 30
0.0
 10
-107.1181308514122
 20
1406.99741118249
 30
0.0
 10
-104.6157601429293
 20
1406.916970167204
 30
0.0
 10
-102.1217097890129
 20
1406.833980558425
 30
0.0
  0
SPLINE
  5
BA
330
1F
100
AcDbEntity
  8
0
  6
Continuous
 62
     7
370
    15
100
AcDbSpline
210
0.0
220
0.0
230
1.0
 70
     8
 71
     3
 72
     8
 73
     4
 74
     0
 42
0.00000001
 43
0.00000001
 12
1.0
 22
0.0
 32
0.0
 13
1.0
 23
0.0
 33
0.0
 40
0.0
 40
0.0
 40
0.0
 40
0.0
 40
1.0
 40
1.0
 40
1.0
 40
1.0
 10
-90.43240131316321
 20
1377.107596177672
 30
0.0
 10
-94.28818298963637
 20
1387.055515956933
 30
0.0
 10
-98.18300970532037
 20
1396.965584975412
 30
0.0
 10
-102.1217097890128
 20
1406.833980558424
 30
0.0
  0
SPLINE
  5
BB
330
1F
100
AcDbEntity
  8
0
  6
Continuous
 62
     7
370
    15
100
AcDbSpline
210
0.0
220
0.0
230
1.0
 70
     8
 71
     3
 72
     8
 73
     4
 74
     0
 42
0.00000001
 43
0.00000001
 12
1.0
 22
0.0
 32
0.0
 13
1.0
 23
0.0
 33
0.0
 40
0.0000069159360224
 40
0.0000069159360224
 40
0.0000069159360224
 40
0.0000069159360224
 40
0.0005559619023243
 40
0.0005559619023243
 40
0.0005559619023243
 40
0.0005559619023243
 10
-90.42694511831382
 20
1376.609404421673
 30
0.0
 10
-90.42868330160343
 20
1376.775460065157
 30
0.0
 10
-90.43050205103047
 20
1376.941524020742
 30
0.0
 10
-90.4324013131633
 20
1377.107596177672
 30
0.0
  0
SPLINE
  5
BC
330
1F
100
AcDbEntity
  8
0
  6
Continuous
 62
     7
370
    15
100
AcDbSpline
210
0.0
220
0.0
230
1.0
 70
     8
 71
     3
 72
     8
 73
     4
 74
     0
 42
0.00000001
 43
0.00000001
 12
1.0
 22
0.0
 32
0.0
 13
1.0
 23
0.0
 33
0.0
 40
0.0
 40
0.0
 40
0.0
 40
0.0
 40
1.0
 40
1.0
 40
1.0
 40
1.0
 10
-90.42694511831382
 20
1376.609404421673
 30
0.0
 10
-95.24881325685993
 20
1376.752723615629
 30
0.0
 10
-100.103592202377
 20
1376.893594638565
 30
0.0
 10
-104.9914505413583
 20
1377.024482867706
 30
0.0
  0
SPLINE
  5
BD
330
1F
100
AcDbEntity
  8
0
  6
Continuous
 62
     7
370
    15
100
AcDbSpline
210
0.0
220
0.0
230
1.0
 70
     8
 71
     3
 72
    21
 73
    17
 74
     0
 42
0.00000001
 43
0.00000001
 12
1.0
 22
0.0
 32
0.0
 13
1.0
 23
0.0
 33
0.0
 40
0.0
 40
0.0
 40
0.0
 40
0.0
 40
0.0556457249796991
 40
0.1112645765036508
 40
0.1668585832000752
 40
0.2224297743765864
 40
0.2779801798354672
 40
0.3335118296883822
 40
0.389026754170627
 40
0.4445269834550208
 40
0.5000145474655423
 40
0.5845985145177375
 40
0.7500167871465798
 40
0.8608312455667244
 40
0.9441594111764294
 40
0.9999999999999999
 40
0.9999999999999999
 40
0.9999999999999999
 40
0.9999999999999999
 10
-104.9914505413583
 20
1377.024482867706
 30
0.0
 10
-105.5208120388775
 20
1377.038581718886
 30
0.0
 10
-106.579279384937
 20
1377.06677261237
 30
0.0
 10
-108.169245297566
 20
1377.108087406513
 30
0.0
 10
-109.7603535479801
 20
1377.148647344046
 30
0.0
 10
-111.3527964851974
 20
1377.188361723817
 30
0.0
 10
-112.9465222401281
 20
1377.227225424137
 30
0.0
 10
-114.5415442669504
 20
1377.265208917574
 30
0.0
 10
-116.1378587982687
 20
1377.302294768594
 30
0.0
 10
-117.7354656657489
 20
1377.338441576111
 30
0.0
 10
-119.6139420578239
 20
1377.379855309881
 30
0.0
 10
-122.5518689527752
 20
1377.441860699149
 30
0.0
 10
-126.0293014628835
 20
1377.510024692331
 30
0.0
 10
-129.5018140695175
 20
1377.571995125555
 30
0.0
 10
-131.9191272292122
 20
1377.612253502376
 30
0.0
 10
-133.2662983978989
 20
1377.63320536904
 30
0.0
 10
-133.8068423699416
 20
1377.641612173974
 30
0.0
  0
SPLINE
  5
BE
330
1F
100
AcDbEntity
  8
0
  6
Continuous
 62
     7
370
    15
100
AcDbSpline
210
0.0
220
0.0
230
1.0
 70
     8
 71
     3
 72
    21
 73
    17
 74
     0
 42
0.00000001
 43
0.00000001
 12
1.0
 22
0.0
 32
0.0
 13
1.0
 23
0.0
 33
0.0
 40
0.0
 40
0.0
 40
0.0
 40
0.0
 40
0.0555038854966618
 40
0.1110174399021884
 40
0.1665427224749319
 40
0.2220818012437767
 40
0.2776367527982733
 40
0.3332096620758477
 40
0.3888026221461877
 40
0.4444177339929218
 40
0.5000571062927104
 40
0.5847879288154318
 40
0.7499683130110345
 40
0.8610167668392356
 40
0.9443889828588538
 40
1.0
 40
1.0
 40
1.0
 40
1.0
 10
-133.8068423699416
 20
1377.641612173974
 30
0.0
 10
-134.3456891649062
 20
1377.649761786142
 30
0.0
 10
-135.4234766232286
 20
1377.66606243016
 30
0.0
 10
-137.0416254484714
 20
1377.688947265351
 30
0.0
 10
-138.6609992629752
 20
1377.710667551774
 30
0.0
 10
-140.2816982067625
 20
1377.731095643485
 30
0.0
 10
-141.9036981470949
 20
1377.750245656941
 30
0.0
 10
-143.5270082317455
 20
1377.768092198383
 30
0.0
 10
-145.1516287982282
 20
1377.784626110573
 30
0.0
 10
-146.7775621314912
 20
1377.799812802427
 30
0.0
 10
-148.6881572030263
 20
1377.816121904516
 30
0.0
 10
-151.6681176825696
 20
1377.837928594366
 30
0.0
 10
-155.1907420820116
 20
1377.856755066907
 30
0.0
 10
-158.7015026749984
 20
1377.867666105186
 30
0.0
 10
-161.1429429229611
 20
1377.8716037274
 30
0.0
 10
-162.5001069472397
 20
1377.871949531229
 30
0.0
 10
-163.0431456296842
 20
1377.872087896859
 30
0.0
  0
SPLINE
  5
BF
330
1F
100
AcDbEntity
  8
0
  6
Continuous
 62
     7
370
    15
100
AcDbSpline
210
0.0
220
0.0
230
1.0
 70
     8
 71
     3
 72
    21
 73
    17
 74
     0
 42
0.00000001
 43
0.00000001
 12
1.0
 22
0.0
 32
0.0
 13
1.0
 23
0.0
 33
0.0
 40
0.0
 40
0.0
 40
0.0
 40
0.0
 40
0.0586556703080709
 40
0.1165366648143981
 40
0.1736429973733404
 40
0.2299746824163266
 40
0.2855317349840354
 40
0.3403141707606763
 40
0.3943220061108824
 40
0.4475552581192076
 40
0.50001394463248
 40
0.6015734218934466
 40
0.7023516203394631
 40
0.8023486839775416
 40
0.9015647602216207
 40
0.9999999999999999
 40
0.9999999999999999
 40
0.9999999999999999
 40
0.9999999999999999
 10
-221.0948407174924
 20
1377.024482867706
 30
0.0
 10
-220.5368328902891
 20
1377.039342074324
 30
0.0
 10
-219.4281869438519
 20
1377.068864239391
 30
0.0
 10
-217.7734027275652
 20
1377.111821815517
 30
0.0
 10
-216.1388058364105
 20
1377.153430269994
 30
0.0
 10
-214.5243333775942
 20
1377.193618461685
 30
0.0
 10
-212.9301802535012
 20
1377.232405063191
 30
0.0
 10
-211.3564661342734
 20
1377.26978523447
 30
0.0
 10
-209.8033234044806
 20
1377.305760063172
 30
0.0
 10
-208.2708731078685
 20
1377.340329973912
 30
0.0
 10
-206.2801703808412
 20
1377.384002055628
 30
0.0
 10
-203.8293728575853
 20
1377.435486372194
 30
0.0
 10
-200.9164081439803
 20
1377.493106916211
 30
0.0
 10
-198.0214368623288
 20
1377.546686158626
 30
0.0
 10
-195.1452120288761
 20
1377.596563421809
 30
0.0
 10
-193.2321840817235
 20
1377.626635523957
 30
0.0
 10
-192.2794488889089
 20
1377.641612173974
 30
0.0
  0
SPLINE
  5
C0
330
1F
100
AcDbEntity
  8
0
  6
Continuous
 62
     7
370
    15
100
AcDbSpline
210
0.0
220
0.0
230
1.0
 70
     8
 71
     3
 72
     8
 73
     4
 74
     0
 42
0.00000001
 43
0.00000001
 12
1.0
 22
0.0
 32
0.0
 13
1.0
 23
0.0
 33
0.0
 40
0.0
 40
0.0
 40
0.0
 40
0.0
 40
1.0
 40
1.0
 40
1.0
 40
1.0
 10
-235.6593461405367
 20
1376.609404421673
 30
0.0
 10
-230.8374780019906
 20
1376.752723615629
 30
0.0
 10
-225.9826990564735
 20
1376.893594638565
 30
0.0
 10
-221.0948407174922
 20
1377.024482867706
 30
0.0
  0
SPLINE
  5
C1
330
1F
100
AcDbEntity
  8
0
  6
Continuous
 62
     7
370
    15
100
AcDbSpline
210
0.0
220
0.0
230
1.0
 70
     8
 71
     3
 72
     8
 73
     4
 74
     0
 42
0.00000001
 43
0.00000001
 12
1.0
 22
0.0
 32
0.0
 13
1.0
 23
0.0
 33
0.0
 40
0.0000069159360224
 40
0.0000069159360224
 40
0.0000069159360224
 40
0.0000069159360224
 40
0.0005559619023243
 40
0.0005559619023243
 40
0.0005559619023243
 40
0.0005559619023243
 10
-235.6593461405367
 20
1376.609404421673
 30
0.0
 10
-235.6576079572471
 20
1376.775460065157
 30
0.0
 10
-235.65578920782
 20
1376.941524020742
 30
0.0
 10
-235.6538899456872
 20
1377.107596177672
 30
0.0
  0
SPLINE
  5
C2
330
1F
100
AcDbEntity
  8
0
  6
Continuous
 62
     7
370
    15
100
AcDbSpline
210
0.0
220
0.0
230
1.0
 70
     8
 71
     3
 72
     8
 73
     4
 74
     0
 42
0.00000001
 43
0.00000001
 12
1.0
 22
0.0
 32
0.0
 13
1.0
 23
0.0
 33
0.0
 40
0.0
 40
0.0
 40
0.0
 40
0.0
 40
1.0
 40
1.0
 40
1.0
 40
1.0
 10
-235.6538899456873
 20
1377.107596177672
 30
0.0
 10
-231.7981082692141
 20
1387.055515956933
 30
0.0
 10
-227.9032815535301
 20
1396.965584975412
 30
0.0
 10
-223.9645814698377
 20
1406.833980558424
 30
0.0
  0
SPLINE
  5
C3
330
1F
100
AcDbEntity
  8
0
  6
Continuous
 62
     7
370
    15
100
AcDbSpline
210
0.0
220
0.0
230
1.0
 70
     8
 71
     3
 72
    18
 73
    14
 74
     0
 42
0.00000001
 43
0.00000001
 12
1.0
 22
0.0
 32
0.0
 13
1.0
 23
0.0
 33
0.0
 40
0.0
 40
0.0
 40
0.0
 40
0.0
 40
0.2500000000000002
 40
0.2500000000000002
 40
0.3750000000000003
 40
0.3750000000000003
 40
0.5000000000000004
 40
0.5000000000000004
 40
0.7500000000000003
 40
0.7500000000000003
 40
0.8750000000000002
 40
0.8750000000000002
 40
1.0
 40
1.0
 40
1.0
 40
1.0
 10
-163.0431456292957
 20
1408.002410130019
 30
0.0
 10
-168.1676206368015
 20
1408.002410130019
 30
0.0
 10
-173.284579253178
 20
1407.972579947938
 30
0.0
 10
-180.9487494059952
 20
1407.887091840696
 30
0.0
 10
-183.5015938705649
 20
1407.851879786959
 30
0.0
 10
-188.6035181689555
 20
1407.769328428376
 30
0.0
 10
-191.1537323270346
 20
1407.721970813268
 30
0.0
 10
-198.7881792901238
 20
1407.564153600115
 30
0.0
 10
-203.856622615882
 20
1407.438067553495
 30
0.0
 10
-211.4273795823458
 20
1407.226489055364
 30
0.0
 10
-213.9466630363111
 20
1407.152170189195
 30
0.0
 10
-218.9681604074383
 20
1406.997411182489
 30
0.0
 10
-221.4705311159212
 20
1406.916970167204
 30
0.0
 10
-223.9645814698376
 20
1406.833980558425
 30
0.0
  0
SPLINE
  5
C4
330
1F
100
AcDbEntity
  8
0
  6
Continuous
 62
     7
370
    15
100
AcDbSpline
210
0.0
220
0.0
230
1.0
 70
     8
 71
     3
 72
    21
 73
    17
 74
     0
 42
0.00000001
 43
0.00000001
 12
1.0
 22
0.0
 32
0.0
 13
1.0
 23
0.0
 33
0.0
 40
0.0
 40
0.0
 40
0.0
 40
0.0
 40
0.0570468701304606
 40
0.1137223992238807
 40
0.1700266213305467
 40
0.2259595711794802
 40
0.2815212841965111
 40
0.3367117965229796
 40
0.3915311450349248
 40
0.4459793673632149
 40
0.5000565019140283
 40
0.6002649490888756
 40
0.7003632677687223
 40
0.8003517122499512
 40
0.9002305376681706
 40
1.0
 40
1.0
 40
1.0
 40
1.0
 10
-192.2794488889089
 20
1377.641612173974
 30
0.0
 10
-191.7256186467108
 20
1377.649987598784
 30
0.0
 10
-190.6215632662581
 20
1377.666683929392
 30
0.0
 10
-188.9695200213594
 20
1377.690030827205
 30
0.0
 10
-187.3273925191103
 20
1377.712027094647
 30
0.0
 10
-185.6951582091519
 20
1377.732558973079
 30
0.0
 10
-184.0729215354965
 20
1377.751656643367
 30
0.0
 10
-182.4607500796012
 20
1377.769312108138
 30
0.0
 10
-180.8587183340983
 20
1377.785527460558
 30
0.0
 10
-179.2668951858095
 20
1377.800302257067
 30
0.0
 10
-177.2320135811713
 20
1377.817458282029
 30
0.0
 10
-174.7509364428118
 20
1377.835320292464
 30
0.0
 10
-171.8206684633602
 20
1377.851764039594
 30
0.0
 10
-168.8925593327744
 20
1377.86342463041
 30
0.0
 10
-165.9669586280714
 20
1377.870731389641
 30
0.0
 10
-164.0173939856232
 20
1377.871635892942
 30
0.0
 10
-163.0431456294253
 20
1377.872087896859
 30
0.0
  0
LINE
  5
C5
330
1F
100
AcDbEntity
  8
0
  6
Continuous
 62
     7
370
    15
100
AcDbLine
 10
-235.1649578382
 20
1066.8540722091
 30
0.0
 11
-235.1649578382
 21
1152.9540722091
 31
0.0
  0
SPLINE
  5
C6
330
1F
100
AcDbEntity
  8
0
  6
Continuous
 62
     7
370
    15
100
AcDbSpline
210
0.0
220
0.0
230
1.0
 70
     8
 71
     3
 72
    20
 73
    16
 74
     0
 42
0.00000001
 43
0.00000001
 12
1.0
 22
0.0
 32
0.0
 13
1.0
 23
0.0
 33
0.0
 40
0.0
 40
0.0
 40
0.0
 40
0.0
 40
0.2500000000000044
 40
0.2500000000000044
 40
0.3750000000000067
 40
0.3750000000000067
 40
0.4375000000000078
 40
0.4375000000000078
 40
0.5000000000000089
 40
0.5000000000000089
 40
0.7500000000000044
 40
0.7500000000000044
 40
0.8750000000000022
 40
0.8750000000000022
 40
1.0
 40
1.0
 40
1.0
 40
1.0
 10
-235.1649578382412
 20
1152.954072209141
 30
0.0
 10
-237.4263876509415
 20
1171.507415329871
 30
0.0
 10
-239.1359017074879
 20
1190.100071784888
 30
0.0
 10
-240.8708084343573
 20
1218.049162648293
 30
0.0
 10
-241.3107821430029
 20
1227.375544745922
 30
0.0
 10
-241.7621030487015
 20
1241.38029663006
 30
0.0
 10
-241.8777631292743
 20
1246.051077121038
 30
0.0
 10
-242.0392465395151
 20
1255.39772393203
 30
0.0
 10
-242.0850465283355
 20
1260.073693025142
 30
0.0
 10
-242.1387975243244
 20
1283.441669937886
 30
0.0
 10
-241.6202228962791
 20
1302.117659966694
 30
0.0
 10
-240.006702785772
 20
1330.104425544947
 30
0.0
 10
-239.3293430898147
 20
1339.431623645012
 30
0.0
 10
-237.7000012231681
 20
1358.045607596841
 30
0.0
 10
-236.7479071503956
 20
1367.335780309369
 30
0.0
 10
-235.6593461405368
 20
1376.609404421673
 30
0.0
  0
SPLINE
  5
C7
330
1F
100
AcDbEntity
  8
0
  6
Continuous
 62
     7
370
    15
100
AcDbSpline
210
0.0
220
0.0
230
1.0
 70
     8
 71
     3
 72
    20
 73
    16
 74
     0
 42
0.00000001
 43
0.00000001
 12
1.0
 22
0.0
 32
0.0
 13
1.0
 23
0.0
 33
0.0
 40
0.0
 40
0.0
 40
0.0
 40
0.0
 40
0.2500000000000044
 40
0.2500000000000044
 40
0.3750000000000067
 40
0.3750000000000067
 40
0.4375000000000078
 40
0.4375000000000078
 40
0.5000000000000089
 40
0.5000000000000089
 40
0.7500000000000044
 40
0.7500000000000044
 40
0.8750000000000022
 40
0.8750000000000022
 40
1.0
 40
1.0
 40
1.0
 40
1.0
 10
-90.92133342060929
 20
1152.954072209141
 30
0.0
 10
-88.65990360790903
 20
1171.507415329871
 30
0.0
 10
-86.95038955136263
 20
1190.100071784888
 30
0.0
 10
-85.21548282449324
 20
1218.049162648293
 30
0.0
 10
-84.77550911584758
 20
1227.375544745922
 30
0.0
 10
-84.32418821014906
 20
1241.38029663006
 30
0.0
 10
-84.20852812957621
 20
1246.051077121038
 30
0.0
 10
-84.04704471933537
 20
1255.39772393203
 30
0.0
 10
-84.00124473051504
 20
1260.073693025142
 30
0.0
 10
-83.94749373452609
 20
1283.441669937886
 30
0.0
 10
-84.46606836257145
 20
1302.117659966694
 30
0.0
 10
-86.07958847307852
 20
1330.104425544947
 30
0.0
 10
-86.75694816903582
 20
1339.431623645012
 30
0.0
 10
-88.38629003568246
 20
1358.045607596841
 30
0.0
 10
-89.33838410845493
 20
1367.335780309369
 30
0.0
 10
-90.42694511831375
 20
1376.609404421673
 30
0.0
  0
LINE
  5
C8
330
1F
100
AcDbEntity
  8
0
  6
Continuous
 62
     7
370
    15
100
AcDbLine
 10
-90.9213334206
 20
1066.8540722091
 30
0.0
 11
-90.9213334206
 21
1152.9540722091
 31
0.0
  0
SPLINE
  5
C9
330
1F
100
AcDbEntity
  8
0
  6
Continuous
 62
     7
370
    15
100
AcDbSpline
210
0.0
220
0.0
230
1.0
 70
     8
 71
     3
 72
     8
 73
     4
 74
     0
 42
0.00000001
 43
0.00000001
 12
1.0
 22
0.0
 32
0.0
 13
1.0
 23
0.0
 33
0.0
 40
0.0
 40
0.0
 40
0.0
 40
0.0
 40
1.0
 40
1.0
 40
1.0
 40
1.0
 10
-78.253309482751
 20
1243.911199712533
 30
0.0
 10
-78.95295309247243
 20
1213.47039369433
 30
0.0
 10
-81.04010008567244
 20
1183.088503354294
 30
0.0
 10
-84.49314562942527
 20
1152.954072209141
 30
0.0
  0
LINE
  5
CA
330
1F
100
AcDbEntity
  8
0
  6
Continuous
 62
     7
370
    15
100
AcDbLine
 10
-90.9213334206
 20
1152.9540722091
 30
0.0
 11
-84.4931456294
 21
1152.9540722091
 31
0.0
  0
SPLINE
  5
CB
330
1F
100
AcDbEntity
  8
0
  6
Continuous
 62
     7
370
    15
100
AcDbSpline
210
0.0
220
0.0
230
1.0
 70
     8
 71
     3
 72
    12
 73
     8
 74
     0
 42
0.00000001
 43
0.00000001
 12
1.0
 22
0.0
 32
0.0
 13
1.0
 23
0.0
 33
0.0
 40
0.0
 40
0.0
 40
0.0
 40
0.0
 40
0.2499999999999999
 40
0.2499999999999999
 40
0.4999999999999999
 40
0.4999999999999999
 40
1.0
 40
1.0
 40
1.0
 40
1.0
 10
-90.43240131316327
 20
1377.107596177672
 30
0.0
 10
-89.3902686006618
 20
1377.224810191163
 30
0.0
 10
-88.47847246014352
 20
1377.332788613241
 30
0.0
 10
-86.91368260072039
 20
1377.522480988071
 30
0.0
 10
-86.26051433405374
 20
1377.604262865101
 30
0.0
 10
-84.69184046119753
 20
1377.807321104995
 30
0.0
 10
-84.16949551353258
 20
1377.880585998288
 30
0.0
 10
-84.1694955135326
 20
1377.880585998288
 30
0.0
  0
SPLINE
  5
CC
330
1F
100
AcDbEntity
  8
0
  6
Continuous
 62
     7
370
    15
100
AcDbSpline
210
0.0
220
0.0
230
1.0
 70
     8
 71
     3
 72
    10
 73
     6
 74
     0
 42
0.00000001
 43
0.00000001
 12
1.0
 22
0.0
 32
0.0
 13
1.0
 23
0.0
 33
0.0
 40
0.0
 40
0.0
 40
0.0
 40
0.0
 40
0.5
 40
0.5
 40
1.0
 40
1.0
 40
1.0
 40
1.0
 10
-84.1694955135326
 20
1377.880585998289
 30
0.0
 10
-82.02190848306876
 20
1358.638761039967
 30
0.0
 10
-80.42946145025562
 20
1339.308126466649
 30
0.0
 10
-78.36916703694293
 20
1300.566316537668
 30
0.0
 10
-77.9023976046671
 20
1281.154918538246
 30
0.0
 10
-78.00231251752926
 20
1261.752494047877
 30
0.0
  0
SPLINE
  5
CD
330
1F
100
AcDbEntity
  8
0
  6
Continuous
 62
     7
370
    15
100
AcDbSpline
210
0.0
220
0.0
230
1.0
 70
     8
 71
     3
 72
    22
 73
    18
 74
     0
 42
0.00000001
 43
0.00000001
 12
1.0
 22
0.0
 32
0.0
 13
1.0
 23
0.0
 33
0.0
 40
0.0
 40
0.0
 40
0.0
 40
0.0
 40
0.249999999999991
 40
0.249999999999991
 40
0.3124999999999887
 40
0.3124999999999887
 40
0.3749999999999865
 40
0.3749999999999865
 40
0.4999999999999819
 40
0.4999999999999819
 40
0.6249999999999774
 40
0.6249999999999774
 40
0.6874999999999927
 40
0.6874999999999927
 40
0.7500000000000079
 40
0.7500000000000079
 40
1.0
 40
1.0
 40
1.0
 40
1.0
 10
-78.25330948275099
 20
1243.911199712533
 30
0.0
 10
-78.22191817873379
 20
1245.277004506529
 30
0.0
 10
-78.19468030100384
 20
1246.712289023754
 30
0.0
 10
-78.16264274611908
 20
1248.590654731041
 30
0.0
 10
-78.15634522304269
 20
1248.970607176502
 30
0.0
 10
-78.14392629006943
 20
1249.739276833434
 30
0.0
 10
-78.13782225508153
 20
1250.12698366531
 30
0.0
 10
-78.11998084203655
 20
1251.286635920156
 30
0.0
 10
-78.10862198845251
 20
1252.060246030662
 30
0.0
 10
-78.08684204897813
 20
1253.608460861211
 30
0.0
 10
-78.0764208288473
 20
1254.383065545933
 30
0.0
 10
-78.06159923732221
 20
1255.545741561128
 30
0.0
 10
-78.0567863981514
 20
1255.934311277472
 30
0.0
 10
-78.04761225376552
 20
1256.700424748991
 30
0.0
 10
-78.04323387669099
 20
1257.079256485263
 30
0.0
 10
-78.02248250448491
 20
1258.952745776738
 30
0.0
 10
-78.00934725350115
 20
1260.386422361531
 30
0.0
 10
-78.00231251752926
 20
1261.752494047877
 30
0.0
  0
SPLINE
  5
CE
330
1F
100
AcDbEntity
  8
0
  6
Continuous
 62
     7
370
    15
100
AcDbSpline
210
0.0
220
0.0
230
1.0
 70
     8
 71
     3
 72
    12
 73
     8
 74
     0
 42
0.00000001
 43
0.00000001
 12
1.0
 22
0.0
 32
0.0
 13
1.0
 23
0.0
 33
0.0
 40
0.0
 40
0.0
 40
0.0
 40
0.0
 40
0.2499999999999999
 40
0.2499999999999999
 40
0.4999999999999999
 40
0.4999999999999999
 40
1.0
 40
1.0
 40
1.0
 40
1.0
 10
-235.6538899456873
 20
1377.107596177672
 30
0.0
 10
-236.6960226581887
 20
1377.224810191163
 30
0.0
 10
-237.607818798707
 20
1377.332788613241
 30
0.0
 10
-239.1726086581301
 20
1377.522480988071
 30
0.0
 10
-239.8257769247968
 20
1377.604262865101
 30
0.0
 10
-241.394450797653
 20
1377.807321104995
 30
0.0
 10
-241.9167957453179
 20
1377.880585998288
 30
0.0
 10
-241.9167957453179
 20
1377.880585998288
 30
0.0
  0
LINE
  5
CF
330
1F
100
AcDbEntity
  8
0
  6
Continuous
 62
     7
370
    15
100
AcDbLine
 10
-235.1649578382
 20
1152.9540722091
 30
0.0
 11
-241.5931456294
 21
1152.9540722091
 31
0.0
  0
SPLINE
  5
D0
330
1F
100
AcDbEntity
  8
0
  6
Continuous
 62
     7
370
    15
100
AcDbSpline
210
0.0
220
0.0
230
1.0
 70
     8
 71
     3
 72
     8
 73
     4
 74
     0
 42
0.00000001
 43
0.00000001
 12
1.0
 22
0.0
 32
0.0
 13
1.0
 23
0.0
 33
0.0
 40
0.0
 40
0.0
 40
0.0
 40
0.0
 40
1.0
 40
1.0
 40
1.0
 40
1.0
 10
-247.3154651488682
 20
1227.354072209141
 30
0.0
 10
-246.3312680652517
 20
1202.457195496244
 30
0.0
 10
-244.4198775023939
 20
1177.62271787641
 30
0.0
 10
-241.5931456294252
 20
1152.954072209141
 30
0.0
  0
SPLINE
  5
D1
330
1F
100
AcDbEntity
  8
0
  6
Continuous
 62
     7
370
    15
100
AcDbSpline
210
0.0
220
0.0
230
1.0
 70
     8
 71
     3
 72
     8
 73
     4
 74
     0
 42
0.00000001
 43
0.00000001
 12
1.0
 22
0.0
 32
0.0
 13
1.0
 23
0.0
 33
0.0
 40
0.0
 40
0.0
 40
0.0
 40
0.0
 40
1.0
 40
1.0
 40
1.0
 40
1.0
 10
-247.156131988397
 20
1227.354072209141
 30
0.0
 10
-247.8285060871504
 20
1244.347976531318
 30
0.0
 10
-248.0681661906996
 20
1261.347965738029
 30
0.0
 10
-247.8728096715433
 20
1278.354072209141
 30
0.0
  0
SPLINE
  5
D2
330
1F
100
AcDbEntity
  8
0
  6
Continuous
 62
     7
370
    15
100
AcDbSpline
210
0.0
220
0.0
230
1.0
 70
     8
 71
     3
 72
     8
 73
     4
 74
     0
 42
0.00000001
 43
0.00000001
 12
1.0
 22
0.0
 32
0.0
 13
1.0
 23
0.0
 33
0.0
 40
0.0
 40
0.0
 40
0.0
 40
0.0
 40
1.0
 40
1.0
 40
1.0
 40
1.0
 10
-241.9167957453179
 20
1377.880585998289
 30
0.0
 10
-245.5994851126534
 20
1344.884640699236
 30
0.0
 10
-247.6496248489495
 20
1311.627384568561
 30
0.0
 10
-248.0315156534758
 20
1278.354072209141
 30
0.0
  0
SPLINE
  5
D3
330
1F
100
AcDbEntity
  8
0
  6
Continuous
 62
     7
370
    15
100
AcDbSpline
210
0.0
220
0.0
230
1.0
 70
     8
 71
     3
 72
    12
 73
     8
 74
     0
 42
0.00000001
 43
0.00000001
 12
1.0
 22
0.0
 32
0.0
 13
1.0
 23
0.0
 33
0.0
 40
0.0
 40
0.0
 40
0.0
 40
0.0
 40
0.2499999999999999
 40
0.2499999999999999
 40
0.4999999999999999
 40
0.4999999999999999
 40
1.0
 40
1.0
 40
1.0
 40
1.0
 10
-102.1217097890128
 20
1406.833980558425
 30
0.0
 10
-101.4321787285498
 20
1406.939153580302
 30
0.0
 10
-100.8284116385041
 20
1407.035577604115
 30
0.0
 10
-99.7957513881973
 20
1407.205729448618
 30
0.0
 10
-99.36635122210271
 20
1407.279466964903
 30
0.0
 10
-98.33609427096255
 20
1407.460146365258
 30
0.0
 10
-97.9931456294254
 20
1407.525499338543
 30
0.0
 10
-97.99314562942527
 20
1407.525499338543
 30
0.0
  0
LINE
  5
D4
330
1F
100
AcDbEntity
  8
0
  6
Continuous
 62
     7
370
    15
100
AcDbLine
 10
-97.9931456294
 20
1407.5254993385
 30
0.0
 11
-84.1694955135
 21
1377.8805859983
 31
0.0
  0
LINE
  5
D5
330
1F
100
AcDbEntity
  8
0
  6
Continuous
 62
     7
370
    15
100
AcDbLine
 10
-228.0931456294
 20
1407.5254993385
 30
0.0
 11
-241.9167957453
 21
1377.8805859983
 31
0.0
  0
SPLINE
  5
D6
330
1F
100
AcDbEntity
  8
0
  6
Continuous
 62
     7
370
    15
100
AcDbSpline
210
0.0
220
0.0
230
1.0
 70
     8
 71
     3
 72
    12
 73
     8
 74
     0
 42
0.00000001
 43
0.00000001
 12
1.0
 22
0.0
 32
0.0
 13
1.0
 23
0.0
 33
0.0
 40
0.0
 40
0.0
 40
0.0
 40
0.0
 40
0.2499999999999999
 40
0.2499999999999999
 40
0.4999999999999999
 40
0.4999999999999999
 40
1.0
 40
1.0
 40
1.0
 40
1.0
 10
-223.9645814698377
 20
1406.833980558425
 30
0.0
 10
-224.6541125303007
 20
1406.939153580302
 30
0.0
 10
-225.2578796203464
 20
1407.035577604115
 30
0.0
 10
-226.2905398706532
 20
1407.205729448618
 30
0.0
 10
-226.7199400367478
 20
1407.279466964903
 30
0.0
 10
-227.750196987888
 20
1407.460146365258
 30
0.0
 10
-228.0931456294251
 20
1407.525499338543
 30
0.0
 10
-228.0931456294253
 20
1407.525499338543
 30
0.0
  0
LINE
  5
D7
330
1F
100
AcDbEntity
  8
0
  6
Continuous
 62
     7
370
    15
100
AcDbLine
 10
-125.2519398417
 20
1408.9540722091
 30
0.0
 11
-200.8343514172
 21
1408.9540722091
 31
0.0
  0
LINE
  5
D8
330
1F
100
AcDbEntity
  8
0
  6
Continuous
 62
     7
370
    15
100
AcDbLine
 10
-203.0431456294
 20
1412.7540722091
 30
0.0
 11
-123.0431456294
 21
1412.7540722091
 31
0.0
  0
LINE
  5
D9
330
1F
100
AcDbEntity
  8
0
  6
Continuous
 62
     7
370
    15
100
AcDbLine
 10
-203.0431456294
 20
1420.7540722091
 30
0.0
 11
-123.0431456294
 21
1420.7540722091
 31
0.0
  0
LINE
  5
DA
330
1F
100
AcDbEntity
  8
0
  6
Continuous
 62
     7
370
    15
100
AcDbLine
 10
-196.0431456294
 20
119.7094756513
 30
0.0
 11
-196.0431456294
 21
67.2094756513
 31
0.0
  0
LINE
  5
DB
330
1F
100
AcDbEntity
  8
0
  6
Continuous
 62
     7
370
    15
100
AcDbLine
 10
-196.0431456294
 20
119.7094756513
 30
0.0
 11
-163.0431456294
 21
119.7094756513
 31
0.0
  0
LINE
  5
DC
330
1F
100
AcDbEntity
  8
0
  6
Continuous
 62
     7
370
    15
100
AcDbLine
 10
-163.0431456294
 20
119.7094756513
 30
0.0
 11
-163.0431456294
 21
67.2094756513
 31
0.0
  0
LINE
  5
DD
330
1F
100
AcDbEntity
  8
0
  6
Continuous
 62
     7
370
    15
100
AcDbLine
 10
-196.0431456294
 20
67.2094756513
 30
0.0
 11
-163.0431456294
 21
67.2094756513
 31
0.0
  0
LINE
  5
DE
330
1F
100
AcDbEntity
  8
0
  6
Continuous
 62
     7
370
    15
100
AcDbLine
 10
-163.0431456294
 20
119.7094756513
 30
0.0
 11
-130.0431456294
 21
119.7094756513
 31
0.0
  0
LINE
  5
DF
330
1F
100
AcDbEntity
  8
0
  6
Continuous
 62
     7
370
    15
100
AcDbLine
 10
-130.0431456294
 20
119.7094756513
 30
0.0
 11
-130.0431456294
 21
67.2094756513
 31
0.0
  0
LINE
  5
E0
330
1F
100
AcDbEntity
  8
0
  6
Continuous
 62
     7
370
    15
100
AcDbLine
 10
-163.0431456294
 20
67.2094756513
 30
0.0
 11
-130.0431456294
 21
67.2094756513
 31
0.0
  0
LINE
  5
E1
330
1F
100
AcDbEntity
  8
0
  6
Continuous
 62
     7
370
    15
100
AcDbLine
 10
-191.0431456294
 20
174.7094756513
 30
0.0
 11
-163.0431456294
 21
174.7094756513
 31
0.0
  0
LINE
  5
E2
330
1F
100
AcDbEntity
  8
0
  6
Continuous
 62
     7
370
    15
100
AcDbLine
 10
-163.0431456294
 20
119.7094756513
 30
0.0
 11
-163.0431456294
 21
174.7094756513
 31
0.0
  0
LINE
  5
E3
330
1F
100
AcDbEntity
  8
0
  6
Continuous
 62
     7
370
    15
100
AcDbLine
 10
-191.0431456294
 20
119.7094756513
 30
0.0
 11
-191.0431456294
 21
174.7094756513
 31
0.0
  0
LINE
  5
E4
330
1F
100
AcDbEntity
  8
0
  6
Continuous
 62
     7
370
    15
100
AcDbLine
 10
-135.0431456294
 20
119.7094756513
 30
0.0
 11
-135.0431456294
 21
174.7094756513
 31
0.0
  0
LINE
  5
E5
330
1F
100
AcDbEntity
  8
0
  6
Continuous
 62
     7
370
    15
100
AcDbLine
 10
-163.0431456294
 20
174.7094756513
 30
0.0
 11
-135.0431456294
 21
174.7094756513
 31
0.0
  0
LINE
  5
E6
330
1F
100
AcDbEntity
  8
0
  6
Continuous
 62
     7
370
    15
100
AcDbLine
 10
-147.8761456294
 20
1447.4540722091
 30
0.0
 11
-178.2101456294
 21
1447.4540722091
 31
0.0
  0
LINE
  5
E7
330
1F
100
AcDbEntity
  8
0
  6
Continuous
 62
     7
370
    15
100
AcDbLine
 10
-147.1769815235
 20
1420.7540722091
 30
0.0
 11
-147.8761456294
 21
1447.4540722091
 31
0.0
  0
LINE
  5
E8
330
1F
100
AcDbEntity
  8
0
  6
Continuous
 62
     7
370
    15
100
AcDbLine
 10
-178.9093097353
 20
1420.7540722091
 30
0.0
 11
-178.2101456294
 21
1447.4540722091
 31
0.0
  0
LINE
  5
E9
330
1F
100
AcDbEntity
  8
0
  6
Continuous
 62
     7
370
    15
100
AcDbLine
 10
-150.5431456294
 20
1047.8540722091
 30
0.0
 11
-150.5431456294
 21
174.7094756513
 31
0.0
  0
LINE
  5
EA
330
1F
100
AcDbEntity
  8
0
  6
Continuous
 62
     7
370
    15
100
AcDbLine
 10
-175.5431456294
 20
1047.8540722091
 30
0.0
 11
-175.5431456294
 21
174.7094756513
 31
0.0
  0
LINE
  5
EB
330
1F
100
AcDbEntity
  8
0
  6
Continuous
 62
     7
370
    15
100
AcDbLine
 10
-267.1073106227
 20
1278.3540722091
 30
0.0
 11
-267.1073106227
 21
1227.3540722091
 31
0.0
  0
LINE
  5
EC
330
1F
100
AcDbEntity
  8
0
  6
Continuous
 62
     7
370
    15
100
AcDbLine
 10
-247.8728096715
 20
1278.3540722091
 30
0.0
 11
-267.1073106227
 21
1278.3540722091
 31
0.0
  0
LINE
  5
ED
330
1F
100
AcDbEntity
  8
0
  6
Continuous
 62
     7
370
    15
100
AcDbLine
 10
-247.1561319884
 20
1227.3540722091
 30
0.0
 11
-267.1073106227
 21
1227.3540722091
 31
0.0
  0
LINE
  5
EE
330
1F
100
AcDbEntity
  8
0
  6
Continuous
 62
     7
370
    15
100
AcDbLine
 10
-267.3431456294
 20
1243.3540722091
 30
0.0
 11
-267.3431456294
 21
1262.3540722091
 31
0.0
  0
ELLIPSE
  5
EF
330
1F
100
AcDbEntity
  8
0
  6
Continuous
 62
     7
370
    15
100
AcDbEllipse
 10
-267.3431456294
 20
1266.3540722091
 30
0.0
 11
0.0
 21
4.0
 31
0.0
210
0.0
220
0.0
230
1.0
 40
0.0261859216
 41
3.141592653589789
 42
6.283185307179586
  0
LINE
  5
F0
330
1F
100
AcDbEntity
  8
0
  6
Continuous
 62
     7
370
    15
100
AcDbLine
 10
-267.3431456294
 20
1270.3540722091
 30
0.0
 11
-267.3431456294
 21
1278.3540722091
 31
0.0
  0
LINE
  5
F1
330
1F
100
AcDbEntity
  8
0
  6
Continuous
 62
     7
370
    15
100
AcDbLine
 10
-267.3431456294
 20
1227.3540722091
 30
0.0
 11
-267.3431456294
 21
1235.3540722091
 31
0.0
  0
ELLIPSE
  5
F2
330
1F
100
AcDbEntity
  8
0
  6
Continuous
 62
     7
370
    15
100
AcDbEllipse
 10
-267.3431456294
 20
1239.3540722091
 30
0.0
 11
0.0
 21
4.0
 31
0.0
210
0.0
220
0.0
230
1.0
 40
0.0261859216
 41
3.141592653589789
 42
6.283185307179586
  0
LINE
  5
F3
330
1F
100
AcDbEntity
  8
0
  6
Continuous
 62
     7
370
    15
100
AcDbLine
 10
-267.3431456294
 20
1278.3540722091
 30
0.0
 11
-267.1073106227
 21
1278.3540722091
 31
0.0
  0
LINE
  5
F4
330
1F
100
AcDbEntity
  8
0
  6
Continuous
 62
     7
370
    15
100
AcDbLine
 10
-267.1073106227
 20
1227.3540722091
 30
0.0
 11
-267.3431456294
 21
1227.3540722091
 31
0.0
  0
SPLINE
  5
F5
330
1F
100
AcDbEntity
  8
0
  6
Continuous
 62
     7
370
    15
100
AcDbSpline
210
0.0
220
0.0
230
1.0
 70
     8
 71
     3
 72
    37
 73
    33
 74
     0
 42
0.00000001
 43
0.00000001
 12
1.0
 22
0.0
 32
0.0
 13
1.0
 23
0.0
 33
0.0
 40
0.0
 40
0.0
 40
0.0
 40
0.0
 40
0.0355805543035853
 40
0.0711611067562831
 40
0.1079092108517169
 40
0.1446573124278605
 40
0.1782435844095206
 40
0.2118298544040891
 40
0.2463920737413905
 40
0.2809542906871349
 40
0.3145371794376123
 40
0.3481200660225742
 40
0.3826788263387316
 40
0.4172375843800417
 40
0.450816722904651
 40
0.4843958597925714
 40
0.5189507303623503
 40
0.5535055999613798
 40
0.5870815875304042
 40
0.6206575755432459
 40
0.6552090428755492
 40
0.6897605129558482
 40
0.7233362839956873
 40
0.756912060162151
 40
0.7914629113328902
 40
0.8260137713042218
 40
0.8595963146716691
 40
0.8931788669954582
 40
0.9277362451300359
 40
0.9622936304541871
 40
0.9958902147318536
 40
1.0
 40
1.0
 40
1.0
 40
1.0
 10
-74.69779366865494
 20
1238.887648087218
 30
0.0
 10
-74.6948187084138
 20
1239.220029607325
 30
0.0
 10
-74.6888687880863
 20
1239.884792630249
 30
0.0
 10
-74.6784938191567
 20
1241.023182402847
 30
0.0
 10
-74.66701760795956
 20
1242.26173028498
 30
0.0
 10
-74.65470984333368
 20
1243.564237209489
 30
0.0
 10
-74.64185290577532
 20
1244.896887294322
 30
0.0
 10
-74.62844852626219
 20
1246.256749099144
 30
0.0
 10
-74.61411122756904
 20
1247.67700355098
 30
0.0
 10
-74.59901173184402
 20
1249.134413009867
 30
0.0
 10
-74.58335354879873
 20
1250.604121879408
 30
0.0
 10
-74.56706196570117
 20
1252.089266636607
 30
0.0
 10
-74.5500153222339
 20
1253.594158507254
 30
0.0
 10
-74.53243754000853
 20
1255.093527050164
 30
0.0
 10
-74.51457465655056
 20
1256.56239162406
 30
0.0
 10
-74.49635187512555
 20
1258.005340569621
 30
0.0
 10
-74.47766687575415
 20
1259.425131965049
 30
0.0
 10
-74.45880656547006
 20
1260.797379786909
 30
0.0
 10
-74.44006488805225
 20
1262.099783500279
 30
0.0
 10
-74.4214026807208
 20
1263.337869448535
 30
0.0
 10
-74.40278517629037
 20
1264.512521080459
 30
0.0
 10
-74.38459149013129
 20
1265.603014919192
 30
0.0
 10
-74.36718435574217
 20
1266.592243284491
 30
0.0
 10
-74.35062476390407
 20
1267.486037154473
 30
0.0
 10
-74.33503767327029
 20
1268.283315933575
 30
0.0
 10
-74.32092350756082
 20
1268.96928755369
 30
0.0
 10
-74.30872140799826
 20
1269.534248572843
 30
0.0
 10
-74.29862450544385
 20
1269.982547383295
 30
0.0
 10
-74.29085665986884
 20
1270.315490006577
 30
0.0
 10
-74.2861903344944
 20
1270.509919006351
 30
0.0
 10
-74.28425355957492
 20
1270.590155588351
 30
0.0
 10
-74.28472346465823
 20
1270.570651389651
 30
0.0
 10
-74.28477468170755
 20
1270.568525540107
 30
0.0
  0
SPLINE
  5
F6
330
1F
100
AcDbEntity
  8
0
  6
Continuous
 62
     7
370
    15
100
AcDbSpline
210
0.0
220
0.0
230
1.0
 70
     8
 71
     3
 72
     8
 73
     4
 74
     0
 42
0.00000001
 43
0.00000001
 12
1.0
 22
0.0
 32
0.0
 13
1.0
 23
0.0
 33
0.0
 40
0.0
 40
0.0
 40
0.0
 40
0.0
 40
1.0
 40
1.0
 40
1.0
 40
1.0
 10
-74.04314562942534
 20
1238.7681898562
 30
0.0
 10
-74.26103575867988
 20
1238.807885575824
 30
0.0
 10
-74.47925820385622
 20
1238.847705969658
 30
0.0
 10
-74.69779366865502
 20
1238.887648087218
 30
0.0
  0
LINE
  5
F7
330
1F
100
AcDbEntity
  8
0
  6
Continuous
 62
     7
370
    15
100
AcDbLine
 10
-74.0431456294
 20
1238.7681898562
 30
0.0
 11
-74.0431456294
 21
1235.1540722091
 31
0.0
  0
LINE
  5
F8
330
1F
100
AcDbEntity
  8
0
  6
Continuous
 62
     7
370
    15
100
AcDbLine
 10
-123.0431456294
 20
1420.7540722091
 30
0.0
 11
-121.8801947255
 21
1420.7540722091
 31
0.0
  0
LINE
  5
F9
330
1F
100
AcDbEntity
  8
0
  6
Continuous
 62
     7
370
    15
100
AcDbLine
 10
-123.0431456294
 20
1412.7540722091
 30
0.0
 11
-121.8801947255
 21
1412.7540722091
 31
0.0
  0
LINE
  5
FA
330
1F
100
AcDbEntity
  8
0
  6
Continuous
 62
     8
370
     0
100
AcDbLine
 10
-163.0431456294
 20
1377.8720878969
 30
0.0
 11
-163.0431456294
 21
1408.00241013
 31
0.0
  0
LINE
  5
FB
330
1F
100
AcDbEntity
  8
0
  6
Continuous
 62
     8
370
     0
100
AcDbLine
 10
-289.0431456294
 20
1270.3540722091
 30
0.0
 11
-289.0431456294
 21
1262.3540722091
 31
0.0
  0
LINE
  5
FC
330
1F
100
AcDbEntity
  8
0
  6
Continuous
 62
     8
370
     0
100
AcDbLine
 10
-289.0431456294
 20
1235.3540722091
 30
0.0
 11
-289.0431456294
 21
1243.3540722091
 31
0.0
  0
LINE
  5
FD
330
1F
100
AcDbEntity
  8
FORMAT
  6
CENTERX2
 62
     7
370
     0
100
AcDbLine
 10
-163.0431456294
 20
1535.9223504311
 30
0.0
 11
-163.0431456294
 21
55.5648319205
 31
0.0
  0
LINE
  5
FE
330
1F
100
AcDbEntity
  8
0
  6
Continuous
 62
     7
370
    15
100
AcDbLine
 10
580.7448290912
 20
1465.6540722091
 30
0.0
 11
581.8821817171
 21
1452.6540722091
 31
0.0
  0
LINE
  5
FF
330
1F
100
AcDbEntity
  8
0
  6
Continuous
 62
     7
370
    15
100
AcDbLine
 10
939.6074764654
 20
1452.6540722091
 30
0.0
 11
940.7448290912
 21
1465.6540722091
 31
0.0
  0
ARC
  5
100
330
1F
100
AcDbEntity
  8
0
  6
Continuous
 62
     7
370
    15
100
AcDbCircle
 10
591.7448290912
 20
1465.6540722091
 30
0.0
 40
11.0
100
AcDbArc
 50
90.0
 51
180.0
  0
ARC
  5
101
330
1F
100
AcDbEntity
  8
0
  6
Continuous
 62
     7
370
    15
100
AcDbCircle
 10
929.7448290912
 20
1465.6540722091
 30
0.0
 40
11.0
100
AcDbArc
 50
0.0
 51
90.0
  0
LINE
  5
102
330
1F
100
AcDbEntity
  8
0
  6
Continuous
 62
     7
370
    15
100
AcDbLine
 10
913.2448290912
 20
1047.8540722091
 30
0.0
 11
913.2448290912
 21
1066.8540722091
 31
0.0
  0
LINE
  5
103
330
1F
100
AcDbEntity
  8
0
  6
Continuous
 62
     7
370
    15
100
AcDbLine
 10
608.2448290912
 20
1066.8540722091
 30
0.0
 11
608.2448290912
 21
1047.8540722091
 31
0.0
  0
LINE
  5
104
330
1F
100
AcDbEntity
  8
0
  6
Continuous
 62
     7
370
    15
100
AcDbLine
 10
756.7448290912
 20
1266.3540722091
 30
0.0
 11
756.7448290912
 21
1239.3540722091
 31
0.0
  0
LINE
  5
105
330
1F
100
AcDbEntity
  8
0
  6
Continuous
 62
     7
370
    15
100
AcDbLine
 10
764.7448290912
 20
1239.3540722091
 30
0.0
 11
764.7448290912
 21
1266.3540722091
 31
0.0
  0
LINE
  5
106
330
1F
100
AcDbEntity
  8
0
  6
Continuous
 62
     7
370
    15
100
AcDbLine
 10
690.7448290912
 20
1224.8540722091
 30
0.0
 11
690.7448290912
 21
1066.8540722091
 31
0.0
  0
LINE
  5
107
330
1F
100
AcDbEntity
  8
0
  6
Continuous
 62
     7
370
    15
100
AcDbLine
 10
690.7448290912
 20
1377.8773869879
 30
0.0
 11
690.7448290912
 21
1280.8540722091
 31
0.0
  0
LINE
  5
108
330
1F
100
AcDbEntity
  8
0
  6
Continuous
 62
     7
370
    15
100
AcDbLine
 10
830.7448290912
 20
1353.8540722091
 30
0.0
 11
830.7448290912
 21
1377.8773869879
 31
0.0
  0
LINE
  5
109
330
1F
100
AcDbEntity
  8
0
  6
Continuous
 62
     7
370
    15
100
AcDbLine
 10
830.7448290912
 20
1280.8540722091
 30
0.0
 11
830.7448290912
 21
1317.8540722091
 31
0.0
  0
LINE
  5
10A
330
1F
100
AcDbEntity
  8
0
  6
Continuous
 62
     7
370
    15
100
AcDbLine
 10
830.7448290912
 20
1066.8540722091
 30
0.0
 11
830.7448290912
 21
1224.8540722091
 31
0.0
  0
LINE
  5
10B
330
1F
100
AcDbEntity
  8
0
  6
Continuous
 62
     7
370
    15
100
AcDbLine
 10
816.6948290912
 20
1408.00241013
 30
0.0
 11
798.536034879
 21
1408.9540722091
 31
0.0
  0
LINE
  5
10C
330
1F
100
AcDbEntity
  8
0
  6
Continuous
 62
     7
370
    15
100
AcDbLine
 10
722.9536233035
 20
1408.9540722091
 30
0.0
 11
704.7948290912
 21
1408.00241013
 31
0.0
  0
LINE
  5
10D
330
1F
100
AcDbEntity
  8
0
  6
Continuous
 62
     7
370
    15
100
AcDbLine
 10
800.7448290912
 20
1412.7540722091
 30
0.0
 11
800.7448290912
 21
1420.7540722091
 31
0.0
  0
LINE
  5
10E
330
1F
100
AcDbEntity
  8
0
  6
Continuous
 62
     7
370
    15
100
AcDbLine
 10
720.7448290912
 20
1420.7540722091
 30
0.0
 11
720.7448290912
 21
1412.7540722091
 31
0.0
  0
LINE
  5
10F
330
1F
100
AcDbEntity
  8
0
  6
Continuous
 62
     7
370
    15
100
AcDbLine
 10
798.536034879
 20
1408.9540722091
 30
0.0
 11
798.2035779576
 21
1412.7540722091
 31
0.0
  0
LINE
  5
110
330
1F
100
AcDbEntity
  8
0
  6
Continuous
 62
     7
370
    15
100
AcDbLine
 10
723.2860802249
 20
1412.7540722091
 30
0.0
 11
722.9536233035
 21
1408.9540722091
 31
0.0
  0
LINE
  5
111
330
1F
100
AcDbEntity
  8
0
  6
Continuous
 62
     7
370
    15
100
AcDbLine
 10
832.7448290912
 20
1317.8540722091
 30
0.0
 11
832.7448290912
 21
1329.7488043158
 31
0.0
  0
ARC
  5
112
330
1F
100
AcDbEntity
  8
0
  6
Continuous
 62
     7
370
    15
100
AcDbCircle
 10
760.7448290912
 20
1513.4540722091
 30
0.0
 40
7.0
100
AcDbArc
 50
0.0
 51
180.0
  0
LINE
  5
113
330
1F
100
AcDbEntity
  8
0
  6
Continuous
 62
     7
370
    15
100
AcDbLine
 10
767.7448290912
 20
1476.6355430622
 30
0.0
 11
767.7448290912
 21
1513.4540722091
 31
0.0
  0
LINE
  5
114
330
1F
100
AcDbEntity
  8
0
  6
Continuous
 62
     7
370
    15
100
AcDbLine
 10
753.7448290912
 20
1513.4540722091
 30
0.0
 11
753.7448290912
 21
1476.6427942504
 31
0.0
  0
LINE
  5
115
330
1F
100
AcDbEntity
  8
0
  6
Continuous
 62
     7
370
    15
100
AcDbLine
 10
768.7448290912
 20
1447.4540722091
 30
0.0
 11
768.7448290912
 21
1452.6540722091
 31
0.0
  0
LINE
  5
116
330
1F
100
AcDbEntity
  8
0
  6
Continuous
 62
     7
370
    15
100
AcDbLine
 10
752.7448290912
 20
1452.6540722091
 30
0.0
 11
752.7448290912
 21
1447.4540722091
 31
0.0
  0
LINE
  5
117
330
1F
100
AcDbEntity
  8
0
  6
Continuous
 62
     7
370
    15
100
AcDbLine
 10
719.5818781873
 20
1420.7540722091
 30
0.0
 11
719.5818781873
 21
1412.7540722091
 31
0.0
  0
LINE
  5
118
330
1F
100
AcDbEntity
  8
0
  6
Continuous
 62
     7
370
    15
100
AcDbLine
 10
760.7448290912
 20
1465.6540722091
 30
0.0
 11
940.7448290912
 21
1465.6540722091
 31
0.0
  0
LINE
  5
119
330
1F
100
AcDbEntity
  8
0
  6
Continuous
 62
     7
370
    15
100
AcDbLine
 10
580.7448290912
 20
1465.6540722091
 30
0.0
 11
760.7448290912
 21
1465.6540722091
 31
0.0
  0
LINE
  5
11A
330
1F
100
AcDbEntity
  8
0
  6
Continuous
 62
     7
370
    15
100
AcDbLine
 10
760.7448290912
 20
1452.6540722091
 30
0.0
 11
939.6074764654
 21
1452.6540722091
 31
0.0
  0
LINE
  5
11B
330
1F
100
AcDbEntity
  8
0
  6
Continuous
 62
     7
370
    15
100
AcDbLine
 10
581.8821817171
 20
1452.6540722091
 30
0.0
 11
760.7448290912
 21
1452.6540722091
 31
0.0
  0
LINE
  5
11C
330
1F
100
AcDbEntity
  8
0
  6
Continuous
 62
     7
370
    15
100
AcDbLine
 10
760.7448290912
 20
1476.6540722091
 30
0.0
 11
929.7448290912
 21
1476.6540722091
 31
0.0
  0
LINE
  5
11D
330
1F
100
AcDbEntity
  8
0
  6
Continuous
 62
     7
370
    15
100
AcDbLine
 10
591.7448290912
 20
1476.6540722091
 30
0.0
 11
760.7448290912
 21
1476.6540722091
 31
0.0
  0
LINE
  5
11E
330
1F
100
AcDbEntity
  8
0
  6
Continuous
 62
     7
370
    15
100
AcDbLine
 10
913.2448290912
 20
1047.8540722091
 30
0.0
 11
608.2448290912
 21
1047.8540722091
 31
0.0
  0
LINE
  5
11F
330
1F
100
AcDbEntity
  8
0
  6
Continuous
 62
     7
370
    15
100
AcDbLine
 10
913.2448290912
 20
1066.8540722091
 30
0.0
 11
608.2448290912
 21
1066.8540722091
 31
0.0
  0
ARC
  5
120
330
1F
100
AcDbEntity
  8
0
  6
Continuous
 62
     7
370
    15
100
AcDbCircle
 10
760.7448290912
 20
1239.3540722091
 30
0.0
 40
4.0
100
AcDbArc
 50
180.0
 51
0.0
  0
ARC
  5
121
330
1F
100
AcDbEntity
  8
0
  6
Continuous
 62
     7
370
    15
100
AcDbCircle
 10
760.7448290912
 20
1266.3540722091
 30
0.0
 40
4.0
100
AcDbArc
 50
0.0
 51
180.0
  0
LINE
  5
122
330
1F
100
AcDbEntity
  8
0
  6
Continuous
 62
     7
370
    15
100
AcDbLine
 10
760.7448290912
 20
1270.3540722091
 30
0.0
 11
760.7448290912
 21
1278.3540722091
 31
0.0
  0
LINE
  5
123
330
1F
100
AcDbEntity
  8
0
  6
Continuous
 62
     7
370
    15
100
AcDbLine
 10
760.7448290912
 20
1278.3540722091
 30
0.0
 11
769.7510046482
 21
1278.3540722091
 31
0.0
  0
LINE
  5
124
330
1F
100
AcDbEntity
  8
0
  6
Continuous
 62
     7
370
    15
100
AcDbLine
 10
769.7510046482
 20
1278.3540722091
 30
0.0
 11
769.7510046482
 21
1227.3540722091
 31
0.0
  0
LINE
  5
125
330
1F
100
AcDbEntity
  8
0
  6
Continuous
 62
     7
370
    15
100
AcDbLine
 10
769.7510046482
 20
1227.3540722091
 30
0.0
 11
760.7448290912
 21
1227.3540722091
 31
0.0
  0
LINE
  5
126
330
1F
100
AcDbEntity
  8
0
  6
Continuous
 62
     7
370
    15
100
AcDbLine
 10
760.7448290912
 20
1227.3540722091
 30
0.0
 11
760.7448290912
 21
1235.3540722091
 31
0.0
  0
LINE
  5
127
330
1F
100
AcDbEntity
  8
0
  6
Continuous
 62
     7
370
    15
100
AcDbLine
 10
751.7386535342
 20
1227.3540722091
 30
0.0
 11
760.7448290912
 21
1227.3540722091
 31
0.0
  0
LINE
  5
128
330
1F
100
AcDbEntity
  8
0
  6
Continuous
 62
     7
370
    15
100
AcDbLine
 10
751.7386535342
 20
1278.3540722091
 30
0.0
 11
751.7386535342
 21
1227.3540722091
 31
0.0
  0
LINE
  5
129
330
1F
100
AcDbEntity
  8
0
  6
Continuous
 62
     7
370
    15
100
AcDbLine
 10
760.7448290912
 20
1278.3540722091
 30
0.0
 11
751.7386535342
 21
1278.3540722091
 31
0.0
  0
SPLINE
  5
12A
330
1F
100
AcDbEntity
  8
0
  6
Continuous
 62
     7
370
    15
100
AcDbSpline
210
0.0
220
0.0
230
1.0
 70
     8
 71
     3
 72
     8
 73
     4
 74
     0
 42
0.00000001
 43
0.00000001
 12
1.0
 22
0.0
 32
0.0
 13
1.0
 23
0.0
 33
0.0
 40
0.0
 40
0.0
 40
0.0
 40
0.0
 40
1.0
 40
1.0
 40
1.0
 40
1.0
 10
770.2734446471488
 20
1227.354072209141
 30
0.0
 10
770.2558379117338
 20
1244.347976531318
 30
0.0
 10
770.2495621910589
 20
1261.347965738029
 30
0.0
 10
770.2546777815476
 20
1278.354072209141
 30
0.0
  0
LINE
  5
12B
330
1F
100
AcDbEntity
  8
0
  6
Continuous
 62
     7
370
    15
100
AcDbLine
 10
770.2734446471
 20
1227.3540722091
 30
0.0
 11
769.7510046482
 21
1227.3540722091
 31
0.0
  0
LINE
  5
12C
330
1F
100
AcDbEntity
  8
0
  6
Continuous
 62
     7
370
    15
100
AcDbLine
 10
770.2546777815
 20
1278.3540722091
 30
0.0
 11
769.7510046482
 21
1278.3540722091
 31
0.0
  0
SPLINE
  5
12D
330
1F
100
AcDbEntity
  8
0
  6
Continuous
 62
     7
370
    15
100
AcDbSpline
210
0.0
220
0.0
230
1.0
 70
     8
 71
     3
 72
     8
 73
     4
 74
     0
 42
0.00000001
 43
0.00000001
 12
1.0
 22
0.0
 32
0.0
 13
1.0
 23
0.0
 33
0.0
 40
0.0
 40
0.0
 40
0.0
 40
0.0
 40
1.0
 40
1.0
 40
1.0
 40
1.0
 10
751.2162135353086
 20
1227.354072209141
 30
0.0
 10
751.2338202707238
 20
1244.347976531318
 30
0.0
 10
751.2400959913987
 20
1261.347965738029
 30
0.0
 10
751.23498040091
 20
1278.354072209141
 30
0.0
  0
LINE
  5
12E
330
1F
100
AcDbEntity
  8
0
  6
Continuous
 62
     7
370
    15
100
AcDbLine
 10
751.2162135353
 20
1227.3540722091
 30
0.0
 11
751.7386535342
 21
1227.3540722091
 31
0.0
  0
LINE
  5
12F
330
1F
100
AcDbEntity
  8
0
  6
Continuous
 62
     7
370
    15
100
AcDbLine
 10
751.2349804009
 20
1278.3540722091
 30
0.0
 11
751.7386535342
 21
1278.3540722091
 31
0.0
  0
LINE
  5
130
330
1F
100
AcDbEntity
  8
0
  6
Continuous
 62
     7
370
    15
100
AcDbLine
 10
700.5555821887
 20
1152.9540722091
 30
0.0
 11
760.7448290912
 21
1152.9540722091
 31
0.0
  0
SPLINE
  5
131
330
1F
100
AcDbEntity
  8
0
  6
Continuous
 62
     7
370
    15
100
AcDbSpline
210
0.0
220
0.0
230
1.0
 70
     8
 71
     3
 72
    20
 73
    16
 74
     0
 42
0.00000001
 43
0.00000001
 12
1.0
 22
0.0
 32
0.0
 13
1.0
 23
0.0
 33
0.0
 40
0.0
 40
0.0
 40
0.0
 40
0.0
 40
0.2500000000000044
 40
0.2500000000000044
 40
0.3750000000000067
 40
0.3750000000000067
 40
0.4375000000000078
 40
0.4375000000000078
 40
0.5000000000000089
 40
0.5000000000000089
 40
0.7500000000000044
 40
0.7500000000000044
 40
0.8750000000000022
 40
0.8750000000000022
 40
1.0
 40
1.0
 40
1.0
 40
1.0
 10
700.5555821886784
 20
1152.954072209141
 30
0.0
 10
701.1824275261265
 20
1171.507415329871
 30
0.0
 10
701.6862459986888
 20
1190.100071784888
 30
0.0
 10
702.2042729831217
 20
1218.049162648293
 30
0.0
 10
702.3376388300055
 20
1227.375544745922
 30
0.0
 10
702.474911236182
 20
1241.38029663006
 30
0.0
 10
702.5102260423472
 20
1246.051077121038
 30
0.0
 10
702.5595793786168
 20
1255.39772393203
 30
0.0
 10
702.573610655305
 20
1260.073693025142
 30
0.0
 10
702.5900695500528
 20
1283.441669937886
 30
0.0
 10
702.4293167572204
 20
1302.117659966694
 30
0.0
 10
701.9458219140618
 20
1330.104425544947
 30
0.0
 10
701.7445665094796
 20
1339.431623645012
 30
0.0
 10
701.2702178992364
 20
1358.045607596841
 30
0.0
 10
700.9970947599858
 20
1367.335780309369
 30
0.0
 10
700.6931276483617
 20
1376.609404421673
 30
0.0
  0
SPLINE
  5
132
330
1F
100
AcDbEntity
  8
0
  6
Continuous
 62
     7
370
    15
100
AcDbSpline
210
0.0
220
0.0
230
1.0
 70
     8
 71
     3
 72
     8
 73
     4
 74
     0
 42
0.00000001
 43
0.00000001
 12
1.0
 22
0.0
 32
0.0
 13
1.0
 23
0.0
 33
0.0
 40
0.0000069159360224
 40
0.0000069159360224
 40
0.0000069159360224
 40
0.0000069159360224
 40
0.0005559619023243
 40
0.0005559619023243
 40
0.0005559619023243
 40
0.0005559619023243
 10
700.6931276483618
 20
1376.609404421673
 30
0.0
 10
700.7700512094228
 20
1376.775460065157
 30
0.0
 10
700.846955051685
 20
1376.941524020742
 30
0.0
 10
700.9238391446828
 20
1377.107596177672
 30
0.0
  0
SPLINE
  5
133
330
1F
100
AcDbEntity
  8
0
  6
Continuous
 62
     7
370
    15
100
AcDbSpline
210
0.0
220
0.0
230
1.0
 70
     8
 71
     3
 72
    12
 73
     8
 74
     0
 42
0.00000001
 43
0.00000001
 12
1.0
 22
0.0
 32
0.0
 13
1.0
 23
0.0
 33
0.0
 40
0.0
 40
0.0
 40
0.0
 40
0.0
 40
0.2499999999999999
 40
0.2499999999999999
 40
0.4999999999999999
 40
0.4999999999999999
 40
1.0
 40
1.0
 40
1.0
 40
1.0
 10
700.9238391446828
 20
1377.107596177672
 30
0.0
 10
705.8386887063673
 20
1377.224810191163
 30
0.0
 10
710.7749228468329
 20
1377.332788613241
 30
0.0
 10
720.6900073296213
 20
1377.522480988071
 30
0.0
 10
725.6706025013702
 20
1377.604262865101
 30
0.0
 10
740.6655406280437
 20
1377.807321104995
 30
0.0
 10
750.6908382632712
 20
1377.880585998288
 30
0.0
 10
760.7448290912288
 20
1377.880585998288
 30
0.0
  0
SPLINE
  5
134
330
1F
100
AcDbEntity
  8
0
  6
Continuous
 62
     7
370
    15
100
AcDbSpline
210
0.0
220
0.0
230
1.0
 70
     8
 71
     3
 72
    12
 73
     8
 74
     0
 42
0.00000001
 43
0.00000001
 12
1.0
 22
0.0
 32
0.0
 13
1.0
 23
0.0
 33
0.0
 40
0.0
 40
0.0
 40
0.0
 40
0.0
 40
0.2499999999999999
 40
0.2499999999999999
 40
0.4999999999999999
 40
0.4999999999999999
 40
1.0
 40
1.0
 40
1.0
 40
1.0
 10
820.5658190377746
 20
1377.107596177672
 30
0.0
 10
815.6509694760902
 20
1377.224810191163
 30
0.0
 10
810.7147353356247
 20
1377.332788613241
 30
0.0
 10
800.7996508528362
 20
1377.522480988071
 30
0.0
 10
795.8190556810872
 20
1377.604262865101
 30
0.0
 10
780.8241175544139
 20
1377.807321104995
 30
0.0
 10
770.7988199191863
 20
1377.880585998288
 30
0.0
 10
760.7448290912288
 20
1377.880585998288
 30
0.0
  0
SPLINE
  5
135
330
1F
100
AcDbEntity
  8
0
  6
Continuous
 62
     7
370
    15
100
AcDbSpline
210
0.0
220
0.0
230
1.0
 70
     8
 71
     3
 72
     8
 73
     4
 74
     0
 42
0.00000001
 43
0.00000001
 12
1.0
 22
0.0
 32
0.0
 13
1.0
 23
0.0
 33
0.0
 40
0.0000069159360224
 40
0.0000069159360224
 40
0.0000069159360224
 40
0.0000069159360224
 40
0.0005559619023243
 40
0.0005559619023243
 40
0.0005559619023243
 40
0.0005559619023243
 10
820.7965305340956
 20
1376.609404421673
 30
0.0
 10
820.7196069730347
 20
1376.775460065157
 30
0.0
 10
820.6427031307726
 20
1376.941524020742
 30
0.0
 10
820.5658190377746
 20
1377.107596177672
 30
0.0
  0
SPLINE
  5
136
330
1F
100
AcDbEntity
  8
0
  6
Continuous
 62
     7
370
    15
100
AcDbSpline
210
0.0
220
0.0
230
1.0
 70
     8
 71
     3
 72
    20
 73
    16
 74
     0
 42
0.00000001
 43
0.00000001
 12
1.0
 22
0.0
 32
0.0
 13
1.0
 23
0.0
 33
0.0
 40
0.0
 40
0.0
 40
0.0
 40
0.0
 40
0.2500000000000044
 40
0.2500000000000044
 40
0.3750000000000067
 40
0.3750000000000067
 40
0.4375000000000078
 40
0.4375000000000078
 40
0.5000000000000089
 40
0.5000000000000089
 40
0.7500000000000044
 40
0.7500000000000044
 40
0.8750000000000022
 40
0.8750000000000022
 40
1.0
 40
1.0
 40
1.0
 40
1.0
 10
820.9340759937791
 20
1152.954072209141
 30
0.0
 10
820.3072306563311
 20
1171.507415329871
 30
0.0
 10
819.8034121837687
 20
1190.100071784888
 30
0.0
 10
819.2853851993359
 20
1218.049162648293
 30
0.0
 10
819.1520193524519
 20
1227.375544745922
 30
0.0
 10
819.0147469462755
 20
1241.38029663006
 30
0.0
 10
818.9794321401102
 20
1246.051077121038
 30
0.0
 10
818.9300788038407
 20
1255.39772393203
 30
0.0
 10
818.9160475271525
 20
1260.073693025142
 30
0.0
 10
818.8995886324047
 20
1283.441669937886
 30
0.0
 10
819.0603414252372
 20
1302.117659966694
 30
0.0
 10
819.5438362683958
 20
1330.104425544947
 30
0.0
 10
819.7450916729779
 20
1339.431623645012
 30
0.0
 10
820.2194402832212
 20
1358.045607596841
 30
0.0
 10
820.4925634224718
 20
1367.335780309369
 30
0.0
 10
820.7965305340957
 20
1376.609404421673
 30
0.0
  0
LINE
  5
137
330
1F
100
AcDbEntity
  8
0
  6
Continuous
 62
     7
370
    15
100
AcDbLine
 10
820.9340759938
 20
1152.9540722091
 30
0.0
 11
760.7448290912
 21
1152.9540722091
 31
0.0
  0
SPLINE
  5
138
330
1F
100
AcDbEntity
  8
0
  6
Continuous
 62
     7
370
    15
100
AcDbSpline
210
0.0
220
0.0
230
1.0
 70
     8
 71
     3
 72
    21
 73
    17
 74
     0
 42
0.00000001
 43
0.00000001
 12
1.0
 22
0.0
 32
0.0
 13
1.0
 23
0.0
 33
0.0
 40
0.0
 40
0.0
 40
0.0
 40
0.0
 40
0.0555038854966618
 40
0.1110174399021884
 40
0.1665427224749319
 40
0.2220818012437767
 40
0.2776367527982733
 40
0.3332096620758477
 40
0.3888026221461877
 40
0.4444177339929218
 40
0.5000571062927104
 40
0.5847879288154317
 40
0.7499683130110345
 40
0.8610167668392356
 40
0.9443889828588538
 40
1.0
 40
1.0
 40
1.0
 40
1.0
 10
692.3323879270392
 20
1377.641612173974
 30
0.0
 10
692.274640520645
 20
1377.649761786142
 30
0.0
 10
692.1591356481213
 20
1377.66606243016
 30
0.0
 10
691.9981892382622
 20
1377.688947265351
 30
0.0
 10
691.8462563524183
 20
1377.710667551774
 30
0.0
 10
691.704235169803
 20
1377.731095643485
 30
0.0
 10
691.5719029815759
 20
1377.750245656941
 30
0.0
 10
691.4493369181913
 20
1377.768092198383
 30
0.0
 10
691.3365359978077
 20
1377.784626110573
 30
0.0
 10
691.2335117315749
 20
1377.799812802427
 30
0.0
 10
691.1240739477474
 20
1377.816121904516
 30
0.0
 10
690.9760100062
 20
1377.837928594366
 30
0.0
 10
690.848659073793
 20
1377.856755066907
 30
0.0
 10
690.774994456176
 20
1377.867666105186
 30
0.0
 10
690.7482478858408
 20
1377.8716037274
 30
0.0
 10
690.7458061121092
 20
1377.871949531229
 30
0.0
 10
690.7448290912288
 20
1377.872087896859
 30
0.0
  0
SPLINE
  5
139
330
1F
100
AcDbEntity
  8
0
  6
Continuous
 62
     7
370
    15
100
AcDbSpline
210
0.0
220
0.0
230
1.0
 70
     8
 71
     3
 72
    21
 73
    17
 74
     0
 42
0.00000001
 43
0.00000001
 12
1.0
 22
0.0
 32
0.0
 13
1.0
 23
0.0
 33
0.0
 40
0.0
 40
0.0
 40
0.0
 40
0.0
 40
0.0556457249796991
 40
0.1112645765036508
 40
0.1668585832000752
 40
0.2224297743765864
 40
0.2779801798354672
 40
0.3335118296883822
 40
0.389026754170627
 40
0.4445269834550208
 40
0.5000145474655423
 40
0.5845985145177375
 40
0.7500167871465798
 40
0.8608312455667244
 40
0.9441594111764294
 40
0.9999999999999999
 40
0.9999999999999999
 40
0.9999999999999999
 40
0.9999999999999999
 10
697.0594091351718
 20
1377.024482867706
 30
0.0
 10
696.9438295220707
 20
1377.038581718886
 30
0.0
 10
696.7127261136984
 20
1377.06677261237
 30
0.0
 10
696.3782499357758
 20
1377.108087406513
 30
0.0
 10
696.0527978210818
 20
1377.148647344046
 30
0.0
 10
695.7372313921073
 20
1377.188361723817
 30
0.0
 10
695.4313134131439
 20
1377.227225424137
 30
0.0
 10
695.1351003127952
 20
1377.265208917574
 30
0.0
 10
694.8485720608066
 20
1377.302294768594
 30
0.0
 10
694.5717209619532
 20
1377.338441576111
 30
0.0
 10
694.2578533164302
 20
1377.379855309881
 30
0.0
 10
693.7896949010478
 20
1377.441860699149
 30
0.0
 10
693.2835238521633
 20
1377.510024692331
 30
0.0
 10
692.8315609397563
 20
1377.571995125555
 30
0.0
 10
692.5414445939566
 20
1377.612253502376
 30
0.0
 10
692.392250942745
 20
1377.63320536904
 30
0.0
 10
692.3323879270392
 20
1377.641612173974
 30
0.0
  0
SPLINE
  5
13A
330
1F
100
AcDbEntity
  8
0
  6
Continuous
 62
     7
370
    15
100
AcDbSpline
210
0.0
220
0.0
230
1.0
 70
     8
 71
     3
 72
     8
 73
     4
 74
     0
 42
0.00000001
 43
0.00000001
 12
1.0
 22
0.0
 32
0.0
 13
1.0
 23
0.0
 33
0.0
 40
0.0
 40
0.0
 40
0.0
 40
0.0
 40
1.0
 40
1.0
 40
1.0
 40
1.0
 10
700.6931276483617
 20
1376.609404421673
 30
0.0
 10
699.3466809931617
 20
1376.752723615629
 30
0.0
 10
698.1354961709112
 20
1376.893594638565
 30
0.0
 10
697.0594091351717
 20
1377.024482867706
 30
0.0
  0
LINE
  5
13B
330
1F
100
AcDbEntity
  8
0
  6
Continuous
 62
     7
370
    15
100
AcDbLine
 10
700.5555821887
 20
1066.8540722091
 30
0.0
 11
700.5555821887
 21
1152.9540722091
 31
0.0
  0
LINE
  5
13C
330
1F
100
AcDbEntity
  8
0
  6
Continuous
 62
     7
370
    15
100
AcDbLine
 10
697.0480335096
 20
1224.8540722091
 30
0.0
 11
697.0480335096
 21
1280.8540722091
 31
0.0
  0
LINE
  5
13D
330
1F
100
AcDbEntity
  8
0
  6
Continuous
 62
     7
370
    15
100
AcDbLine
 10
828.2680287278
 20
1346.7290722091
 30
0.0
 11
828.2680287277
 21
1353.4790722091
 31
0.0
  0
SPLINE
  5
13E
330
1F
100
AcDbEntity
  8
0
  6
Continuous
 62
     7
370
    15
100
AcDbSpline
210
0.0
220
0.0
230
1.0
 70
     8
 71
     3
 72
    10
 73
     6
 74
     0
 42
0.00000001
 43
0.00000001
 12
1.0
 22
0.0
 32
0.0
 13
1.0
 23
0.0
 33
0.0
 40
0.0
 40
0.0
 40
0.0
 40
0.0
 40
0.5
 40
0.5
 40
1.0
 40
1.0
 40
1.0
 40
1.0
 10
828.3189073270624
 20
1346.354072209141
 30
0.0
 10
828.305600569308
 20
1346.35407220914
 30
0.0
 10
828.2925121679403
 20
1346.394212315081
 30
0.0
 10
828.2736497680285
 20
1346.532211090331
 30
0.0
 10
828.2680287277274
 20
1346.629556594569
 30
0.0
 10
828.2680287277274
 20
1346.72907220914
 30
0.0
  0
SPLINE
  5
13F
330
1F
100
AcDbEntity
  8
0
  6
Continuous
 62
     7
370
    15
100
AcDbSpline
210
0.0
220
0.0
230
1.0
 70
     8
 71
     3
 72
    10
 73
     6
 74
     0
 42
0.00000001
 43
0.00000001
 12
1.0
 22
0.0
 32
0.0
 13
1.0
 23
0.0
 33
0.0
 40
0.0
 40
0.0
 40
0.0
 40
0.0
 40
0.5
 40
0.5
 40
1.0
 40
1.0
 40
1.0
 40
1.0
 10
830.3192864258209
 20
1346.122578496278
 30
0.0
 10
830.317687662754
 20
1346.191244423032
 30
0.0
 10
830.3149619383181
 20
1346.249885923258
 30
0.0
 10
830.3080360913957
 20
1346.331585547342
 30
0.0
 10
830.3038560031091
 20
1346.354072209141
 30
0.0
 10
830.2995886293717
 20
1346.354072209141
 30
0.0
  0
ELLIPSE
  5
140
330
1F
100
AcDbEntity
  8
0
  6
Continuous
 62
     7
370
    15
100
AcDbEllipse
 10
560.7448290912
 20
1309.5401163912
 30
0.0
 11
0.0
 21
651.837661840741
 31
0.0
210
0.0
220
0.0
230
1.0
 40
0.4142135624
 41
4.764644211488631
 42
4.768540527591443
  0
SPLINE
  5
141
330
1F
100
AcDbEntity
  8
0
  6
Continuous
 62
     7
370
    15
100
AcDbSpline
210
0.0
220
0.0
230
1.0
 70
     8
 71
     3
 72
    10
 73
     6
 74
     0
 42
0.00000001
 43
0.00000001
 12
1.0
 22
0.0
 32
0.0
 13
1.0
 23
0.0
 33
0.0
 40
0.0
 40
0.0
 40
0.0
 40
0.0
 40
0.5
 40
0.5
 40
1.0
 40
1.0
 40
1.0
 40
1.0
 10
828.268028727739
 20
1353.479072209141
 30
0.0
 10
828.268028727739
 20
1353.578571675649
 30
0.0
 10
828.2736376147071
 20
1353.675746223312
 30
0.0
 10
828.2924727386658
 20
1353.813741557139
 30
0.0
 10
828.3056026491847
 20
1353.854072209141
 30
0.0
 10
828.3189073270514
 20
1353.854072209141
 30
0.0
  0
SPLINE
  5
142
330
1F
100
AcDbEntity
  8
0
  6
Continuous
 62
     7
370
    15
100
AcDbSpline
210
0.0
220
0.0
230
1.0
 70
     8
 71
     3
 72
    10
 73
     6
 74
     0
 42
0.00000001
 43
0.00000001
 12
1.0
 22
0.0
 32
0.0
 13
1.0
 23
0.0
 33
0.0
 40
0.0
 40
0.0
 40
0.0
 40
0.0
 40
0.5
 40
0.5
 40
1.0
 40
1.0
 40
1.0
 40
1.0
 10
828.268028727739
 20
1343.211544533864
 30
0.0
 10
828.268028727739
 20
1343.311044000373
 30
0.0
 10
828.2736376147072
 20
1343.408218548036
 30
0.0
 10
828.292472738666
 20
1343.546213881862
 30
0.0
 10
828.3056026491847
 20
1343.586544533865
 30
0.0
 10
828.3189073270514
 20
1343.586544533864
 30
0.0
  0
LINE
  5
143
330
1F
100
AcDbEntity
  8
0
  6
Continuous
 62
     7
370
    15
100
AcDbLine
 10
828.2680287278
 20
1336.4615445339
 30
0.0
 11
828.2680287277
 21
1343.2115445339
 31
0.0
  0
SPLINE
  5
144
330
1F
100
AcDbEntity
  8
0
  6
Continuous
 62
     7
370
    15
100
AcDbSpline
210
0.0
220
0.0
230
1.0
 70
     8
 71
     3
 72
    10
 73
     6
 74
     0
 42
0.00000001
 43
0.00000001
 12
1.0
 22
0.0
 32
0.0
 13
1.0
 23
0.0
 33
0.0
 40
0.0
 40
0.0
 40
0.0
 40
0.0
 40
0.5
 40
0.5
 40
1.0
 40
1.0
 40
1.0
 40
1.0
 10
828.3189073270624
 20
1336.086544533864
 30
0.0
 10
828.305600569308
 20
1336.086544533863
 30
0.0
 10
828.2925121679403
 20
1336.126684639804
 30
0.0
 10
828.2736497680285
 20
1336.264683415055
 30
0.0
 10
828.2680287277275
 20
1336.362028919293
 30
0.0
 10
828.2680287277274
 20
1336.461544533863
 30
0.0
  0
SPLINE
  5
145
330
1F
100
AcDbEntity
  8
0
  6
Continuous
 62
     7
370
    15
100
AcDbSpline
210
0.0
220
0.0
230
1.0
 70
     8
 71
     3
 72
    10
 73
     6
 74
     0
 42
0.00000001
 43
0.00000001
 12
1.0
 22
0.0
 32
0.0
 13
1.0
 23
0.0
 33
0.0
 40
0.0
 40
0.0
 40
0.0
 40
0.0
 40
0.5
 40
0.5
 40
1.0
 40
1.0
 40
1.0
 40
1.0
 10
828.9171340079913
 20
1335.568038246727
 30
0.0
 10
828.9226867951794
 20
1335.682665555295
 30
0.0
 10
828.9210915485688
 20
1335.817832457085
 30
0.0
 10
828.9049849579116
 20
1336.022974127005
 30
0.0
 10
828.8909726812304
 20
1336.086544533863
 30
0.0
 10
828.8763893764353
 20
1336.086544533864
 30
0.0
  0
ELLIPSE
  5
146
330
1F
100
AcDbEntity
  8
0
  6
Continuous
 62
     7
370
    15
100
AcDbEllipse
 10
560.7448290912
 20
1411.284137073
 30
0.0
 11
0.0
 21
651.8376618407426
 31
0.0
210
0.0
220
0.0
230
1.0
 40
0.4142135624
 41
4.569363975106453
 42
4.595968260844106
  0
SPLINE
  5
147
330
1F
100
AcDbEntity
  8
0
  6
Continuous
 62
     7
370
    15
100
AcDbSpline
210
0.0
220
0.0
230
1.0
 70
     8
 71
     3
 72
    10
 73
     6
 74
     0
 42
0.00000001
 43
0.00000001
 12
1.0
 22
0.0
 32
0.0
 13
1.0
 23
0.0
 33
0.0
 40
0.0
 40
0.0
 40
0.0
 40
0.0
 40
0.5
 40
0.5
 40
1.0
 40
1.0
 40
1.0
 40
1.0
 10
828.0376161363363
 20
1317.854072209141
 30
0.0
 10
828.0200514451061
 20
1317.854072209141
 30
0.0
 10
828.0029675139688
 20
1317.917341658793
 30
0.0
 10
827.9831589251514
 20
1318.121595261325
 30
0.0
 10
827.981108751913
 20
1318.25783952319
 30
0.0
 10
827.987952953516
 20
1318.372578496278
 30
0.0
  0
LINE
  5
148
330
1F
100
AcDbEntity
  8
0
  6
Continuous
 62
     7
370
    15
100
AcDbLine
 10
820.9340759938
 20
1066.8540722091
 30
0.0
 11
820.9340759938
 21
1152.9540722091
 31
0.0
  0
SPLINE
  5
149
330
1F
100
AcDbEntity
  8
0
  6
Continuous
 62
     7
370
    15
100
AcDbSpline
210
0.0
220
0.0
230
1.0
 70
     8
 71
     3
 72
     8
 73
     4
 74
     0
 42
0.00000001
 43
0.00000001
 12
1.0
 22
0.0
 32
0.0
 13
1.0
 23
0.0
 33
0.0
 40
0.0
 40
0.0
 40
0.0
 40
0.0
 40
1.0
 40
1.0
 40
1.0
 40
1.0
 10
820.7965305340958
 20
1376.609404421673
 30
0.0
 10
822.1429771892957
 20
1376.752723615629
 30
0.0
 10
823.3541620115464
 20
1376.893594638565
 30
0.0
 10
824.4302490472858
 20
1377.024482867706
 30
0.0
  0
SPLINE
  5
14A
330
1F
100
AcDbEntity
  8
0
  6
Continuous
 62
     7
370
    15
100
AcDbSpline
210
0.0
220
0.0
230
1.0
 70
     8
 71
     3
 72
    21
 73
    17
 74
     0
 42
0.00000001
 43
0.00000001
 12
1.0
 22
0.0
 32
0.0
 13
1.0
 23
0.0
 33
0.0
 40
0.0
 40
0.0
 40
0.0
 40
0.0
 40
0.0586556703080709
 40
0.1165366648143981
 40
0.1736429973733404
 40
0.2299746824163266
 40
0.2855317349840354
 40
0.3403141707606763
 40
0.3943220061108824
 40
0.4475552581192076
 40
0.50001394463248
 40
0.6015734218934466
 40
0.7023516203394631
 40
0.8023486839775416
 40
0.9015647602216207
 40
0.9999999999999999
 40
0.9999999999999999
 40
0.9999999999999999
 40
0.9999999999999999
 10
824.4302490472857
 20
1377.024482867706
 30
0.0
 10
824.5520270855453
 20
1377.039342074324
 30
0.0
 10
824.7939748179961
 20
1377.068864239391
 30
0.0
 10
825.1412575083223
 20
1377.111821815517
 30
0.0
 10
825.474471964615
 20
1377.153430269994
 30
0.0
 10
825.7930755636095
 20
1377.193618461685
 30
0.0
 10
826.0977090002013
 20
1377.232405063191
 30
0.0
 10
826.3886968059753
 20
1377.26978523447
 30
0.0
 10
826.6664414629076
 20
1377.305760063172
 30
0.0
 10
826.931317821735
 20
1377.340329973912
 30
0.0
 10
827.2636952799843
 20
1377.384002055628
 30
0.0
 10
827.6518927640094
 20
1377.435486372194
 30
0.0
 10
828.0808316992473
 20
1377.493106916211
 30
0.0
 10
828.4744320090406
 20
1377.546686158626
 30
0.0
 10
828.8361971760016
 20
1377.596563421809
 30
0.0
 10
829.0505281391703
 20
1377.626635523957
 30
0.0
 10
829.1572702554183
 20
1377.641612173974
 30
0.0
  0
SPLINE
  5
14B
330
1F
100
AcDbEntity
  8
0
  6
Continuous
 62
     7
370
    15
100
AcDbSpline
210
0.0
220
0.0
230
1.0
 70
     8
 71
     3
 72
    21
 73
    17
 74
     0
 42
0.00000001
 43
0.00000001
 12
1.0
 22
0.0
 32
0.0
 13
1.0
 23
0.0
 33
0.0
 40
0.0
 40
0.0
 40
0.0
 40
0.0
 40
0.0570468701304606
 40
0.1137223992238807
 40
0.1700266213305467
 40
0.2259595711794802
 40
0.2815212841965111
 40
0.3367117965229796
 40
0.3915311450349248
 40
0.4459793673632149
 40
0.5000565019140283
 40
0.6002649490888756
 40
0.7003632677687223
 40
0.8003517122499512
 40
0.9002305376681706
 40
1.0
 40
1.0
 40
1.0
 40
1.0
 10
829.1572702554183
 20
1377.641612173974
 30
0.0
 10
829.2165946455377
 20
1377.649987598784
 30
0.0
 10
829.3348572594455
 20
1377.666683929392
 30
0.0
 10
829.4987501934439
 20
1377.690030827205
 30
0.0
 10
829.6522360905014
 20
1377.712027094647
 30
0.0
 10
829.7945839635873
 20
1377.732558973079
 30
0.0
 10
829.9262305164928
 20
1377.751656643367
 30
0.0
 10
830.0473015871252
 20
1377.769312108138
 30
0.0
 10
830.1580049950461
 20
1377.785527460558
 30
0.0
 10
830.2585240306078
 20
1377.800302257067
 30
0.0
 10
830.3750037323273
 20
1377.817458282029
 30
0.0
 10
830.4961626322512
 20
1377.835320292464
 30
0.0
 10
830.6075225144003
 20
1377.851764039594
 30
0.0
 10
830.6863713737176
 20
1377.86342463041
 30
0.0
 10
830.7356915972325
 20
1377.870731389641
 30
0.0
 10
830.7417843723942
 20
1377.871635892942
 30
0.0
 10
830.7448290912287
 20
1377.872087896859
 30
0.0
  0
LINE
  5
14C
330
1F
100
AcDbEntity
  8
0
  6
Continuous
 62
     7
370
    15
100
AcDbLine
 10
824.4416246728
 20
1224.8540722091
 30
0.0
 11
824.4416246728
 21
1280.8540722091
 31
0.0
  0
SPLINE
  5
14D
330
1F
100
AcDbEntity
  8
0
  6
Continuous
 62
     7
370
    15
100
AcDbSpline
210
0.0
220
0.0
230
1.0
 70
     8
 71
     3
 72
     8
 73
     4
 74
     0
 42
0.00000001
 43
0.00000001
 12
1.0
 22
0.0
 32
0.0
 13
1.0
 23
0.0
 33
0.0
 40
0.0
 40
0.0
 40
0.0
 40
0.0
 40
1.0
 40
1.0
 40
1.0
 40
1.0
 10
700.9238391446828
 20
1377.107596177672
 30
0.0
 10
704.4325984548584
 20
1387.055515956933
 30
0.0
 10
708.0055752265384
 20
1396.965584975412
 30
0.0
 10
711.6443901551639
 20
1406.833980558424
 30
0.0
  0
SPLINE
  5
14E
330
1F
100
AcDbEntity
  8
0
  6
Continuous
 62
     7
370
    15
100
AcDbSpline
210
0.0
220
0.0
230
1.0
 70
     8
 71
     3
 72
    12
 73
     8
 74
     0
 42
0.00000001
 43
0.00000001
 12
1.0
 22
0.0
 32
0.0
 13
1.0
 23
0.0
 33
0.0
 40
0.0
 40
0.0
 40
0.0
 40
0.0
 40
0.2499999999999999
 40
0.2499999999999999
 40
0.4999999999999999
 40
0.4999999999999999
 40
1.0
 40
1.0
 40
1.0
 40
1.0
 10
711.644390155164
 20
1406.833980558425
 30
0.0
 10
715.6979352771517
 20
1406.939153580302
 30
0.0
 10
719.7727832990714
 20
1407.035577604115
 30
0.0
 10
727.9333448657288
 20
1407.205729448618
 30
0.0
 10
732.019919063334
 20
1407.279466964903
 30
0.0
 10
744.2983997552069
 20
1407.460146365258
 30
0.0
 10
752.5090747024019
 20
1407.525499338543
 30
0.0
 10
760.7448290912271
 20
1407.525499338543
 30
0.0
  0
SPLINE
  5
14F
330
1F
100
AcDbEntity
  8
0
  6
Continuous
 62
     7
370
    15
100
AcDbSpline
210
0.0
220
0.0
230
1.0
 70
     8
 71
     3
 72
    12
 73
     8
 74
     0
 42
0.00000001
 43
0.00000001
 12
1.0
 22
0.0
 32
0.0
 13
1.0
 23
0.0
 33
0.0
 40
0.0
 40
0.0
 40
0.0
 40
0.0
 40
0.2499999999999999
 40
0.2499999999999999
 40
0.4999999999999999
 40
0.4999999999999999
 40
1.0
 40
1.0
 40
1.0
 40
1.0
 10
809.8452680272935
 20
1406.833980558425
 30
0.0
 10
805.7917229053057
 20
1406.939153580302
 30
0.0
 10
801.716874883386
 20
1407.035577604115
 30
0.0
 10
793.5563133167287
 20
1407.205729448618
 30
0.0
 10
789.4697391191236
 20
1407.279466964903
 30
0.0
 10
777.1912584272505
 20
1407.460146365258
 30
0.0
 10
768.9805834800557
 20
1407.525499338543
 30
0.0
 10
760.7448290912304
 20
1407.525499338543
 30
0.0
  0
SPLINE
  5
150
330
1F
100
AcDbEntity
  8
0
  6
Continuous
 62
     7
370
    15
100
AcDbSpline
210
0.0
220
0.0
230
1.0
 70
     8
 71
     3
 72
     8
 73
     4
 74
     0
 42
0.00000001
 43
0.00000001
 12
1.0
 22
0.0
 32
0.0
 13
1.0
 23
0.0
 33
0.0
 40
0.0
 40
0.0
 40
0.0
 40
0.0
 40
1.0
 40
1.0
 40
1.0
 40
1.0
 10
820.5658190377746
 20
1377.107596177672
 30
0.0
 10
817.0570597275992
 20
1387.055515956933
 30
0.0
 10
813.4840829559191
 20
1396.965584975412
 30
0.0
 10
809.8452680272936
 20
1406.833980558424
 30
0.0
  0
LINE
  5
151
330
1F
100
AcDbEntity
  8
0
  6
Continuous
 62
     7
370
    15
100
AcDbLine
 10
690.7448290912
 20
1377.8720878969
 30
0.0
 11
704.7948290912
 21
1408.00241013
 31
0.0
  0
SPLINE
  5
152
330
1F
100
AcDbEntity
  8
0
  6
Continuous
 62
     7
370
    15
100
AcDbSpline
210
0.0
220
0.0
230
1.0
 70
     8
 71
     3
 72
    18
 73
    14
 74
     0
 42
0.00000001
 43
0.00000001
 12
1.0
 22
0.0
 32
0.0
 13
1.0
 23
0.0
 33
0.0
 40
0.0
 40
0.0
 40
0.0
 40
0.0
 40
0.2500000000000002
 40
0.2500000000000002
 40
0.3750000000000003
 40
0.3750000000000003
 40
0.5000000000000004
 40
0.5000000000000004
 40
0.7500000000000003
 40
0.7500000000000003
 40
0.8750000000000002
 40
0.8750000000000002
 40
1.0
 40
1.0
 40
1.0
 40
1.0
 10
704.7948290912287
 20
1408.002410130019
 30
0.0
 10
704.7948290912237
 20
1408.002410130019
 30
0.0
 10
704.9367919277776
 20
1407.972579947938
 30
0.0
 10
705.3633337991157
 20
1407.887091840696
 30
0.0
 10
705.5411475097906
 20
1407.851879786959
 30
0.0
 10
705.9684313655275
 20
1407.769328428376
 30
0.0
 10
706.2180487531134
 20
1407.721970813268
 30
0.0
 10
707.0737837738119
 20
1407.564153600115
 30
0.0
 10
707.7867698632883
 20
1407.438067553495
 30
0.0
 10
709.0723834454485
 20
1407.226489055364
 30
0.0
 10
709.5371486711189
 20
1407.152170189195
 30
0.0
 10
710.5376467173181
 20
1406.997411182489
 30
0.0
 10
711.0733686744195
 20
1406.916970167204
 30
0.0
 10
711.6443901551642
 20
1406.833980558425
 30
0.0
  0
SPLINE
  5
153
330
1F
100
AcDbEntity
  8
0
  6
Continuous
 62
     7
370
    15
100
AcDbSpline
210
0.0
220
0.0
230
1.0
 70
     8
 71
     3
 72
    18
 73
    14
 74
     0
 42
0.00000001
 43
0.00000001
 12
1.0
 22
0.0
 32
0.0
 13
1.0
 23
0.0
 33
0.0
 40
0.0
 40
0.0
 40
0.0
 40
0.0
 40
0.2500000000000002
 40
0.2500000000000002
 40
0.3750000000000003
 40
0.3750000000000003
 40
0.5000000000000004
 40
0.5000000000000004
 40
0.7500000000000003
 40
0.7500000000000003
 40
0.8750000000000002
 40
0.8750000000000002
 40
1.0
 40
1.0
 40
1.0
 40
1.0
 10
816.6948290912288
 20
1408.002410130019
 30
0.0
 10
816.6948290912338
 20
1408.002410130019
 30
0.0
 10
816.5528662546799
 20
1407.972579947938
 30
0.0
 10
816.1263243833417
 20
1407.887091840696
 30
0.0
 10
815.9485106726669
 20
1407.851879786959
 30
0.0
 10
815.5212268169299
 20
1407.769328428376
 30
0.0
 10
815.271609429344
 20
1407.721970813268
 30
0.0
 10
814.4158744086455
 20
1407.564153600115
 30
0.0
 10
813.7028883191691
 20
1407.438067553495
 30
0.0
 10
812.4172747370089
 20
1407.226489055364
 30
0.0
 10
811.9525095113387
 20
1407.152170189195
 30
0.0
 10
810.9520114651394
 20
1406.997411182489
 30
0.0
 10
810.4162895080381
 20
1406.916970167204
 30
0.0
 10
809.8452680272934
 20
1406.833980558425
 30
0.0
  0
LINE
  5
154
330
1F
100
AcDbEntity
  8
0
  6
Continuous
 62
     7
370
    15
100
AcDbLine
 10
830.7448290912
 20
1377.8720878969
 30
0.0
 11
816.6948290912
 21
1408.00241013
 31
0.0
  0
LINE
  5
155
330
1F
100
AcDbEntity
  8
0
  6
Continuous
 62
     7
370
    15
100
AcDbLine
 10
798.536034879
 20
1408.9540722091
 30
0.0
 11
722.9536233035
 21
1408.9540722091
 31
0.0
  0
LINE
  5
156
330
1F
100
AcDbEntity
  8
0
  6
Continuous
 62
     7
370
    15
100
AcDbLine
 10
824.4416246728
 20
1280.8540722091
 30
0.0
 11
837.2448290912
 21
1280.8540722091
 31
0.0
  0
LINE
  5
157
330
1F
100
AcDbEntity
  8
0
  6
Continuous
 62
     7
370
    15
100
AcDbLine
 10
837.2448290912
 20
1280.8540722091
 30
0.0
 11
837.2448290912
 21
1224.8540722091
 31
0.0
  0
LINE
  5
158
330
1F
100
AcDbEntity
  8
0
  6
Continuous
 62
     7
370
    15
100
AcDbLine
 10
824.4416246728
 20
1224.8540722091
 30
0.0
 11
837.2448290912
 21
1224.8540722091
 31
0.0
  0
LINE
  5
159
330
1F
100
AcDbEntity
  8
0
  6
Continuous
 62
     7
370
    15
100
AcDbLine
 10
697.0480335096
 20
1224.8540722091
 30
0.0
 11
684.2448290912
 21
1224.8540722091
 31
0.0
  0
LINE
  5
15A
330
1F
100
AcDbEntity
  8
0
  6
Continuous
 62
     7
370
    15
100
AcDbLine
 10
684.2448290912
 20
1280.8540722091
 30
0.0
 11
684.2448290912
 21
1224.8540722091
 31
0.0
  0
LINE
  5
15B
330
1F
100
AcDbEntity
  8
0
  6
Continuous
 62
     7
370
    15
100
AcDbLine
 10
697.0480335096
 20
1280.8540722091
 30
0.0
 11
684.2448290912
 21
1280.8540722091
 31
0.0
  0
LINE
  5
15C
330
1F
100
AcDbEntity
  8
0
  6
Continuous
 62
     7
370
    15
100
AcDbLine
 10
720.7448290912
 20
1412.7540722091
 30
0.0
 11
800.7448290912
 21
1412.7540722091
 31
0.0
  0
LINE
  5
15D
330
1F
100
AcDbEntity
  8
0
  6
Continuous
 62
     7
370
    15
100
AcDbLine
 10
720.7448290912
 20
1420.7540722091
 30
0.0
 11
800.7448290912
 21
1420.7540722091
 31
0.0
  0
SPLINE
  5
15E
330
1F
100
AcDbEntity
  8
0
  6
Continuous
 62
     7
370
    15
100
AcDbSpline
210
0.0
220
0.0
230
1.0
 70
     8
 71
     3
 72
    10
 73
     6
 74
     0
 42
0.00000001
 43
0.00000001
 12
1.0
 22
0.0
 32
0.0
 13
1.0
 23
0.0
 33
0.0
 40
0.0
 40
0.0
 40
0.0
 40
0.0
 40
0.5
 40
0.5
 40
1.0
 40
1.0
 40
1.0
 40
1.0
 10
832.1910037619247
 20
1343.586544533864
 30
0.0
 10
832.1957464759314
 20
1343.586544533864
 30
0.0
 10
832.2003566166135
 20
1343.564321946844
 30
0.0
 10
832.2080742198387
 20
1343.482863444663
 30
0.0
 10
832.2111425620982
 20
1343.423732536612
 30
0.0
 10
832.2129243279055
 20
1343.355050821
 30
0.0
  0
ELLIPSE
  5
15F
330
1F
100
AcDbEntity
  8
0
  6
Continuous
 62
     7
370
    15
100
AcDbEllipse
 10
560.7448290912
 20
1302.3082180616
 30
0.0
 11
0.0
 21
656.6660889654866
 31
0.0
210
0.0
220
0.0
230
1.0
 40
0.4142135624
 41
4.736854935698428
 42
4.774937679839033
  0
SPLINE
  5
160
330
1F
100
AcDbEntity
  8
0
  6
Continuous
 62
     7
370
    15
100
AcDbSpline
210
0.0
220
0.0
230
1.0
 70
     8
 71
     3
 72
    10
 73
     6
 74
     0
 42
0.00000001
 43
0.00000001
 12
1.0
 22
0.0
 32
0.0
 13
1.0
 23
0.0
 33
0.0
 40
0.0
 40
0.0
 40
0.0
 40
0.0
 40
0.5
 40
0.5
 40
1.0
 40
1.0
 40
1.0
 40
1.0
 10
832.66342586807
 20
1318.372578496278
 30
0.0
 10
832.6645856893869
 20
1318.258154284911
 30
0.0
 10
832.6642615420839
 20
1318.123428558445
 30
0.0
 10
832.6608953510912
 20
1317.918378322669
 30
0.0
 10
832.657914699005
 20
1317.854072209141
 30
0.0
 10
832.6547269778122
 20
1317.854072209141
 30
0.0
  0
LINE
  5
161
330
1F
100
AcDbEntity
  8
0
  6
Continuous
 62
     7
370
    15
100
AcDbLine
 10
832.6547269778
 20
1317.8540722091
 30
0.0
 11
832.3683165893
 21
1317.8540722091
 31
0.0
  0
SPLINE
  5
162
330
1F
100
AcDbEntity
  8
0
  6
Continuous
 62
     7
370
    15
100
AcDbSpline
210
0.0
220
0.0
230
1.0
 70
     8
 71
     3
 72
    10
 73
     6
 74
     0
 42
0.00000001
 43
0.00000001
 12
1.0
 22
0.0
 32
0.0
 13
1.0
 23
0.0
 33
0.0
 40
0.0
 40
0.0
 40
0.0
 40
0.0
 40
0.5
 40
0.5
 40
1.0
 40
1.0
 40
1.0
 40
1.0
 10
832.368316589305
 20
1317.854072209141
 30
0.0
 10
832.3644069587192
 20
1317.85407220914
 30
0.0
 10
832.3605469765051
 20
1317.876306958231
 30
0.0
 10
832.354015526657
 20
1317.957780676442
 30
0.0
 10
832.3513812215746
 20
1318.016906244777
 30
0.0
 10
832.3498468915859
 20
1318.085565922004
 30
0.0
  0
ELLIPSE
  5
163
330
1F
100
AcDbEntity
  8
0
  6
Continuous
 62
     7
370
    15
100
AcDbEllipse
 10
560.7448290912
 20
1282.7097735885
 30
0.0
 11
0.0
 21
656.6660889654881
 31
0.0
210
0.0
220
0.0
230
1.0
 40
0.4142135624
 41
4.76628688438846
 42
4.77358886214368
  0
SPLINE
  5
164
330
1F
100
AcDbEntity
  8
0
  6
Continuous
 62
     7
370
    15
100
AcDbSpline
210
0.0
220
0.0
230
1.0
 70
     8
 71
     3
 72
    10
 73
     6
 74
     0
 42
0.00000001
 43
0.00000001
 12
1.0
 22
0.0
 32
0.0
 13
1.0
 23
0.0
 33
0.0
 40
0.0
 40
0.0
 40
0.0
 40
0.0
 40
0.5
 40
0.5
 40
1.0
 40
1.0
 40
1.0
 40
1.0
 10
832.2356101860846
 20
1322.872578496278
 30
0.0
 10
832.2338670736732
 20
1322.941254943048
 30
0.0
 10
832.2308956357714
 20
1322.999897663876
 30
0.0
 10
832.2233514593961
 20
1323.081591900894
 30
0.0
 10
832.2188009618111
 20
1323.104072209141
 30
0.0
 10
832.2141587741905
 20
1323.104072209141
 30
0.0
  0
LINE
  5
165
330
1F
100
AcDbEntity
  8
0
  6
Continuous
 62
     7
370
    15
100
AcDbLine
 10
832.2141587742
 20
1323.1040722091
 30
0.0
 11
831.2835336319
 21
1323.1040722091
 31
0.0
  0
SPLINE
  5
166
330
1F
100
AcDbEntity
  8
0
  6
Continuous
 62
     7
370
    15
100
AcDbSpline
210
0.0
220
0.0
230
1.0
 70
     8
 71
     3
 72
    10
 73
     6
 74
     0
 42
0.00000001
 43
0.00000001
 12
1.0
 22
0.0
 32
0.0
 13
1.0
 23
0.0
 33
0.0
 40
0.0
 40
0.0
 40
0.0
 40
0.0
 40
0.5
 40
0.5
 40
1.0
 40
1.0
 40
1.0
 40
1.0
 10
831.283533631947
 20
1323.104072209141
 30
0.0
 10
831.2758188695449
 20
1323.10407220914
 30
0.0
 10
831.2682309130415
 20
1323.081903541197
 30
0.0
 10
831.2554157995903
 20
1323.000531491314
 30
0.0
 10
831.250254465079
 20
1322.941383652676
 30
0.0
 10
831.247251365941
 20
1322.872578496278
 30
0.0
  0
ELLIPSE
  5
167
330
1F
100
AcDbEntity
  8
0
  6
Continuous
 62
     7
370
    15
100
AcDbEllipse
 10
560.7448290912
 20
1391.6856925998
 30
0.0
 11
0.0
 21
656.6660889654898
 31
0.0
210
0.0
220
0.0
230
1.0
 40
0.4142135624
 41
4.60007146775049
 42
4.607404598707365
  0
SPLINE
  5
168
330
1F
100
AcDbEntity
  8
0
  6
Continuous
 62
     7
370
    15
100
AcDbSpline
210
0.0
220
0.0
230
1.0
 70
     8
 71
     3
 72
    10
 73
     6
 74
     0
 42
0.00000001
 43
0.00000001
 12
1.0
 22
0.0
 32
0.0
 13
1.0
 23
0.0
 33
0.0
 40
0.0
 40
0.0
 40
0.0
 40
0.0
 40
0.5
 40
0.5
 40
1.0
 40
1.0
 40
1.0
 40
1.0
 10
831.0309615478407
 20
1318.085565922004
 30
0.0
 10
831.0277456218219
 20
1318.016731983069
 30
0.0
 10
831.0222668123718
 20
1317.958071709279
 30
0.0
 10
831.0084259051196
 20
1317.876458213048
 30
0.0
 10
831.0001113706531
 20
1317.854072209141
 30
0.0
 10
830.9916592402184
 20
1317.854072209141
 30
0.0
  0
LINE
  5
169
330
1F
100
AcDbEntity
  8
0
  6
Continuous
 62
     7
370
    15
100
AcDbLine
 10
830.9916592402
 20
1317.8540722091
 30
0.0
 11
830.0577214791
 21
1317.8540722091
 31
0.0
  0
SPLINE
  5
16A
330
1F
100
AcDbEntity
  8
0
  6
Continuous
 62
     7
370
    15
100
AcDbSpline
210
0.0
220
0.0
230
1.0
 70
     8
 71
     3
 72
    10
 73
     6
 74
     0
 42
0.00000001
 43
0.00000001
 12
1.0
 22
0.0
 32
0.0
 13
1.0
 23
0.0
 33
0.0
 40
0.0
 40
0.0
 40
0.0
 40
0.0
 40
0.5
 40
0.5
 40
1.0
 40
1.0
 40
1.0
 40
1.0
 10
830.0577214791374
 20
1317.854072209141
 30
0.0
 10
830.040286998301
 20
1317.85407220914
 30
0.0
 10
830.023330644292
 20
1317.917352813004
 30
0.0
 10
830.0036719494826
 20
1318.12161548926
 30
0.0
 10
830.0016383276875
 20
1318.257844354083
 30
0.0
 10
830.0084308863354
 20
1318.372578496278
 30
0.0
  0
ELLIPSE
  5
16B
330
1F
100
AcDbEntity
  8
0
  6
Continuous
 62
     7
370
    15
100
AcDbEllipse
 10
560.7448290912
 20
1411.284137073
 30
0.0
 11
0.0
 21
656.6660889654883
 31
0.0
210
0.0
220
0.0
230
1.0
 40
0.4142135624
 41
4.570422779133731
 42
4.596828141003204
  0
SPLINE
  5
16C
330
1F
100
AcDbEntity
  8
0
  6
Continuous
 62
     7
370
    15
100
AcDbSpline
210
0.0
220
0.0
230
1.0
 70
     8
 71
     3
 72
    10
 73
     6
 74
     0
 42
0.00000001
 43
0.00000001
 12
1.0
 22
0.0
 32
0.0
 13
1.0
 23
0.0
 33
0.0
 40
0.0
 40
0.0
 40
0.0
 40
0.0
 40
0.5
 40
0.5
 40
1.0
 40
1.0
 40
1.0
 40
1.0
 10
830.9306635170349
 20
1335.568038246727
 30
0.0
 10
830.9361747709945
 20
1335.682662400058
 30
0.0
 10
830.934591745377
 20
1335.817822464453
 30
0.0
 10
830.9186064967446
 20
1336.022962684932
 30
0.0
 10
830.9046980719086
 20
1336.086544533863
 30
0.0
 10
830.8902225758843
 20
1336.086544533864
 30
0.0
  0
LINE
  5
16D
330
1F
100
AcDbEntity
  8
0
  6
Continuous
 62
     7
370
    15
100
AcDbLine
 10
830.8902225759
 20
1336.0865445339
 30
0.0
 11
830.336904909
 21
1336.0865445339
 31
0.0
  0
SPLINE
  5
16E
330
1F
100
AcDbEntity
  8
0
  6
Continuous
 62
     7
370
    15
100
AcDbSpline
210
0.0
220
0.0
230
1.0
 70
     8
 71
     3
 72
    10
 73
     6
 74
     0
 42
0.00000001
 43
0.00000001
 12
1.0
 22
0.0
 32
0.0
 13
1.0
 23
0.0
 33
0.0
 40
0.0
 40
0.0
 40
0.0
 40
0.0
 40
0.5
 40
0.5
 40
1.0
 40
1.0
 40
1.0
 40
1.0
 10
830.3369049090394
 20
1336.086544533864
 30
0.0
 10
830.323696882117
 20
1336.086544533864
 30
0.0
 10
830.310705777843
 20
1336.126691576534
 30
0.0
 10
830.2919853340532
 20
1336.264694217548
 30
0.0
 10
830.2864072266808
 20
1336.362035989341
 30
0.0
 10
830.2864072266807
 20
1336.461544533863
 30
0.0
  0
LINE
  5
16F
330
1F
100
AcDbEntity
  8
0
  6
Continuous
 62
     7
370
    15
100
AcDbLine
 10
830.2864072267
 20
1336.4615445339
 30
0.0
 11
830.2864072267
 21
1343.2115445339
 31
0.0
  0
SPLINE
  5
170
330
1F
100
AcDbEntity
  8
0
  6
Continuous
 62
     7
370
    15
100
AcDbSpline
210
0.0
220
0.0
230
1.0
 70
     8
 71
     3
 72
    10
 73
     6
 74
     0
 42
0.00000001
 43
0.00000001
 12
1.0
 22
0.0
 32
0.0
 13
1.0
 23
0.0
 33
0.0
 40
0.0
 40
0.0
 40
0.0
 40
0.0
 40
0.5
 40
0.5
 40
1.0
 40
1.0
 40
1.0
 40
1.0
 10
830.2864072266922
 20
1343.211544533864
 30
0.0
 10
830.2864072266922
 20
1343.311037175936
 30
0.0
 10
830.2919731688098
 20
1343.408206973515
 30
0.0
 10
830.310666746591
 20
1343.546207691047
 30
0.0
 10
830.3236989165969
 20
1343.586544533865
 30
0.0
 10
830.3369049090284
 20
1343.586544533864
 30
0.0
  0
LINE
  5
171
330
1F
100
AcDbEntity
  8
0
  6
Continuous
 62
     7
370
    15
100
AcDbLine
 10
830.336904909
 20
1343.5865445339
 30
0.0
 11
832.1910037619
 21
1343.5865445339
 31
0.0
  0
LINE
  5
172
330
1F
100
AcDbEntity
  8
0
  6
Continuous
 62
     7
370
    15
100
AcDbLine
 10
831.9961962912
 20
1330.0415722091
 30
0.0
 11
831.5960226868
 21
1330.0415722091
 31
0.0
  0
SPLINE
  5
173
330
1F
100
AcDbEntity
  8
0
  6
Continuous
 62
     7
370
    15
100
AcDbSpline
210
0.0
220
0.0
230
1.0
 70
     8
 71
     3
 72
    10
 73
     6
 74
     0
 42
0.00000001
 43
0.00000001
 12
1.0
 22
0.0
 32
0.0
 13
1.0
 23
0.0
 33
0.0
 40
0.0
 40
0.0
 40
0.0
 40
0.0
 40
0.5
 40
0.5
 40
1.0
 40
1.0
 40
1.0
 40
1.0
 10
832.0217316796696
 20
1330.560078496278
 30
0.0
 10
832.0251968130906
 20
1330.44558009031
 30
0.0
 10
832.0242112001746
 20
1330.310693447708
 30
0.0
 10
832.0141759344842
 20
1330.105610171968
 30
0.0
 10
832.0053878958861
 20
1330.041572209141
 30
0.0
 10
831.9961962911664
 20
1330.041572209141
 30
0.0
  0
ELLIPSE
  5
174
330
1F
100
AcDbEntity
  8
0
  6
Continuous
 62
     7
370
    15
100
AcDbEllipse
 10
560.7448290912
 20
1282.7097735885
 30
0.0
 11
0.0
 21
656.6660889654804
 31
0.0
210
0.0
220
0.0
230
1.0
 40
0.4142135624
 41
4.785322170241271
 42
4.794183084165946
  0
SPLINE
  5
175
330
1F
100
AcDbEntity
  8
0
  6
Continuous
 62
     7
370
    15
100
AcDbSpline
210
0.0
220
0.0
230
1.0
 70
     8
 71
     3
 72
    14
 73
    10
 74
     0
 42
0.00000001
 43
0.00000001
 12
1.0
 22
0.0
 32
0.0
 13
1.0
 23
0.0
 33
0.0
 40
0.0
 40
0.0
 40
0.0
 40
0.0
 40
0.25
 40
0.25
 40
0.5
 40
0.5
 40
0.75
 40
0.75
 40
1.0
 40
1.0
 40
1.0
 40
1.0
 10
831.7777644635981
 20
1336.361317157637
 30
0.0
 10
831.7801738723832
 20
1336.430113826309
 30
0.0
 10
831.7842728179121
 20
1336.488805319389
 30
0.0
 10
831.7945491577713
 20
1336.570484140825
 30
0.0
 10
831.8007384871678
 20
1336.5928060811
 30
0.0
 10
831.8129265775606
 20
1336.592815658294
 30
0.0
 10
831.8190465718602
 20
1336.570526962533
 30
0.0
 10
831.8291400143576
 20
1336.488822499354
 30
0.0
 10
831.8331226712521
 20
1336.430115873075
 30
0.0
 10
831.8354587994614
 20
1336.361317157636
 30
0.0
  0
ELLIPSE
  5
176
330
1F
100
AcDbEntity
  8
0
  6
Continuous
 62
     7
370
    15
100
AcDbEllipse
 10
560.7448290912
 20
1391.6856925998
 30
0.0
 11
0.0
 21
656.6660889654829
 31
0.0
210
0.0
220
0.0
230
1.0
 40
0.4142135624
 41
4.619169253660299
 42
4.628038598600884
  0
SPLINE
  5
177
330
1F
100
AcDbEntity
  8
0
  6
Continuous
 62
     7
370
    15
100
AcDbSpline
210
0.0
220
0.0
230
1.0
 70
     8
 71
     3
 72
    10
 73
     6
 74
     0
 42
0.00000001
 43
0.00000001
 12
1.0
 22
0.0
 32
0.0
 13
1.0
 23
0.0
 33
0.0
 40
0.0
 40
0.0
 40
0.0
 40
0.0
 40
0.5
 40
0.5
 40
1.0
 40
1.0
 40
1.0
 40
1.0
 10
831.5960226868472
 20
1330.041572209141
 30
0.0
 10
831.58463315928
 20
1330.04157220914
 30
0.0
 10
831.5735448904376
 20
1330.105278752388
 30
0.0
 10
831.5607234435952
 20
1330.309886059448
 30
0.0
 10
831.5594199228312
 20
1330.445528019694
 30
0.0
 10
831.563855902959
 20
1330.560078496278
 30
0.0
  0
LINE
  5
178
330
1F
100
AcDbEntity
  8
0
  6
Continuous
 62
     7
370
    15
100
AcDbLine
 10
828.0376161363
 20
1317.8540722091
 30
0.0
 11
830.0577214791
 21
1317.8540722091
 31
0.0
  0
LINE
  5
179
330
1F
100
AcDbEntity
  8
0
  6
Continuous
 62
     7
370
    15
100
AcDbLine
 10
828.3189073271
 20
1343.5865445339
 30
0.0
 11
830.336904909
 21
1343.5865445339
 31
0.0
  0
LINE
  5
17A
330
1F
100
AcDbEntity
  8
0
  6
Continuous
 62
     7
370
    15
100
AcDbLine
 10
828.3189073271
 20
1336.0865445339
 30
0.0
 11
830.336904909
 21
1336.0865445339
 31
0.0
  0
LINE
  5
17B
330
1F
100
AcDbEntity
  8
0
  6
Continuous
 62
     7
370
    15
100
AcDbLine
 10
830.336904909
 20
1353.8540722091
 30
0.0
 11
832.542548822
 21
1353.8540722091
 31
0.0
  0
SPLINE
  5
17C
330
1F
100
AcDbEntity
  8
0
  6
Continuous
 62
     7
370
    15
100
AcDbSpline
210
0.0
220
0.0
230
1.0
 70
     8
 71
     3
 72
    10
 73
     6
 74
     0
 42
0.00000001
 43
0.00000001
 12
1.0
 22
0.0
 32
0.0
 13
1.0
 23
0.0
 33
0.0
 40
0.0
 40
0.0
 40
0.0
 40
0.0
 40
0.5
 40
0.5
 40
1.0
 40
1.0
 40
1.0
 40
1.0
 10
832.5425488219797
 20
1353.854072209141
 30
0.0
 10
832.5454136339621
 20
1353.854072209141
 30
0.0
 10
832.5481849918739
 20
1353.831827722761
 30
0.0
 10
832.5528077078235
 20
1353.750336731232
 30
0.0
 10
832.5546358646463
 20
1353.691213821243
 30
0.0
 10
832.5556966125704
 20
1353.622578496277
 30
0.0
  0
ELLIPSE
  5
17D
330
1F
100
AcDbEntity
  8
0
  6
Continuous
 62
     7
370
    15
100
AcDbEllipse
 10
560.7448290912
 20
1329.1385608643
 30
0.0
 11
0.0
 21
656.6660889654877
 31
0.0
210
0.0
220
0.0
230
1.0
 40
0.4142135624
 41
4.713662711702241
 42
4.749682963625024
  0
SPLINE
  5
17E
330
1F
100
AcDbEntity
  8
0
  6
Continuous
 62
     7
370
    15
100
AcDbSpline
210
0.0
220
0.0
230
1.0
 70
     8
 71
     3
 72
    11
 73
     7
 74
     0
 42
0.00000001
 43
0.00000001
 12
1.0
 22
0.0
 32
0.0
 13
1.0
 23
0.0
 33
0.0
 40
0.0
 40
0.0
 40
0.0
 40
0.0
 40
0.2863615588630049
 40
0.572723114568417
 40
0.8590846982723911
 40
0.9999999999999999
 40
0.9999999999999999
 40
0.9999999999999999
 40
0.9999999999999999
 10
832.7446084460302
 20
1329.974976800866
 30
0.0
 10
832.7446332922909
 20
1329.937488235521
 30
0.0
 10
832.7446829848124
 20
1329.862511105245
 30
0.0
 10
832.7447730139485
 20
1329.785306349988
 30
0.0
 10
832.7448275086252
 20
1329.744543683936
 30
0.0
 10
832.7448232211001
 20
1329.747747651828
 30
0.0
 10
832.7448218070804
 20
1329.748804315826
 30
0.0
  0
LINE
  5
17F
330
1F
100
AcDbEntity
  8
0
  6
Continuous
 62
     7
370
    15
100
AcDbLine
 10
832.7448290912
 20
1317.8540722091
 30
0.0
 11
832.7260849922
 21
1317.8540722091
 31
0.0
  0
SPLINE
  5
180
330
1F
100
AcDbEntity
  8
0
  6
Continuous
 62
     7
370
    15
100
AcDbSpline
210
0.0
220
0.0
230
1.0
 70
     8
 71
     3
 72
    10
 73
     6
 74
     0
 42
0.00000001
 43
0.00000001
 12
1.0
 22
0.0
 32
0.0
 13
1.0
 23
0.0
 33
0.0
 40
0.0
 40
0.0
 40
0.0
 40
0.0
 40
0.5
 40
0.5
 40
1.0
 40
1.0
 40
1.0
 40
1.0
 10
832.7260849921952
 20
1317.854072209141
 30
0.0
 10
832.7252131405883
 20
1317.854072209141
 30
0.0
 10
832.7243269703714
 20
1317.876328534155
 30
0.0
 10
832.7227984871238
 20
1317.957836067924
 30
0.0
 10
832.7221666276157
 20
1318.016954277071
 30
0.0
 10
832.7217967574968
 20
1318.085565922004
 30
0.0
  0
ELLIPSE
  5
181
330
1F
100
AcDbEntity
  8
0
  6
Continuous
 62
     7
370
    15
100
AcDbEllipse
 10
560.7448290912
 20
1309.5401163912
 30
0.0
 11
0.0
 21
656.6660889654872
 31
0.0
210
0.0
220
0.0
230
1.0
 40
0.4142135624
 41
4.725402734080175
 42
4.768127218873844
  0
SPLINE
  5
182
330
1F
100
AcDbEntity
  8
0
  6
Continuous
 62
     7
370
    15
100
AcDbSpline
210
0.0
220
0.0
230
1.0
 70
     8
 71
     3
 72
    10
 73
     6
 74
     0
 42
0.00000001
 43
0.00000001
 12
1.0
 22
0.0
 32
0.0
 13
1.0
 23
0.0
 33
0.0
 40
0.0
 40
0.0
 40
0.0
 40
0.0
 40
0.5
 40
0.5
 40
1.0
 40
1.0
 40
1.0
 40
1.0
 10
832.3224203008862
 20
1346.122578496278
 30
0.0
 10
832.3208333494825
 20
1346.191243587132
 30
0.0
 10
832.3181277635349
 20
1346.249884983798
 30
0.0
 10
832.3112530204172
 20
1346.331585034265
 30
0.0
 10
832.3071037367146
 20
1346.354072209141
 30
0.0
 10
832.3028678042562
 20
1346.354072209141
 30
0.0
  0
LINE
  5
183
330
1F
100
AcDbEntity
  8
0
  6
Continuous
 62
     7
370
    15
100
AcDbLine
 10
832.3028678043
 20
1346.3540722091
 30
0.0
 11
830.336904909
 21
1346.3540722091
 31
0.0
  0
SPLINE
  5
184
330
1F
100
AcDbEntity
  8
0
  6
Continuous
 62
     7
370
    15
100
AcDbSpline
210
0.0
220
0.0
230
1.0
 70
     8
 71
     3
 72
    10
 73
     6
 74
     0
 42
0.00000001
 43
0.00000001
 12
1.0
 22
0.0
 32
0.0
 13
1.0
 23
0.0
 33
0.0
 40
0.0
 40
0.0
 40
0.0
 40
0.0
 40
0.5
 40
0.5
 40
1.0
 40
1.0
 40
1.0
 40
1.0
 10
830.3369049090394
 20
1346.354072209141
 30
0.0
 10
830.3236968821171
 20
1346.35407220914
 30
0.0
 10
830.310705777843
 20
1346.394219251811
 30
0.0
 10
830.2919853340532
 20
1346.532221892825
 30
0.0
 10
830.2864072266807
 20
1346.629563664618
 30
0.0
 10
830.2864072266807
 20
1346.72907220914
 30
0.0
  0
LINE
  5
185
330
1F
100
AcDbEntity
  8
0
  6
Continuous
 62
     7
370
    15
100
AcDbLine
 10
830.2864072267
 20
1346.7290722091
 30
0.0
 11
830.2864072267
 21
1353.4790722091
 31
0.0
  0
SPLINE
  5
186
330
1F
100
AcDbEntity
  8
0
  6
Continuous
 62
     7
370
    15
100
AcDbSpline
210
0.0
220
0.0
230
1.0
 70
     8
 71
     3
 72
    10
 73
     6
 74
     0
 42
0.00000001
 43
0.00000001
 12
1.0
 22
0.0
 32
0.0
 13
1.0
 23
0.0
 33
0.0
 40
0.0
 40
0.0
 40
0.0
 40
0.0
 40
0.5
 40
0.5
 40
1.0
 40
1.0
 40
1.0
 40
1.0
 10
830.2864072266922
 20
1353.479072209141
 30
0.0
 10
830.2864072266922
 20
1353.578564851212
 30
0.0
 10
830.2919731688098
 20
1353.675734648792
 30
0.0
 10
830.3106667465909
 20
1353.813735366323
 30
0.0
 10
830.323698916597
 20
1353.854072209142
 30
0.0
 10
830.3369049090284
 20
1353.854072209141
 30
0.0
  0
LINE
  5
187
330
1F
100
AcDbEntity
  8
0
  6
Continuous
 62
     7
370
    15
100
AcDbLine
 10
828.3189073271
 20
1346.3540722091
 30
0.0
 11
830.336904909
 21
1346.3540722091
 31
0.0
  0
LINE
  5
188
330
1F
100
AcDbEntity
  8
0
  6
Continuous
 62
     7
370
    15
100
AcDbLine
 10
828.3189073271
 20
1353.8540722091
 30
0.0
 11
830.336904909
 21
1353.8540722091
 31
0.0
  0
LINE
  5
189
330
1F
100
AcDbEntity
  8
0
  6
Continuous
 62
     7
370
    15
100
AcDbLine
 10
793.7448290912
 20
119.7094756513
 30
0.0
 11
793.7448290912
 21
67.2094756513
 31
0.0
  0
LINE
  5
18A
330
1F
100
AcDbEntity
  8
0
  6
Continuous
 62
     7
370
    15
100
AcDbLine
 10
793.7448290912
 20
119.7094756513
 30
0.0
 11
794.608964503
 21
119.7094756513
 31
0.0
  0
LINE
  5
18B
330
1F
100
AcDbEntity
  8
0
  6
Continuous
 62
     7
370
    15
100
AcDbLine
 10
794.608964503
 20
119.7094756513
 30
0.0
 11
794.608964503
 21
67.2094756513
 31
0.0
  0
LINE
  5
18C
330
1F
100
AcDbEntity
  8
0
  6
Continuous
 62
     7
370
    15
100
AcDbLine
 10
793.7448290912
 20
67.2094756513
 30
0.0
 11
794.608964503
 21
67.2094756513
 31
0.0
  0
LINE
  5
18D
330
1F
100
AcDbEntity
  8
0
  6
Continuous
 62
     7
370
    15
100
AcDbLine
 10
727.7448290912
 20
119.7094756513
 30
0.0
 11
727.7448290912
 21
67.2094756513
 31
0.0
  0
LINE
  5
18E
330
1F
100
AcDbEntity
  8
0
  6
Continuous
 62
     7
370
    15
100
AcDbLine
 10
727.7448290912
 20
67.2094756513
 30
0.0
 11
793.7448290912
 21
67.2094756513
 31
0.0
  0
LINE
  5
18F
330
1F
100
AcDbEntity
  8
0
  6
Continuous
 62
     7
370
    15
100
AcDbLine
 10
727.7448290912
 20
119.7094756513
 30
0.0
 11
793.7448290912
 21
119.7094756513
 31
0.0
  0
LINE
  5
190
330
1F
100
AcDbEntity
  8
0
  6
Continuous
 62
     7
370
    15
100
AcDbLine
 10
727.0770880912
 20
67.2094756513
 30
0.0
 11
727.0770880912
 21
119.7094756513
 31
0.0
  0
LINE
  5
191
330
1F
100
AcDbEntity
  8
0
  6
Continuous
 62
     7
370
    15
100
AcDbLine
 10
727.0770880912
 20
67.2094756513
 30
0.0
 11
727.7448290912
 21
67.2094756513
 31
0.0
  0
LINE
  5
192
330
1F
100
AcDbEntity
  8
0
  6
Continuous
 62
     7
370
    15
100
AcDbLine
 10
727.0770880912
 20
119.7094756513
 30
0.0
 11
727.7448290912
 21
119.7094756513
 31
0.0
  0
LINE
  5
193
330
1F
100
AcDbEntity
  8
0
  6
Continuous
 62
     7
370
    15
100
AcDbLine
 10
732.7448290912
 20
119.7094756513
 30
0.0
 11
732.7448290912
 21
174.7094756513
 31
0.0
  0
LINE
  5
194
330
1F
100
AcDbEntity
  8
0
  6
Continuous
 62
     7
370
    15
100
AcDbLine
 10
732.0116232873
 20
119.7094756513
 30
0.0
 11
732.0116232873
 21
174.7094756513
 31
0.0
  0
LINE
  5
195
330
1F
100
AcDbEntity
  8
0
  6
Continuous
 62
     7
370
    15
100
AcDbLine
 10
732.0116232873
 20
174.7094756513
 30
0.0
 11
732.7448290912
 21
174.7094756513
 31
0.0
  0
LINE
  5
196
330
1F
100
AcDbEntity
  8
0
  6
Continuous
 62
     7
370
    15
100
AcDbLine
 10
788.7448290912
 20
119.7094756513
 30
0.0
 11
788.7448290912
 21
174.7094756513
 31
0.0
  0
LINE
  5
197
330
1F
100
AcDbEntity
  8
0
  6
Continuous
 62
     7
370
    15
100
AcDbLine
 10
732.7448290912
 20
174.7094756513
 30
0.0
 11
788.7448290912
 21
174.7094756513
 31
0.0
  0
LINE
  5
198
330
1F
100
AcDbEntity
  8
0
  6
Continuous
 62
     7
370
    15
100
AcDbLine
 10
789.4780348952
 20
119.7094756513
 30
0.0
 11
789.4780348952
 21
174.7094756513
 31
0.0
  0
LINE
  5
199
330
1F
100
AcDbEntity
  8
0
  6
Continuous
 62
     7
370
    15
100
AcDbLine
 10
788.7448290912
 20
174.7094756513
 30
0.0
 11
789.4780348952
 21
174.7094756513
 31
0.0
  0
LINE
  5
19A
330
1F
100
AcDbEntity
  8
0
  6
Continuous
 62
     7
370
    15
100
AcDbLine
 10
775.9118290912
 20
1447.4540722091
 30
0.0
 11
745.5778290912
 21
1447.4540722091
 31
0.0
  0
LINE
  5
19B
330
1F
100
AcDbEntity
  8
0
  6
Continuous
 62
     7
370
    15
100
AcDbLine
 10
776.6109931971
 20
1420.7540722091
 30
0.0
 11
775.9118290912
 21
1447.4540722091
 31
0.0
  0
LINE
  5
19C
330
1F
100
AcDbEntity
  8
0
  6
Continuous
 62
     7
370
    15
100
AcDbLine
 10
744.8786649853
 20
1420.7540722091
 30
0.0
 11
745.5778290912
 21
1447.4540722091
 31
0.0
  0
LINE
  5
19D
330
1F
100
AcDbEntity
  8
0
  6
Continuous
 62
     7
370
    15
100
AcDbLine
 10
830.9916592402
 20
1317.8540722091
 30
0.0
 11
832.3683165893
 21
1317.8540722091
 31
0.0
  0
LINE
  5
19E
330
1F
100
AcDbEntity
  8
0
  6
Continuous
 62
     7
370
    15
100
AcDbLine
 10
748.2448290912
 20
1047.8540722091
 30
0.0
 11
748.2448290912
 21
174.7094756513
 31
0.0
  0
LINE
  5
19F
330
1F
100
AcDbEntity
  8
0
  6
Continuous
 62
     7
370
    15
100
AcDbLine
 10
773.2448290912
 20
1047.8540722091
 30
0.0
 11
773.2448290912
 21
174.7094756513
 31
0.0
  0
LINE
  5
1A0
330
1F
100
AcDbEntity
  8
0
  6
Continuous
 62
     7
370
    15
100
AcDbLine
 10
724.941223503
 20
119.7094756513
 30
0.0
 11
724.941223503
 21
67.2094756513
 31
0.0
  0
LINE
  5
1A1
330
1F
100
AcDbEntity
  8
0
  6
Continuous
 62
     7
370
    15
100
AcDbLine
 10
724.941223503
 20
67.2094756513
 30
0.0
 11
727.0770880912
 21
67.2094756513
 31
0.0
  0
LINE
  5
1A2
330
1F
100
AcDbEntity
  8
0
  6
Continuous
 62
     7
370
    15
100
AcDbLine
 10
727.0770880912
 20
119.7094756513
 30
0.0
 11
724.941223503
 21
119.7094756513
 31
0.0
  0
LINE
  5
1A3
330
1F
100
AcDbEntity
  8
0
  6
Continuous
 62
     7
370
    15
100
AcDbLine
 10
724.7448290912
 20
119.7094756513
 30
0.0
 11
724.7448290912
 21
67.2094756513
 31
0.0
  0
LINE
  5
1A4
330
1F
100
AcDbEntity
  8
0
  6
Continuous
 62
     7
370
    15
100
AcDbLine
 10
724.941223503
 20
67.2094756513
 30
0.0
 11
724.7448290912
 21
67.2094756513
 31
0.0
  0
LINE
  5
1A5
330
1F
100
AcDbEntity
  8
0
  6
Continuous
 62
     7
370
    15
100
AcDbLine
 10
724.941223503
 20
119.7094756513
 30
0.0
 11
724.7448290912
 21
119.7094756513
 31
0.0
  0
LINE
  5
1A6
330
1F
100
AcDbEntity
  8
0
  6
Continuous
 62
     7
370
    15
100
AcDbLine
 10
832.6547269778
 20
1317.8540722091
 30
0.0
 11
832.7260849922
 21
1317.8540722091
 31
0.0
  0
LINE
  5
1A7
330
1F
100
AcDbEntity
  8
0
  6
Continuous
 62
     7
370
    15
100
AcDbLine
 10
719.5818781873
 20
1420.7540722091
 30
0.0
 11
720.7448290912
 21
1420.7540722091
 31
0.0
  0
LINE
  5
1A8
330
1F
100
AcDbEntity
  8
0
  6
Continuous
 62
     7
370
    15
100
AcDbLine
 10
719.5818781873
 20
1412.7540722091
 30
0.0
 11
720.7448290912
 21
1412.7540722091
 31
0.0
  0
SPLINE
  5
1A9
330
1F
100
AcDbEntity
  8
0
  6
Continuous
 62
     8
370
     0
100
AcDbSpline
210
0.0
220
0.0
230
1.0
 70
    24
 71
     3
 72
     8
 73
     4
 74
     0
 42
0.00000001
 43
0.00000001
 12
1.0
 22
0.0
 32
0.0
 13
1.0
 23
0.0
 33
0.0
 40
0.0
 40
0.0
 40
0.0
 40
0.0
 40
1.0
 40
1.0
 40
1.0
 40
1.0
 10
760.7448290912288
 20
1227.354072209141
 30
0.0
 10
760.7448290912288
 20
1202.457195496244
 30
0.0
 10
760.7448290912288
 20
1177.62271787641
 30
0.0
 10
760.7448290912288
 20
1152.954072209141
 30
0.0
  0
SPLINE
  5
1AA
330
1F
100
AcDbEntity
  8
0
  6
Continuous
 62
     8
370
     0
100
AcDbSpline
210
0.0
220
0.0
230
1.0
 70
    24
 71
     3
 72
     8
 73
     4
 74
     0
 42
0.00000001
 43
0.00000001
 12
1.0
 22
0.0
 32
0.0
 13
1.0
 23
0.0
 33
0.0
 40
0.0
 40
0.0
 40
0.0
 40
0.0
 40
1.0
 40
1.0
 40
1.0
 40
1.0
 10
760.7448290912288
 20
1377.880585998289
 30
0.0
 10
760.7448290912288
 20
1344.884640699236
 30
0.0
 10
760.7448290912288
 20
1311.627384568561
 30
0.0
 10
760.7448290912288
 20
1278.354072209141
 30
0.0
  0
LINE
  5
1AB
330
1F
100
AcDbEntity
  8
0
  6
Continuous
 62
     8
370
     0
100
AcDbLine
 10
760.7448290912
 20
1407.5254993385
 30
0.0
 11
760.7448290912
 21
1377.8805859983
 31
0.0
  0
LINE
  5
1AC
330
1F
100
AcDbEntity
  8
0
  6
Continuous
 62
     8
370
     0
100
AcDbLine
 10
827.9879529534
 20
1318.3725784963
 30
0.0
 11
830.0084308862
 21
1318.3725784963
 31
0.0
  0
LINE
  5
1AD
330
1F
100
AcDbEntity
  8
0
  6
Continuous
 62
     8
370
     0
100
AcDbLine
 10
828.917134008
 20
1335.5680382467
 30
0.0
 11
830.930663517
 21
1335.5680382467
 31
0.0
  0
LINE
  5
1AE
330
1F
100
AcDbEntity
  8
0
  6
Continuous
 62
     8
370
     0
100
AcDbLine
 10
828.2680287277
 20
1343.2115445339
 30
0.0
 11
830.2864072267
 21
1343.2115445339
 31
0.0
  0
LINE
  5
1AF
330
1F
100
AcDbEntity
  8
0
  6
Continuous
 62
     8
370
     0
100
AcDbLine
 10
828.2680287278
 20
1336.4615445339
 30
0.0
 11
830.2864072267
 21
1336.4615445339
 31
0.0
  0
LINE
  5
1B0
330
1F
100
AcDbEntity
  8
0
  6
Continuous
 62
     8
370
     0
100
AcDbLine
 10
828.2680287278
 20
1346.7290722091
 30
0.0
 11
830.2864072267
 21
1346.7290722091
 31
0.0
  0
LINE
  5
1B1
330
1F
100
AcDbEntity
  8
0
  6
Continuous
 62
     8
370
     0
100
AcDbLine
 10
828.2680287277
 20
1353.4790722091
 30
0.0
 11
830.2864072267
 21
1353.4790722091
 31
0.0
  0
LINE
  5
1B2
330
1F
100
AcDbEntity
  8
0
  6
Continuous
 62
     8
370
     0
100
AcDbLine
 10
831.7777644636
 20
1336.3613171576
 30
0.0
 11
831.8354587992
 21
1336.3613171576
 31
0.0
  0
LINE
  5
1B3
330
1F
100
AcDbEntity
  8
0
  6
Continuous
 62
     8
370
     0
100
AcDbLine
 10
831.5638559029
 20
1330.5600784963
 30
0.0
 11
832.0217316795
 21
1330.5600784963
 31
0.0
  0
LINE
  5
1B4
330
1F
100
AcDbEntity
  8
0
  6
Continuous
 62
     8
370
     0
100
AcDbLine
 10
831.247251366
 20
1322.8725784963
 30
0.0
 11
832.2356101861
 21
1322.8725784963
 31
0.0
  0
LINE
  5
1B5
330
1F
100
AcDbEntity
  8
0
  6
Continuous
 62
     8
370
     0
100
AcDbLine
 10
831.0309615478
 20
1318.085565922
 30
0.0
 11
832.3498468915
 21
1318.085565922
 31
0.0
  0
LINE
  5
1B6
330
1F
100
AcDbEntity
  8
0
  6
Continuous
 62
     8
370
     0
100
AcDbLine
 10
830.3192864258
 20
1346.1225784963
 30
0.0
 11
832.3224203009
 21
1346.1225784963
 31
0.0
  0
LINE
  5
1B7
330
1F
100
AcDbEntity
  8
0
  6
Continuous
 62
     8
370
     0
100
AcDbLine
 10
832.6632969964
 20
1318.085565922
 30
0.0
 11
832.7217967575
 21
1318.085565922
 31
0.0
  0
LINE
  5
1B8
330
1F
100
AcDbEntity
  8
FORMAT
  6
CENTERX2
 62
     7
370
     0
100
AcDbLine
 10
760.7448290912
 20
1545.0727312805
 30
0.0
 11
760.7448290912
 21
55.4159870351
 31
0.0
  0
ARC
  5
1B9
330
1F
100
AcDbEntity
  8
0
  6
Continuous
 62
     7
370
    15
100
AcDbCircle
 10
-187.5431456294
 20
-478.2667799087
 30
0.0
 40
7.0
100
AcDbArc
 50
90.0
 51
270.0
  0
ARC
  5
1BA
330
1F
100
AcDbEntity
  8
0
  6
Continuous
 62
     7
370
    15
100
AcDbCircle
 10
-138.5431456294
 20
-478.2667799087
 30
0.0
 40
7.0
100
AcDbArc
 50
270.0
 51
90.0
  0
LINE
  5
1BB
330
1F
100
AcDbEntity
  8
0
  6
Continuous
 62
     7
370
    15
100
AcDbLine
 10
-187.5431456294
 20
-485.2667799087
 30
0.0
 11
-138.5431456294
 21
-485.2667799087
 31
0.0
  0
LINE
  5
1BC
330
1F
100
AcDbEntity
  8
0
  6
Continuous
 62
     7
370
    15
100
AcDbLine
 10
-138.5431456294
 20
-471.2667799087
 30
0.0
 11
-187.5431456294
 21
-471.2667799087
 31
0.0
  0
SPLINE
  5
1BD
330
1F
100
AcDbEntity
  8
0
  6
Continuous
 62
     7
370
    15
100
AcDbSpline
210
0.0
220
0.0
230
1.0
 70
     8
 71
     3
 72
    12
 73
     8
 74
     0
 42
0.00000001
 43
0.00000001
 12
1.0
 22
0.0
 32
0.0
 13
1.0
 23
0.0
 33
0.0
 40
0.0
 40
0.0
 40
0.0
 40
0.0
 40
0.2276637972504826
 40
0.4799195375047269
 40
0.7325141353333954
 40
0.9853297612217006
 40
1.0
 40
1.0
 40
1.0
 40
1.0
 10
-247.9270696024035
 20
-487.7748669695508
 30
0.0
 10
-247.8230656301951
 20
-490.3938053293438
 30
0.0
 10
-247.6038233139213
 20
-495.9145763151777
 30
0.0
 10
-246.9490819392092
 20
-504.324398000263
 30
0.0
 10
-246.0007587396389
 20
-512.9945832552254
 30
0.0
 10
-245.2388113327119
 20
-518.9359858883043
 30
0.0
 10
-244.7213225277524
 20
-521.9714965412347
 30
0.0
 10
-244.6929408996491
 20
-522.1379788566576
 30
0.0
  0
SPLINE
  5
1BE
330
1F
100
AcDbEntity
  8
0
  6
Continuous
 62
     7
370
    15
100
AcDbSpline
210
0.0
220
0.0
230
1.0
 70
     8
 71
     3
 72
    13
 73
     9
 74
     0
 42
0.00000001
 43
0.00000001
 12
1.0
 22
0.0
 32
0.0
 13
1.0
 23
0.0
 33
0.0
 40
0.0
 40
0.0
 40
0.0
 40
0.0
 40
0.1368576425847317
 40
0.3264361126836574
 40
0.5159376941464471
 40
0.705273600854357
 40
0.8943555120031774
 40
1.0
 40
1.0
 40
1.0
 40
1.0
 10
-84.01499004201327
 20
-536.4316266389781
 30
0.0
 10
-83.58861863994221
 20
-534.3732985400846
 30
0.0
 10
-82.57162740421064
 20
-529.4637252744607
 30
0.0
 10
-81.27097937743318
 20
-521.6452196848395
 30
0.0
 10
-80.06464994241685
 20
-512.9979844367797
 30
0.0
 10
-79.14635301161725
 20
-504.3232940312063
 30
0.0
 10
-78.5479280174692
 20
-496.9109256298742
 30
0.0
 10
-78.36251384604319
 20
-492.3880144932406
 30
0.0
 10
-78.29605225568537
 20
-490.7667799086568
 30
0.0
  0
SPLINE
  5
1BF
330
1F
100
AcDbEntity
  8
0
  6
Continuous
 62
     7
370
    15
100
AcDbSpline
210
0.0
220
0.0
230
1.0
 70
     8
 71
     3
 72
    12
 73
     8
 74
     0
 42
0.00000001
 43
0.00000001
 12
1.0
 22
0.0
 32
0.0
 13
1.0
 23
0.0
 33
0.0
 40
0.0
 40
0.0
 40
0.0
 40
0.0
 40
0.0146702387783018
 40
0.2674858646666064
 40
0.5200804624952743
 40
0.7723362027495179
 40
1.0
 40
1.0
 40
1.0
 40
1.0
 10
-244.6929408996491
 20
-434.3955809606546
 30
0.0
 10
-244.7213225277524
 20
-434.5620632760774
 30
0.0
 10
-245.2388113327117
 20
-437.5975739290079
 30
0.0
 10
-246.000758739639
 20
-443.5389765620868
 30
0.0
 10
-246.9490819392092
 20
-452.2091618170492
 30
0.0
 10
-247.6038233139214
 20
-460.6189835021345
 30
0.0
 10
-247.8230656301952
 20
-466.1397544879684
 30
0.0
 10
-247.9270696024035
 20
-468.7586928477614
 30
0.0
  0
SPLINE
  5
1C0
330
1F
100
AcDbEntity
  8
0
  6
Continuous
 62
     7
370
    15
100
AcDbSpline
210
0.0
220
0.0
230
1.0
 70
     8
 71
     3
 72
    11
 73
     7
 74
     0
 42
0.00000001
 43
0.00000001
 12
1.0
 22
0.0
 32
0.0
 13
1.0
 23
0.0
 33
0.0
 40
0.0
 40
0.0
 40
0.0
 40
0.0
 40
0.2375452238800065
 40
0.5175914145496576
 40
0.7977512315515509
 40
1.0
 40
1.0
 40
1.0
 40
1.0
 10
-79.32248537742
 20
-450.9078371064738
 30
0.0
 10
-79.57069718554307
 20
-448.4514252610689
 30
0.0
 10
-80.11153020578202
 20
-443.0991068224465
 30
0.0
 10
-81.27495753876849
 20
-434.8887649100693
 30
0.0
 10
-82.57094797345813
 20
-427.0697619950242
 30
0.0
 10
-83.58841793511932
 20
-422.1602398464949
 30
0.0
 10
-84.01499004201327
 20
-420.1019331783342
 30
0.0
  0
LINE
  5
1C1
330
1F
100
AcDbEntity
  8
0
  6
Continuous
 62
     7
370
    15
100
AcDbLine
 10
-201.5569184684
 20
-545.5064977621
 30
0.0
 11
-201.5569184684
 21
-547.5270010648
 31
0.0
  0
LINE
  5
1C2
330
1F
100
AcDbEntity
  8
0
  6
Continuous
 62
     7
370
    15
100
AcDbLine
 10
-74.5571782717
 20
-444.8218078798
 30
0.0
 11
-80.0264732664
 21
-444.3433065703
 31
0.0
  0
LINE
  5
1C3
330
1F
100
AcDbEntity
  8
0
  6
Continuous
 62
     7
370
    15
100
AcDbLine
 10
-74.1269405784
 20
-465.7667799087
 30
0.0
 11
-74.0431456294
 21
-462.5667799087
 31
0.0
  0
LINE
  5
1C4
330
1F
100
AcDbEntity
  8
0
  6
Continuous
 62
     7
370
    15
100
AcDbLine
 10
-74.0431456294
 20
-462.5667799087
 30
0.0
 11
-74.4504778653
 21
-447.0113893983
 31
0.0
  0
ARC
  5
1C5
330
1F
100
AcDbEntity
  8
0
  6
Continuous
 62
     7
370
    15
100
AcDbCircle
 10
-302.5431456294
 20
-478.2667799087
 30
0.0
 40
4.0
100
AcDbArc
 50
90.0
 51
270.0
  0
LINE
  5
1C6
330
1F
100
AcDbEntity
  8
0
  6
Continuous
 62
     7
370
    15
100
AcDbLine
 10
-289.0431456294
 20
-474.2667799087
 30
0.0
 11
-302.5431456294
 21
-474.2667799087
 31
0.0
  0
LINE
  5
1C7
330
1F
100
AcDbEntity
  8
0
  6
Continuous
 62
     7
370
    15
100
AcDbLine
 10
-302.5431456294
 20
-482.2667799087
 30
0.0
 11
-289.0431456294
 21
-482.2667799087
 31
0.0
  0
LINE
  5
1C8
330
1F
100
AcDbEntity
  8
0
  6
Continuous
 62
     7
370
    15
100
AcDbLine
 10
-267.2384019431
 20
-474.2667799087
 30
0.0
 11
-289.0431456294
 21
-474.2667799087
 31
0.0
  0
LINE
  5
1C9
330
1F
100
AcDbEntity
  8
0
  6
Continuous
 62
     7
370
    15
100
AcDbLine
 10
-289.0431456294
 20
-482.2667799087
 30
0.0
 11
-267.2384019431
 21
-482.2667799087
 31
0.0
  0
CIRCLE
  5
1CA
330
1F
100
AcDbEntity
  8
0
  6
Continuous
 62
     7
370
    15
100
AcDbCircle
 10
-163.0431456294
 20
-478.2667799087
 30
0.0
 40
180.0
  0
LINE
  5
1CB
330
1F
100
AcDbEntity
  8
0
  6
Continuous
 62
     7
370
    15
100
AcDbLine
 10
-104.9636167659
 20
-339.9672197973
 30
0.0
 11
-139.4133099368
 21
-445.9924733299
 31
0.0
  0
ARC
  5
1CC
330
1F
100
AcDbEntity
  8
0
  6
Continuous
 62
     7
370
    15
100
AcDbCircle
 10
-163.0431456294
 20
-478.2667799087
 30
0.0
 40
40.00000000000007
100
AcDbArc
 50
18.2099568643
 51
53.7900431357
  0
LINE
  5
1CD
330
1F
100
AcDbEntity
  8
0
  6
Continuous
 62
     7
370
    15
100
AcDbLine
 10
-125.0464352455
 20
-465.7667799087
 30
0.0
 11
-13.5648863407
 21
-465.7667799087
 31
0.0
  0
ARC
  5
1CE
330
1F
100
AcDbEntity
  8
0
  6
Continuous
 62
     7
370
    15
100
AcDbCircle
 10
-163.0431456294
 20
-478.2667799087
 30
0.0
 40
150.0000000000001
100
AcDbArc
 50
4.7801918472
 51
67.2198081528
  0
LINE
  5
1CF
330
1F
100
AcDbEntity
  8
0
  6
Continuous
 62
     7
370
    15
100
AcDbLine
 10
-13.5648863407
 20
-490.7667799087
 30
0.0
 11
-125.0464352455
 21
-490.7667799087
 31
0.0
  0
ARC
  5
1D0
330
1F
100
AcDbEntity
  8
0
  6
Continuous
 62
     7
370
    15
100
AcDbCircle
 10
-163.0431456294
 20
-478.2667799087
 30
0.0
 40
39.99999999999999
100
AcDbArc
 50
306.2099568643
 51
341.7900431357
  0
LINE
  5
1D1
330
1F
100
AcDbEntity
  8
0
  6
Continuous
 62
     7
370
    15
100
AcDbLine
 10
-139.4133099368
 20
-510.5410864874
 30
0.0
 11
-104.9636167659
 21
-616.56634002
 31
0.0
  0
ARC
  5
1D2
330
1F
100
AcDbEntity
  8
0
  6
Continuous
 62
     7
370
    15
100
AcDbCircle
 10
-163.0431456294
 20
-478.2667799087
 30
0.0
 40
150.0
100
AcDbArc
 50
292.7801918472
 51
355.2198081528
  0
LINE
  5
1D3
330
1F
100
AcDbEntity
  8
0
  6
Continuous
 62
     7
370
    15
100
AcDbLine
 10
-128.7400296733
 20
-624.2917648794
 30
0.0
 11
-163.1897228441
 21
-518.2665113468
 31
0.0
  0
ARC
  5
1D4
330
1F
100
AcDbEntity
  8
0
  6
Continuous
 62
     7
370
    15
100
AcDbCircle
 10
-163.0431456294
 20
-478.2667799087
 30
0.0
 40
40.0
100
AcDbArc
 50
234.2099568643
 51
269.7900431357
  0
LINE
  5
1D5
330
1F
100
AcDbEntity
  8
0
  6
Continuous
 62
     7
370
    15
100
AcDbLine
 10
-186.4358144067
 20
-510.7133983376
 30
0.0
 11
-276.62628203
 21
-576.2406086866
 31
0.0
  0
ARC
  5
1D6
330
1F
100
AcDbEntity
  8
0
  6
Continuous
 62
     7
370
    15
100
AcDbCircle
 10
-163.0431456294
 20
-478.2667799087
 30
0.0
 40
149.9999999999999
100
AcDbArc
 50
220.7801918472
 51
283.2198081528
  0
LINE
  5
1D7
330
1F
100
AcDbEntity
  8
0
  6
Continuous
 62
     7
370
    15
100
AcDbLine
 10
-291.3209133373
 20
-556.0151838273
 30
0.0
 11
-201.130445714
 21
-490.4879734783
 31
0.0
  0
ARC
  5
1D8
330
1F
100
AcDbEntity
  8
0
  6
Continuous
 62
     7
370
    15
100
AcDbCircle
 10
-163.0431456294
 20
-478.2667799087
 30
0.0
 40
40.0
100
AcDbArc
 50
162.2099568643
 51
197.7900431357
  0
LINE
  5
1D9
330
1F
100
AcDbEntity
  8
0
  6
Continuous
 62
     7
370
    15
100
AcDbLine
 10
-201.130445714
 20
-466.045586339
 30
0.0
 11
-291.3209133373
 21
-400.5183759901
 31
0.0
  0
ARC
  5
1DA
330
1F
100
AcDbEntity
  8
0
  6
Continuous
 62
     7
370
    15
100
AcDbCircle
 10
-163.0431456294
 20
-478.2667799087
 30
0.0
 40
150.0
100
AcDbArc
 50
148.7801918472
 51
211.2198081528
  0
LINE
  5
1DB
330
1F
100
AcDbEntity
  8
0
  6
Continuous
 62
     7
370
    15
100
AcDbLine
 10
-276.62628203
 20
-380.2929511307
 30
0.0
 11
-186.4358144067
 21
-445.8201614797
 31
0.0
  0
ARC
  5
1DC
330
1F
100
AcDbEntity
  8
0
  6
Continuous
 62
     7
370
    15
100
AcDbCircle
 10
-163.0431456294
 20
-478.2667799087
 30
0.0
 40
40.00000000000005
100
AcDbArc
 50
90.2099568643
 51
125.7900431357
  0
LINE
  5
1DD
330
1F
100
AcDbEntity
  8
0
  6
Continuous
 62
     7
370
    15
100
AcDbLine
 10
-163.1897228441
 20
-438.2670484706
 30
0.0
 11
-128.7400296733
 21
-332.2417949379
 31
0.0
  0
ARC
  5
1DE
330
1F
100
AcDbEntity
  8
0
  6
Continuous
 62
     7
370
    15
100
AcDbCircle
 10
-163.0431456294
 20
-478.2667799087
 30
0.0
 40
150.0
100
AcDbArc
 50
76.7801918472
 51
139.2198081528
  0
ARC
  5
1DF
330
1F
100
AcDbEntity
  8
0
  6
Continuous
 62
     7
370
    15
100
AcDbCircle
 10
-136.8801947255
 20
-452.1038290048
 30
0.0
 40
15.00000000000001
100
AcDbArc
 50
315.3097084245
 51
88.6491236843
  0
SPLINE
  5
1E0
330
1F
100
AcDbEntity
  8
0
  6
Continuous
 62
     7
370
    15
100
AcDbSpline
210
0.0
220
0.0
230
1.0
 70
     8
 71
     3
 72
    14
 73
    10
 74
     0
 42
0.00000001
 43
0.00000001
 12
1.0
 22
0.0
 32
0.0
 13
1.0
 23
0.0
 33
0.0
 40
0.0
 40
0.0
 40
0.0
 40
0.0
 40
0.209321736999604
 40
0.3501358146574855
 40
0.4909499437321904
 40
0.6319455073817754
 40
0.7729410668217881
 40
0.9144844544825088
 40
1.0
 40
1.0
 40
1.0
 40
1.0
 10
-102.1217097890127
 20
-429.1663409725914
 30
0.0
 10
-101.7098472105508
 20
-431.7024859846134
 30
0.0
 10
-101.0209180935667
 20
-435.9447362764478
 30
0.0
 10
-100.229482115908
 20
-441.9194833659482
 30
0.0
 10
-99.63231690868743
 20
-447.0730782080541
 30
0.0
 10
-99.12742171605574
 20
-452.2391848885861
 30
0.0
 10
-98.71685633807562
 20
-457.4226441711127
 30
0.0
 10
-98.42707936512083
 20
-461.9323804470981
 30
0.0
 10
-98.31194518528926
 20
-464.7177474890699
 30
0.0
 10
-98.2685830411173
 20
-465.7667799086564
 30
0.0
  0
SPLINE
  5
1E1
330
1F
100
AcDbEntity
  8
0
  6
Continuous
 62
     7
370
    15
100
AcDbSpline
210
0.0
220
0.0
230
1.0
 70
     8
 71
     3
 72
     8
 73
     4
 74
     0
 42
0.00000001
 43
0.00000001
 12
1.0
 22
0.0
 32
0.0
 13
1.0
 23
0.0
 33
0.0
 40
0.0
 40
0.0
 40
0.0
 40
0.0
 40
1.0
 40
1.0
 40
1.0
 40
1.0
 10
-90.43240131316321
 20
-418.4457899621101
 30
0.0
 10
-94.28818298963637
 20
-421.9545492722858
 30
0.0
 10
-98.18300970532037
 20
-425.5275260439658
 30
0.0
 10
-102.1217097890128
 20
-429.1663409725913
 30
0.0
  0
SPLINE
  5
1E2
330
1F
100
AcDbEntity
  8
0
  6
Continuous
 62
     7
370
    15
100
AcDbSpline
210
0.0
220
0.0
230
1.0
 70
     8
 71
     3
 72
    14
 73
    10
 74
     0
 42
0.00000001
 43
0.00000001
 12
1.0
 22
0.0
 32
0.0
 13
1.0
 23
0.0
 33
0.0
 40
0.0
 40
0.0
 40
0.0
 40
0.0
 40
0.1521425909122496
 40
0.3042852004800859
 40
0.4568209013217008
 40
0.6093566082702633
 40
0.7722355362143409
 40
0.9351144629721599
 40
0.9999999999999999
 40
0.9999999999999999
 40
0.9999999999999999
 40
0.9999999999999999
 10
-90.43240131316327
 20
-418.4457899621101
 30
0.0
 10
-89.94747961997844
 20
-420.8182155113813
 30
0.0
 10
-88.97763617414813
 20
-425.5630669008284
 30
0.0
 10
-87.75028427091017
 20
-432.7306584730621
 30
0.0
 10
-86.69139902578392
 20
-439.9310528366743
 30
0.0
 10
-85.79448601600339
 20
-447.3264308928449
 30
0.0
 10
-85.08742763240753
 20
-454.9073663478956
 30
0.0
 10
-84.6377485541591
 20
-461.1111570703364
 30
0.0
 10
-84.50323738135276
 20
-464.73454827625
 30
0.0
 10
-84.46491784046076
 20
-465.7667799086565
 30
0.0
  0
SPLINE
  5
1E3
330
1F
100
AcDbEntity
  8
0
  6
Continuous
 62
     7
370
    15
100
AcDbSpline
210
0.0
220
0.0
230
1.0
 70
     8
 71
     3
 72
    13
 73
     9
 74
     0
 42
0.00000001
 43
0.00000001
 12
1.0
 22
0.0
 32
0.0
 13
1.0
 23
0.0
 33
0.0
 40
0.0
 40
0.0
 40
0.0
 40
0.0
 40
0.1512380981715979
 40
0.3203768321968218
 40
0.4901727427464824
 40
0.6599686691288188
 40
0.8299843205137958
 40
0.9999999999999999
 40
0.9999999999999999
 40
0.9999999999999999
 40
0.9999999999999999
 10
-226.4917348603414
 20
-447.6195312091995
 30
0.0
 10
-226.6476402517229
 20
-449.1593649112078
 30
0.0
 10
-226.977904094082
 20
-452.4212879948982
 30
0.0
 10
-227.3704151171428
 20
-457.4226870704818
 30
0.0
 10
-227.694642079062
 20
-462.6192601445672
 30
0.0
 10
-227.9231077827188
 20
-467.8300828988217
 30
0.0
 10
-228.0665979080349
 20
-473.0464585124458
 30
0.0
 10
-228.0842963884743
 20
-476.5266726807131
 30
0.0
 10
-228.0931456294253
 20
-478.2667799086545
 30
0.0
  0
SPLINE
  5
1E4
330
1F
100
AcDbEntity
  8
0
  6
Continuous
 62
     7
370
    15
100
AcDbSpline
210
0.0
220
0.0
230
1.0
 70
     8
 71
     3
 72
    13
 73
     9
 74
     0
 42
0.00000001
 43
0.00000001
 12
1.0
 22
0.0
 32
0.0
 13
1.0
 23
0.0
 33
0.0
 40
0.0
 40
0.0
 40
0.0
 40
0.0
 40
0.038127858302272
 40
0.2203850064167357
 40
0.4150007425541067
 40
0.6096164772740776
 40
0.804808237289406
 40
1.0
 40
1.0
 40
1.0
 40
1.0
 10
-239.1431806900984
 20
-438.4277177731248
 30
0.0
 10
-239.217908656609
 20
-438.9300994097973
 30
0.0
 10
-239.6498480340688
 20
-441.833944135194
 30
0.0
 10
-240.2792866369107
 20
-447.3280070991709
 30
0.0
 10
-241.0105586172979
 20
-454.9066086694665
 30
0.0
 10
-241.5281176610352
 20
-462.6764480591199
 30
0.0
 10
-241.8562065080453
 20
-470.4648088150327
 30
0.0
 10
-241.8965993328008
 20
-475.666122865478
 30
0.0
 10
-241.9167957453179
 20
-478.2667799086561
 30
0.0
  0
SPLINE
  5
1E5
330
1F
100
AcDbEntity
  8
0
  6
Continuous
 62
     7
370
    15
100
AcDbSpline
210
0.0
220
0.0
230
1.0
 70
     8
 71
     3
 72
    15
 73
    11
 74
     0
 42
0.00000001
 43
0.00000001
 12
1.0
 22
0.0
 32
0.0
 13
1.0
 23
0.0
 33
0.0
 40
0.0
 40
0.0
 40
0.0
 40
0.0
 40
0.1404962419489661
 40
0.2810863203800987
 40
0.4219597878515474
 40
0.5629282582323577
 40
0.6780599845618243
 40
0.7932436363499101
 40
0.9085842196260757
 40
1.0
 40
1.0
 40
1.0
 40
1.0
 10
-163.0431456292957
 20
-422.3167799086561
 30
0.0
 10
-165.3762534773594
 20
-422.333788597154
 30
0.0
 10
-170.0440274403128
 20
-422.367817334137
 30
0.0
 10
-177.046499280188
 20
-422.6437759673439
 30
0.0
 10
-184.0474265995755
 20
-423.08554988526
 30
0.0
 10
-190.6131244959747
 20
-423.6724598037001
 30
0.0
 10
-196.7389997331453
 20
-424.3623911230378
 30
0.0
 10
-202.4262234793594
 20
-425.1283628692921
 30
0.0
 10
-207.7090223770786
 20
-425.9409712468731
 30
0.0
 10
-211.085717823531
 20
-426.5548309328418
 30
0.0
 10
-212.5786984693163
 20
-426.8262444034708
 30
0.0
  0
LINE
  5
1E6
330
1F
100
AcDbEntity
  8
0
  6
Continuous
 62
     7
370
    15
100
AcDbLine
 10
-163.0431456296
 20
-422.3167799087
 30
0.0
 11
-158.0277620572
 21
-422.380166737
 31
0.0
  0
SPLINE
  5
1E7
330
1F
100
AcDbEntity
  8
0
  6
Continuous
 62
     7
370
    15
100
AcDbSpline
210
0.0
220
0.0
230
1.0
 70
     8
 71
     3
 72
    13
 73
     9
 74
     0
 42
0.00000001
 43
0.00000001
 12
1.0
 22
0.0
 32
0.0
 13
1.0
 23
0.0
 33
0.0
 40
0.0
 40
0.0
 40
0.0
 40
0.0
 40
0.0964315053432381
 40
0.2838214000520556
 40
0.4714666033447843
 40
0.6591975191693885
 40
0.8295667976514873
 40
1.0
 40
1.0
 40
1.0
 40
1.0
 10
-132.2844082965125
 20
-424.0519701135993
 30
0.0
 10
-131.3061635897788
 20
-424.1592532481366
 30
0.0
 10
-128.4269512279018
 20
-424.4750136351383
 30
0.0
 10
-123.6601099140166
 20
-425.1299859045826
 30
0.0
 10
-117.9851970104203
 20
-426.0086584381965
 30
0.0
 10
-112.5028995684143
 20
-426.9856227768909
 30
0.0
 10
-107.2122723847874
 20
-428.0305506672603
 30
0.0
 10
-103.81877615879
 20
-428.7876968651804
 30
0.0
 10
-102.1217097890127
 20
-429.1663409725913
 30
0.0
  0
SPLINE
  5
1E8
330
1F
100
AcDbEntity
  8
0
  6
Continuous
 62
     7
370
    15
100
AcDbSpline
210
0.0
220
0.0
230
1.0
 70
     8
 71
     3
 72
    14
 73
    10
 74
     0
 42
0.00000001
 43
0.00000001
 12
1.0
 22
0.0
 32
0.0
 13
1.0
 23
0.0
 33
0.0
 40
0.0
 40
0.0
 40
0.0
 40
0.0
 40
0.2093217369996064
 40
0.3501358146574893
 40
0.4909499437321961
 40
0.6319455073817826
 40
0.772941066821797
 40
0.9144844544825192
 40
1.0
 40
1.0
 40
1.0
 40
1.0
 10
-102.1217097890127
 20
-527.3672188447208
 30
0.0
 10
-101.7098472105508
 20
-524.8310738326988
 30
0.0
 10
-101.0209180935667
 20
-520.5888235408645
 30
0.0
 10
-100.2294821159081
 20
-514.6140764513639
 30
0.0
 10
-99.63231690868737
 20
-509.4604816092582
 30
0.0
 10
-99.12742171605574
 20
-504.2943749287261
 30
0.0
 10
-98.71685633807566
 20
-499.1109156461995
 30
0.0
 10
-98.4270793651208
 20
-494.6011793702142
 30
0.0
 10
-98.31194518528928
 20
-491.8158123282425
 30
0.0
 10
-98.26858304111732
 20
-490.7667799086562
 30
0.0
  0
LINE
  5
1E9
330
1F
100
AcDbEntity
  8
0
  6
Continuous
 62
     7
370
    15
100
AcDbLine
 10
-163.0431456296
 20
-534.2167799087
 30
0.0
 11
-158.0277620572
 21
-534.1533930803
 31
0.0
  0
SPLINE
  5
1EA
330
1F
100
AcDbEntity
  8
0
  6
Continuous
 62
     7
370
    15
100
AcDbSpline
210
0.0
220
0.0
230
1.0
 70
     8
 71
     3
 72
    13
 73
     9
 74
     0
 42
0.00000001
 43
0.00000001
 12
1.0
 22
0.0
 32
0.0
 13
1.0
 23
0.0
 33
0.0
 40
0.0
 40
0.0
 40
0.0
 40
0.0
 40
0.0964315053432405
 40
0.2838214000520574
 40
0.4714666033447856
 40
0.6591975191693894
 40
0.8295667976514877
 40
1.0
 40
1.0
 40
1.0
 40
1.0
 10
-132.2844082965126
 20
-532.4815897037129
 30
0.0
 10
-131.3061635897789
 20
-532.3743065691756
 30
0.0
 10
-128.4269512279018
 20
-532.0585461821739
 30
0.0
 10
-123.6601099140166
 20
-531.4035739127296
 30
0.0
 10
-117.9851970104203
 20
-530.5249013791157
 30
0.0
 10
-112.5028995684143
 20
-529.5479370404214
 30
0.0
 10
-107.2122723847874
 20
-528.5030091500519
 30
0.0
 10
-103.81877615879
 20
-527.7458629521318
 30
0.0
 10
-102.1217097890127
 20
-527.3672188447208
 30
0.0
  0
SPLINE
  5
1EB
330
1F
100
AcDbEntity
  8
0
  6
Continuous
 62
     7
370
    15
100
AcDbSpline
210
0.0
220
0.0
230
1.0
 70
     8
 71
     3
 72
    15
 73
    11
 74
     0
 42
0.00000001
 43
0.00000001
 12
1.0
 22
0.0
 32
0.0
 13
1.0
 23
0.0
 33
0.0
 40
0.0
 40
0.0
 40
0.0
 40
0.0
 40
0.1404962419489641
 40
0.2810863203800948
 40
0.4219597878515416
 40
0.5629282582323499
 40
0.6780599845618149
 40
0.7932436363498993
 40
0.9085842196260633
 40
1.0
 40
1.0
 40
1.0
 40
1.0
 10
-163.0431456292957
 20
-534.2167799086561
 30
0.0
 10
-165.3762534773594
 20
-534.1997712201583
 30
0.0
 10
-170.0440274403128
 20
-534.1657424831753
 30
0.0
 10
-177.046499280188
 20
-533.8897838499682
 30
0.0
 10
-184.0474265995755
 20
-533.4480099320522
 30
0.0
 10
-190.6131244959747
 20
-532.861100013612
 30
0.0
 10
-196.7389997331453
 20
-532.1711686942743
 30
0.0
 10
-202.4262234793594
 20
-531.4051969480201
 30
0.0
 10
-207.7090223770788
 20
-530.5925885704391
 30
0.0
 10
-211.0857178235315
 20
-529.9787288844703
 30
0.0
 10
-212.578698469317
 20
-529.7073154138413
 30
0.0
  0
SPLINE
  5
1EC
330
1F
100
AcDbEntity
  8
0
  6
Continuous
 62
     7
370
    15
100
AcDbSpline
210
0.0
220
0.0
230
1.0
 70
     8
 71
     3
 72
    13
 73
     9
 74
     0
 42
0.00000001
 43
0.00000001
 12
1.0
 22
0.0
 32
0.0
 13
1.0
 23
0.0
 33
0.0
 40
0.0
 40
0.0
 40
0.0
 40
0.0
 40
0.1512380981715799
 40
0.3203768321968072
 40
0.4901727427464715
 40
0.6599686691288117
 40
0.8299843205137922
 40
1.0
 40
1.0
 40
1.0
 40
1.0
 10
-226.4917348603414
 20
-508.9140286081121
 30
0.0
 10
-226.6476402517229
 20
-507.3741949061039
 30
0.0
 10
-226.9779040940821
 20
-504.1122718224138
 30
0.0
 10
-227.3704151171428
 20
-499.1108727468305
 30
0.0
 10
-227.694642079062
 20
-493.914299672745
 30
0.0
 10
-227.9231077827188
 20
-488.7034769184906
 30
0.0
 10
-228.0665979080349
 20
-483.4871013048664
 30
0.0
 10
-228.0842963884743
 20
-480.0068871365991
 30
0.0
 10
-228.0931456294253
 20
-478.2667799086577
 30
0.0
  0
SPLINE
  5
1ED
330
1F
100
AcDbEntity
  8
0
  6
Continuous
 62
     7
370
    15
100
AcDbSpline
210
0.0
220
0.0
230
1.0
 70
     8
 71
     3
 72
     8
 73
     4
 74
     0
 42
0.00000001
 43
0.00000001
 12
1.0
 22
0.0
 32
0.0
 13
1.0
 23
0.0
 33
0.0
 40
0.0
 40
0.0
 40
0.0
 40
0.0
 40
1.0
 40
1.0
 40
1.0
 40
1.0
 10
-90.43240131316321
 20
-538.087769855202
 30
0.0
 10
-94.28818298963637
 20
-534.5790105450264
 30
0.0
 10
-98.18300970532037
 20
-531.0060337733464
 30
0.0
 10
-102.1217097890128
 20
-527.3672188447209
 30
0.0
  0
SPLINE
  5
1EE
330
1F
100
AcDbEntity
  8
0
  6
Continuous
 62
     7
370
    15
100
AcDbSpline
210
0.0
220
0.0
230
1.0
 70
     8
 71
     3
 72
    14
 73
    10
 74
     0
 42
0.00000001
 43
0.00000001
 12
1.0
 22
0.0
 32
0.0
 13
1.0
 23
0.0
 33
0.0
 40
0.0
 40
0.0
 40
0.0
 40
0.0
 40
0.1521425909122517
 40
0.3042852004800896
 40
0.4568209013217065
 40
0.6093566082702712
 40
0.7722355362143508
 40
0.9351144629721719
 40
1.0
 40
1.0
 40
1.0
 40
1.0
 10
-90.43240131316327
 20
-538.087769855202
 30
0.0
 10
-89.94747961997844
 20
-535.7153443059308
 30
0.0
 10
-88.97763617414813
 20
-530.9704929164837
 30
0.0
 10
-87.75028427091024
 20
-523.80290134425
 30
0.0
 10
-86.69139902578395
 20
-516.6025069806379
 30
0.0
 10
-85.79448601600336
 20
-509.2071289244673
 30
0.0
 10
-85.08742763240758
 20
-501.6261934694166
 30
0.0
 10
-84.63774855415909
 20
-495.422402746976
 30
0.0
 10
-84.50323738135279
 20
-491.7990115410626
 30
0.0
 10
-84.46491784046079
 20
-490.7667799086564
 30
0.0
  0
SPLINE
  5
1EF
330
1F
100
AcDbEntity
  8
0
  6
Continuous
 62
     7
370
    15
100
AcDbSpline
210
0.0
220
0.0
230
1.0
 70
     8
 71
     3
 72
    13
 73
     9
 74
     0
 42
0.00000001
 43
0.00000001
 12
1.0
 22
0.0
 32
0.0
 13
1.0
 23
0.0
 33
0.0
 40
0.0
 40
0.0
 40
0.0
 40
0.0
 40
0.038127858302256
 40
0.2203850064167225
 40
0.4150007425540969
 40
0.6096164772740711
 40
0.8048082372894025
 40
1.0
 40
1.0
 40
1.0
 40
1.0
 10
-239.1431806900985
 20
-518.1058420441867
 30
0.0
 10
-239.2179086566091
 20
-517.6034604075145
 30
0.0
 10
-239.6498480340688
 20
-514.699615682118
 30
0.0
 10
-240.2792866369107
 20
-509.2055527181413
 30
0.0
 10
-241.0105586172979
 20
-501.6269511478457
 30
0.0
 10
-241.5281176610352
 20
-493.8571117581923
 30
0.0
 10
-241.8562065080453
 20
-486.0687510022796
 30
0.0
 10
-241.8965993328008
 20
-480.8674369518341
 30
0.0
 10
-241.9167957453179
 20
-478.2667799086561
 30
0.0
  0
SPLINE
  5
1F0
330
1F
100
AcDbEntity
  8
0
  6
Continuous
 62
     7
370
    15
100
AcDbSpline
210
0.0
220
0.0
230
1.0
 70
     8
 71
     3
 72
    13
 73
     9
 74
     0
 42
0.00000001
 43
0.00000001
 12
1.0
 22
0.0
 32
0.0
 13
1.0
 23
0.0
 33
0.0
 40
0.0
 40
0.0
 40
0.0
 40
0.0
 40
0.1001899329139565
 40
0.2810458318005781
 40
0.4570838192617319
 40
0.6316252022687909
 40
0.8125971576819991
 40
1.0
 40
1.0
 40
1.0
 40
1.0
 10
-127.9042021715269
 20
-410.5710818332969
 30
0.0
 10
-127.1334964617673
 20
-410.6711060718148
 30
0.0
 10
-124.9715664057919
 20
-410.951687109219
 30
0.0
 10
-121.4652633660013
 20
-411.4784916802008
 30
0.0
 10
-117.3969540037427
 20
-412.1421012802105
 30
0.0
 10
-113.3390903551703
 20
-412.8713712161795
 30
0.0
 10
-109.2053163824917
 20
-413.6741396615305
 30
0.0
 10
-106.4123253280899
 20
-414.2754540490444
 30
0.0
 10
-104.9914505413582
 20
-414.5813599525991
 30
0.0
  0
SPLINE
  5
1F1
330
1F
100
AcDbEntity
  8
0
  6
Continuous
 62
     7
370
    15
100
AcDbSpline
210
0.0
220
0.0
230
1.0
 70
     8
 71
     3
 72
     8
 73
     4
 74
     0
 42
0.00000001
 43
0.00000001
 12
1.0
 22
0.0
 32
0.0
 13
1.0
 23
0.0
 33
0.0
 40
0.0
 40
0.0
 40
0.0
 40
0.0
 40
1.0
 40
1.0
 40
1.0
 40
1.0
 10
-90.42694511831382
 20
-418.215078465789
 30
0.0
 10
-95.24881325685993
 20
-416.8686318105891
 30
0.0
 10
-100.103592202377
 20
-415.6574469883385
 30
0.0
 10
-104.9914505413583
 20
-414.5813599525991
 30
0.0
  0
SPLINE
  5
1F2
330
1F
100
AcDbEntity
  8
0
  6
Continuous
 62
     7
370
    15
100
AcDbSpline
210
0.0
220
0.0
230
1.0
 70
     8
 71
     3
 72
     8
 73
     4
 74
     0
 42
0.00000001
 43
0.00000001
 12
1.0
 22
0.0
 32
0.0
 13
1.0
 23
0.0
 33
0.0
 40
0.0000069159360224
 40
0.0000069159360224
 40
0.0000069159360224
 40
0.0000069159360224
 40
0.0005559619023243
 40
0.0005559619023243
 40
0.0005559619023243
 40
0.0005559619023243
 10
-90.42694511831382
 20
-418.2150784657892
 30
0.0
 10
-90.42868330160343
 20
-418.2920020268501
 30
0.0
 10
-90.43050205103047
 20
-418.3689058691123
 30
0.0
 10
-90.4324013131633
 20
-418.4457899621101
 30
0.0
  0
SPLINE
  5
1F3
330
1F
100
AcDbEntity
  8
0
  6
Continuous
 62
     7
370
    15
100
AcDbSpline
210
0.0
220
0.0
230
1.0
 70
     8
 71
     3
 72
     9
 73
     5
 74
     0
 42
0.00000001
 43
0.00000001
 12
1.0
 22
0.0
 32
0.0
 13
1.0
 23
0.0
 33
0.0
 40
0.0
 40
0.0
 40
0.0
 40
0.0
 40
0.6128122465483767
 40
1.0
 40
1.0
 40
1.0
 40
1.0
 10
-163.0431456294252
 20
-408.2667799086561
 30
0.0
 10
-161.093449946577
 20
-408.2749443495928
 30
0.0
 10
-157.9118952471895
 20
-408.2882672571924
 30
0.0
 10
-154.7326320079818
 20
-408.4050433443251
 30
0.0
 10
-153.5016602167616
 20
-408.4502576151589
 30
0.0
  0
LINE
  5
1F4
330
1F
100
AcDbEntity
  8
0
  6
Continuous
 62
     7
370
    15
100
AcDbLine
 10
-227.3960939942
 20
-416.0607764003
 30
0.0
 11
-221.0948407175
 21
-414.5813599526
 31
0.0
  0
SPLINE
  5
1F5
330
1F
100
AcDbEntity
  8
0
  6
Continuous
 62
     7
370
    15
100
AcDbSpline
210
0.0
220
0.0
230
1.0
 70
     8
 71
     3
 72
    21
 73
    17
 74
     0
 42
0.00000001
 43
0.00000001
 12
1.0
 22
0.0
 32
0.0
 13
1.0
 23
0.0
 33
0.0
 40
0.0
 40
0.0
 40
0.0
 40
0.0
 40
0.0556457249796991
 40
0.1112645765036508
 40
0.1668585832000752
 40
0.2224297743765864
 40
0.2779801798354672
 40
0.3335118296883822
 40
0.389026754170627
 40
0.4445269834550208
 40
0.5000145474655423
 40
0.5845985145177375
 40
0.7500167871465798
 40
0.8608312455667244
 40
0.9441594111764294
 40
0.9999999999999999
 40
0.9999999999999999
 40
0.9999999999999999
 40
0.9999999999999999
 10
-221.0948407174922
 20
-414.5813599525991
 30
0.0
 10
-220.565479219973
 20
-414.465780339498
 30
0.0
 10
-219.5070118739135
 20
-414.2346769311258
 30
0.0
 10
-217.9170459612845
 20
-413.9002007532031
 30
0.0
 10
-216.3259377108705
 20
-413.574748638509
 30
0.0
 10
-214.7334947736532
 20
-413.2591822095347
 30
0.0
 10
-213.1397690187225
 20
-412.9532642305712
 30
0.0
 10
-211.5447469919001
 20
-412.6570511302226
 30
0.0
 10
-209.9484324605818
 20
-412.3705228782339
 30
0.0
 10
-208.3508255931017
 20
-412.0936717793806
 30
0.0
 10
-206.4723492010266
 20
-411.7798041338576
 30
0.0
 10
-203.5344223060754
 20
-411.3116457184751
 30
0.0
 10
-200.056989795967
 20
-410.8054746695906
 30
0.0
 10
-196.584477189333
 20
-410.3535117571836
 30
0.0
 10
-194.1671640296383
 20
-410.063395411384
 30
0.0
 10
-192.8199928609516
 20
-409.9142017601724
 30
0.0
 10
-192.2794488889089
 20
-409.8543387444665
 30
0.0
  0
SPLINE
  5
1F6
330
1F
100
AcDbEntity
  8
0
  6
Continuous
 62
     7
370
    15
100
AcDbSpline
210
0.0
220
0.0
230
1.0
 70
     8
 71
     3
 72
    21
 73
    17
 74
     0
 42
0.00000001
 43
0.00000001
 12
1.0
 22
0.0
 32
0.0
 13
1.0
 23
0.0
 33
0.0
 40
0.0
 40
0.0
 40
0.0
 40
0.0
 40
0.0555038854966618
 40
0.1110174399021884
 40
0.1665427224749319
 40
0.2220818012437767
 40
0.2776367527982733
 40
0.3332096620758477
 40
0.3888026221461877
 40
0.4444177339929218
 40
0.5000571062927104
 40
0.5847879288154317
 40
0.7499683130110345
 40
0.8610167668392356
 40
0.9443889828588538
 40
1.0
 40
1.0
 40
1.0
 40
1.0
 10
-192.2794488889089
 20
-409.8543387444665
 30
0.0
 10
-191.7406020939443
 20
-409.7965913380724
 30
0.0
 10
-190.6628146356219
 20
-409.6810864655486
 30
0.0
 10
-189.0446658103791
 20
-409.5201400556895
 30
0.0
 10
-187.4252919958753
 20
-409.3682071698457
 30
0.0
 10
-185.804593052088
 20
-409.2261859872305
 30
0.0
 10
-184.1825931117557
 20
-409.0938537990033
 30
0.0
 10
-182.559283027105
 20
-408.9712877356187
 30
0.0
 10
-180.9346624606223
 20
-408.858486815235
 30
0.0
 10
-179.3087291273593
 20
-408.7554625490023
 30
0.0
 10
-177.3981340558242
 20
-408.6460247651747
 30
0.0
 10
-174.4181735762809
 20
-408.4979608236274
 30
0.0
 10
-170.895549176839
 20
-408.3706098912204
 30
0.0
 10
-167.3847885838522
 20
-408.2969452736035
 30
0.0
 10
-164.9433483358894
 20
-408.2701987032681
 30
0.0
 10
-163.5861843116109
 20
-408.2677569295366
 30
0.0
 10
-163.0431456291663
 20
-408.2667799086561
 30
0.0
  0
SPLINE
  5
1F7
330
1F
100
AcDbEntity
  8
0
  6
Continuous
 62
     7
370
    15
100
AcDbSpline
210
0.0
220
0.0
230
1.0
 70
     8
 71
     3
 72
     8
 73
     4
 74
     0
 42
0.00000001
 43
0.00000001
 12
1.0
 22
0.0
 32
0.0
 13
1.0
 23
0.0
 33
0.0
 40
0.0000069159360224
 40
0.0000069159360224
 40
0.0000069159360224
 40
0.0000069159360224
 40
0.0005559619023243
 40
0.0005559619023243
 40
0.0005559619023243
 40
0.0005559619023243
 10
-90.42694511831382
 20
-538.318481351523
 30
0.0
 10
-90.42868330160343
 20
-538.2415577904621
 30
0.0
 10
-90.43050205103047
 20
-538.1646539482
 30
0.0
 10
-90.4324013131633
 20
-538.087769855202
 30
0.0
  0
SPLINE
  5
1F8
330
1F
100
AcDbEntity
  8
0
  6
Continuous
 62
     7
370
    15
100
AcDbSpline
210
0.0
220
0.0
230
1.0
 70
     8
 71
     3
 72
     8
 73
     4
 74
     0
 42
0.00000001
 43
0.00000001
 12
1.0
 22
0.0
 32
0.0
 13
1.0
 23
0.0
 33
0.0
 40
0.0
 40
0.0
 40
0.0
 40
0.0
 40
1.0
 40
1.0
 40
1.0
 40
1.0
 10
-90.42694511831382
 20
-538.3184813515231
 30
0.0
 10
-95.24881325685993
 20
-539.6649280067231
 30
0.0
 10
-100.103592202377
 20
-540.8761128289738
 30
0.0
 10
-104.9914505413583
 20
-541.9521998647131
 30
0.0
  0
SPLINE
  5
1F9
330
1F
100
AcDbEntity
  8
0
  6
Continuous
 62
     7
370
    15
100
AcDbSpline
210
0.0
220
0.0
230
1.0
 70
     8
 71
     3
 72
    13
 73
     9
 74
     0
 42
0.00000001
 43
0.00000001
 12
1.0
 22
0.0
 32
0.0
 13
1.0
 23
0.0
 33
0.0
 40
0.0
 40
0.0
 40
0.0
 40
0.0
 40
0.1001899329139536
 40
0.2810458318005846
 40
0.4570838192617415
 40
0.6316252022687776
 40
0.8125971576820002
 40
1.0
 40
1.0
 40
1.0
 40
1.0
 10
-127.904202171527
 20
-545.9624779840153
 30
0.0
 10
-127.1334964617674
 20
-545.8624537454974
 30
0.0
 10
-124.9715664057919
 20
-545.5818727080933
 30
0.0
 10
-121.4652633660013
 20
-545.0550681371113
 30
0.0
 10
-117.3969540037428
 20
-544.3914585371017
 30
0.0
 10
-113.3390903551704
 20
-543.6621886011327
 30
0.0
 10
-109.2053163824919
 20
-542.8594201557817
 30
0.0
 10
-106.4123253280899
 20
-542.2581057682678
 30
0.0
 10
-104.9914505413582
 20
-541.952199864713
 30
0.0
  0
SPLINE
  5
1FA
330
1F
100
AcDbEntity
  8
0
  6
Continuous
 62
     7
370
    15
100
AcDbSpline
210
0.0
220
0.0
230
1.0
 70
     8
 71
     3
 72
     9
 73
     5
 74
     0
 42
0.00000001
 43
0.00000001
 12
1.0
 22
0.0
 32
0.0
 13
1.0
 23
0.0
 33
0.0
 40
0.0
 40
0.0
 40
0.0
 40
0.0
 40
0.6128122465484359
 40
1.0
 40
1.0
 40
1.0
 40
1.0
 10
-163.0431456294253
 20
-548.2667799086561
 30
0.0
 10
-161.0934499465771
 20
-548.2586154677193
 30
0.0
 10
-157.91189524719
 20
-548.2452925601198
 30
0.0
 10
-154.7326320079826
 20
-548.1285164729871
 30
0.0
 10
-153.5016602167628
 20
-548.0833022021534
 30
0.0
  0
SPLINE
  5
1FB
330
1F
100
AcDbEntity
  8
0
  6
Continuous
 62
     7
370
    15
100
AcDbSpline
210
0.0
220
0.0
230
1.0
 70
     8
 71
     3
 72
    21
 73
    17
 74
     0
 42
0.00000001
 43
0.00000001
 12
1.0
 22
0.0
 32
0.0
 13
1.0
 23
0.0
 33
0.0
 40
0.0
 40
0.0
 40
0.0
 40
0.0
 40
0.0586556703080709
 40
0.1165366648143981
 40
0.1736429973733404
 40
0.2299746824163266
 40
0.2855317349840354
 40
0.3403141707606763
 40
0.3943220061108824
 40
0.4475552581192076
 40
0.50001394463248
 40
0.6015734218934466
 40
0.7023516203394631
 40
0.8023486839775416
 40
0.9015647602216207
 40
0.9999999999999999
 40
0.9999999999999999
 40
0.9999999999999999
 40
0.9999999999999999
 10
-221.0948407174924
 20
-541.952199864713
 30
0.0
 10
-220.5368328902891
 20
-542.0739779029726
 30
0.0
 10
-219.4281869438519
 20
-542.3159256354235
 30
0.0
 10
-217.7734027275652
 20
-542.6632083257496
 30
0.0
 10
-216.1388058364105
 20
-542.9964227820423
 30
0.0
 10
-214.5243333775942
 20
-543.3150263810368
 30
0.0
 10
-212.9301802535012
 20
-543.6196598176288
 30
0.0
 10
-211.3564661342734
 20
-543.9106476234026
 30
0.0
 10
-209.8033234044806
 20
-544.188392280335
 30
0.0
 10
-208.2708731078685
 20
-544.4532686391623
 30
0.0
 10
-206.2801703808412
 20
-544.7856460974117
 30
0.0
 10
-203.8293728575853
 20
-545.1738435814367
 30
0.0
 10
-200.9164081439803
 20
-545.6027825166746
 30
0.0
 10
-198.0214368623288
 20
-545.996382826468
 30
0.0
 10
-195.1452120288761
 20
-546.3581479934289
 30
0.0
 10
-193.2321840817235
 20
-546.5724789565977
 30
0.0
 10
-192.2794488889089
 20
-546.6792210728456
 30
0.0
  0
LINE
  5
1FC
330
1F
100
AcDbEntity
  8
0
  6
Continuous
 62
     7
370
    15
100
AcDbLine
 10
-227.3960939942
 20
-540.472783417
 30
0.0
 11
-221.0948407175
 21
-541.9521998647
 31
0.0
  0
SPLINE
  5
1FD
330
1F
100
AcDbEntity
  8
0
  6
Continuous
 62
     7
370
    15
100
AcDbSpline
210
0.0
220
0.0
230
1.0
 70
     8
 71
     3
 72
    21
 73
    17
 74
     0
 42
0.00000001
 43
0.00000001
 12
1.0
 22
0.0
 32
0.0
 13
1.0
 23
0.0
 33
0.0
 40
0.0
 40
0.0
 40
0.0
 40
0.0
 40
0.0570468701304606
 40
0.1137223992238807
 40
0.1700266213305467
 40
0.2259595711794802
 40
0.2815212841965111
 40
0.3367117965229796
 40
0.3915311450349248
 40
0.4459793673632149
 40
0.5000565019140283
 40
0.6002649490888756
 40
0.7003632677687223
 40
0.8003517122499512
 40
0.9002305376681706
 40
1.0
 40
1.0
 40
1.0
 40
1.0
 10
-192.2794488889089
 20
-546.6792210728456
 30
0.0
 10
-191.7256186467108
 20
-546.738545462965
 30
0.0
 10
-190.6215632662581
 20
-546.8568080768728
 30
0.0
 10
-188.9695200213594
 20
-547.0207010108712
 30
0.0
 10
-187.3273925191103
 20
-547.1741869079287
 30
0.0
 10
-185.6951582091519
 20
-547.3165347810146
 30
0.0
 10
-184.0729215354965
 20
-547.44818133392
 30
0.0
 10
-182.4607500796012
 20
-547.5692524045526
 30
0.0
 10
-180.8587183340983
 20
-547.6799558124734
 30
0.0
 10
-179.2668951858095
 20
-547.780474848035
 30
0.0
 10
-177.2320135811713
 20
-547.8969545497547
 30
0.0
 10
-174.7509364428118
 20
-548.0181134496787
 30
0.0
 10
-171.8206684633602
 20
-548.1294733318276
 30
0.0
 10
-168.8925593327744
 20
-548.208322191145
 30
0.0
 10
-165.9669586280714
 20
-548.2576424146598
 30
0.0
 10
-164.0173939856232
 20
-548.2637351898215
 30
0.0
 10
-163.0431456294253
 20
-548.2667799086561
 30
0.0
  0
SPLINE
  5
1FE
330
1F
100
AcDbEntity
  8
0
  6
Continuous
 62
     7
370
    15
100
AcDbSpline
210
0.0
220
0.0
230
1.0
 70
     8
 71
     3
 72
     8
 73
     4
 74
     0
 42
0.00000001
 43
0.00000001
 12
1.0
 22
0.0
 32
0.0
 13
1.0
 23
0.0
 33
0.0
 40
0.0
 40
0.0
 40
0.0
 40
0.0
 40
1.0
 40
1.0
 40
1.0
 40
1.0
 10
-247.8728096715433
 20
-487.7766285989749
 30
0.0
 10
-247.9787428372801
 20
-484.6036927310688
 30
0.0
 10
-248.0315156534758
 20
-481.4328639494324
 30
0.0
 10
-248.0315156534758
 20
-478.2667799086561
 30
0.0
  0
LINE
  5
1FF
330
1F
100
AcDbEntity
  8
0
  6
Continuous
 62
     7
370
    15
100
AcDbLine
 10
-90.9213334206
 20
-538.4560268112
 30
0.0
 11
-90.4893231897
 21
-538.334968863
 31
0.0
  0
SPLINE
  5
200
330
1F
100
AcDbEntity
  8
0
  6
Continuous
 62
     7
370
    15
100
AcDbSpline
210
0.0
220
0.0
230
1.0
 70
     8
 71
     3
 72
    18
 73
    14
 74
     0
 42
0.00000001
 43
0.00000001
 12
1.0
 22
0.0
 32
0.0
 13
1.0
 23
0.0
 33
0.0
 40
0.0
 40
0.0
 40
0.0
 40
0.0
 40
0.0769310914228502
 40
0.1661439662587231
 40
0.2553568470174863
 40
0.3446986682018621
 40
0.4340405022506227
 40
0.5234249137321326
 40
0.6128093399074397
 40
0.7095743180016294
 40
0.8063524595862066
 40
0.9031697735022304
 40
1.0
 40
1.0
 40
1.0
 40
1.0
 10
-83.99413734958644
 20
-536.4358265190272
 30
0.0
 10
-83.99863732830431
 20
-536.437202486235
 30
0.0
 10
-84.00835569182212
 20
-536.4401740890697
 30
0.0
 10
-84.1489299624525
 20
-536.483203863284
 30
0.0
 10
-84.38952127777459
 20
-536.5566075882608
 30
0.0
 10
-84.73628522305512
 20
-536.6620168981209
 30
0.0
 10
-85.1856828709157
 20
-536.7978285650281
 30
0.0
 10
-85.73823064330142
 20
-536.9636836850897
 30
0.0
 10
-86.41164980730647
 20
-537.1640640954588
 30
0.0
 10
-87.21502626926338
 20
-537.4007074213825
 30
0.0
 10
-88.16139753394451
 20
-537.6758016983702
 30
0.0
 10
-89.21874480738052
 20
-537.979263049483
 30
0.0
 10
-90.0241937786632
 20
-538.205403557763
 30
0.0
 10
-90.42694511831382
 20
-538.3184813515231
 30
0.0
  0
SPLINE
  5
201
330
1F
100
AcDbEntity
  8
0
  6
Continuous
 62
     7
370
    15
100
AcDbSpline
210
0.0
220
0.0
230
1.0
 70
     8
 71
     3
 72
     8
 73
     4
 74
     0
 42
0.00000001
 43
0.00000001
 12
1.0
 22
0.0
 32
0.0
 13
1.0
 23
0.0
 33
0.0
 40
0.0
 40
0.0
 40
0.0
 40
0.0
 40
1.0
 40
1.0
 40
1.0
 40
1.0
 10
-247.8728096715433
 20
-468.7569312183373
 30
0.0
 10
-247.9787428372801
 20
-471.9298670862434
 30
0.0
 10
-248.0315156534758
 20
-475.1006958678798
 30
0.0
 10
-248.0315156534758
 20
-478.2667799086561
 30
0.0
  0
LINE
  5
202
330
1F
100
AcDbEntity
  8
0
  6
Continuous
 62
     7
370
    15
100
AcDbLine
 10
-90.9213334206
 20
-418.0775330061
 30
0.0
 11
-90.4893231896
 21
-418.1985909544
 31
0.0
  0
SPLINE
  5
203
330
1F
100
AcDbEntity
  8
0
  6
Continuous
 62
     7
370
    15
100
AcDbSpline
210
0.0
220
0.0
230
1.0
 70
     8
 71
     3
 72
    18
 73
    14
 74
     0
 42
0.00000001
 43
0.00000001
 12
1.0
 22
0.0
 32
0.0
 13
1.0
 23
0.0
 33
0.0
 40
0.0
 40
0.0
 40
0.0
 40
0.0
 40
0.0769310914228595
 40
0.1661439662587315
 40
0.2553568470174938
 40
0.3446986682018686
 40
0.4340405022506283
 40
0.5234249137321374
 40
0.6128093399074436
 40
0.7095743180016323
 40
0.8063524595862085
 40
0.9031697735022212
 40
1.0
 40
1.0
 40
1.0
 40
1.0
 10
-83.99413734958644
 20
-420.0977332982851
 30
0.0
 10
-83.9986373283043
 20
-420.0963573310772
 30
0.0
 10
-84.0083556918221
 20
-420.0933857282424
 30
0.0
 10
-84.14892996245258
 20
-420.0503559540285
 30
0.0
 10
-84.38952127777479
 20
-419.976952229052
 30
0.0
 10
-84.73628522305515
 20
-419.8715429191916
 30
0.0
 10
-85.1856828709157
 20
-419.735731252284
 30
0.0
 10
-85.7382306433014
 20
-419.5698761322226
 30
0.0
 10
-86.4116498073065
 20
-419.3694957218534
 30
0.0
 10
-87.21502626926336
 20
-419.1328523959296
 30
0.0
 10
-88.16139753394447
 20
-418.8577581189422
 30
0.0
 10
-89.2187448073806
 20
-418.5542967678292
 30
0.0
 10
-90.02419377866323
 20
-418.3281562595492
 30
0.0
 10
-90.42694511831384
 20
-418.215078465789
 30
0.0
  0
SPLINE
  5
204
330
1F
100
AcDbEntity
  8
0
  6
Continuous
 62
     7
370
    15
100
AcDbSpline
210
0.0
220
0.0
230
1.0
 70
     8
 71
     3
 72
    24
 73
    20
 74
     0
 42
0.00000001
 43
0.00000001
 12
1.0
 22
0.0
 32
0.0
 13
1.0
 23
0.0
 33
0.0
 40
0.0
 40
0.0
 40
0.0
 40
0.0
 40
0.0379586163769923
 40
0.1010497310966471
 40
0.1620794641916954
 40
0.2235309782585791
 40
0.2863105590162855
 40
0.3495481466509151
 40
0.4107718115940156
 40
0.472419140852317
 40
0.535402237369363
 40
0.5988468811512428
 40
0.660172326321545
 40
0.7219245732126927
 40
0.785025824217625
 40
0.8485946420293388
 40
0.9097630118073635
 40
0.9713597705526886
 40
0.9999999999999999
 40
0.9999999999999999
 40
0.9999999999999999
 40
0.9999999999999999
 10
-78.27123367394526
 20
-465.7667799086568
 30
0.0
 10
-78.28480279488302
 20
-465.4604444401503
 30
0.0
 10
-78.32092518692082
 20
-464.6449479950081
 30
0.0
 10
-78.38849845832895
 20
-463.3157032145042
 30
0.0
 10
-78.47243145182883
 20
-461.7921696641106
 30
0.0
 10
-78.56387512913913
 20
-460.2753686345062
 30
0.0
 10
-78.66302310277631
 20
-458.7567435530648
 30
0.0
 10
-78.76792313752746
 20
-457.2670373205599
 30
0.0
 10
-78.87680852514944
 20
-455.8236728033469
 30
0.0
 10
-78.98892506200582
 20
-454.4288452085945
 30
0.0
 10
-79.10450632523857
 20
-453.075002258992
 30
0.0
 10
-79.2205581384123
 20
-451.791635770362
 30
0.0
 10
-79.3349587250571
 20
-450.5928074266241
 30
0.0
 10
-79.4467925855633
 20
-449.4791793388886
 30
0.0
 10
-79.55594400780089
 20
-448.4459755347705
 30
0.0
 10
-79.65929688377331
 20
-447.5161551414532
 30
0.0
 10
-79.75425034458628
 20
-446.7071326153649
 30
0.0
 10
-79.82647589287677
 20
-446.1190083550612
 30
0.0
 10
-79.86330484273968
 20
-445.8433184812772
 30
0.0
 10
-79.87499394712475
 20
-445.7558175418108
 30
0.0
  0
SPLINE
  5
205
330
1F
100
AcDbEntity
  8
0
  6
Continuous
 62
     7
370
    15
100
AcDbSpline
210
0.0
220
0.0
230
1.0
 70
     8
 71
     3
 72
    10
 73
     6
 74
     0
 42
0.00000001
 43
0.00000001
 12
1.0
 22
0.0
 32
0.0
 13
1.0
 23
0.0
 33
0.0
 40
0.0
 40
0.0
 40
0.0
 40
0.0
 40
0.5
 40
0.5
 40
1.0
 40
1.0
 40
1.0
 40
1.0
 10
-173.531212618645
 20
-550.064499639407
 30
0.0
 10
-173.4569711626109
 20
-550.0673644513894
 30
0.0
 10
-173.384299396839
 20
-550.0701358093013
 30
0.0
 10
-173.2620741669404
 20
-550.0747585252509
 30
0.0
 10
-173.2131874764115
 20
-550.0765866820736
 30
0.0
 10
-173.184757793953
 20
-550.0776474299977
 30
0.0
  0
ARC
  5
206
330
1F
100
AcDbEntity
  8
0
  6
Continuous
 62
     7
370
    15
100
AcDbCircle
 10
-163.0431456294
 20
-278.2667799087
 30
0.0
 40
272.0000000000114
100
AcDbArc
 50
262.3705102806
 51
267.7901802129
  0
LINE
  5
207
330
1F
100
AcDbEntity
  8
0
  6
Continuous
 62
     7
370
    15
100
AcDbLine
 10
-124.5306456294
 20
-545.5059749077
 30
0.0
 11
-124.5306456294
 21
-547.5264823221
 31
0.0
  0
SPLINE
  5
208
330
1F
100
AcDbEntity
  8
0
  6
Continuous
 62
     7
370
    15
100
AcDbSpline
210
0.0
220
0.0
230
1.0
 70
     8
 71
     3
 72
    10
 73
     6
 74
     0
 42
0.00000001
 43
0.00000001
 12
1.0
 22
0.0
 32
0.0
 13
1.0
 23
0.0
 33
0.0
 40
0.0
 40
0.0
 40
0.0
 40
0.0
 40
0.5
 40
0.5
 40
1.0
 40
1.0
 40
1.0
 40
1.0
 10
-124.9056456294253
 20
-547.5798525467219
 30
0.0
 10
-124.8070941403598
 20
-547.5658966426233
 30
0.0
 10
-124.7106191865654
 20
-547.5521718781333
 30
0.0
 10
-124.571856875606
 20
-547.5323827124078
 30
0.0
 10
-124.5306456294243
 20
-547.5264823220509
 30
0.0
 10
-124.5306456294242
 20
-547.5264823220509
 30
0.0
  0
LINE
  5
209
330
1F
100
AcDbEntity
  8
0
  6
Continuous
 62
     7
370
    15
100
AcDbLine
 10
-127.2731946357
 20
-547.9045194888
 30
0.0
 11
-124.9056456294
 21
-547.5798525467
 31
0.0
  0
LINE
  5
20A
330
1F
100
AcDbEntity
  8
0
  6
Continuous
 62
     7
370
    15
100
AcDbLine
 10
-152.9015334649
 20
-550.07764743
 30
0.0
 11
-152.8542334942
 21
-550.0758767678
 31
0.0
  0
SPLINE
  5
20B
330
1F
100
AcDbEntity
  8
0
  6
Continuous
 62
     7
370
    15
100
AcDbSpline
210
0.0
220
0.0
230
1.0
 70
     8
 71
     3
 72
    10
 73
     6
 74
     0
 42
0.00000001
 43
0.00000001
 12
1.0
 22
0.0
 32
0.0
 13
1.0
 23
0.0
 33
0.0
 40
0.0
 40
0.0
 40
0.0
 40
0.0
 40
0.5
 40
0.5
 40
1.0
 40
1.0
 40
1.0
 40
1.0
 10
-199.5306456294253
 20
-547.8083580441196
 30
0.0
 10
-199.5306456294253
 20
-547.8083580441196
 30
0.0
 10
-199.4895721202233
 20
-547.8139239862372
 30
0.0
 10
-199.3510518413289
 20
-547.8326175640182
 30
0.0
 10
-199.2542328474999
 20
-547.8456497340243
 30
0.0
 10
-199.1556456294223
 20
-547.8588557264557
 30
0.0
  0
LINE
  5
20C
330
1F
100
AcDbEntity
  8
0
  6
Continuous
 62
     7
370
    15
100
AcDbLine
 10
-199.5306456294
 20
-545.7899795452
 30
0.0
 11
-199.5306456294
 21
-547.8083580441
 31
0.0
  0
ARC
  5
20D
330
1F
100
AcDbEntity
  8
0
  6
Continuous
 62
     7
370
    15
100
AcDbCircle
 10
-163.0431456294
 20
-278.2667799087
 30
0.0
 40
272.0000000000113
100
AcDbArc
 50
267.8632121591
 51
269.9270205713
  0
ARC
  5
20E
330
1F
100
AcDbEntity
  8
0
  6
Continuous
 62
     7
370
    15
100
AcDbCircle
 10
-163.0431456294
 20
-278.2667799087
 30
0.0
 40
272.0000000000359
100
AcDbArc
 50
270.0729794287
 51
272.1367878409
  0
ARC
  5
20F
330
1F
100
AcDbEntity
  8
0
  6
Continuous
 62
     7
370
    15
100
AcDbCircle
 10
-163.0431456294
 20
-278.2667799087
 30
0.0
 40
272.0
100
AcDbArc
 50
261.8659358348
 51
262.2930217886
  0
SPLINE
  5
210
330
1F
100
AcDbEntity
  8
0
  6
Continuous
 62
     7
370
    15
100
AcDbSpline
210
0.0
220
0.0
230
1.0
 70
     8
 71
     3
 72
    14
 73
    10
 74
     0
 42
0.00000001
 43
0.00000001
 12
1.0
 22
0.0
 32
0.0
 13
1.0
 23
0.0
 33
0.0
 40
0.0
 40
0.0
 40
0.0
 40
0.0
 40
0.25
 40
0.25
 40
0.5
 40
0.5
 40
0.75
 40
0.75
 40
1.0
 40
1.0
 40
1.0
 40
1.0
 10
-163.389600454117
 20
-550.2665592634575
 30
0.0
 10
-163.3611539453099
 20
-550.2665954966863
 30
0.0
 10
-163.3127105285089
 20
-550.2666532009714
 30
0.0
 10
-163.1904604857256
 20
-550.2667468840282
 30
0.0
 10
-163.1164392362553
 20
-550.2667799048619
 30
0.0
 10
-162.9698801863867
 20
-550.2667799124496
 30
0.0
 10
-162.8958930102694
 20
-550.2667469250554
 30
0.0
 10
-162.7735777787378
 20
-550.2666532053729
 30
0.0
 10
-162.7251373135341
 20
-550.2665954966748
 30
0.0
 10
-162.6966908047335
 20
-550.2665592634462
 30
0.0
  0
SPLINE
  5
211
330
1F
100
AcDbEntity
  8
0
  6
Continuous
 62
     7
370
    15
100
AcDbSpline
210
0.0
220
0.0
230
1.0
 70
     8
 71
     3
 72
     9
 73
     5
 74
     0
 42
0.00000001
 43
0.00000001
 12
1.0
 22
0.0
 32
0.0
 13
1.0
 23
0.0
 33
0.0
 40
0.0
 40
0.0
 40
0.0
 40
0.0
 40
0.3148749938998729
 40
0.9999999999999999
 40
0.9999999999999999
 40
0.9999999999999999
 40
0.9999999999999999
 10
-201.5520185783008
 20
-547.5270010648373
 30
0.0
 10
-201.5534175530836
 20
-547.5268010147123
 30
0.0
 10
-201.5578605060328
 20
-547.5261656828221
 30
0.0
 10
-201.5403619745833
 20
-547.5286675867909
 30
0.0
 10
-201.5283732931172
 20
-547.5303817037628
 30
0.0
  0
LINE
  5
212
330
1F
100
AcDbEntity
  8
0
  6
Continuous
 62
     7
370
    15
100
AcDbLine
 10
-105.0431456294
 20
-401.7667799087
 30
0.0
 11
-125.0435110646
 21
-401.7667799087
 31
0.0
  0
LINE
  5
213
330
1F
100
AcDbEntity
  8
0
  6
Continuous
 62
     7
370
    15
100
AcDbLine
 10
-151.3300666706
 20
-401.7667799087
 30
0.0
 11
-221.0431456294
 21
-401.7667799087
 31
0.0
  0
LINE
  5
214
330
1F
100
AcDbEntity
  8
0
  6
Continuous
 62
     7
370
    15
100
AcDbLine
 10
-221.0431456294
 20
-414.5699843271
 30
0.0
 11
-221.0431456294
 21
-401.7667799087
 31
0.0
  0
LINE
  5
215
330
1F
100
AcDbEntity
  8
0
  6
Continuous
 62
     7
370
    15
100
AcDbLine
 10
-105.0431456294
 20
-414.5699843271
 30
0.0
 11
-105.0431456294
 21
-401.7667799087
 31
0.0
  0
LINE
  5
216
330
1F
100
AcDbEntity
  8
0
  6
Continuous
 62
     7
370
    15
100
AcDbLine
 10
-105.0431456294
 20
-541.9635754902
 30
0.0
 11
-105.0431456294
 21
-554.7667799087
 31
0.0
  0
LINE
  5
217
330
1F
100
AcDbEntity
  8
0
  6
Continuous
 62
     7
370
    15
100
AcDbLine
 10
-105.0431456294
 20
-554.7667799087
 30
0.0
 11
-125.0435110646
 21
-554.7667799087
 31
0.0
  0
LINE
  5
218
330
1F
100
AcDbEntity
  8
0
  6
Continuous
 62
     7
370
    15
100
AcDbLine
 10
-151.3300666706
 20
-554.7667799087
 30
0.0
 11
-221.0431456294
 21
-554.7667799087
 31
0.0
  0
LINE
  5
219
330
1F
100
AcDbEntity
  8
0
  6
Continuous
 62
     7
370
    15
100
AcDbLine
 10
-221.0431456294
 20
-541.9635754902
 30
0.0
 11
-221.0431456294
 21
-554.7667799087
 31
0.0
  0
LINE
  5
21A
330
1F
100
AcDbEntity
  8
0
  6
Continuous
 62
     7
370
    15
100
AcDbLine
 10
-267.3431456294
 20
-478.2667799087
 30
0.0
 11
-267.1073106227
 21
-487.2729554656
 31
0.0
  0
LINE
  5
21B
330
1F
100
AcDbEntity
  8
0
  6
Continuous
 62
     7
370
    15
100
AcDbLine
 10
-267.3431456294
 20
-478.2667799087
 30
0.0
 11
-267.1073106227
 21
-469.2606043517
 31
0.0
  0
LINE
  5
21C
330
1F
100
AcDbEntity
  8
0
  6
Continuous
 62
     7
370
    15
100
AcDbLine
 10
-247.8728096715
 20
-468.7569312183
 30
0.0
 11
-267.1073106227
 21
-469.2606043517
 31
0.0
  0
LINE
  5
21D
330
1F
100
AcDbEntity
  8
0
  6
Continuous
 62
     7
370
    15
100
AcDbLine
 10
-247.8728096715
 20
-487.776628599
 30
0.0
 11
-267.1073106227
 21
-487.2729554656
 31
0.0
  0
LINE
  5
21E
330
1F
100
AcDbEntity
  8
0
  6
Continuous
 62
     7
370
    15
100
AcDbLine
 10
-74.3266235242
 20
-451.7411958621
 30
0.0
 11
-74.0431456294
 21
-451.8486682121
 31
0.0
  0
SPLINE
  5
21F
330
1F
100
AcDbEntity
  8
0
  6
Continuous
 62
     7
370
    15
100
AcDbSpline
210
0.0
220
0.0
230
1.0
 70
     8
 71
     3
 72
    29
 73
    25
 74
     0
 42
0.00000001
 43
0.00000001
 12
1.0
 22
0.0
 32
0.0
 13
1.0
 23
0.0
 33
0.0
 40
0.0
 40
0.0
 40
0.0
 40
0.0
 40
0.0012337363568415
 40
0.0502621238319655
 40
0.0975893090925929
 40
0.1452449627741795
 40
0.1939366060227717
 40
0.2429862546034572
 40
0.2903210869055592
 40
0.3379847190366987
 40
0.3866856045879955
 40
0.4357450106445688
 40
0.483063235191911
 40
0.5307101886387949
 40
0.5793940777313807
 40
0.6284363263134575
 40
0.6757379918799885
 40
0.723368145271671
 40
0.7720343456202077
 40
0.8210585465216106
 40
0.8683556620329702
 40
0.9159811504050613
 40
0.9646422630885381
 40
0.9999999999999999
 40
0.9999999999999999
 40
0.9999999999999999
 40
0.9999999999999999
 10
-74.29159192853712
 20
-465.7667799086568
 30
0.0
 10
-74.29152647144385
 20
-465.7543207586976
 30
0.0
 10
-74.28885976513386
 20
-465.2467379719702
 30
0.0
 10
-74.28621072933377
 20
-464.2381544355602
 30
0.0
 10
-74.28408287776519
 20
-462.7497841584054
 30
0.0
 10
-74.28528106996434
 20
-461.2605244376742
 30
0.0
 10
-74.28944500737883
 20
-459.7634821907496
 30
0.0
 10
-74.29651200811637
 20
-458.2897556755779
 30
0.0
 10
-74.30606803149702
 20
-456.8570126070269
 30
0.0
 10
-74.31778237898236
 20
-455.4674647450458
 30
0.0
 10
-74.33152263486285
 20
-454.1119423080519
 30
0.0
 10
-74.34678414390423
 20
-452.8208219917165
 30
0.0
 10
-74.36313197739679
 20
-451.608314896419
 30
0.0
 10
-74.38034143343313
 20
-450.4752781412583
 30
0.0
 10
-74.39843775402557
 20
-449.4150552029121
 30
0.0
 10
-74.41695737944994
 20
-448.4525333586199
 30
0.0
 10
-74.43560926309227
 20
-447.5971178927475
 30
0.0
 10
-74.45432105683064
 20
-446.848178026025
 30
0.0
 10
-74.47323052751936
 20
-446.2024897151898
 30
0.0
 10
-74.49194266832612
 20
-445.6769987625555
 30
0.0
 10
-74.51026754315656
 20
-445.2737822305638
 30
0.0
 10
-74.52818368005643
 20
-444.9963946801164
 30
0.0
 10
-74.54428279695288
 20
-444.840514613295
 30
0.0
 10
-74.55416146485851
 20
-444.8365229974
 30
0.0
 10
-74.55831871460101
 20
-444.8348432016714
 30
0.0
  0
LINE
  5
220
330
1F
100
AcDbEntity
  8
0
  6
Continuous
 62
     7
370
    15
100
AcDbLine
 10
-74.0431456294
 20
-451.8486682121
 30
0.0
 11
-74.0431456294
 21
-465.7667799087
 31
0.0
  0
CIRCLE
  5
221
330
1F
100
AcDbEntity
  8
0
  6
Continuous
 62
     7
370
    15
100
AcDbCircle
 10
-163.0431456294
 20
-611.7667799087
 30
0.0
 40
9.5
  0
ARC
  5
222
330
1F
100
AcDbEntity
  8
0
  6
Continuous
 62
     7
370
    15
100
AcDbCircle
 10
-296.5431456294
 20
-478.2667799087
 30
0.0
 40
9.499999999999986
100
AcDbArc
 50
24.9010623704
 51
165.2633562775
  0
ARC
  5
223
330
1F
100
AcDbEntity
  8
0
  6
Continuous
 62
     7
370
    15
100
AcDbCircle
 10
-296.5431456294
 20
-478.2667799087
 30
0.0
 40
9.500000000000028
100
AcDbArc
 50
194.7366437225
 51
335.0989376296
  0
CIRCLE
  5
224
330
1F
100
AcDbEntity
  8
0
  6
Continuous
 62
     7
370
    15
100
AcDbCircle
 10
-163.0431456294
 20
-344.7667799087
 30
0.0
 40
9.499999999999972
  0
CIRCLE
  5
225
330
1F
100
AcDbEntity
  8
0
  6
Continuous
 62
     8
370
     0
100
AcDbCircle
 10
-163.0431456294
 20
-478.2667799087
 30
0.0
 40
169.0
  0
LINE
  5
226
330
1F
100
AcDbEntity
  8
0
  6
Continuous
 62
     8
370
     0
100
AcDbLine
 10
-228.0931456294
 20
-478.2667799087
 30
0.0
 11
-241.9167957453
 21
-478.2667799087
 31
0.0
  0
LINE
  5
227
330
1F
100
AcDbEntity
  8
0
  6
Continuous
 62
     8
370
     0
100
AcDbLine
 10
-163.0431456294
 20
-408.2667799087
 30
0.0
 11
-163.0431456294
 21
-422.3167799087
 31
0.0
  0
LINE
  5
228
330
1F
100
AcDbEntity
  8
0
  6
Continuous
 62
     8
370
     0
100
AcDbLine
 10
-163.0431456294
 20
-548.2667799087
 30
0.0
 11
-163.0431456294
 21
-534.2167799087
 31
0.0
  0
SPLINE
  5
229
330
1F
100
AcDbEntity
  8
0
  6
Continuous
 62
     8
370
     0
100
AcDbSpline
210
0.0
220
0.0
230
1.0
 70
    24
 71
     3
 72
     8
 73
     4
 74
     0
 42
0.00000001
 43
0.00000001
 12
1.0
 22
0.0
 32
0.0
 13
1.0
 23
0.0
 33
0.0
 40
0.0
 40
0.0
 40
0.0
 40
0.0
 40
1.0
 40
1.0
 40
1.0
 40
1.0
 10
-241.9167957453179
 20
-478.2667799086561
 30
0.0
 10
-245.5994851126534
 20
-478.2667799086561
 30
0.0
 10
-247.6496248489495
 20
-478.2667799086561
 30
0.0
 10
-248.0315156534758
 20
-478.2667799086561
 30
0.0
  0
LINE
  5
22A
330
1F
100
AcDbEntity
  8
0
  6
Continuous
 62
     8
370
     0
100
AcDbLine
 10
-173.184757794
 20
-548.0762454629
 30
0.0
 11
-173.184757794
 21
-550.0776474299
 31
0.0
  0
LINE
  5
22B
330
1F
100
AcDbEntity
  8
0
  6
Continuous
 62
     8
370
     0
100
AcDbLine
 10
-173.5312126186
 20
-548.0630001395
 30
0.0
 11
-173.5312126186
 21
-550.0644996394
 31
0.0
  0
LINE
  5
22C
330
1F
100
AcDbEntity
  8
0
  6
Continuous
 62
     8
370
     0
100
AcDbLine
 10
-199.1556456294
 20
-545.8408581445
 30
0.0
 11
-199.1556456294
 21
-547.8588557265
 31
0.0
  0
LINE
  5
22D
330
1F
100
AcDbEntity
  8
0
  6
Continuous
 62
     8
370
     0
100
AcDbLine
 10
-124.9056456294
 20
-545.5597485662
 30
0.0
 11
-124.9056456294
 21
-547.5798525467
 31
0.0
  0
LINE
  5
22E
330
1F
100
AcDbEntity
  8
0
  6
Continuous
 62
     8
370
     0
100
AcDbLine
 10
-152.9015334649
 20
-549.9303024266
 30
0.0
 11
-152.9015334649
 21
-550.07764743
 31
0.0
  0
LINE
  5
22F
330
1F
100
AcDbEntity
  8
0
  6
Continuous
 62
     8
370
     0
100
AcDbLine
 10
-163.3896004541
 20
-548.266557629
 30
0.0
 11
-163.3896004541
 21
-550.2665592635
 31
0.0
  0
LINE
  5
230
330
1F
100
AcDbEntity
  8
0
  6
Continuous
 62
     8
370
     0
100
AcDbLine
 10
-162.6966908047
 20
-548.2665576291
 30
0.0
 11
-162.6966908047
 21
-550.2665592635
 31
0.0
  0
LINE
  5
231
330
1F
100
AcDbEntity
  8
0
  6
Continuous
 62
     8
370
     0
100
AcDbLine
 10
-201.5283732931
 20
-545.5099037708
 30
0.0
 11
-201.5283732931
 21
-547.5303817037
 31
0.0
  0
LINE
  5
232
330
1F
100
AcDbEntity
  8
0
  6
Continuous
 62
     8
370
     0
100
AcDbLine
 10
-289.0431456294
 20
-474.2667799087
 30
0.0
 11
-289.0431456294
 21
-482.2667799087
 31
0.0
  0
INSERT
  5
23E
330
1F
100
AcDbEntity
  8
FORMAT
 62
     7
100
AcDbBlockReference
  2
SW_CENTERMARKSYMBOL_0
 10
-163.0431456294
 20
-478.2667799087
 30
0.0
  0
ENDSEC
  0
SECTION
  2
OBJECTS
  0
DICTIONARY
  5
C
330
0
100
AcDbDictionary
281
     1
  3
ACAD_GROUP
350
D
  3
ACAD_LAYOUT
350
1A
  3
ACAD_MLINESTYLE
350
17
  3
ACAD_PLOTSETTINGS
350
19
  3
ACAD_PLOTSTYLENAME
350
E
  0
DICTIONARY
  5
D
102
{ACAD_REACTORS
330
C
102
}
330
C
100
AcDbDictionary
281
     1
  0
DICTIONARY
  5
1A
102
{ACAD_REACTORS
330
C
102
}
330
C
100
AcDbDictionary
281
     1
  3
Layout1
350
1E
  3
Layout2
350
26
  3
Model
350
22
  0
DICTIONARY
  5
17
102
{ACAD_REACTORS
330
C
102
}
330
C
100
AcDbDictionary
281
     1
  3
Standard
350
18
  0
DICTIONARY
  5
19
102
{ACAD_REACTORS
330
C
102
}
330
C
100
AcDbDictionary
281
     1
  0
ACDBDICTIONARYWDFLT
  5
E
102
{ACAD_REACTORS
330
C
102
}
330
C
100
AcDbDictionary
281
     1
  3
Normal
350
F
100
AcDbDictionaryWithDefault
340
F
  0
LAYOUT
  5
1E
102
{ACAD_REACTORS
330
1A
102
}
330
1A
100
AcDbPlotSettings
  1

  2
none_device
  4

  6

 40
0.0
 41
0.0
 42
0.0
 43
0.0
 44
0.0
 45
0.0
 46
0.0
 47
0.0
 48
0.0
 49
0.0
140
0.0
141
0.0
142
1.0
143
1.0
 70
   688
 72
     0
 73
     0
 74
     5
  7

 75
    16
147
1.0
148
0.0
149
0.0
100
AcDbLayout
  1
Layout1
 70
     1
 71
     1
 10
0.0
 20
0.0
 11
420.0
 21
297.0
 12
0.0
 22
0.0
 32
0.0
 14
1.0000000000E+20
 24
1.0000000000E+20
 34
1.0000000000E+20
 15
-1.0000000000E+20
 25
-1.0000000000E+20
 35
-1.0000000000E+20
146
0.0
 13
0.0
 23
0.0
 33
0.0
 16
1.0
 26
0.0
 36
0.0
 17
0.0
 27
1.0
 37
0.0
 76
     0
330
1B
  0
LAYOUT
  5
26
102
{ACAD_REACTORS
330
1A
102
}
330
1A
100
AcDbPlotSettings
  1

  2
none_device
  4

  6

 40
0.0
 41
0.0
 42
0.0
 43
0.0
 44
0.0
 45
0.0
 46
0.0
 47
0.0
 48
0.0
 49
0.0
140
0.0
141
0.0
142
1.0
143
1.0
 70
   688
 72
     0
 73
     0
 74
     5
  7

 75
    16
147
1.0
148
0.0
149
0.0
100
AcDbLayout
  1
Layout2
 70
     1
 71
     2
 10
0.0
 20
0.0
 11
0.0
 21
0.0
 12
0.0
 22
0.0
 32
0.0
 14
0.0
 24
0.0
 34
0.0
 15
0.0
 25
0.0
 35
0.0
146
0.0
 13
0.0
 23
0.0
 33
0.0
 16
1.0
 26
0.0
 36
0.0
 17
0.0
 27
1.0
 37
0.0
 76
     0
330
23
  0
LAYOUT
  5
22
102
{ACAD_REACTORS
330
1A
102
}
330
1A
100
AcDbPlotSettings
  1

  2
none_device
  4

  6

 40
0.0
 41
0.0
 42
0.0
 43
0.0
 44
0.0
 45
0.0
 46
0.0
 47
0.0
 48
0.0
 49
0.0
140
0.0
141
0.0
142
1.0
143
1.0
 70
  1712
 72
     0
 73
     0
 74
     0
  7

 75
     0
147
1.0
148
0.0
149
0.0
100
AcDbLayout
  1
Model
 70
     1
 71
     0
 10
0.0
 20
0.0
 11
594.0
 21
420.0
 12
0.0
 22
0.0
 32
0.0
 14
0.0
 24
0.0
 34
0.0
 15
594.0
 25
420.0
 35
0.0
146
0.0
 13
0.0
 23
0.0
 33
0.0
 16
1.0
 26
0.0
 36
0.0
 17
0.0
 27
1.0
 37
0.0
 76
     0
330
1F
331
29
  0
MLINESTYLE
  5
18
102
{ACAD_REACTORS
330
17
102
}
330
17
100
AcDbMlineStyle
  2
Standard
 70
     0
  3

 62
   256
 51
90.0
 52
90.0
 71
     2
 49
0.5
 62
   256
  6
BYLAYER
 49
-0.5
 62
   256
  6
BYLAYER
  0
ACDBPLACEHOLDER
  5
F
102
{ACAD_REACTORS
330
E
102
}
330
E
  0
ENDSEC
  0
EOF
