  0
SECTION
  2
HEADER
  9
$ACADVER
  1
AC1015
  9
$ACADMAINTVER
 70
     6
  9
$DWGCODEPAGE
  3
ANSI_1252
  9
$INSBASE
 10
0.0
 20
0.0
 30
0.0
  9
$EXTMIN
 10
0.0
 20
0.0
 30
0.0
  9
$EXTMAX
 10
841.0
 20
594.0
 30
0.0
  9
$LIMMIN
 10
0.0
 20
0.0
  9
$LIMMAX
 10
841.0
 20
594.0
  9
$ORTHOMODE
 70
     0
  9
$REGENMODE
 70
     1
  9
$FILLMODE
 70
     1
  9
$QTEXTMODE
 70
     0
  9
$MIRRTEXT
 70
     1
  9
$LTSCALE
 40
1.0
  9
$ATTMODE
 70
     1
  9
$TEXTSIZE
 40
2.5
  9
$TRACEWID
 40
1.0
  9
$TEXTSTYLE
  7
Standard
  9
$CLAYER
  8
0
  9
$CELTYPE
  6
ByLayer
  9
$CECOLOR
 62
   256
  9
$CELTSCALE
 40
1.0
  9
$DISPSILH
 70
     0
  9
$DIMSCALE
 40
1.0
  9
$DIMASZ
 40
2.5
  9
$DIMEXO
 40
1.0
  9
$DIMDLI
 40
3.75
  9
$DIMRND
 40
0.0
  9
$DIMDLE
 40
0.0
  9
$DIMEXE
 40
1.0
  9
$DIMTP
 40
0.0
  9
$DIMTM
 40
0.0
  9
$DIMTXT
 40
2.5
  9
$DIMCEN
 40
2.5
  9
$DIMTSZ
 40
0.0
  9
$DIMTOL
 70
     0
  9
$DIMLIM
 70
     0
  9
$DIMTIH
 70
     1
  9
$DIMTOH
 70
     1
  9
$DIMSE1
 70
     0
  9
$DIMSE2
 70
     0
  9
$DIMTAD
 70
     1
  9
$DIMZIN
 70
     0
  9
$DIMBLK
  1

  9
$DIMASO
 70
     1
  9
$DIMSHO
 70
     1
  9
$DIMPOST
  1

  9
$DIMAPOST
  1

  9
$DIMALT
 70
     0
  9
$DIMALTD
 70
     3
  9
$DIMALTF
 40
0.0393700787
  9
$DIMLFAC
 40
1.5
  9
$DIMTOFL
 70
     1
  9
$DIMTVP
 40
0.0
  9
$DIMTIX
 70
     0
  9
$DIMSOXD
 70
     0
  9
$DIMSAH
 70
     0
  9
$DIMBLK1
  1

  9
$DIMBLK2
  1

  9
$DIMSTYLE
  2
ISO-25
  9
$DIMCLRD
 70
     0
  9
$DIMCLRE
 70
     0
  9
$DIMCLRT
 70
     0
  9
$DIMTFAC
 40
1.0
  9
$DIMGAP
 40
1.524
  9
$DIMJUST
 70
     0
  9
$DIMSD1
 70
     0
  9
$DIMSD2
 70
     0
  9
$DIMTOLJ
 70
     0
  9
$DIMTZIN
 70
     0
  9
$DIMALTZ
 70
     0
  9
$DIMALTTZ
 70
     0
  9
$DIMUPT
 70
     0
  9
$DIMDEC
 70
     2
  9
$DIMTDEC
 70
     2
  9
$DIMALTU
 70
     2
  9
$DIMALTTD
 70
     3
  9
$DIMTXSTY
  7
Standard
  9
$DIMAUNIT
 70
     0
  9
$DIMADEC
 70
     2
  9
$DIMALTRND
 40
0.0
  9
$DIMAZIN
 70
     0
  9
$DIMDSEP
 70
    44
  9
$DIMATFIT
 70
     3
  9
$DIMFRAC
 70
     0
  9
$DIMLDRBLK
  1

  9
$DIMLUNIT
 70
     2
  9
$DIMLWD
 70
    -2
  9
$DIMLWE
 70
    -2
  9
$DIMTMOVE
 70
     0
  9
$LUNITS
 70
     2
  9
$LUPREC
 70
     2
  9
$SKETCHINC
 40
1.0
  9
$FILLETRAD
 40
10.0
  9
$AUNITS
 70
     0
  9
$AUPREC
 70
     2
  9
$MENU
  1
.
  9
$ELEVATION
 40
0.0
  9
$PELEVATION
 40
0.0
  9
$THICKNESS
 40
0.0
  9
$LIMCHECK
 70
     0
  9
$CHAMFERA
 40
10.0
  9
$CHAMFERB
 40
10.0
  9
$CHAMFERC
 40
20.0
  9
$CHAMFERD
 40
0.0
  9
$SKPOLY
 70
     0
  9
$TDCREATE
 40
2457050.639234283
  9
$TDUCREATE
 40
2457050.305900949
  9
$TDUPDATE
 40
2457050.639236134
  9
$TDUUPDATE
 40
2457050.305902801
  9
$TDINDWG
 40
0.0000000116
  9
$TDUSRTIMER
 40
0.0000000116
  9
$USRTIMER
 70
     1
  9
$ANGBASE
 50
0.0
  9
$ANGDIR
 70
     0
  9
$PDMODE
 70
     0
  9
$PDSIZE
 40
-1.0
  9
$PLINEWID
 40
0.0
  9
$SPLFRAME
 70
     0
  9
$SPLINETYPE
 70
     6
  9
$SPLINESEGS
 70
     8
  9
$HANDSEED
  5
344
  9
$SURFTAB1
 70
     6
  9
$SURFTAB2
 70
     6
  9
$SURFTYPE
 70
     6
  9
$SURFU
 70
     6
  9
$SURFV
 70
     6
  9
$UCSBASE
  2

  9
$UCSNAME
  2

  9
$UCSORG
 10
0.0
 20
0.0
 30
0.0
  9
$UCSXDIR
 10
1.0
 20
0.0
 30
0.0
  9
$UCSYDIR
 10
0.0
 20
1.0
 30
0.0
  9
$UCSORTHOREF
  2

  9
$UCSORTHOVIEW
 70
     0
  9
$UCSORGTOP
 10
0.0
 20
0.0
 30
0.0
  9
$UCSORGBOTTOM
 10
0.0
 20
0.0
 30
0.0
  9
$UCSORGLEFT
 10
0.0
 20
0.0
 30
0.0
  9
$UCSORGRIGHT
 10
0.0
 20
0.0
 30
0.0
  9
$UCSORGFRONT
 10
0.0
 20
0.0
 30
0.0
  9
$UCSORGBACK
 10
0.0
 20
0.0
 30
0.0
  9
$PUCSBASE
  2

  9
$PUCSNAME
  2

  9
$PUCSORG
 10
0.0
 20
0.0
 30
0.0
  9
$PUCSXDIR
 10
1.0
 20
0.0
 30
0.0
  9
$PUCSYDIR
 10
0.0
 20
1.0
 30
0.0
  9
$PUCSORTHOREF
  2

  9
$PUCSORTHOVIEW
 70
     0
  9
$PUCSORGTOP
 10
0.0
 20
0.0
 30
0.0
  9
$PUCSORGBOTTOM
 10
0.0
 20
0.0
 30
0.0
  9
$PUCSORGLEFT
 10
0.0
 20
0.0
 30
0.0
  9
$PUCSORGRIGHT
 10
0.0
 20
0.0
 30
0.0
  9
$PUCSORGFRONT
 10
0.0
 20
0.0
 30
0.0
  9
$PUCSORGBACK
 10
0.0
 20
0.0
 30
0.0
  9
$USERI1
 70
     0
  9
$USERI2
 70
     0
  9
$USERI3
 70
     0
  9
$USERI4
 70
     0
  9
$USERI5
 70
     0
  9
$USERR1
 40
0.0
  9
$USERR2
 40
0.0
  9
$USERR3
 40
0.0
  9
$USERR4
 40
0.0
  9
$USERR5
 40
0.0
  9
$WORLDVIEW
 70
     1
  9
$SHADEDGE
 70
     3
  9
$SHADEDIF
 70
    70
  9
$TILEMODE
 70
     1
  9
$MAXACTVP
 70
    64
  9
$PINSBASE
 10
0.0
 20
0.0
 30
0.0
  9
$PLIMCHECK
 70
     0
  9
$PEXTMIN
 10
1.0000000000E+20
 20
1.0000000000E+20
 30
1.0000000000E+20
  9
$PEXTMAX
 10
-1.0000000000E+20
 20
-1.0000000000E+20
 30
-1.0000000000E+20
  9
$PLIMMIN
 10
0.0
 20
0.0
  9
$PLIMMAX
 10
420.0
 20
297.0
  9
$UNITMODE
 70
     0
  9
$VISRETAIN
 70
     1
  9
$PLINEGEN
 70
     0
  9
$PSLTSCALE
 70
     1
  9
$TREEDEPTH
 70
  3020
  9
$CMLSTYLE
  2
Standard
  9
$CMLJUST
 70
     0
  9
$CMLSCALE
 40
20.0
  9
$PROXYGRAPHICS
 70
     1
  9
$MEASUREMENT
 70
     1
  9
$CELWEIGHT
370
    -1
  9
$ENDCAPS
280
     0
  9
$JOINSTYLE
280
     0
  9
$LWDISPLAY
290
     1
  9
$INSUNITS
 70
     4
  9
$HYPERLINKBASE
  1

  9
$STYLESHEET
  1

  9
$XEDIT
290
     1
  9
$CEPSNTYPE
380
     0
  9
$PSTYLEMODE
290
     1
  9
$FINGERPRINTGUID
  2
{1FA88059-F3AE-4A03-AD62-B9BE667388CA}
  9
$VERSIONGUID
  2
{FAEB1C32-E019-11D5-929B-00C0DF256EC4}
  9
$EXTNAMES
290
     1
  9
$PSVPSCALE
 40
0.0
  9
$OLESTARTUP
290
     0
  0
ENDSEC
  0
SECTION
  2
CLASSES
  0
CLASS
  1
ACDBDICTIONARYWDFLT
  2
AcDbDictionaryWithDefault
  3
ObjectDBX Classes
 90
        0
280
     0
281
     0
  0
CLASS
  1
VISUALSTYLE
  2
AcDbVisualStyle
  3
ObjectDBX Classes
 90
     4095
280
     0
281
     0
  0
CLASS
  1
MATERIAL
  2
AcDbMaterial
  3
ObjectDBX Classes
 90
     1153
280
     0
281
     0
  0
CLASS
  1
ACDBPLACEHOLDER
  2
AcDbPlaceHolder
  3
ObjectDBX Classes
 90
        0
280
     0
281
     0
  0
CLASS
  1
LAYOUT
  2
AcDbLayout
  3
ObjectDBX Classes
 90
        0
280
     0
281
     0
  0
ENDSEC
  0
SECTION
  2
TABLES
  0
TABLE
  2
VPORT
  5
8
330
0
100
AcDbSymbolTable
 70
     1
  0
VPORT
  5
29
330
8
100
AcDbSymbolTableRecord
100
AcDbViewportTableRecord
  2
*Active
 70
     0
 10
0.0
 20
0.0
 11
1.0
 21
1.0
 12
420.5
 22
297.0
 13
0.0
 23
0.0
 14
10.0
 24
10.0
 15
10.0
 25
10.0
 16
0.0
 26
0.0
 36
1.0
 17
0.0
 27
0.0
 37
0.0
 40
594.0
 41
1.4158249158
 42
50.0
 43
0.0
 44
0.0
 50
0.0
 51
0.0
 71
     0
 72
  2000
 73
     1
 74
     3
 75
     0
 76
     0
 77
     0
 78
     0
281
     0
 65
     1
110
0.0
120
0.0
130
0.0
111
1.0
121
0.0
131
0.0
112
0.0
122
1.0
132
0.0
 79
     0
146
0.0
  0
ENDTAB
  0
TABLE
  2
LTYPE
  5
5
330
0
100
AcDbSymbolTable
 70
     6
  0
LTYPE
  5
14
330
5
100
AcDbSymbolTableRecord
100
AcDbLinetypeTableRecord
  2
ByBlock
 70
     0
  3

 72
    65
 73
     0
 40
0.0
  0
LTYPE
  5
15
330
5
100
AcDbSymbolTableRecord
100
AcDbLinetypeTableRecord
  2
ByLayer
 70
     0
  3

 72
    65
 73
     0
 40
0.0
  0
LTYPE
  5
16
330
5
100
AcDbSymbolTableRecord
100
AcDbLinetypeTableRecord
  2
Continuous
 70
     0
  3
Solid line
 72
    65
 73
     0
 40
0.0
  0
LTYPE
  5
3F
330
5
100
AcDbSymbolTableRecord
100
AcDbLinetypeTableRecord
  2
HIDDEN
 70
     0
  3
Hidden __ __ __ __ __ __ __ __ __ __ __ __ __ __
 72
    65
 73
     2
 40
1.905
 49
1.27
 74
     0
 49
-0.635
 74
     0
  0
LTYPE
  5
40
330
5
100
AcDbSymbolTableRecord
100
AcDbLinetypeTableRecord
  2
PHANTOM
 70
     0
  3
Phantom ______  __  __  ______  __  __  ______
 72
    65
 73
     6
 40
12.7
 49
6.35
 74
     0
 49
-1.27
 74
     0
 49
1.27
 74
     0
 49
-1.27
 74
     0
 49
1.27
 74
     0
 49
-1.27
 74
     0
  0
LTYPE
  5
41
330
5
100
AcDbSymbolTableRecord
100
AcDbLinetypeTableRecord
  2
CENTER
 70
     0
  3
Center ____ _ ____ _ ____ _ ____ _ ____ _ ____
 72
    65
 73
     4
 40
10.16
 49
6.35
 74
     0
 49
-1.27
 74
     0
 49
1.27
 74
     0
 49
-1.27
 74
     0
  0
LTYPE
  5
42
330
5
100
AcDbSymbolTableRecord
100
AcDbLinetypeTableRecord
  2
CENTERX2
 70
     0
  3
Center (2x) ________  __  ________  __  _____
 72
    65
 73
     4
 40
20.32
 49
12.7
 74
     0
 49
-2.54
 74
     0
 49
2.54
 74
     0
 49
-2.54
 74
     0
  0
LTYPE
  5
43
330
5
100
AcDbSymbolTableRecord
100
AcDbLinetypeTableRecord
  2
DOT2
 70
     0
  3
Dot (.5x) ........................................
 72
    65
 73
     2
 40
0.635
 49
0.0
 74
     0
 49
-0.635
 74
     0
  0
ENDTAB
  0
TABLE
  2
LAYER
  5
2
330
0
100
AcDbSymbolTable
 70
     3
  0
LAYER
  5
10
330
2
100
AcDbSymbolTableRecord
100
AcDbLayerTableRecord
  2
0
 70
     0
 62
     7
  6
Continuous
370
    -3
390
F
  0
LAYER
  5
44
330
2
100
AcDbSymbolTableRecord
100
AcDbLayerTableRecord
  2
FORMAT
 70
     0
 62
     7
  6
Continuous
370
    -3
390
F
  0
LAYER
  5
45
330
2
100
AcDbSymbolTableRecord
100
AcDbLayerTableRecord
  2
PROTOTYPE
 70
     0
 62
     7
  6
Continuous
370
    -3
390
F
  0
ENDTAB
  0
TABLE
  2
STYLE
  5
3
330
0
100
AcDbSymbolTable
 70
     2
  0
STYLE
  5
11
330
3
100
AcDbSymbolTableRecord
100
AcDbTextStyleTableRecord
  2
Standard
 70
     0
 40
0.0
 41
1.0
 50
0.0
 71
     0
 42
2.5
  3
txt
  4

  0
STYLE
  5
8C
330
3
100
AcDbSymbolTableRecord
100
AcDbTextStyleTableRecord
  2
SLDTEXTSTYLE0
 70
     0
 40
0.0
 41
0.605
 50
0.0
 71
     0
 42
0.2
  3
TXT
  4

  0
ENDTAB
  0
TABLE
  2
VIEW
  5
6
330
0
100
AcDbSymbolTable
 70
     0
  0
ENDTAB
  0
TABLE
  2
UCS
  5
7
330
0
100
AcDbSymbolTable
 70
     0
  0
ENDTAB
  0
TABLE
  2
APPID
  5
9
330
0
100
AcDbSymbolTable
 70
     1
  0
APPID
  5
12
330
9
100
AcDbSymbolTableRecord
100
AcDbRegAppTableRecord
  2
ACAD
 70
     0
  0
ENDTAB
  0
TABLE
  2
DIMSTYLE
  5
A
330
0
100
AcDbSymbolTable
 70
     1
100
AcDbDimStyleTable
  0
DIMSTYLE
105
27
330
A
100
AcDbSymbolTableRecord
100
AcDbDimStyleTableRecord
  2
ISO-25
 70
     0
 41
2.5
 42
0.625
 43
3.75
 44
1.25
 73
     0
 74
     0
 77
     1
 78
     8
140
2.5
141
2.5
143
0.0393700787
147
0.625
171
     3
172
     1
178
     0
271
     2
272
     2
274
     3
278
    44
283
     0
284
     8
340
11
  0
ENDTAB
  0
TABLE
  2
BLOCK_RECORD
  5
1
330
0
100
AcDbSymbolTable
 70
     3
  0
BLOCK_RECORD
  5
1F
330
1
100
AcDbSymbolTableRecord
100
AcDbBlockTableRecord
  2
*Model_Space
340
22
  0
BLOCK_RECORD
  5
1B
330
1
100
AcDbSymbolTableRecord
100
AcDbBlockTableRecord
  2
*Paper_Space
340
1E
  0
BLOCK_RECORD
  5
23
330
1
100
AcDbSymbolTableRecord
100
AcDbBlockTableRecord
  2
*Paper_Space0
340
26
  0
BLOCK_RECORD
  5
25D
330
1
100
AcDbSymbolTableRecord
100
AcDbBlockTableRecord
  2
SW_CENTERMARKSYMBOL_0
340
0
102
{BLKREFS
331
268
102
}
  0
BLOCK_RECORD
  5
338
330
1
100
AcDbSymbolTableRecord
100
AcDbBlockTableRecord
  2
SW_CENTERMARKSYMBOL_1
340
0
102
{BLKREFS
331
343
102
}
  0
ENDTAB
  0
ENDSEC
  0
SECTION
  2
BLOCKS
  0
BLOCK
  5
20
330
1F
100
AcDbEntity
  8
0
100
AcDbBlockBegin
  2
*Model_Space
 70
     0
 10
0.0
 20
0.0
 30
0.0
  3
*Model_Space
  1

  0
ENDBLK
  5
21
330
1F
100
AcDbEntity
  8
0
100
AcDbBlockEnd
  0
BLOCK
  5
1C
330
1B
100
AcDbEntity
 67
     1
  8
0
100
AcDbBlockBegin
  2
*Paper_Space
 70
     0
 10
0.0
 20
0.0
 30
0.0
  3
*Paper_Space
  1

  0
ENDBLK
  5
1D
330
1B
100
AcDbEntity
 67
     1
  8
0
100
AcDbBlockEnd
  0
BLOCK
  5
24
330
23
100
AcDbEntity
  8
0
100
AcDbBlockBegin
  2
*Paper_Space0
 70
     0
 10
0.0
 20
0.0
 30
0.0
  3
*Paper_Space0
  1

  0
ENDBLK
  5
25
330
23
100
AcDbEntity
  8
0
100
AcDbBlockEnd
  0
BLOCK
  5
25E
330
25D
100
AcDbEntity
  8
0
100
AcDbBlockBegin
  2
SW_CENTERMARKSYMBOL_0
 70
     0
 10
0.0
 20
0.0
 30
0.0
  3
SW_CENTERMARKSYMBOL_0
  1

  0
LINE
  5
260
330
25D
100
AcDbEntity
  8
FORMAT
 62
     0
100
AcDbLine
 10
0.0
 20
0.0
 30
0.0
 11
0.0
 21
1.6666666667
 31
0.0
  0
LINE
  5
261
330
25D
100
AcDbEntity
  8
FORMAT
 62
     0
100
AcDbLine
 10
0.0
 20
0.0
 30
0.0
 11
-1.6666666667
 21
0.0
 31
0.0
  0
LINE
  5
262
330
25D
100
AcDbEntity
  8
FORMAT
 62
     0
100
AcDbLine
 10
0.0
 20
0.0
 30
0.0
 11
0.0
 21
-1.6666666667
 31
0.0
  0
LINE
  5
263
330
25D
100
AcDbEntity
  8
FORMAT
 62
     0
100
AcDbLine
 10
0.0
 20
0.0
 30
0.0
 11
1.6666666667
 21
0.0
 31
0.0
  0
LINE
  5
264
330
25D
100
AcDbEntity
  8
FORMAT
 62
     0
100
AcDbLine
 10
0.0
 20
3.3333333333
 30
0.0
 11
0.0
 21
49.2567659646
 31
0.0
  0
LINE
  5
265
330
25D
100
AcDbEntity
  8
FORMAT
 62
     0
100
AcDbLine
 10
-3.3333333333
 20
0.0
 30
0.0
 11
-95.296271397
 21
0.0
 31
0.0
  0
LINE
  5
266
330
25D
100
AcDbEntity
  8
FORMAT
 62
     0
100
AcDbLine
 10
0.0
 20
-3.3333333333
 30
0.0
 11
0.0
 21
-52.5342015629
 31
0.0
  0
LINE
  5
267
330
25D
100
AcDbEntity
  8
FORMAT
 62
     0
100
AcDbLine
 10
3.3333333333
 20
0.0
 30
0.0
 11
96.3515502238
 21
0.0
 31
0.0
  0
ENDBLK
  5
25F
330
25D
100
AcDbEntity
  8
0
100
AcDbBlockEnd
  0
BLOCK
  5
339
330
338
100
AcDbEntity
  8
0
100
AcDbBlockBegin
  2
SW_CENTERMARKSYMBOL_1
 70
     0
 10
0.0
 20
0.0
 30
0.0
  3
SW_CENTERMARKSYMBOL_1
  1

  0
LINE
  5
33B
330
338
100
AcDbEntity
  8
FORMAT
 62
     0
100
AcDbLine
 10
0.0
 20
0.0
 30
0.0
 11
0.0
 21
1.6666666667
 31
0.0
  0
LINE
  5
33C
330
338
100
AcDbEntity
  8
FORMAT
 62
     0
100
AcDbLine
 10
0.0
 20
0.0
 30
0.0
 11
-1.6666666667
 21
0.0
 31
0.0
  0
LINE
  5
33D
330
338
100
AcDbEntity
  8
FORMAT
 62
     0
100
AcDbLine
 10
0.0
 20
0.0
 30
0.0
 11
0.0
 21
-1.6666666667
 31
0.0
  0
LINE
  5
33E
330
338
100
AcDbEntity
  8
FORMAT
 62
     0
100
AcDbLine
 10
0.0
 20
0.0
 30
0.0
 11
1.6666666667
 21
0.0
 31
0.0
  0
LINE
  5
33F
330
338
100
AcDbEntity
  8
FORMAT
 62
     0
100
AcDbLine
 10
0.0
 20
3.3333333333
 30
0.0
 11
0.0
 21
187.5780610511
 31
0.0
  0
LINE
  5
340
330
338
100
AcDbEntity
  8
FORMAT
 62
     0
100
AcDbLine
 10
-3.3333333333
 20
0.0
 30
0.0
 11
-72.8612744626
 21
0.0
 31
0.0
  0
LINE
  5
341
330
338
100
AcDbEntity
  8
FORMAT
 62
     0
100
AcDbLine
 10
0.0
 20
-3.3333333333
 30
0.0
 11
0.0
 21
-75.3340037083
 31
0.0
  0
LINE
  5
342
330
338
100
AcDbEntity
  8
FORMAT
 62
     0
100
AcDbLine
 10
3.3333333333
 20
0.0
 30
0.0
 11
74.7087231766
 21
0.0
 31
0.0
  0
ENDBLK
  5
33A
330
338
100
AcDbEntity
  8
0
100
AcDbBlockEnd
  0
ENDSEC
  0
SECTION
  2
ENTITIES
  0
LINE
  5
46
330
1F
100
AcDbEntity
  8
FORMAT
370
    30
100
AcDbLine
 10
13.0
 20
12.8671069427
 30
0.0
 11
828.0
 21
12.8671069427
 31
0.0
  0
LINE
  5
47
330
1F
100
AcDbEntity
  8
FORMAT
370
    30
100
AcDbLine
 10
13.0
 20
12.8671069427
 30
0.0
 11
13.0
 21
580.8671069427
 31
0.0
  0
LINE
  5
48
330
1F
100
AcDbEntity
  8
0
  6
Continuous
 62
     7
370
    30
100
AcDbLine
 10
114.88
 20
12.8671069427
 30
0.0
 11
114.88
 21
6.8671069427
 31
0.0
  0
LINE
  5
49
330
1F
100
AcDbEntity
  8
FORMAT
370
    30
100
AcDbLine
 10
828.0
 20
12.8671069427
 30
0.0
 11
828.0
 21
580.8671069427
 31
0.0
  0
LINE
  5
4A
330
1F
100
AcDbEntity
  8
FORMAT
370
    30
100
AcDbLine
 10
828.0
 20
12.8671069427
 30
0.0
 11
828.0
 21
6.8671069427
 31
0.0
  0
LINE
  5
4B
330
1F
100
AcDbEntity
  8
0
  6
Continuous
 62
     7
370
    30
100
AcDbLine
 10
165.82
 20
12.8671069427
 30
0.0
 11
165.82
 21
6.8671069427
 31
0.0
  0
LINE
  5
4C
330
1F
100
AcDbEntity
  8
0
  6
Continuous
 62
     7
370
    30
100
AcDbLine
 10
216.76
 20
12.8671069427
 30
0.0
 11
216.76
 21
6.8671069427
 31
0.0
  0
LINE
  5
4D
330
1F
100
AcDbEntity
  8
0
  6
Continuous
 62
     7
370
    30
100
AcDbLine
 10
267.7
 20
12.8671069427
 30
0.0
 11
267.7
 21
6.8671069427
 31
0.0
  0
LINE
  5
4E
330
1F
100
AcDbEntity
  8
0
  6
Continuous
 62
     7
370
    30
100
AcDbLine
 10
318.64
 20
12.8671069427
 30
0.0
 11
318.64
 21
6.8671069427
 31
0.0
  0
LINE
  5
4F
330
1F
100
AcDbEntity
  8
0
  6
Continuous
 62
     7
370
    30
100
AcDbLine
 10
369.58
 20
12.8671069427
 30
0.0
 11
369.58
 21
6.8671069427
 31
0.0
  0
LINE
  5
50
330
1F
100
AcDbEntity
  8
0
  6
Continuous
 62
     7
370
    30
100
AcDbLine
 10
420.52
 20
12.8671069427
 30
0.0
 11
420.52
 21
6.8671069427
 31
0.0
  0
LINE
  5
51
330
1F
100
AcDbEntity
  8
0
  6
Continuous
 62
     7
370
    30
100
AcDbLine
 10
471.46
 20
12.8671069427
 30
0.0
 11
471.46
 21
6.8671069427
 31
0.0
  0
LINE
  5
52
330
1F
100
AcDbEntity
  8
0
  6
Continuous
 62
     7
370
    30
100
AcDbLine
 10
522.4
 20
12.8671069427
 30
0.0
 11
522.4
 21
6.8671069427
 31
0.0
  0
LINE
  5
53
330
1F
100
AcDbEntity
  8
0
  6
Continuous
 62
     7
370
    30
100
AcDbLine
 10
573.34
 20
12.8671069427
 30
0.0
 11
573.34
 21
6.8671069427
 31
0.0
  0
LINE
  5
54
330
1F
100
AcDbEntity
  8
0
  6
Continuous
 62
     7
370
    30
100
AcDbLine
 10
624.28
 20
12.8671069427
 30
0.0
 11
624.28
 21
6.8671069427
 31
0.0
  0
LINE
  5
55
330
1F
100
AcDbEntity
  8
0
  6
Continuous
 62
     7
370
    30
100
AcDbLine
 10
675.22
 20
12.8671069427
 30
0.0
 11
675.22
 21
6.8671069427
 31
0.0
  0
LINE
  5
56
330
1F
100
AcDbEntity
  8
0
  6
Continuous
 62
     7
370
    30
100
AcDbLine
 10
726.16
 20
12.8671069427
 30
0.0
 11
726.16
 21
6.8671069427
 31
0.0
  0
LINE
  5
57
330
1F
100
AcDbEntity
  8
0
  6
Continuous
 62
     7
370
    30
100
AcDbLine
 10
777.1
 20
12.8671069427
 30
0.0
 11
777.1
 21
6.8671069427
 31
0.0
  0
LINE
  5
58
330
1F
100
AcDbEntity
  8
0
  6
Continuous
 62
     7
370
    30
100
AcDbLine
 10
828.0
 20
116.1471069427
 30
0.0
 11
834.0
 21
116.1471069427
 31
0.0
  0
LINE
  5
59
330
1F
100
AcDbEntity
  8
0
  6
Continuous
 62
     7
370
    30
100
AcDbLine
 10
828.0
 20
167.7871069427
 30
0.0
 11
834.0
 21
167.7871069427
 31
0.0
  0
LINE
  5
5A
330
1F
100
AcDbEntity
  8
0
  6
Continuous
 62
     7
370
    30
100
AcDbLine
 10
828.0
 20
219.4271069427
 30
0.0
 11
834.0
 21
219.4271069427
 31
0.0
  0
LINE
  5
5B
330
1F
100
AcDbEntity
  8
0
  6
Continuous
 62
     7
370
    30
100
AcDbLine
 10
828.0
 20
271.0671069427
 30
0.0
 11
834.0
 21
271.0671069427
 31
0.0
  0
LINE
  5
5C
330
1F
100
AcDbEntity
  8
0
  6
Continuous
 62
     7
370
    30
100
AcDbLine
 10
828.0
 20
322.7071069427
 30
0.0
 11
834.0
 21
322.7071069427
 31
0.0
  0
LINE
  5
5D
330
1F
100
AcDbEntity
  8
0
  6
Continuous
 62
     7
370
    30
100
AcDbLine
 10
63.94
 20
12.8671069427
 30
0.0
 11
63.94
 21
6.8671069427
 31
0.0
  0
LINE
  5
5E
330
1F
100
AcDbEntity
  8
0
  6
Continuous
 62
     7
370
    30
100
AcDbLine
 10
828.0
 20
374.3471069427
 30
0.0
 11
834.0
 21
374.3471069427
 31
0.0
  0
LINE
  5
5F
330
1F
100
AcDbEntity
  8
0
  6
Continuous
 62
     7
370
    30
100
AcDbLine
 10
13.0
 20
12.8671069427
 30
0.0
 11
13.0
 21
6.8671069427
 31
0.0
  0
LINE
  5
60
330
1F
100
AcDbEntity
  8
FORMAT
  6
Continuous
 62
     7
370
    30
100
AcDbLine
 10
828.0
 20
12.8671069427
 30
0.0
 11
834.0
 21
12.8671069427
 31
0.0
  0
LINE
  5
61
330
1F
100
AcDbEntity
  8
0
  6
Continuous
 62
     7
370
    30
100
AcDbLine
 10
828.0
 20
425.9871069427
 30
0.0
 11
834.0
 21
425.9871069427
 31
0.0
  0
LINE
  5
62
330
1F
100
AcDbEntity
  8
0
  6
Continuous
 62
     7
370
    30
100
AcDbLine
 10
828.0
 20
477.6271069427
 30
0.0
 11
834.0
 21
477.6271069427
 31
0.0
  0
LINE
  5
63
330
1F
100
AcDbEntity
  8
0
  6
Continuous
 62
     7
370
    30
100
AcDbLine
 10
828.0
 20
529.2671069427
 30
0.0
 11
834.0
 21
529.2671069427
 31
0.0
  0
LINE
  5
64
330
1F
100
AcDbEntity
  8
0
  6
Continuous
 62
     7
370
    30
100
AcDbLine
 10
7.0
 20
580.8671069427
 30
0.0
 11
13.0
 21
580.8671069427
 31
0.0
  0
LINE
  5
65
330
1F
100
AcDbEntity
  8
0
  6
Continuous
 62
     7
370
    30
100
AcDbLine
 10
7.0
 20
12.8671069427
 30
0.0
 11
13.0
 21
12.8671069427
 31
0.0
  0
LINE
  5
66
330
1F
100
AcDbEntity
  8
0
  6
Continuous
 62
     7
370
    30
100
AcDbLine
 10
165.82
 20
586.8671069427
 30
0.0
 11
165.82
 21
580.8671069427
 31
0.0
  0
LINE
  5
67
330
1F
100
AcDbEntity
  8
0
  6
Continuous
 62
     7
370
    30
100
AcDbLine
 10
471.46
 20
586.8671069427
 30
0.0
 11
471.46
 21
580.8671069427
 31
0.0
  0
LINE
  5
68
330
1F
100
AcDbEntity
  8
0
  6
Continuous
 62
     7
370
    30
100
AcDbLine
 10
420.52
 20
586.8671069427
 30
0.0
 11
420.52
 21
580.8671069427
 31
0.0
  0
LINE
  5
69
330
1F
100
AcDbEntity
  8
0
  6
Continuous
 62
     7
370
    30
100
AcDbLine
 10
777.1
 20
586.8671069427
 30
0.0
 11
777.1
 21
580.8671069427
 31
0.0
  0
LINE
  5
6A
330
1F
100
AcDbEntity
  8
0
  6
Continuous
 62
     7
370
    30
100
AcDbLine
 10
726.16
 20
586.8671069427
 30
0.0
 11
726.16
 21
580.8671069427
 31
0.0
  0
LINE
  5
6B
330
1F
100
AcDbEntity
  8
0
  6
Continuous
 62
     7
370
    30
100
AcDbLine
 10
114.88
 20
586.8671069427
 30
0.0
 11
114.88
 21
580.8671069427
 31
0.0
  0
LINE
  5
6C
330
1F
100
AcDbEntity
  8
0
  6
Continuous
 62
     7
370
    30
100
AcDbLine
 10
522.4
 20
586.8671069427
 30
0.0
 11
522.4
 21
580.8671069427
 31
0.0
  0
LINE
  5
6D
330
1F
100
AcDbEntity
  8
0
  6
Continuous
 62
     7
370
    30
100
AcDbLine
 10
216.76
 20
586.8671069427
 30
0.0
 11
216.76
 21
580.8671069427
 31
0.0
  0
LINE
  5
6E
330
1F
100
AcDbEntity
  8
0
  6
Continuous
 62
     7
370
    30
100
AcDbLine
 10
369.58
 20
586.8671069427
 30
0.0
 11
369.58
 21
580.8671069427
 31
0.0
  0
LINE
  5
6F
330
1F
100
AcDbEntity
  8
0
  6
Continuous
 62
     7
370
    30
100
AcDbLine
 10
624.28
 20
586.8671069427
 30
0.0
 11
624.28
 21
580.8671069427
 31
0.0
  0
LINE
  5
70
330
1F
100
AcDbEntity
  8
0
  6
Continuous
 62
     7
370
    30
100
AcDbLine
 10
675.22
 20
586.8671069427
 30
0.0
 11
675.22
 21
580.8671069427
 31
0.0
  0
LINE
  5
71
330
1F
100
AcDbEntity
  8
0
  6
Continuous
 62
     7
370
    30
100
AcDbLine
 10
318.64
 20
586.8671069427
 30
0.0
 11
318.64
 21
580.8671069427
 31
0.0
  0
LINE
  5
72
330
1F
100
AcDbEntity
  8
0
  6
Continuous
 62
     7
370
    30
100
AcDbLine
 10
573.34
 20
586.8671069427
 30
0.0
 11
573.34
 21
580.8671069427
 31
0.0
  0
LINE
  5
73
330
1F
100
AcDbEntity
  8
0
  6
Continuous
 62
     7
370
    30
100
AcDbLine
 10
267.7
 20
586.8671069427
 30
0.0
 11
267.7
 21
580.8671069427
 31
0.0
  0
LINE
  5
74
330
1F
100
AcDbEntity
  8
0
  6
Continuous
 62
     7
370
    30
100
AcDbLine
 10
63.94
 20
586.8671069427
 30
0.0
 11
63.94
 21
580.8671069427
 31
0.0
  0
LINE
  5
75
330
1F
100
AcDbEntity
  8
0
  6
Continuous
 62
     7
370
    30
100
AcDbLine
 10
828.0
 20
64.5071069427
 30
0.0
 11
834.0
 21
64.5071069427
 31
0.0
  0
LINE
  5
76
330
1F
100
AcDbEntity
  8
0
  6
Continuous
 62
     7
370
    30
100
AcDbLine
 10
7.0
 20
167.7871069427
 30
0.0
 11
13.0
 21
167.7871069427
 31
0.0
  0
LINE
  5
77
330
1F
100
AcDbEntity
  8
0
  6
Continuous
 62
     7
370
    30
100
AcDbLine
 10
13.0
 20
586.8671069427
 30
0.0
 11
13.0
 21
580.8671069427
 31
0.0
  0
LINE
  5
78
330
1F
100
AcDbEntity
  8
0
  6
Continuous
 62
     7
370
    30
100
AcDbLine
 10
7.0
 20
477.6271069427
 30
0.0
 11
13.0
 21
477.6271069427
 31
0.0
  0
LINE
  5
79
330
1F
100
AcDbEntity
  8
0
  6
Continuous
 62
     7
370
    30
100
AcDbLine
 10
7.0
 20
529.2671069427
 30
0.0
 11
13.0
 21
529.2671069427
 31
0.0
  0
LINE
  5
7A
330
1F
100
AcDbEntity
  8
0
  6
Continuous
 62
     7
370
    30
100
AcDbLine
 10
7.0
 20
374.3471069427
 30
0.0
 11
13.0
 21
374.3471069427
 31
0.0
  0
LINE
  5
7B
330
1F
100
AcDbEntity
  8
0
  6
Continuous
 62
     7
370
    30
100
AcDbLine
 10
828.0
 20
580.8671069427
 30
0.0
 11
834.0
 21
580.8671069427
 31
0.0
  0
LINE
  5
7C
330
1F
100
AcDbEntity
  8
0
  6
Continuous
 62
     7
370
    30
100
AcDbLine
 10
7.0
 20
425.9871069427
 30
0.0
 11
13.0
 21
425.9871069427
 31
0.0
  0
LINE
  5
7D
330
1F
100
AcDbEntity
  8
0
  6
Continuous
 62
     7
370
    30
100
AcDbLine
 10
13.0
 20
580.8671069427
 30
0.0
 11
828.0
 21
580.8671069427
 31
0.0
  0
LINE
  5
7E
330
1F
100
AcDbEntity
  8
0
  6
Continuous
 62
     7
370
    30
100
AcDbLine
 10
7.0
 20
64.5071069427
 30
0.0
 11
13.0
 21
64.5071069427
 31
0.0
  0
LINE
  5
7F
330
1F
100
AcDbEntity
  8
0
  6
Continuous
 62
     7
370
    30
100
AcDbLine
 10
7.0
 20
219.4271069427
 30
0.0
 11
13.0
 21
219.4271069427
 31
0.0
  0
LINE
  5
80
330
1F
100
AcDbEntity
  8
0
  6
Continuous
 62
     7
370
    30
100
AcDbLine
 10
7.0
 20
271.0671069427
 30
0.0
 11
13.0
 21
271.0671069427
 31
0.0
  0
LINE
  5
81
330
1F
100
AcDbEntity
  8
0
  6
Continuous
 62
     7
370
    30
100
AcDbLine
 10
7.0
 20
322.7071069427
 30
0.0
 11
13.0
 21
322.7071069427
 31
0.0
  0
LINE
  5
82
330
1F
100
AcDbEntity
  8
0
  6
Continuous
 62
     7
370
    30
100
AcDbLine
 10
828.0
 20
586.8671069427
 30
0.0
 11
828.0
 21
580.8671069427
 31
0.0
  0
LINE
  5
83
330
1F
100
AcDbEntity
  8
0
  6
Continuous
 62
     7
370
    30
100
AcDbLine
 10
7.0
 20
116.1471069427
 30
0.0
 11
13.0
 21
116.1471069427
 31
0.0
  0
LINE
  5
84
330
1F
100
AcDbEntity
  8
FORMAT
100
AcDbLine
 10
420.5
 20
12.8671069427
 30
0.0
 11
420.5
 21
4.8671069427
 31
0.0
  0
LINE
  5
85
330
1F
100
AcDbEntity
  8
FORMAT
100
AcDbLine
 10
210.25
 20
12.8671069427
 30
0.0
 11
210.25
 21
4.8671069427
 31
0.0
  0
LINE
  5
86
330
1F
100
AcDbEntity
  8
FORMAT
  6
Continuous
 62
     7
370
     0
100
AcDbLine
 10
644.0
 20
12.8671069427
 30
0.0
 11
644.0
 21
4.8671069427
 31
0.0
  0
LINE
  5
87
330
1F
100
AcDbEntity
  8
0
  6
Continuous
 62
     7
370
     0
100
AcDbLine
 10
210.25
 20
588.8671069427
 30
0.0
 11
210.25
 21
580.8671069427
 31
0.0
  0
LINE
  5
88
330
1F
100
AcDbEntity
  8
0
  6
Continuous
 62
     7
370
     0
100
AcDbLine
 10
420.5
 20
588.8671069427
 30
0.0
 11
420.5
 21
580.8671069427
 31
0.0
  0
LINE
  5
89
330
1F
100
AcDbEntity
  8
0
  6
Continuous
 62
     7
370
     0
100
AcDbLine
 10
630.75
 20
588.8671069427
 30
0.0
 11
630.75
 21
580.8671069427
 31
0.0
  0
LINE
  5
8A
330
1F
100
AcDbEntity
  8
FORMAT
100
AcDbLine
 10
828.0
 20
296.8671069427
 30
0.0
 11
836.0
 21
296.8671069427
 31
0.0
  0
LINE
  5
8B
330
1F
100
AcDbEntity
  8
0
  6
Continuous
 62
     7
370
     0
100
AcDbLine
 10
5.0
 20
296.8671069427
 30
0.0
 11
13.0
 21
296.8671069427
 31
0.0
  0
MTEXT
  5
8D
330
1F
100
AcDbEntity
  8
FORMAT
100
AcDbMText
 10
37.5504191961
 20
10.9423147578
 30
0.0
 40
2.6458333333
 41
0.0
 71
     1
 72
     1
  1
A
  7
SLDTEXTSTYLE0
 73
     1
 44
1.0
  0
MTEXT
  5
8E
330
1F
100
AcDbEntity
  8
FORMAT
100
AcDbMText
 10
828.9767730496
 20
40.3656938402
 30
0.0
 40
2.6458333333
 41
0.0
 71
     1
 72
     1
  1
11
  7
SLDTEXTSTYLE0
 73
     1
 44
1.0
  0
MTEXT
  5
8F
330
1F
100
AcDbEntity
  8
FORMAT
100
AcDbMText
 10
88.4904191961
 20
10.9423147578
 30
0.0
 40
2.6458333333
 41
0.0
 71
     1
 72
     1
  1
B
  7
SLDTEXTSTYLE0
 73
     1
 44
1.0
  0
MTEXT
  5
90
330
1F
100
AcDbEntity
  8
FORMAT
100
AcDbMText
 10
139.4304191961
 20
10.9423147578
 30
0.0
 40
2.6458333333
 41
0.0
 71
     1
 72
     1
  1
C
  7
SLDTEXTSTYLE0
 73
     1
 44
1.0
  0
MTEXT
  5
91
330
1F
100
AcDbEntity
  8
FORMAT
100
AcDbMText
 10
190.3704191961
 20
10.9423147578
 30
0.0
 40
2.6458333333
 41
0.0
 71
     1
 72
     1
  1
D
  7
SLDTEXTSTYLE0
 73
     1
 44
1.0
  0
MTEXT
  5
92
330
1F
100
AcDbEntity
  8
FORMAT
100
AcDbMText
 10
241.3104191961
 20
10.9423147578
 30
0.0
 40
2.6458333333
 41
0.0
 71
     1
 72
     1
  1
E
  7
SLDTEXTSTYLE0
 73
     1
 44
1.0
  0
MTEXT
  5
93
330
1F
100
AcDbEntity
  8
FORMAT
100
AcDbMText
 10
292.2504191961
 20
10.9423147578
 30
0.0
 40
2.6458333333
 41
0.0
 71
     1
 72
     1
  1
F
  7
SLDTEXTSTYLE0
 73
     1
 44
1.0
  0
MTEXT
  5
94
330
1F
100
AcDbEntity
  8
FORMAT
100
AcDbMText
 10
343.1904191961
 20
10.9423147578
 30
0.0
 40
2.6458333333
 41
0.0
 71
     1
 72
     1
  1
G
  7
SLDTEXTSTYLE0
 73
     1
 44
1.0
  0
MTEXT
  5
95
330
1F
100
AcDbEntity
  8
FORMAT
100
AcDbMText
 10
394.1304191961
 20
10.9423147578
 30
0.0
 40
2.6458333333
 41
0.0
 71
     1
 72
     1
  1
H
  7
SLDTEXTSTYLE0
 73
     1
 44
1.0
  0
MTEXT
  5
96
330
1F
100
AcDbEntity
  8
FORMAT
100
AcDbMText
 10
445.0704191961
 20
10.9423147578
 30
0.0
 40
2.6458333333
 41
0.0
 71
     1
 72
     1
  1
I
  7
SLDTEXTSTYLE0
 73
     1
 44
1.0
  0
MTEXT
  5
97
330
1F
100
AcDbEntity
  8
FORMAT
100
AcDbMText
 10
496.0104191961
 20
10.9423147578
 30
0.0
 40
2.6458333333
 41
0.0
 71
     1
 72
     1
  1
J
  7
SLDTEXTSTYLE0
 73
     1
 44
1.0
  0
MTEXT
  5
98
330
1F
100
AcDbEntity
  8
FORMAT
100
AcDbMText
 10
546.9504191961
 20
10.9423147578
 30
0.0
 40
2.6458333333
 41
0.0
 71
     1
 72
     1
  1
K
  7
SLDTEXTSTYLE0
 73
     1
 44
1.0
  0
MTEXT
  5
99
330
1F
100
AcDbEntity
  8
FORMAT
100
AcDbMText
 10
597.8904191961
 20
10.9423147578
 30
0.0
 40
2.6458333333
 41
0.0
 71
     1
 72
     1
  1
L
  7
SLDTEXTSTYLE0
 73
     1
 44
1.0
  0
MTEXT
  5
9A
330
1F
100
AcDbEntity
  8
FORMAT
100
AcDbMText
 10
648.8304191961
 20
10.9423147578
 30
0.0
 40
2.6458333333
 41
0.0
 71
     1
 72
     1
  1
M
  7
SLDTEXTSTYLE0
 73
     1
 44
1.0
  0
MTEXT
  5
9B
330
1F
100
AcDbEntity
  8
FORMAT
100
AcDbMText
 10
699.7704191961
 20
10.9423147578
 30
0.0
 40
2.6458333333
 41
0.0
 71
     1
 72
     1
  1
N
  7
SLDTEXTSTYLE0
 73
     1
 44
1.0
  0
MTEXT
  5
9C
330
1F
100
AcDbEntity
  8
FORMAT
100
AcDbMText
 10
750.7104191961
 20
10.9423147578
 30
0.0
 40
2.6458333333
 41
0.0
 71
     1
 72
     1
  1
O
  7
SLDTEXTSTYLE0
 73
     1
 44
1.0
  0
MTEXT
  5
9D
330
1F
100
AcDbEntity
  8
FORMAT
100
AcDbMText
 10
801.6504191961
 20
10.9423147578
 30
0.0
 40
2.6458333333
 41
0.0
 71
     1
 72
     1
  1
P
  7
SLDTEXTSTYLE0
 73
     1
 44
1.0
  0
MTEXT
  5
9E
330
1F
100
AcDbEntity
  8
FORMAT
100
AcDbMText
 10
828.9767730496
 20
92.0056938402
 30
0.0
 40
2.6458333333
 41
0.0
 71
     1
 72
     1
  1
10
  7
SLDTEXTSTYLE0
 73
     1
 44
1.0
  0
MTEXT
  5
9F
330
1F
100
AcDbEntity
  8
FORMAT
100
AcDbMText
 10
829.9767730496
 20
143.6456938402
 30
0.0
 40
2.6458333333
 41
0.0
 71
     1
 72
     1
  1
9
  7
SLDTEXTSTYLE0
 73
     1
 44
1.0
  0
MTEXT
  5
A0
330
1F
100
AcDbEntity
  8
FORMAT
100
AcDbMText
 10
829.9767730496
 20
195.2856938402
 30
0.0
 40
2.6458333333
 41
0.0
 71
     1
 72
     1
  1
8
  7
SLDTEXTSTYLE0
 73
     1
 44
1.0
  0
MTEXT
  5
A1
330
1F
100
AcDbEntity
  8
FORMAT
100
AcDbMText
 10
829.9767730496
 20
246.9256938402
 30
0.0
 40
2.6458333333
 41
0.0
 71
     1
 72
     1
  1
7
  7
SLDTEXTSTYLE0
 73
     1
 44
1.0
  0
MTEXT
  5
A2
330
1F
100
AcDbEntity
  8
FORMAT
100
AcDbMText
 10
829.9767730496
 20
296.5656938402
 30
0.0
 40
2.6458333333
 41
0.0
 71
     1
 72
     1
  1
6
  7
SLDTEXTSTYLE0
 73
     1
 44
1.0
  0
MTEXT
  5
A3
330
1F
100
AcDbEntity
  8
FORMAT
100
AcDbMText
 10
829.9767730496
 20
350.2056938402
 30
0.0
 40
2.6458333333
 41
0.0
 71
     1
 72
     1
  1
5
  7
SLDTEXTSTYLE0
 73
     1
 44
1.0
  0
MTEXT
  5
A4
330
1F
100
AcDbEntity
  8
FORMAT
100
AcDbMText
 10
829.9767730496
 20
401.8456938402
 30
0.0
 40
2.6458333333
 41
0.0
 71
     1
 72
     1
  1
4
  7
SLDTEXTSTYLE0
 73
     1
 44
1.0
  0
MTEXT
  5
A5
330
1F
100
AcDbEntity
  8
FORMAT
100
AcDbMText
 10
829.9767730496
 20
453.4856938402
 30
0.0
 40
2.6458333333
 41
0.0
 71
     1
 72
     1
  1
3
  7
SLDTEXTSTYLE0
 73
     1
 44
1.0
  0
MTEXT
  5
A6
330
1F
100
AcDbEntity
  8
FORMAT
100
AcDbMText
 10
829.9767730496
 20
505.1256938402
 30
0.0
 40
2.6458333333
 41
0.0
 71
     1
 72
     1
  1
2
  7
SLDTEXTSTYLE0
 73
     1
 44
1.0
  0
MTEXT
  5
A7
330
1F
100
AcDbEntity
  8
FORMAT
100
AcDbMText
 10
829.9767730496
 20
556.7656938402
 30
0.0
 40
2.6458333333
 41
0.0
 71
     1
 72
     1
  1
1
  7
SLDTEXTSTYLE0
 73
     1
 44
1.0
  0
MTEXT
  5
A8
330
1F
100
AcDbEntity
  8
FORMAT
100
AcDbMText
 10
343.1904191961
 20
584.9423147578
 30
0.0
 40
2.6458333333
 41
0.0
 71
     1
 72
     1
  1
G
  7
SLDTEXTSTYLE0
 73
     1
 44
1.0
  0
MTEXT
  5
A9
330
1F
100
AcDbEntity
  8
FORMAT
100
AcDbMText
 10
445.0704191961
 20
584.9423147578
 30
0.0
 40
2.6458333333
 41
0.0
 71
     1
 72
     1
  1
I
  7
SLDTEXTSTYLE0
 73
     1
 44
1.0
  0
MTEXT
  5
AA
330
1F
100
AcDbEntity
  8
FORMAT
100
AcDbMText
 10
750.7104191961
 20
584.9423147578
 30
0.0
 40
2.6458333333
 41
0.0
 71
     1
 72
     1
  1
O
  7
SLDTEXTSTYLE0
 73
     1
 44
1.0
  0
MTEXT
  5
AB
330
1F
100
AcDbEntity
  8
FORMAT
100
AcDbMText
 10
139.4304191961
 20
584.9423147578
 30
0.0
 40
2.6458333333
 41
0.0
 71
     1
 72
     1
  1
C
  7
SLDTEXTSTYLE0
 73
     1
 44
1.0
  0
MTEXT
  5
AC
330
1F
100
AcDbEntity
  8
FORMAT
100
AcDbMText
 10
801.6504191961
 20
584.9423147578
 30
0.0
 40
2.6458333333
 41
0.0
 71
     1
 72
     1
  1
P
  7
SLDTEXTSTYLE0
 73
     1
 44
1.0
  0
MTEXT
  5
AD
330
1F
100
AcDbEntity
  8
FORMAT
100
AcDbMText
 10
241.3104191961
 20
584.9423147578
 30
0.0
 40
2.6458333333
 41
0.0
 71
     1
 72
     1
  1
E
  7
SLDTEXTSTYLE0
 73
     1
 44
1.0
  0
MTEXT
  5
AE
330
1F
100
AcDbEntity
  8
FORMAT
100
AcDbMText
 10
546.9504191961
 20
584.9423147578
 30
0.0
 40
2.6458333333
 41
0.0
 71
     1
 72
     1
  1
K
  7
SLDTEXTSTYLE0
 73
     1
 44
1.0
  0
MTEXT
  5
AF
330
1F
100
AcDbEntity
  8
FORMAT
100
AcDbMText
 10
648.8304191961
 20
584.9423147578
 30
0.0
 40
2.6458333333
 41
0.0
 71
     1
 72
     1
  1
M
  7
SLDTEXTSTYLE0
 73
     1
 44
1.0
  0
MTEXT
  5
B0
330
1F
100
AcDbEntity
  8
FORMAT
100
AcDbMText
 10
37.5504191961
 20
584.9423147578
 30
0.0
 40
2.6458333333
 41
0.0
 71
     1
 72
     1
  1
A
  7
SLDTEXTSTYLE0
 73
     1
 44
1.0
  0
MTEXT
  5
B1
330
1F
100
AcDbEntity
  8
FORMAT
100
AcDbMText
 10
88.4904191961
 20
584.9423147578
 30
0.0
 40
2.6458333333
 41
0.0
 71
     1
 72
     1
  1
B
  7
SLDTEXTSTYLE0
 73
     1
 44
1.0
  0
MTEXT
  5
B2
330
1F
100
AcDbEntity
  8
FORMAT
100
AcDbMText
 10
190.3704191961
 20
584.9423147578
 30
0.0
 40
2.6458333333
 41
0.0
 71
     1
 72
     1
  1
D
  7
SLDTEXTSTYLE0
 73
     1
 44
1.0
  0
MTEXT
  5
B3
330
1F
100
AcDbEntity
  8
FORMAT
100
AcDbMText
 10
292.2504191961
 20
584.9423147578
 30
0.0
 40
2.6458333333
 41
0.0
 71
     1
 72
     1
  1
F
  7
SLDTEXTSTYLE0
 73
     1
 44
1.0
  0
MTEXT
  5
B4
330
1F
100
AcDbEntity
  8
FORMAT
100
AcDbMText
 10
394.1304191961
 20
584.9423147578
 30
0.0
 40
2.6458333333
 41
0.0
 71
     1
 72
     1
  1
H
  7
SLDTEXTSTYLE0
 73
     1
 44
1.0
  0
MTEXT
  5
B5
330
1F
100
AcDbEntity
  8
FORMAT
100
AcDbMText
 10
496.0104191961
 20
584.9423147578
 30
0.0
 40
2.6458333333
 41
0.0
 71
     1
 72
     1
  1
J
  7
SLDTEXTSTYLE0
 73
     1
 44
1.0
  0
MTEXT
  5
B6
330
1F
100
AcDbEntity
  8
FORMAT
100
AcDbMText
 10
597.8904191961
 20
584.9423147578
 30
0.0
 40
2.6458333333
 41
0.0
 71
     1
 72
     1
  1
L
  7
SLDTEXTSTYLE0
 73
     1
 44
1.0
  0
MTEXT
  5
B7
330
1F
100
AcDbEntity
  8
FORMAT
100
AcDbMText
 10
699.7704191961
 20
584.9423147578
 30
0.0
 40
2.6458333333
 41
0.0
 71
     1
 72
     1
  1
N
  7
SLDTEXTSTYLE0
 73
     1
 44
1.0
  0
MTEXT
  5
B8
330
1F
100
AcDbEntity
  8
FORMAT
100
AcDbMText
 10
8.9767730496
 20
556.7656938402
 30
0.0
 40
2.6458333333
 41
0.0
 71
     1
 72
     1
  1
1
  7
SLDTEXTSTYLE0
 73
     1
 44
1.0
  0
MTEXT
  5
B9
330
1F
100
AcDbEntity
  8
FORMAT
100
AcDbMText
 10
7.9767730496
 20
92.0056938402
 30
0.0
 40
2.6458333333
 41
0.0
 71
     1
 72
     1
  1
10
  7
SLDTEXTSTYLE0
 73
     1
 44
1.0
  0
MTEXT
  5
BA
330
1F
100
AcDbEntity
  8
FORMAT
100
AcDbMText
 10
8.9767730496
 20
401.8456938402
 30
0.0
 40
2.6458333333
 41
0.0
 71
     1
 72
     1
  1
4
  7
SLDTEXTSTYLE0
 73
     1
 44
1.0
  0
MTEXT
  5
BB
330
1F
100
AcDbEntity
  8
FORMAT
100
AcDbMText
 10
8.9767730496
 20
246.9256938402
 30
0.0
 40
2.6458333333
 41
0.0
 71
     1
 72
     1
  1
7
  7
SLDTEXTSTYLE0
 73
     1
 44
1.0
  0
MTEXT
  5
BC
330
1F
100
AcDbEntity
  8
FORMAT
100
AcDbMText
 10
8.9767730496
 20
505.1256938402
 30
0.0
 40
2.6458333333
 41
0.0
 71
     1
 72
     1
  1
2
  7
SLDTEXTSTYLE0
 73
     1
 44
1.0
  0
MTEXT
  5
BD
330
1F
100
AcDbEntity
  8
FORMAT
100
AcDbMText
 10
7.9767730496
 20
40.3656938402
 30
0.0
 40
2.6458333333
 41
0.0
 71
     1
 72
     1
  1
11
  7
SLDTEXTSTYLE0
 73
     1
 44
1.0
  0
MTEXT
  5
BE
330
1F
100
AcDbEntity
  8
FORMAT
100
AcDbMText
 10
8.9767730496
 20
195.2856938402
 30
0.0
 40
2.6458333333
 41
0.0
 71
     1
 72
     1
  1
8
  7
SLDTEXTSTYLE0
 73
     1
 44
1.0
  0
MTEXT
  5
BF
330
1F
100
AcDbEntity
  8
FORMAT
100
AcDbMText
 10
8.9767730496
 20
350.2056938402
 30
0.0
 40
2.6458333333
 41
0.0
 71
     1
 72
     1
  1
5
  7
SLDTEXTSTYLE0
 73
     1
 44
1.0
  0
MTEXT
  5
C0
330
1F
100
AcDbEntity
  8
FORMAT
100
AcDbMText
 10
8.9767730496
 20
143.6456938402
 30
0.0
 40
2.6458333333
 41
0.0
 71
     1
 72
     1
  1
9
  7
SLDTEXTSTYLE0
 73
     1
 44
1.0
  0
MTEXT
  5
C1
330
1F
100
AcDbEntity
  8
FORMAT
100
AcDbMText
 10
8.9767730496
 20
296.5656938402
 30
0.0
 40
2.6458333333
 41
0.0
 71
     1
 72
     1
  1
6
  7
SLDTEXTSTYLE0
 73
     1
 44
1.0
  0
MTEXT
  5
C2
330
1F
100
AcDbEntity
  8
FORMAT
100
AcDbMText
 10
8.9767730496
 20
453.4856938402
 30
0.0
 40
2.6458333333
 41
0.0
 71
     1
 72
     1
  1
3
  7
SLDTEXTSTYLE0
 73
     1
 44
1.0
  0
LINE
  5
C3
330
1F
100
AcDbEntity
  8
0
  6
Continuous
 62
     7
370
    15
100
AcDbLine
 10
397.0884233492
 20
402.4726536436
 30
0.0
 11
386.4217549341
 21
402.4726536436
 31
0.0
  0
LINE
  5
C4
330
1F
100
AcDbEntity
  8
0
  6
Continuous
 62
     7
370
    15
100
AcDbLine
 10
393.088425177
 20
279.1393187209
 30
0.0
 11
397.0884233492
 21
279.1393187209
 31
0.0
  0
LINE
  5
C5
330
1F
100
AcDbEntity
  8
0
  6
Continuous
 62
     7
370
    15
100
AcDbLine
 10
221.0884243028
 20
279.1393187209
 30
0.0
 11
225.088422475
 21
279.1393187209
 31
0.0
  0
LINE
  5
C6
330
1F
100
AcDbEntity
  8
0
  6
Continuous
 62
     7
370
    15
100
AcDbLine
 10
231.7550927179
 20
402.4726536436
 30
0.0
 11
221.0884243028
 21
402.4726536436
 31
0.0
  0
LINE
  5
C7
330
1F
100
AcDbEntity
  8
0
  6
Continuous
 62
     7
370
    15
100
AcDbLine
 10
339.4217565434
 20
424.3304219408
 30
0.0
 11
339.4217565434
 21
437.4726500674
 31
0.0
  0
LINE
  5
C8
330
1F
100
AcDbEntity
  8
0
  6
Continuous
 62
     7
370
    15
100
AcDbLine
 10
322.0884240942
 20
437.4726500674
 30
0.0
 11
322.0884240942
 21
428.9841340545
 31
0.0
  0
LINE
  5
C9
330
1F
100
AcDbEntity
  8
0
  6
Continuous
 62
     7
370
    15
100
AcDbLine
 10
296.0884235578
 20
428.9840446476
 30
0.0
 11
296.0884235578
 21
437.4726500674
 31
0.0
  0
LINE
  5
CA
330
1F
100
AcDbEntity
  8
0
  6
Continuous
 62
     7
370
    15
100
AcDbLine
 10
278.7550911086
 20
437.4726500674
 30
0.0
 11
278.7550911086
 21
424.3313458128
 31
0.0
  0
LINE
  5
CB
330
1F
100
AcDbEntity
  8
0
  6
Continuous
 62
     7
370
    15
100
AcDbLine
 10
292.0271580196
 20
397.472653445
 30
0.0
 11
293.7372065859
 21
409.6402810577
 31
0.0
  0
LINE
  5
CC
330
1F
100
AcDbEntity
  8
0
  6
Continuous
 62
     7
370
    15
100
AcDbLine
 10
324.4396410661
 20
409.6402810577
 30
0.0
 11
326.1496896324
 21
397.472653445
 31
0.0
  0
LINE
  5
CD
330
1F
100
AcDbEntity
  8
0
  6
Continuous
 62
     7
370
    15
100
AcDbLine
 10
397.0884233492
 20
299.4726535244
 30
0.0
 11
399.0884274023
 21
301.4726526105
 31
0.0
  0
LINE
  5
CE
330
1F
100
AcDbEntity
  8
0
  6
Continuous
 62
     7
370
    15
100
AcDbLine
 10
399.0884274023
 20
380.139319754
 30
0.0
 11
397.0884233492
 21
382.1393188401
 31
0.0
  0
LINE
  5
CF
330
1F
100
AcDbEntity
  8
0
  6
Continuous
 62
     7
370
    15
100
AcDbLine
 10
221.0884243028
 20
382.1393188401
 30
0.0
 11
219.0884202497
 21
380.139319754
 31
0.0
  0
LINE
  5
D0
330
1F
100
AcDbEntity
  8
0
  6
Continuous
 62
     7
370
    15
100
AcDbLine
 10
219.0884202497
 20
301.4726526105
 30
0.0
 11
221.0884243028
 21
299.4726535244
 31
0.0
  0
LINE
  5
D1
330
1F
100
AcDbEntity
  8
0
  6
Continuous
 62
     7
370
    15
100
AcDbLine
 10
275.755089996
 20
417.4726542397
 30
0.0
 11
276.1655052281
 21
414.5523942077
 31
0.0
  0
LINE
  5
D2
330
1F
100
AcDbEntity
  8
0
  6
Continuous
 62
     7
370
    15
100
AcDbLine
 10
342.0113424239
 20
414.5523942077
 30
0.0
 11
342.421757656
 21
417.4726542397
 31
0.0
  0
SPLINE
  5
D3
330
1F
100
AcDbEntity
  8
0
  6
Continuous
 62
     7
370
    15
100
AcDbSpline
210
0.0
220
0.0
230
1.0
 70
     8
 71
     3
 72
    39
 73
    35
 74
     0
 42
0.00000001
 43
0.00000001
 12
1.0
 22
0.0
 32
0.0
 13
1.0
 23
0.0
 33
0.0
 40
0.0
 40
0.0
 40
0.0
 40
0.0
 40
0.0655251493946204
 40
0.1283066493795295
 40
0.1883449579990567
 40
0.2456400722741206
 40
0.3001915401185562
 40
0.3510986213331558
 40
0.3993590520442944
 40
0.4449732843381289
 40
0.4879491155117071
 40
0.5111950374958761
 40
0.5335833155852586
 40
0.5551105363730123
 40
0.5757727764744348
 40
0.5955699004950669
 40
0.6144830628819794
 40
0.6324544995763645
 40
0.6495336586196453
 40
0.668161932929991
 40
0.6867025002653576
 40
0.7053311280272883
 40
0.7239723263768219
 40
0.7425658188403679
 40
0.7611187987719655
 40
0.7796377994782734
 40
0.8119825910742297
 40
0.8442807719349711
 40
0.8765659089439488
 40
0.9088729554317142
 40
0.9347593451317807
 40
0.9607008762646936
 40
0.986711178878011
 40
1.0
 40
1.0
 40
1.0
 40
1.0
 10
288.4217574970892
 20
458.8059868975028
 30
0.0
 10
288.4092801333142
 20
458.3295073703853
 30
0.0
 10
288.3848478541993
 20
457.3964993240517
 30
0.0
 10
288.3489851282751
 20
456.0269103813212
 30
0.0
 10
288.3146873080584
 20
454.7171678784961
 30
0.0
 10
288.2819564454288
 20
453.4672717548325
 30
0.0
 10
288.2509741063465
 20
452.2837749244147
 30
0.0
 10
288.2216686159292
 20
451.1659769182417
 30
0.0
 10
288.194226422777
 20
450.1131631604561
 30
0.0
 10
288.1677268204638
 20
449.1180395531921
 30
0.0
 10
288.1477381660277
 20
448.3047634593731
 30
0.0
 10
288.1355434335883
 20
447.6603119324558
 30
0.0
 10
288.1253923858994
 20
447.1718691805055
 30
0.0
 10
288.1135207001242
 20
446.702273322149
 30
0.0
 10
288.0991339228269
 20
446.2515685890562
 30
0.0
 10
288.0802988942982
 20
445.8201683243363
 30
0.0
 10
288.0607506187196
 20
445.4080327087489
 30
0.0
 10
288.0017504693556
 20
445.0191698622272
 30
0.0
 10
287.9056477667656
 20
444.6400963780407
 30
0.0
 10
287.7704539023769
 20
444.2687467530436
 30
0.0
 10
287.5952336124705
 20
443.9015112158365
 30
0.0
 10
287.3752078006615
 20
443.5598070826464
 30
0.0
 10
287.1558913787368
 20
443.2177767689855
 30
0.0
 10
286.9533277055384
 20
442.8659369860614
 30
0.0
 10
286.7638213742646
 20
442.5080160467052
 30
0.0
 10
286.5448765009394
 20
442.0528720909568
 30
0.0
 10
286.3110792401956
 20
441.4944323720158
 30
0.0
 10
286.0822373589017
 20
440.8269907098844
 30
0.0
 10
285.8980375717115
 20
440.1461662074929
 30
0.0
 10
285.7682764979217
 20
439.5004008760551
 30
0.0
 10
285.6839414525463
 20
438.8939874214004
 30
0.0
 10
285.6345514780385
 20
438.3295789096941
 30
0.0
 10
285.6221591664247
 20
437.8550410198874
 30
0.0
 10
285.6146726142522
 20
437.5692791518533
 30
0.0
 10
285.6121410704623
 20
437.4726500673636
 30
0.0
  0
SPLINE
  5
D4
330
1F
100
AcDbEntity
  8
0
  6
Continuous
 62
     7
370
    15
100
AcDbSpline
210
0.0
220
0.0
230
1.0
 70
     8
 71
     3
 72
    46
 73
    42
 74
     0
 42
0.00000001
 43
0.00000001
 12
1.0
 22
0.0
 32
0.0
 13
1.0
 23
0.0
 33
0.0
 40
0.0
 40
0.0
 40
0.0
 40
0.0
 40
0.0099697982108799
 40
0.0399964688405497
 40
0.068474938396664
 40
0.0954353084297679
 40
0.1209077150884969
 40
0.1449162770242629
 40
0.1674769847786359
 40
0.1926689511509142
 40
0.2165429193498955
 40
0.2395153721163218
 40
0.2615946033030072
 40
0.2827870045398966
 40
0.2997720407033949
 40
0.3160569220205864
 40
0.3316279856393359
 40
0.3465197960406918
 40
0.3607595111272266
 40
0.3743700993265166
 40
0.3841761268352335
 40
0.3938373251717683
 40
0.404798490073025
 40
0.417341720540241
 40
0.4314671367811002
 40
0.4471766725840183
 40
0.4644703168679452
 40
0.4833482595674256
 40
0.5098199159789345
 40
0.5388740087881307
 40
0.5705059771417778
 40
0.6047240441853153
 40
0.6415285935951911
 40
0.6809191703168638
 40
0.7228962279153491
 40
0.7636469835244649
 40
0.806571204015298
 40
0.8516684328438049
 40
0.8989391280435294
 40
0.9483828315809064
 40
1.0
 40
1.0
 40
1.0
 40
1.0
 10
332.5647065815301
 20
437.4726500673636
 30
0.0
 10
332.5627890176647
 20
437.5451464639162
 30
0.0
 10
332.5550962056571
 20
437.8359848344064
 30
0.0
 10
332.5434546304374
 20
438.3341320925486
 30
0.0
 10
332.4867387530244
 20
438.953713713439
 30
0.0
 10
332.4011178310852
 20
439.536290680661
 30
0.0
 10
332.2905308624927
 20
440.0815159080632
 30
0.0
 10
332.160527102789
 20
440.5894078689059
 30
0.0
 10
332.0070724814668
 20
441.0885485595057
 30
0.0
 10
331.8297653731158
 20
441.578747003296
 30
0.0
 10
331.6268748508754
 20
442.06212258524
 30
0.0
 10
331.4110319390815
 20
442.5149119158814
 30
0.0
 10
331.1830397619186
 20
442.9395592795981
 30
0.0
 10
330.9611559357421
 20
443.3178892347351
 30
0.0
 10
330.7401773933081
 20
443.6467672285981
 30
0.0
 10
330.557707404331
 20
443.9520747212414
 30
0.0
 10
330.4122386037323
 20
444.2600054648773
 30
0.0
 10
330.2976302905449
 20
444.5646771694738
 30
0.0
 10
330.2120832442963
 20
444.8639516343295
 30
0.0
 10
330.1574507935176
 20
445.1326408264581
 30
0.0
 10
330.1248061997389
 20
445.3711701297215
 30
0.0
 10
330.1076001758183
 20
445.5919284545641
 30
0.0
 10
330.0960845307781
 20
445.8329135077032
 30
0.0
 10
330.0838112663797
 20
446.1063725613803
 30
0.0
 10
330.072479945847
 20
446.4144420040671
 30
0.0
 10
330.0619512782378
 20
446.7571126437792
 30
0.0
 10
330.0524267759722
 20
447.1343963797491
 30
0.0
 10
330.0426830614885
 20
447.5899828463525
 30
0.0
 10
330.0323612097725
 20
448.1311240869009
 30
0.0
 10
330.0186178721583
 20
448.7649950339938
 30
0.0
 10
329.9997736423472
 20
449.4551069865953
 30
0.0
 10
329.9804584773076
 20
450.2016040906211
 30
0.0
 10
329.9593636277917
 20
451.0045133710175
 30
0.0
 10
329.9368804407799
 20
451.8638472631762
 30
0.0
 10
329.9136212901583
 20
452.7518768739783
 30
0.0
 10
329.8896961380258
 20
453.6656028713226
 30
0.0
 10
329.865174241833
 20
454.6020183007587
 30
0.0
 10
329.8394135390769
 20
455.5858459902917
 30
0.0
 10
329.812408031557
 20
456.6170824617801
 30
0.0
 10
329.7841633440192
 20
457.6957311843951
 30
0.0
 10
329.7649191761258
 20
458.4306332710692
 30
0.0
 10
329.7550901549032
 20
458.8059868975028
 30
0.0
  0
LINE
  5
D5
330
1F
100
AcDbEntity
  8
0
  6
Continuous
 62
     7
370
    15
100
AcDbLine
 10
342.421757656
 20
417.4726542397
 30
0.0
 11
342.421757656
 21
423.4726514979
 31
0.0
  0
LINE
  5
D6
330
1F
100
AcDbEntity
  8
0
  6
Continuous
 62
     7
370
    15
100
AcDbLine
 10
275.755089996
 20
423.4726514979
 30
0.0
 11
275.755089996
 21
417.4726542397
 31
0.0
  0
LINE
  5
D7
330
1F
100
AcDbEntity
  8
0
  6
Continuous
 62
     7
370
    15
100
AcDbLine
 10
278.7550911086
 20
425.2047028704
 30
0.0
 11
275.755089996
 21
423.4726514979
 31
0.0
  0
LINE
  5
D8
330
1F
100
AcDbEntity
  8
0
  6
Continuous
 62
     7
370
    15
100
AcDbLine
 10
342.421757656
 20
423.4726514979
 30
0.0
 11
339.4217565434
 21
425.2047028704
 31
0.0
  0
ARC
  5
D9
330
1F
100
AcDbEntity
  8
0
  6
Continuous
 62
     7
370
    15
100
AcDbCircle
 10
280.126578211
 20
415.1090876334
 30
0.0
 40
4.000000000000063
100
AcDbArc
 50
188.0
 51
255.0
  0
ARC
  5
DA
330
1F
100
AcDbEntity
  8
0
  6
Continuous
 62
     7
370
    15
100
AcDbCircle
 10
338.050269441
 20
415.1090876334
 30
0.0
 40
4.000000000000063
100
AcDbArc
 50
285.0
 51
352.0
  0
LINE
  5
DB
330
1F
100
AcDbEntity
  8
0
  6
Continuous
 62
     7
370
    15
100
AcDbLine
 10
279.0913010415
 20
411.245384471
 30
0.0
 11
280.4211377876
 21
410.8890579704
 31
0.0
  0
LINE
  5
DC
330
1F
100
AcDbEntity
  8
0
  6
Continuous
 62
     7
370
    15
100
AcDbLine
 10
337.7557098644
 20
410.8890579704
 30
0.0
 11
339.0855466105
 21
411.245384471
 31
0.0
  0
ARC
  5
DD
330
1F
100
AcDbEntity
  8
0
  6
Continuous
 62
     7
370
    15
100
AcDbCircle
 10
329.7550904927
 20
462.8059861822
 30
0.0
 40
4.0
100
AcDbArc
 50
190.0
 51
270.0
  0
ARC
  5
DE
330
1F
100
AcDbEntity
  8
0
  6
Continuous
 62
     7
370
    15
100
AcDbCircle
 10
288.4217571593
 20
462.8059861822
 30
0.0
 40
4.0
100
AcDbArc
 50
270.0
 51
350.0
  0
LINE
  5
DF
330
1F
100
AcDbEntity
  8
0
  6
Continuous
 62
     7
370
    15
100
AcDbLine
 10
293.4269122558
 20
468.1565450195
 30
0.0
 11
292.3609887339
 21
462.1113922758
 31
0.0
  0
LINE
  5
E0
330
1F
100
AcDbEntity
  8
0
  6
Continuous
 62
     7
370
    15
100
AcDbLine
 10
325.8158589181
 20
462.1113922758
 30
0.0
 11
324.7499353962
 21
468.1565450195
 31
0.0
  0
LINE
  5
E1
330
1F
100
AcDbEntity
  8
0
  6
Continuous
 62
     7
370
    15
100
AcDbLine
 10
324.7499353962
 20
468.1565450195
 30
0.0
 11
323.8420486229
 21
485.4800687793
 31
0.0
  0
LINE
  5
E2
330
1F
100
AcDbEntity
  8
0
  6
Continuous
 62
     7
370
    15
100
AcDbLine
 10
294.3347990291
 20
485.4800687793
 30
0.0
 11
293.4269122558
 21
468.1565450195
 31
0.0
  0
ARC
  5
E3
330
1F
100
AcDbEntity
  8
0
  6
Continuous
 62
     7
370
    15
100
AcDbCircle
 10
321.8447890092
 20
485.3753980184
 30
0.0
 40
1.999999999999995
100
AcDbArc
 50
3.0
 51
68.3082071757
  0
ARC
  5
E4
330
1F
100
AcDbEntity
  8
0
  6
Continuous
 62
     7
370
    15
100
AcDbCircle
 10
296.3320586428
 20
485.3753980184
 30
0.0
 40
1.999999999999995
100
AcDbArc
 50
111.6917928243
 51
177.0
  0
ARC
  5
E5
330
1F
100
AcDbEntity
  8
0
  6
Continuous
 62
     7
370
    15
100
AcDbCircle
 10
323.323243659
 20
489.0921401198
 30
0.0
 40
1.999999999999996
100
AcDbArc
 50
190.0
 51
248.3082071757
  0
ARC
  5
E6
330
1F
100
AcDbEntity
  8
0
  6
Continuous
 62
     7
370
    15
100
AcDbCircle
 10
294.853603993
 20
489.0921401198
 30
0.0
 40
1.999999999999996
100
AcDbArc
 50
291.6917928243
 51
350.0
  0
LINE
  5
E7
330
1F
100
AcDbEntity
  8
0
  6
Continuous
 62
     7
370
    15
100
AcDbLine
 10
321.3536279675
 20
488.7448436582
 30
0.0
 11
320.7550905423
 21
492.139318244
 31
0.0
  0
LINE
  5
E8
330
1F
100
AcDbEntity
  8
0
  6
Continuous
 62
     7
370
    15
100
AcDbLine
 10
297.4217571097
 20
492.139318244
 30
0.0
 11
296.8232196845
 21
488.7448436582
 31
0.0
  0
LINE
  5
E9
330
1F
100
AcDbEntity
  8
0
  6
Continuous
 62
     7
370
    15
100
AcDbLine
 10
316.9033359515
 20
492.139318244
 30
0.0
 11
316.5217569497
 21
493.1393153035
 31
0.0
  0
LINE
  5
EA
330
1F
100
AcDbEntity
  8
0
  6
Continuous
 62
     7
370
    15
100
AcDbLine
 10
301.6550907023
 20
493.1393153035
 30
0.0
 11
301.2735117005
 21
492.139318244
 31
0.0
  0
LINE
  5
EB
330
1F
100
AcDbEntity
  8
0
  6
Continuous
 62
     7
370
    15
100
AcDbLine
 10
301.7550905324
 20
498.1289691293
 30
0.0
 11
301.7550905324
 21
493.1393153035
 31
0.0
  0
LINE
  5
EC
330
1F
100
AcDbEntity
  8
0
  6
Continuous
 62
     7
370
    15
100
AcDbLine
 10
316.4217571196
 20
493.1393153035
 30
0.0
 11
316.4217571196
 21
498.1289691293
 31
0.0
  0
LINE
  5
ED
330
1F
100
AcDbEntity
  8
0
  6
Continuous
 62
     7
370
    15
100
AcDbLine
 10
393.088425177
 20
287.7783116265
 30
0.0
 11
386.4217549341
 21
287.7783116265
 31
0.0
  0
LINE
  5
EE
330
1F
100
AcDbEntity
  8
0
  6
Continuous
 62
     7
370
    15
100
AcDbLine
 10
386.4217549341
 20
402.4726536436
 30
0.0
 11
386.4217549341
 21
287.7783116265
 31
0.0
  0
LINE
  5
EF
330
1F
100
AcDbEntity
  8
0
  6
Continuous
 62
     7
370
    15
100
AcDbLine
 10
397.0884233492
 20
402.4726536436
 30
0.0
 11
397.0884233492
 21
279.1393187209
 31
0.0
  0
LINE
  5
F0
330
1F
100
AcDbEntity
  8
0
  6
Continuous
 62
     7
370
    15
100
AcDbLine
 10
225.088422475
 20
287.7783116265
 30
0.0
 11
231.7550927179
 21
287.7783116265
 31
0.0
  0
LINE
  5
F1
330
1F
100
AcDbEntity
  8
0
  6
Continuous
 62
     7
370
    15
100
AcDbLine
 10
231.7550927179
 20
402.4726536436
 30
0.0
 11
231.7550927179
 21
287.7783116265
 31
0.0
  0
LINE
  5
F2
330
1F
100
AcDbEntity
  8
0
  6
Continuous
 62
     7
370
    15
100
AcDbLine
 10
221.0884243028
 20
402.4726536436
 30
0.0
 11
221.0884243028
 21
279.1393187209
 31
0.0
  0
LINE
  5
F3
330
1F
100
AcDbEntity
  8
0
  6
Continuous
 62
     7
370
    15
100
AcDbLine
 10
331.4801454323
 20
417.4726542397
 30
0.0
 11
309.088423826
 21
417.4726542397
 31
0.0
  0
LINE
  5
F4
330
1F
100
AcDbEntity
  8
0
  6
Continuous
 62
     7
370
    15
100
AcDbLine
 10
309.088423826
 20
417.4726542397
 30
0.0
 11
286.6967022197
 21
417.4726542397
 31
0.0
  0
LINE
  5
F5
330
1F
100
AcDbEntity
  8
0
  6
Continuous
 62
     7
370
    15
100
AcDbLine
 10
329.4054530339
 20
423.4726514979
 30
0.0
 11
329.4054530339
 21
437.4726500674
 31
0.0
  0
LINE
  5
F6
330
1F
100
AcDbEntity
  8
0
  6
Continuous
 62
     7
370
    15
100
AcDbLine
 10
334.4067086555
 20
437.4726500674
 30
0.0
 11
329.4054530339
 21
437.4726500674
 31
0.0
  0
LINE
  5
F7
330
1F
100
AcDbEntity
  8
0
  6
Continuous
 62
     7
370
    15
100
AcDbLine
 10
334.4067086555
 20
417.4726542397
 30
0.0
 11
333.2629278081
 21
417.4726542397
 31
0.0
  0
LINE
  5
F8
330
1F
100
AcDbEntity
  8
0
  6
Continuous
 62
     7
370
    15
100
AcDbLine
 10
284.9139198439
 20
417.4726542397
 30
0.0
 11
283.7701389965
 21
417.4726542397
 31
0.0
  0
LINE
  5
F9
330
1F
100
AcDbEntity
  8
0
  6
Continuous
 62
     7
370
    15
100
AcDbLine
 10
288.7713946181
 20
437.4726500674
 30
0.0
 11
283.7701389965
 21
437.4726500674
 31
0.0
  0
LINE
  5
FA
330
1F
100
AcDbEntity
  8
0
  6
Continuous
 62
     7
370
    15
100
AcDbLine
 10
288.7713946181
 20
437.4726500674
 30
0.0
 11
288.7713946181
 21
423.4726514979
 31
0.0
  0
LINE
  5
FB
330
1F
100
AcDbEntity
  8
0
  6
Continuous
 62
     7
370
    15
100
AcDbLine
 10
329.4054530339
 20
423.4726514979
 30
0.0
 11
288.7713946181
 21
423.4726514979
 31
0.0
  0
SPLINE
  5
FC
330
1F
100
AcDbEntity
  8
0
  6
Continuous
 62
     7
370
    15
100
AcDbSpline
210
0.0
220
0.0
230
1.0
 70
     8
 71
     3
 72
    33
 73
    29
 74
     0
 42
0.00000001
 43
0.00000001
 12
1.0
 22
0.0
 32
0.0
 13
1.0
 23
0.0
 33
0.0
 40
0.0
 40
0.0
 40
0.0
 40
0.0
 40
0.0266737585113667
 40
0.0533475984955188
 40
0.0802305989759658
 40
0.1071138810011099
 40
0.1346309880921411
 40
0.1621483896874917
 40
0.1898716989164921
 40
0.2175948702282282
 40
0.2709313092159991
 40
0.3245996393050984
 40
0.3792541175802667
 40
0.4342251125568846
 40
0.4924995672150851
 40
0.5511153375547468
 40
0.6107516147985471
 40
0.6707190947051667
 40
0.7033282835775847
 40
0.7359376327256604
 40
0.7687476068492692
 40
0.8015572679315235
 40
0.8349833362967624
 40
0.8684092085676128
 40
0.9020426375357625
 40
0.9356759061122133
 40
0.9755041771804525
 40
1.0
 40
1.0
 40
1.0
 40
1.0
 10
329.4054530339411
 20
423.4726514978751
 30
0.0
 10
329.2891848744073
 20
423.4954479286264
 30
0.0
 10
329.0566482002085
 20
423.5410408597588
 30
0.0
 10
328.7121190334928
 20
423.6184362001841
 30
0.0
 10
328.3713215666247
 20
423.7022678724527
 30
0.0
 10
328.0325735868861
 20
423.7937419836963
 30
0.0
 10
327.6974020432875
 20
423.8924093521964
 30
0.0
 10
327.3657202381094
 20
423.99847182811
 30
0.0
 10
327.0407074965305
 20
424.1109767414588
 30
0.0
 10
326.6250345263285
 20
424.2662167103029
 30
0.0
 10
326.1301119416783
 20
424.4719661943194
 30
0.0
 10
325.5708492173371
 20
424.7380355385773
 30
0.0
 10
325.0435160194309
 20
425.0244662339499
 30
0.0
 10
324.542454346213
 20
425.3353263862576
 30
0.0
 10
324.0747083521687
 20
425.6687284208903
 30
0.0
 10
323.6436224176338
 20
426.0250224597829
 30
0.0
 10
323.2599752582707
 20
426.3966931191429
 30
0.0
 10
322.9776217767687
 20
426.7226639997991
 30
0.0
 10
322.7747136714544
 20
426.9949580008615
 30
0.0
 10
322.6320280596752
 20
427.2102151903137
 30
0.0
 10
322.5054704300263
 20
427.4276455279638
 30
0.0
 10
322.3945136380233
 20
427.6482748810116
 30
0.0
 10
322.2998785987966
 20
427.8713852527135
 30
0.0
 10
322.2218905335561
 20
428.097111327124
 30
0.0
 10
322.1610841403329
 20
428.3237570451361
 30
0.0
 10
322.1160824078971
 20
428.5648573737309
 30
0.0
 10
322.090492070599
 20
428.7853036055217
 30
0.0
 10
322.0911500356999
 20
428.9292982065558
 30
0.0
 10
322.0914006011656
 20
428.9841340545361
 30
0.0
  0
SPLINE
  5
FD
330
1F
100
AcDbEntity
  8
0
  6
Continuous
 62
     7
370
    15
100
AcDbSpline
210
0.0
220
0.0
230
1.0
 70
     8
 71
     3
 72
    29
 73
    25
 74
     0
 42
0.00000001
 43
0.00000001
 12
1.0
 22
0.0
 32
0.0
 13
1.0
 23
0.0
 33
0.0
 40
0.0
 40
0.0
 40
0.0
 40
0.0
 40
0.0222307501117196
 40
0.0676584922894829
 40
0.1130539348272309
 40
0.1596614301866327
 40
0.2063038427586557
 40
0.2529107147017628
 40
0.3000990562548271
 40
0.3473252758297425
 40
0.3945109408351086
 40
0.4432262874795971
 40
0.4919867046610681
 40
0.5406973082379617
 40
0.5852225079629296
 40
0.6297866194848452
 40
0.6743072594294808
 40
0.7205113942814905
 40
0.7667664287690406
 40
0.8129639915855207
 40
0.8591968397087619
 40
0.9054275313243999
 40
0.9527147649427377
 40
1.0
 40
1.0
 40
1.0
 40
1.0
 10
296.0843269802104
 20
428.9840446475689
 30
0.0
 10
296.0851346875905
 20
428.934312653488
 30
0.0
 10
296.0875929160927
 20
428.7829551094936
 30
0.0
 10
296.0565222507881
 20
428.5284389684641
 30
0.0
 10
295.9927012632006
 20
428.2189892012532
 30
0.0
 10
295.8931702472903
 20
427.9071903793667
 30
0.0
 10
295.7595458299604
 20
427.5940863726892
 30
0.0
 10
295.5915998561395
 20
427.2820016519814
 30
0.0
 10
295.3890147305439
 20
426.971957795606
 30
0.0
 10
295.1517547044122
 20
426.6649304697705
 30
0.0
 10
294.8780509834091
 20
426.359980751882
 30
0.0
 10
294.5667347021204
 20
426.0583756613873
 30
0.0
 10
294.2173213838221
 20
425.7615259296539
 30
0.0
 10
293.8447032452937
 20
425.4820637747243
 30
0.0
 10
293.4527046772916
 20
425.2203345630342
 30
0.0
 10
293.0454345708354
 20
424.9762871763574
 30
0.0
 10
292.6064233801359
 20
424.7400289677558
 30
0.0
 10
292.1352558750111
 20
424.5133163520676
 30
0.0
 10
291.6325942659535
 20
424.2977739407022
 30
0.0
 10
291.1057137126663
 20
424.097454154068
 30
0.0
 10
290.5566737486652
 20
423.9137049017597
 30
0.0
 10
289.9831797342836
 20
423.7468224528985
 30
0.0
 10
289.3883995211175
 20
423.5967410448579
 30
0.0
 10
288.9770600215172
 20
423.5140140974578
 30
0.0
 10
288.7713946180513
 20
423.4726514978751
 30
0.0
  0
SPLINE
  5
FE
330
1F
100
AcDbEntity
  8
0
  6
Continuous
 62
     7
370
    15
100
AcDbSpline
210
0.0
220
0.0
230
1.0
 70
     8
 71
     3
 72
    35
 73
    31
 74
     0
 42
0.00000001
 43
0.00000001
 12
1.0
 22
0.0
 32
0.0
 13
1.0
 23
0.0
 33
0.0
 40
0.0
 40
0.0
 40
0.0
 40
0.0
 40
0.0386203178096679
 40
0.0801356421878796
 40
0.1216503919612077
 40
0.1631652388410948
 40
0.1634163301563516
 40
0.2048051519400025
 40
0.2461940306504297
 40
0.2889625316501984
 40
0.3317310325309816
 40
0.3737936154673107
 40
0.4158561391421883
 40
0.4579980106774895
 40
0.4999829047479795
 40
0.5425675398200142
 40
0.5851523596864627
 40
0.6176028685887539
 40
0.6500534218090094
 40
0.6825037791317413
 40
0.7149541331753639
 40
0.7150697409260981
 40
0.7474622948873592
 40
0.7798548277627961
 40
0.812885366643279
 40
0.8459158654274199
 40
0.8851085141404941
 40
0.9243011370626745
 40
0.9635984210771267
 40
0.9999999999999999
 40
0.9999999999999999
 40
0.9999999999999999
 40
0.9999999999999999
 10
296.0884235577753
 20
429.6139465335552
 30
0.0
 10
296.4118091730517
 20
429.5782271080004
 30
0.0
 10
297.0828216199771
 20
429.5041107032745
 30
0.0
 10
298.1128065418806
 20
429.4038632192015
 30
0.0
 10
299.1745821329653
 20
429.3102143260368
 30
0.0
 10
299.8896220538472
 20
429.2541965587876
 30
0.0
 10
300.6056573947425
 20
429.2015582577506
 30
0.0
 10
301.3228191710502
 20
429.1521353052913
 30
0.0
 10
302.4128548853968
 20
429.0871331548695
 30
0.0
 10
303.5198980222851
 20
429.0312576119488
 30
0.0
 10
304.6370872504673
 20
428.9851854938001
 30
0.0
 10
305.7514781280127
 20
428.9493545789342
 30
0.0
 10
306.8629003131489
 20
428.9236619170238
 30
0.0
 10
307.9753573665334
 20
428.9080499527275
 30
0.0
 10
309.0933018698724
 20
428.9027386354819
 30
0.0
 10
310.2151544841725
 20
428.9081353624094
 30
0.0
 10
311.2520519095315
 20
428.9228559470358
 30
0.0
 10
312.1982677804953
 20
428.9439860134366
 30
0.0
 10
313.0538707648557
 20
428.9689313782709
 30
0.0
 10
313.907667063224
 20
429.0002750050399
 30
0.0
 10
314.476507530029
 20
429.0238033102539
 30
0.0
 10
315.043878823663
 20
429.0517183618339
 30
0.0
 10
315.6100233355261
 20
429.0791057289156
 30
0.0
 10
316.4602947642942
 20
429.1282325356519
 30
0.0
 10
317.3128075793807
 20
429.1830966263675
 30
0.0
 10
318.2201557495573
 20
429.2483832170291
 30
0.0
 10
319.1755239834782
 20
429.3249338608475
 30
0.0
 10
320.1778115117987
 20
429.4146772250116
 30
0.0
 10
321.1498930314858
 20
429.5101152548319
 30
0.0
 10
321.7836615795948
 20
429.5802167245942
 30
0.0
 10
322.0884240942171
 20
429.6139266653403
 30
0.0
  0
SPLINE
  5
FF
330
1F
100
AcDbEntity
  8
0
  6
Continuous
 62
     7
370
    15
100
AcDbSpline
210
0.0
220
0.0
230
1.0
 70
     8
 71
     3
 72
    24
 73
    20
 74
     0
 42
0.00000001
 43
0.00000001
 12
1.0
 22
0.0
 32
0.0
 13
1.0
 23
0.0
 33
0.0
 40
0.0
 40
0.0
 40
0.0
 40
0.0
 40
0.0567362477817599
 40
0.1136513481802994
 40
0.1974813435671785
 40
0.2818906213991604
 40
0.3249801656928671
 40
0.368147435473779
 40
0.411552207632721
 40
0.455036833977
 40
0.5390261984663939
 40
0.6235994159175486
 40
0.666776206731168
 40
0.7100315561014012
 40
0.7535260844666656
 40
0.7971012618977014
 40
0.8810538172401544
 40
0.9655939855346947
 40
1.0
 40
1.0
 40
1.0
 40
1.0
 10
335.5048522131613
 20
423.4205669724489
 30
0.0
 10
335.6392833588255
 20
423.437209413383
 30
0.0
 10
335.9085694244275
 20
423.4705467580812
 30
0.0
 10
336.3528569389076
 20
423.5293155884651
 30
0.0
 10
336.832234529086
 20
423.596298682595
 30
0.0
 10
337.2464529912206
 20
423.6584708303899
 30
0.0
 10
337.5575879534225
 20
423.7080017547283
 30
0.0
 10
337.7815445127838
 20
423.7452815291479
 30
0.0
 10
337.9932447645573
 20
423.7823469407863
 30
0.0
 10
338.2538005809869
 20
423.8306805548707
 30
0.0
 10
338.5443152689604
 20
423.8902191521501
 30
0.0
 10
338.7888404293474
 20
423.9498857233106
 30
0.0
 10
338.9573282529694
 20
423.9989163942681
 30
0.0
 10
339.070257567859
 20
424.0368397021401
 30
0.0
 10
339.1680895602722
 20
424.0758387210431
 30
0.0
 10
339.2760864620324
 20
424.1285890679864
 30
0.0
 10
339.3713810234346
 20
424.1978663345777
 30
0.0
 10
339.4181299973603
 20
424.2699694992252
 30
0.0
 10
339.4199566155773
 20
424.3168588643496
 30
0.0
 10
339.4204849776597
 20
424.3304219408378
 30
0.0
  0
LINE
  5
100
330
1F
100
AcDbEntity
  8
0
  6
Continuous
 62
     7
370
    15
100
AcDbLine
 10
335.5048522132
 20
437.4726500674
 30
0.0
 11
335.5048522132
 21
423.4205669724
 31
0.0
  0
LINE
  5
101
330
1F
100
AcDbEntity
  8
0
  6
Continuous
 62
     7
370
    15
100
AcDbLine
 10
329.4054530339
 20
437.4726500674
 30
0.0
 11
322.0884240942
 21
437.4726500674
 31
0.0
  0
LINE
  5
102
330
1F
100
AcDbEntity
  8
0
  6
Continuous
 62
     7
370
    15
100
AcDbLine
 10
339.4217565434
 20
437.4726500674
 30
0.0
 11
335.5048522132
 21
437.4726500674
 31
0.0
  0
LINE
  5
103
330
1F
100
AcDbEntity
  8
0
  6
Continuous
 62
     7
370
    15
100
AcDbLine
 10
282.6719954388
 20
423.4205669724
 30
0.0
 11
282.6719954388
 21
437.4726500674
 31
0.0
  0
SPLINE
  5
104
330
1F
100
AcDbEntity
  8
0
  6
Continuous
 62
     7
370
    15
100
AcDbSpline
210
0.0
220
0.0
230
1.0
 70
     8
 71
     3
 72
    26
 73
    22
 74
     0
 42
0.00000001
 43
0.00000001
 12
1.0
 22
0.0
 32
0.0
 13
1.0
 23
0.0
 33
0.0
 40
0.0
 40
0.0
 40
0.0
 40
0.0
 40
0.0595200179767684
 40
0.1021903028731279
 40
0.1448606098935681
 40
0.1878398057485927
 40
0.2308187883872171
 40
0.3142426810421201
 40
0.3982390587743214
 40
0.4411473796704351
 40
0.4840559290053258
 40
0.5272762500780179
 40
0.5704962166836698
 40
0.6544501795788823
 40
0.7389867770927645
 40
0.7821836852382855
 40
0.8253802730335557
 40
0.86889428923371
 40
0.912408398713486
 40
0.9561632593620674
 40
1.0
 40
1.0
 40
1.0
 40
1.0
 10
278.761126078861
 20
424.3313458128318
 30
0.0
 10
278.7613022841935
 20
424.3077421494983
 30
0.0
 10
278.7616048122658
 20
424.267216867636
 30
0.0
 10
278.7971223671614
 20
424.2159578990783
 30
0.0
 10
278.8411761014238
 20
424.1722443968854
 30
0.0
 10
278.9015697918398
 20
424.130474277687
 30
0.0
 10
279.0011206756008
 20
424.0775370293169
 30
0.0
 10
279.1617421053753
 20
424.0149004933875
 30
0.0
 10
279.3699929603237
 20
423.9547364915996
 30
0.0
 10
279.566377994073
 20
423.9068094978949
 30
0.0
 10
279.7298545931213
 20
423.8705532882487
 30
0.0
 10
279.9077832261592
 20
423.8341840383825
 30
0.0
 10
280.1602600301198
 20
423.7861136259687
 30
0.0
 10
280.5063507899933
 20
423.7257556519678
 30
0.0
 10
280.8927490873976
 20
423.6642973214408
 30
0.0
 10
281.2276562969542
 20
423.6140332887063
 30
0.0
 10
281.4935619857285
 20
423.5755965670876
 30
0.0
 10
281.7710221544255
 20
423.5368709579457
 30
0.0
 10
282.0603583652185
 20
423.497976626569
 30
0.0
 10
282.3598190222571
 20
423.4590752634084
 30
0.0
 10
282.5678718045658
 20
423.4334110663367
 30
0.0
 10
282.6719954388311
 20
423.4205669724489
 30
0.0
  0
LINE
  5
105
330
1F
100
AcDbEntity
  8
0
  6
Continuous
 62
     7
370
    15
100
AcDbLine
 10
282.6719954388
 20
437.4726500674
 30
0.0
 11
278.7550911086
 21
437.4726500674
 31
0.0
  0
LINE
  5
106
330
1F
100
AcDbEntity
  8
0
  6
Continuous
 62
     7
370
    15
100
AcDbLine
 10
296.0884235578
 20
437.4726500674
 30
0.0
 11
288.7713946181
 21
437.4726500674
 31
0.0
  0
SPLINE
  5
107
330
1F
100
AcDbEntity
  8
0
  6
Continuous
 62
     7
370
    15
100
AcDbSpline
210
0.0
220
0.0
230
1.0
 70
     8
 71
     3
 72
    14
 73
    10
 74
     0
 42
0.00000001
 43
0.00000001
 12
1.0
 22
0.0
 32
0.0
 13
1.0
 23
0.0
 33
0.0
 40
0.0
 40
0.0
 40
0.0
 40
0.0
 40
0.2500000000000005
 40
0.2500000000000005
 40
0.500000000000001
 40
0.500000000000001
 40
0.7500000000000016
 40
0.7500000000000016
 40
1.0
 40
1.0
 40
1.0
 40
1.0
 10
327.4202763925052
 20
411.2453843282125
 30
0.0
 10
327.674971603623
 20
411.2977923313546
 30
0.0
 10
327.9413476079885
 20
411.3460718364805
 30
0.0
 10
328.4874074265624
 20
411.4328821392651
 30
0.0
 10
328.7685259107028
 20
411.4717133375188
 30
0.0
 10
329.3472656823984
 20
411.5401354103012
 30
0.0
 10
329.6471426459811
 20
411.5698641464126
 30
0.0
 10
330.2477894418482
 20
411.6182021103954
 30
0.0
 10
330.5496195555313
 20
411.637022420423
 30
0.0
 10
330.8529592735615
 20
411.650505100545
 30
0.0
  0
SPLINE
  5
108
330
1F
100
AcDbEntity
  8
0
  6
Continuous
 62
     7
370
    15
100
AcDbSpline
210
0.0
220
0.0
230
1.0
 70
     8
 71
     3
 72
    14
 73
    10
 74
     0
 42
0.00000001
 43
0.00000001
 12
1.0
 22
0.0
 32
0.0
 13
1.0
 23
0.0
 33
0.0
 40
0.0
 40
0.0
 40
0.0
 40
0.0
 40
0.2500000000000005
 40
0.2500000000000005
 40
0.500000000000001
 40
0.500000000000001
 40
0.7500000000000016
 40
0.7500000000000016
 40
1.0
 40
1.0
 40
1.0
 40
1.0
 10
290.7565712594871
 20
411.2453843282125
 30
0.0
 10
290.5018760483694
 20
411.2977923313546
 30
0.0
 10
290.2355000440039
 20
411.3460718364805
 30
0.0
 10
289.68944022543
 20
411.4328821392651
 30
0.0
 10
289.4083217412895
 20
411.4717133375188
 30
0.0
 10
288.829581969594
 20
411.5401354103012
 30
0.0
 10
288.5297050060112
 20
411.5698641464126
 30
0.0
 10
287.9290582101441
 20
411.6182021103954
 30
0.0
 10
287.627228096461
 20
411.637022420423
 30
0.0
 10
287.3238883784308
 20
411.650505100545
 30
0.0
  0
LINE
  5
109
330
1F
100
AcDbEntity
  8
0
  6
Continuous
 62
     7
370
    15
100
AcDbLine
 10
333.2629278081
 20
417.4726542397
 30
0.0
 11
331.4801454323
 21
417.4726542397
 31
0.0
  0
LINE
  5
10A
330
1F
100
AcDbEntity
  8
0
  6
Continuous
 62
     7
370
    15
100
AcDbLine
 10
284.9139198439
 20
417.4726542397
 30
0.0
 11
286.6967022197
 21
417.4726542397
 31
0.0
  0
SPLINE
  5
10B
330
1F
100
AcDbEntity
  8
0
  6
Continuous
 62
     7
370
    15
100
AcDbSpline
210
0.0
220
0.0
230
1.0
 70
     8
 71
     3
 72
    26
 73
    22
 74
     0
 42
0.00000001
 43
0.00000001
 12
1.0
 22
0.0
 32
0.0
 13
1.0
 23
0.0
 33
0.0
 40
0.0
 40
0.0
 40
0.0
 40
0.0
 40
0.1250000000000003
 40
0.1250000000000003
 40
0.2500000000000007
 40
0.2500000000000007
 40
0.375000000000001
 40
0.375000000000001
 40
0.5000000000000013
 40
0.5000000000000013
 40
0.6250000000000017
 40
0.6250000000000017
 40
0.6875000000000011
 40
0.6875000000000011
 40
0.7500000000000007
 40
0.7500000000000007
 40
0.8750000000000003
 40
0.8750000000000003
 40
0.9375000000000001
 40
0.9375000000000001
 40
1.0
 40
1.0
 40
1.0
 40
1.0
 10
331.1655511833787
 20
411.6624744364026
 30
0.0
 10
331.5187000229394
 20
411.6738196824986
 30
0.0
 10
331.871747611352
 20
411.6848320956597
 30
0.0
 10
332.5709916366495
 20
411.706008557888
 30
0.0
 10
332.9097612344362
 20
411.7159500991516
 30
0.0
 10
333.5664023926195
 20
411.7346416035763
 30
0.0
 10
333.8842743689249
 20
411.7433913112606
 30
0.0
 10
334.4982472307973
 20
411.7597054499012
 30
0.0
 10
334.7866842680535
 20
411.7670658541127
 30
0.0
 10
335.3255630424989
 20
411.7802466841305
 30
0.0
 10
335.5764292267983
 20
411.7860780930581
 30
0.0
 10
335.9239018057079
 20
411.7936806381836
 30
0.0
 10
336.0344250925688
 20
411.7960119097838
 30
0.0
 10
336.2419324244569
 20
411.8002143234478
 30
0.0
 10
336.3394019843323
 20
411.8020961846752
 30
0.0
 10
336.6132528892144
 20
411.8070995789083
 30
0.0
 10
336.7711990849989
 20
411.8095835122481
 30
0.0
 10
336.9701634733426
 20
411.8120118432309
 30
0.0
 10
337.0301359145836
 20
411.8126021093169
 30
0.0
 10
337.1351286005211
 20
411.8133254306907
 30
0.0
 10
337.1804773053449
 20
411.8134630667494
 30
0.0
 10
337.218813784606
 20
411.8133810644351
 30
0.0
  0
SPLINE
  5
10C
330
1F
100
AcDbEntity
  8
0
  6
Continuous
 62
     7
370
    15
100
AcDbSpline
210
0.0
220
0.0
230
1.0
 70
     8
 71
     3
 72
    26
 73
    22
 74
     0
 42
0.00000001
 43
0.00000001
 12
1.0
 22
0.0
 32
0.0
 13
1.0
 23
0.0
 33
0.0
 40
0.0
 40
0.0
 40
0.0
 40
0.0
 40
0.1250000000000003
 40
0.1250000000000003
 40
0.2500000000000007
 40
0.2500000000000007
 40
0.375000000000001
 40
0.375000000000001
 40
0.5000000000000013
 40
0.5000000000000013
 40
0.6250000000000017
 40
0.6250000000000017
 40
0.6875000000000011
 40
0.6875000000000011
 40
0.7500000000000007
 40
0.7500000000000007
 40
0.8750000000000003
 40
0.8750000000000003
 40
0.9375000000000001
 40
0.9375000000000001
 40
1.0
 40
1.0
 40
1.0
 40
1.0
 10
287.0112964686136
 20
411.6624744364026
 30
0.0
 10
286.658147629053
 20
411.6738196824986
 30
0.0
 10
286.3051000406404
 20
411.6848320956597
 30
0.0
 10
285.6058560153428
 20
411.706008557888
 30
0.0
 10
285.2670864175561
 20
411.7159500991516
 30
0.0
 10
284.6104452593729
 20
411.7346416035763
 30
0.0
 10
284.2925732830674
 20
411.7433913112606
 30
0.0
 10
283.678600421195
 20
411.7597054499012
 30
0.0
 10
283.3901633839388
 20
411.7670658541127
 30
0.0
 10
282.8512846094935
 20
411.7802466841305
 30
0.0
 10
282.600418425194
 20
411.7860780930581
 30
0.0
 10
282.2529458462845
 20
411.7936806381836
 30
0.0
 10
282.1424225594235
 20
411.7960119097838
 30
0.0
 10
281.9349152275354
 20
411.8002143234478
 30
0.0
 10
281.8374456676601
 20
411.8020961846752
 30
0.0
 10
281.5635947627779
 20
411.8070995789083
 30
0.0
 10
281.4056485669934
 20
411.8095835122481
 30
0.0
 10
281.2066841786497
 20
411.8120118432309
 30
0.0
 10
281.1467117374087
 20
411.8126021093169
 30
0.0
 10
281.0417190514712
 20
411.8133254306907
 30
0.0
 10
280.9963703466474
 20
411.8134630667494
 30
0.0
 10
280.9580338673863
 20
411.8133810644351
 30
0.0
  0
SPLINE
  5
10D
330
1F
100
AcDbEntity
  8
0
  6
Continuous
 62
     7
370
    15
100
AcDbSpline
210
0.0
220
0.0
230
1.0
 70
     8
 71
     3
 72
     8
 73
     4
 74
     0
 42
0.00000001
 43
0.00000001
 12
1.0
 22
0.0
 32
0.0
 13
1.0
 23
0.0
 33
0.0
 40
0.0
 40
0.0
 40
0.0
 40
0.0
 40
1.0
 40
1.0
 40
1.0
 40
1.0
 10
330.8529592735615
 20
411.650505100545
 30
0.0
 10
330.9569773685986
 20
411.6551284407109
 30
0.0
 10
331.0611737740832
 20
411.6591212117487
 30
0.0
 10
331.1655511833787
 20
411.6624744364026
 30
0.0
  0
SPLINE
  5
10E
330
1F
100
AcDbEntity
  8
0
  6
Continuous
 62
     7
370
    15
100
AcDbSpline
210
0.0
220
0.0
230
1.0
 70
     8
 71
     3
 72
     8
 73
     4
 74
     0
 42
0.00000001
 43
0.00000001
 12
1.0
 22
0.0
 32
0.0
 13
1.0
 23
0.0
 33
0.0
 40
0.0
 40
0.0
 40
0.0
 40
0.0
 40
1.0
 40
1.0
 40
1.0
 40
1.0
 10
287.3238883784308
 20
411.650505100545
 30
0.0
 10
287.2198702833937
 20
411.6551284407109
 30
0.0
 10
287.1156738779092
 20
411.6591212117487
 30
0.0
 10
287.0112964686136
 20
411.6624744364026
 30
0.0
  0
SPLINE
  5
10F
330
1F
100
AcDbEntity
  8
0
  6
Continuous
 62
     7
370
    15
100
AcDbSpline
210
0.0
220
0.0
230
1.0
 70
     8
 71
     3
 72
    24
 73
    20
 74
     0
 42
0.00000001
 43
0.00000001
 12
1.0
 22
0.0
 32
0.0
 13
1.0
 23
0.0
 33
0.0
 40
0.0
 40
0.0
 40
0.0
 40
0.0
 40
0.2500000000000028
 40
0.2500000000000028
 40
0.3125000000000032
 40
0.3125000000000032
 40
0.3750000000000037
 40
0.3750000000000037
 40
0.500000000000004
 40
0.500000000000004
 40
0.5625000000000031
 40
0.5625000000000031
 40
0.6250000000000022
 40
0.6250000000000022
 40
0.7500000000000016
 40
0.7500000000000016
 40
0.8750000000000008
 40
0.8750000000000008
 40
1.0
 40
1.0
 40
1.0
 40
1.0
 10
341.1807431048872
 20
423.4524041614424
 30
0.0
 10
341.1204223750931
 20
423.4193340760347
 30
0.0
 10
340.9430216782199
 20
423.4108460174128
 30
0.0
 10
340.5778479490686
 20
423.4073523227763
 30
0.0
 10
340.4971282373491
 20
423.4070727056738
 30
0.0
 10
340.3227194014968
 20
423.4069793771468
 30
0.0
 10
340.2291399161592
 20
423.407161835854
 30
0.0
 10
339.9297234351539
 20
423.4079358344665
 30
0.0
 10
339.7053015932792
 20
423.408712880584
 30
0.0
 10
339.3314799176418
 20
423.4092697084973
 30
0.0
 10
339.2006512247091
 20
423.409364524299
 30
0.0
 10
338.9262627133558
 20
423.4093309883512
 30
0.0
 10
338.7825358958606
 20
423.4092013633253
 30
0.0
 10
338.3391701755783
 20
423.4085605512816
 30
0.0
 10
338.0252430218392
 20
423.4077588825976
 30
0.0
 10
337.3614891994608
 20
423.4068478224917
 30
0.0
 10
337.0116658801586
 20
423.4067263373393
 30
0.0
 10
336.2746636548765
 20
423.4100270574742
 30
0.0
 10
335.8945998899602
 20
423.413442392829
 30
0.0
 10
335.5048515936016
 20
423.4205662673741
 30
0.0
  0
LINE
  5
110
330
1F
100
AcDbEntity
  8
0
  6
Continuous
 62
     7
370
    15
100
AcDbLine
 10
341.1807442483
 20
417.4726542397
 30
0.0
 11
334.4067086555
 21
417.4726542397
 31
0.0
  0
LINE
  5
111
330
1F
100
AcDbEntity
  8
0
  6
Continuous
 62
     7
370
    15
100
AcDbLine
 10
335.5048522132
 20
437.4726500674
 30
0.0
 11
334.4067086555
 21
437.4726500674
 31
0.0
  0
SPLINE
  5
112
330
1F
100
AcDbEntity
  8
0
  6
Continuous
 62
     7
370
    15
100
AcDbSpline
210
0.0
220
0.0
230
1.0
 70
     8
 71
     3
 72
    24
 73
    20
 74
     0
 42
0.00000001
 43
0.00000001
 12
1.0
 22
0.0
 32
0.0
 13
1.0
 23
0.0
 33
0.0
 40
0.0
 40
0.0
 40
0.0
 40
0.0
 40
0.1250000000000003
 40
0.1250000000000003
 40
0.2500000000000006
 40
0.2500000000000006
 40
0.3750000000000009
 40
0.3750000000000009
 40
0.4375000000000006
 40
0.4375000000000006
 40
0.5000000000000002
 40
0.5000000000000002
 40
0.7500000000000008
 40
0.7500000000000008
 40
0.8125000000000006
 40
0.8125000000000006
 40
0.8750000000000002
 40
0.8750000000000002
 40
1.0
 40
1.0
 40
1.0
 40
1.0
 10
282.6719960583907
 20
423.4205662673742
 30
0.0
 10
282.2840251282365
 20
423.4134748797802
 30
0.0
 10
281.9070524998641
 20
423.4100731866374
 30
0.0
 10
281.1755120040208
 20
423.4067487766193
 30
0.0
 10
280.8198809646648
 20
423.4068444866518
 30
0.0
 10
280.1537229789092
 20
423.4077531317261
 30
0.0
 10
279.8402418976871
 20
423.408554099804
 30
0.0
 10
279.3992463486161
 20
423.4091955748423
 30
0.0
 10
279.2571372872637
 20
423.4093266581451
 30
0.0
 10
278.9828984625584
 20
423.4093670678659
 30
0.0
 10
278.8503677211598
 20
423.4092749955379
 30
0.0
 10
278.2227327505371
 20
423.4083507296186
 30
0.0
 10
277.8241161607638
 20
423.4052672050832
 30
0.0
 10
277.456179434978
 20
423.4087021117706
 30
0.0
 10
277.3894855025301
 20
423.4098158302695
 30
0.0
 10
277.2713079718957
 20
423.4133308651366
 30
0.0
 10
277.2195684330959
 20
423.4157335534027
 30
0.0
 10
277.0861828150573
 20
423.4256715228365
 30
0.0
 10
277.0262558493208
 20
423.4358740872402
 30
0.0
 10
276.9961045471051
 20
423.4524041614424
 30
0.0
  0
LINE
  5
113
330
1F
100
AcDbEntity
  8
0
  6
Continuous
 62
     7
370
    15
100
AcDbLine
 10
283.7701389965
 20
417.4726542397
 30
0.0
 11
276.9961034037
 21
417.4726542397
 31
0.0
  0
LINE
  5
114
330
1F
100
AcDbEntity
  8
0
  6
Continuous
 62
     7
370
    15
100
AcDbLine
 10
283.7701389965
 20
437.4726500674
 30
0.0
 11
282.6719954388
 21
437.4726500674
 31
0.0
  0
SPLINE
  5
115
330
1F
100
AcDbEntity
  8
0
  6
Continuous
 62
     7
370
    15
100
AcDbSpline
210
0.0
220
0.0
230
1.0
 70
     8
 71
     3
 72
     8
 73
     4
 74
     0
 42
0.00000001
 43
0.00000001
 12
1.0
 22
0.0
 32
0.0
 13
1.0
 23
0.0
 33
0.0
 40
0.0
 40
0.0
 40
0.0
 40
0.0
 40
1.0
 40
1.0
 40
1.0
 40
1.0
 10
341.2531456260235
 20
423.4726528489137
 30
0.0
 10
341.229364286375
 20
423.4726528489137
 30
0.0
 10
341.2052299337036
 20
423.4658287589743
 30
0.0
 10
341.1807431048872
 20
423.4524041614424
 30
0.0
  0
SPLINE
  5
116
330
1F
100
AcDbEntity
  8
0
  6
Continuous
 62
     7
370
    15
100
AcDbSpline
210
0.0
220
0.0
230
1.0
 70
     8
 71
     3
 72
     8
 73
     4
 74
     0
 42
0.00000001
 43
0.00000001
 12
1.0
 22
0.0
 32
0.0
 13
1.0
 23
0.0
 33
0.0
 40
0.0
 40
0.0
 40
0.0
 40
0.0
 40
1.0
 40
1.0
 40
1.0
 40
1.0
 10
276.9961045471051
 20
423.4524041614424
 30
0.0
 10
276.9716177182888
 20
423.4658287589743
 30
0.0
 10
276.9474833656172
 20
423.4726528489137
 30
0.0
 10
276.9237020259687
 20
423.4726528489137
 30
0.0
  0
SPLINE
  5
117
330
1F
100
AcDbEntity
  8
0
  6
Continuous
 62
     7
370
    15
100
AcDbSpline
210
0.0
220
0.0
230
1.0
 70
     8
 71
     3
 72
    20
 73
    16
 74
     0
 42
0.00000001
 43
0.00000001
 12
1.0
 22
0.0
 32
0.0
 13
1.0
 23
0.0
 33
0.0
 40
0.0
 40
0.0
 40
0.0
 40
0.0
 40
0.021377731872558
 40
0.1029159048391121
 40
0.1850104823594667
 40
0.2688577464136228
 40
0.3533114712674887
 40
0.4355248787256777
 40
0.5183167598291675
 40
0.6029499695477488
 40
0.6882284642004034
 40
0.7648811125434396
 40
0.8420255840893475
 40
0.9207376918319791
 40
1.0
 40
1.0
 40
1.0
 40
1.0
 10
324.4442119972875
 20
409.640926774695
 30
0.0
 10
324.4410637094123
 20
409.6533504797218
 30
0.0
 10
324.4259073356072
 20
409.713160231847
 30
0.0
 10
324.4455861157222
 20
409.822610889059
 30
0.0
 10
324.5042594940929
 20
409.9690913958475
 30
0.0
 10
324.6147803752888
 20
410.1171625441375
 30
0.0
 10
324.7715679449566
 20
410.263912189353
 30
0.0
 10
324.9735802232403
 20
410.4076767744485
 30
0.0
 10
325.2196201352333
 20
410.5482438764799
 30
0.0
 10
325.5122804394851
 20
410.686142839884
 30
0.0
 10
325.8391603985988
 20
410.8153491900854
 30
0.0
 10
326.1920395276242
 20
410.9348539401897
 30
0.0
 10
326.5670883254721
 20
411.0448354457768
 30
0.0
 10
326.9744808263175
 20
411.149694074301
 30
0.0
 10
327.2713335633868
 20
411.2134136968905
 30
0.0
 10
327.4202768779765
 20
411.2453844709739
 30
0.0
  0
SPLINE
  5
118
330
1F
100
AcDbEntity
  8
0
  6
Continuous
 62
     7
370
    15
100
AcDbSpline
210
0.0
220
0.0
230
1.0
 70
     8
 71
     3
 72
    12
 73
     8
 74
     0
 42
0.00000001
 43
0.00000001
 12
1.0
 22
0.0
 32
0.0
 13
1.0
 23
0.0
 33
0.0
 40
0.0
 40
0.0
 40
0.0
 40
0.0
 40
0.0530605818412547
 40
0.2869345099210898
 40
0.5219199441981008
 40
0.7603666618051984
 40
1.0
 40
1.0
 40
1.0
 40
1.0
 10
324.4547756788106
 20
409.532590365762
 30
0.0
 10
324.4048883320059
 20
409.5362573304795
 30
0.0
 10
324.1351136535171
 20
409.5560870927553
 30
0.0
 10
323.6348155738587
 20
409.5864040502933
 30
0.0
 10
322.9421910891404
 20
409.6161022398301
 30
0.0
 10
322.2318745250513
 20
409.6349308533693
 30
0.0
 10
321.7487964676103
 20
409.6372804398498
 30
0.0
 10
321.5066579259406
 20
409.6384581489905
 30
0.0
  0
LINE
  5
119
330
1F
100
AcDbEntity
  8
0
  6
Continuous
 62
     7
370
    15
100
AcDbLine
 10
321.5066579259
 20
409.638458149
 30
0.0
 11
296.6701897261
 21
409.638458149
 31
0.0
  0
SPLINE
  5
11A
330
1F
100
AcDbEntity
  8
0
  6
Continuous
 62
     7
370
    15
100
AcDbSpline
210
0.0
220
0.0
230
1.0
 70
     8
 71
     3
 72
    12
 73
     8
 74
     0
 42
0.00000001
 43
0.00000001
 12
1.0
 22
0.0
 32
0.0
 13
1.0
 23
0.0
 33
0.0
 40
0.0
 40
0.0
 40
0.0
 40
0.0
 40
0.0530605818412547
 40
0.2869345099210898
 40
0.5219199441981008
 40
0.7603666618051984
 40
1.0
 40
1.0
 40
1.0
 40
1.0
 10
293.7220719731818
 20
409.532590365762
 30
0.0
 10
293.7719593199865
 20
409.5362573304795
 30
0.0
 10
294.0417339984753
 20
409.5560870927553
 30
0.0
 10
294.5420320781336
 20
409.5864040502933
 30
0.0
 10
295.2346565628519
 20
409.6161022398301
 30
0.0
 10
295.944973126941
 20
409.6349308533693
 30
0.0
 10
296.428051184382
 20
409.6372804398498
 30
0.0
 10
296.6701897260518
 20
409.6384581489905
 30
0.0
  0
SPLINE
  5
11B
330
1F
100
AcDbEntity
  8
0
  6
Continuous
 62
     7
370
    15
100
AcDbSpline
210
0.0
220
0.0
230
1.0
 70
     8
 71
     3
 72
    20
 73
    16
 74
     0
 42
0.00000001
 43
0.00000001
 12
1.0
 22
0.0
 32
0.0
 13
1.0
 23
0.0
 33
0.0
 40
0.0
 40
0.0
 40
0.0
 40
0.0
 40
0.0213787579227009
 40
0.1042169327436959
 40
0.1873460690907225
 40
0.2704747513466962
 40
0.353312585884172
 40
0.4368922087004257
 40
0.5207775545440434
 40
0.6046567861190408
 40
0.6882279079224657
 40
0.766045134044356
 40
0.8441224390909459
 40
0.9221926086364259
 40
1.0
 40
1.0
 40
1.0
 40
1.0
 10
293.7326356547048
 20
409.640926774695
 30
0.0
 10
293.7357848644572
 20
409.6533504825939
 30
0.0
 10
293.7511365973381
 20
409.7139134364944
 30
0.0
 10
293.7305019187266
 20
409.8247647745603
 30
0.0
 10
293.6700630039916
 20
409.9721884858903
 30
0.0
 10
293.559363764998
 20
410.1194677585772
 30
0.0
 10
293.4033046597465
 20
410.2656545164924
 30
0.0
 10
293.1996516957234
 20
410.4098476708426
 30
0.0
 10
292.9505877332689
 20
410.5512358547025
 30
0.0
 10
292.6588147910643
 20
410.6883000895978
 30
0.0
 10
292.3337753233479
 20
410.8168381852581
 30
0.0
 10
291.9796414779597
 20
410.936417241439
 30
0.0
 10
291.6013812246791
 20
411.0468908240355
 30
0.0
 10
291.1956188767896
 20
411.1511200109617
 30
0.0
 10
290.9027555720858
 20
411.2139983176913
 30
0.0
 10
290.7565707740159
 20
411.2453844709739
 30
0.0
  0
LINE
  5
11C
330
1F
100
AcDbEntity
  8
0
  6
Continuous
 62
     7
370
    15
100
AcDbLine
 10
282.816355405
 20
397.472653445
 30
0.0
 11
292.0271580196
 21
397.472653445
 31
0.0
  0
LINE
  5
11D
330
1F
100
AcDbEntity
  8
0
  6
Continuous
 62
     7
370
    15
100
AcDbLine
 10
282.816355405
 20
397.472653445
 30
0.0
 11
280.806891598
 21
411.770734843
 31
0.0
  0
SPLINE
  5
11E
330
1F
100
AcDbEntity
  8
0
  6
Continuous
 62
     7
370
    15
100
AcDbSpline
210
0.0
220
0.0
230
1.0
 70
     8
 71
     3
 72
     8
 73
     4
 74
     0
 42
0.00000001
 43
0.00000001
 12
1.0
 22
0.0
 32
0.0
 13
1.0
 23
0.0
 33
0.0
 40
0.0
 40
0.0
 40
0.0
 40
0.0
 40
1.0
 40
1.0
 40
1.0
 40
1.0
 10
280.9562816791453
 20
411.8133759760216
 30
0.0
 10
280.8522170817122
 20
411.8129936983177
 30
0.0
 10
280.8029680319452
 20
411.7986531221887
 30
0.0
 10
280.8068919144112
 20
411.7707332476955
 30
0.0
  0
SPLINE
  5
11F
330
1F
100
AcDbEntity
  8
0
  6
Continuous
 62
     7
370
    15
100
AcDbSpline
210
0.0
220
0.0
230
1.0
 70
     8
 71
     3
 72
     8
 73
     4
 74
     0
 42
0.00000001
 43
0.00000001
 12
1.0
 22
0.0
 32
0.0
 13
1.0
 23
0.0
 33
0.0
 40
0.0
 40
0.0
 40
0.0
 40
0.0
 40
1.0
 40
1.0
 40
1.0
 40
1.0
 10
280.9580338673863
 20
411.8133810644351
 30
0.0
 10
280.9574480653401
 20
411.8133798113955
 30
0.0
 10
280.9568640029456
 20
411.813378115168
 30
0.0
 10
280.9562816791453
 20
411.8133759760216
 30
0.0
  0
SPLINE
  5
120
330
1F
100
AcDbEntity
  8
0
  6
Continuous
 62
     7
370
    15
100
AcDbSpline
210
0.0
220
0.0
230
1.0
 70
     8
 71
     3
 72
     8
 73
     4
 74
     0
 42
0.00000001
 43
0.00000001
 12
1.0
 22
0.0
 32
0.0
 13
1.0
 23
0.0
 33
0.0
 40
0.0
 40
0.0
 40
0.0
 40
0.0
 40
1.0
 40
1.0
 40
1.0
 40
1.0
 10
337.218813784606
 20
411.8133810644351
 30
0.0
 10
337.2193995866522
 20
411.8133798113955
 30
0.0
 10
337.2199836490467
 20
411.813378115168
 30
0.0
 10
337.2205659728471
 20
411.8133759760216
 30
0.0
  0
SPLINE
  5
121
330
1F
100
AcDbEntity
  8
0
  6
Continuous
 62
     7
370
    15
100
AcDbSpline
210
0.0
220
0.0
230
1.0
 70
     8
 71
     3
 72
     8
 73
     4
 74
     0
 42
0.00000001
 43
0.00000001
 12
1.0
 22
0.0
 32
0.0
 13
1.0
 23
0.0
 33
0.0
 40
0.0
 40
0.0
 40
0.0
 40
0.0
 40
1.0
 40
1.0
 40
1.0
 40
1.0
 10
337.2205659728471
 20
411.8133759760216
 30
0.0
 10
337.3246305702801
 20
411.8129936983177
 30
0.0
 10
337.3738796200471
 20
411.7986531221887
 30
0.0
 10
337.3699557375811
 20
411.7707332476955
 30
0.0
  0
LINE
  5
122
330
1F
100
AcDbEntity
  8
0
  6
Continuous
 62
     7
370
    15
100
AcDbLine
 10
335.360492247
 20
397.472653445
 30
0.0
 11
337.369956054
 21
411.770734843
 31
0.0
  0
LINE
  5
123
330
1F
100
AcDbEntity
  8
0
  6
Continuous
 62
     7
370
    15
100
AcDbLine
 10
335.360492247
 20
397.472653445
 30
0.0
 11
326.1496896324
 21
397.472653445
 31
0.0
  0
LINE
  5
124
330
1F
100
AcDbEntity
  8
0
  6
Continuous
 62
     7
370
    15
100
AcDbLine
 10
399.0884274023
 20
380.139319754
 30
0.0
 11
399.0884274023
 21
301.4726526105
 31
0.0
  0
LINE
  5
125
330
1F
100
AcDbEntity
  8
0
  6
Continuous
 62
     7
370
    15
100
AcDbLine
 10
219.0884202497
 20
380.139319754
 30
0.0
 11
219.0884202497
 21
301.4726526105
 31
0.0
  0
ELLIPSE
  5
126
330
1F
100
AcDbEntity
  8
0
  6
Continuous
 62
     7
370
    15
100
AcDbEllipse
 10
309.088423826
 20
203.5491978976
 30
0.0
 11
0.0
 21
139.8324215310534
 31
0.0
210
0.0
220
0.0
230
1.0
 40
0.8390996312
 41
6.177149496495681
 42
6.389221117863508
  0
ELLIPSE
  5
127
330
1F
100
AcDbEntity
  8
0
  6
Continuous
 62
     7
370
    15
100
AcDbEllipse
 10
320.3777271265
 20
329.9556055201
 30
0.0
 11
0.0
 21
12.71203832100491
 31
0.0
210
0.0
220
0.0
230
1.0
 40
0.8390996312
 41
5.813213648612335
 42
6.17714949649568
  0
LINE
  5
128
330
1F
100
AcDbEntity
  8
0
  6
Continuous
 62
     7
370
    15
100
AcDbLine
 10
324.3654345251
 20
337.3546257927
 30
0.0
 11
325.2082442022
 21
341.2894189281
 31
0.0
  0
SPLINE
  5
129
330
1F
100
AcDbEntity
  8
0
  6
Continuous
 62
     7
370
    15
100
AcDbSpline
210
0.0
220
0.0
230
1.0
 70
     8
 71
     3
 72
    21
 73
    17
 74
     0
 42
0.00000001
 43
0.00000001
 12
1.0
 22
0.0
 32
0.0
 13
1.0
 23
0.0
 33
0.0
 40
0.0
 40
0.0
 40
0.0
 40
0.0
 40
0.1250000000000002
 40
0.1250000000000002
 40
0.2500000000000004
 40
0.2500000000000004
 40
0.5000000000000004
 40
0.5000000000000004
 40
0.7500000000000002
 40
0.7500000000000002
 40
0.8750000000000004
 40
0.8750000000000004
 40
0.9375000000000004
 40
0.9687500000000002
 40
0.9687500000000002
 40
1.0
 40
1.0
 40
1.0
 40
1.0
 10
324.3654349311602
 20
337.3546257839041
 30
0.0
 10
324.2479205815388
 20
336.8059910776631
 30
0.0
 10
324.1704035390648
 20
336.2575008447047
 30
0.0
 10
324.078619873079
 20
335.1607488440596
 30
0.0
 10
324.0644827422193
 20
334.6124875441103
 30
0.0
 10
324.1002368238377
 20
332.9679859838356
 30
0.0
 10
324.2279807723004
 20
331.8712367930567
 30
0.0
 10
324.6260555039123
 20
329.681507316969
 30
0.0
 10
324.8947809841176
 20
328.5980033963846
 30
0.0
 10
325.3604670930856
 20
326.9829524578078
 30
0.0
 10
325.5262215386995
 20
326.4463180909406
 30
0.0
 10
325.7858548778973
 20
325.643160074222
 30
0.0
 10
325.9184237953865
 20
325.2420297476236
 30
0.0
 10
326.0542287469133
 20
324.8414269714162
 30
0.0
 10
326.1453848548517
 20
324.5744594428493
 30
0.0
 10
326.191554411511
 20
324.4402511627044
 30
0.0
 10
326.2373732316251
 20
324.3077708669592
 30
0.0
  0
SPLINE
  5
12A
330
1F
100
AcDbEntity
  8
0
  6
Continuous
 62
     7
370
    15
100
AcDbSpline
210
0.0
220
0.0
230
1.0
 70
     8
 71
     3
 72
    21
 73
    17
 74
     0
 42
0.00000001
 43
0.00000001
 12
1.0
 22
0.0
 32
0.0
 13
1.0
 23
0.0
 33
0.0
 40
0.0
 40
0.0
 40
0.0
 40
0.0
 40
0.1250000000000002
 40
0.1250000000000002
 40
0.2500000000000004
 40
0.2500000000000004
 40
0.5000000000000004
 40
0.5000000000000004
 40
0.7500000000000002
 40
0.7500000000000002
 40
0.8750000000000004
 40
0.8750000000000004
 40
0.9375000000000004
 40
0.9687500000000002
 40
0.9687500000000002
 40
1.0
 40
1.0
 40
1.0
 40
1.0
 10
293.8114127208321
 20
337.3546257839041
 30
0.0
 10
293.9289270704535
 20
336.8059910776631
 30
0.0
 10
294.0064441129275
 20
336.2575008447047
 30
0.0
 10
294.0982277789133
 20
335.1607488440596
 30
0.0
 10
294.1123649097731
 20
334.6124875441103
 30
0.0
 10
294.0766108281546
 20
332.9679859838356
 30
0.0
 10
293.9488668796919
 20
331.8712367930567
 30
0.0
 10
293.5507921480801
 20
329.681507316969
 30
0.0
 10
293.2820666678747
 20
328.5980033963846
 30
0.0
 10
292.8163805589068
 20
326.9829524578078
 30
0.0
 10
292.6506261132928
 20
326.4463180909406
 30
0.0
 10
292.390992774095
 20
325.643160074222
 30
0.0
 10
292.2584238566058
 20
325.2420297476236
 30
0.0
 10
292.122618905079
 20
324.8414269714162
 30
0.0
 10
292.0314627971406
 20
324.5744594428493
 30
0.0
 10
291.9852932404813
 20
324.4402511627044
 30
0.0
 10
291.9394744203672
 20
324.3077708669592
 30
0.0
  0
LINE
  5
12B
330
1F
100
AcDbEntity
  8
0
  6
Continuous
 62
     7
370
    15
100
AcDbLine
 10
293.8114131269
 20
337.3546257927
 30
0.0
 11
292.9686034498
 21
341.2894189281
 31
0.0
  0
ELLIPSE
  5
12C
330
1F
100
AcDbEntity
  8
0
  6
Continuous
 62
     7
370
    15
100
AcDbEllipse
 10
297.7991205255
 20
329.9556055201
 30
0.0
 11
0.0
 21
12.71203832100491
 31
0.0
210
0.0
220
0.0
230
1.0
 40
0.8390996312
 41
0.1060358106839222
 42
0.4699716585672665
  0
LINE
  5
12D
330
1F
100
AcDbEntity
  8
0
  6
Continuous
 62
     7
370
    15
100
AcDbLine
 10
328.418612458
 20
458.8059868975
 30
0.0
 11
288.4217574971
 21
458.8059868975
 31
0.0
  0
LINE
  5
12E
330
1F
100
AcDbEntity
  8
0
  6
Continuous
 62
     7
370
    15
100
AcDbLine
 10
329.7550901549
 20
458.8059868975
 30
0.0
 11
328.418612458
 21
458.8059868975
 31
0.0
  0
ELLIPSE
  5
12F
330
1F
100
AcDbEntity
  8
0
  6
Continuous
 62
     7
370
    15
100
AcDbEllipse
 10
297.7991205255
 20
319.1169103005
 30
0.0
 11
-10.6662795356151
 21
48.11614197754603
 31
0.0
210
0.0
220
0.0
230
1.0
 40
0.0018887028
 41
5.190880469376657
 42
6.124558132995344
  0
ELLIPSE
  5
130
330
1F
100
AcDbEntity
  8
0
  6
Continuous
 62
     7
370
    15
100
AcDbEllipse
 10
320.3777271265
 20
319.1169103005
 30
0.0
 11
10.6662795356151
 21
48.11614197754603
 31
0.0
210
0.0
220
0.0
230
1.0
 40
0.0018887028
 41
0.1586271741906818
 42
1.092304837804471
  0
LINE
  5
131
330
1F
100
AcDbEntity
  8
0
  6
Continuous
 62
     7
370
    15
100
AcDbLine
 10
342.421757656
 20
423.4726514979
 30
0.0
 11
341.253146507
 21
423.4726514979
 31
0.0
  0
LINE
  5
132
330
1F
100
AcDbEntity
  8
0
  6
Continuous
 62
     7
370
    15
100
AcDbLine
 10
342.421757656
 20
417.4726542397
 30
0.0
 11
341.1807442483
 21
417.4726542397
 31
0.0
  0
LINE
  5
133
330
1F
100
AcDbEntity
  8
0
  6
Continuous
 62
     7
370
    15
100
AcDbLine
 10
276.923701145
 20
423.4726514979
 30
0.0
 11
275.755089996
 21
423.4726514979
 31
0.0
  0
LINE
  5
134
330
1F
100
AcDbEntity
  8
0
  6
Continuous
 62
     7
370
    15
100
AcDbLine
 10
276.9961034037
 20
417.4726542397
 30
0.0
 11
275.755089996
 21
417.4726542397
 31
0.0
  0
ELLIPSE
  5
135
330
1F
100
AcDbEntity
  8
0
  6
Continuous
 62
     7
370
    15
100
AcDbEllipse
 10
175.7550904927
 20
-334.2174935518
 30
0.0
 11
157.3276231504499
 21
709.7130941693775
 31
0.0
210
0.0
220
0.0
230
1.0
 40
0.0018887028
 41
0.0041923763633387
 42
0.1586271741910875
  0
LINE
  5
136
330
1F
100
AcDbEntity
  8
0
  6
Continuous
 62
     7
370
    15
100
AcDbLine
 10
332.4997598705
 20
372.8926590645
 30
0.0
 11
333.0757121024
 21
375.4906094634
 31
0.0
  0
LINE
  5
137
330
1F
100
AcDbEntity
  8
0
  6
Continuous
 62
     7
370
    15
100
AcDbLine
 10
285.1011355496
 20
375.4906094634
 30
0.0
 11
285.6770877815
 21
372.8926590645
 31
0.0
  0
ELLIPSE
  5
138
330
1F
100
AcDbEntity
  8
0
  6
Continuous
 62
     7
370
    15
100
AcDbEllipse
 10
442.4217571593
 20
-334.2174935518
 30
0.0
 11
-157.3276231504499
 21
709.7130941693775
 31
0.0
210
0.0
220
0.0
230
1.0
 40
0.0018887028
 41
6.124558132995701
 42
6.278992930823784
  0
LINE
  5
139
330
1F
100
AcDbEntity
  8
0
  6
Continuous
 62
     7
370
    15
100
AcDbLine
 10
225.088422475
 20
279.1393187209
 30
0.0
 11
231.7550927179
 21
279.1393187209
 31
0.0
  0
LINE
  5
13A
330
1F
100
AcDbEntity
  8
0
  6
Continuous
 62
     7
370
    15
100
AcDbLine
 10
225.088422475
 20
279.1393187209
 30
0.0
 11
225.088422475
 21
287.7783116265
 31
0.0
  0
LINE
  5
13B
330
1F
100
AcDbEntity
  8
0
  6
Continuous
 62
     7
370
    15
100
AcDbLine
 10
231.7550927179
 20
279.1393187209
 30
0.0
 11
231.7550927179
 21
287.7783116265
 31
0.0
  0
LINE
  5
13C
330
1F
100
AcDbEntity
  8
0
  6
Continuous
 62
     7
370
    15
100
AcDbLine
 10
393.088425177
 20
279.1393187209
 30
0.0
 11
386.4217549341
 21
279.1393187209
 31
0.0
  0
LINE
  5
13D
330
1F
100
AcDbEntity
  8
0
  6
Continuous
 62
     7
370
    15
100
AcDbLine
 10
393.088425177
 20
279.1393187209
 30
0.0
 11
393.088425177
 21
287.7783116265
 31
0.0
  0
LINE
  5
13E
330
1F
100
AcDbEntity
  8
0
  6
Continuous
 62
     7
370
    15
100
AcDbLine
 10
386.4217549341
 20
279.1393187209
 30
0.0
 11
386.4217549341
 21
287.7783116265
 31
0.0
  0
SPLINE
  5
13F
330
1F
100
AcDbEntity
  8
0
  6
Continuous
 62
     7
370
    15
100
AcDbSpline
210
0.0
220
0.0
230
1.0
 70
     8
 71
     3
 72
    22
 73
    18
 74
     0
 42
0.00000001
 43
0.00000001
 12
1.0
 22
0.0
 32
0.0
 13
1.0
 23
0.0
 33
0.0
 40
0.0
 40
0.0
 40
0.0
 40
0.0
 40
0.125
 40
0.125
 40
0.25
 40
0.25
 40
0.375
 40
0.375
 40
0.5
 40
0.5
 40
0.625
 40
0.625
 40
0.75
 40
0.75
 40
0.875
 40
0.875
 40
1.0
 40
1.0
 40
1.0
 40
1.0
 10
285.6770878697143
 20
372.8926593249757
 30
0.0
 10
285.7639429394778
 20
372.5008814232075
 30
0.0
 10
285.8057059125518
 20
372.1068672058445
 30
0.0
 10
285.8024392905537
 20
371.3145343455554
 30
0.0
 10
285.7557317949694
 20
370.9122662971461
 30
0.0
 10
285.5771518677842
 20
370.1400124958448
 30
0.0
 10
285.4461122571505
 20
369.7662494486487
 30
0.0
 10
285.0975010730572
 20
369.0443491638941
 30
0.0
 10
284.8855599192445
 20
368.7083364570263
 30
0.0
 10
284.3917932485851
 20
368.0890504718583
 30
0.0
 10
284.105552531238
 20
367.8025942268098
 30
0.0
 10
283.4856899533555
 20
367.3080796484533
 30
0.0
 10
283.1507692573821
 20
367.0968481470322
 30
0.0
 10
282.429345964436
 20
366.7487477977382
 30
0.0
 10
282.0535705371245
 20
366.6174426477741
 30
0.0
 10
281.2816220058442
 20
366.4405230752616
 30
0.0
 10
280.8808962390478
 20
366.3946121277287
 30
0.0
 10
280.4795764878741
 20
366.3946121277287
 30
0.0
  0
SPLINE
  5
140
330
1F
100
AcDbEntity
  8
0
  6
Continuous
 62
     7
370
    15
100
AcDbSpline
210
0.0
220
0.0
230
1.0
 70
     8
 71
     3
 72
    22
 73
    18
 74
     0
 42
0.00000001
 43
0.00000001
 12
1.0
 22
0.0
 32
0.0
 13
1.0
 23
0.0
 33
0.0
 40
0.0
 40
0.0
 40
0.0
 40
0.0
 40
0.125
 40
0.125
 40
0.25
 40
0.25
 40
0.375
 40
0.375
 40
0.5
 40
0.5
 40
0.625
 40
0.625
 40
0.75
 40
0.75
 40
0.875
 40
0.875
 40
1.0
 40
1.0
 40
1.0
 40
1.0
 10
337.6972711641182
 20
366.3946121277287
 30
0.0
 10
337.2959858750323
 20
366.3946121277287
 30
0.0
 10
336.9023310661756
 20
366.4394308745325
 30
0.0
 10
336.1297260017664
 20
366.6154377225745
 30
0.0
 10
335.7474232733271
 20
366.7491210691023
 30
0.0
 10
335.0334217429478
 20
367.0929728042769
 30
0.0
 10
334.6976599213838
 20
367.3032246353972
 30
0.0
 10
334.0701602286737
 20
367.8031701167808
 30
0.0
 10
333.7899744177005
 20
368.0837298734291
 30
0.0
 10
333.2951910126665
 20
368.7026058497443
 30
0.0
 10
333.0792537390731
 20
369.0451823654129
 30
0.0
 10
332.7340839043134
 20
369.7586804630159
 30
0.0
 10
332.6018106702386
 20
370.132064258905
 30
0.0
 10
332.4206189336444
 20
370.9132284514772
 30
0.0
 10
332.3749687523681
 20
371.3075090660448
 30
0.0
 10
332.3706495709461
 20
372.0996429269402
 30
0.0
 10
332.4129116237378
 20
372.5009125977209
 30
0.0
 10
332.499759782278
 20
372.8926593249757
 30
0.0
  0
LWPOLYLINE
  5
141
330
1F
100
AcDbEntity
  8
0
  6
Continuous
 62
     7
370
    15
100
AcDbPolyline
 90
        3
 70
   128
 43
0.0
 10
231.7550927179
 20
369.4027996623
 10
240.5237008906
 20
367.693927046
 10
247.1887518741
 20
366.3946128451
  0
LINE
  5
142
330
1F
100
AcDbEntity
  8
0
  6
Continuous
 62
     7
370
    15
100
AcDbLine
 10
247.1887518741
 20
366.3946128451
 30
0.0
 11
247.1887518741
 21
315.2173595194
 31
0.0
  0
LWPOLYLINE
  5
143
330
1F
100
AcDbEntity
  8
0
  6
Continuous
 62
     7
370
    15
100
AcDbPolyline
 90
        3
 70
   128
 43
0.0
 10
247.1887518741
 20
315.2173595194
 10
240.5220518288
 20
313.9177249435
 10
231.7550927179
 20
312.2091727022
  0
LINE
  5
144
330
1F
100
AcDbEntity
  8
0
  6
Continuous
 62
     7
370
    15
100
AcDbLine
 10
370.9880957779
 20
366.3946128451
 30
0.0
 11
370.9880957779
 21
315.2173595194
 31
0.0
  0
LWPOLYLINE
  5
145
330
1F
100
AcDbEntity
  8
0
  6
Continuous
 62
     7
370
    15
100
AcDbPolyline
 90
        3
 70
   128
 43
0.0
 10
370.9880957779
 20
366.3946128451
 10
377.6531467614
 20
367.693927046
 10
386.4217549341
 20
369.4027996623
  0
LWPOLYLINE
  5
146
330
1F
100
AcDbEntity
  8
0
  6
Continuous
 62
     7
370
    15
100
AcDbPolyline
 90
        3
 70
   128
 43
0.0
 10
386.4217549341
 20
312.2091727022
 10
377.6547958232
 20
313.9177249435
 10
370.9880957779
 20
315.2173595194
  0
LINE
  5
147
330
1F
100
AcDbEntity
  8
0
  6
Continuous
 62
     7
370
    15
100
AcDbLine
 10
285.1011355496
 20
375.4906094634
 30
0.0
 11
285.1011355496
 21
397.472653445
 31
0.0
  0
LINE
  5
148
330
1F
100
AcDbEntity
  8
0
  6
Continuous
 62
     7
370
    15
100
AcDbLine
 10
333.0757121024
 20
397.472653445
 30
0.0
 11
333.0757121024
 21
375.4906094634
 31
0.0
  0
LINE
  5
149
330
1F
100
AcDbEntity
  8
0
  6
Continuous
 62
     7
370
    15
100
AcDbLine
 10
247.1887518741
 20
366.3946128451
 30
0.0
 11
280.4795776583
 21
366.3946128451
 31
0.0
  0
LINE
  5
14A
330
1F
100
AcDbEntity
  8
0
  6
Continuous
 62
     7
370
    15
100
AcDbLine
 10
337.6972699937
 20
366.3946128451
 30
0.0
 11
370.9880957779
 21
366.3946128451
 31
0.0
  0
LINE
  5
14B
330
1F
100
AcDbEntity
  8
0
  6
Continuous
 62
     7
370
    15
100
AcDbLine
 10
370.9880957779
 20
315.2173595194
 30
0.0
 11
247.1887518741
 21
315.2173595194
 31
0.0
  0
LINE
  5
14C
330
1F
100
AcDbEntity
  8
0
  6
Continuous
 62
     7
370
    15
100
AcDbLine
 10
280.4217561858
 20
410.8921971484
 30
0.0
 11
280.9502631204
 21
410.7505963806
 31
0.0
  0
LINE
  5
14D
330
1F
100
AcDbEntity
  8
0
  6
Continuous
 62
     7
370
    15
100
AcDbLine
 10
337.2265845316
 20
410.7505963806
 30
0.0
 11
337.7550914662
 21
410.8921971484
 31
0.0
  0
SPLINE
  5
14E
330
1F
100
AcDbEntity
  8
0
  6
Continuous
 62
     7
370
    15
100
AcDbSpline
210
0.0
220
0.0
230
1.0
 70
     8
 71
     3
 72
     9
 73
     5
 74
     0
 42
0.00000001
 43
0.00000001
 12
1.0
 22
0.0
 32
0.0
 13
1.0
 23
0.0
 33
0.0
 40
0.0
 40
0.0
 40
0.0
 40
0.0
 40
0.5
 40
1.0
 40
1.0
 40
1.0
 40
1.0
 10
312.4217571593293
 20
458.8107139901459
 30
0.0
 10
311.3106460482182
 20
458.8195549438052
 30
0.0
 10
309.0884238259961
 20
458.8477449691705
 30
0.0
 10
306.8662016037738
 20
458.8195549438052
 30
0.0
 10
305.7550904926627
 20
458.8107139901459
 30
0.0
  0
LINE
  5
14F
330
1F
100
AcDbEntity
  8
0
  6
Continuous
 62
     7
370
    15
100
AcDbLine
 10
312.4217570848
 20
478.8059876922
 30
0.0
 11
305.7550905672
 21
478.8059876922
 31
0.0
  0
LINE
  5
150
330
1F
100
AcDbEntity
  8
0
  6
Continuous
 62
     7
370
    15
100
AcDbLine
 10
312.4217570848
 20
478.8059876922
 30
0.0
 11
312.4217570848
 21
458.8107155327
 31
0.0
  0
LINE
  5
151
330
1F
100
AcDbEntity
  8
0
  6
Continuous
 62
     7
370
    15
100
AcDbLine
 10
305.7550905672
 20
478.8059876922
 30
0.0
 11
305.7550905672
 21
458.8107155327
 31
0.0
  0
LINE
  5
152
330
1F
100
AcDbEntity
  8
0
  6
Continuous
 62
     7
370
    15
100
AcDbLine
 10
312.4217570848
 20
490.8176249826
 30
0.0
 11
312.4217570848
 21
478.8059876922
 31
0.0
  0
LINE
  5
153
330
1F
100
AcDbEntity
  8
0
  6
Continuous
 62
     7
370
    15
100
AcDbLine
 10
305.7550905672
 20
490.8176249826
 30
0.0
 11
305.7550905672
 21
478.8059876922
 31
0.0
  0
LINE
  5
154
330
1F
100
AcDbEntity
  8
0
  6
Continuous
 62
     7
370
    15
100
AcDbLine
 10
312.4217570848
 20
492.139318244
 30
0.0
 11
305.7550905672
 21
492.139318244
 31
0.0
  0
LINE
  5
155
330
1F
100
AcDbEntity
  8
0
  6
Continuous
 62
     7
370
    15
100
AcDbLine
 10
312.4217570848
 20
492.139318244
 30
0.0
 11
312.4217570848
 21
490.8176249826
 31
0.0
  0
LINE
  5
156
330
1F
100
AcDbEntity
  8
0
  6
Continuous
 62
     7
370
    15
100
AcDbLine
 10
305.7550905672
 20
492.139318244
 30
0.0
 11
305.7550905672
 21
490.8176249826
 31
0.0
  0
LINE
  5
157
330
1F
100
AcDbEntity
  8
0
  6
Continuous
 62
     7
370
    15
100
AcDbLine
 10
305.7550905672
 20
468.1565450195
 30
0.0
 11
293.4269122558
 21
468.1565450195
 31
0.0
  0
LINE
  5
158
330
1F
100
AcDbEntity
  8
0
  6
Continuous
 62
     7
370
    15
100
AcDbLine
 10
324.7499353962
 20
468.1565450195
 30
0.0
 11
312.4217570848
 21
468.1565450195
 31
0.0
  0
LINE
  5
159
330
1F
100
AcDbEntity
  8
0
  6
Continuous
 62
     7
370
    15
100
AcDbLine
 10
320.7550905423
 20
492.139318244
 30
0.0
 11
312.4217570848
 21
492.139318244
 31
0.0
  0
LINE
  5
15A
330
1F
100
AcDbEntity
  8
0
  6
Continuous
 62
     7
370
    15
100
AcDbLine
 10
305.7550905672
 20
492.139318244
 30
0.0
 11
297.4217571097
 21
492.139318244
 31
0.0
  0
LINE
  5
15B
330
1F
100
AcDbEntity
  8
0
  6
Continuous
 62
     7
370
    15
100
AcDbLine
 10
316.5217569497
 20
493.1393153035
 30
0.0
 11
301.6550907023
 21
493.1393153035
 31
0.0
  0
LINE
  5
15C
330
1F
100
AcDbEntity
  8
0
  6
Continuous
 62
     7
370
    15
100
AcDbLine
 10
306.0108839002
 20
498.805988487
 30
0.0
 11
312.1659637518
 21
498.805988487
 31
0.0
  0
ARC
  5
15D
330
1F
100
AcDbEntity
  8
0
  6
Continuous
 62
     7
370
    15
100
AcDbCircle
 10
309.088423826
 20
505.4623008882
 30
0.0
 40
7.333333333333395
100
AcDbArc
 50
245.1865895365
 51
294.8134104635
  0
LWPOLYLINE
  5
15E
330
1F
100
AcDbEntity
  8
0
  6
Continuous
 62
     7
370
    15
100
AcDbPolyline
 90
       12
 70
   128
 43
0.0
 10
301.7550905324
 20
498.1289691293
 10
301.7607734627
 20
498.1346514387
 10
301.7778129406
 20
498.151688433
 10
301.806182268
 20
498.180060244
 10
301.8458379832
 20
498.2197172009
 10
301.8967192398
 20
498.2705996994
 10
301.9587459442
 20
498.3326183323
 10
302.0318224805
 20
498.4057035609
 10
302.1158358481
 20
498.4897163077
 10
302.2106550412
 20
498.5845274293
 10
302.3161341525
 20
498.6900077823
 10
302.4321092692
 20
498.805988487
  0
LWPOLYLINE
  5
15F
330
1F
100
AcDbEntity
  8
0
  6
Continuous
 62
     7
370
    15
100
AcDbPolyline
 90
       10
 70
   128
 43
0.0
 10
302.4321092692
 20
498.805988487
 10
302.5218186058
 20
500.8606698675
 10
302.6167824643
 20
503.03570296
 10
302.7169250972
 20
505.3293492957
 10
302.8221657899
 20
507.7397611304
 10
302.9324207233
 20
510.2650112474
 10
303.0476011114
 20
512.9030730887
 10
303.1676156846
 20
515.6518604918
 10
303.2923675852
 20
518.5091482166
 10
303.4217568514
 20
521.4726514184
  0
LINE
  5
160
330
1F
100
AcDbEntity
  8
0
  6
Continuous
 62
     7
370
    15
100
AcDbLine
 10
303.4217568514
 20
521.4726514184
 30
0.0
 11
304.4336770129
 21
521.4726514184
 31
0.0
  0
ELLIPSE
  5
161
330
1F
100
AcDbEntity
  8
0
  6
Continuous
 62
     7
370
    15
100
AcDbEllipse
 10
309.088423826
 20
651.2606576234
 30
0.0
 11
-5.684341886080801E-14
 21
167.9609473551621
 31
0.0
210
0.0
220
0.0
230
1.0
 40
0.0436609429
 41
2.453923001678663
 42
2.708516942353385
  0
ELLIPSE
  5
162
330
1F
100
AcDbEntity
  8
0
  6
Continuous
 62
     7
370
    15
100
AcDbEllipse
 10
309.088423826
 20
651.2606576234
 30
0.0
 11
-5.684341886080801E-14
 21
167.9609473551621
 31
0.0
210
0.0
220
0.0
230
1.0
 40
0.0436609429
 41
3.574668364826465
 42
3.829262305501108
  0
LINE
  5
163
330
1F
100
AcDbEntity
  8
0
  6
Continuous
 62
     7
370
    15
100
AcDbLine
 10
313.7431706391
 20
521.4726514184
 30
0.0
 11
314.7550908006
 21
521.4726514184
 31
0.0
  0
LWPOLYLINE
  5
164
330
1F
100
AcDbEntity
  8
0
  6
Continuous
 62
     7
370
    15
100
AcDbPolyline
 90
       10
 70
   128
 43
0.0
 10
314.7550908006
 20
521.4726514184
 10
314.8844800668
 20
518.5091482166
 10
315.0092319674
 20
515.6518604918
 10
315.1292465406
 20
512.9030730887
 10
315.2444269287
 20
510.2650112474
 10
315.3546818621
 20
507.7397611304
 10
315.4599225548
 20
505.3293492957
 10
315.5600651877
 20
503.03570296
 10
315.6550290462
 20
500.8606698675
 10
315.7447383828
 20
498.805988487
  0
LWPOLYLINE
  5
165
330
1F
100
AcDbEntity
  8
0
  6
Continuous
 62
     7
370
    15
100
AcDbPolyline
 90
       12
 70
   128
 43
0.0
 10
315.7447383828
 20
498.805988487
 10
315.8607134995
 20
498.6900077823
 10
315.9661926108
 20
498.5845274293
 10
316.0610118038
 20
498.4897163077
 10
316.1450251715
 20
498.4057035609
 10
316.2181017078
 20
498.3326183323
 10
316.2801284121
 20
498.2705996994
 10
316.3310096688
 20
498.2197172009
 10
316.370665384
 20
498.180060244
 10
316.3990347114
 20
498.151688433
 10
316.4160741892
 20
498.1346514387
 10
316.4217571196
 20
498.1289691293
  0
LINE
  5
166
330
1F
100
AcDbEntity
  8
0
  6
Continuous
 62
     7
370
    15
100
AcDbLine
 10
313.7431706391
 20
521.4726514184
 30
0.0
 11
304.4336770129
 21
521.4726514184
 31
0.0
  0
LINE
  5
167
330
1F
100
AcDbEntity
  8
0
  6
Continuous
 62
     7
370
    15
100
AcDbLine
 10
337.7550914662
 20
371.1393188997
 30
0.0
 11
337.7550914662
 21
410.8921971484
 31
0.0
  0
LINE
  5
168
330
1F
100
AcDbEntity
  8
0
  6
Continuous
 62
     7
370
    15
100
AcDbLine
 10
370.5387462951
 20
371.1393188997
 30
0.0
 11
337.7550914662
 21
371.1393188997
 31
0.0
  0
LINE
  5
169
330
1F
100
AcDbEntity
  8
0
  6
Continuous
 62
     7
370
    15
100
AcDbLine
 10
386.4217549341
 20
374.2266631686
 30
0.0
 11
370.5387462951
 21
371.1393188997
 31
0.0
  0
LINE
  5
16A
330
1F
100
AcDbEntity
  8
0
  6
Continuous
 62
     7
370
    15
100
AcDbLine
 10
247.6381013569
 20
371.1393188997
 30
0.0
 11
280.4217561858
 21
371.1393188997
 31
0.0
  0
LINE
  5
16B
330
1F
100
AcDbEntity
  8
0
  6
Continuous
 62
     7
370
    15
100
AcDbLine
 10
280.4217561858
 20
371.1393188997
 30
0.0
 11
280.4217561858
 21
410.8921971484
 31
0.0
  0
LINE
  5
16C
330
1F
100
AcDbEntity
  8
0
  6
Continuous
 62
     7
370
    15
100
AcDbLine
 10
231.7550927179
 20
374.2266631686
 30
0.0
 11
247.6381013569
 21
371.1393188997
 31
0.0
  0
LINE
  5
16D
330
1F
100
AcDbEntity
  8
0
  6
Continuous
 62
     7
370
    15
100
AcDbLine
 10
247.5739071545
 20
311.139318999
 30
0.0
 11
370.6029404975
 21
311.139318999
 31
0.0
  0
LINE
  5
16E
330
1F
100
AcDbEntity
  8
0
  6
Continuous
 62
     7
370
    15
100
AcDbLine
 10
231.7550927179
 20
308.064451969
 30
0.0
 11
247.5739071545
 21
311.139318999
 31
0.0
  0
LINE
  5
16F
330
1F
100
AcDbEntity
  8
0
  6
Continuous
 62
     7
370
    15
100
AcDbLine
 10
370.6029404975
 20
311.139318999
 30
0.0
 11
386.4217549341
 21
308.064451969
 31
0.0
  0
ARC
  5
170
330
1F
100
AcDbEntity
  8
0
  6
Continuous
 62
     7
370
    15
100
AcDbCircle
 10
325.3924430318
 20
490.8910150005
 30
0.0
 40
1.251921455218908
100
AcDbArc
 50
356.6392856373
 51
85.642867895
  0
LINE
  5
171
330
1F
100
AcDbEntity
  8
0
  6
Continuous
 62
     7
370
    15
100
AcDbLine
 10
326.6422115045
 20
490.8176249826
 30
0.0
 11
326.732991862
 21
478.8059876922
 31
0.0
  0
LINE
  5
172
330
1F
100
AcDbEntity
  8
0
  6
Continuous
 62
     7
370
    15
100
AcDbLine
 10
326.732991862
 20
478.8059876922
 30
0.0
 11
328.2252996938
 21
459.110079861
 31
0.0
  0
LINE
  5
173
330
1F
100
AcDbEntity
  8
0
  6
Continuous
 62
     7
370
    15
100
AcDbLine
 10
320.7550905423
 20
492.139318244
 30
0.0
 11
325.4875552929
 21
492.139318244
 31
0.0
  0
LINE
  5
174
330
1F
100
AcDbEntity
  8
0
  6
Continuous
 62
     7
370
    15
100
AcDbLine
 10
291.44385579
 20
478.8059876922
 30
0.0
 11
289.9515479582
 21
459.110079861
 31
0.0
  0
LINE
  5
175
330
1F
100
AcDbEntity
  8
0
  6
Continuous
 62
     7
370
    15
100
AcDbLine
 10
291.5346361475
 20
490.8176249826
 30
0.0
 11
291.44385579
 21
478.8059876922
 31
0.0
  0
ARC
  5
176
330
1F
100
AcDbEntity
  8
0
  6
Continuous
 62
     7
370
    15
100
AcDbCircle
 10
292.7844046202
 20
490.8910150005
 30
0.0
 40
1.251921455218872
100
AcDbArc
 50
94.357132105
 51
183.3607143627
  0
LINE
  5
177
330
1F
100
AcDbEntity
  8
0
  6
Continuous
 62
     7
370
    15
100
AcDbLine
 10
297.4217571097
 20
492.139318244
 30
0.0
 11
292.6892923591
 21
492.139318244
 31
0.0
  0
SPLINE
  5
178
330
1F
100
AcDbEntity
  8
0
  6
Continuous
 62
     7
370
     0
100
AcDbSpline
210
0.0
220
0.0
230
1.0
 70
     8
 71
     3
 72
    12
 73
     8
 74
     0
 42
0.00000001
 43
0.00000001
 12
1.0
 22
0.0
 32
0.0
 13
1.0
 23
0.0
 33
0.0
 40
0.0
 40
0.0
 40
0.0
 40
0.0
 40
0.2500000000000009
 40
0.2500000000000009
 40
0.5000000000000019
 40
0.5000000000000019
 40
1.0
 40
1.0
 40
1.0
 40
1.0
 10
331.3966016944393
 20
414.1099905601782
 30
0.0
 10
331.1018294808532
 20
414.1439742459006
 30
0.0
 10
330.8090320357132
 20
414.1927775714827
 30
0.0
 10
330.2237482573794
 20
414.2950961979843
 30
0.0
 10
329.931231705327
 20
414.3484062687975
 30
0.0
 10
329.0501180331182
 20
414.4879074472869
 30
0.0
 10
328.457772356519
 20
414.5523952295285
 30
0.0
 10
327.8551670493918
 20
414.5523952295285
 30
0.0
  0
LINE
  5
179
330
1F
100
AcDbEntity
  8
0
  6
Continuous
 62
     7
370
     0
100
AcDbLine
 10
327.8551672674
 20
414.5523942077
 30
0.0
 11
290.3216803846
 21
414.5523942077
 31
0.0
  0
SPLINE
  5
17A
330
1F
100
AcDbEntity
  8
0
  6
Continuous
 62
     7
370
     0
100
AcDbSpline
210
0.0
220
0.0
230
1.0
 70
     8
 71
     3
 72
    12
 73
     8
 74
     0
 42
0.00000001
 43
0.00000001
 12
1.0
 22
0.0
 32
0.0
 13
1.0
 23
0.0
 33
0.0
 40
0.0
 40
0.0
 40
0.0
 40
0.0
 40
0.2500000000000009
 40
0.2500000000000009
 40
0.5000000000000019
 40
0.5000000000000019
 40
1.0
 40
1.0
 40
1.0
 40
1.0
 10
286.780245957553
 20
414.1099905601782
 30
0.0
 10
287.0750181711391
 20
414.1439742459006
 30
0.0
 10
287.3678156162791
 20
414.1927775714827
 30
0.0
 10
287.9530993946129
 20
414.2950961979843
 30
0.0
 10
288.2456159466654
 20
414.3484062687975
 30
0.0
 10
289.1267296188741
 20
414.4879074472869
 30
0.0
 10
289.7190752954733
 20
414.5523952295285
 30
0.0
 10
290.3216806026005
 20
414.5523952295285
 30
0.0
  0
LINE
  5
17B
330
1F
100
AcDbEntity
  8
0
  6
Continuous
 62
     7
370
     0
100
AcDbLine
 10
286.78024558
 20
414.1099886659
 30
0.0
 11
286.6967022197
 21
417.4726542397
 31
0.0
  0
LINE
  5
17C
330
1F
100
AcDbEntity
  8
0
  6
Continuous
 62
     7
370
     0
100
AcDbLine
 10
331.396602072
 20
414.1099886659
 30
0.0
 11
331.4801454323
 21
417.4726542397
 31
0.0
  0
LINE
  5
17D
330
1F
100
AcDbEntity
  8
0
  6
Continuous
 62
     7
370
     0
100
AcDbLine
 10
334.4067086555
 20
437.4726500674
 30
0.0
 11
334.4067086555
 21
417.4726542397
 31
0.0
  0
LINE
  5
17E
330
1F
100
AcDbEntity
  8
0
  6
Continuous
 62
     7
370
     0
100
AcDbLine
 10
283.7701389965
 20
437.4726500674
 30
0.0
 11
283.7701389965
 21
417.4726542397
 31
0.0
  0
ARC
  5
17F
330
1F
100
AcDbEntity
  8
0
  6
Continuous
 62
     7
370
     0
100
AcDbCircle
 10
317.8894696507
 20
414.1808393878
 30
0.0
 40
9.97262161986735
100
AcDbArc
 50
342.881352754
 51
2.1351909358
  0
LINE
  5
180
330
1F
100
AcDbEntity
  8
0
  6
Continuous
 62
     7
370
     0
100
AcDbLine
 10
290.756570774
 20
411.245384471
 30
0.0
 11
327.420276878
 21
411.245384471
 31
0.0
  0
ARC
  5
181
330
1F
100
AcDbEntity
  8
0
  6
Continuous
 62
     7
370
     0
100
AcDbCircle
 10
300.2873780013
 20
414.1808393878
 30
0.0
 40
9.972621619867294
100
AcDbArc
 50
177.8648090642
 51
197.1186472461
  0
ARC
  5
182
330
1F
100
AcDbEntity
  8
0
  6
Continuous
 62
     7
370
     0
100
AcDbCircle
 10
317.0975250978
 20
415.9808339707
 30
0.0
 40
14.42094533899263
100
AcDbArc
 50
342.5255570101
 51
352.5459452913
  0
ARC
  5
183
330
1F
100
AcDbEntity
  8
0
  6
Continuous
 62
     7
370
     0
100
AcDbCircle
 10
301.0793225542
 20
415.9808339707
 30
0.0
 40
14.42094533899252
100
AcDbArc
 50
187.4540547087
 51
197.4744429899
  0
SPLINE
  5
184
330
1F
100
AcDbEntity
  8
0
  6
Continuous
 62
     7
370
     0
100
AcDbSpline
210
0.0
220
0.0
230
1.0
 70
     8
 71
     3
 72
     8
 73
     4
 74
     0
 42
0.00000001
 43
0.00000001
 12
1.0
 22
0.0
 32
0.0
 13
1.0
 23
0.0
 33
0.0
 40
0.0
 40
0.0
 40
0.0
 40
0.0
 40
0.0000136579484702
 40
0.0000136579484702
 40
0.0000136579484702
 40
0.0000136579484702
 10
337.8632795467862
 20
413.5162134391932
 30
0.0
 10
337.8626163397349
 20
413.5162064206296
 30
0.0
 10
337.8619514554503
 20
413.5161992948784
 30
0.0
 10
337.8612848945781
 20
413.5161920619665
 30
0.0
  0
SPLINE
  5
185
330
1F
100
AcDbEntity
  8
0
  6
Continuous
 62
     7
370
     0
100
AcDbSpline
210
0.0
220
0.0
230
1.0
 70
     8
 71
     3
 72
    22
 73
    18
 74
     0
 42
0.00000001
 43
0.00000001
 12
1.0
 22
0.0
 32
0.0
 13
1.0
 23
0.0
 33
0.0
 40
0.0
 40
0.0
 40
0.0
 40
0.0
 40
0.125
 40
0.125
 40
0.25
 40
0.25
 40
0.375
 40
0.375
 40
0.5
 40
0.5
 40
0.625
 40
0.625
 40
0.75
 40
0.75
 40
0.875
 40
0.875
 40
1.0
 40
1.0
 40
1.0
 40
1.0
 10
337.8612848945781
 20
413.5161920619665
 30
0.0
 10
337.7771311415294
 20
413.5152789020402
 30
0.0
 10
337.6674320853139
 20
413.5197704252044
 30
0.0
 10
337.4017602114292
 20
413.5385017381871
 30
0.0
 10
337.2454734547147
 20
413.5527179803333
 30
0.0
 10
336.8857153322814
 20
413.5892481424074
 30
0.0
 10
336.6805907032916
 20
413.6117376751309
 30
0.0
 10
336.2305624034296
 20
413.6619043638585
 30
0.0
 10
335.9857178114735
 20
413.6895458900166
 30
0.0
 10
335.4562631759825
 20
413.7479717709112
 30
0.0
 10
335.1701406708015
 20
413.7789008868531
 30
0.0
 10
334.5727288029069
 20
413.8408001867049
 30
0.0
 10
334.2599880506408
 20
413.8719455438247
 30
0.0
 10
333.6065987637288
 20
413.9336794769332
 30
0.0
 10
333.2649764759556
 20
413.9643568707927
 30
0.0
 10
332.5566071386772
 20
414.0242791348134
 30
0.0
 10
332.1939806130677
 20
414.0531872397702
 30
0.0
 10
331.822870640126
 20
414.080974961215
 30
0.0
  0
SPLINE
  5
186
330
1F
100
AcDbEntity
  8
0
  6
Continuous
 62
     7
370
     0
100
AcDbSpline
210
0.0
220
0.0
230
1.0
 70
     8
 71
     3
 72
     8
 73
     4
 74
     0
 42
0.00000001
 43
0.00000001
 12
1.0
 22
0.0
 32
0.0
 13
1.0
 23
0.0
 33
0.0
 40
0.0
 40
0.0
 40
0.0
 40
0.0
 40
1.0
 40
1.0
 40
1.0
 40
1.0
 10
331.822870640126
 20
414.080974961215
 30
0.0
 10
331.6816871688602
 20
414.0915464016457
 30
0.0
 10
331.5395974141088
 20
414.1012099241829
 30
0.0
 10
331.3966016944393
 20
414.1099905601783
 30
0.0
  0
LINE
  5
187
330
1F
100
AcDbEntity
  8
0
  6
Continuous
 62
     7
370
     0
100
AcDbLine
 10
337.8632788635
 20
413.5162121617
 30
0.0
 11
338.4059220331
 21
417.4726542397
 31
0.0
  0
SPLINE
  5
188
330
1F
100
AcDbEntity
  8
0
  6
Continuous
 62
     7
370
     0
100
AcDbSpline
210
0.0
220
0.0
230
1.0
 70
     8
 71
     3
 72
     8
 73
     4
 74
     0
 42
0.00000001
 43
0.00000001
 12
1.0
 22
0.0
 32
0.0
 13
1.0
 23
0.0
 33
0.0
 40
0.0
 40
0.0
 40
0.0
 40
0.0
 40
1.0
 40
1.0
 40
1.0
 40
1.0
 10
286.3539770118663
 20
414.080974961215
 30
0.0
 10
286.4951604831321
 20
414.0915464016457
 30
0.0
 10
286.6372502378836
 20
414.1012099241829
 30
0.0
 10
286.780245957553
 20
414.1099905601783
 30
0.0
  0
SPLINE
  5
189
330
1F
100
AcDbEntity
  8
0
  6
Continuous
 62
     7
370
     0
100
AcDbSpline
210
0.0
220
0.0
230
1.0
 70
     8
 71
     3
 72
    22
 73
    18
 74
     0
 42
0.00000001
 43
0.00000001
 12
1.0
 22
0.0
 32
0.0
 13
1.0
 23
0.0
 33
0.0
 40
0.0
 40
0.0
 40
0.0
 40
0.0
 40
0.125
 40
0.125
 40
0.25
 40
0.25
 40
0.375
 40
0.375
 40
0.5
 40
0.5
 40
0.625
 40
0.625
 40
0.75
 40
0.75
 40
0.875
 40
0.875
 40
1.0
 40
1.0
 40
1.0
 40
1.0
 10
280.3155627574142
 20
413.5161920619665
 30
0.0
 10
280.399716510463
 20
413.5152789020402
 30
0.0
 10
280.5094155666784
 20
413.5197704252044
 30
0.0
 10
280.7750874405631
 20
413.5385017381871
 30
0.0
 10
280.9313741972776
 20
413.5527179803333
 30
0.0
 10
281.2911323197109
 20
413.5892481424074
 30
0.0
 10
281.4962569487007
 20
413.6117376751309
 30
0.0
 10
281.9462852485627
 20
413.6619043638585
 30
0.0
 10
282.1911298405188
 20
413.6895458900166
 30
0.0
 10
282.7205844760098
 20
413.7479717709112
 30
0.0
 10
283.0067069811908
 20
413.7789008868531
 30
0.0
 10
283.6041188490855
 20
413.8408001867049
 30
0.0
 10
283.9168596013515
 20
413.8719455438247
 30
0.0
 10
284.5702488882636
 20
413.9336794769332
 30
0.0
 10
284.9118711760367
 20
413.9643568707927
 30
0.0
 10
285.6202405133151
 20
414.0242791348134
 30
0.0
 10
285.9828670389246
 20
414.0531872397702
 30
0.0
 10
286.3539770118663
 20
414.080974961215
 30
0.0
  0
SPLINE
  5
18A
330
1F
100
AcDbEntity
  8
0
  6
Continuous
 62
     7
370
     0
100
AcDbSpline
210
0.0
220
0.0
230
1.0
 70
     8
 71
     3
 72
     8
 73
     4
 74
     0
 42
0.00000001
 43
0.00000001
 12
1.0
 22
0.0
 32
0.0
 13
1.0
 23
0.0
 33
0.0
 40
0.0
 40
0.0
 40
0.0
 40
0.0
 40
0.0000136579484702
 40
0.0000136579484702
 40
0.0000136579484702
 40
0.0000136579484702
 10
280.3135681052061
 20
413.5162134391932
 30
0.0
 10
280.3142313122574
 20
413.5162064206296
 30
0.0
 10
280.3148961965421
 20
413.5161992948784
 30
0.0
 10
280.3155627574142
 20
413.5161920619665
 30
0.0
  0
LINE
  5
18B
330
1F
100
AcDbEntity
  8
0
  6
Continuous
 62
     7
370
     0
100
AcDbLine
 10
280.3135687885
 20
413.5162121617
 30
0.0
 11
279.7709256189
 21
417.4726542397
 31
0.0
  0
ARC
  5
18C
330
1F
100
AcDbEntity
  8
0
  6
Continuous
 62
     7
370
     0
100
AcDbCircle
 10
333.842672835
 20
414.0598086629
 30
0.0
 40
4.055213829871488
100
AcDbArc
 50
326.3608804711
 51
352.2960971805
  0
ARC
  5
18D
330
1F
100
AcDbEntity
  8
0
  6
Continuous
 62
     7
370
     0
100
AcDbCircle
 10
320.2860598927
 20
415.9179534192
 30
0.0
 40
11.68214300419841
100
AcDbArc
 50
338.637197606
 51
350.9528847667
  0
ARC
  5
18E
330
1F
100
AcDbEntity
  8
0
  6
Continuous
 62
     7
370
     0
100
AcDbCircle
 10
284.334174817
 20
414.0598086629
 30
0.0
 40
4.055213829871393
100
AcDbArc
 50
187.7039028195
 51
213.6391195289
  0
ARC
  5
18F
330
1F
100
AcDbEntity
  8
0
  6
Continuous
 62
     7
370
     0
100
AcDbCircle
 10
297.8907877593
 20
415.9179534192
 30
0.0
 40
11.6821430041983
100
AcDbArc
 50
189.0471152333
 51
201.362802394
  0
LINE
  5
190
330
1F
100
AcDbEntity
  8
0
  6
Continuous
 62
     7
370
     0
100
AcDbLine
 10
341.1807442483
 20
423.4524057869
 30
0.0
 11
341.1807442483
 21
417.4726542397
 31
0.0
  0
LINE
  5
191
330
1F
100
AcDbEntity
  8
0
  6
Continuous
 62
     7
370
     0
100
AcDbLine
 10
276.9961034037
 20
423.4524057869
 30
0.0
 11
276.9961034037
 21
417.4726542397
 31
0.0
  0
LINE
  5
192
330
1F
100
AcDbEntity
  8
0
  6
Continuous
 62
     7
370
     0
100
AcDbLine
 10
339.4217565434
 20
424.5916492307
 30
0.0
 11
341.253146507
 21
423.4726514979
 31
0.0
  0
LINE
  5
193
330
1F
100
AcDbEntity
  8
0
  6
Continuous
 62
     7
370
     0
100
AcDbLine
 10
276.923701145
 20
423.4726514979
 30
0.0
 11
278.7550911086
 21
424.5916492307
 31
0.0
  0
SPLINE
  5
194
330
1F
100
AcDbEntity
  8
0
  6
Continuous
 62
     7
370
     0
100
AcDbSpline
210
0.0
220
0.0
230
1.0
 70
     8
 71
     3
 72
     8
 73
     4
 74
     0
 42
0.00000001
 43
0.00000001
 12
1.0
 22
0.0
 32
0.0
 13
1.0
 23
0.0
 33
0.0
 40
0.0
 40
0.0
 40
0.0
 40
0.0
 40
1.0
 40
1.0
 40
1.0
 40
1.0
 10
280.1063717374807
 20
413.6512680029841
 30
0.0
 10
280.1781702075228
 20
413.5726963097287
 30
0.0
 10
280.2482527370996
 20
413.5175305243876
 30
0.0
 10
280.3135681052061
 20
413.5162134391935
 30
0.0
  0
SPLINE
  5
195
330
1F
100
AcDbEntity
  8
0
  6
Continuous
 62
     7
370
     0
100
AcDbSpline
210
0.0
220
0.0
230
1.0
 70
     8
 71
     3
 72
    16
 73
    12
 74
     0
 42
0.00000001
 43
0.00000001
 12
1.0
 22
0.0
 32
0.0
 13
1.0
 23
0.0
 33
0.0
 40
0.0
 40
0.0
 40
0.0
 40
0.0
 40
0.25
 40
0.25
 40
0.5
 40
0.5
 40
0.75
 40
0.75
 40
0.875
 40
0.875
 40
1.0
 40
1.0
 40
1.0
 40
1.0
 10
277.9869833588154
 20
414.5523952295285
 30
0.0
 10
278.1238570480646
 20
414.5523952295285
 30
0.0
 10
278.2695027028043
 20
414.544156488811
 30
0.0
 10
278.5796547452161
 20
414.5013024762498
 30
0.0
 10
278.7442209672073
 20
414.4668662169155
 30
0.0
 10
279.0938992903897
 20
414.3549954785649
 30
0.0
 10
279.2791167479713
 20
414.2782430680756
 30
0.0
 10
279.574740356792
 20
414.1045678877282
 30
0.0
 10
279.676275892125
 20
414.0367676183441
 30
0.0
 10
279.8861551179543
 20
413.8711522561894
 30
0.0
 10
279.9942390568463
 20
413.7739788989361
 30
0.0
 10
280.1063717374803
 20
413.6512680029865
 30
0.0
  0
LINE
  5
196
330
1F
100
AcDbEntity
  8
0
  6
Continuous
 62
     7
370
     0
100
AcDbLine
 10
277.986983436
 20
414.5523942077
 30
0.0
 11
276.1655052281
 21
414.5523942077
 31
0.0
  0
SPLINE
  5
197
330
1F
100
AcDbEntity
  8
0
  6
Continuous
 62
     7
370
     0
100
AcDbSpline
210
0.0
220
0.0
230
1.0
 70
     8
 71
     3
 72
    16
 73
    12
 74
     0
 42
0.00000001
 43
0.00000001
 12
1.0
 22
0.0
 32
0.0
 13
1.0
 23
0.0
 33
0.0
 40
0.0
 40
0.0
 40
0.0
 40
0.0
 40
0.25
 40
0.25
 40
0.5
 40
0.5
 40
0.75
 40
0.75
 40
0.875
 40
0.875
 40
1.0
 40
1.0
 40
1.0
 40
1.0
 10
340.1898642931769
 20
414.5523952295285
 30
0.0
 10
340.0529906039277
 20
414.5523952295285
 30
0.0
 10
339.907344949188
 20
414.544156488811
 30
0.0
 10
339.5971929067762
 20
414.5013024762498
 30
0.0
 10
339.432626684785
 20
414.4668662169155
 30
0.0
 10
339.0829483616026
 20
414.3549954785649
 30
0.0
 10
338.897730904021
 20
414.2782430680756
 30
0.0
 10
338.6021072952003
 20
414.1045678877282
 30
0.0
 10
338.5005717598673
 20
414.0367676183441
 30
0.0
 10
338.290692534038
 20
413.8711522561894
 30
0.0
 10
338.182608595146
 20
413.7739788989361
 30
0.0
 10
338.070475914512
 20
413.6512680029865
 30
0.0
  0
SPLINE
  5
198
330
1F
100
AcDbEntity
  8
0
  6
Continuous
 62
     7
370
     0
100
AcDbSpline
210
0.0
220
0.0
230
1.0
 70
     8
 71
     3
 72
     8
 73
     4
 74
     0
 42
0.00000001
 43
0.00000001
 12
1.0
 22
0.0
 32
0.0
 13
1.0
 23
0.0
 33
0.0
 40
0.0
 40
0.0
 40
0.0
 40
0.0
 40
1.0
 40
1.0
 40
1.0
 40
1.0
 10
338.0704759145116
 20
413.6512680029841
 30
0.0
 10
337.9986774444695
 20
413.5726963097287
 30
0.0
 10
337.9285949148927
 20
413.5175305243876
 30
0.0
 10
337.8632795467862
 20
413.5162134391935
 30
0.0
  0
LINE
  5
199
330
1F
100
AcDbEntity
  8
0
  6
Continuous
 62
     7
370
     0
100
AcDbLine
 10
340.1898642159
 20
414.5523942077
 30
0.0
 11
342.0113424239
 21
414.5523942077
 31
0.0
  0
ARC
  5
19A
330
1F
100
AcDbEntity
  8
0
  6
Continuous
 62
     7
370
     0
100
AcDbCircle
 10
333.8451918482
 20
414.0600753207
 30
0.0
 40
4.054726920303338
100
AcDbArc
 50
326.351691682
 51
352.2916473707
  0
ARC
  5
19B
330
1F
100
AcDbEntity
  8
0
  6
Continuous
 62
     7
370
     0
100
AcDbCircle
 10
284.3316558038
 20
414.0600753207
 30
0.0
 40
4.054726920303241
100
AcDbArc
 50
187.7083526293
 51
213.648308318
  0
ARC
  5
19C
330
1F
100
AcDbEntity
  8
0
  6
Continuous
 62
     7
370
     0
100
AcDbCircle
 10
334.5049146546
 20
413.9087398497
 30
0.0
 40
3.574846518271449
100
AcDbArc
 50
323.2682727336
 51
355.8697726654
  0
ARC
  5
19D
330
1F
100
AcDbEntity
  8
0
  6
Continuous
 62
     7
370
     0
100
AcDbCircle
 10
283.6719329974
 20
413.9087398497
 30
0.0
 40
3.574846518271347
100
AcDbArc
 50
184.1302273346
 51
216.7317272664
  0
LINE
  5
19E
330
1F
100
AcDbEntity
  8
0
  6
Continuous
 62
     7
370
     0
100
AcDbLine
 10
321.5066579259
 20
342.5962463022
 30
0.0
 11
321.5066579259
 21
409.638458149
 31
0.0
  0
LINE
  5
19F
330
1F
100
AcDbEntity
  8
0
  6
Continuous
 62
     7
370
     0
100
AcDbLine
 10
296.6701897261
 20
342.5962463022
 30
0.0
 11
296.6701897261
 21
409.638458149
 31
0.0
  0
LINE
  5
1A0
330
1F
100
AcDbEntity
  8
0
  6
Continuous
 62
     7
370
     0
100
AcDbLine
 10
326.2373730319
 20
324.3077706857
 30
0.0
 11
291.9394746201
 21
324.3077706857
 31
0.0
  0
ARC
  5
1A1
330
1F
100
AcDbEntity
  8
0
  6
Continuous
 62
     7
370
     0
100
AcDbCircle
 10
336.2407840459
 20
415.0884041027
 30
0.0
 40
3.985290553683005
100
AcDbArc
 50
285.3555804772
 51
352.2704612105
  0
ARC
  5
1A2
330
1F
100
AcDbEntity
  8
0
  6
Continuous
 62
     7
370
     0
100
AcDbCircle
 10
281.9360636061
 20
415.0884041027
 30
0.0
 40
3.985290553682952
100
AcDbArc
 50
187.7295387895
 51
254.6444195228
  0
LINE
  5
1A3
330
1F
100
AcDbEntity
  8
0
  6
Continuous
 62
     7
370
     0
100
AcDbLine
 10
287.2811108606
 20
366.6321398381
 30
0.0
 11
287.2811108606
 21
397.472653445
 31
0.0
  0
LINE
  5
1A4
330
1F
100
AcDbEntity
  8
0
  6
Continuous
 62
     7
370
     0
100
AcDbLine
 10
330.8957367914
 20
366.6321398381
 30
0.0
 11
330.8957367914
 21
397.472653445
 31
0.0
  0
ELLIPSE
  5
1A5
330
1F
100
AcDbEntity
  8
0
  6
Continuous
 62
     7
370
     0
100
AcDbEllipse
 10
325.6605114255
 20
341.960286836
 30
0.0
 11
6.873045717627348
 21
30.9999446925164
 31
0.0
210
0.0
220
0.0
230
1.0
 40
0.0085199758
 41
0.0679544915934126
 42
1.721807076445916
  0
ELLIPSE
  5
1A6
330
1F
100
AcDbEntity
  8
0
  6
Continuous
 62
     7
370
     0
100
AcDbEllipse
 10
292.5163362265
 20
341.960286836
 30
0.0
 11
-6.873045717627291
 21
30.9999446925164
 31
0.0
210
0.0
220
0.0
230
1.0
 40
0.0085199758
 41
4.561378230733713
 42
6.215230815588006
  0
ELLIPSE
  5
1A7
330
1F
100
AcDbEntity
  8
0
  6
Continuous
 62
     7
370
     0
100
AcDbEllipse
 10
287.3096224518
 20
340.8059861822
 30
0.0
 11
-6.873257060403717
 21
25.66657327348532
 31
0.0
210
0.0
220
0.0
230
1.0
 40
0.0100738235
 41
4.01155961481739
 42
6.202486493050481
  0
ELLIPSE
  5
1A8
330
1F
100
AcDbEntity
  8
0
  6
Continuous
 62
     7
370
     0
100
AcDbEllipse
 10
330.8672252002
 20
340.8059861822
 30
0.0
 11
6.873257060403717
 21
25.66657327348532
 31
0.0
210
0.0
220
0.0
230
1.0
 40
0.0100738235
 41
0.0806988141304618
 42
2.271625692362774
  0
LINE
  5
1A9
330
1F
100
AcDbEntity
  8
0
  6
Continuous
 62
     7
370
     0
100
AcDbLine
 10
279.0913010415
 20
411.245384471
 30
0.0
 11
280.8807243682
 21
411.245384471
 31
0.0
  0
LINE
  5
1AA
330
1F
100
AcDbEntity
  8
0
  6
Continuous
 62
     7
370
     0
100
AcDbLine
 10
339.0855466105
 20
411.245384471
 30
0.0
 11
337.2961232838
 21
411.245384471
 31
0.0
  0
LINE
  5
1AB
330
1F
100
AcDbEntity
  8
0
  6
Continuous
 62
     7
370
     0
100
AcDbLine
 10
305.7550905672
 20
462.1113922758
 30
0.0
 11
292.3609887339
 21
462.1113922758
 31
0.0
  0
LINE
  5
1AC
330
1F
100
AcDbEntity
  8
0
  6
Continuous
 62
     7
370
     0
100
AcDbLine
 10
325.8158589181
 20
462.1113922758
 30
0.0
 11
312.4217570848
 21
462.1113922758
 31
0.0
  0
LINE
  5
1AD
330
1F
100
AcDbEntity
  8
0
  6
Continuous
 62
     7
370
     0
100
AcDbLine
 10
312.4217570848
 20
490.8176249826
 30
0.0
 11
305.7550905672
 21
490.8176249826
 31
0.0
  0
LINE
  5
1AE
330
1F
100
AcDbEntity
  8
0
  6
Continuous
 62
     7
370
     0
100
AcDbLine
 10
323.8420486229
 20
485.4800687793
 30
0.0
 11
312.4217570848
 21
485.4800687793
 31
0.0
  0
LINE
  5
1AF
330
1F
100
AcDbEntity
  8
0
  6
Continuous
 62
     7
370
     0
100
AcDbLine
 10
305.7550905672
 20
485.4800687793
 30
0.0
 11
294.3347990291
 21
485.4800687793
 31
0.0
  0
LINE
  5
1B0
330
1F
100
AcDbEntity
  8
0
  6
Continuous
 62
     7
370
     0
100
AcDbLine
 10
322.5840168473
 20
487.233766572
 30
0.0
 11
312.4217570848
 21
487.233766572
 31
0.0
  0
LINE
  5
1B1
330
1F
100
AcDbEntity
  8
0
  6
Continuous
 62
     7
370
     0
100
AcDbLine
 10
305.7550905672
 20
487.233766572
 30
0.0
 11
295.5928308047
 21
487.233766572
 31
0.0
  0
LINE
  5
1B2
330
1F
100
AcDbEntity
  8
0
  6
Continuous
 62
     7
370
     0
100
AcDbLine
 10
321.3536279675
 20
488.7448436582
 30
0.0
 11
312.4217570848
 21
488.7448436582
 31
0.0
  0
LINE
  5
1B3
330
1F
100
AcDbEntity
  8
0
  6
Continuous
 62
     7
370
     0
100
AcDbLine
 10
305.7550905672
 20
488.7448436582
 30
0.0
 11
296.8232196845
 21
488.7448436582
 31
0.0
  0
LINE
  5
1B4
330
1F
100
AcDbEntity
  8
FORMAT
  6
CENTERX2
370
     0
100
AcDbLine
 10
406.1799063109
 20
340.8059861822
 30
0.0
 11
207.8130159887
 21
340.8059861822
 31
0.0
  0
LINE
  5
1B5
330
1F
100
AcDbEntity
  8
FORMAT
  6
CENTERX2
370
     0
100
AcDbLine
 10
395.088423826
 20
340.8059861822
 30
0.0
 11
401.088423826
 21
340.8059861822
 31
0.0
  0
LINE
  5
1B6
330
1F
100
AcDbEntity
  8
FORMAT
  6
CENTERX2
370
     0
100
AcDbLine
 10
309.088423826
 20
531.3018273626
 30
0.0
 11
309.088423826
 21
298.5721686382
 31
0.0
  0
LINE
  5
1B7
330
1F
100
AcDbEntity
  8
FORMAT
  6
CENTERX2
370
     0
100
AcDbLine
 10
303.7550904927
 20
490.8059861822
 30
0.0
 11
314.4217571593
 21
490.8059861822
 31
0.0
  0
LINE
  5
1B8
330
1F
100
AcDbEntity
  8
0
  6
Continuous
 62
     7
370
    15
100
AcDbLine
 10
221.0884243028
 20
60.7549670447
 30
0.0
 11
231.7550927179
 21
60.7549670447
 31
0.0
  0
LINE
  5
1B9
330
1F
100
AcDbEntity
  8
0
  6
Continuous
 62
     7
370
    15
100
AcDbLine
 10
231.7550927179
 20
184.0883019675
 30
0.0
 11
221.0884243028
 21
184.0883019675
 31
0.0
  0
LINE
  5
1BA
330
1F
100
AcDbEntity
  8
0
  6
Continuous
 62
     7
370
    15
100
AcDbLine
 10
397.0884233492
 20
184.0883019675
 30
0.0
 11
386.4217549341
 21
184.0883019675
 31
0.0
  0
LINE
  5
1BB
330
1F
100
AcDbEntity
  8
0
  6
Continuous
 62
     7
370
    15
100
AcDbLine
 10
386.4217549341
 20
60.7549670447
 30
0.0
 11
397.0884233492
 21
60.7549670447
 31
0.0
  0
LINE
  5
1BC
330
1F
100
AcDbEntity
  8
0
  6
Continuous
 62
     7
370
    15
100
AcDbLine
 10
397.0884233492
 20
81.0883018483
 30
0.0
 11
399.0884274023
 21
83.0883009343
 31
0.0
  0
LINE
  5
1BD
330
1F
100
AcDbEntity
  8
0
  6
Continuous
 62
     7
370
    15
100
AcDbLine
 10
399.0884274023
 20
161.7549680778
 30
0.0
 11
397.0884233492
 21
163.7549671639
 31
0.0
  0
LINE
  5
1BE
330
1F
100
AcDbEntity
  8
0
  6
Continuous
 62
     7
370
    15
100
AcDbLine
 10
221.0884243028
 20
163.7549671639
 30
0.0
 11
219.0884202497
 21
161.7549680778
 31
0.0
  0
LINE
  5
1BF
330
1F
100
AcDbEntity
  8
0
  6
Continuous
 62
     7
370
    15
100
AcDbLine
 10
219.0884202497
 20
83.0883009343
 30
0.0
 11
221.0884243028
 21
81.0883018483
 31
0.0
  0
LINE
  5
1C0
330
1F
100
AcDbEntity
  8
0
  6
Continuous
 62
     7
370
    15
100
AcDbLine
 10
386.4217549341
 20
151.0883021463
 30
0.0
 11
370.9880957779
 21
148.0883010337
 31
0.0
  0
LINE
  5
1C1
330
1F
100
AcDbEntity
  8
0
  6
Continuous
 62
     7
370
    15
100
AcDbLine
 10
247.1887518741
 20
148.0883010337
 30
0.0
 11
231.7550927179
 21
151.0883021463
 31
0.0
  0
LINE
  5
1C2
330
1F
100
AcDbEntity
  8
0
  6
Continuous
 62
     7
370
    15
100
AcDbLine
 10
370.9880957779
 20
96.7549679785
 30
0.0
 11
386.4217549341
 21
93.7549668659
 31
0.0
  0
LINE
  5
1C3
330
1F
100
AcDbEntity
  8
0
  6
Continuous
 62
     7
370
    15
100
AcDbLine
 10
231.7550927179
 20
93.7549668659
 30
0.0
 11
247.1887518741
 21
96.7549679785
 31
0.0
  0
LINE
  5
1C4
330
1F
100
AcDbEntity
  8
0
  6
Continuous
 62
     7
370
    15
100
AcDbLine
 10
276.4456495421
 20
148.0883010337
 30
0.0
 11
247.1887518741
 21
148.0883010337
 31
0.0
  0
LINE
  5
1C5
330
1F
100
AcDbEntity
  8
0
  6
Continuous
 62
     7
370
    15
100
AcDbLine
 10
370.9880957779
 20
148.0883010337
 30
0.0
 11
341.7311981099
 21
148.0883010337
 31
0.0
  0
LINE
  5
1C6
330
1F
100
AcDbEntity
  8
0
  6
Continuous
 62
     7
370
    15
100
AcDbLine
 10
341.7311981099
 20
96.7549679785
 30
0.0
 11
370.9880957779
 21
96.7549679785
 31
0.0
  0
LINE
  5
1C7
330
1F
100
AcDbEntity
  8
0
  6
Continuous
 62
     7
370
    15
100
AcDbLine
 10
247.1887518741
 20
96.7549679785
 30
0.0
 11
276.4456495421
 21
96.7549679785
 31
0.0
  0
LINE
  5
1C8
330
1F
100
AcDbEntity
  8
0
  6
Continuous
 62
     7
370
    15
100
AcDbLine
 10
304.4336770129
 20
128.0883014807
 30
0.0
 11
313.7431706391
 21
128.0883014807
 31
0.0
  0
ARC
  5
1C9
330
1F
100
AcDbEntity
  8
0
  6
Continuous
 62
     7
370
    15
100
AcDbCircle
 10
309.088423826
 20
122.4216345061
 30
0.0
 40
7.333333333333344
100
AcDbArc
 50
114.8134104635
 51
129.4005687537
  0
LINE
  5
1CA
330
1F
100
AcDbEntity
  8
0
  6
Continuous
 62
     7
370
    15
100
AcDbLine
 10
312.1659637518
 20
129.0779490629
 30
0.0
 11
306.0108839002
 21
129.0779490629
 31
0.0
  0
ARC
  5
1CB
330
1F
100
AcDbEntity
  8
0
  6
Continuous
 62
     7
370
    15
100
AcDbCircle
 10
309.088423826
 20
122.4216345061
 30
0.0
 40
7.333333333333347
100
AcDbArc
 50
50.5994312463
 51
65.1865895365
  0
LINE
  5
1CC
330
1F
100
AcDbEntity
  8
0
  6
Continuous
 62
     7
370
    15
100
AcDbLine
 10
314.7550908006
 20
127.0763813192
 30
0.0
 11
314.7550908006
 21
117.766887693
 31
0.0
  0
LINE
  5
1CD
330
1F
100
AcDbEntity
  8
0
  6
Continuous
 62
     7
370
    15
100
AcDbLine
 10
313.7431706391
 20
116.7549675315
 30
0.0
 11
304.4336770129
 21
116.7549675315
 31
0.0
  0
LINE
  5
1CE
330
1F
100
AcDbEntity
  8
0
  6
Continuous
 62
     7
370
    15
100
AcDbLine
 10
303.4217568514
 20
117.766887693
 30
0.0
 11
303.4217568514
 21
127.0763813192
 31
0.0
  0
ARC
  5
1CF
330
1F
100
AcDbEntity
  8
0
  6
Continuous
 62
     7
370
    15
100
AcDbCircle
 10
309.088423826
 20
122.4216345061
 30
0.0
 40
7.333333333333339
100
AcDbArc
 50
129.4005687537
 51
140.5994312463
  0
ARC
  5
1D0
330
1F
100
AcDbEntity
  8
0
  6
Continuous
 62
     7
370
    15
100
AcDbCircle
 10
309.088423826
 20
122.4216345061
 30
0.0
 40
7.333333333333369
100
AcDbArc
 50
219.4005687537
 51
230.5994312463
  0
ARC
  5
1D1
330
1F
100
AcDbEntity
  8
0
  6
Continuous
 62
     7
370
    15
100
AcDbCircle
 10
309.088423826
 20
122.4216345061
 30
0.0
 40
7.333333333333329
100
AcDbArc
 50
309.4005687537
 51
320.5994312463
  0
ARC
  5
1D2
330
1F
100
AcDbEntity
  8
0
  6
Continuous
 62
     7
370
    15
100
AcDbCircle
 10
309.088423826
 20
122.4216345061
 30
0.0
 40
7.333333333333347
100
AcDbArc
 50
39.4005687537
 51
50.5994312463
  0
LINE
  5
1D3
330
1F
100
AcDbEntity
  8
0
  6
Continuous
 62
     7
370
    15
100
AcDbLine
 10
302.4321092692
 20
125.4991744319
 30
0.0
 11
302.4321092692
 21
119.3440945803
 31
0.0
  0
ARC
  5
1D4
330
1F
100
AcDbEntity
  8
0
  6
Continuous
 62
     7
370
    15
100
AcDbCircle
 10
309.088423826
 20
122.4216345061
 30
0.0
 40
7.333333333333338
100
AcDbArc
 50
140.5994312463
 51
155.1865895365
  0
ARC
  5
1D5
330
1F
100
AcDbEntity
  8
0
  6
Continuous
 62
     7
370
    15
100
AcDbCircle
 10
309.088423826
 20
122.4216345061
 30
0.0
 40
7.333333333333347
100
AcDbArc
 50
204.8134104635
 51
219.4005687537
  0
LINE
  5
1D6
330
1F
100
AcDbEntity
  8
0
  6
Continuous
 62
     7
370
    15
100
AcDbLine
 10
315.7447383828
 20
119.3440945803
 30
0.0
 11
315.7447383828
 21
125.4991744319
 31
0.0
  0
ARC
  5
1D7
330
1F
100
AcDbEntity
  8
0
  6
Continuous
 62
     7
370
    15
100
AcDbCircle
 10
309.088423826
 20
122.4216345061
 30
0.0
 40
7.333333333333304
100
AcDbArc
 50
320.5994312463
 51
335.1865895365
  0
ARC
  5
1D8
330
1F
100
AcDbEntity
  8
0
  6
Continuous
 62
     7
370
    15
100
AcDbCircle
 10
309.088423826
 20
122.4216345061
 30
0.0
 40
7.333333333333294
100
AcDbArc
 50
24.8134104635
 51
39.4005687537
  0
LINE
  5
1D9
330
1F
100
AcDbEntity
  8
0
  6
Continuous
 62
     7
370
    15
100
AcDbLine
 10
306.0108839002
 20
115.7653199493
 30
0.0
 11
312.1659637518
 21
115.7653199493
 31
0.0
  0
ARC
  5
1DA
330
1F
100
AcDbEntity
  8
0
  6
Continuous
 62
     7
370
    15
100
AcDbCircle
 10
309.088423826
 20
122.4216345061
 30
0.0
 40
7.333333333333369
100
AcDbArc
 50
230.5994312463
 51
245.1865895365
  0
ARC
  5
1DB
330
1F
100
AcDbEntity
  8
0
  6
Continuous
 62
     7
370
    15
100
AcDbCircle
 10
309.088423826
 20
122.4216345061
 30
0.0
 40
7.333333333333331
100
AcDbArc
 50
294.8134104635
 51
309.4005687537
  0
ARC
  5
1DC
330
1F
100
AcDbEntity
  8
0
  6
Continuous
 62
     7
370
    15
100
AcDbCircle
 10
309.088423826
 20
122.4216345061
 30
0.0
 40
7.333333333333268
100
AcDbArc
 50
335.1865895365
 51
24.8134104635
  0
ARC
  5
1DD
330
1F
100
AcDbEntity
  8
0
  6
Continuous
 62
     7
370
    15
100
AcDbCircle
 10
309.088423826
 20
122.4216345061
 30
0.0
 40
7.333333333333344
100
AcDbArc
 50
65.1865895365
 51
114.8134104635
  0
ARC
  5
1DE
330
1F
100
AcDbEntity
  8
0
  6
Continuous
 62
     7
370
    15
100
AcDbCircle
 10
309.088423826
 20
122.4216345061
 30
0.0
 40
7.333333333333326
100
AcDbArc
 50
155.1865895365
 51
204.8134104635
  0
ARC
  5
1DF
330
1F
100
AcDbEntity
  8
0
  6
Continuous
 62
     7
370
    15
100
AcDbCircle
 10
309.088423826
 20
122.4216345061
 30
0.0
 40
7.333333333333345
100
AcDbArc
 50
245.1865895365
 51
294.8134104635
  0
CIRCLE
  5
1E0
330
1F
100
AcDbEntity
  8
0
  6
Continuous
 62
     7
370
    15
100
AcDbCircle
 10
309.088423826
 20
122.4216345061
 30
0.0
 40
7.814912280701776
  0
CIRCLE
  5
1E1
330
1F
100
AcDbEntity
  8
0
  6
Continuous
 62
     7
370
    15
100
AcDbCircle
 10
309.088423826
 20
122.4216345061
 30
0.0
 40
7.433333333333329
  0
LINE
  5
1E2
330
1F
100
AcDbEntity
  8
0
  6
Continuous
 62
     7
370
    15
100
AcDbLine
 10
317.1042154011
 20
130.8985555529
 30
0.0
 11
322.1542214132
 21
133.8141782193
 31
0.0
  0
LINE
  5
1E3
330
1F
100
AcDbEntity
  8
0
  6
Continuous
 62
     7
370
    15
100
AcDbLine
 10
320.4375492808
 20
125.1250531509
 30
0.0
 11
325.4875552929
 21
128.0406755069
 31
0.0
  0
ARC
  5
1E4
330
1F
100
AcDbEntity
  8
0
  6
Continuous
 62
     7
370
    15
100
AcDbCircle
 10
309.088423826
 20
122.4216345061
 30
0.0
 40
11.66666666666666
100
AcDbArc
 50
286.601549599
 51
13.398450401
  0
LINE
  5
1E5
330
1F
100
AcDbEntity
  8
0
  6
Continuous
 62
     7
370
    15
100
AcDbLine
 10
312.4217570848
 20
111.2412945041
 30
0.0
 11
312.4217570848
 21
105.4100491712
 31
0.0
  0
LINE
  5
1E6
330
1F
100
AcDbEntity
  8
0
  6
Continuous
 62
     7
370
    15
100
AcDbLine
 10
305.7550905672
 20
111.2412945041
 30
0.0
 11
305.7550905672
 21
105.4100491712
 31
0.0
  0
ARC
  5
1E7
330
1F
100
AcDbEntity
  8
0
  6
Continuous
 62
     7
370
    15
100
AcDbCircle
 10
309.088423826
 20
122.4216345061
 30
0.0
 40
11.66666666666668
100
AcDbArc
 50
166.601549599
 51
253.398450401
  0
LINE
  5
1E8
330
1F
100
AcDbEntity
  8
0
  6
Continuous
 62
     7
370
    15
100
AcDbLine
 10
297.7392983712
 20
125.1250531509
 30
0.0
 11
292.6892923591
 21
128.0406755069
 31
0.0
  0
ARC
  5
1E9
330
1F
100
AcDbEntity
  8
0
  6
Continuous
 62
     7
370
    15
100
AcDbCircle
 10
309.088423826
 20
122.4216345061
 30
0.0
 40
11.6666666666667
100
AcDbArc
 50
46.601549599
 51
133.398450401
  0
LINE
  5
1EA
330
1F
100
AcDbEntity
  8
0
  6
Continuous
 62
     7
370
    15
100
AcDbLine
 10
301.0726322509
 20
130.8985555529
 30
0.0
 11
296.0226262388
 21
133.8141782193
 31
0.0
  0
LWPOLYLINE
  5
1EB
330
1F
100
AcDbEntity
  8
0
  6
Continuous
 62
     7
370
    15
100
AcDbPolyline
 90
       15
 70
   128
 43
0.0
 10
292.6892923591
 20
128.0406755069
 10
292.5607226567
 20
128.1149056414
 10
292.433751104
 20
128.1882125248
 10
292.3099572238
 20
128.2596847027
 10
292.1908820447
 20
128.3284330725
 10
292.0780045069
 20
128.3936026801
 10
291.9727302866
 20
128.4543832748
 10
291.8763657189
 20
128.5100186228
 10
291.7901128309
 20
128.5598176826
 10
291.7150407808
 20
128.6031595726
 10
291.6520858583
 20
128.6395066091
 10
291.6020303743
 20
128.6684067904
 10
291.5654964523
 20
128.689500005
 10
291.5429373361
 20
128.7025236198
 10
291.5346361475
 20
128.7073168267
  0
LWPOLYLINE
  5
1EC
330
1F
100
AcDbEntity
  8
0
  6
Continuous
 62
     7
370
    15
100
AcDbPolyline
 90
       15
 70
   128
 43
0.0
 10
296.0226262388
 20
133.8141782193
 10
295.8940552947
 20
133.8884083538
 10
295.7670837419
 20
133.9617158581
 10
295.6432911035
 20
134.0331867942
 10
295.5242159244
 20
134.1019357849
 10
295.4113383866
 20
134.1671060134
 10
295.3060629246
 20
134.2278853664
 10
295.2096995986
 20
134.2835213352
 10
295.1234454688
 20
134.3333197742
 10
295.0483746605
 20
134.376662285
 10
294.985419738
 20
134.4130099425
 10
294.9353630123
 20
134.4419095029
 10
294.8988290903
 20
134.4630020965
 10
294.8762712158
 20
134.4760269532
 10
294.8679687855
 20
134.48082016
  0
LWPOLYLINE
  5
1ED
330
1F
100
AcDbEntity
  8
0
  6
Continuous
 62
     7
370
    15
100
AcDbPolyline
 90
       15
 70
   128
 43
0.0
 10
325.4875552929
 20
128.0406755069
 10
325.6161249952
 20
128.1149056414
 10
325.743096548
 20
128.1882125248
 10
325.8668904282
 20
128.2596847027
 10
325.9859656073
 20
128.3284330725
 10
326.0988431451
 20
128.3936026801
 10
326.2041173654
 20
128.4543832748
 10
326.3004819331
 20
128.5100186228
 10
326.3867348211
 20
128.5598176826
 10
326.4618068712
 20
128.6031595726
 10
326.5247617937
 20
128.6395066091
 10
326.5748172777
 20
128.6684067904
 10
326.6113511996
 20
128.689500005
 10
326.6339103159
 20
128.7025236198
 10
326.6422115045
 20
128.7073168267
  0
LWPOLYLINE
  5
1EE
330
1F
100
AcDbEntity
  8
0
  6
Continuous
 62
     7
370
    15
100
AcDbPolyline
 90
       15
 70
   128
 43
0.0
 10
322.1542214132
 20
133.8141782193
 10
322.2827923573
 20
133.8884083538
 10
322.4097639101
 20
133.9617158581
 10
322.5335565485
 20
134.0331867942
 10
322.6526317276
 20
134.1019357849
 10
322.7655092654
 20
134.1671060134
 10
322.8707847274
 20
134.2278853664
 10
322.9671480533
 20
134.2835213352
 10
323.0534021832
 20
134.3333197742
 10
323.1284729915
 20
134.376662285
 10
323.191427914
 20
134.4130099425
 10
323.2414846397
 20
134.4419095029
 10
323.2780185617
 20
134.4630020965
 10
323.3005764362
 20
134.4760269532
 10
323.3088788665
 20
134.48082016
  0
LINE
  5
1EF
330
1F
100
AcDbEntity
  8
0
  6
Continuous
 62
     7
370
    15
100
AcDbLine
 10
305.7550905672
 20
105.4100491712
 30
0.0
 11
305.7550905672
 21
104.0767665316
 31
0.0
  0
LINE
  5
1F0
330
1F
100
AcDbEntity
  8
0
  6
Continuous
 62
     7
370
    15
100
AcDbLine
 10
312.4217570848
 20
105.4100491712
 30
0.0
 11
312.4217570848
 21
104.0767665316
 31
0.0
  0
LINE
  5
1F1
330
1F
100
AcDbEntity
  8
0
  6
Continuous
 62
     7
370
    15
100
AcDbLine
 10
323.3996592241
 20
134.5332312692
 30
0.0
 11
326.732991862
 21
128.7597291777
 31
0.0
  0
LINE
  5
1F2
330
1F
100
AcDbEntity
  8
0
  6
Continuous
 62
     7
370
    15
100
AcDbLine
 10
326.6422115045
 20
128.7073168267
 30
0.0
 11
326.732991862
 21
128.7597291777
 31
0.0
  0
LINE
  5
1F3
330
1F
100
AcDbEntity
  8
0
  6
Continuous
 62
     7
370
    15
100
AcDbLine
 10
323.3088788665
 20
134.48082016
 30
0.0
 11
323.3996592241
 21
134.5332312692
 31
0.0
  0
LINE
  5
1F4
330
1F
100
AcDbEntity
  8
0
  6
Continuous
 62
     7
370
    15
100
AcDbLine
 10
291.44385579
 20
128.7597291777
 30
0.0
 11
294.7771884279
 21
134.5332312692
 31
0.0
  0
LINE
  5
1F5
330
1F
100
AcDbEntity
  8
0
  6
Continuous
 62
     7
370
    15
100
AcDbLine
 10
291.5346361475
 20
128.7073168267
 30
0.0
 11
291.44385579
 21
128.7597291777
 31
0.0
  0
LINE
  5
1F6
330
1F
100
AcDbEntity
  8
0
  6
Continuous
 62
     7
370
    15
100
AcDbLine
 10
294.8679687855
 20
134.48082016
 30
0.0
 11
294.7771884279
 21
134.5332312692
 31
0.0
  0
LINE
  5
1F7
330
1F
100
AcDbEntity
  8
0
  6
Continuous
 62
     7
370
    15
100
AcDbLine
 10
312.4217570848
 20
103.9719430714
 30
0.0
 11
305.7550905672
 21
103.9719430714
 31
0.0
  0
LINE
  5
1F8
330
1F
100
AcDbEntity
  8
0
  6
Continuous
 62
     7
370
    15
100
AcDbLine
 10
305.7550905672
 20
104.0767665316
 30
0.0
 11
305.7550905672
 21
103.9719430714
 31
0.0
  0
LINE
  5
1F9
330
1F
100
AcDbEntity
  8
0
  6
Continuous
 62
     7
370
    15
100
AcDbLine
 10
312.4217570848
 20
104.0767665316
 30
0.0
 11
312.4217570848
 21
103.9719430714
 31
0.0
  0
ARC
  5
1FA
330
1F
100
AcDbEntity
  8
0
  6
Continuous
 62
     7
370
    15
100
AcDbCircle
 10
309.088423826
 20
122.4216345061
 30
0.0
 40
15.66151146397518
100
AcDbArc
 50
42.2886006209
 51
137.7113993791
  0
ARC
  5
1FB
330
1F
100
AcDbEntity
  8
0
  6
Continuous
 62
     7
370
    15
100
AcDbCircle
 10
309.088423826
 20
122.4216345061
 30
0.0
 40
15.66151146397514
100
AcDbArc
 50
282.2886006209
 51
17.7113993791
  0
ARC
  5
1FC
330
1F
100
AcDbEntity
  8
0
  6
Continuous
 62
     7
370
    15
100
AcDbCircle
 10
309.088423826
 20
122.4216345061
 30
0.0
 40
15.66151146397521
100
AcDbArc
 50
162.2886006209
 51
257.7113993791
  0
SPLINE
  5
1FD
330
1F
100
AcDbEntity
  8
0
  6
Continuous
 62
     7
370
    15
100
AcDbSpline
210
0.0
220
0.0
230
1.0
 70
     8
 71
     3
 72
    10
 73
     6
 74
     0
 42
0.00000001
 43
0.00000001
 12
1.0
 22
0.0
 32
0.0
 13
1.0
 23
0.0
 33
0.0
 40
0.0
 40
0.0
 40
0.0
 40
0.0
 40
0.5
 40
0.5
 40
1.0
 40
1.0
 40
1.0
 40
1.0
 10
324.914648640803
 20
135.4079114577754
 30
0.0
 10
325.4695378474319
 20
134.4452681831048
 30
0.0
 10
326.0240308934142
 20
133.4823917359515
 30
0.0
 10
327.135142562264
 20
131.5578899150257
 30
0.0
 10
327.6917557825701
 20
130.5962738215634
 30
0.0
 10
328.2479819741363
 20
129.6344087658791
 30
0.0
  0
LINE
  5
1FE
330
1F
100
AcDbEntity
  8
0
  6
Continuous
 62
     7
370
    15
100
AcDbLine
 10
326.732991862
 20
128.7597291777
 30
0.0
 11
328.2479817447
 21
129.6344087133
 31
0.0
  0
LINE
  5
1FF
330
1F
100
AcDbEntity
  8
0
  6
Continuous
 62
     7
370
    15
100
AcDbLine
 10
323.3996592241
 20
134.5332312692
 30
0.0
 11
324.9146491068
 21
135.4079120466
 31
0.0
  0
SPLINE
  5
200
330
1F
100
AcDbEntity
  8
0
  6
Continuous
 62
     7
370
    15
100
AcDbSpline
210
0.0
220
0.0
230
1.0
 70
     8
 71
     3
 72
    10
 73
     6
 74
     0
 42
0.00000001
 43
0.00000001
 12
1.0
 22
0.0
 32
0.0
 13
1.0
 23
0.0
 33
0.0
 40
0.0
 40
0.0
 40
0.0
 40
0.0
 40
0.5000000000000002
 40
0.5000000000000002
 40
1.0
 40
1.0
 40
1.0
 40
1.0
 10
289.9288656778562
 20
129.6344087658794
 30
0.0
 10
290.4850791504408
 20
130.5962518270152
 30
0.0
 10
291.0416796534204
 20
131.5578458936885
 30
0.0
 10
292.1528112029191
 20
133.4823820776294
 30
0.0
 10
292.7073053889318
 20
134.4452605227013
 30
0.0
 10
293.2621990111895
 20
135.4079114577756
 30
0.0
  0
LINE
  5
201
330
1F
100
AcDbEntity
  8
0
  6
Continuous
 62
     7
370
    15
100
AcDbLine
 10
291.44385579
 20
128.7597291777
 30
0.0
 11
289.9288659073
 21
129.6344087133
 31
0.0
  0
LINE
  5
202
330
1F
100
AcDbEntity
  8
0
  6
Continuous
 62
     7
370
    15
100
AcDbLine
 10
294.7771884279
 20
134.5332312692
 30
0.0
 11
293.2621985452
 21
135.4079120466
 31
0.0
  0
SPLINE
  5
203
330
1F
100
AcDbEntity
  8
0
  6
Continuous
 62
     7
370
    15
100
AcDbSpline
210
0.0
220
0.0
230
1.0
 70
     8
 71
     3
 72
     9
 73
     5
 74
     0
 42
0.00000001
 43
0.00000001
 12
1.0
 22
0.0
 32
0.0
 13
1.0
 23
0.0
 33
0.0
 40
0.0
 40
0.0
 40
0.0
 40
0.0
 40
0.5
 40
1.0
 40
1.0
 40
1.0
 40
1.0
 10
312.4217571593293
 20
102.2225832946264
 30
0.0
 10
311.3106460482182
 20
102.2233567778464
 30
0.0
 10
309.0884238259961
 20
102.2258230854903
 30
0.0
 10
306.8662016037738
 20
102.2233567778464
 30
0.0
 10
305.7550904926627
 20
102.2225832946265
 30
0.0
  0
LINE
  5
204
330
1F
100
AcDbEntity
  8
0
  6
Continuous
 62
     7
370
    15
100
AcDbLine
 10
305.7550905672
 20
103.9719430714
 30
0.0
 11
305.7550905672
 21
102.2225827584
 31
0.0
  0
LINE
  5
205
330
1F
100
AcDbEntity
  8
0
  6
Continuous
 62
     7
370
    15
100
AcDbLine
 10
312.4217570848
 20
103.9719430714
 30
0.0
 11
312.4217570848
 21
102.2225827584
 31
0.0
  0
SPLINE
  5
206
330
1F
100
AcDbEntity
  8
0
  6
Continuous
 62
     7
370
    15
100
AcDbSpline
210
0.0
220
0.0
230
1.0
 70
    11
 71
     3
 72
    69
 73
    65
 74
     0
 42
0.00000001
 43
0.00000001
 12
1.0
 22
0.0
 32
0.0
 13
1.0
 23
0.0
 33
0.0
 40
0.3068205676466258
 40
0.3068205676466258
 40
0.3068205676466258
 40
0.3068205676466258
 40
0.3105077704155788
 40
0.3407616556233681
 40
0.3710155408311574
 40
0.3710155408311574
 40
0.3855122553472545
 40
0.4000089698633514
 40
0.4145056843794486
 40
0.4290023988955456
 40
0.4290023988955456
 40
0.4467517991716592
 40
0.4645011994477728
 40
0.4822505997238865
 40
0.5000000000000001
 40
0.5000000000000001
 40
0.5177494002761137
 40
0.5354988005522274
 40
0.553248200828341
 40
0.5709976011044546
 40
0.5709976011044546
 40
0.5854943156205517
 40
0.5999910301366487
 40
0.6144877446527457
 40
0.6289844591688427
 40
0.6289844591688427
 40
0.659238344376632
 40
0.6894922295844214
 40
0.7197461147922107
 40
0.75
 40
0.75
 40
0.7802538852077894
 40
0.8105077704155786
 40
0.8407616556233679
 40
0.8710155408311573
 40
0.8710155408311573
 40
0.8855122553472543
 40
0.9000089698633513
 40
0.9145056843794485
 40
0.9290023988955455
 40
0.9290023988955455
 40
0.9467517991716592
 40
0.9645011994477727
 40
0.9822505997238864
 40
1.0
 40
1.0
 40
1.0
 40
1.017749400276114
 40
1.035498800552227
 40
1.053248200828341
 40
1.070997601104455
 40
1.070997601104455
 40
1.085494315620552
 40
1.099991030136649
 40
1.114487744652746
 40
1.128984459168843
 40
1.128984459168843
 40
1.159238344376633
 40
1.189492229584422
 40
1.219746114792211
 40
1.25
 40
1.25
 40
1.280253885207789
 40
1.306820567646626
 40
1.306820567646626
 40
1.306820567646626
 40
1.306820567646626
 10
328.4186445117012
 20
115.1103346157941
 30
0.0
 10
328.3614482019617
 20
114.9590812298703
 30
0.0
 10
327.8186741575805
 20
113.5732070882263
 30
0.0
 10
326.5111512430279
 20
111.071731127305
 30
0.0
 10
324.8658142670092
 20
109.0094248384638
 30
0.0
 10
323.525673839496
 20
107.6206961188435
 30
0.0
 10
322.6344526266747
 20
106.778343866988
 30
0.0
 10
321.2201683144435
 20
105.6583112579876
 30
0.0
 10
319.7160043596401
 20
104.6661628431511
 30
0.0
 10
318.6414350775227
 20
104.0848457827073
 30
0.0
 10
317.3959774059356
 20
103.4829066276078
 30
0.0
 10
315.9759517715905
 20
102.8903175648015
 30
0.0
 10
313.733907943165
 20
102.2384971664023
 30
0.0
 10
311.4216426902515
 20
101.8424990945057
 30
0.0
 10
309.8637764070567
 20
101.754967839427
 30
0.0
 10
308.3130712449356
 20
101.754967839427
 30
0.0
 10
306.7552049617408
 20
101.8424990945057
 30
0.0
 10
304.4429397088273
 20
102.2384971664023
 30
0.0
 10
302.2008958804018
 20
102.8903175648016
 30
0.0
 10
300.7808702460567
 20
103.4829066276078
 30
0.0
 10
299.5354125744697
 20
104.0848457827073
 30
0.0
 10
298.4608432923522
 20
104.6661628431511
 30
0.0
 10
296.9566793375488
 20
105.6583112579876
 30
0.0
 10
295.5423950253176
 20
106.778343866988
 30
0.0
 10
294.6511738124963
 20
107.6206961188435
 30
0.0
 10
293.3110333849831
 20
109.0094248384638
 30
0.0
 10
291.6656964089644
 20
111.071731127305
 30
0.0
 10
289.8170634303486
 20
114.6084270468226
 30
0.0
 10
288.6765380494212
 20
118.4468706442004
 30
0.0
 10
288.4217571593295
 20
121.0996657677437
 30
0.0
 10
288.4217571593295
 20
123.7436032444436
 30
0.0
 10
288.6765380494212
 20
126.3963983679869
 30
0.0
 10
289.8170634303485
 20
130.2348419653647
 30
0.0
 10
291.6656964089644
 20
133.7715378848823
 30
0.0
 10
293.3110333849831
 20
135.8338441737235
 30
0.0
 10
294.6511738124963
 20
137.2225728933438
 30
0.0
 10
295.5423950253175
 20
138.0649251451993
 30
0.0
 10
296.9566793375488
 20
139.1849577541997
 30
0.0
 10
298.4608432923521
 20
140.1771061690363
 30
0.0
 10
299.5354125744697
 20
140.75842322948
 30
0.0
 10
300.7808702460567
 20
141.3603623845795
 30
0.0
 10
302.2008958804018
 20
141.9529514473858
 30
0.0
 10
304.4429397088273
 20
142.604771845785
 30
0.0
 10
306.7552049617408
 20
143.0007699176816
 30
0.0
 10
308.3130712449356
 20
143.0883011727603
 30
0.0
 10
309.0884238259962
 20
143.0883011727603
 30
0.0
 10
309.8637764070567
 20
143.0883011727603
 30
0.0
 10
311.4216426902515
 20
143.0007699176816
 30
0.0
 10
313.733907943165
 20
142.604771845785
 30
0.0
 10
315.9759517715905
 20
141.9529514473857
 30
0.0
 10
317.3959774059356
 20
141.3603623845795
 30
0.0
 10
318.6414350775227
 20
140.75842322948
 30
0.0
 10
319.7160043596402
 20
140.1771061690362
 30
0.0
 10
321.2201683144435
 20
139.1849577541997
 30
0.0
 10
322.6344526266748
 20
138.0649251451993
 30
0.0
 10
323.5256738394961
 20
137.2225728933437
 30
0.0
 10
324.8658142670093
 20
135.8338441737235
 30
0.0
 10
326.5111512430279
 20
133.7715378848823
 30
0.0
 10
328.3597842216438
 20
130.2348419653647
 30
0.0
 10
329.5003096025711
 20
126.3963983679869
 30
0.0
 10
329.7550904926628
 20
123.7436032444436
 30
0.0
 10
329.7550904926628
 20
121.0996657677437
 30
0.0
 10
329.5158353573126
 20
118.6085258077903
 30
0.0
 10
328.8307499186286
 20
116.200131115588
 30
0.0
 10
328.4186445117012
 20
115.1103346157941
 30
0.0
  0
SPLINE
  5
207
330
1F
100
AcDbEntity
  8
0
  6
Continuous
 62
     7
370
    15
100
AcDbSpline
210
0.0
220
0.0
230
1.0
 70
     8
 71
     3
 72
    12
 73
     8
 74
     0
 42
0.00000001
 43
0.00000001
 12
1.0
 22
0.0
 32
0.0
 13
1.0
 23
0.0
 33
0.0
 40
0.0
 40
0.0
 40
0.0
 40
0.0
 40
0.2500000000000013
 40
0.2500000000000013
 40
0.5000000000000026
 40
0.5000000000000026
 40
1.0
 40
1.0
 40
1.0
 40
1.0
 10
287.6982405890926
 20
98.94927002384297
 30
0.0
 10
287.7394110638555
 20
98.73207957095399
 30
0.0
 10
287.7803684789141
 20
98.51469016690018
 30
0.0
 10
287.8616666118028
 20
98.07945842095609
 30
0.0
 10
287.901848161351
 20
97.86156589137119
 30
0.0
 10
288.0470681945555
 20
97.21553884309296
 30
0.0
 10
288.1679199277184
 20
96.79216452785965
 30
0.0
 10
288.3120402009059
 20
96.37578608464946
 30
0.0
  0
SPLINE
  5
208
330
1F
100
AcDbEntity
  8
0
  6
Continuous
 62
     7
370
    15
100
AcDbSpline
210
0.0
220
0.0
230
1.0
 70
     8
 71
     3
 72
    22
 73
    18
 74
     0
 42
0.00000001
 43
0.00000001
 12
1.0
 22
0.0
 32
0.0
 13
1.0
 23
0.0
 33
0.0
 40
0.0
 40
0.0
 40
0.0
 40
0.0
 40
0.1250000000000001
 40
0.1250000000000001
 40
0.2500000000000002
 40
0.2500000000000002
 40
0.3750000000000003
 40
0.3750000000000003
 40
0.5000000000000003
 40
0.5000000000000003
 40
0.6250000000000003
 40
0.6250000000000003
 40
0.7500000000000003
 40
0.7500000000000003
 40
0.8750000000000002
 40
0.8750000000000002
 40
1.0
 40
1.0
 40
1.0
 40
1.0
 10
287.6982405890933
 20
145.8939989883482
 30
0.0
 10
287.3328064206615
 20
143.9661899698783
 30
0.0
 10
287.0097558873413
 20
142.0278352739933
 30
0.0
 10
286.4460540636893
 20
138.1337666246634
 30
0.0
 10
286.2057622123365
 20
136.1809827769542
 30
0.0
 10
285.8119043828466
 20
132.263393360798
 30
0.0
 10
285.6583408340513
 20
130.2988166845825
 30
0.0
 10
285.4481252267381
 20
126.3655581751733
 30
0.0
 10
285.3912618965981
 20
124.3946109200288
 30
0.0
 10
285.3911835992761
 20
120.4526962521772
 30
0.0
 10
285.4479748715475
 20
118.4817930891533
 30
0.0
 10
285.6580547164738
 20
114.5485393724108
 30
0.0
 10
285.8115603046093
 20
112.5839065057794
 30
0.0
 10
286.2052915618123
 20
108.6663605086066
 30
0.0
 10
286.4455252121587
 20
106.7135620194353
 30
0.0
 10
287.0091237678669
 20
102.8193949638906
 30
0.0
 10
287.3322584633428
 20
100.8799697327592
 30
0.0
 10
287.6982405890926
 20
98.94927002384296
 30
0.0
  0
SPLINE
  5
209
330
1F
100
AcDbEntity
  8
0
  6
Continuous
 62
     7
370
    15
100
AcDbSpline
210
0.0
220
0.0
230
1.0
 70
     8
 71
     3
 72
    12
 73
     8
 74
     0
 42
0.00000001
 43
0.00000001
 12
1.0
 22
0.0
 32
0.0
 13
1.0
 23
0.0
 33
0.0
 40
0.0
 40
0.0
 40
0.0
 40
0.0
 40
0.5000000000000002
 40
0.5000000000000002
 40
0.7500000000000001
 40
0.7500000000000001
 40
1.0
 40
1.0
 40
1.0
 40
1.0
 10
288.3120402009095
 20
148.467482927548
 30
0.0
 10
288.1679199277212
 20
148.0511044843369
 30
0.0
 10
288.0470681945577
 20
147.6277301691026
 30
0.0
 10
287.9018481613525
 20
146.9817031208228
 30
0.0
 10
287.861666611804
 20
146.7638105912374
 30
0.0
 10
287.780368478915
 20
146.3285788452922
 30
0.0
 10
287.7394110638562
 20
146.1111894412361
 30
0.0
 10
287.698240589093
 20
145.8939989883466
 30
0.0
  0
SPLINE
  5
20A
330
1F
100
AcDbEntity
  8
0
  6
Continuous
 62
     7
370
    15
100
AcDbSpline
210
0.0
220
0.0
230
1.0
 70
     8
 71
     3
 72
    22
 73
    18
 74
     0
 42
0.00000001
 43
0.00000001
 12
1.0
 22
0.0
 32
0.0
 13
1.0
 23
0.0
 33
0.0
 40
0.0
 40
0.0
 40
0.0
 40
0.0
 40
0.2499999999999997
 40
0.2499999999999997
 40
0.3124999999999996
 40
0.3124999999999996
 40
0.3749999999999996
 40
0.3749999999999996
 40
0.4999999999999996
 40
0.4999999999999996
 40
0.7499999999999996
 40
0.7499999999999996
 40
0.8124999999999996
 40
0.8124999999999996
 40
0.8749999999999997
 40
0.8749999999999997
 40
1.0
 40
1.0
 40
1.0
 40
1.0
 10
322.1612759166767
 20
155.9669349771401
 30
0.0
 10
320.052889545533
 20
156.6451914117042
 30
0.0
 10
317.9015490216802
 20
157.1527678707769
 30
0.0
 10
315.1608347933276
 20
157.5812338125046
 30
0.0
 10
314.6100929131846
 20
157.6565422777803
 30
0.0
 10
313.5033569330412
 20
157.78616178793
 30
0.0
 10
312.9474793204903
 20
157.840404539431
 30
0.0
 10
311.285139843726
 20
157.9702390224158
 30
0.0
 10
310.1795645339987
 20
158.0136651552475
 30
0.0
 10
306.8709231765249
 20
158.012729660923
 30
0.0
 10
304.6757893626475
 20
157.8394993825902
 30
0.0
 10
301.9447100835794
 20
157.4140484956129
 30
0.0
 10
301.3991469418108
 20
157.3183460388718
 30
0.0
 10
300.3093531933952
 20
157.1052971217543
 30
0.0
 10
299.7644505260895
 20
156.9877670554949
 30
0.0
 10
298.1411629711039
 20
156.6041523777179
 30
0.0
 10
297.0718179467518
 20
156.3067236416826
 30
0.0
 10
296.0155717353156
 20
155.9669349771401
 30
0.0
  0
SPLINE
  5
20B
330
1F
100
AcDbEntity
  8
0
  6
Continuous
 62
     7
370
    15
100
AcDbSpline
210
0.0
220
0.0
230
1.0
 70
     8
 71
     3
 72
    12
 73
     8
 74
     0
 42
0.00000001
 43
0.00000001
 12
1.0
 22
0.0
 32
0.0
 13
1.0
 23
0.0
 33
0.0
 40
0.0
 40
0.0
 40
0.0
 40
0.0
 40
0.2499999999999984
 40
0.2499999999999984
 40
0.4999999999999969
 40
0.4999999999999969
 40
1.0
 40
1.0
 40
1.0
 40
1.0
 10
330.4786070628998
 20
145.8939989883443
 30
0.0
 10
330.4374365881368
 20
146.1111894412332
 30
0.0
 10
330.3964791730783
 20
146.3285788452869
 30
0.0
 10
330.3151810401896
 20
146.7638105912309
 30
0.0
 10
330.2749994906414
 20
146.9817031208157
 30
0.0
 10
330.129779457437
 20
147.6277301690937
 30
0.0
 10
330.0089277242742
 20
148.0511044843269
 30
0.0
 10
329.8648074510867
 20
148.4674829275369
 30
0.0
  0
SPLINE
  5
20C
330
1F
100
AcDbEntity
  8
0
  6
Continuous
 62
     7
370
    15
100
AcDbSpline
210
0.0
220
0.0
230
1.0
 70
     8
 71
     3
 72
    22
 73
    18
 74
     0
 42
0.00000001
 43
0.00000001
 12
1.0
 22
0.0
 32
0.0
 13
1.0
 23
0.0
 33
0.0
 40
0.0
 40
0.0
 40
0.0
 40
0.0
 40
0.1249999999999999
 40
0.1249999999999999
 40
0.2499999999999999
 40
0.2499999999999999
 40
0.3749999999999999
 40
0.3749999999999999
 40
0.5
 40
0.5
 40
0.625
 40
0.625
 40
0.7500000000000001
 40
0.7500000000000001
 40
0.875
 40
0.875
 40
1.0
 40
1.0
 40
1.0
 40
1.0
 10
330.4786070628993
 20
98.94927002384054
 30
0.0
 10
330.8440412313311
 20
100.8770790423104
 30
0.0
 10
331.1670917646513
 20
102.8154337381954
 30
0.0
 10
331.7307935883032
 20
106.7095023875251
 30
0.0
 10
331.971085439656
 20
108.6622862352343
 30
0.0
 10
332.3649432691458
 20
112.5798756513903
 30
0.0
 10
332.5185068179412
 20
114.5444523276058
 30
0.0
 10
332.7287224252543
 20
118.4777108370148
 30
0.0
 10
332.7855857553943
 20
120.4486580921593
 30
0.0
 10
332.7856640527162
 20
124.3905727600108
 30
0.0
 10
332.7288727804448
 20
126.3614759230346
 30
0.0
 10
332.5187929355184
 20
130.294729639777
 30
0.0
 10
332.3652873473831
 20
132.2593625064083
 30
0.0
 10
331.9715560901801
 20
136.1769085035809
 30
0.0
 10
331.7313224398337
 20
138.1297069927521
 30
0.0
 10
331.1677238841254
 20
142.0238740482968
 30
0.0
 10
330.8445891886496
 20
143.9632992794281
 30
0.0
 10
330.4786070628998
 20
145.8939989883443
 30
0.0
  0
SPLINE
  5
20D
330
1F
100
AcDbEntity
  8
0
  6
Continuous
 62
     7
370
    15
100
AcDbSpline
210
0.0
220
0.0
230
1.0
 70
     8
 71
     3
 72
    12
 73
     8
 74
     0
 42
0.00000001
 43
0.00000001
 12
1.0
 22
0.0
 32
0.0
 13
1.0
 23
0.0
 33
0.0
 40
0.0
 40
0.0
 40
0.0
 40
0.0
 40
0.5000000000000021
 40
0.5000000000000021
 40
0.750000000000001
 40
0.750000000000001
 40
1.0
 40
1.0
 40
1.0
 40
1.0
 10
329.8648074510829
 20
96.37578608463929
 30
0.0
 10
330.0089277242713
 20
96.79216452785067
 30
0.0
 10
330.1297794574348
 20
97.2155388430852
 30
0.0
 10
330.2749994906401
 20
97.86156589136536
 30
0.0
 10
330.3151810401885
 20
98.07945842095093
 30
0.0
 10
330.3964791730776
 20
98.51469016689639
 30
0.0
 10
330.4374365881363
 20
98.73207957095187
 30
0.0
 10
330.4786070628995
 20
98.94927002384154
 30
0.0
  0
SPLINE
  5
20E
330
1F
100
AcDbEntity
  8
0
  6
Continuous
 62
     7
370
    15
100
AcDbSpline
210
0.0
220
0.0
230
1.0
 70
     8
 71
     3
 72
    22
 73
    18
 74
     0
 42
0.00000001
 43
0.00000001
 12
1.0
 22
0.0
 32
0.0
 13
1.0
 23
0.0
 33
0.0
 40
0.0
 40
0.0
 40
0.0
 40
0.0
 40
0.2499999999999998
 40
0.2499999999999998
 40
0.3124999999999998
 40
0.3124999999999998
 40
0.3749999999999998
 40
0.3749999999999998
 40
0.4999999999999999
 40
0.4999999999999999
 40
0.75
 40
0.75
 40
0.8125000000000001
 40
0.8125000000000001
 40
0.8750000000000002
 40
0.8750000000000002
 40
1.0
 40
1.0
 40
1.0
 40
1.0
 10
296.0155717353156
 20
88.87633403504715
 30
0.0
 10
298.1239581064594
 20
88.19807760048296
 30
0.0
 10
300.2752986303122
 20
87.69050114141037
 30
0.0
 10
303.0160128586647
 20
87.26203519968264
 30
0.0
 10
303.5667547388077
 20
87.18672673440692
 30
0.0
 10
304.6734907189511
 20
87.05710722425722
 30
0.0
 10
305.229368331502
 20
87.00286447275619
 30
0.0
 10
306.8917078082663
 20
86.87302998977137
 30
0.0
 10
307.9972831179937
 20
86.82960385693968
 30
0.0
 10
311.3059244754676
 20
86.83053935126425
 30
0.0
 10
313.5010582893449
 20
87.00376962959704
 30
0.0
 10
316.232137568413
 20
87.42922051657436
 30
0.0
 10
316.7777007101816
 20
87.52492297331541
 30
0.0
 10
317.8674944585971
 20
87.73797189043293
 30
0.0
 10
318.4123971259029
 20
87.85550195669231
 30
0.0
 10
320.0356846808884
 20
88.23911663446937
 30
0.0
 10
321.1050297052406
 20
88.53654537050461
 30
0.0
 10
322.1612759166767
 20
88.87633403504712
 30
0.0
  0
ARC
  5
20F
330
1F
100
AcDbEntity
  8
0
  6
Continuous
 62
     7
370
    15
100
AcDbCircle
 10
287.4217571593
 20
157.0883011728
 30
0.0
 40
8.666666666666675
100
AcDbArc
 50
123.2332934159
 51
81.0410131112
  0
ARC
  5
210
330
1F
100
AcDbEntity
  8
0
  6
Continuous
 62
     7
370
    15
100
AcDbCircle
 10
285.6402388357
 20
156.194978932
 30
0.0
 40
8.666666666666698
100
AcDbArc
 50
102.4613416962
 51
110.0286237622
  0
ARC
  5
211
330
1F
100
AcDbEntity
  8
0
  6
Continuous
 62
     7
370
    15
100
AcDbCircle
 10
309.088423826
 20
50.0883011728
 30
0.0
 40
117.3333333333333
100
AcDbArc
 50
99.9713954492
 51
102.4613416962
  0
ARC
  5
212
330
1F
100
AcDbEntity
  8
0
  6
Continuous
 62
     7
370
    15
100
AcDbCircle
 10
309.088423826
 20
50.0883011728
 30
0.0
 40
117.3333333333333
100
AcDbArc
 50
77.5386583038
 51
80.0286045508
  0
ARC
  5
213
330
1F
100
AcDbEntity
  8
0
  6
Continuous
 62
     7
370
    15
100
AcDbCircle
 10
332.5366088163
 20
156.194978932
 30
0.0
 40
8.666666666666684
100
AcDbArc
 50
69.9713762378
 51
77.5386583038
  0
ARC
  5
214
330
1F
100
AcDbEntity
  8
0
  6
Continuous
 62
     7
370
    15
100
AcDbCircle
 10
330.7550904927
 20
157.0883011728
 30
0.0
 40
8.666666666666659
100
AcDbArc
 50
98.9589868888
 51
56.7667065841
  0
ARC
  5
215
330
1F
100
AcDbEntity
  8
0
  6
Continuous
 62
     7
370
    15
100
AcDbCircle
 10
330.7550904927
 20
87.7549678394
 30
0.0
 40
8.666666666666675
100
AcDbArc
 50
303.2332934159
 51
261.0410131112
  0
ARC
  5
216
330
1F
100
AcDbEntity
  8
0
  6
Continuous
 62
     7
370
    15
100
AcDbCircle
 10
332.5366088163
 20
88.6482900802
 30
0.0
 40
8.666666666666671
100
AcDbArc
 50
282.4613416962
 51
290.0286237622
  0
ARC
  5
217
330
1F
100
AcDbEntity
  8
0
  6
Continuous
 62
     7
370
    15
100
AcDbCircle
 10
309.088423826
 20
194.7549678394
 30
0.0
 40
117.3333333333333
100
AcDbArc
 50
279.9713954492
 51
282.4613416962
  0
ARC
  5
218
330
1F
100
AcDbEntity
  8
0
  6
Continuous
 62
     7
370
    15
100
AcDbCircle
 10
285.6402388357
 20
88.6482900802
 30
0.0
 40
8.666666666666677
100
AcDbArc
 50
249.9713762378
 51
257.5386583038
  0
ARC
  5
219
330
1F
100
AcDbEntity
  8
0
  6
Continuous
 62
     7
370
    15
100
AcDbCircle
 10
309.088423826
 20
194.7549678394
 30
0.0
 40
117.3333333333333
100
AcDbArc
 50
257.5386583038
 51
260.0286045508
  0
ARC
  5
21A
330
1F
100
AcDbEntity
  8
0
  6
Continuous
 62
     7
370
    15
100
AcDbCircle
 10
287.4217571593
 20
87.7549678394
 30
0.0
 40
8.666666666666675
100
AcDbArc
 50
278.9589868888
 51
236.7667065841
  0
ARC
  5
21B
330
1F
100
AcDbEntity
  8
0
  6
Continuous
 62
     7
370
    15
100
AcDbCircle
 10
309.088423826
 20
194.7549678394
 30
0.0
 40
117.3333333333333
100
AcDbArc
 50
260.0286045508
 51
279.9713954492
  0
ARC
  5
21C
330
1F
100
AcDbEntity
  8
0
  6
Continuous
 62
     7
370
    15
100
AcDbCircle
 10
309.088423826
 20
50.0883011728
 30
0.0
 40
117.3333333333333
100
AcDbArc
 50
80.0286045508
 51
99.9713954492
  0
ARC
  5
21D
330
1F
100
AcDbEntity
  8
0
  6
Continuous
 62
     7
370
    15
100
AcDbCircle
 10
753.088423826
 20
122.4216345061
 30
0.0
 40
477.3333333333333
100
AcDbArc
 50
175.9899436439
 51
184.0100563561
  0
ARC
  5
21E
330
1F
100
AcDbEntity
  8
0
  6
Continuous
 62
     7
370
    15
100
AcDbCircle
 10
-134.911576174
 20
122.4216345061
 30
0.0
 40
477.3333333333333
100
AcDbArc
 50
355.9899436439
 51
4.0100563561
  0
SPLINE
  5
21F
330
1F
100
AcDbEntity
  8
0
  6
Continuous
 62
     7
370
    15
100
AcDbSpline
210
0.0
220
0.0
230
1.0
 70
     8
 71
     3
 72
     8
 73
     4
 74
     0
 42
0.00000001
 43
0.00000001
 12
1.0
 22
0.0
 32
0.0
 13
1.0
 23
0.0
 33
0.0
 40
0.0
 40
0.0
 40
0.0
 40
0.0
 40
1.0
 40
1.0
 40
1.0
 40
1.0
 10
276.9237020259688
 20
155.8022999310615
 30
0.0
 10
276.9474833656173
 20
156.1415332816733
 30
0.0
 10
276.9716177182887
 20
156.4806056664834
 30
0.0
 10
276.9961045471051
 20
156.8195215743075
 30
0.0
  0
SPLINE
  5
220
330
1F
100
AcDbEntity
  8
0
  6
Continuous
 62
     7
370
    15
100
AcDbSpline
210
0.0
220
0.0
230
1.0
 70
     8
 71
     3
 72
    24
 73
    20
 74
     0
 42
0.00000001
 43
0.00000001
 12
1.0
 22
0.0
 32
0.0
 13
1.0
 23
0.0
 33
0.0
 40
0.0
 40
0.0
 40
0.0
 40
0.0
 40
0.2500000000000039
 40
0.2500000000000039
 40
0.312500000000005
 40
0.312500000000005
 40
0.3750000000000061
 40
0.3750000000000061
 40
0.500000000000007
 40
0.500000000000007
 40
0.5625000000000066
 40
0.5625000000000066
 40
0.625000000000006
 40
0.625000000000006
 40
0.7500000000000041
 40
0.7500000000000041
 40
0.875000000000002
 40
0.875000000000002
 40
1.0
 40
1.0
 40
1.0
 40
1.0
 10
276.9961045471051
 20
156.8195215743074
 30
0.0
 10
277.0564252768992
 20
157.6544053010695
 30
0.0
 10
277.2338259737725
 20
158.461005513674
 30
0.0
 10
277.5989997029237
 20
159.4342389911838
 30
0.0
 10
277.6797194146432
 20
159.6278743323595
 30
0.0
 10
277.8541282504955
 20
160.0069498445073
 30
0.0
 10
277.9477077358331
 20
160.1923435849736
 30
0.0
 10
278.2471242168384
 20
160.7363838317387
 30
0.0
 10
278.4715460587131
 20
161.0829499661004
 30
0.0
 10
278.8453677343505
 20
161.5786267928668
 30
0.0
 10
278.9761964272832
 20
161.739808508071
 30
0.0
 10
279.2505849386366
 20
162.0538968632045
 30
0.0
 10
279.3943117561317
 20
162.2068642241811
 30
0.0
 10
279.837677476414
 20
162.6459034964468
 30
0.0
 10
280.1516046301531
 20
162.9148386362002
 30
0.0
 10
280.8153584525315
 20
163.4062304998307
 30
0.0
 10
281.1651817718337
 20
163.6286915549898
 30
0.0
 10
281.9021839971159
 20
164.0252512842099
 30
0.0
 10
282.2822477620322
 20
164.195422467248
 30
0.0
 10
282.6719960583908
 20
164.3374997902021
 30
0.0
  0
SPLINE
  5
221
330
1F
100
AcDbEntity
  8
0
  6
Continuous
 62
     7
370
    15
100
AcDbSpline
210
0.0
220
0.0
230
1.0
 70
     8
 71
     3
 72
     8
 73
     4
 74
     0
 42
0.00000001
 43
0.00000001
 12
1.0
 22
0.0
 32
0.0
 13
1.0
 23
0.0
 33
0.0
 40
0.0
 40
0.0
 40
0.0
 40
0.0
 40
1.0
 40
1.0
 40
1.0
 40
1.0
 10
341.2531456260235
 20
89.0409690811258
 30
0.0
 10
341.229364286375
 20
88.70173573051396
 30
0.0
 10
341.2052299337036
 20
88.36266334570381
 30
0.0
 10
341.1807431048872
 20
88.02374743787976
 30
0.0
  0
SPLINE
  5
222
330
1F
100
AcDbEntity
  8
0
  6
Continuous
 62
     7
370
    15
100
AcDbSpline
210
0.0
220
0.0
230
1.0
 70
     8
 71
     3
 72
    24
 73
    20
 74
     0
 42
0.00000001
 43
0.00000001
 12
1.0
 22
0.0
 32
0.0
 13
1.0
 23
0.0
 33
0.0
 40
0.0
 40
0.0
 40
0.0
 40
0.0
 40
0.2500000000000028
 40
0.2500000000000028
 40
0.3125000000000032
 40
0.3125000000000032
 40
0.3750000000000037
 40
0.3750000000000037
 40
0.500000000000004
 40
0.500000000000004
 40
0.5625000000000031
 40
0.5625000000000031
 40
0.6250000000000022
 40
0.6250000000000022
 40
0.7500000000000016
 40
0.7500000000000016
 40
0.8750000000000008
 40
0.8750000000000008
 40
1.0
 40
1.0
 40
1.0
 40
1.0
 10
341.1807431048872
 20
88.02374743787976
 30
0.0
 10
341.1204223750931
 20
87.18886371111763
 30
0.0
 10
340.9430216782199
 20
86.38226349851321
 30
0.0
 10
340.5778479490686
 20
85.40903002100347
 30
0.0
 10
340.4971282373491
 20
85.21539467982772
 30
0.0
 10
340.3227194014968
 20
84.83631916768002
 30
0.0
 10
340.2291399161592
 20
84.65092542721362
 30
0.0
 10
339.9297234351539
 20
84.10688518044851
 30
0.0
 10
339.7053015932792
 20
83.76031904608689
 30
0.0
 10
339.3314799176418
 20
83.26464221932046
 30
0.0
 10
339.2006512247091
 20
83.10346050411633
 30
0.0
 10
338.9262627133558
 20
82.78937214898275
 30
0.0
 10
338.7825358958606
 20
82.63640478800625
 30
0.0
 10
338.3391701755783
 20
82.19736551574054
 30
0.0
 10
338.0252430218392
 20
81.92843037598712
 30
0.0
 10
337.3614891994608
 20
81.43703851235664
 30
0.0
 10
337.0116658801586
 20
81.21457745719756
 30
0.0
 10
336.2746636548765
 20
80.8180177279774
 30
0.0
 10
335.8945998899602
 20
80.64784654493934
 30
0.0
 10
335.5048515936016
 20
80.50576922198525
 30
0.0
  0
SPLINE
  5
223
330
1F
100
AcDbEntity
  8
0
  6
Continuous
 62
     7
370
    15
100
AcDbSpline
210
0.0
220
0.0
230
1.0
 70
     8
 71
     3
 72
     8
 73
     4
 74
     0
 42
0.00000001
 43
0.00000001
 12
1.0
 22
0.0
 32
0.0
 13
1.0
 23
0.0
 33
0.0
 40
0.0
 40
0.0
 40
0.0
 40
0.0
 40
1.0
 40
1.0
 40
1.0
 40
1.0
 10
341.1807431048872
 20
156.8195215743076
 30
0.0
 10
341.2052299337035
 20
156.4806056664836
 30
0.0
 10
341.2293642863751
 20
156.1415332816734
 30
0.0
 10
341.2531456260236
 20
155.8022999310616
 30
0.0
  0
SPLINE
  5
224
330
1F
100
AcDbEntity
  8
0
  6
Continuous
 62
     7
370
    15
100
AcDbSpline
210
0.0
220
0.0
230
1.0
 70
     8
 71
     3
 72
    24
 73
    20
 74
     0
 42
0.00000001
 43
0.00000001
 12
1.0
 22
0.0
 32
0.0
 13
1.0
 23
0.0
 33
0.0
 40
0.0
 40
0.0
 40
0.0
 40
0.0
 40
0.1250000000000001
 40
0.1250000000000001
 40
0.2500000000000002
 40
0.2500000000000002
 40
0.3750000000000003
 40
0.3750000000000003
 40
0.4374999999999999
 40
0.4374999999999999
 40
0.4999999999999994
 40
0.4999999999999994
 40
0.7499999999999986
 40
0.7499999999999986
 40
0.8124999999999986
 40
0.8124999999999986
 40
0.8749999999999987
 40
0.8749999999999987
 40
1.0
 40
1.0
 40
1.0
 40
1.0
 10
335.5048515936016
 20
164.3374997902021
 30
0.0
 10
335.8928225237558
 20
164.1960703813879
 30
0.0
 10
336.2697951521282
 20
164.0273967343287
 30
0.0
 10
337.0013356479715
 20
163.6347143551721
 30
0.0
 10
337.3569666873274
 20
163.4093317243214
 30
0.0
 10
338.023124673083
 20
162.9166513407179
 30
0.0
 10
338.3366057543051
 20
162.6480486428168
 30
0.0
 10
338.7776013033762
 20
162.2119436487887
 30
0.0
 10
338.9197103647286
 20
162.0610208872975
 30
0.0
 10
339.1939491894339
 20
161.7478388037328
 30
0.0
 10
339.3264799308325
 20
161.5849819454004
 30
0.0
 10
339.9541149014552
 20
160.7541074222736
 30
0.0
 10
340.3527314912286
 20
160.0312197458826
 30
0.0
 10
340.7206682170143
 20
159.0543268857431
 30
0.0
 10
340.7873621494622
 20
158.855706815334
 30
0.0
 10
340.9055396800966
 20
158.4567038557753
 30
0.0
 10
340.9572792188964
 20
158.2556649666819
 30
0.0
 10
341.090664836935
 20
157.6479965206703
 30
0.0
 10
341.1505918026716
 20
157.2368380034432
 30
0.0
 10
341.1807431048872
 20
156.8195215743076
 30
0.0
  0
SPLINE
  5
225
330
1F
100
AcDbEntity
  8
0
  6
Continuous
 62
     7
370
    15
100
AcDbSpline
210
0.0
220
0.0
230
1.0
 70
     8
 71
     3
 72
     8
 73
     4
 74
     0
 42
0.00000001
 43
0.00000001
 12
1.0
 22
0.0
 32
0.0
 13
1.0
 23
0.0
 33
0.0
 40
0.0
 40
0.0
 40
0.0
 40
0.0
 40
1.0
 40
1.0
 40
1.0
 40
1.0
 10
276.9961045471051
 20
88.02374743787976
 30
0.0
 10
276.9716177182888
 20
88.36266334570378
 30
0.0
 10
276.9474833656172
 20
88.7017357305139
 30
0.0
 10
276.9237020259687
 20
89.04096908112571
 30
0.0
  0
SPLINE
  5
226
330
1F
100
AcDbEntity
  8
0
  6
Continuous
 62
     7
370
    15
100
AcDbSpline
210
0.0
220
0.0
230
1.0
 70
     8
 71
     3
 72
    24
 73
    20
 74
     0
 42
0.00000001
 43
0.00000001
 12
1.0
 22
0.0
 32
0.0
 13
1.0
 23
0.0
 33
0.0
 40
0.0
 40
0.0
 40
0.0
 40
0.0
 40
0.1250000000000003
 40
0.1250000000000003
 40
0.2500000000000006
 40
0.2500000000000006
 40
0.3750000000000009
 40
0.3750000000000009
 40
0.4375000000000006
 40
0.4375000000000006
 40
0.5000000000000002
 40
0.5000000000000002
 40
0.7500000000000008
 40
0.7500000000000008
 40
0.8125000000000006
 40
0.8125000000000006
 40
0.8750000000000002
 40
0.8750000000000002
 40
1.0
 40
1.0
 40
1.0
 40
1.0
 10
282.6719960583907
 20
80.50576922198525
 30
0.0
 10
282.2840251282365
 20
80.64719863079941
 30
0.0
 10
281.9070524998641
 20
80.8158722778586
 30
0.0
 10
281.1755120040208
 20
81.2085546570152
 30
0.0
 10
280.8198809646648
 20
81.43393728786586
 30
0.0
 10
280.1537229789092
 20
81.92661767146947
 30
0.0
 10
279.8402418976871
 20
82.19522036937056
 30
0.0
 10
279.3992463486161
 20
82.63132536339866
 30
0.0
 10
279.2571372872637
 20
82.7822481248898
 30
0.0
 10
278.9828984625584
 20
83.0954302084545
 30
0.0
 10
278.8503677211598
 20
83.2582870667869
 30
0.0
 10
278.2227327505371
 20
84.08916158991372
 30
0.0
 10
277.8241161607638
 20
84.81204926630483
 30
0.0
 10
277.456179434978
 20
85.78894212644431
 30
0.0
 10
277.3894855025301
 20
85.98756219685335
 30
0.0
 10
277.2713079718957
 20
86.38656515641209
 30
0.0
 10
277.2195684330959
 20
86.58760404550544
 30
0.0
 10
277.0861828150573
 20
87.1952724915171
 30
0.0
 10
277.0262558493208
 20
87.60643100874412
 30
0.0
 10
276.9961045471051
 20
88.02374743787976
 30
0.0
  0
ARC
  5
227
330
1F
100
AcDbEntity
  8
0
  6
Continuous
 62
     7
370
    15
100
AcDbCircle
 10
329.9480797344
 20
156.896582928
 30
0.0
 40
8.666666666666666
100
AcDbArc
 50
67.51246988
 51
79.8179297043
  0
ARC
  5
228
330
1F
100
AcDbEntity
  8
0
  6
Continuous
 62
     7
370
    15
100
AcDbCircle
 10
309.088423826
 20
40.7549678394
 30
0.0
 40
126.6666666666667
100
AcDbArc
 50
79.8179297043
 51
90.0
  0
ARC
  5
229
330
1F
100
AcDbEntity
  8
0
  6
Continuous
 62
     7
370
    15
100
AcDbCircle
 10
309.088423826
 20
40.7549678394
 30
0.0
 40
126.6666666666667
100
AcDbArc
 50
90.0
 51
100.1820702957
  0
ARC
  5
22A
330
1F
100
AcDbEntity
  8
0
  6
Continuous
 62
     7
370
    15
100
AcDbCircle
 10
288.2287679176
 20
156.896582928
 30
0.0
 40
8.66666666666667
100
AcDbArc
 50
100.1820702957
 51
112.48753012
  0
ARC
  5
22B
330
1F
100
AcDbEntity
  8
0
  6
Continuous
 62
     7
370
    15
100
AcDbCircle
 10
309.088423826
 20
204.0883011728
 30
0.0
 40
126.6666666666667
100
AcDbArc
 50
259.8179297043
 51
270.0
  0
ARC
  5
22C
330
1F
100
AcDbEntity
  8
0
  6
Continuous
 62
     7
370
    15
100
AcDbCircle
 10
288.2287679176
 20
87.9466860842
 30
0.0
 40
8.666666666666801
100
AcDbArc
 50
247.51246988
 51
259.8179297043
  0
ARC
  5
22D
330
1F
100
AcDbEntity
  8
0
  6
Continuous
 62
     7
370
    15
100
AcDbCircle
 10
309.088423826
 20
204.0883011728
 30
0.0
 40
126.6666666666667
100
AcDbArc
 50
270.0
 51
280.1820702957
  0
ARC
  5
22E
330
1F
100
AcDbEntity
  8
0
  6
Continuous
 62
     7
370
    15
100
AcDbCircle
 10
329.9480797344
 20
87.9466860842
 30
0.0
 40
8.66666666666667
100
AcDbArc
 50
280.1820702957
 51
292.4875301201
  0
LINE
  5
22F
330
1F
100
AcDbEntity
  8
0
  6
Continuous
 62
     7
370
    15
100
AcDbLine
 10
221.0884243028
 20
184.0883019675
 30
0.0
 11
221.0884243028
 21
60.7549670447
 31
0.0
  0
LINE
  5
230
330
1F
100
AcDbEntity
  8
0
  6
Continuous
 62
     7
370
    15
100
AcDbLine
 10
231.7550927179
 20
184.0883019675
 30
0.0
 11
231.7550927179
 21
60.7549670447
 31
0.0
  0
LINE
  5
231
330
1F
100
AcDbEntity
  8
0
  6
Continuous
 62
     7
370
    15
100
AcDbLine
 10
386.4217549341
 20
184.0883019675
 30
0.0
 11
386.4217549341
 21
60.7549670447
 31
0.0
  0
LINE
  5
232
330
1F
100
AcDbEntity
  8
0
  6
Continuous
 62
     7
370
    15
100
AcDbLine
 10
397.0884233492
 20
184.0883019675
 30
0.0
 11
397.0884233492
 21
60.7549670447
 31
0.0
  0
LINE
  5
233
330
1F
100
AcDbEntity
  8
0
  6
Continuous
 62
     7
370
    15
100
AcDbLine
 10
399.0884274023
 20
161.7549680778
 30
0.0
 11
399.0884274023
 21
83.0883009343
 31
0.0
  0
LINE
  5
234
330
1F
100
AcDbEntity
  8
0
  6
Continuous
 62
     7
370
    15
100
AcDbLine
 10
219.0884202497
 20
161.7549680778
 30
0.0
 11
219.0884202497
 21
83.0883009343
 31
0.0
  0
LINE
  5
235
330
1F
100
AcDbEntity
  8
0
  6
Continuous
 62
     7
370
    15
100
AcDbLine
 10
370.5387462951
 20
124.4216345235
 30
0.0
 11
370.5387462951
 21
120.4216344887
 31
0.0
  0
LINE
  5
236
330
1F
100
AcDbEntity
  8
0
  6
Continuous
 62
     7
370
    15
100
AcDbLine
 10
386.4217549341
 20
120.4216344887
 30
0.0
 11
370.5387462951
 21
120.4216344887
 31
0.0
  0
LINE
  5
237
330
1F
100
AcDbEntity
  8
0
  6
Continuous
 62
     7
370
    15
100
AcDbLine
 10
386.4217549341
 20
124.4216345235
 30
0.0
 11
370.5387462951
 21
124.4216345235
 31
0.0
  0
LINE
  5
238
330
1F
100
AcDbEntity
  8
0
  6
Continuous
 62
     7
370
    15
100
AcDbLine
 10
247.6381013569
 20
124.4216345235
 30
0.0
 11
247.6381013569
 21
120.4216344887
 31
0.0
  0
LINE
  5
239
330
1F
100
AcDbEntity
  8
0
  6
Continuous
 62
     7
370
    15
100
AcDbLine
 10
231.7550927179
 20
120.4216344887
 30
0.0
 11
247.6381013569
 21
120.4216344887
 31
0.0
  0
LINE
  5
23A
330
1F
100
AcDbEntity
  8
0
  6
Continuous
 62
     7
370
    15
100
AcDbLine
 10
231.7550927179
 20
124.4216345235
 30
0.0
 11
247.6381013569
 21
124.4216345235
 31
0.0
  0
LINE
  5
23B
330
1F
100
AcDbEntity
  8
0
  6
Continuous
 62
     7
370
    15
100
AcDbLine
 10
247.6381013569
 20
120.4216344887
 30
0.0
 11
275.7592797058
 21
120.4216344887
 31
0.0
  0
LINE
  5
23C
330
1F
100
AcDbEntity
  8
0
  6
Continuous
 62
     7
370
    15
100
AcDbLine
 10
247.6381013569
 20
124.4216345235
 30
0.0
 11
275.7592797058
 21
124.4216345235
 31
0.0
  0
LINE
  5
23D
330
1F
100
AcDbEntity
  8
0
  6
Continuous
 62
     7
370
    15
100
AcDbLine
 10
370.5387462951
 20
120.4216344887
 30
0.0
 11
342.4175679462
 21
120.4216344887
 31
0.0
  0
LINE
  5
23E
330
1F
100
AcDbEntity
  8
0
  6
Continuous
 62
     7
370
    15
100
AcDbLine
 10
370.5387462951
 20
124.4216345235
 30
0.0
 11
342.4175679462
 21
124.4216345235
 31
0.0
  0
LINE
  5
23F
330
1F
100
AcDbEntity
  8
0
  6
Continuous
 62
     7
370
    15
100
AcDbLine
 10
370.9880957779
 20
148.0883010337
 30
0.0
 11
370.9880957779
 21
124.4216345235
 31
0.0
  0
LINE
  5
240
330
1F
100
AcDbEntity
  8
0
  6
Continuous
 62
     7
370
    15
100
AcDbLine
 10
247.1887518741
 20
148.0883010337
 30
0.0
 11
247.1887518741
 21
124.4216345235
 31
0.0
  0
LINE
  5
241
330
1F
100
AcDbEntity
  8
0
  6
Continuous
 62
     7
370
    15
100
AcDbLine
 10
370.9880957779
 20
120.4216344887
 30
0.0
 11
370.9880957779
 21
96.7549679785
 31
0.0
  0
LINE
  5
242
330
1F
100
AcDbEntity
  8
0
  6
Continuous
 62
     7
370
    15
100
AcDbLine
 10
247.1887518741
 20
120.4216344887
 30
0.0
 11
247.1887518741
 21
96.7549679785
 31
0.0
  0
LINE
  5
243
330
1F
100
AcDbEntity
  8
0
  6
Continuous
 62
     7
370
     0
100
AcDbLine
 10
322.1542214132
 20
133.8141782193
 30
0.0
 11
325.4875552929
 21
128.0406755069
 31
0.0
  0
LINE
  5
244
330
1F
100
AcDbEntity
  8
0
  6
Continuous
 62
     7
370
     0
100
AcDbLine
 10
312.4217570848
 20
105.4100491712
 30
0.0
 11
305.7550905672
 21
105.4100491712
 31
0.0
  0
LINE
  5
245
330
1F
100
AcDbEntity
  8
0
  6
Continuous
 62
     7
370
     0
100
AcDbLine
 10
292.6892923591
 20
128.0406755069
 30
0.0
 11
296.0226262388
 21
133.8141782193
 31
0.0
  0
LINE
  5
246
330
1F
100
AcDbEntity
  8
0
  6
Continuous
 62
     7
370
     0
100
AcDbLine
 10
291.5346361475
 20
128.7073168267
 30
0.0
 11
294.8679687855
 21
134.48082016
 31
0.0
  0
ARC
  5
247
330
1F
100
AcDbEntity
  8
0
  6
Continuous
 62
     7
370
     0
100
AcDbCircle
 10
309.088423826
 20
122.4216345061
 30
0.0
 40
12.2652043269503
100
AcDbArc
 50
45.7697103788
 51
134.2302896212
  0
LINE
  5
248
330
1F
100
AcDbEntity
  8
0
  6
Continuous
 62
     7
370
     0
100
AcDbLine
 10
323.3088788665
 20
134.48082016
 30
0.0
 11
326.6422115045
 21
128.7073168267
 31
0.0
  0
ARC
  5
249
330
1F
100
AcDbEntity
  8
0
  6
Continuous
 62
     7
370
     0
100
AcDbCircle
 10
309.088423826
 20
122.4216345061
 30
0.0
 40
12.26520432695028
100
AcDbArc
 50
165.7697103788
 51
254.2302896212
  0
ARC
  5
24A
330
1F
100
AcDbEntity
  8
0
  6
Continuous
 62
     7
370
     0
100
AcDbCircle
 10
309.088423826
 20
122.4216345061
 30
0.0
 40
12.26520432695026
100
AcDbArc
 50
285.7697103788
 51
14.2302896212
  0
LINE
  5
24B
330
1F
100
AcDbEntity
  8
0
  6
Continuous
 62
     7
370
     0
100
AcDbLine
 10
312.4217570848
 20
104.0767665316
 30
0.0
 11
305.7550905672
 21
104.0767665316
 31
0.0
  0
ARC
  5
24C
330
1F
100
AcDbEntity
  8
0
  6
Continuous
 62
     7
370
     0
100
AcDbCircle
 10
309.088423826
 20
122.4216345061
 30
0.0
 40
13.49559250807194
100
AcDbArc
 50
44.299716566
 51
135.700283434
  0
ARC
  5
24D
330
1F
100
AcDbEntity
  8
0
  6
Continuous
 62
     7
370
     0
100
AcDbCircle
 10
309.088423826
 20
122.4216345061
 30
0.0
 40
13.49559250807192
100
AcDbArc
 50
284.299716566
 51
15.700283434
  0
ARC
  5
24E
330
1F
100
AcDbEntity
  8
0
  6
Continuous
 62
     7
370
     0
100
AcDbCircle
 10
309.088423826
 20
122.4216345061
 30
0.0
 40
13.49559250807197
100
AcDbArc
 50
164.299716566
 51
255.700283434
  0
ARC
  5
24F
330
1F
100
AcDbEntity
  8
0
  6
Continuous
 62
     7
370
     0
100
AcDbCircle
 10
309.088423826
 20
122.4216345061
 30
0.0
 40
14.75362425267835
100
AcDbArc
 50
43.0577589181
 51
136.9422410819
  0
ARC
  5
250
330
1F
100
AcDbEntity
  8
0
  6
Continuous
 62
     7
370
     0
100
AcDbCircle
 10
309.088423826
 20
122.4216345061
 30
0.0
 40
14.75362425267832
100
AcDbArc
 50
283.0577589181
 51
16.9422410819
  0
ARC
  5
251
330
1F
100
AcDbEntity
  8
0
  6
Continuous
 62
     7
370
     0
100
AcDbCircle
 10
309.088423826
 20
122.4216345061
 30
0.0
 40
14.75362425267834
100
AcDbArc
 50
163.0577589181
 51
256.9422410819
  0
ARC
  5
252
330
1F
100
AcDbEntity
  8
0
  6
Continuous
 62
     7
370
     0
100
AcDbCircle
 10
309.088423826
 20
122.4216345061
 30
0.0
 40
16.72743565461787
100
AcDbArc
 50
41.4944739156
 51
138.5055260844
  0
ARC
  5
253
330
1F
100
AcDbEntity
  8
0
  6
Continuous
 62
     7
370
     0
100
AcDbCircle
 10
309.088423826
 20
122.4216345061
 30
0.0
 40
16.72743565461785
100
AcDbArc
 50
161.4944739156
 51
258.5055260844
  0
ARC
  5
254
330
1F
100
AcDbEntity
  8
0
  6
Continuous
 62
     7
370
     0
100
AcDbCircle
 10
309.088423826
 20
122.4216345061
 30
0.0
 40
16.72743565461783
100
AcDbArc
 50
281.4944739156
 51
18.5055260844
  0
SPLINE
  5
255
330
1F
100
AcDbEntity
  8
0
  6
Continuous
 62
     7
370
     0
100
AcDbSpline
210
0.0
220
0.0
230
1.0
 70
     8
 71
     3
 72
     8
 73
     4
 74
     0
 42
0.00000001
 43
0.00000001
 12
1.0
 22
0.0
 32
0.0
 13
1.0
 23
0.0
 33
0.0
 40
0.0
 40
0.0
 40
0.0
 40
0.0
 40
1.0
 40
1.0
 40
1.0
 40
1.0
 10
287.6982405890865
 20
145.8939989883499
 30
0.0
 10
286.6255038113055
 20
146.9171890512657
 30
0.0
 10
285.5480613229221
 20
147.9327600124495
 30
0.0
 10
284.466325894882
 20
148.9411214673508
 30
0.0
  0
SPLINE
  5
256
330
1F
100
AcDbEntity
  8
0
  6
Continuous
 62
     7
370
     0
100
AcDbSpline
210
0.0
220
0.0
230
1.0
 70
     8
 71
     3
 72
     8
 73
     4
 74
     0
 42
0.00000001
 43
0.00000001
 12
1.0
 22
0.0
 32
0.0
 13
1.0
 23
0.0
 33
0.0
 40
0.0
 40
0.0
 40
0.0
 40
0.0
 40
1.0
 40
1.0
 40
1.0
 40
1.0
 10
330.4786070629034
 20
98.94927002383949
 30
0.0
 10
331.5513438406858
 20
97.92607996092241
 30
0.0
 10
332.6287863290688
 20
96.91050899973908
 30
0.0
 10
333.7105217571103
 20
95.90214754483648
 30
0.0
  0
SPLINE
  5
257
330
1F
100
AcDbEntity
  8
0
  6
Continuous
 62
     7
370
     0
100
AcDbSpline
210
0.0
220
0.0
230
1.0
 70
     8
 71
     3
 72
     8
 73
     4
 74
     0
 42
0.00000001
 43
0.00000001
 12
1.0
 22
0.0
 32
0.0
 13
1.0
 23
0.0
 33
0.0
 40
0.0
 40
0.0
 40
0.0
 40
0.0
 40
1.0
 40
1.0
 40
1.0
 40
1.0
 10
284.4663258948941
 20
95.90214754484782
 30
0.0
 10
285.5480613229337
 20
96.91050899974877
 30
0.0
 10
286.6255038113119
 20
97.92607996092767
 30
0.0
 10
287.6982405890924
 20
98.94927002384304
 30
0.0
  0
SPLINE
  5
258
330
1F
100
AcDbEntity
  8
0
  6
Continuous
 62
     7
370
     0
100
AcDbSpline
210
0.0
220
0.0
230
1.0
 70
     8
 71
     3
 72
     8
 73
     4
 74
     0
 42
0.00000001
 43
0.00000001
 12
1.0
 22
0.0
 32
0.0
 13
1.0
 23
0.0
 33
0.0
 40
0.0
 40
0.0
 40
0.0
 40
0.0
 40
1.0
 40
1.0
 40
1.0
 40
1.0
 10
333.7105217571009
 20
148.9411214673419
 30
0.0
 10
332.6287863290604
 20
147.9327600124402
 30
0.0
 10
331.5513438406812
 20
146.9171890512605
 30
0.0
 10
330.4786070628998
 20
145.8939989883443
 30
0.0
  0
SPLINE
  5
259
330
1F
100
AcDbEntity
  8
0
  6
Continuous
 62
     7
370
     0
100
AcDbSpline
210
0.0
220
0.0
230
1.0
 70
     8
 71
     3
 72
     8
 73
     4
 74
     0
 42
0.00000001
 43
0.00000001
 12
1.0
 22
0.0
 32
0.0
 13
1.0
 23
0.0
 33
0.0
 40
0.0
 40
0.0
 40
0.0
 40
0.0
 40
1.0
 40
1.0
 40
1.0
 40
1.0
 10
279.559791884797
 20
153.4413006061089
 30
0.0
 10
278.6835227256823
 20
154.2324365319709
 30
0.0
 10
277.8047846012921
 20
155.0193653773702
 30
0.0
 10
276.9237020259688
 20
155.8022999310615
 30
0.0
  0
SPLINE
  5
25A
330
1F
100
AcDbEntity
  8
0
  6
Continuous
 62
     7
370
     0
100
AcDbSpline
210
0.0
220
0.0
230
1.0
 70
     8
 71
     3
 72
     8
 73
     4
 74
     0
 42
0.00000001
 43
0.00000001
 12
1.0
 22
0.0
 32
0.0
 13
1.0
 23
0.0
 33
0.0
 40
0.0
 40
0.0
 40
0.0
 40
0.0
 40
1.0
 40
1.0
 40
1.0
 40
1.0
 10
276.9237020259687
 20
89.04096908112571
 30
0.0
 10
277.8047846012876
 20
89.82390363481309
 30
0.0
 10
278.6835227256735
 20
90.61083248020853
 30
0.0
 10
279.5597918847839
 20
91.40196840606657
 30
0.0
  0
SPLINE
  5
25B
330
1F
100
AcDbEntity
  8
0
  6
Continuous
 62
     7
370
     0
100
AcDbSpline
210
0.0
220
0.0
230
1.0
 70
     8
 71
     3
 72
     8
 73
     4
 74
     0
 42
0.00000001
 43
0.00000001
 12
1.0
 22
0.0
 32
0.0
 13
1.0
 23
0.0
 33
0.0
 40
0.0
 40
0.0
 40
0.0
 40
0.0
 40
1.0
 40
1.0
 40
1.0
 40
1.0
 10
341.2531456260236
 20
155.8022999310616
 30
0.0
 10
340.3720630507036
 20
155.0193653773732
 30
0.0
 10
339.4933249263164
 20
154.2324365319766
 30
0.0
 10
338.6170557672049
 20
153.4413006061174
 30
0.0
  0
SPLINE
  5
25C
330
1F
100
AcDbEntity
  8
0
  6
Continuous
 62
     7
370
     0
100
AcDbSpline
210
0.0
220
0.0
230
1.0
 70
     8
 71
     3
 72
     8
 73
     4
 74
     0
 42
0.00000001
 43
0.00000001
 12
1.0
 22
0.0
 32
0.0
 13
1.0
 23
0.0
 33
0.0
 40
0.0
 40
0.0
 40
0.0
 40
0.0
 40
1.0
 40
1.0
 40
1.0
 40
1.0
 10
338.6170557671953
 20
91.40196840607845
 30
0.0
 10
339.49332492631
 20
90.61083248021642
 30
0.0
 10
340.3720630507003
 20
89.8239036348171
 30
0.0
 10
341.2531456260235
 20
89.04096908112581
 30
0.0
  0
INSERT
  5
268
330
1F
100
AcDbEntity
  8
FORMAT
100
AcDbBlockReference
  2
SW_CENTERMARKSYMBOL_0
 10
309.088423826
 20
122.4216345061
 30
0.0
  0
LINE
  5
269
330
1F
100
AcDbEntity
  8
0
  6
Continuous
 62
     7
370
    15
100
AcDbLine
 10
597.4173463611
 20
429.7047442758
 30
0.0
 11
597.4173463611
 21
437.4726500674
 31
0.0
  0
LINE
  5
26A
330
1F
100
AcDbEntity
  8
0
  6
Continuous
 62
     7
370
    15
100
AcDbLine
 10
649.4173474339
 20
437.4726500674
 30
0.0
 11
649.4173474339
 21
429.7044065161
 31
0.0
  0
LINE
  5
26B
330
1F
100
AcDbEntity
  8
0
  6
Continuous
 62
     7
370
    15
100
AcDbLine
 10
582.1534437167
 20
411.645291901
 30
0.0
 11
584.14527945
 21
397.472653445
 31
0.0
  0
LINE
  5
26C
330
1F
100
AcDbEntity
  8
0
  6
Continuous
 62
     7
370
    15
100
AcDbLine
 10
662.689414345
 20
397.472653445
 30
0.0
 11
664.6812500783
 21
411.645291901
 31
0.0
  0
LINE
  5
26D
330
1F
100
AcDbEntity
  8
0
  6
Continuous
 62
     7
370
    15
100
AcDbLine
 10
578.4173451094
 20
423.4726514979
 30
0.0
 11
578.4173451094
 21
417.4726542397
 31
0.0
  0
LINE
  5
26E
330
1F
100
AcDbEntity
  8
0
  6
Continuous
 62
     7
370
    15
100
AcDbLine
 10
668.4173486856
 20
417.4726542397
 30
0.0
 11
668.4173486856
 21
423.4726514979
 31
0.0
  0
SPLINE
  5
26F
330
1F
100
AcDbEntity
  8
0
  6
Continuous
 62
     7
370
    15
100
AcDbSpline
210
0.0
220
0.0
230
1.0
 70
     8
 71
     3
 72
    53
 73
    49
 74
     0
 42
0.00000001
 43
0.00000001
 12
1.0
 22
0.0
 32
0.0
 13
1.0
 23
0.0
 33
0.0
 40
0.0
 40
0.0
 40
0.0
 40
0.0
 40
0.040237820176947
 40
0.0785906053977937
 40
0.1150583556625743
 40
0.1496414649197663
 40
0.1823399318882877
 40
0.2131529725144076
 40
0.2404791115412127
 40
0.2661297533350299
 40
0.2901045013851611
 40
0.3124037534832554
 40
0.3330275070672277
 40
0.3530700436589443
 40
0.3712275465756705
 40
0.3875004072037246
 40
0.4018882341567998
 40
0.4143914162592626
 40
0.4250095672487136
 40
0.4332942397704206
 40
0.4400158159539111
 40
0.4467011940036728
 40
0.4538166777905603
 40
0.4613592827405277
 40
0.4728024362252954
 40
0.4848860569360276
 40
0.497005377380219
 40
0.5091373353916001
 40
0.5213041613467624
 40
0.533872199549167
 40
0.547057893579127
 40
0.5608929427506759
 40
0.5775593191549431
 40
0.5951904750060328
 40
0.6136626491088389
 40
0.6329429861198824
 40
0.6530185405733872
 40
0.6734698752088075
 40
0.6939164546124805
 40
0.7473613012262744
 40
0.8008389065403023
 40
0.8543638727831916
 40
0.8796190757611935
 40
0.9048898068025906
 40
0.93017772451444
 40
0.9559250729474663
 40
0.9832771236577815
 40
1.0
 40
1.0
 40
1.0
 40
1.0
 10
602.7506805685913
 20
458.8059868975028
 30
0.0
 10
602.7417716949197
 20
458.4657834546199
 30
0.0
 10
602.7243713046355
 20
457.8013141961709
 30
0.0
 10
602.6988975738328
 20
456.8285167280242
 30
0.0
 10
602.674677617443
 20
455.9035287641812
 30
0.0
 10
602.6517070444684
 20
455.0263470974133
 30
0.0
 10
602.62998871117
 20
454.1969749642989
 30
0.0
 10
602.609877660889
 20
453.4289591786873
 30
0.0
 10
602.5913280012815
 20
452.7205314464011
 30
0.0
 10
602.5742877982916
 20
452.0699203525571
 30
0.0
 10
602.5583680237363
 20
451.4618104774631
 30
0.0
 10
602.5435553335823
 20
450.8962021808429
 30
0.0
 10
602.5296135560368
 20
450.3638400096469
 30
0.0
 10
602.5165910055222
 20
449.8664955107142
 30
0.0
 10
602.5045308993124
 20
449.4059370579158
 30
0.0
 10
602.4937221731858
 20
448.9931881111709
 30
0.0
 10
602.4841674407124
 20
448.6282455186947
 30
0.0
 10
602.4758564452115
 20
448.3111122070119
 30
0.0
 10
602.4689321734103
 20
448.0455804132905
 30
0.0
 10
602.4631763781912
 20
447.8289301778696
 30
0.0
 10
602.4586084537116
 20
447.645533216936
 30
0.0
 10
602.4532255409196
 20
447.4720129615519
 30
0.0
 10
602.4385233734091
 20
447.2920156456049
 30
0.0
 10
602.4109467478729
 20
447.0729226989232
 30
0.0
 10
602.3625049730276
 20
446.8144027086668
 30
0.0
 10
602.2852170918247
 20
446.5226961093825
 30
0.0
 10
602.1839120964427
 20
446.2322409795941
 30
0.0
 10
602.060227741405
 20
445.9498143354672
 30
0.0
 10
601.9131371994423
 20
445.6745180746212
 30
0.0
 10
601.7396538421478
 20
445.4043417192325
 30
0.0
 10
601.5354120542822
 20
445.1384889220651
 30
0.0
 10
601.2849157490696
 20
444.866187771172
 30
0.0
 10
600.9789853264668
 20
444.5961729203785
 30
0.0
 10
600.6149651143858
 20
444.3374862198746
 30
0.0
 10
600.2352230837021
 20
444.0633622962884
 30
0.0
 10
599.837843319713
 20
443.7781901541505
 30
0.0
 10
599.4291730450491
 20
443.4801002727531
 30
0.0
 10
599.0168378817273
 20
443.1703335982242
 30
0.0
 10
598.3882257755643
 20
442.6788350154103
 30
0.0
 10
597.5541551524909
 20
441.9967371592629
 30
0.0
 10
596.5337688888831
 20
441.1017451448815
 30
0.0
 10
595.7180242767421
 20
440.3360134713211
 30
0.0
 10
595.0916422279485
 20
439.7178239268151
 30
0.0
 10
594.6425326372441
 20
439.2601250442453
 30
0.0
 10
594.1978680760047
 20
438.7923393947836
 30
0.0
 10
593.7492652942898
 20
438.3041631476806
 30
0.0
 10
593.3558009854146
 20
437.8637251058445
 30
0.0
 10
593.1137499375021
 20
437.5802180902836
 30
0.0
 10
593.0219111072774
 20
437.4726500673636
 30
0.0
  0
SPLINE
  5
270
330
1F
100
AcDbEntity
  8
0
  6
Continuous
 62
     7
370
    15
100
AcDbSpline
210
0.0
220
0.0
230
1.0
 70
     8
 71
     3
 72
    49
 73
    45
 74
     0
 42
0.00000001
 43
0.00000001
 12
1.0
 22
0.0
 32
0.0
 13
1.0
 23
0.0
 33
0.0
 40
0.0
 40
0.0
 40
0.0
 40
0.0
 40
0.0374114071287755
 40
0.0795321472692665
 40
0.1235775997892521
 40
0.1595419187215177
 40
0.1967057257299825
 40
0.2337279707742148
 40
0.2693474163618937
 40
0.3081229344153255
 40
0.3450951964132503
 40
0.3802659915469297
 40
0.413568543179519
 40
0.4294266606378925
 40
0.4446589748741397
 40
0.4590360487864062
 40
0.4725135725231606
 40
0.4851238663157044
 40
0.4968864777384973
 40
0.5078121602725713
 40
0.5176916926650128
 40
0.5235206983326766
 40
0.5287393328473158
 40
0.5333448480936798
 40
0.5385310613685949
 40
0.5454133975475333
 40
0.5540139211009008
 40
0.5643538981506478
 40
0.576398163811352
 40
0.5901405998858638
 40
0.6055804261829516
 40
0.6227176427026191
 40
0.6415530347606577
 40
0.6646640157690501
 40
0.6899047616231492
 40
0.7172752748849958
 40
0.7467751641778709
 40
0.7784048195974609
 40
0.8121642398627068
 40
0.8459448098474798
 40
0.8816189843393497
 40
0.919185979303664
 40
0.9586465787750722
 40
1.0
 40
1.0
 40
1.0
 40
1.0
 10
653.8135749327894
 20
437.4726500673636
 30
0.0
 10
653.6064927666799
 20
437.7119212579132
 30
0.0
 10
653.1662610139645
 20
438.2205830010701
 30
0.0
 10
652.4564127860438
 20
438.9880305348493
 30
0.0
 10
651.736109190636
 20
439.7285799215543
 30
0.0
 10
651.026835125331
 20
440.4208826216928
 30
0.0
 10
650.3452429319083
 20
441.0561361453782
 30
0.0
 10
649.6510728967028
 20
441.6732469215659
 30
0.0
 10
648.9323938995082
 20
442.2829009197322
 30
0.0
 10
648.200219215566
 20
442.8756543298728
 30
0.0
 10
647.4556610119665
 20
443.4465700766046
 30
0.0
 10
646.7333070263472
 20
443.9698626473406
 30
0.0
 10
646.1504097624701
 20
444.3806219296314
 30
0.0
 10
645.7166474951117
 20
444.7109563300391
 30
0.0
 10
645.4399384220684
 20
444.979275538383
 30
0.0
 10
645.2030644009274
 20
445.2568307765804
 30
0.0
 10
645.0056284884483
 20
445.5369645818365
 30
0.0
 10
644.8437984656276
 20
445.8135884813415
 30
0.0
 10
644.7136163683845
 20
446.0825817386045
 30
0.0
 10
644.6118104261703
 20
446.3387702302644
 30
0.0
 10
644.5425665157389
 20
446.5532972410825
 30
0.0
 10
644.4966100233636
 20
446.7242642310828
 30
0.0
 10
644.4667010995225
 20
446.8532602666655
 30
0.0
 10
644.4418558613461
 20
446.9777789935985
 30
0.0
 10
644.4185103930823
 20
447.116887180957
 30
0.0
 10
644.3961231054232
 20
447.2903134401287
 30
0.0
 10
644.3785432318921
 20
447.5081462682369
 30
0.0
 10
644.3734437486015
 20
447.7702290681969
 30
0.0
 10
644.3648482165858
 20
448.0756452227653
 30
0.0
 10
644.3559167021737
 20
448.4242282138993
 30
0.0
 10
644.3455997587976
 20
448.8158567984474
 30
0.0
 10
644.3342377736233
 20
449.2505513639886
 30
0.0
 10
644.3211477234772
 20
449.7501040835917
 30
0.0
 10
644.3062745852069
 20
450.3181729063546
 30
0.0
 10
644.289510671964
 20
450.9584062605109
 30
0.0
 10
644.2713314489099
 20
451.6526579951393
 30
0.0
 10
644.2517359812769
 20
452.4009280584943
 30
0.0
 10
644.2307262369279
 20
453.2032164919122
 30
0.0
 10
644.2087713324433
 20
454.0416982497693
 30
0.0
 10
644.1859189876533
 20
454.9143764613617
 30
0.0
 10
644.1622237068768
 20
455.819247809605
 30
0.0
 10
644.1372717375652
 20
456.7721439657603
 30
0.0
 10
644.1110621096537
 20
457.7730582816644
 30
0.0
 10
644.0931692162914
 20
458.4563427412997
 30
0.0
 10
644.0840132264053
 20
458.8059868975028
 30
0.0
  0
LINE
  5
271
330
1F
100
AcDbEntity
  8
0
  6
Continuous
 62
     7
370
    15
100
AcDbLine
 10
578.4173451094
 20
417.4726542397
 30
0.0
 11
578.8277628251
 21
414.5523942077
 31
0.0
  0
LINE
  5
272
330
1F
100
AcDbEntity
  8
0
  6
Continuous
 62
     7
370
    15
100
AcDbLine
 10
668.0069309699
 20
414.5523942077
 30
0.0
 11
668.4173486856
 21
417.4726542397
 31
0.0
  0
SPLINE
  5
273
330
1F
100
AcDbEntity
  8
0
  6
Continuous
 62
     7
370
    15
100
AcDbSpline
210
0.0
220
0.0
230
1.0
 70
     8
 71
     3
 72
    17
 73
    13
 74
     0
 42
0.00000001
 43
0.00000001
 12
1.0
 22
0.0
 32
0.0
 13
1.0
 23
0.0
 33
0.0
 40
0.0
 40
0.0
 40
0.0
 40
0.0
 40
0.069463948980505
 40
0.2063165114065403
 40
0.3501401730410754
 40
0.4256248570994371
 40
0.4566190770696772
 40
0.4805875211425339
 40
0.5050377554966278
 40
0.6931618413404669
 40
0.889572294096434
 40
1.0
 40
1.0
 40
1.0
 40
1.0
 10
581.8195633319771
 20
411.9297401670162
 30
0.0
 10
581.8193576873122
 20
411.9299255329066
 30
0.0
 10
581.8187468972483
 20
411.9304760925045
 30
0.0
 10
581.828917189147
 20
411.9212259211465
 30
0.0
 10
581.8438379710111
 20
411.90747046562
 30
0.0
 10
581.8616657383274
 20
411.8910131232906
 30
0.0
 10
581.8676052416143
 20
411.8855203450063
 30
0.0
 10
581.8800560946543
 20
411.8740335705637
 30
0.0
 10
581.9157966266001
 20
411.8412236069743
 30
0.0
 10
581.9830535362993
 20
411.7809571500482
 30
0.0
 10
582.0709516572217
 20
411.7047396796216
 30
0.0
 10
582.1324087847221
 20
411.6553594180749
 30
0.0
 10
582.1545265344536
 20
411.6375880006497
 30
0.0
  0
SPLINE
  5
274
330
1F
100
AcDbEntity
  8
0
  6
Continuous
 62
     7
370
    15
100
AcDbSpline
210
0.0
220
0.0
230
1.0
 70
     8
 71
     3
 72
    15
 73
    11
 74
     0
 42
0.00000001
 43
0.00000001
 12
1.0
 22
0.0
 32
0.0
 13
1.0
 23
0.0
 33
0.0
 40
0.0
 40
0.0
 40
0.0
 40
0.0
 40
0.1716923363454883
 40
0.3532534727498185
 40
0.5311082300586969
 40
0.5612681754989691
 40
0.5892912159410203
 40
0.7446720106406248
 40
0.8939359412710831
 40
1.0
 40
1.0
 40
1.0
 40
1.0
 10
664.680075370049
 20
411.6369422836646
 30
0.0
 10
664.7138584036072
 20
411.6646211086145
 30
0.0
 10
664.7833663046496
 20
411.7215697252115
 30
0.0
 10
664.8722444318139
 20
411.799020211095
 30
0.0
 10
664.9452733974771
 20
411.8653378186996
 30
0.0
 10
664.9688084868918
 20
411.8871162586435
 30
0.0
 10
664.9818213533758
 20
411.8991288481165
 30
0.0
 10
665.000870600835
 20
411.9167239932511
 30
0.0
 10
665.0145778764158
 20
411.9292408485672
 30
0.0
 10
665.0150472446651
 20
411.9296602997019
 30
0.0
 10
665.0152422217285
 20
411.9298345410372
 30
0.0
  0
LINE
  5
275
330
1F
100
AcDbEntity
  8
0
  6
Continuous
 62
     7
370
    15
100
AcDbLine
 10
668.4173486856
 20
423.4726514979
 30
0.0
 11
666.6449499357
 21
424.4959440394
 31
0.0
  0
LINE
  5
276
330
1F
100
AcDbEntity
  8
0
  6
Continuous
 62
     7
370
    15
100
AcDbLine
 10
580.1897438593
 20
424.4959440394
 30
0.0
 11
578.4173451094
 21
423.4726514979
 31
0.0
  0
ARC
  5
277
330
1F
100
AcDbEntity
  8
0
  6
Continuous
 62
     7
370
    15
100
AcDbCircle
 10
644.0840135642
 20
462.8059861822
 30
0.0
 40
4.000000000000048
100
AcDbArc
 50
263.2571866417
 51
270.0
  0
ARC
  5
278
330
1F
100
AcDbEntity
  8
0
  6
Continuous
 62
     7
370
    15
100
AcDbCircle
 10
602.7506802308
 20
462.8059861822
 30
0.0
 40
4.0
100
AcDbArc
 50
270.0
 51
350.0
  0
ARC
  5
279
330
1F
100
AcDbEntity
  8
0
  6
Continuous
 62
     7
370
    15
100
AcDbCircle
 10
582.7888346158
 20
415.1090876334
 30
0.0
 40
4.000000000000059
100
AcDbArc
 50
188.0
 51
255.0
  0
ARC
  5
27A
330
1F
100
AcDbEntity
  8
0
  6
Continuous
 62
     7
370
    15
100
AcDbCircle
 10
664.0458591792
 20
415.1090876334
 30
0.0
 40
4.000000000000063
100
AcDbArc
 50
285.0
 51
352.0
  0
LINE
  5
27B
330
1F
100
AcDbEntity
  8
0
  6
Continuous
 62
     7
370
    15
100
AcDbLine
 10
581.7535586385
 20
411.245384471
 30
0.0
 11
582.2274950373
 21
411.1183918082
 31
0.0
  0
LINE
  5
27C
330
1F
100
AcDbEntity
  8
0
  6
Continuous
 62
     7
370
    15
100
AcDbLine
 10
664.6071987577
 20
411.1183918082
 30
0.0
 11
665.0811351565
 21
411.245384471
 31
0.0
  0
LINE
  5
27D
330
1F
100
AcDbEntity
  8
0
  6
Continuous
 62
     7
370
    15
100
AcDbLine
 10
607.7558353273
 20
468.1565450195
 30
0.0
 11
606.6899118054
 21
462.1113922758
 31
0.0
  0
LINE
  5
27E
330
1F
100
AcDbEntity
  8
0
  6
Continuous
 62
     7
370
    15
100
AcDbLine
 10
587.7506799725
 20
397.472653445
 30
0.0
 11
587.7506799725
 21
391.1117202603
 31
0.0
  0
LINE
  5
27F
330
1F
100
AcDbEntity
  8
0
  6
Continuous
 62
     7
370
    15
100
AcDbLine
 10
587.7506799725
 20
381.6517578129
 30
0.0
 11
587.7506799725
 21
368.3138699893
 31
0.0
  0
LINE
  5
280
330
1F
100
AcDbEntity
  8
0
  6
Continuous
 62
     7
370
    15
100
AcDbLine
 10
659.0840138225
 20
368.3138699893
 30
0.0
 11
659.0840138225
 21
381.6517578129
 31
0.0
  0
LINE
  5
281
330
1F
100
AcDbEntity
  8
0
  6
Continuous
 62
     7
370
    15
100
AcDbLine
 10
659.0840138225
 20
391.1117202603
 30
0.0
 11
659.0840138225
 21
397.472653445
 31
0.0
  0
LINE
  5
282
330
1F
100
AcDbEntity
  8
0
  6
Continuous
 62
     7
370
    15
100
AcDbLine
 10
608.6637221006
 20
485.4800687793
 30
0.0
 11
607.7558353273
 21
468.1565450195
 31
0.0
  0
ARC
  5
283
330
1F
100
AcDbEntity
  8
0
  6
Continuous
 62
     7
370
    15
100
AcDbCircle
 10
610.6609817143
 20
485.3753980184
 30
0.0
 40
2.000000000000108
100
AcDbArc
 50
111.6917928243
 51
177.0
  0
ARC
  5
284
330
1F
100
AcDbEntity
  8
0
  6
Continuous
 62
     7
370
    15
100
AcDbCircle
 10
609.1825270645
 20
489.0921401198
 30
0.0
 40
1.999999999999996
100
AcDbArc
 50
291.6917928243
 51
350.0
  0
LINE
  5
285
330
1F
100
AcDbEntity
  8
0
  6
Continuous
 62
     7
370
    15
100
AcDbLine
 10
611.7506801812
 20
492.139318244
 30
0.0
 11
611.7256884503
 21
491.9975783987
 31
0.0
  0
LINE
  5
286
330
1F
100
AcDbEntity
  8
0
  6
Continuous
 62
     7
370
    15
100
AcDbLine
 10
611.3541155783
 20
489.890285985
 30
0.0
 11
611.152142756
 21
488.7448436582
 31
0.0
  0
LINE
  5
287
330
1F
100
AcDbEntity
  8
0
  6
Continuous
 62
     7
370
    15
100
AcDbLine
 10
631.232259023
 20
492.139318244
 30
0.0
 11
630.8506800212
 21
493.1393153035
 31
0.0
  0
LINE
  5
288
330
1F
100
AcDbEntity
  8
0
  6
Continuous
 62
     7
370
    15
100
AcDbLine
 10
615.9840137738
 20
493.1393153035
 30
0.0
 11
615.602434772
 21
492.139318244
 31
0.0
  0
LINE
  5
289
330
1F
100
AcDbEntity
  8
0
  6
Continuous
 62
     7
370
    15
100
AcDbLine
 10
616.0840136039
 20
498.1289691293
 30
0.0
 11
616.0840136039
 21
493.1393153035
 31
0.0
  0
LINE
  5
28A
330
1F
100
AcDbEntity
  8
0
  6
Continuous
 62
     7
370
    15
100
AcDbLine
 10
630.7506801911
 20
493.1393153035
 30
0.0
 11
630.7506801911
 21
498.1289691293
 31
0.0
  0
CIRCLE
  5
28B
330
1F
100
AcDbEntity
  8
0
  6
Continuous
 62
     7
370
    15
100
AcDbCircle
 10
623.4173468975
 20
340.8059861822
 30
0.0
 40
39.33333333333337
  0
CIRCLE
  5
28C
330
1F
100
AcDbEntity
  8
0
  6
Continuous
 62
     7
370
    15
100
AcDbCircle
 10
623.4173468975
 20
340.8059861822
 30
0.0
 40
41.33333333333337
  0
CIRCLE
  5
28D
330
1F
100
AcDbEntity
  8
0
  6
Continuous
 62
     7
370
    15
100
AcDbCircle
 10
623.4173468975
 20
340.8059861822
 30
0.0
 40
21.66666666666663
  0
CIRCLE
  5
28E
330
1F
100
AcDbEntity
  8
0
  6
Continuous
 62
     7
370
    15
100
AcDbCircle
 10
589.2405191401
 20
374.9828139396
 30
0.0
 40
6.833333333333371
  0
CIRCLE
  5
28F
330
1F
100
AcDbEntity
  8
0
  6
Continuous
 62
     7
370
    15
100
AcDbCircle
 10
657.5941746548
 20
374.9828139396
 30
0.0
 40
6.833333333333258
  0
CIRCLE
  5
290
330
1F
100
AcDbEntity
  8
0
  6
Continuous
 62
     7
370
    15
100
AcDbCircle
 10
589.2405191401
 20
306.6291584249
 30
0.0
 40
6.833333333333371
  0
CIRCLE
  5
291
330
1F
100
AcDbEntity
  8
0
  6
Continuous
 62
     7
370
    15
100
AcDbCircle
 10
657.5941746548
 20
306.6291584249
 30
0.0
 40
6.833333333333371
  0
CIRCLE
  5
292
330
1F
100
AcDbEntity
  8
0
  6
Continuous
 62
     7
370
    15
100
AcDbCircle
 10
623.4173468975
 20
340.8059861822
 30
0.0
 40
61.66666666666663
  0
LINE
  5
293
330
1F
100
AcDbEntity
  8
0
  6
Continuous
 62
     7
370
    15
100
AcDbLine
 10
591.9396770227
 20
287.7783116265
 30
0.0
 11
595.0840132661
 21
279.1393187209
 31
0.0
  0
LINE
  5
294
330
1F
100
AcDbEntity
  8
0
  6
Continuous
 62
     7
370
    15
100
AcDbLine
 10
595.0840132661
 20
279.1393187209
 30
0.0
 11
623.4173468975
 21
279.1393187209
 31
0.0
  0
LINE
  5
295
330
1F
100
AcDbEntity
  8
0
  6
Continuous
 62
     7
370
    15
100
AcDbLine
 10
651.7506805289
 20
279.1393187209
 30
0.0
 11
654.8950167723
 21
287.7783116265
 31
0.0
  0
LINE
  5
296
330
1F
100
AcDbEntity
  8
0
  6
Continuous
 62
     7
370
    15
100
AcDbLine
 10
623.4173468975
 20
279.1393187209
 30
0.0
 11
651.7506805289
 21
279.1393187209
 31
0.0
  0
SPLINE
  5
297
330
1F
100
AcDbEntity
  8
0
  6
Continuous
 62
     7
370
    15
100
AcDbSpline
210
0.0
220
0.0
230
1.0
 70
     8
 71
     3
 72
     8
 73
     4
 74
     0
 42
0.00000001
 43
0.00000001
 12
1.0
 22
0.0
 32
0.0
 13
1.0
 23
0.0
 33
0.0
 40
0.0
 40
0.0
 40
0.0
 40
0.0
 40
1.0
 40
1.0
 40
1.0
 40
1.0
 10
657.8152339657122
 20
423.4524041614424
 30
0.0
 10
657.4763180578882
 20
423.4658287589743
 30
0.0
 10
657.137245673078
 20
423.4726528489137
 30
0.0
 10
656.7980123224662
 20
423.4726528489137
 30
0.0
  0
LINE
  5
298
330
1F
100
AcDbEntity
  8
0
  6
Continuous
 62
     7
370
    15
100
AcDbLine
 10
657.8152345844
 20
417.4726542397
 30
0.0
 11
623.4173468975
 21
417.4726542397
 31
0.0
  0
SPLINE
  5
299
330
1F
100
AcDbEntity
  8
0
  6
Continuous
 62
     7
370
    15
100
AcDbSpline
210
0.0
220
0.0
230
1.0
 70
     8
 71
     3
 72
     8
 73
     4
 74
     0
 42
0.00000001
 43
0.00000001
 12
1.0
 22
0.0
 32
0.0
 13
1.0
 23
0.0
 33
0.0
 40
0.0
 40
0.0
 40
0.0
 40
0.0
 40
1.0
 40
1.0
 40
1.0
 40
1.0
 10
590.0366814725304
 20
423.4726528489137
 30
0.0
 10
589.6974481219186
 20
423.4726528489137
 30
0.0
 10
589.3583757371085
 20
423.4658287589743
 30
0.0
 10
589.0194598292845
 20
423.4524041614424
 30
0.0
  0
LINE
  5
29A
330
1F
100
AcDbEntity
  8
0
  6
Continuous
 62
     7
370
    15
100
AcDbLine
 10
656.7980117825
 20
423.4726514979
 30
0.0
 11
590.0366820125
 21
423.4726514979
 31
0.0
  0
LINE
  5
29B
330
1F
100
AcDbEntity
  8
0
  6
Continuous
 62
     7
370
    15
100
AcDbLine
 10
623.4173468975
 20
417.4726542397
 30
0.0
 11
589.0194592106
 21
417.4726542397
 31
0.0
  0
SPLINE
  5
29C
330
1F
100
AcDbEntity
  8
0
  6
Continuous
 62
     7
370
    15
100
AcDbSpline
210
0.0
220
0.0
230
1.0
 70
     8
 71
     3
 72
    18
 73
    14
 74
     0
 42
0.00000001
 43
0.00000001
 12
1.0
 22
0.0
 32
0.0
 13
1.0
 23
0.0
 33
0.0
 40
0.0
 40
0.0
 40
0.0
 40
0.0
 40
0.1250000000000004
 40
0.1250000000000004
 40
0.2500000000000007
 40
0.2500000000000007
 40
0.5
 40
0.5
 40
0.6250000000000007
 40
0.6250000000000007
 40
0.7500000000000012
 40
0.7500000000000012
 40
1.0
 40
1.0
 40
1.0
 40
1.0
 10
596.8978599362413
 20
428.069204918409
 30
0.0
 10
596.8043775116885
 20
427.9176093210617
 30
0.0
 10
596.6975866997998
 20
427.7666640277965
 30
0.0
 10
596.4615450295374
 20
427.4723544671776
 30
0.0
 10
596.3318320854222
 20
427.3281694793601
 30
0.0
 10
595.9073584191763
 20
426.9045557751271
 30
0.0
 10
595.5776594062338
 20
426.6339710799568
 30
0.0
 10
595.0057108796959
 20
426.2475076028925
 30
0.0
 10
594.8010672578299
 20
426.1215039147675
 30
0.0
 10
594.3741816733548
 20
425.8823410020897
 30
0.0
 10
594.1510289052089
 20
425.7684674578587
 30
0.0
 10
593.4520042566118
 20
425.4441768070876
 30
0.0
 10
592.9469649426197
 20
425.2508574381864
 30
0.0
 10
592.3976807974831
 20
425.0833325093473
 30
0.0
  0
SPLINE
  5
29D
330
1F
100
AcDbEntity
  8
0
  6
Continuous
 62
     7
370
    15
100
AcDbSpline
210
0.0
220
0.0
230
1.0
 70
     8
 71
     3
 72
    22
 73
    18
 74
     0
 42
0.00000001
 43
0.00000001
 12
1.0
 22
0.0
 32
0.0
 13
1.0
 23
0.0
 33
0.0
 40
0.0
 40
0.0
 40
0.0
 40
0.0
 40
0.1250000000000001
 40
0.1250000000000001
 40
0.2500000000000002
 40
0.2500000000000002
 40
0.3750000000000003
 40
0.3750000000000003
 40
0.5000000000000003
 40
0.5000000000000003
 40
0.6250000000000003
 40
0.6250000000000003
 40
0.7500000000000003
 40
0.7500000000000003
 40
0.8750000000000002
 40
0.8750000000000002
 40
1.0
 40
1.0
 40
1.0
 40
1.0
 10
599.9449824152438
 20
430.0265029406755
 30
0.0
 10
601.8727914337136
 20
429.871852197736
 30
0.0
 10
603.8111461295987
 20
429.7349227588862
 30
0.0
 10
607.7052147789285
 20
429.4947731823992
 30
0.0
 10
609.6579986266377
 20
429.3917012697126
 30
0.0
 10
613.5755880427939
 20
429.2215055421295
 30
0.0
 10
615.5401647190095
 20
429.154370112113
 30
0.0
 10
619.4734232284186
 20
429.0617176586816
 30
0.0
 10
621.4443704835631
 20
429.0360940878854
 30
0.0
 10
625.3862851514147
 20
429.0360587079686
 30
0.0
 10
627.3571883144386
 20
429.0616507101842
 30
0.0
 10
631.2904420311811
 20
429.1542446839845
 30
0.0
 10
633.2550748978125
 20
429.2213558663505
 30
0.0
 10
637.1726208949852
 20
429.3914988789571
 30
0.0
 10
639.1254193841565
 20
429.4945469938455
 30
0.0
 10
643.0195864397014
 20
429.7346543460192
 30
0.0
 10
644.9590116708328
 20
429.8716203036938
 30
0.0
 10
646.889711379749
 20
430.0265029406751
 30
0.0
  0
SPLINE
  5
29E
330
1F
100
AcDbEntity
  8
0
  6
Continuous
 62
     7
370
    15
100
AcDbSpline
210
0.0
220
0.0
230
1.0
 70
     8
 71
     3
 72
    20
 73
    16
 74
     0
 42
0.00000001
 43
0.00000001
 12
1.0
 22
0.0
 32
0.0
 13
1.0
 23
0.0
 33
0.0
 40
0.0
 40
0.0
 40
0.0
 40
0.0
 40
0.1250000000000001
 40
0.1250000000000001
 40
0.2500000000000002
 40
0.2500000000000002
 40
0.3750000000000002
 40
0.3750000000000002
 40
0.5000000000000003
 40
0.5000000000000003
 40
0.7500000000000007
 40
0.7500000000000007
 40
0.8750000000000003
 40
0.8750000000000003
 40
1.0
 40
1.0
 40
1.0
 40
1.0
 10
654.4370129975282
 20
425.0833325093427
 30
0.0
 10
654.1638472832389
 20
425.1666447025901
 30
0.0
 10
653.8974064137786
 20
425.2578663632825
 30
0.0
 10
653.3892613200751
 20
425.4512625511436
 30
0.0
 10
653.1458444274294
 20
425.5539319898201
 30
0.0
 10
652.6792442030751
 20
425.7706421783573
 30
0.0
 10
652.4560647735349
 20
425.8846850603665
 30
0.0
 10
652.02953411247
 20
426.1239472530325
 30
0.0
 10
651.8265063901073
 20
426.249120963762
 30
0.0
 10
651.2576867470499
 20
426.6336510029179
 30
0.0
 10
650.927444897842
 20
426.9042586540063
 30
0.0
 10
650.5007896320345
 20
427.3303319369206
 30
0.0
 10
650.369703432868
 20
427.476338256814
 30
0.0
 10
650.1341878140006
 20
427.7706245241663
 30
0.0
 10
650.0293256735097
 20
427.9192157415709
 30
0.0
 10
649.9368338587504
 20
428.069204918417
 30
0.0
  0
SPLINE
  5
29F
330
1F
100
AcDbEntity
  8
0
  6
Continuous
 62
     7
370
    15
100
AcDbSpline
210
0.0
220
0.0
230
1.0
 70
     8
 71
     3
 72
    24
 73
    20
 74
     0
 42
0.00000001
 43
0.00000001
 12
1.0
 22
0.0
 32
0.0
 13
1.0
 23
0.0
 33
0.0
 40
0.0
 40
0.0
 40
0.0
 40
0.0
 40
0.2500000000000039
 40
0.2500000000000039
 40
0.312500000000005
 40
0.312500000000005
 40
0.3750000000000061
 40
0.3750000000000061
 40
0.500000000000007
 40
0.500000000000007
 40
0.5625000000000066
 40
0.5625000000000066
 40
0.625000000000006
 40
0.625000000000006
 40
0.7500000000000041
 40
0.7500000000000041
 40
0.875000000000002
 40
0.875000000000002
 40
1.0
 40
1.0
 40
1.0
 40
1.0
 10
589.0194598292845
 20
423.4524041614424
 30
0.0
 10
588.1845761025224
 20
423.4193340760347
 30
0.0
 10
587.3779758899179
 20
423.4108460174128
 30
0.0
 10
586.4047424124082
 20
423.4073523227763
 30
0.0
 10
586.2111070712324
 20
423.4070727056738
 30
0.0
 10
585.8320315590847
 20
423.4069793771468
 30
0.0
 10
585.6466378186183
 20
423.407161835854
 30
0.0
 10
585.1025975718533
 20
423.4079358344664
 30
0.0
 10
584.7560314374915
 20
423.408712880584
 30
0.0
 10
584.2603546107251
 20
423.4092697084972
 30
0.0
 10
584.099172895521
 20
423.409364524299
 30
0.0
 10
583.7850845403874
 20
423.4093309883512
 30
0.0
 10
583.6321171794109
 20
423.4092013633253
 30
0.0
 10
583.1930779071452
 20
423.4085605512816
 30
0.0
 10
582.9241427673917
 20
423.4077588825976
 30
0.0
 10
582.4327509037612
 20
423.4068478224916
 30
0.0
 10
582.2102898486021
 20
423.4067263373393
 30
0.0
 10
581.813730119382
 20
423.4100270574742
 30
0.0
 10
581.643558936344
 20
423.413442392829
 30
0.0
 10
581.5014816133898
 20
423.4205662673741
 30
0.0
  0
SPLINE
  5
2A0
330
1F
100
AcDbEntity
  8
0
  6
Continuous
 62
     7
370
    15
100
AcDbSpline
210
0.0
220
0.0
230
1.0
 70
     8
 71
     3
 72
    28
 73
    24
 74
     0
 42
0.00000001
 43
0.00000001
 12
1.0
 22
0.0
 32
0.0
 13
1.0
 23
0.0
 33
0.0
 40
0.0
 40
0.0
 40
0.0
 40
0.0
 40
0.0625000000000009
 40
0.0625000000000009
 40
0.1250000000000018
 40
0.1250000000000018
 40
0.2500000000000023
 40
0.2500000000000023
 40
0.3750000000000028
 40
0.3750000000000028
 40
0.5000000000000033
 40
0.5000000000000033
 40
0.5625000000000033
 40
0.5625000000000033
 40
0.6250000000000031
 40
0.6250000000000031
 40
0.7500000000000013
 40
0.7500000000000013
 40
0.8125000000000008
 40
0.8125000000000008
 40
0.8750000000000001
 40
0.8750000000000001
 40
1.0
 40
1.0
 40
1.0
 40
1.0
 10
581.5014816133897
 20
423.4205662673748
 30
0.0
 10
581.6426831261184
 20
423.4468135292801
 30
0.0
 10
581.7938051660054
 20
423.4735279456855
 30
0.0
 10
582.1164491011584
 20
423.5274729647224
 30
0.0
 10
582.287655170873
 20
423.5546323799962
 30
0.0
 10
582.8217027864878
 20
423.6349391020539
 30
0.0
 10
583.2078609991461
 20
423.687342770556
 30
0.0
 10
584.040012843405
 20
423.7906637716513
 30
0.0
 10
584.4902252513198
 20
423.8419840891303
 30
0.0
 10
585.4187022815873
 20
423.9433965168004
 30
0.0
 10
585.8995953133658
 20
423.9938587043837
 30
0.0
 10
586.6454537710288
 20
424.0744330159965
 30
0.0
 10
586.8991853632185
 20
424.1022413379678
 30
0.0
 10
587.4103282970798
 20
424.1602121144161
 30
0.0
 10
587.6661411723619
 20
424.1901920200792
 30
0.0
 10
588.4340284365301
 20
424.2848690115313
 30
0.0
 10
588.9465559704463
 20
424.354217022362
 30
0.0
 10
589.7151274518199
 20
424.4757965827461
 30
0.0
 10
589.9725118387344
 20
424.5195118565956
 30
0.0
 10
590.4787473048964
 20
424.6129213758273
 30
0.0
 10
590.7279691032605
 20
424.6626392733689
 30
0.0
 10
591.4639199680366
 20
424.8225370899981
 30
0.0
 10
591.9389958613674
 20
424.9434392283148
 30
0.0
 10
592.3976807974831
 20
425.0833325093473
 30
0.0
  0
SPLINE
  5
2A1
330
1F
100
AcDbEntity
  8
0
  6
Continuous
 62
     7
370
    15
100
AcDbSpline
210
0.0
220
0.0
230
1.0
 70
     8
 71
     3
 72
    24
 73
    20
 74
     0
 42
0.00000001
 43
0.00000001
 12
1.0
 22
0.0
 32
0.0
 13
1.0
 23
0.0
 33
0.0
 40
0.0
 40
0.0
 40
0.0
 40
0.0
 40
0.1250000000000003
 40
0.1250000000000003
 40
0.2500000000000006
 40
0.2500000000000006
 40
0.3750000000000009
 40
0.3750000000000009
 40
0.4375000000000006
 40
0.4375000000000006
 40
0.5000000000000002
 40
0.5000000000000002
 40
0.7500000000000008
 40
0.7500000000000008
 40
0.8125000000000006
 40
0.8125000000000006
 40
0.8750000000000002
 40
0.8750000000000002
 40
1.0
 40
1.0
 40
1.0
 40
1.0
 10
665.3332121816067
 20
423.4205662673742
 30
0.0
 10
665.1917827727925
 20
423.4134748797802
 30
0.0
 10
665.0231091257334
 20
423.4100731866374
 30
0.0
 10
664.6304267465767
 20
423.4067487766193
 30
0.0
 10
664.4050441157261
 20
423.4068444866518
 30
0.0
 10
663.9123637321225
 20
423.4077531317261
 30
0.0
 10
663.6437610342214
 20
423.408554099804
 30
0.0
 10
663.2076560401932
 20
423.4091955748423
 30
0.0
 10
663.056733278702
 20
423.4093266581451
 30
0.0
 10
662.7435511951373
 20
423.4093670678659
 30
0.0
 10
662.580694336805
 20
423.4092749955379
 30
0.0
 10
661.7498198136782
 20
423.4083507296186
 30
0.0
 10
661.0269321372872
 20
423.4052672050832
 30
0.0
 10
660.0500392771477
 20
423.4087021117706
 30
0.0
 10
659.8514192067386
 20
423.4098158302695
 30
0.0
 10
659.4524162471798
 20
423.4133308651366
 30
0.0
 10
659.2513773580865
 20
423.4157335534027
 30
0.0
 10
658.6437089120748
 20
423.4256715228365
 30
0.0
 10
658.2325503948479
 20
423.4358740872402
 30
0.0
 10
657.8152339657122
 20
423.4524041614424
 30
0.0
  0
SPLINE
  5
2A2
330
1F
100
AcDbEntity
  8
0
  6
Continuous
 62
     7
370
    15
100
AcDbSpline
210
0.0
220
0.0
230
1.0
 70
     8
 71
     3
 72
    28
 73
    24
 74
     0
 42
0.00000001
 43
0.00000001
 12
1.0
 22
0.0
 32
0.0
 13
1.0
 23
0.0
 33
0.0
 40
0.0
 40
0.0
 40
0.0
 40
0.0
 40
0.1250000000000009
 40
0.1250000000000009
 40
0.1875000000000006
 40
0.1875000000000006
 40
0.2500000000000004
 40
0.2500000000000004
 40
0.3749999999999999
 40
0.3749999999999999
 40
0.4374999999999997
 40
0.4374999999999997
 40
0.4999999999999994
 40
0.4999999999999994
 40
0.6249999999999992
 40
0.6249999999999992
 40
0.6874999999999989
 40
0.6874999999999989
 40
0.7499999999999984
 40
0.7499999999999984
 40
0.8749999999999992
 40
0.8749999999999992
 40
1.0
 40
1.0
 40
1.0
 40
1.0
 10
654.4370129975134
 20
425.0833325093473
 30
0.0
 10
654.8957912923526
 20
424.9434107550489
 30
0.0
 10
655.3702859269963
 20
424.8226879327493
 30
0.0
 10
656.1041743883345
 20
424.6631710787519
 30
0.0
 10
656.3525098685199
 20
424.6136003860809
 30
0.0
 10
656.8565357498189
 20
424.5205095925095
 30
0.0
 10
657.113495323878
 20
424.476795454401
 30
0.0
 10
657.8855126348957
 20
424.3545563862047
 30
0.0
 10
658.3989377952929
 20
424.2850998248634
 30
0.0
 10
659.1661446882212
 20
424.1904800578882
 30
0.0
 10
659.4213915179237
 20
424.1605592941231
 30
0.0
 10
659.9307179266827
 20
424.1027749092867
 30
0.0
 10
660.1856690006904
 20
424.0748217651376
 30
0.0
 10
660.934061883632
 20
423.9939647850157
 30
0.0
 10
661.4153577860708
 20
423.9434621925859
 30
0.0
 10
662.1107706523261
 20
423.8675113856587
 30
0.0
 10
662.3381310228617
 20
423.8421878707186
 30
0.0
 10
662.7836659553284
 20
423.7909110342007
 30
0.0
 10
663.0011016903685
 20
423.7650305109851
 30
0.0
 10
663.6268097488808
 20
423.6873532158623
 30
0.0
 10
664.0129390046302
 20
423.6349390454432
 30
0.0
 10
664.7235939247943
 20
423.5280909640353
 30
0.0
 10
665.0499268687862
 20
423.473224795288
 30
0.0
 10
665.3332121816067
 20
423.4205662673742
 30
0.0
  0
LINE
  5
2A3
330
1F
100
AcDbEntity
  8
0
  6
Continuous
 62
     7
370
    15
100
AcDbLine
 10
581.5014831451
 20
437.4726500674
 30
0.0
 11
581.1815055438
 21
437.4726500674
 31
0.0
  0
LINE
  5
2A4
330
1F
100
AcDbEntity
  8
0
  6
Continuous
 62
     7
370
    15
100
AcDbLine
 10
581.5014831451
 20
437.4726500674
 30
0.0
 11
581.5014831451
 21
423.4205669724
 31
0.0
  0
LINE
  5
2A5
330
1F
100
AcDbEntity
  8
0
  6
Continuous
 62
     7
370
    15
100
AcDbLine
 10
589.0194592106
 20
417.4726542397
 30
0.0
 11
581.1815055438
 21
417.4726542397
 31
0.0
  0
LINE
  5
2A6
330
1F
100
AcDbEntity
  8
0
  6
Continuous
 62
     7
370
    15
100
AcDbLine
 10
665.3332106499
 20
423.4205669724
 30
0.0
 11
665.3332106499
 21
437.4726500674
 31
0.0
  0
LINE
  5
2A7
330
1F
100
AcDbEntity
  8
0
  6
Continuous
 62
     7
370
    15
100
AcDbLine
 10
665.6531882512
 20
437.4726500674
 30
0.0
 11
665.3332106499
 21
437.4726500674
 31
0.0
  0
LINE
  5
2A8
330
1F
100
AcDbEntity
  8
0
  6
Continuous
 62
     7
370
    15
100
AcDbLine
 10
665.6531882512
 20
417.4726542397
 30
0.0
 11
657.8152345844
 21
417.4726542397
 31
0.0
  0
SPLINE
  5
2A9
330
1F
100
AcDbEntity
  8
0
  6
Continuous
 62
     7
370
    15
100
AcDbSpline
210
0.0
220
0.0
230
1.0
 70
     8
 71
     3
 72
     8
 73
     4
 74
     0
 42
0.00000001
 43
0.00000001
 12
1.0
 22
0.0
 32
0.0
 13
1.0
 23
0.0
 33
0.0
 40
0.0
 40
0.0
 40
0.0
 40
0.0
 40
1.0
 40
1.0
 40
1.0
 40
1.0
 10
588.7506802308316
 20
411.7707332476955
 30
0.0
 10
592.2683829989505
 20
411.565490929575
 30
0.0
 10
595.7869810819665
 20
411.3899836987518
 30
0.0
 10
599.3065097917354
 20
411.2453843282125
 30
0.0
  0
SPLINE
  5
2AA
330
1F
100
AcDbEntity
  8
0
  6
Continuous
 62
     7
370
    15
100
AcDbSpline
210
0.0
220
0.0
230
1.0
 70
     8
 71
     3
 72
     8
 73
     4
 74
     0
 42
0.00000001
 43
0.00000001
 12
1.0
 22
0.0
 32
0.0
 13
1.0
 23
0.0
 33
0.0
 40
0.0
 40
0.0
 40
0.0
 40
0.0
 40
1.0
 40
1.0
 40
1.0
 40
1.0
 10
658.084013564165
 20
411.7707332476955
 30
0.0
 10
654.566310796046
 20
411.565490929575
 30
0.0
 10
651.04771271303
 20
411.3899836987518
 30
0.0
 10
647.5281840032612
 20
411.2453843282125
 30
0.0
  0
SPLINE
  5
2AB
330
1F
100
AcDbEntity
  8
0
  6
Continuous
 62
     7
370
    15
100
AcDbSpline
210
0.0
220
0.0
230
1.0
 70
     8
 71
     3
 72
    13
 73
     9
 74
     0
 42
0.00000001
 43
0.00000001
 12
1.0
 22
0.0
 32
0.0
 13
1.0
 23
0.0
 33
0.0
 40
0.0
 40
0.0
 40
0.0
 40
0.0
 40
0.1753271219080856
 40
0.3507759611900718
 40
0.5261009431696967
 40
0.7062411296818726
 40
0.886519854221663
 40
1.0
 40
1.0
 40
1.0
 40
1.0
 10
596.8978595959898
 20
428.0692027572338
 30
0.0
 10
596.9547715313072
 20
428.166440763729
 30
0.0
 10
597.0686349119233
 20
428.3609842822752
 30
0.0
 10
597.2005351769977
 20
428.6534865676916
 30
0.0
 10
597.3050223593332
 20
428.9470501585456
 30
0.0
 10
597.3759976927562
 20
429.2394073439125
 30
0.0
 10
597.4141726638759
 20
429.4941964690263
 30
0.0
 10
597.4135185954756
 20
429.6460735815089
 30
0.0
 10
597.4132659264162
 20
429.7047442757631
 30
0.0
  0
LINE
  5
2AC
330
1F
100
AcDbEntity
  8
0
  6
Continuous
 62
     7
370
    15
100
AcDbLine
 10
597.4173463611
 20
437.4726500674
 30
0.0
 11
581.5014831451
 21
437.4726500674
 31
0.0
  0
LINE
  5
2AD
330
1F
100
AcDbEntity
  8
0
  6
Continuous
 62
     7
370
    15
100
AcDbLine
 10
580.1897438593
 20
423.4726514979
 30
0.0
 11
580.1897438593
 21
437.4726500674
 31
0.0
  0
SPLINE
  5
2AE
330
1F
100
AcDbEntity
  8
0
  6
Continuous
 62
     7
370
    15
100
AcDbSpline
210
0.0
220
0.0
230
1.0
 70
     8
 71
     3
 72
    12
 73
     8
 74
     0
 42
0.00000001
 43
0.00000001
 12
1.0
 22
0.0
 32
0.0
 13
1.0
 23
0.0
 33
0.0
 40
0.0
 40
0.0
 40
0.0
 40
0.0
 40
0.0919528971039642
 40
0.3167262559180979
 40
0.5415122484502719
 40
0.770755125539018
 40
1.0
 40
1.0
 40
1.0
 40
1.0
 10
649.4222722677147
 20
429.7044065161094
 30
0.0
 10
649.4213108664056
 20
429.657089714705
 30
0.0
 10
649.4179993770822
 20
429.4941098214897
 30
0.0
 10
649.4635876705274
 20
429.2022002723368
 30
0.0
 10
649.5643805743725
 20
428.8304654592793
 30
0.0
 10
649.7172548362214
 20
428.4507984295396
 30
0.0
 10
649.8636408655046
 20
428.1964016840901
 30
0.0
 10
649.9368341990069
 20
428.0692027572339
 30
0.0
  0
LINE
  5
2AF
330
1F
100
AcDbEntity
  8
0
  6
Continuous
 62
     7
370
    15
100
AcDbLine
 10
666.6449499357
 20
437.4726500674
 30
0.0
 11
666.6449499357
 21
423.4726514979
 31
0.0
  0
LINE
  5
2B0
330
1F
100
AcDbEntity
  8
0
  6
Continuous
 62
     7
370
    15
100
AcDbLine
 10
665.3332106499
 20
437.4726500674
 30
0.0
 11
649.4173474339
 21
437.4726500674
 31
0.0
  0
SPLINE
  5
2B1
330
1F
100
AcDbEntity
  8
0
  6
Continuous
 62
     7
370
    15
100
AcDbSpline
210
0.0
220
0.0
230
1.0
 70
     8
 71
     3
 72
     8
 73
     4
 74
     0
 42
0.00000001
 43
0.00000001
 12
1.0
 22
0.0
 32
0.0
 13
1.0
 23
0.0
 33
0.0
 40
0.0
 40
0.0
 40
0.0
 40
0.0
 40
1.0
 40
1.0
 40
1.0
 40
1.0
 10
621.4173468974983
 20
410.8921978395844
 30
0.0
 10
622.7506857641565
 20
410.887787471077
 30
0.0
 10
624.0840326384401
 20
410.8877875524731
 30
0.0
 10
625.4173468974983
 20
410.8921978395844
 30
0.0
  0
SPLINE
  5
2B2
330
1F
100
AcDbEntity
  8
0
  6
Continuous
 62
     7
370
    15
100
AcDbSpline
210
0.0
220
0.0
230
1.0
 70
     8
 71
     3
 72
     8
 73
     4
 74
     0
 42
0.00000001
 43
0.00000001
 12
1.0
 22
0.0
 32
0.0
 13
1.0
 23
0.0
 33
0.0
 40
0.0
 40
0.0
 40
0.0
 40
0.0
 40
1.0
 40
1.0
 40
1.0
 40
1.0
 10
599.3065097917354
 20
411.2453843282125
 30
0.0
 10
606.6726425047339
 20
410.9427477420546
 30
0.0
 10
614.042867587313
 20
410.7760264267876
 30
0.0
 10
621.4173468974983
 20
410.7505959910595
 30
0.0
  0
SPLINE
  5
2B3
330
1F
100
AcDbEntity
  8
0
  6
Continuous
 62
     7
370
    15
100
AcDbSpline
210
0.0
220
0.0
230
1.0
 70
     8
 71
     3
 72
     8
 73
     4
 74
     0
 42
0.00000001
 43
0.00000001
 12
1.0
 22
0.0
 32
0.0
 13
1.0
 23
0.0
 33
0.0
 40
0.0
 40
0.0
 40
0.0
 40
0.0
 40
1.0
 40
1.0
 40
1.0
 40
1.0
 10
625.4173468974983
 20
410.7505959910595
 30
0.0
 10
632.7918262399899
 20
410.776026426899
 30
0.0
 10
640.1620513221181
 20
410.9427477433634
 30
0.0
 10
647.5281840032612
 20
411.2453843282125
 30
0.0
  0
LINE
  5
2B4
330
1F
100
AcDbEntity
  8
0
  6
Continuous
 62
     7
370
    15
100
AcDbLine
 10
580.9347224462
 20
417.4726542397
 30
0.0
 11
580.412223163
 21
417.4726542397
 31
0.0
  0
LINE
  5
2B5
330
1F
100
AcDbEntity
  8
0
  6
Continuous
 62
     7
370
    15
100
AcDbLine
 10
665.8999713488
 20
417.4726542397
 30
0.0
 11
666.422470632
 21
417.4726542397
 31
0.0
  0
SPLINE
  5
2B6
330
1F
100
AcDbEntity
  8
0
  6
Continuous
 62
     7
370
    15
100
AcDbSpline
210
0.0
220
0.0
230
1.0
 70
     8
 71
     3
 72
    26
 73
    22
 74
     0
 42
0.00000001
 43
0.00000001
 12
1.0
 22
0.0
 32
0.0
 13
1.0
 23
0.0
 33
0.0
 40
0.0
 40
0.0
 40
0.0
 40
0.0
 40
0.1250000000000003
 40
0.1250000000000003
 40
0.2500000000000007
 40
0.2500000000000007
 40
0.375000000000001
 40
0.375000000000001
 40
0.5000000000000013
 40
0.5000000000000013
 40
0.6250000000000017
 40
0.6250000000000017
 40
0.6875000000000011
 40
0.6875000000000011
 40
0.7500000000000007
 40
0.7500000000000007
 40
0.8750000000000003
 40
0.8750000000000003
 40
0.9375000000000001
 40
0.9375000000000001
 40
1.0
 40
1.0
 40
1.0
 40
1.0
 10
582.1638062961342
 20
411.6624744364026
 30
0.0
 10
582.184215183707
 20
411.6738196824986
 30
0.0
 10
582.2331440612888
 20
411.6848320956597
 30
0.0
 10
582.3893113027839
 20
411.706008557888
 30
0.0
 10
582.494709282883
 20
411.7159500991516
 30
0.0
 10
582.7580995015508
 20
411.7346416035763
 30
0.0
 10
582.9160907134096
 20
411.7433913112606
 30
0.0
 10
583.2868605962409
 20
411.7597054499012
 30
0.0
 10
583.4951049924554
 20
411.7670658541127
 30
0.0
 10
583.9537948876813
 20
411.7802466841305
 30
0.0
 10
584.2045000507648
 20
411.7860780930581
 30
0.0
 10
584.6137091641369
 20
411.7936806381836
 30
0.0
 10
584.7552159824095
 20
411.7960119097838
 30
0.0
 10
585.0442679278461
 20
411.8002143234478
 30
0.0
 10
585.1923712025059
 20
411.8020961846752
 30
0.0
 10
585.6472452042476
 20
411.8070995789083
 30
0.0
 10
585.9645102999611
 20
411.8095835122481
 30
0.0
 10
586.4620139511459
 20
411.8120118432309
 30
0.0
 10
586.6317455604081
 20
411.8126021093169
 30
0.0
 10
586.9723273362575
 20
411.8133254306907
 30
0.0
 10
587.1439184404019
 20
411.8134630667494
 30
0.0
 10
587.3167851283023
 20
411.8133810644351
 30
0.0
  0
SPLINE
  5
2B7
330
1F
100
AcDbEntity
  8
0
  6
Continuous
 62
     7
370
    15
100
AcDbSpline
210
0.0
220
0.0
230
1.0
 70
     8
 71
     3
 72
    26
 73
    22
 74
     0
 42
0.00000001
 43
0.00000001
 12
1.0
 22
0.0
 32
0.0
 13
1.0
 23
0.0
 33
0.0
 40
0.0
 40
0.0
 40
0.0
 40
0.0
 40
0.1250000000000003
 40
0.1250000000000003
 40
0.2500000000000007
 40
0.2500000000000007
 40
0.375000000000001
 40
0.375000000000001
 40
0.5000000000000013
 40
0.5000000000000013
 40
0.6250000000000017
 40
0.6250000000000017
 40
0.6875000000000011
 40
0.6875000000000011
 40
0.7500000000000007
 40
0.7500000000000007
 40
0.8750000000000003
 40
0.8750000000000003
 40
0.9375000000000001
 40
0.9375000000000001
 40
1.0
 40
1.0
 40
1.0
 40
1.0
 10
664.6708874988624
 20
411.6624744364026
 30
0.0
 10
664.6504786112896
 20
411.6738196824986
 30
0.0
 10
664.6015497337078
 20
411.6848320956597
 30
0.0
 10
664.4453824922126
 20
411.706008557888
 30
0.0
 10
664.3399845121135
 20
411.7159500991516
 30
0.0
 10
664.0765942934457
 20
411.7346416035763
 30
0.0
 10
663.9186030815869
 20
411.7433913112606
 30
0.0
 10
663.5478331987556
 20
411.7597054499012
 30
0.0
 10
663.3395888025411
 20
411.7670658541127
 30
0.0
 10
662.8808989073153
 20
411.7802466841305
 30
0.0
 10
662.6301937442319
 20
411.7860780930581
 30
0.0
 10
662.2209846308597
 20
411.7936806381836
 30
0.0
 10
662.079477812587
 20
411.7960119097838
 30
0.0
 10
661.7904258671505
 20
411.8002143234478
 30
0.0
 10
661.6423225924907
 20
411.8020961846752
 30
0.0
 10
661.187448590749
 20
411.8070995789083
 30
0.0
 10
660.8701834950355
 20
411.8095835122481
 30
0.0
 10
660.3726798438507
 20
411.8120118432309
 30
0.0
 10
660.2029482345883
 20
411.8126021093169
 30
0.0
 10
659.8623664587391
 20
411.8133254306907
 30
0.0
 10
659.6907753545946
 20
411.8134630667494
 30
0.0
 10
659.5179086666942
 20
411.8133810644351
 30
0.0
  0
SPLINE
  5
2B8
330
1F
100
AcDbEntity
  8
0
  6
Continuous
 62
     7
370
    15
100
AcDbSpline
210
0.0
220
0.0
230
1.0
 70
     8
 71
     3
 72
     8
 73
     4
 74
     0
 42
0.00000001
 43
0.00000001
 12
1.0
 22
0.0
 32
0.0
 13
1.0
 23
0.0
 33
0.0
 40
0.0
 40
0.0
 40
0.0
 40
0.0
 40
1.0
 40
1.0
 40
1.0
 40
1.0
 10
587.3247099276853
 20
411.8133759760216
 30
0.0
 10
587.7967974678955
 20
411.8129936983177
 30
0.0
 10
588.2721540638616
 20
411.7986531221887
 30
0.0
 10
588.7506802308316
 20
411.7707332476955
 30
0.0
  0
SPLINE
  5
2B9
330
1F
100
AcDbEntity
  8
0
  6
Continuous
 62
     7
370
    15
100
AcDbSpline
210
0.0
220
0.0
230
1.0
 70
     8
 71
     3
 72
     8
 73
     4
 74
     0
 42
0.00000001
 43
0.00000001
 12
1.0
 22
0.0
 32
0.0
 13
1.0
 23
0.0
 33
0.0
 40
0.0
 40
0.0
 40
0.0
 40
0.0
 40
1.0
 40
1.0
 40
1.0
 40
1.0
 10
659.5099838673113
 20
411.8133759760216
 30
0.0
 10
659.037896327101
 20
411.8129936983177
 30
0.0
 10
658.5625397311348
 20
411.7986531221887
 30
0.0
 10
658.084013564165
 20
411.7707332476955
 30
0.0
  0
SPLINE
  5
2BA
330
1F
100
AcDbEntity
  8
0
  6
Continuous
 62
     7
370
    15
100
AcDbSpline
210
0.0
220
0.0
230
1.0
 70
     8
 71
     3
 72
     8
 73
     4
 74
     0
 42
0.00000001
 43
0.00000001
 12
1.0
 22
0.0
 32
0.0
 13
1.0
 23
0.0
 33
0.0
 40
0.0
 40
0.0
 40
0.0
 40
0.0
 40
1.0
 40
1.0
 40
1.0
 40
1.0
 10
587.3167851283023
 20
411.8133810644351
 30
0.0
 10
587.3194266243772
 20
411.8133798113955
 30
0.0
 10
587.3220682241925
 20
411.813378115168
 30
0.0
 10
587.3247099276853
 20
411.8133759760216
 30
0.0
  0
SPLINE
  5
2BB
330
1F
100
AcDbEntity
  8
0
  6
Continuous
 62
     7
370
    15
100
AcDbSpline
210
0.0
220
0.0
230
1.0
 70
     8
 71
     3
 72
     8
 73
     4
 74
     0
 42
0.00000001
 43
0.00000001
 12
1.0
 22
0.0
 32
0.0
 13
1.0
 23
0.0
 33
0.0
 40
0.0
 40
0.0
 40
0.0
 40
0.0
 40
1.0
 40
1.0
 40
1.0
 40
1.0
 10
659.5179086666942
 20
411.8133810644351
 30
0.0
 10
659.5152671706194
 20
411.8133798113955
 30
0.0
 10
659.5126255708041
 20
411.813378115168
 30
0.0
 10
659.5099838673113
 20
411.8133759760216
 30
0.0
  0
LINE
  5
2BC
330
1F
100
AcDbEntity
  8
0
  6
Continuous
 62
     7
370
    15
100
AcDbLine
 10
625.4173469149
 20
402.4402138157
 30
0.0
 11
625.4173469149
 21
410.8921971484
 31
0.0
  0
LINE
  5
2BD
330
1F
100
AcDbEntity
  8
0
  6
Continuous
 62
     7
370
    15
100
AcDbLine
 10
621.4173468801
 20
402.4402138157
 30
0.0
 11
621.4173468801
 21
410.8921971484
 31
0.0
  0
LINE
  5
2BE
330
1F
100
AcDbEntity
  8
0
  6
Continuous
 62
     7
370
    15
100
AcDbLine
 10
599.0931483336
 20
397.472653445
 30
0.0
 11
588.7506795156
 21
397.472653445
 31
0.0
  0
LINE
  5
2BF
330
1F
100
AcDbEntity
  8
0
  6
Continuous
 62
     7
370
    15
100
AcDbLine
 10
658.0840142794
 20
397.472653445
 30
0.0
 11
647.7415454614
 21
397.472653445
 31
0.0
  0
LINE
  5
2C0
330
1F
100
AcDbEntity
  8
0
  6
Continuous
 62
     7
370
    15
100
AcDbLine
 10
588.7506795156
 20
397.472653445
 30
0.0
 11
584.14527945
 21
397.472653445
 31
0.0
  0
LINE
  5
2C1
330
1F
100
AcDbEntity
  8
0
  6
Continuous
 62
     7
370
    15
100
AcDbLine
 10
582.1551126468
 20
411.6455253525
 30
0.0
 11
582.1534387497
 21
411.6505073074
 31
0.0
  0
SPLINE
  5
2C2
330
1F
100
AcDbEntity
  8
0
  6
Continuous
 62
     7
370
    15
100
AcDbSpline
210
0.0
220
0.0
230
1.0
 70
     8
 71
     3
 72
     8
 73
     4
 74
     0
 42
0.00000001
 43
0.00000001
 12
1.0
 22
0.0
 32
0.0
 13
1.0
 23
0.0
 33
0.0
 40
0.0
 40
0.0
 40
0.0
 40
0.0
 40
1.0
 40
1.0
 40
1.0
 40
1.0
 10
582.1534378420997
 20
411.650505100545
 30
0.0
 10
582.1543310903061
 20
411.6551284407109
 30
0.0
 10
582.1577742026574
 20
411.6591212117487
 30
0.0
 10
582.1638062961342
 20
411.6624744364026
 30
0.0
  0
SPLINE
  5
2C3
330
1F
100
AcDbEntity
  8
0
  6
Continuous
 62
     7
370
    15
100
AcDbSpline
210
0.0
220
0.0
230
1.0
 70
     8
 71
     3
 72
     8
 73
     4
 74
     0
 42
0.00000001
 43
0.00000001
 12
1.0
 22
0.0
 32
0.0
 13
1.0
 23
0.0
 33
0.0
 40
0.0
 40
0.0
 40
0.0
 40
0.0
 40
1.0
 40
1.0
 40
1.0
 40
1.0
 10
664.6812559528969
 20
411.650505100545
 30
0.0
 10
664.6803627046904
 20
411.6551284407109
 30
0.0
 10
664.6769195923392
 20
411.6591212117487
 30
0.0
 10
664.6708874988624
 20
411.6624744364026
 30
0.0
  0
LINE
  5
2C4
330
1F
100
AcDbEntity
  8
0
  6
Continuous
 62
     7
370
    15
100
AcDbLine
 10
664.6795811482
 20
411.6455253525
 30
0.0
 11
664.6812550453
 21
411.6505073074
 31
0.0
  0
LINE
  5
2C5
330
1F
100
AcDbEntity
  8
0
  6
Continuous
 62
     7
370
    15
100
AcDbLine
 10
658.0840142794
 20
397.472653445
 30
0.0
 11
662.689414345
 21
397.472653445
 31
0.0
  0
LINE
  5
2C6
330
1F
100
AcDbEntity
  8
0
  6
Continuous
 62
     7
370
    15
100
AcDbLine
 10
580.1897438593
 20
423.4726514979
 30
0.0
 11
578.4173451094
 21
423.4726514979
 31
0.0
  0
LINE
  5
2C7
330
1F
100
AcDbEntity
  8
0
  6
Continuous
 62
     7
370
    15
100
AcDbLine
 10
581.1815055438
 20
437.4726500674
 30
0.0
 11
580.1897438593
 21
437.4726500674
 31
0.0
  0
LINE
  5
2C8
330
1F
100
AcDbEntity
  8
0
  6
Continuous
 62
     7
370
    15
100
AcDbLine
 10
581.1815055438
 20
417.4726542397
 30
0.0
 11
580.9347224462
 21
417.4726542397
 31
0.0
  0
LINE
  5
2C9
330
1F
100
AcDbEntity
  8
0
  6
Continuous
 62
     7
370
    15
100
AcDbLine
 10
668.4173486856
 20
423.4726514979
 30
0.0
 11
666.6449499357
 21
423.4726514979
 31
0.0
  0
LINE
  5
2CA
330
1F
100
AcDbEntity
  8
0
  6
Continuous
 62
     7
370
    15
100
AcDbLine
 10
666.6449499357
 20
437.4726500674
 30
0.0
 11
665.6531882512
 21
437.4726500674
 31
0.0
  0
LINE
  5
2CB
330
1F
100
AcDbEntity
  8
0
  6
Continuous
 62
     7
370
    15
100
AcDbLine
 10
665.8999713488
 20
417.4726542397
 30
0.0
 11
665.6531882512
 21
417.4726542397
 31
0.0
  0
SPLINE
  5
2CC
330
1F
100
AcDbEntity
  8
0
  6
Continuous
 62
     7
370
    15
100
AcDbSpline
210
0.0
220
0.0
230
1.0
 70
     8
 71
     3
 72
    11
 73
     7
 74
     0
 42
0.00000001
 43
0.00000001
 12
1.0
 22
0.0
 32
0.0
 13
1.0
 23
0.0
 33
0.0
 40
0.0
 40
0.0
 40
0.0
 40
0.0
 40
0.2350700578257163
 40
0.4886145103822903
 40
0.7442975286493257
 40
0.9999999999999999
 40
0.9999999999999999
 40
0.9999999999999999
 40
0.9999999999999999
 10
597.4173463610565
 20
430.1391727292086
 30
0.0
 10
597.611111303417
 20
430.1323220587836
 30
0.0
 10
598.0138693718689
 20
430.1180823167833
 30
0.0
 10
598.6403415271192
 20
430.0934381577438
 30
0.0
 10
599.2915820755283
 20
430.0706790175814
 30
0.0
 10
599.7271772667405
 20
430.04122676756
 30
0.0
 10
599.9449831473585
 20
430.0265000823681
 30
0.0
  0
SPLINE
  5
2CD
330
1F
100
AcDbEntity
  8
0
  6
Continuous
 62
     7
370
    15
100
AcDbSpline
210
0.0
220
0.0
230
1.0
 70
     8
 71
     3
 72
    11
 73
     7
 74
     0
 42
0.00000001
 43
0.00000001
 12
1.0
 22
0.0
 32
0.0
 13
1.0
 23
0.0
 33
0.0
 40
0.0
 40
0.0
 40
0.0
 40
0.0
 40
0.2540083546589496
 40
0.5079984767873305
 40
0.7632362754962705
 40
1.0
 40
1.0
 40
1.0
 40
1.0
 10
646.8897106476381
 20
430.0265000823682
 30
0.0
 10
647.1060700464818
 20
430.0411480913301
 30
0.0
 10
647.5387733140524
 20
430.0704430578307
 30
0.0
 10
648.188608552512
 20
430.0932315429366
 30
0.0
 10
648.8166152400128
 20
430.1179235234696
 30
0.0
 10
649.2221795220381
 20
430.1322692152042
 30
0.0
 10
649.4173474339401
 20
430.1391727292086
 30
0.0
  0
SPLINE
  5
2CE
330
1F
100
AcDbEntity
  8
0
  6
Continuous
 62
     7
370
    15
100
AcDbSpline
210
0.0
220
0.0
230
1.0
 70
    24
 71
     3
 72
    36
 73
    32
 74
     0
 42
0.00000001
 43
0.00000001
 12
1.0
 22
0.0
 32
0.0
 13
1.0
 23
0.0
 33
0.0
 40
0.5000000000000001
 40
0.5000000000000001
 40
0.5000000000000001
 40
0.5000000000000001
 40
0.5177494002761137
 40
0.5354988005522274
 40
0.553248200828341
 40
0.5709976011044546
 40
0.5709976011044546
 40
0.5854943156205517
 40
0.5999910301366487
 40
0.6144877446527457
 40
0.6289844591688427
 40
0.6289844591688427
 40
0.659238344376632
 40
0.6894922295844214
 40
0.7197461147922107
 40
0.75
 40
0.75
 40
0.7802538852077894
 40
0.8105077704155786
 40
0.8407616556233679
 40
0.8710155408311573
 40
0.8710155408311573
 40
0.8855122553472543
 40
0.9000089698633513
 40
0.9145056843794485
 40
0.9290023988955455
 40
0.9290023988955455
 40
0.9467517991716592
 40
0.9645011994477727
 40
0.9822505997238864
 40
1.0
 40
1.0
 40
1.0
 40
1.0
 10
644.084013564165
 20
458.8059861822471
 30
0.0
 10
644.0840135641592
 20
458.8059861822471
 30
0.0
 10
643.9964823090776
 20
458.8059861822471
 30
0.0
 10
643.6004842371897
 20
458.805986182247
 30
0.0
 10
642.9486638387904
 20
458.8059861822471
 30
0.0
 10
642.3560747759841
 20
458.8059861822471
 30
0.0
 10
641.7541356208847
 20
458.8059861822471
 30
0.0
 10
641.1728185604409
 20
458.8059861822471
 30
0.0
 10
640.1806701456043
 20
458.8059861822471
 30
0.0
 10
639.060637536604
 20
458.8059861822471
 30
0.0
 10
638.2182852847484
 20
458.8059861822471
 30
0.0
 10
636.8295565651282
 20
458.8059861822471
 30
0.0
 10
634.767250276287
 20
458.8059861822471
 30
0.0
 10
631.2305543567693
 20
458.8059861822471
 30
0.0
 10
627.3921107593916
 20
458.8059861822471
 30
0.0
 10
624.7393156358482
 20
458.8059861822471
 30
0.0
 10
622.0953781591483
 20
458.8059861822471
 30
0.0
 10
619.4425830356049
 20
458.805986182247
 30
0.0
 10
615.6041394382272
 20
458.8059861822471
 30
0.0
 10
612.0674435187096
 20
458.8059861822471
 30
0.0
 10
610.0051372298684
 20
458.8059861822471
 30
0.0
 10
608.6164085102481
 20
458.8059861822471
 30
0.0
 10
607.7740562583926
 20
458.8059861822471
 30
0.0
 10
606.6540236493922
 20
458.8059861822471
 30
0.0
 10
605.6618752345557
 20
458.8059861822471
 30
0.0
 10
605.0805581741118
 20
458.8059861822471
 30
0.0
 10
604.4786190190124
 20
458.8059861822471
 30
0.0
 10
603.8860299562062
 20
458.8059861822472
 30
0.0
 10
603.2342095578069
 20
458.805986182247
 30
0.0
 10
602.8382114859103
 20
458.8059861822471
 30
0.0
 10
602.7506802308316
 20
458.8059861822471
 30
0.0
 10
602.7506802308316
 20
458.8059861822471
 30
0.0
  0
LINE
  5
2CF
330
1F
100
AcDbEntity
  8
0
  6
Continuous
 62
     7
370
    15
100
AcDbLine
 10
578.4173451094
 20
417.4726542397
 30
0.0
 11
580.412223163
 21
417.4726542397
 31
0.0
  0
LINE
  5
2D0
330
1F
100
AcDbEntity
  8
0
  6
Continuous
 62
     7
370
    15
100
AcDbLine
 10
668.4173486856
 20
417.4726542397
 30
0.0
 11
666.422470632
 21
417.4726542397
 31
0.0
  0
SPLINE
  5
2D1
330
1F
100
AcDbEntity
  8
0
  6
Continuous
 62
     7
370
    15
100
AcDbSpline
210
0.0
220
0.0
230
1.0
 70
     8
 71
     3
 72
    10
 73
     6
 74
     0
 42
0.00000001
 43
0.00000001
 12
1.0
 22
0.0
 32
0.0
 13
1.0
 23
0.0
 33
0.0
 40
0.0
 40
0.0
 40
0.0
 40
0.0
 40
0.5000000000000002
 40
0.5000000000000002
 40
1.0
 40
1.0
 40
1.0
 40
1.0
 10
616.2045726377125
 20
458.8107139901459
 30
0.0
 10
615.2427295765767
 20
458.8195547540387
 30
0.0
 10
614.2811355099034
 20
458.8336496316281
 30
0.0
 10
612.3565993259625
 20
458.8336502813332
 30
0.0
 10
611.3937208808907
 20
458.8195550700389
 30
0.0
 10
610.4310699458163
 20
458.8107139901459
 30
0.0
  0
SPLINE
  5
2D2
330
1F
100
AcDbEntity
  8
0
  6
Continuous
 62
     7
370
    15
100
AcDbSpline
210
0.0
220
0.0
230
1.0
 70
     8
 71
     3
 72
    22
 73
    18
 74
     0
 42
0.00000001
 43
0.00000001
 12
1.0
 22
0.0
 32
0.0
 13
1.0
 23
0.0
 33
0.0
 40
0.0
 40
0.0
 40
0.0
 40
0.0
 40
0.125
 40
0.125
 40
0.25
 40
0.25
 40
0.375
 40
0.375
 40
0.5
 40
0.5
 40
0.625
 40
0.625
 40
0.75
 40
0.75
 40
0.875
 40
0.875
 40
1.0
 40
1.0
 40
1.0
 40
1.0
 10
616.2045726377125
 20
458.8107139901459
 30
0.0
 10
616.3174594783766
 20
458.8215542326394
 30
0.0
 10
616.429257597869
 20
458.8508298176335
 30
0.0
 10
616.650664673791
 20
458.9464501398458
 30
0.0
 10
616.7607734594776
 20
459.0135369945242
 30
0.0
 10
616.9708597341394
 20
459.1806628089835
 30
0.0
 10
617.0718226315594
 20
459.2809307734557
 30
0.0
 10
617.2655256186933
 20
459.5151319957222
 30
0.0
 10
617.358764882155
 20
459.6502929648108
 30
0.0
 10
617.5301388688534
 20
459.9455319740005
 30
0.0
 10
617.6091103954024
 20
460.1063426035386
 30
0.0
 10
617.7535013161836
 20
460.4545841819393
 30
0.0
 10
617.8192722173569
 20
460.6437370204885
 30
0.0
 10
617.932124859475
 20
461.0360358513565
 30
0.0
 10
617.9798372713894
 20
461.2402490237146
 30
0.0
 10
618.0577126605815
 20
461.6649154247264
 30
0.0
 10
618.0879151695814
 20
461.8867737058701
 30
0.0
 10
618.1081237365881
 20
462.1113934715793
 30
0.0
  0
SPLINE
  5
2D3
330
1F
100
AcDbEntity
  8
0
  6
Continuous
 62
     7
370
    15
100
AcDbSpline
210
0.0
220
0.0
230
1.0
 70
     8
 71
     3
 72
    22
 73
    18
 74
     0
 42
0.00000001
 43
0.00000001
 12
1.0
 22
0.0
 32
0.0
 13
1.0
 23
0.0
 33
0.0
 40
0.0
 40
0.0
 40
0.0
 40
0.0
 40
0.125
 40
0.125
 40
0.25
 40
0.25
 40
0.375
 40
0.375
 40
0.5
 40
0.5
 40
0.625
 40
0.625
 40
0.75
 40
0.75
 40
0.875
 40
0.875
 40
1.0
 40
1.0
 40
1.0
 40
1.0
 10
643.6163981089655
 20
458.8107139901459
 30
0.0
 10
643.3893244024143
 20
458.8216166517335
 30
0.0
 10
643.1628191745697
 20
458.8515656952177
 30
0.0
 10
642.7223469308034
 20
458.9470287293244
 30
0.0
 10
642.5066239847912
 20
459.0125960195648
 30
0.0
 10
642.0844357177936
 20
459.1803161231774
 30
0.0
 10
641.8795642663417
 20
459.2822338850186
 30
0.0
 10
641.4939505301982
 20
459.5155680197255
 30
0.0
 10
641.311374373836
 20
459.6476603824049
 30
0.0
 10
640.9672561354596
 20
459.9435591094801
 30
0.0
 10
640.8064764825591
 20
460.1071816953405
 30
0.0
 10
640.5167572534011
 20
460.4569177842834
 30
0.0
 10
640.3857050756704
 20
460.645712868365
 30
0.0
 10
640.1601836805302
 20
461.0382410801033
 30
0.0
 10
640.0649434512052
 20
461.2424255780481
 30
0.0
 10
639.9095996862022
 20
461.6666786465567
 30
0.0
 10
639.8493522597579
 20
461.8887787848968
 30
0.0
 10
639.8092959112143
 20
462.1113934715794
 30
0.0
  0
SPLINE
  5
2D4
330
1F
100
AcDbEntity
  8
0
  6
Continuous
 62
     7
370
    15
100
AcDbSpline
210
0.0
220
0.0
230
1.0
 70
     8
 71
     3
 72
    18
 73
    14
 74
     0
 42
0.00000001
 43
0.00000001
 12
1.0
 22
0.0
 32
0.0
 13
1.0
 23
0.0
 33
0.0
 40
0.0
 40
0.0
 40
0.0
 40
0.0
 40
0.249999999999997
 40
0.249999999999997
 40
0.3749999999999951
 40
0.3749999999999951
 40
0.4999999999999931
 40
0.4999999999999931
 40
0.6249999999999912
 40
0.6249999999999912
 40
0.7499999999999892
 40
0.7499999999999892
 40
1.0
 40
1.0
 40
1.0
 40
1.0
 10
619.1180298211776
 20
485.480069930857
 30
0.0
 10
619.1232336631182
 20
485.6735253769683
 30
0.0
 10
619.1424334932555
 20
485.8606227430498
 30
0.0
 10
619.1916547979727
 20
486.1319917116344
 30
0.0
 10
619.2115608861968
 20
486.2206762290973
 30
0.0
 10
619.2569913753325
 20
486.3891612084625
 30
0.0
 10
619.2826402235194
 20
486.4697281479056
 30
0.0
 10
619.3397661490473
 20
486.6235597624625
 30
0.0
 10
619.371526551283
 20
486.6973229767869
 30
0.0
 10
619.4392800208203
 20
486.8335806440504
 30
0.0
 10
619.4753132147628
 20
486.8963783411826
 30
0.0
 10
619.589702969674
 20
487.0692210471512
 30
0.0
 10
619.6750370264987
 20
487.1641305098717
 30
0.0
 10
619.7653692761158
 20
487.233769069082
 30
0.0
  0
LINE
  5
2D5
330
1F
100
AcDbEntity
  8
0
  6
Continuous
 62
     7
370
    15
100
AcDbLine
 10
618.6527611417
 20
468.1565450195
 30
0.0
 11
619.1180297214
 21
485.4800687793
 31
0.0
  0
SPLINE
  5
2D6
330
1F
100
AcDbEntity
  8
0
  6
Continuous
 62
     7
370
    15
100
AcDbSpline
210
0.0
220
0.0
230
1.0
 70
     8
 71
     3
 72
     8
 73
     4
 74
     0
 42
0.00000001
 43
0.00000001
 12
1.0
 22
0.0
 32
0.0
 13
1.0
 23
0.0
 33
0.0
 40
0.0000002032118919
 40
0.0000002032118919
 40
0.0000002032118919
 40
0.0000002032118919
 40
0.0092139691837494
 40
0.0092139691837494
 40
0.0092139691837494
 40
0.0092139691837494
 10
618.1081237365881
 20
462.1113934715793
 30
0.0
 10
618.2894217626487
 20
464.1265348778804
 30
0.0
 10
618.4709500019367
 20
466.1415935181241
 30
0.0
 10
618.6527612650954
 20
468.156549955062
 30
0.0
  0
LINE
  5
2D7
330
1F
100
AcDbEntity
  8
0
  6
Continuous
 62
     7
370
    15
100
AcDbLine
 10
617.0792522259
 20
478.8059876922
 30
0.0
 11
616.2045726903
 21
458.8107155327
 31
0.0
  0
LINE
  5
2D8
330
1F
100
AcDbEntity
  8
0
  6
Continuous
 62
     7
370
    15
100
AcDbLine
 10
617.1316645769
 20
490.8176249826
 30
0.0
 11
617.0792522259
 21
478.8059876922
 31
0.0
  0
LWPOLYLINE
  5
2D9
330
1F
100
AcDbEntity
  8
0
  6
Continuous
 62
     7
370
    15
100
AcDbPolyline
 90
       15
 70
   128
 43
0.0
 10
617.7983058967
 20
492.139318244
 10
617.7240757622
 20
492.1310331984
 10
617.6507688788
 20
492.1062575344
 10
617.5792967009
 20
492.0653190775
 10
617.5105483311
 20
492.0087145332
 10
617.4453787235
 20
491.9371591572
 10
617.3845981288
 20
491.8515271508
 10
617.3289627808
 20
491.7529013319
 10
617.279163721
 20
491.6424936616
 10
617.235821831
 20
491.5216849807
 10
617.1994747944
 20
491.3919753396
 10
617.1705746132
 20
491.2549740636
 10
617.1494813986
 20
491.1123997533
 10
617.1364577838
 20
490.9660008116
 10
617.1316645769
 20
490.8176249826
  0
LINE
  5
2DA
330
1F
100
AcDbEntity
  8
0
  6
Continuous
 62
     7
370
    15
100
AcDbLine
 10
620.7139282527
 20
492.139318244
 30
0.0
 11
617.7983058967
 21
492.139318244
 31
0.0
  0
SPLINE
  5
2DB
330
1F
100
AcDbEntity
  8
0
  6
Continuous
 62
     7
370
    15
100
AcDbSpline
210
0.0
220
0.0
230
1.0
 70
     8
 71
     3
 72
     8
 73
     4
 74
     0
 42
0.00000001
 43
0.00000001
 12
1.0
 22
0.0
 32
0.0
 13
1.0
 23
0.0
 33
0.0
 40
0.0000002033293474
 40
0.0000002033293474
 40
0.0000002033293474
 40
0.0000002033293474
 40
0.0051770234605904
 40
0.0051770234605904
 40
0.0051770234605904
 40
0.0051770234605904
 10
620.4023161805706
 20
488.7448437644573
 30
0.0
 10
620.5059808721701
 20
489.8764112523975
 30
0.0
 10
620.6098401395229
 20
491.0079075337862
 30
0.0
 10
620.7139282996968
 20
492.1393195155804
 30
0.0
  0
SPLINE
  5
2DC
330
1F
100
AcDbEntity
  8
0
  6
Continuous
 62
     7
370
    15
100
AcDbSpline
210
0.0
220
0.0
230
1.0
 70
     8
 71
     3
 72
    16
 73
    12
 74
     0
 42
0.00000001
 43
0.00000001
 12
1.0
 22
0.0
 32
0.0
 13
1.0
 23
0.0
 33
0.0
 40
0.0
 40
0.0
 40
0.0
 40
0.0
 40
0.249999999999993
 40
0.249999999999993
 40
0.499999999999986
 40
0.499999999999986
 40
0.6249999999999833
 40
0.6249999999999833
 40
0.7499999999999808
 40
0.7499999999999808
 40
1.0
 40
1.0
 40
1.0
 40
1.0
 10
619.7653692761161
 20
487.2337690690811
 30
0.0
 10
619.8464014888956
 20
487.2962380828776
 30
0.0
 10
619.9219829018259
 20
487.3771231291179
 30
0.0
 10
620.0624176207875
 20
487.5751391249844
 30
0.0
 10
620.1271580668076
 20
487.6931267534187
 30
0.0
 10
620.210324242553
 20
487.8887299400956
 30
0.0
 10
620.2359723888254
 20
487.9573975254073
 30
0.0
 10
620.2829721602516
 20
488.1019142868719
 30
0.0
 10
620.3043531805894
 20
488.1780807668069
 30
0.0
 10
620.3600001493979
 20
488.4109318720346
 30
0.0
 10
620.3866510325611
 20
488.5738484920289
 30
0.0
 10
620.4023161805706
 20
488.7448437644573
 30
0.0
  0
LINE
  5
2DD
330
1F
100
AcDbEntity
  8
0
  6
Continuous
 62
     7
370
    15
100
AcDbLine
 10
611.3057501344
 20
478.8059876922
 30
0.0
 11
610.431069357
 21
458.8107155327
 31
0.0
  0
LINE
  5
2DE
330
1F
100
AcDbEntity
  8
0
  6
Continuous
 62
     7
370
    15
100
AcDbLine
 10
617.0792522259
 20
478.8059876922
 30
0.0
 11
611.3057501344
 21
478.8059876922
 31
0.0
  0
LINE
  5
2DF
330
1F
100
AcDbEntity
  8
0
  6
Continuous
 62
     7
370
    15
100
AcDbLine
 10
611.3581612436
 20
490.8176249826
 30
0.0
 11
611.3057501344
 21
478.8059876922
 31
0.0
  0
LWPOLYLINE
  5
2E0
330
1F
100
AcDbEntity
  8
0
  6
Continuous
 62
     7
370
    15
100
AcDbPolyline
 90
       15
 70
   128
 43
0.0
 10
612.0248031842
 20
492.139318244
 10
611.9505730498
 20
492.1310331984
 10
611.8772655455
 20
492.1062575344
 10
611.8057946094
 20
492.0653190775
 10
611.7370456187
 20
492.0087145332
 10
611.6718753902
 20
491.9371591572
 10
611.6110960372
 20
491.8515271508
 10
611.5554600684
 20
491.7529013319
 10
611.5056616294
 20
491.6424936616
 10
611.4623191186
 20
491.5216849807
 10
611.4259714611
 20
491.3919753396
 10
611.3970719007
 20
491.2549740636
 10
611.3759793071
 20
491.1123997533
 10
611.3629544504
 20
490.9660008116
 10
611.3581612436
 20
490.8176249826
  0
LINE
  5
2E1
330
1F
100
AcDbEntity
  8
0
  6
Continuous
 62
     7
370
    15
100
AcDbLine
 10
617.7983058967
 20
492.139318244
 30
0.0
 11
612.0248031842
 21
492.139318244
 31
0.0
  0
LINE
  5
2E2
330
1F
100
AcDbEntity
  8
0
  6
Continuous
 62
     7
370
    15
100
AcDbLine
 10
638.7200211215
 20
468.1565450195
 30
0.0
 11
618.6527611417
 21
468.1565450195
 31
0.0
  0
SPLINE
  5
2E3
330
1F
100
AcDbEntity
  8
0
  6
Continuous
 62
     7
370
    15
100
AcDbSpline
210
0.0
220
0.0
230
1.0
 70
     8
 71
     3
 72
     8
 73
     4
 74
     0
 42
0.00000001
 43
0.00000001
 12
1.0
 22
0.0
 32
0.0
 13
1.0
 23
0.0
 33
0.0
 40
0.0
 40
0.0
 40
0.0
 40
0.0
 40
1.0
 40
1.0
 40
1.0
 40
1.0
 10
639.8092959112143
 20
462.1113934715794
 30
0.0
 10
639.4466998826722
 20
464.1265347468404
 30
0.0
 10
639.0836433106666
 20
466.1415939051911
 30
0.0
 10
638.7200208541999
 20
468.156549955062
 30
0.0
  0
LWPOLYLINE
  5
2E4
330
1F
100
AcDbEntity
  8
0
  6
Continuous
 62
     7
370
    15
100
AcDbPolyline
 90
        3
 70
   128
 43
0.0
 10
638.7200211215
 20
468.1565450195
 10
638.014041357
 20
481.304405785
 10
637.7894833414
 20
485.4800687793
  0
SPLINE
  5
2E5
330
1F
100
AcDbEntity
  8
0
  6
Continuous
 62
     7
370
    15
100
AcDbSpline
210
0.0
220
0.0
230
1.0
 70
     8
 71
     3
 72
    20
 73
    16
 74
     0
 42
0.00000001
 43
0.00000001
 12
1.0
 22
0.0
 32
0.0
 13
1.0
 23
0.0
 33
0.0
 40
0.0
 40
0.0
 40
0.0
 40
0.0
 40
0.1249999999999953
 40
0.1249999999999953
 40
0.2499999999999906
 40
0.2499999999999906
 40
0.3749999999999858
 40
0.3749999999999858
 40
0.4999999999999811
 40
0.4999999999999811
 40
0.7499999999999893
 40
0.7499999999999893
 40
0.8749999999999947
 40
0.8749999999999947
 40
1.0
 40
1.0
 40
1.0
 40
1.0
 10
637.7894837420356
 20
485.480069930857
 30
0.0
 10
637.7843192293202
 20
485.5760666120322
 30
0.0
 10
637.771866228681
 20
485.6726822184551
 30
0.0
 10
637.7334267927376
 20
485.8604217996396
 30
0.0
 10
637.7074432715992
 20
485.9523629379634
 30
0.0
 10
637.6420339706639
 20
486.1324122463807
 30
0.0
 10
637.6021932361615
 20
486.2212097688894
 30
0.0
 10
637.5107627037021
 20
486.3905295211802
 30
0.0
 10
637.4592930695836
 20
486.4711546094048
 30
0.0
 10
637.2881133330761
 20
486.7012706747427
 30
0.0
 10
637.149765567497
 20
486.8400519740993
 30
0.0
 10
636.9208247874328
 20
487.0126823214702
 30
0.0
 10
636.8405870665205
 20
487.064838412258
 30
0.0
 10
636.6721856380595
 20
487.15826916107
 30
0.0
 10
636.5841506422368
 20
487.1993300203933
 30
0.0
 10
636.4948048321588
 20
487.2337690690812
 30
0.0
  0
SPLINE
  5
2E6
330
1F
100
AcDbEntity
  8
0
  6
Continuous
 62
     7
370
    15
100
AcDbSpline
210
0.0
220
0.0
230
1.0
 70
     8
 71
     3
 72
    14
 73
    10
 74
     0
 42
0.00000001
 43
0.00000001
 12
1.0
 22
0.0
 32
0.0
 13
1.0
 23
0.0
 33
0.0
 40
0.0
 40
0.0
 40
0.0
 40
0.0
 40
0.25
 40
0.25
 40
0.5
 40
0.5
 40
0.75
 40
0.75
 40
1.0
 40
1.0
 40
1.0
 40
1.0
 10
636.4948048321588
 20
487.2337690690811
 30
0.0
 10
636.3346777426457
 20
487.2954913213858
 30
0.0
 10
636.1834653774295
 20
487.3758519411766
 30
0.0
 10
635.8997734393109
 20
487.5757385722574
 30
0.0
 10
635.7730950801949
 20
487.6912348486125
 30
0.0
 10
635.5505821902935
 20
487.9522999509819
 30
0.0
 10
635.4547277187748
 20
488.0990056060407
 30
0.0
 10
635.3055984925554
 20
488.4106166765497
 30
0.0
 10
635.2517866531356
 20
488.576329980211
 30
0.0
 10
635.2209110232499
 20
488.7448437644573
 30
0.0
  0
LINE
  5
2E7
330
1F
100
AcDbEntity
  8
0
  6
Continuous
 62
     7
370
    15
100
AcDbLine
 10
610.8398976155
 20
468.1565450195
 30
0.0
 11
607.7558353273
 21
468.1565450195
 31
0.0
  0
SPLINE
  5
2E8
330
1F
100
AcDbEntity
  8
0
  6
Continuous
 62
     7
370
    15
100
AcDbSpline
210
0.0
220
0.0
230
1.0
 70
     8
 71
     3
 72
     8
 73
     4
 74
     0
 42
0.00000001
 43
0.00000001
 12
1.0
 22
0.0
 32
0.0
 13
1.0
 23
0.0
 33
0.0
 40
0.0
 40
0.0
 40
0.0
 40
0.0
 40
1.0
 40
1.0
 40
1.0
 40
1.0
 10
635.2209110232499
 20
488.7448437644573
 30
0.0
 10
635.013581690324
 20
489.8764109780142
 30
0.0
 10
634.8058629980212
 20
491.007908117077
 30
0.0
 10
634.5976867849972
 20
492.1393195155804
 30
0.0
  0
LINE
  5
2E9
330
1F
100
AcDbEntity
  8
0
  6
Continuous
 62
     7
370
    15
100
AcDbLine
 10
634.5976868995
 20
492.139318244
 30
0.0
 11
620.7139282527
 21
492.139318244
 31
0.0
  0
LINE
  5
2EA
330
1F
100
AcDbEntity
  8
0
  6
Continuous
 62
     7
370
    15
100
AcDbLine
 10
612.0248031842
 20
492.139318244
 30
0.0
 11
611.7506801812
 21
492.139318244
 31
0.0
  0
LINE
  5
2EB
330
1F
100
AcDbEntity
  8
0
  6
Continuous
 62
     7
370
    15
100
AcDbLine
 10
630.8506800212
 20
493.1393153035
 30
0.0
 11
615.9840137738
 21
493.1393153035
 31
0.0
  0
LWPOLYLINE
  5
2EC
330
1F
100
AcDbEntity
  8
0
  6
Continuous
 62
     7
370
    15
100
AcDbPolyline
 90
       12
 70
   128
 43
0.0
 10
616.0840136039
 20
498.1289691293
 10
616.0896965343
 20
498.1346514387
 10
616.1067360121
 20
498.151688433
 10
616.1351053395
 20
498.180060244
 10
616.1747610547
 20
498.2197172009
 10
616.2256423114
 20
498.2705996994
 10
616.2876690157
 20
498.3326183323
 10
616.360745552
 20
498.4057035609
 10
616.4447589197
 20
498.4897163077
 10
616.5395781127
 20
498.5845274293
 10
616.645057224
 20
498.6900077823
 10
616.7610323407
 20
498.805988487
  0
LWPOLYLINE
  5
2ED
330
1F
100
AcDbEntity
  8
0
  6
Continuous
 62
     7
370
    15
100
AcDbPolyline
 90
       10
 70
   128
 43
0.0
 10
616.7610323407
 20
498.805988487
 10
616.8507416773
 20
500.8606698675
 10
616.9457055358
 20
503.03570296
 10
617.0458481687
 20
505.3293492957
 10
617.1510888614
 20
507.7397611304
 10
617.2613437948
 20
510.2650112474
 10
617.3765241829
 20
512.9030730887
 10
617.4965387561
 20
515.6518604918
 10
617.6212906567
 20
518.5091482166
 10
617.7506799229
 20
521.4726514184
  0
LINE
  5
2EE
330
1F
100
AcDbEntity
  8
0
  6
Continuous
 62
     7
370
    15
100
AcDbLine
 10
617.7506799229
 20
521.4726514184
 30
0.0
 11
618.7626000844
 21
521.4726514184
 31
0.0
  0
ELLIPSE
  5
2EF
330
1F
100
AcDbEntity
  8
0
  6
Continuous
 62
     7
370
    15
100
AcDbEllipse
 10
623.4173468975
 20
651.2606576234
 30
0.0
 11
0.0
 21
167.9609473551621
 31
0.0
210
0.0
220
0.0
230
1.0
 40
0.0436609429
 41
2.453923001678667
 42
2.708516942353389
  0
ARC
  5
2F0
330
1F
100
AcDbEntity
  8
0
  6
Continuous
 62
     7
370
    15
100
AcDbCircle
 10
623.4173468975
 20
505.4623008882
 30
0.0
 40
7.333333333333371
100
AcDbArc
 50
245.1865895365
 51
294.8134104635
  0
ELLIPSE
  5
2F1
330
1F
100
AcDbEntity
  8
0
  6
Continuous
 62
     7
370
    15
100
AcDbEllipse
 10
623.4173468975
 20
651.2606576234
 30
0.0
 11
0.0
 21
167.9609473551621
 31
0.0
210
0.0
220
0.0
230
1.0
 40
0.0436609429
 41
3.574668364826461
 42
3.829262305501098
  0
LINE
  5
2F2
330
1F
100
AcDbEntity
  8
0
  6
Continuous
 62
     7
370
    15
100
AcDbLine
 10
628.0720937106
 20
521.4726514184
 30
0.0
 11
629.0840138721
 21
521.4726514184
 31
0.0
  0
LWPOLYLINE
  5
2F3
330
1F
100
AcDbEntity
  8
0
  6
Continuous
 62
     7
370
    15
100
AcDbPolyline
 90
       10
 70
   128
 43
0.0
 10
629.0840138721
 20
521.4726514184
 10
629.2134031383
 20
518.5091482166
 10
629.3381550389
 20
515.6518604918
 10
629.4581696121
 20
512.9030730887
 10
629.5733500002
 20
510.2650112474
 10
629.6836049336
 20
507.7397611304
 10
629.7888456263
 20
505.3293492957
 10
629.8889882592
 20
503.03570296
 10
629.9839521177
 20
500.8606698675
 10
630.0736614543
 20
498.805988487
  0
LWPOLYLINE
  5
2F4
330
1F
100
AcDbEntity
  8
0
  6
Continuous
 62
     7
370
    15
100
AcDbPolyline
 90
       12
 70
   128
 43
0.0
 10
630.0736614543
 20
498.805988487
 10
630.189636571
 20
498.6900077823
 10
630.2951156823
 20
498.5845274293
 10
630.3899348753
 20
498.4897163077
 10
630.473948243
 20
498.4057035609
 10
630.5470247793
 20
498.3326183323
 10
630.6090514836
 20
498.2705996994
 10
630.6599327403
 20
498.2197172009
 10
630.6995884555
 20
498.180060244
 10
630.7279577829
 20
498.151688433
 10
630.7449972607
 20
498.1346514387
 10
630.7506801911
 20
498.1289691293
  0
LINE
  5
2F5
330
1F
100
AcDbEntity
  8
0
  6
Continuous
 62
     7
370
    15
100
AcDbLine
 10
620.3398069717
 20
498.805988487
 30
0.0
 11
626.4948868233
 21
498.805988487
 31
0.0
  0
LINE
  5
2F6
330
1F
100
AcDbEntity
  8
0
  6
Continuous
 62
     7
370
    15
100
AcDbLine
 10
628.0720937106
 20
521.4726514184
 30
0.0
 11
618.7626000844
 21
521.4726514184
 31
0.0
  0
ARC
  5
2F7
330
1F
100
AcDbEntity
  8
0
  6
Continuous
 62
     7
370
    15
100
AcDbCircle
 10
640.42893195
 20
490.8059861822
 30
0.0
 40
1.333333333333371
100
AcDbArc
 50
0.5
 51
90.0
  0
LINE
  5
2F8
330
1F
100
AcDbEntity
  8
0
  6
Continuous
 62
     7
370
    15
100
AcDbLine
 10
641.762214872
 20
490.8176249826
 30
0.0
 11
641.8670383322
 21
478.8059876922
 31
0.0
  0
LINE
  5
2F9
330
1F
100
AcDbEntity
  8
0
  6
Continuous
 62
     7
370
    15
100
AcDbLine
 10
641.8670383322
 20
478.8059876922
 30
0.0
 11
643.6163986452
 21
458.8107155327
 31
0.0
  0
LINE
  5
2FA
330
1F
100
AcDbEntity
  8
0
  6
Continuous
 62
     7
370
    15
100
AcDbLine
 10
634.5976868995
 20
492.139318244
 30
0.0
 11
640.4289322324
 21
492.139318244
 31
0.0
  0
LINE
  5
2FB
330
1F
100
AcDbEntity
  8
0
  6
Continuous
 62
     7
370
     0
100
AcDbLine
 10
657.8152345844
 20
423.4524057869
 30
0.0
 11
657.8152345844
 21
417.4726542397
 31
0.0
  0
LINE
  5
2FC
330
1F
100
AcDbEntity
  8
0
  6
Continuous
 62
     7
370
     0
100
AcDbLine
 10
589.0194592106
 20
423.4524057869
 30
0.0
 11
589.0194592106
 21
417.4726542397
 31
0.0
  0
SPLINE
  5
2FD
330
1F
100
AcDbEntity
  8
0
  6
Continuous
 62
     7
370
     0
100
AcDbSpline
210
0.0
220
0.0
230
1.0
 70
     8
 71
     3
 72
     8
 73
     4
 74
     0
 42
0.00000001
 43
0.00000001
 12
1.0
 22
0.0
 32
0.0
 13
1.0
 23
0.0
 33
0.0
 40
0.0
 40
0.0
 40
0.0
 40
0.0
 40
1.0
 40
1.0
 40
1.0
 40
1.0
 10
592.3976807974831
 20
425.0833325093473
 30
0.0
 10
591.606544871621
 20
424.5486429225064
 30
0.0
 10
590.8196160262216
 20
424.0117117110331
 30
0.0
 10
590.0366814725304
 20
423.4726528489137
 30
0.0
  0
SPLINE
  5
2FE
330
1F
100
AcDbEntity
  8
0
  6
Continuous
 62
     7
370
     0
100
AcDbSpline
210
0.0
220
0.0
230
1.0
 70
     8
 71
     3
 72
     8
 73
     4
 74
     0
 42
0.00000001
 43
0.00000001
 12
1.0
 22
0.0
 32
0.0
 13
1.0
 23
0.0
 33
0.0
 40
0.0
 40
0.0
 40
0.0
 40
0.0
 40
1.0
 40
1.0
 40
1.0
 40
1.0
 10
599.944982415242
 20
430.0265029406715
 30
0.0
 10
598.9217923523262
 20
429.3781876890504
 30
0.0
 10
597.9062213911425
 20
428.7256405334566
 30
0.0
 10
596.8978599362412
 20
428.0692049184089
 30
0.0
  0
SPLINE
  5
2FF
330
1F
100
AcDbEntity
  8
0
  6
Continuous
 62
     7
370
     0
100
AcDbSpline
210
0.0
220
0.0
230
1.0
 70
     8
 71
     3
 72
     8
 73
     4
 74
     0
 42
0.00000001
 43
0.00000001
 12
1.0
 22
0.0
 32
0.0
 13
1.0
 23
0.0
 33
0.0
 40
0.0
 40
0.0
 40
0.0
 40
0.0
 40
1.0
 40
1.0
 40
1.0
 40
1.0
 10
649.9368338587441
 20
428.0692049184163
 30
0.0
 10
648.9284724038431
 20
428.7256405334637
 30
0.0
 10
647.9129014426642
 20
429.3781876890544
 30
0.0
 10
646.889711379749
 20
430.0265029406751
 30
0.0
  0
SPLINE
  5
300
330
1F
100
AcDbEntity
  8
0
  6
Continuous
 62
     7
370
     0
100
AcDbSpline
210
0.0
220
0.0
230
1.0
 70
     8
 71
     3
 72
     8
 73
     4
 74
     0
 42
0.00000001
 43
0.00000001
 12
1.0
 22
0.0
 32
0.0
 13
1.0
 23
0.0
 33
0.0
 40
0.0
 40
0.0
 40
0.0
 40
0.0
 40
1.0
 40
1.0
 40
1.0
 40
1.0
 10
656.7980123224662
 20
423.4726528489136
 30
0.0
 10
656.0150777687788
 20
424.0117117110304
 30
0.0
 10
655.2281489233834
 20
424.548642922501
 30
0.0
 10
654.4370129975254
 20
425.0833325093392
 30
0.0
  0
LINE
  5
301
330
1F
100
AcDbEntity
  8
0
  6
Continuous
 62
     7
370
     0
100
AcDbLine
 10
659.6620000628
 20
413.5162121617
 30
0.0
 11
659.7833253173
 21
417.4726542397
 31
0.0
  0
SPLINE
  5
302
330
1F
100
AcDbEntity
  8
0
  6
Continuous
 62
     7
370
     0
100
AcDbSpline
210
0.0
220
0.0
230
1.0
 70
     8
 71
     3
 72
     8
 73
     4
 74
     0
 42
0.00000001
 43
0.00000001
 12
1.0
 22
0.0
 32
0.0
 13
1.0
 23
0.0
 33
0.0
 40
0.0
 40
0.0
 40
0.0
 40
0.0
 40
1.0
 40
1.0
 40
1.0
 40
1.0
 10
658.8117202062277
 20
413.6512680029841
 30
0.0
 10
659.0891514484273
 20
413.5726963097287
 30
0.0
 10
659.3707185174292
 20
413.5175305243876
 30
0.0
 10
659.6620003275415
 20
413.5162134391935
 30
0.0
  0
SPLINE
  5
303
330
1F
100
AcDbEntity
  8
0
  6
Continuous
 62
     7
370
     0
100
AcDbSpline
210
0.0
220
0.0
230
1.0
 70
     8
 71
     3
 72
    16
 73
    12
 74
     0
 42
0.00000001
 43
0.00000001
 12
1.0
 22
0.0
 32
0.0
 13
1.0
 23
0.0
 33
0.0
 40
0.0
 40
0.0
 40
0.0
 40
0.0
 40
0.25
 40
0.25
 40
0.5
 40
0.5
 40
0.75
 40
0.75
 40
0.875
 40
0.875
 40
1.0
 40
1.0
 40
1.0
 40
1.0
 10
647.9600899388988
 20
414.5523952295285
 30
0.0
 10
648.8771347082218
 20
414.5523952295285
 30
0.0
 10
649.7925652800521
 20
414.544156488811
 30
0.0
 10
651.6197879038308
 20
414.5013024762498
 30
0.0
 10
652.5320263118209
 20
414.4668662169155
 30
0.0
 10
654.3492718870318
 20
414.3549954785649
 30
0.0
 10
655.2553039517477
 20
414.2782430680756
 30
0.0
 10
656.602853960742
 20
414.1045678877282
 30
0.0
 10
657.0501680004951
 20
414.0367676183441
 30
0.0
 10
657.9383672208241
 20
413.8711522561894
 30
0.0
 10
658.3784364766263
 20
413.7739788989361
 30
0.0
 10
658.811720206227
 20
413.6512680029865
 30
0.0
  0
LINE
  5
304
330
1F
100
AcDbEntity
  8
0
  6
Continuous
 62
     7
370
     0
100
AcDbLine
 10
647.9600908585
 20
414.5523942077
 30
0.0
 11
598.8746029365
 21
414.5523942077
 31
0.0
  0
SPLINE
  5
305
330
1F
100
AcDbEntity
  8
0
  6
Continuous
 62
     7
370
     0
100
AcDbSpline
210
0.0
220
0.0
230
1.0
 70
     8
 71
     3
 72
    16
 73
    12
 74
     0
 42
0.00000001
 43
0.00000001
 12
1.0
 22
0.0
 32
0.0
 13
1.0
 23
0.0
 33
0.0
 40
0.0
 40
0.0
 40
0.0
 40
0.0
 40
0.25
 40
0.25
 40
0.5
 40
0.5
 40
0.75
 40
0.75
 40
0.875
 40
0.875
 40
1.0
 40
1.0
 40
1.0
 40
1.0
 10
598.8746038560977
 20
414.5523952295285
 30
0.0
 10
597.9575590867748
 20
414.5523952295285
 30
0.0
 10
597.0421285149445
 20
414.544156488811
 30
0.0
 10
595.2149058911658
 20
414.5013024762498
 30
0.0
 10
594.3026674831756
 20
414.4668662169155
 30
0.0
 10
592.4854219079647
 20
414.3549954785649
 30
0.0
 10
591.5793898432489
 20
414.2782430680756
 30
0.0
 10
590.2318398342545
 20
414.1045678877282
 30
0.0
 10
589.7845257945015
 20
414.0367676183441
 30
0.0
 10
588.8963265741725
 20
413.8711522561894
 30
0.0
 10
588.4562573183703
 20
413.7739788989361
 30
0.0
 10
588.0229735887696
 20
413.6512680029865
 30
0.0
  0
SPLINE
  5
306
330
1F
100
AcDbEntity
  8
0
  6
Continuous
 62
     7
370
     0
100
AcDbSpline
210
0.0
220
0.0
230
1.0
 70
     8
 71
     3
 72
     8
 73
     4
 74
     0
 42
0.00000001
 43
0.00000001
 12
1.0
 22
0.0
 32
0.0
 13
1.0
 23
0.0
 33
0.0
 40
0.0
 40
0.0
 40
0.0
 40
0.0
 40
1.0
 40
1.0
 40
1.0
 40
1.0
 10
588.0229735887689
 20
413.6512680029841
 30
0.0
 10
587.7455423465693
 20
413.5726963097287
 30
0.0
 10
587.4639752775674
 20
413.5175305243876
 30
0.0
 10
587.172693467455
 20
413.5162134391935
 30
0.0
  0
LINE
  5
307
330
1F
100
AcDbEntity
  8
0
  6
Continuous
 62
     7
370
     0
100
AcDbLine
 10
587.1726937322
 20
413.5162121617
 30
0.0
 11
587.0513684777
 21
417.4726542397
 31
0.0
  0
ARC
  5
308
330
1F
100
AcDbEntity
  8
0
  6
Continuous
 62
     7
370
     0
100
AcDbCircle
 10
637.9308451936
 20
414.1805414607
 30
0.0
 40
10.03613686001021
100
AcDbArc
 50
342.994779056
 51
2.1233738687
  0
LINE
  5
309
330
1F
100
AcDbEntity
  8
0
  6
Continuous
 62
     7
370
     0
100
AcDbLine
 10
599.3065106102
 20
411.245384471
 30
0.0
 11
647.5281831848
 21
411.245384471
 31
0.0
  0
ARC
  5
30A
330
1F
100
AcDbEntity
  8
0
  6
Continuous
 62
     7
370
     0
100
AcDbCircle
 10
608.9038486014
 20
414.1805414607
 30
0.0
 40
10.03613686001009
100
AcDbArc
 50
177.8766261313
 51
197.005220944
  0
LINE
  5
30B
330
1F
100
AcDbEntity
  8
0
  6
Continuous
 62
     7
370
     0
100
AcDbLine
 10
581.1815055438
 20
437.4726500674
 30
0.0
 11
581.1815055438
 21
417.4726542397
 31
0.0
  0
LINE
  5
30C
330
1F
100
AcDbEntity
  8
0
  6
Continuous
 62
     7
370
     0
100
AcDbLine
 10
665.6531882512
 20
437.4726500674
 30
0.0
 11
665.6531882512
 21
417.4726542397
 31
0.0
  0
ARC
  5
30D
330
1F
100
AcDbEntity
  8
0
  6
Continuous
 62
     7
370
     0
100
AcDbCircle
 10
601.0639118493
 20
417.6166278343
 30
0.0
 40
13.63048624844328
100
AcDbArc
 50
196.9129570885
 51
205.396735996
  0
ARC
  5
30E
330
1F
100
AcDbEntity
  8
0
  6
Continuous
 62
     7
370
     0
100
AcDbCircle
 10
645.7707819457
 20
417.6166278343
 30
0.0
 40
13.63048624844328
100
AcDbArc
 50
334.603264004
 51
343.0870429116
  0
SPLINE
  5
30F
330
1F
100
AcDbEntity
  8
0
  6
Continuous
 62
     7
370
     0
100
AcDbSpline
210
0.0
220
0.0
230
1.0
 70
     8
 71
     3
 72
     8
 73
     4
 74
     0
 42
0.00000001
 43
0.00000001
 12
1.0
 22
0.0
 32
0.0
 13
1.0
 23
0.0
 33
0.0
 40
0.0
 40
0.0
 40
0.0
 40
0.0
 40
0.0000136579484702
 40
0.0000136579484702
 40
0.0000136579484702
 40
0.0000136579484702
 10
587.1726934674551
 20
413.5162134391932
 30
0.0
 10
587.1697317218392
 20
413.5162064206296
 30
0.0
 10
587.1667703515502
 20
413.5161992948784
 30
0.0
 10
587.1638093594469
 20
413.5161920619665
 30
0.0
  0
SPLINE
  5
310
330
1F
100
AcDbEntity
  8
0
  6
Continuous
 62
     7
370
     0
100
AcDbSpline
210
0.0
220
0.0
230
1.0
 70
     8
 71
     3
 72
    22
 73
    18
 74
     0
 42
0.00000001
 43
0.00000001
 12
1.0
 22
0.0
 32
0.0
 13
1.0
 23
0.0
 33
0.0
 40
0.0
 40
0.0
 40
0.0
 40
0.0
 40
0.125
 40
0.125
 40
0.25
 40
0.25
 40
0.375
 40
0.375
 40
0.5
 40
0.5
 40
0.625
 40
0.625
 40
0.75
 40
0.75
 40
0.875
 40
0.875
 40
1.0
 40
1.0
 40
1.0
 40
1.0
 10
587.1638093594469
 20
413.5161920619665
 30
0.0
 10
586.7899821388083
 20
413.5152789020402
 30
0.0
 10
586.4234262353207
 20
413.5197704252044
 30
0.0
 10
585.714553769162
 20
413.5385017381871
 30
0.0
 10
585.3707164786844
 20
413.5527179803333
 30
0.0
 10
584.7043047635734
 20
413.5892481424074
 30
0.0
 10
584.3797112520717
 20
413.6117376751309
 30
0.0
 10
583.766508543564
 20
413.6619043638585
 30
0.0
 10
583.4771383751388
 20
413.6895458900166
 30
0.0
 10
582.9327628409733
 20
413.7479717709112
 30
0.0
 10
582.6769784729523
 20
413.7789008868531
 30
0.0
 10
582.2133671894024
 20
413.8408001867049
 30
0.0
 10
582.0037315557204
 20
413.8719455438247
 30
0.0
 10
581.6284001789705
 20
413.9336794769332
 30
0.0
 10
581.4623111239641
 20
413.9643568707927
 30
0.0
 10
581.1779387409687
 20
414.0242791348134
 30
0.0
 10
581.0611502940861
 20
414.0531872397702
 30
0.0
 10
580.9698695865824
 20
414.080974961215
 30
0.0
  0
SPLINE
  5
311
330
1F
100
AcDbEntity
  8
0
  6
Continuous
 62
     7
370
     0
100
AcDbSpline
210
0.0
220
0.0
230
1.0
 70
     8
 71
     3
 72
     8
 73
     4
 74
     0
 42
0.00000001
 43
0.00000001
 12
1.0
 22
0.0
 32
0.0
 13
1.0
 23
0.0
 33
0.0
 40
0.0
 40
0.0
 40
0.0
 40
0.0
 40
1.0
 40
1.0
 40
1.0
 40
1.0
 10
580.9698695865824
 20
414.080974961215
 30
0.0
 10
580.9351431494488
 20
414.0915464016457
 30
0.0
 10
580.9043084485625
 20
414.1012099241829
 30
0.0
 10
580.8773718679068
 20
414.1099905601783
 30
0.0
  0
LINE
  5
312
330
1F
100
AcDbEntity
  8
0
  6
Continuous
 62
     7
370
     0
100
AcDbLine
 10
580.8773728438
 20
414.1099886659
 30
0.0
 11
580.412223163
 21
417.4726542397
 31
0.0
  0
LINE
  5
313
330
1F
100
AcDbEntity
  8
0
  6
Continuous
 62
     7
370
     0
100
AcDbLine
 10
665.9573209512
 20
414.1099886659
 30
0.0
 11
666.422470632
 21
417.4726542397
 31
0.0
  0
SPLINE
  5
314
330
1F
100
AcDbEntity
  8
0
  6
Continuous
 62
     7
370
     0
100
AcDbSpline
210
0.0
220
0.0
230
1.0
 70
     8
 71
     3
 72
     8
 73
     4
 74
     0
 42
0.00000001
 43
0.00000001
 12
1.0
 22
0.0
 32
0.0
 13
1.0
 23
0.0
 33
0.0
 40
0.0
 40
0.0
 40
0.0
 40
0.0
 40
1.0
 40
1.0
 40
1.0
 40
1.0
 10
665.8648242084142
 20
414.080974961215
 30
0.0
 10
665.8995506455477
 20
414.0915464016457
 30
0.0
 10
665.9303853464342
 20
414.1012099241829
 30
0.0
 10
665.9573219270897
 20
414.1099905601783
 30
0.0
  0
SPLINE
  5
315
330
1F
100
AcDbEntity
  8
0
  6
Continuous
 62
     7
370
     0
100
AcDbSpline
210
0.0
220
0.0
230
1.0
 70
     8
 71
     3
 72
    22
 73
    18
 74
     0
 42
0.00000001
 43
0.00000001
 12
1.0
 22
0.0
 32
0.0
 13
1.0
 23
0.0
 33
0.0
 40
0.0
 40
0.0
 40
0.0
 40
0.0
 40
0.125
 40
0.125
 40
0.25
 40
0.25
 40
0.375
 40
0.375
 40
0.5
 40
0.5
 40
0.625
 40
0.625
 40
0.75
 40
0.75
 40
0.875
 40
0.875
 40
1.0
 40
1.0
 40
1.0
 40
1.0
 10
659.6708844355496
 20
413.5161920619665
 30
0.0
 10
660.0447116561883
 20
413.5152789020402
 30
0.0
 10
660.4112675596759
 20
413.5197704252044
 30
0.0
 10
661.1201400258346
 20
413.5385017381871
 30
0.0
 10
661.4639773163123
 20
413.5527179803333
 30
0.0
 10
662.1303890314232
 20
413.5892481424074
 30
0.0
 10
662.4549825429248
 20
413.6117376751309
 30
0.0
 10
663.0681852514326
 20
413.6619043638585
 30
0.0
 10
663.3575554198577
 20
413.6895458900166
 30
0.0
 10
663.9019309540233
 20
413.7479717709112
 30
0.0
 10
664.1577153220443
 20
413.7789008868531
 30
0.0
 10
664.6213266055942
 20
413.8408001867049
 30
0.0
 10
664.8309622392762
 20
413.8719455438247
 30
0.0
 10
665.206293616026
 20
413.9336794769332
 30
0.0
 10
665.3723826710324
 20
413.9643568707927
 30
0.0
 10
665.6567550540278
 20
414.0242791348134
 30
0.0
 10
665.7735435009105
 20
414.0531872397702
 30
0.0
 10
665.8648242084142
 20
414.080974961215
 30
0.0
  0
SPLINE
  5
316
330
1F
100
AcDbEntity
  8
0
  6
Continuous
 62
     7
370
     0
100
AcDbSpline
210
0.0
220
0.0
230
1.0
 70
     8
 71
     3
 72
     8
 73
     4
 74
     0
 42
0.00000001
 43
0.00000001
 12
1.0
 22
0.0
 32
0.0
 13
1.0
 23
0.0
 33
0.0
 40
0.0
 40
0.0
 40
0.0
 40
0.0
 40
0.0000136579484702
 40
0.0000136579484702
 40
0.0000136579484702
 40
0.0000136579484702
 10
659.6620003275414
 20
413.5162134391932
 30
0.0
 10
659.6649620731574
 20
413.5162064206296
 30
0.0
 10
659.6679234434464
 20
413.5161992948784
 30
0.0
 10
659.6708844355496
 20
413.5161920619665
 30
0.0
  0
ARC
  5
317
330
1F
100
AcDbEntity
  8
0
  6
Continuous
 62
     7
370
     0
100
AcDbCircle
 10
601.8375824294
 20
413.9761629543
 30
0.0
 40
14.68097972631412
100
AcDbArc
 50
181.7954313466
 51
188.4715657806
  0
ARC
  5
318
330
1F
100
AcDbEntity
  8
0
  6
Continuous
 62
     7
370
     0
100
AcDbCircle
 10
584.7841497134
 20
414.460008878
 30
0.0
 40
3.833066758483173
100
AcDbArc
 50
185.6749669414
 51
226.8732118505
  0
ARC
  5
319
330
1F
100
AcDbEntity
  8
0
  6
Continuous
 62
     7
370
     0
100
AcDbCircle
 10
644.9971113656
 20
413.9761629543
 30
0.0
 40
14.68097972631412
100
AcDbArc
 50
351.5284342194
 51
358.2045686534
  0
ARC
  5
31A
330
1F
100
AcDbEntity
  8
0
  6
Continuous
 62
     7
370
     0
100
AcDbCircle
 10
662.0505440816
 20
414.460008878
 30
0.0
 40
3.833066758483096
100
AcDbArc
 50
313.1267881495
 51
354.3250330586
  0
ARC
  5
31B
330
1F
100
AcDbEntity
  8
0
  6
Continuous
 62
     7
370
     0
100
AcDbCircle
 10
601.9191235517
 20
413.9744626027
 30
0.0
 40
14.75354824743865
100
AcDbArc
 50
181.7799135042
 51
188.4229365875
  0
ARC
  5
31C
330
1F
100
AcDbEntity
  8
0
  6
Continuous
 62
     7
370
     0
100
AcDbCircle
 10
644.9155702433
 20
413.9744626027
 30
0.0
 40
14.75354824743865
100
AcDbArc
 50
351.5770634125
 51
358.2200864958
  0
LINE
  5
31D
330
1F
100
AcDbEntity
  8
0
  6
Continuous
 62
     7
370
     0
100
AcDbLine
 10
588.7506795156
 20
397.472653445
 30
0.0
 11
588.7506795156
 21
411.770734843
 31
0.0
  0
LINE
  5
31E
330
1F
100
AcDbEntity
  8
0
  6
Continuous
 62
     7
370
     0
100
AcDbLine
 10
658.0840142794
 20
397.472653445
 30
0.0
 11
658.0840142794
 21
411.770734843
 31
0.0
  0
LINE
  5
31F
330
1F
100
AcDbEntity
  8
0
  6
Continuous
 62
     7
370
     0
100
AcDbLine
 10
597.2418330339
 20
396.6416405204
 30
0.0
 11
597.2418330339
 21
397.472653445
 31
0.0
  0
LINE
  5
320
330
1F
100
AcDbEntity
  8
0
  6
Continuous
 62
     7
370
     0
100
AcDbLine
 10
649.5928607611
 20
396.6416405204
 30
0.0
 11
649.5928607611
 21
397.472653445
 31
0.0
  0
ARC
  5
321
330
1F
100
AcDbEntity
  8
0
  6
Continuous
 62
     7
370
     0
100
AcDbCircle
 10
584.7366520146
 20
414.5515444406
 30
0.0
 40
3.884457133249377
100
AcDbArc
 50
186.5270601541
 51
228.3167015015
  0
ARC
  5
322
330
1F
100
AcDbEntity
  8
0
  6
Continuous
 62
     7
370
     0
100
AcDbCircle
 10
662.0980417804
 20
414.5515444406
 30
0.0
 40
3.884457133249377
100
AcDbArc
 50
311.6832984985
 51
353.4729398459
  0
SPLINE
  5
323
330
1F
100
AcDbEntity
  8
0
  6
Continuous
 62
     7
370
     0
100
AcDbSpline
210
0.0
220
0.0
230
1.0
 70
     8
 71
     3
 72
    12
 73
     8
 74
     0
 42
0.00000001
 43
0.00000001
 12
1.0
 22
0.0
 32
0.0
 13
1.0
 23
0.0
 33
0.0
 40
0.0
 40
0.0
 40
0.0
 40
0.0
 40
0.2500000000000009
 40
0.2500000000000009
 40
0.5000000000000019
 40
0.5000000000000019
 40
1.0
 40
1.0
 40
1.0
 40
1.0
 10
580.8773718679068
 20
414.1099905601782
 30
0.0
 10
580.8195766821119
 20
414.1439742459006
 30
0.0
 10
580.7611057845367
 20
414.1927775714827
 30
0.0
 10
580.6456828531926
 20
414.2950961979843
 30
0.0
 10
580.5887558912916
 20
414.3484062687975
 30
0.0
 10
580.4235135219586
 20
414.4879074472869
 30
0.0
 10
580.3208753866397
 20
414.5523952295285
 30
0.0
 10
580.2302978735768
 20
414.5523952295285
 30
0.0
  0
LINE
  5
324
330
1F
100
AcDbEntity
  8
0
  6
Continuous
 62
     7
370
     0
100
AcDbLine
 10
578.8277628251
 20
414.5523942077
 30
0.0
 11
580.2302998531
 21
414.5523942077
 31
0.0
  0
LINE
  5
325
330
1F
100
AcDbEntity
  8
0
  6
Continuous
 62
     7
370
     0
100
AcDbLine
 10
668.0069309699
 20
414.5523942077
 30
0.0
 11
666.6043939419
 21
414.5523942077
 31
0.0
  0
SPLINE
  5
326
330
1F
100
AcDbEntity
  8
0
  6
Continuous
 62
     7
370
     0
100
AcDbSpline
210
0.0
220
0.0
230
1.0
 70
     8
 71
     3
 72
    12
 73
     8
 74
     0
 42
0.00000001
 43
0.00000001
 12
1.0
 22
0.0
 32
0.0
 13
1.0
 23
0.0
 33
0.0
 40
0.0
 40
0.0
 40
0.0
 40
0.0
 40
0.2500000000000009
 40
0.2500000000000009
 40
0.5000000000000019
 40
0.5000000000000019
 40
1.0
 40
1.0
 40
1.0
 40
1.0
 10
665.9573219270897
 20
414.1099905601782
 30
0.0
 10
666.0151171128846
 20
414.1439742459006
 30
0.0
 10
666.07358801046
 20
414.1927775714827
 30
0.0
 10
666.189010941804
 20
414.2950961979843
 30
0.0
 10
666.2459379037049
 20
414.3484062687975
 30
0.0
 10
666.4111802730379
 20
414.4879074472869
 30
0.0
 10
666.5138184083569
 20
414.5523952295285
 30
0.0
 10
666.6043959214197
 20
414.5523952295285
 30
0.0
  0
ARC
  5
327
330
1F
100
AcDbEntity
  8
0
  6
Continuous
 62
     7
370
     0
100
AcDbCircle
 10
584.1958128128
 20
415.0965177571
 30
0.0
 40
4.002669543039782
100
AcDbArc
 50
187.8129884531
 51
237.3196515965
  0
ARC
  5
328
330
1F
100
AcDbEntity
  8
0
  6
Continuous
 62
     7
370
     0
100
AcDbCircle
 10
662.6388877757
 20
415.0965134971
 30
0.0
 40
4.002662233467215
100
AcDbArc
 50
302.7041245062
 51
352.1870587406
  0
LINE
  5
329
330
1F
100
AcDbEntity
  8
0
  6
Continuous
 62
     7
370
     0
100
AcDbLine
 10
588.4096863099
 20
368.2001766129
 30
0.0
 11
588.4096863099
 21
381.7654511892
 31
0.0
  0
LINE
  5
32A
330
1F
100
AcDbEntity
  8
0
  6
Continuous
 62
     7
370
     0
100
AcDbLine
 10
588.4096863099
 20
391.5725237691
 30
0.0
 11
588.4096863099
 21
397.472653445
 31
0.0
  0
LINE
  5
32B
330
1F
100
AcDbEntity
  8
0
  6
Continuous
 62
     7
370
     0
100
AcDbLine
 10
658.4250074851
 20
368.2001766129
 30
0.0
 11
658.4250074851
 21
381.7654511892
 31
0.0
  0
LINE
  5
32C
330
1F
100
AcDbEntity
  8
0
  6
Continuous
 62
     7
370
     0
100
AcDbLine
 10
658.4250074851
 20
391.5725237691
 30
0.0
 11
658.4250074851
 21
397.472653445
 31
0.0
  0
LINE
  5
32D
330
1F
100
AcDbEntity
  8
0
  6
Continuous
 62
     7
370
     0
100
AcDbLine
 10
610.5754554001
 20
462.1113922758
 30
0.0
 11
606.6899118054
 21
462.1113922758
 31
0.0
  0
LINE
  5
32E
330
1F
100
AcDbEntity
  8
0
  6
Continuous
 62
     7
370
     0
100
AcDbLine
 10
639.8092960047
 20
462.1113922758
 30
0.0
 11
618.1081240105
 21
462.1113922758
 31
0.0
  0
LINE
  5
32F
330
1F
100
AcDbEntity
  8
0
  6
Continuous
 62
     7
370
     0
100
AcDbLine
 10
582.2096484132
 20
411.245384471
 30
0.0
 11
581.7535586385
 21
411.245384471
 31
0.0
  0
LINE
  5
330
330
1F
100
AcDbEntity
  8
0
  6
Continuous
 62
     7
370
     0
100
AcDbLine
 10
664.6250453818
 20
411.245384471
 30
0.0
 11
665.0811351565
 21
411.245384471
 31
0.0
  0
LINE
  5
331
330
1F
100
AcDbEntity
  8
0
  6
Continuous
 62
     7
370
     0
100
AcDbLine
 10
617.1316645769
 20
490.8176249826
 30
0.0
 11
611.3581612436
 21
490.8176249826
 31
0.0
  0
LINE
  5
332
330
1F
100
AcDbEntity
  8
0
  6
Continuous
 62
     7
370
     0
100
AcDbLine
 10
637.7894833414
 20
485.4800687793
 30
0.0
 11
619.1180297214
 21
485.4800687793
 31
0.0
  0
LINE
  5
333
330
1F
100
AcDbEntity
  8
0
  6
Continuous
 62
     7
370
     0
100
AcDbLine
 10
636.4948046434
 20
487.233766572
 30
0.0
 11
619.7653693808
 21
487.233766572
 31
0.0
  0
LINE
  5
334
330
1F
100
AcDbEntity
  8
0
  6
Continuous
 62
     7
370
     0
100
AcDbLine
 10
635.2209105817
 20
488.7448436582
 30
0.0
 11
620.4023161012
 21
488.7448436582
 31
0.0
  0
LINE
  5
335
330
1F
100
AcDbEntity
  8
0
  6
Continuous
 62
     7
370
     0
100
AcDbLine
 10
611.3348719704
 20
485.4800687793
 30
0.0
 11
608.6637221006
 21
485.4800687793
 31
0.0
  0
LINE
  5
336
330
1F
100
AcDbEntity
  8
0
  6
Continuous
 62
     7
370
     0
100
AcDbLine
 10
611.3425237167
 20
487.233766572
 30
0.0
 11
609.9217538762
 21
487.233766572
 31
0.0
  0
LINE
  5
337
330
1F
100
AcDbEntity
  8
0
  6
Continuous
 62
     7
370
     0
100
AcDbLine
 10
611.3491174805
 20
488.7448436582
 30
0.0
 11
611.152142756
 21
488.7448436582
 31
0.0
  0
INSERT
  5
343
330
1F
100
AcDbEntity
  8
FORMAT
100
AcDbBlockReference
  2
SW_CENTERMARKSYMBOL_1
 10
623.4173468975
 20
340.8059861822
 30
0.0
  0
ENDSEC
  0
SECTION
  2
OBJECTS
  0
DICTIONARY
  5
C
330
0
100
AcDbDictionary
281
     1
  3
ACAD_GROUP
350
D
  3
ACAD_LAYOUT
350
1A
  3
ACAD_MLINESTYLE
350
17
  3
ACAD_PLOTSETTINGS
350
19
  3
ACAD_PLOTSTYLENAME
350
E
  0
DICTIONARY
  5
D
102
{ACAD_REACTORS
330
C
102
}
330
C
100
AcDbDictionary
281
     1
  0
DICTIONARY
  5
1A
102
{ACAD_REACTORS
330
C
102
}
330
C
100
AcDbDictionary
281
     1
  3
Layout1
350
1E
  3
Layout2
350
26
  3
Model
350
22
  0
DICTIONARY
  5
17
102
{ACAD_REACTORS
330
C
102
}
330
C
100
AcDbDictionary
281
     1
  3
Standard
350
18
  0
DICTIONARY
  5
19
102
{ACAD_REACTORS
330
C
102
}
330
C
100
AcDbDictionary
281
     1
  0
ACDBDICTIONARYWDFLT
  5
E
102
{ACAD_REACTORS
330
C
102
}
330
C
100
AcDbDictionary
281
     1
  3
Normal
350
F
100
AcDbDictionaryWithDefault
340
F
  0
LAYOUT
  5
1E
102
{ACAD_REACTORS
330
1A
102
}
330
1A
100
AcDbPlotSettings
  1

  2
none_device
  4

  6

 40
0.0
 41
0.0
 42
0.0
 43
0.0
 44
0.0
 45
0.0
 46
0.0
 47
0.0
 48
0.0
 49
0.0
140
0.0
141
0.0
142
1.0
143
1.0
 70
   688
 72
     0
 73
     0
 74
     5
  7

 75
    16
147
1.0
148
0.0
149
0.0
100
AcDbLayout
  1
Layout1
 70
     1
 71
     1
 10
0.0
 20
0.0
 11
420.0
 21
297.0
 12
0.0
 22
0.0
 32
0.0
 14
1.0000000000E+20
 24
1.0000000000E+20
 34
1.0000000000E+20
 15
-1.0000000000E+20
 25
-1.0000000000E+20
 35
-1.0000000000E+20
146
0.0
 13
0.0
 23
0.0
 33
0.0
 16
1.0
 26
0.0
 36
0.0
 17
0.0
 27
1.0
 37
0.0
 76
     0
330
1B
  0
LAYOUT
  5
26
102
{ACAD_REACTORS
330
1A
102
}
330
1A
100
AcDbPlotSettings
  1

  2
none_device
  4

  6

 40
0.0
 41
0.0
 42
0.0
 43
0.0
 44
0.0
 45
0.0
 46
0.0
 47
0.0
 48
0.0
 49
0.0
140
0.0
141
0.0
142
1.0
143
1.0
 70
   688
 72
     0
 73
     0
 74
     5
  7

 75
    16
147
1.0
148
0.0
149
0.0
100
AcDbLayout
  1
Layout2
 70
     1
 71
     2
 10
0.0
 20
0.0
 11
0.0
 21
0.0
 12
0.0
 22
0.0
 32
0.0
 14
0.0
 24
0.0
 34
0.0
 15
0.0
 25
0.0
 35
0.0
146
0.0
 13
0.0
 23
0.0
 33
0.0
 16
1.0
 26
0.0
 36
0.0
 17
0.0
 27
1.0
 37
0.0
 76
     0
330
23
  0
LAYOUT
  5
22
102
{ACAD_REACTORS
330
1A
102
}
330
1A
100
AcDbPlotSettings
  1

  2
none_device
  4

  6

 40
0.0
 41
0.0
 42
0.0
 43
0.0
 44
0.0
 45
0.0
 46
0.0
 47
0.0
 48
0.0
 49
0.0
140
0.0
141
0.0
142
1.0
143
1.0
 70
  1712
 72
     0
 73
     0
 74
     0
  7

 75
     0
147
1.0
148
0.0
149
0.0
100
AcDbLayout
  1
Model
 70
     1
 71
     0
 10
0.0
 20
0.0
 11
841.0
 21
594.0
 12
0.0
 22
0.0
 32
0.0
 14
0.0
 24
0.0
 34
0.0
 15
841.0
 25
594.0
 35
0.0
146
0.0
 13
0.0
 23
0.0
 33
0.0
 16
1.0
 26
0.0
 36
0.0
 17
0.0
 27
1.0
 37
0.0
 76
     0
330
1F
331
29
  0
MLINESTYLE
  5
18
102
{ACAD_REACTORS
330
17
102
}
330
17
100
AcDbMlineStyle
  2
Standard
 70
     0
  3

 62
   256
 51
90.0
 52
90.0
 71
     2
 49
0.5
 62
   256
  6
BYLAYER
 49
-0.5
 62
   256
  6
BYLAYER
  0
ACDBPLACEHOLDER
  5
F
102
{ACAD_REACTORS
330
E
102
}
330
E
  0
ENDSEC
  0
EOF
