  0
SECTION
  2
HEADER
  9
$ACADVER
  1
AC1015
  9
$ACADMAINTVER
 70
     6
  9
$DWGCODEPAGE
  3
ANSI_1252
  9
$INSBASE
 10
0.0
 20
0.0
 30
0.0
  9
$EXTMIN
 10
0.0
 20
0.0
 30
0.0
  9
$EXTMAX
 10
431.8
 20
279.4
 30
0.0
  9
$LIMMIN
 10
0.0
 20
0.0
  9
$LIMMAX
 10
431.8
 20
279.4
  9
$ORTHOMODE
 70
     0
  9
$REGENMODE
 70
     1
  9
$FILLMODE
 70
     1
  9
$QTEXTMODE
 70
     0
  9
$MIRRTEXT
 70
     1
  9
$LTSCALE
 40
1.0
  9
$ATTMODE
 70
     1
  9
$TEXTSIZE
 40
2.5
  9
$TRACEWID
 40
1.0
  9
$TEXTSTYLE
  7
Standard
  9
$CLAYER
  8
0
  9
$CELTYPE
  6
ByLayer
  9
$CECOLOR
 62
   256
  9
$CELTSCALE
 40
1.0
  9
$DISPSILH
 70
     0
  9
$DIMSCALE
 40
1.0
  9
$DIMASZ
 40
2.5
  9
$DIMEXO
 40
1.0
  9
$DIMDLI
 40
3.75
  9
$DIMRND
 40
0.0
  9
$DIMDLE
 40
0.0
  9
$DIMEXE
 40
1.0
  9
$DIMTP
 40
0.0
  9
$DIMTM
 40
0.0
  9
$DIMTXT
 40
2.5
  9
$DIMCEN
 40
2.5
  9
$DIMTSZ
 40
0.0
  9
$DIMTOL
 70
     0
  9
$DIMLIM
 70
     0
  9
$DIMTIH
 70
     1
  9
$DIMTOH
 70
     1
  9
$DIMSE1
 70
     0
  9
$DIMSE2
 70
     0
  9
$DIMTAD
 70
     1
  9
$DIMZIN
 70
     0
  9
$DIMBLK
  1

  9
$DIMASO
 70
     1
  9
$DIMSHO
 70
     1
  9
$DIMPOST
  1

  9
$DIMAPOST
  1

  9
$DIMALT
 70
     0
  9
$DIMALTD
 70
     3
  9
$DIMALTF
 40
0.0393700787
  9
$DIMLFAC
 40
1.0
  9
$DIMTOFL
 70
     1
  9
$DIMTVP
 40
0.0
  9
$DIMTIX
 70
     0
  9
$DIMSOXD
 70
     0
  9
$DIMSAH
 70
     0
  9
$DIMBLK1
  1

  9
$DIMBLK2
  1

  9
$DIMSTYLE
  2
ISO-25
  9
$DIMCLRD
 70
     0
  9
$DIMCLRE
 70
     0
  9
$DIMCLRT
 70
     0
  9
$DIMTFAC
 40
1.0
  9
$DIMGAP
 40
1.524
  9
$DIMJUST
 70
     0
  9
$DIMSD1
 70
     0
  9
$DIMSD2
 70
     0
  9
$DIMTOLJ
 70
     0
  9
$DIMTZIN
 70
     0
  9
$DIMALTZ
 70
     0
  9
$DIMALTTZ
 70
     0
  9
$DIMUPT
 70
     0
  9
$DIMDEC
 70
     2
  9
$DIMTDEC
 70
     2
  9
$DIMALTU
 70
     2
  9
$DIMALTTD
 70
     3
  9
$DIMTXSTY
  7
Standard
  9
$DIMAUNIT
 70
     0
  9
$DIMADEC
 70
     2
  9
$DIMALTRND
 40
0.0
  9
$DIMAZIN
 70
     0
  9
$DIMDSEP
 70
    44
  9
$DIMATFIT
 70
     3
  9
$DIMFRAC
 70
     0
  9
$DIMLDRBLK
  1

  9
$DIMLUNIT
 70
     2
  9
$DIMLWD
 70
    -2
  9
$DIMLWE
 70
    -2
  9
$DIMTMOVE
 70
     0
  9
$LUNITS
 70
     2
  9
$LUPREC
 70
     2
  9
$SKETCHINC
 40
1.0
  9
$FILLETRAD
 40
10.0
  9
$AUNITS
 70
     0
  9
$AUPREC
 70
     2
  9
$MENU
  1
.
  9
$ELEVATION
 40
0.0
  9
$PELEVATION
 40
0.0
  9
$THICKNESS
 40
0.0
  9
$LIMCHECK
 70
     0
  9
$CHAMFERA
 40
10.0
  9
$CHAMFERB
 40
10.0
  9
$CHAMFERC
 40
20.0
  9
$CHAMFERD
 40
0.0
  9
$SKPOLY
 70
     0
  9
$TDCREATE
 40
2457198.719709213
  9
$TDUCREATE
 40
2457198.386375879
  9
$TDUPDATE
 40
2457198.719711389
  9
$TDUUPDATE
 40
2457198.386378055
  9
$TDINDWG
 40
0.0000000116
  9
$TDUSRTIMER
 40
0.0000000116
  9
$USRTIMER
 70
     1
  9
$ANGBASE
 50
0.0
  9
$ANGDIR
 70
     0
  9
$PDMODE
 70
     0
  9
$PDSIZE
 40
-1.0
  9
$PLINEWID
 40
0.0
  9
$SPLFRAME
 70
     0
  9
$SPLINETYPE
 70
     6
  9
$SPLINESEGS
 70
     8
  9
$HANDSEED
  5
366
  9
$SURFTAB1
 70
     6
  9
$SURFTAB2
 70
     6
  9
$SURFTYPE
 70
     6
  9
$SURFU
 70
     6
  9
$SURFV
 70
     6
  9
$UCSBASE
  2

  9
$UCSNAME
  2

  9
$UCSORG
 10
0.0
 20
0.0
 30
0.0
  9
$UCSXDIR
 10
1.0
 20
0.0
 30
0.0
  9
$UCSYDIR
 10
0.0
 20
1.0
 30
0.0
  9
$UCSORTHOREF
  2

  9
$UCSORTHOVIEW
 70
     0
  9
$UCSORGTOP
 10
0.0
 20
0.0
 30
0.0
  9
$UCSORGBOTTOM
 10
0.0
 20
0.0
 30
0.0
  9
$UCSORGLEFT
 10
0.0
 20
0.0
 30
0.0
  9
$UCSORGRIGHT
 10
0.0
 20
0.0
 30
0.0
  9
$UCSORGFRONT
 10
0.0
 20
0.0
 30
0.0
  9
$UCSORGBACK
 10
0.0
 20
0.0
 30
0.0
  9
$PUCSBASE
  2

  9
$PUCSNAME
  2

  9
$PUCSORG
 10
0.0
 20
0.0
 30
0.0
  9
$PUCSXDIR
 10
1.0
 20
0.0
 30
0.0
  9
$PUCSYDIR
 10
0.0
 20
1.0
 30
0.0
  9
$PUCSORTHOREF
  2

  9
$PUCSORTHOVIEW
 70
     0
  9
$PUCSORGTOP
 10
0.0
 20
0.0
 30
0.0
  9
$PUCSORGBOTTOM
 10
0.0
 20
0.0
 30
0.0
  9
$PUCSORGLEFT
 10
0.0
 20
0.0
 30
0.0
  9
$PUCSORGRIGHT
 10
0.0
 20
0.0
 30
0.0
  9
$PUCSORGFRONT
 10
0.0
 20
0.0
 30
0.0
  9
$PUCSORGBACK
 10
0.0
 20
0.0
 30
0.0
  9
$USERI1
 70
     0
  9
$USERI2
 70
     0
  9
$USERI3
 70
     0
  9
$USERI4
 70
     0
  9
$USERI5
 70
     0
  9
$USERR1
 40
0.0
  9
$USERR2
 40
0.0
  9
$USERR3
 40
0.0
  9
$USERR4
 40
0.0
  9
$USERR5
 40
0.0
  9
$WORLDVIEW
 70
     1
  9
$SHADEDGE
 70
     3
  9
$SHADEDIF
 70
    70
  9
$TILEMODE
 70
     1
  9
$MAXACTVP
 70
    64
  9
$PINSBASE
 10
0.0
 20
0.0
 30
0.0
  9
$PLIMCHECK
 70
     0
  9
$PEXTMIN
 10
1.0000000000E+20
 20
1.0000000000E+20
 30
1.0000000000E+20
  9
$PEXTMAX
 10
-1.0000000000E+20
 20
-1.0000000000E+20
 30
-1.0000000000E+20
  9
$PLIMMIN
 10
0.0
 20
0.0
  9
$PLIMMAX
 10
420.0
 20
297.0
  9
$UNITMODE
 70
     0
  9
$VISRETAIN
 70
     1
  9
$PLINEGEN
 70
     0
  9
$PSLTSCALE
 70
     1
  9
$TREEDEPTH
 70
  3020
  9
$CMLSTYLE
  2
Standard
  9
$CMLJUST
 70
     0
  9
$CMLSCALE
 40
20.0
  9
$PROXYGRAPHICS
 70
     1
  9
$MEASUREMENT
 70
     1
  9
$CELWEIGHT
370
    -1
  9
$ENDCAPS
280
     0
  9
$JOINSTYLE
280
     0
  9
$LWDISPLAY
290
     1
  9
$INSUNITS
 70
     4
  9
$HYPERLINKBASE
  1

  9
$STYLESHEET
  1

  9
$XEDIT
290
     1
  9
$CEPSNTYPE
380
     0
  9
$PSTYLEMODE
290
     1
  9
$FINGERPRINTGUID
  2
{95A49A85-FE6A-41B1-901F-FEB67211AC30}
  9
$VERSIONGUID
  2
{FAEB1C32-E019-11D5-929B-00C0DF256EC4}
  9
$EXTNAMES
290
     1
  9
$PSVPSCALE
 40
0.0
  9
$OLESTARTUP
290
     0
  0
ENDSEC
  0
SECTION
  2
CLASSES
  0
CLASS
  1
ACDBDICTIONARYWDFLT
  2
AcDbDictionaryWithDefault
  3
ObjectDBX Classes
 90
        0
280
     0
281
     0
  0
CLASS
  1
VISUALSTYLE
  2
AcDbVisualStyle
  3
ObjectDBX Classes
 90
     4095
280
     0
281
     0
  0
CLASS
  1
MATERIAL
  2
AcDbMaterial
  3
ObjectDBX Classes
 90
     1153
280
     0
281
     0
  0
CLASS
  1
ACDBPLACEHOLDER
  2
AcDbPlaceHolder
  3
ObjectDBX Classes
 90
        0
280
     0
281
     0
  0
CLASS
  1
LAYOUT
  2
AcDbLayout
  3
ObjectDBX Classes
 90
        0
280
     0
281
     0
  0
ENDSEC
  0
SECTION
  2
TABLES
  0
TABLE
  2
VPORT
  5
8
330
0
100
AcDbSymbolTable
 70
     1
  0
VPORT
  5
29
330
8
100
AcDbSymbolTableRecord
100
AcDbViewportTableRecord
  2
*Active
 70
     0
 10
0.0
 20
0.0
 11
1.0
 21
1.0
 12
215.9
 22
139.7
 13
0.0
 23
0.0
 14
10.0
 24
10.0
 15
10.0
 25
10.0
 16
0.0
 26
0.0
 36
1.0
 17
0.0
 27
0.0
 37
0.0
 40
279.4
 41
1.5454545455
 42
50.0
 43
0.0
 44
0.0
 50
0.0
 51
0.0
 71
     0
 72
  2000
 73
     1
 74
     3
 75
     0
 76
     0
 77
     0
 78
     0
281
     0
 65
     1
110
0.0
120
0.0
130
0.0
111
1.0
121
0.0
131
0.0
112
0.0
122
1.0
132
0.0
 79
     0
146
0.0
  0
ENDTAB
  0
TABLE
  2
LTYPE
  5
5
330
0
100
AcDbSymbolTable
 70
     6
  0
LTYPE
  5
14
330
5
100
AcDbSymbolTableRecord
100
AcDbLinetypeTableRecord
  2
ByBlock
 70
     0
  3

 72
    65
 73
     0
 40
0.0
  0
LTYPE
  5
15
330
5
100
AcDbSymbolTableRecord
100
AcDbLinetypeTableRecord
  2
ByLayer
 70
     0
  3

 72
    65
 73
     0
 40
0.0
  0
LTYPE
  5
16
330
5
100
AcDbSymbolTableRecord
100
AcDbLinetypeTableRecord
  2
Continuous
 70
     0
  3
Solid line
 72
    65
 73
     0
 40
0.0
  0
LTYPE
  5
3F
330
5
100
AcDbSymbolTableRecord
100
AcDbLinetypeTableRecord
  2
HIDDEN
 70
     0
  3
Hidden __ __ __ __ __ __ __ __ __ __ __ __ __ __
 72
    65
 73
     2
 40
1.905
 49
1.27
 74
     0
 49
-0.635
 74
     0
  0
LTYPE
  5
40
330
5
100
AcDbSymbolTableRecord
100
AcDbLinetypeTableRecord
  2
PHANTOM
 70
     0
  3
Phantom ______  __  __  ______  __  __  ______
 72
    65
 73
     6
 40
12.7
 49
6.35
 74
     0
 49
-1.27
 74
     0
 49
1.27
 74
     0
 49
-1.27
 74
     0
 49
1.27
 74
     0
 49
-1.27
 74
     0
  0
LTYPE
  5
41
330
5
100
AcDbSymbolTableRecord
100
AcDbLinetypeTableRecord
  2
CENTER
 70
     0
  3
Center ____ _ ____ _ ____ _ ____ _ ____ _ ____
 72
    65
 73
     4
 40
10.16
 49
6.35
 74
     0
 49
-1.27
 74
     0
 49
1.27
 74
     0
 49
-1.27
 74
     0
  0
LTYPE
  5
42
330
5
100
AcDbSymbolTableRecord
100
AcDbLinetypeTableRecord
  2
CENTERX2
 70
     0
  3
Center (2x) ________  __  ________  __  _____
 72
    65
 73
     4
 40
20.32
 49
12.7
 74
     0
 49
-2.54
 74
     0
 49
2.54
 74
     0
 49
-2.54
 74
     0
  0
LTYPE
  5
43
330
5
100
AcDbSymbolTableRecord
100
AcDbLinetypeTableRecord
  2
DOT2
 70
     0
  3
Dot (.5x) ........................................
 72
    65
 73
     2
 40
0.635
 49
0.0
 74
     0
 49
-0.635
 74
     0
  0
ENDTAB
  0
TABLE
  2
LAYER
  5
2
330
0
100
AcDbSymbolTable
 70
     3
  0
LAYER
  5
10
330
2
100
AcDbSymbolTableRecord
100
AcDbLayerTableRecord
  2
0
 70
     0
 62
     7
  6
Continuous
370
    -3
390
F
  0
LAYER
  5
44
330
2
100
AcDbSymbolTableRecord
100
AcDbLayerTableRecord
  2
FORMAT
 70
     0
 62
     7
  6
Continuous
370
    -3
390
F
  0
LAYER
  5
45
330
2
100
AcDbSymbolTableRecord
100
AcDbLayerTableRecord
  2
PROTOTYPE
 70
     0
 62
     7
  6
Continuous
370
    -3
390
F
  0
ENDTAB
  0
TABLE
  2
STYLE
  5
3
330
0
100
AcDbSymbolTable
 70
     1
  0
STYLE
  5
11
330
3
100
AcDbSymbolTableRecord
100
AcDbTextStyleTableRecord
  2
Standard
 70
     0
 40
0.0
 41
1.0
 50
0.0
 71
     0
 42
2.5
  3
txt
  4

  0
ENDTAB
  0
TABLE
  2
VIEW
  5
6
330
0
100
AcDbSymbolTable
 70
     0
  0
ENDTAB
  0
TABLE
  2
UCS
  5
7
330
0
100
AcDbSymbolTable
 70
     0
  0
ENDTAB
  0
TABLE
  2
APPID
  5
9
330
0
100
AcDbSymbolTable
 70
     1
  0
APPID
  5
12
330
9
100
AcDbSymbolTableRecord
100
AcDbRegAppTableRecord
  2
ACAD
 70
     0
  0
ENDTAB
  0
TABLE
  2
DIMSTYLE
  5
A
330
0
100
AcDbSymbolTable
 70
     1
100
AcDbDimStyleTable
  0
DIMSTYLE
105
27
330
A
100
AcDbSymbolTableRecord
100
AcDbDimStyleTableRecord
  2
ISO-25
 70
     0
 41
2.5
 42
0.625
 43
3.75
 44
1.25
 73
     0
 74
     0
 77
     1
 78
     8
140
2.5
141
2.5
143
0.0393700787
147
0.625
171
     3
172
     1
178
     0
271
     2
272
     2
274
     3
278
    44
283
     0
284
     8
340
11
  0
ENDTAB
  0
TABLE
  2
BLOCK_RECORD
  5
1
330
0
100
AcDbSymbolTable
 70
     2
  0
BLOCK_RECORD
  5
1F
330
1
100
AcDbSymbolTableRecord
100
AcDbBlockTableRecord
  2
*Model_Space
340
22
  0
BLOCK_RECORD
  5
1B
330
1
100
AcDbSymbolTableRecord
100
AcDbBlockTableRecord
  2
*Paper_Space
340
1E
  0
BLOCK_RECORD
  5
23
330
1
100
AcDbSymbolTableRecord
100
AcDbBlockTableRecord
  2
*Paper_Space0
340
26
  0
BLOCK_RECORD
  5
35A
330
1
100
AcDbSymbolTableRecord
100
AcDbBlockTableRecord
  2
SW_CENTERMARKSYMBOL_0
340
0
102
{BLKREFS
331
365
102
}
  0
ENDTAB
  0
ENDSEC
  0
SECTION
  2
BLOCKS
  0
BLOCK
  5
20
330
1F
100
AcDbEntity
  8
0
100
AcDbBlockBegin
  2
*Model_Space
 70
     0
 10
0.0
 20
0.0
 30
0.0
  3
*Model_Space
  1

  0
ENDBLK
  5
21
330
1F
100
AcDbEntity
  8
0
100
AcDbBlockEnd
  0
BLOCK
  5
1C
330
1B
100
AcDbEntity
 67
     1
  8
0
100
AcDbBlockBegin
  2
*Paper_Space
 70
     0
 10
0.0
 20
0.0
 30
0.0
  3
*Paper_Space
  1

  0
ENDBLK
  5
1D
330
1B
100
AcDbEntity
 67
     1
  8
0
100
AcDbBlockEnd
  0
BLOCK
  5
24
330
23
100
AcDbEntity
  8
0
100
AcDbBlockBegin
  2
*Paper_Space0
 70
     0
 10
0.0
 20
0.0
 30
0.0
  3
*Paper_Space0
  1

  0
ENDBLK
  5
25
330
23
100
AcDbEntity
  8
0
100
AcDbBlockEnd
  0
BLOCK
  5
35B
330
35A
100
AcDbEntity
  8
0
100
AcDbBlockBegin
  2
SW_CENTERMARKSYMBOL_0
 70
     0
 10
0.0
 20
0.0
 30
0.0
  3
SW_CENTERMARKSYMBOL_0
  1

  0
LINE
  5
35D
330
35A
100
AcDbEntity
  8
0
  6
Continuous
 62
     0
370
     0
100
AcDbLine
 10
0.0
 20
0.0
 30
0.0
 11
0.0
 21
2.5
 31
0.0
  0
LINE
  5
35E
330
35A
100
AcDbEntity
  8
0
  6
Continuous
 62
     0
370
     0
100
AcDbLine
 10
0.0
 20
0.0
 30
0.0
 11
-2.5
 21
0.0
 31
0.0
  0
LINE
  5
35F
330
35A
100
AcDbEntity
  8
0
  6
Continuous
 62
     0
370
     0
100
AcDbLine
 10
0.0
 20
0.0
 30
0.0
 11
0.0
 21
-2.5
 31
0.0
  0
LINE
  5
360
330
35A
100
AcDbEntity
  8
0
  6
Continuous
 62
     0
370
     0
100
AcDbLine
 10
0.0
 20
0.0
 30
0.0
 11
2.5
 21
0.0
 31
0.0
  0
LINE
  5
361
330
35A
100
AcDbEntity
  8
0
  6
Continuous
 62
     0
370
     0
100
AcDbLine
 10
0.0
 20
5.0
 30
0.0
 11
0.0
 21
91.2829267439
 31
0.0
  0
LINE
  5
362
330
35A
100
AcDbEntity
  8
0
  6
Continuous
 62
     0
370
     0
100
AcDbLine
 10
-5.0
 20
0.0
 30
0.0
 11
-91.4117036661
 21
0.0
 31
0.0
  0
LINE
  5
363
330
35A
100
AcDbEntity
  8
0
  6
Continuous
 62
     0
370
     0
100
AcDbLine
 10
0.0
 20
-5.0
 30
0.0
 11
0.0
 21
-90.2186613011
 31
0.0
  0
LINE
  5
364
330
35A
100
AcDbEntity
  8
0
  6
Continuous
 62
     0
370
     0
100
AcDbLine
 10
5.0
 20
0.0
 30
0.0
 11
90.7326783103
 21
0.0
 31
0.0
  0
ENDBLK
  5
35C
330
35A
100
AcDbEntity
  8
0
100
AcDbBlockEnd
  0
ENDSEC
  0
SECTION
  2
ENTITIES
  0
LINE
  5
46
330
1F
100
AcDbEntity
  8
0
  6
Continuous
 62
     7
370
    15
100
AcDbLine
 10
59.8406093849
 20
243.766766564
 30
0.0
 11
45.881797625
 21
244.4983167211
 31
0.0
  0
LINE
  5
47
330
1F
100
AcDbEntity
  8
0
  6
Continuous
 62
     7
370
    15
100
AcDbLine
 10
82.4556099905
 20
242.5815654555
 30
0.0
 11
73.0906846656
 21
243.0723594139
 31
0.0
  0
LINE
  5
48
330
1F
100
AcDbEntity
  8
0
  6
Continuous
 62
     7
370
    15
100
AcDbLine
 10
-78.1794664727
 20
243.0723594139
 30
0.0
 11
-87.5443917977
 21
242.5815654555
 31
0.0
  0
LINE
  5
49
330
1F
100
AcDbEntity
  8
0
  6
Continuous
 62
     7
370
    15
100
AcDbLine
 10
-50.9705794321
 20
244.4983167211
 30
0.0
 11
-64.9293911921
 21
243.766766564
 31
0.0
  0
ARC
  5
4A
330
1F
100
AcDbEntity
  8
0
  6
Continuous
 62
     7
370
    15
100
AcDbCircle
 10
-2.5343909036
 20
253.5880848926
 30
0.0
 40
22.67267151925523
100
AcDbArc
 50
231.4672612677
 51
308.4681572088
  0
LINE
  5
4B
330
1F
100
AcDbEntity
  8
0
  6
Continuous
 62
     7
370
    15
100
AcDbLine
 10
-16.6585975604
 20
227.7125847163
 30
0.0
 11
-16.6585975604
 21
237.7125849584
 31
0.0
  0
LINE
  5
4C
330
1F
100
AcDbEntity
  8
0
  6
Continuous
 62
     7
370
    15
100
AcDbLine
 10
11.5698157532
 20
237.7125849584
 30
0.0
 11
11.5698157532
 21
227.7125847163
 31
0.0
  0
LINE
  5
4D
330
1F
100
AcDbEntity
  8
0
  6
Continuous
 62
     7
370
    15
100
AcDbLine
 10
9.4656088112
 20
351.3054163763
 30
0.0
 11
9.4656088112
 21
353.8054139922
 31
0.0
  0
LINE
  5
4E
330
1F
100
AcDbEntity
  8
0
  6
Continuous
 62
     7
370
    15
100
AcDbLine
 10
-14.5343904661
 20
353.8054139922
 30
0.0
 11
-14.5343904661
 21
351.3054163763
 31
0.0
  0
LINE
  5
4F
330
1F
100
AcDbEntity
  8
0
  6
Continuous
 62
     7
370
    15
100
AcDbLine
 10
5.4656090869
 20
370.7154156277
 30
0.0
 11
5.4656090869
 21
371.2154091904
 31
0.0
  0
LINE
  5
50
330
1F
100
AcDbEntity
  8
0
  6
Continuous
 62
     7
370
    15
100
AcDbLine
 10
-10.5343907418
 20
371.2154091904
 30
0.0
 11
-10.5343907418
 21
370.7154156277
 31
0.0
  0
LINE
  5
51
330
1F
100
AcDbEntity
  8
0
  6
Continuous
 62
     7
370
    15
100
AcDbLine
 10
3.9656093067
 20
371.2154091904
 30
0.0
 11
3.9656093067
 21
382.7154101441
 31
0.0
  0
LINE
  5
52
330
1F
100
AcDbEntity
  8
0
  6
Continuous
 62
     7
370
    15
100
AcDbLine
 10
-9.0343909616
 20
382.7154101441
 30
0.0
 11
-9.0343909616
 21
371.2154091904
 31
0.0
  0
LINE
  5
53
330
1F
100
AcDbEntity
  8
0
  6
Continuous
 62
     7
370
    15
100
AcDbLine
 10
3.4656092247
 20
363.8054193566
 30
0.0
 11
3.4656092247
 21
370.7154156277
 31
0.0
  0
LINE
  5
54
330
1F
100
AcDbEntity
  8
0
  6
Continuous
 62
     7
370
    15
100
AcDbLine
 10
-8.5343908796
 20
370.7154156277
 30
0.0
 11
-8.5343908796
 21
363.8054193566
 31
0.0
  0
LINE
  5
55
330
1F
100
AcDbEntity
  8
0
  6
Continuous
 62
     7
370
    15
100
AcDbLine
 10
3.4656092247
 20
246.5154142687
 30
0.0
 11
3.4656092247
 21
346.3054136941
 31
0.0
  0
LINE
  5
56
330
1F
100
AcDbEntity
  8
0
  6
Continuous
 62
     7
370
    15
100
AcDbLine
 10
-8.5343908796
 20
346.3054136941
 30
0.0
 11
-8.5343908796
 21
246.5154142687
 31
0.0
  0
LINE
  5
57
330
1F
100
AcDbEntity
  8
0
  6
Continuous
 62
     7
370
    15
100
AcDbLine
 10
61.6497817172
 20
226.7125845524
 30
0.0
 11
61.6497817172
 21
230.7125847424
 31
0.0
  0
LINE
  5
58
330
1F
100
AcDbEntity
  8
0
  6
Continuous
 62
     7
370
    15
100
AcDbLine
 10
-66.7385635244
 20
230.7125847424
 30
0.0
 11
-66.7385635244
 21
226.7125845524
 31
0.0
  0
ARC
  5
59
330
1F
100
AcDbEntity
  8
0
  6
Continuous
 62
     7
370
    15
100
AcDbCircle
 10
43.9556090964
 20
318.8734848951
 30
0.0
 40
3.000000000000014
100
AcDbArc
 50
310.0
 51
0.0
  0
ARC
  5
5A
330
1F
100
AcDbEntity
  8
0
  6
Continuous
 62
     7
370
    15
100
AcDbCircle
 10
-49.0443909036
 20
318.8734848951
 30
0.0
 40
3.000000000000007
100
AcDbArc
 50
180.0
 51
230.0
  0
LINE
  5
5B
330
1F
100
AcDbEntity
  8
0
  6
Continuous
 62
     7
370
    15
100
AcDbLine
 10
46.9556088282
 20
318.8734860728
 30
0.0
 11
46.9556088282
 21
319.7125853608
 31
0.0
  0
LINE
  5
5C
330
1F
100
AcDbEntity
  8
0
  6
Continuous
 62
     7
370
    15
100
AcDbLine
 10
-52.0443906354
 20
319.7125853608
 30
0.0
 11
-52.0443906354
 21
318.8734860728
 31
0.0
  0
ARC
  5
5D
330
1F
100
AcDbEntity
  8
0
  6
Continuous
 62
     7
370
    15
100
AcDbCircle
 10
44.9556090964
 20
319.7125845263
 30
0.0
 40
2.0
100
AcDbArc
 50
0.0
 51
90.0
  0
ARC
  5
5E
330
1F
100
AcDbEntity
  8
0
  6
Continuous
 62
     7
370
    15
100
AcDbCircle
 10
-50.0443909036
 20
319.7125845263
 30
0.0
 40
2.0
100
AcDbArc
 50
90.0
 51
180.0
  0
LINE
  5
5F
330
1F
100
AcDbEntity
  8
0
  6
Continuous
 62
     7
370
    15
100
AcDbLine
 10
44.9556085004
 20
321.7125819633
 30
0.0
 11
3.4656092247
 21
321.7125819633
 31
0.0
  0
LINE
  5
60
330
1F
100
AcDbEntity
  8
0
  6
Continuous
 62
     7
370
    15
100
AcDbLine
 10
-8.5343908796
 20
321.7125819633
 30
0.0
 11
-50.0443903075
 21
321.7125819633
 31
0.0
  0
LINE
  5
61
330
1F
100
AcDbEntity
  8
0
  6
Continuous
 62
     7
370
    15
100
AcDbLine
 10
45.881797625
 20
244.4983167211
 30
0.0
 11
41.2988560928
 21
310.0374402115
 31
0.0
  0
LINE
  5
62
330
1F
100
AcDbEntity
  8
0
  6
Continuous
 62
     7
370
    15
100
AcDbLine
 10
-46.3876379
 20
310.0374402115
 30
0.0
 11
-50.9705794321
 21
244.4983167211
 31
0.0
  0
LINE
  5
63
330
1F
100
AcDbEntity
  8
0
  6
Continuous
 62
     7
370
    15
100
AcDbLine
 10
-50.9727550017
 20
316.5753544876
 30
0.0
 11
-48.1615205573
 21
314.2164485166
 31
0.0
  0
LINE
  5
64
330
1F
100
AcDbEntity
  8
0
  6
Continuous
 62
     7
370
    15
100
AcDbLine
 10
43.0727387501
 20
314.2164485166
 30
0.0
 11
45.8839731945
 21
316.5753544876
 31
0.0
  0
LINE
  5
65
330
1F
100
AcDbEntity
  8
0
  6
Continuous
 62
     7
370
    15
100
AcDbLine
 10
-49.9305044578
 20
322.2125829766
 30
0.0
 11
-49.3252379166
 21
321.7125819633
 31
0.0
  0
LINE
  5
66
330
1F
100
AcDbEntity
  8
0
  6
Continuous
 62
     7
370
    15
100
AcDbLine
 10
44.2364561094
 20
321.7125819633
 30
0.0
 11
44.8417226507
 21
322.2125829766
 31
0.0
  0
ARC
  5
67
330
1F
100
AcDbEntity
  8
0
  6
Continuous
 62
     7
370
    15
100
AcDbCircle
 10
46.2866765854
 20
310.3862244507
 30
0.0
 40
5.000000000000001
100
AcDbArc
 50
130.0
 51
184.0
  0
ARC
  5
68
330
1F
100
AcDbEntity
  8
0
  6
Continuous
 62
     7
370
    15
100
AcDbCircle
 10
-51.3754583926
 20
310.3862244507
 30
0.0
 40
4.999999999999994
100
AcDbArc
 50
356.0
 51
50.0
  0
LINE
  5
69
330
1F
100
AcDbEntity
  8
0
  6
Continuous
 62
     7
370
    15
100
AcDbLine
 10
-46.0443896519
 20
352.3054184029
 30
0.0
 11
-46.0443896519
 21
351.3054163763
 31
0.0
  0
LINE
  5
6A
330
1F
100
AcDbEntity
  8
0
  6
Continuous
 62
     7
370
    15
100
AcDbLine
 10
40.9556078447
 20
351.3054163763
 30
0.0
 11
40.9556078447
 21
352.3054184029
 31
0.0
  0
ARC
  5
6B
330
1F
100
AcDbEntity
  8
0
  6
Continuous
 62
     7
370
    15
100
AcDbCircle
 10
-44.0443909036
 20
352.3054133733
 30
0.0
 40
2.0
100
AcDbArc
 50
90.0
 51
180.0
  0
ARC
  5
6C
330
1F
100
AcDbEntity
  8
0
  6
Continuous
 62
     7
370
    15
100
AcDbCircle
 10
38.9556090964
 20
352.3054133733
 30
0.0
 40
2.0
100
AcDbArc
 50
0.0
 51
90.0
  0
LINE
  5
6D
330
1F
100
AcDbEntity
  8
0
  6
Continuous
 62
     7
370
    15
100
AcDbLine
 10
-54.5443919765
 20
226.7125845524
 30
0.0
 11
-51.5443896221
 21
223.7125845263
 31
0.0
  0
LINE
  5
6E
330
1F
100
AcDbEntity
  8
0
  6
Continuous
 62
     7
370
    15
100
AcDbLine
 10
46.4556078149
 20
223.7125845263
 30
0.0
 11
49.4556101693
 21
226.7125845524
 31
0.0
  0
LINE
  5
6F
330
1F
100
AcDbEntity
  8
0
  6
Continuous
 62
     7
370
    15
100
AcDbLine
 10
78.5220089091
 20
230.7125847424
 30
0.0
 11
78.5220089091
 21
237.7125849584
 31
0.0
  0
LINE
  5
70
330
1F
100
AcDbEntity
  8
0
  6
Continuous
 62
     7
370
    15
100
AcDbLine
 10
-83.6107907163
 20
237.7125849584
 30
0.0
 11
-83.6107907163
 21
230.7125847424
 31
0.0
  0
ARC
  5
71
330
1F
100
AcDbEntity
  8
0
  6
Continuous
 62
     7
370
    15
100
AcDbCircle
 10
-71.5543909036
 20
253.5880848926
 30
0.0
 40
22.6726715192552
100
AcDbArc
 50
228.5787947176
 51
237.8756191067
  0
LINE
  5
72
330
1F
100
AcDbEntity
  8
0
  6
Continuous
 62
     7
370
    15
100
AcDbLine
 10
-86.5543884503
 20
237.7125849584
 30
0.0
 11
-86.5543884503
 21
236.5866131717
 31
0.0
  0
LINE
  5
73
330
1F
100
AcDbEntity
  8
0
  6
Continuous
 62
     7
370
    15
100
AcDbLine
 10
81.4656066431
 20
236.5866131717
 30
0.0
 11
81.4656066431
 21
237.7125849584
 31
0.0
  0
ARC
  5
74
330
1F
100
AcDbEntity
  8
0
  6
Continuous
 62
     7
370
    15
100
AcDbCircle
 10
66.4656090964
 20
253.5880848926
 30
0.0
 40
22.67267151925521
100
AcDbArc
 50
302.1243808933
 51
311.4212052824
  0
LINE
  5
75
330
1F
100
AcDbEntity
  8
0
  6
Continuous
 62
     7
370
    15
100
AcDbLine
 10
-59.5543896126
 20
351.3054163763
 30
0.0
 11
-59.5543896126
 21
353.8054139922
 31
0.0
  0
LINE
  5
76
330
1F
100
AcDbEntity
  8
0
  6
Continuous
 62
     7
370
    15
100
AcDbLine
 10
-83.5543898212
 20
353.8054139922
 30
0.0
 11
-83.5543898212
 21
351.3054163763
 31
0.0
  0
LINE
  5
77
330
1F
100
AcDbEntity
  8
0
  6
Continuous
 62
     7
370
    15
100
AcDbLine
 10
78.465608014
 20
351.3054163763
 30
0.0
 11
78.465608014
 21
353.8054139922
 31
0.0
  0
LINE
  5
78
330
1F
100
AcDbEntity
  8
0
  6
Continuous
 62
     7
370
    15
100
AcDbLine
 10
54.4656078054
 20
353.8054139922
 30
0.0
 11
54.4656078054
 21
351.3054163763
 31
0.0
  0
LINE
  5
79
330
1F
100
AcDbEntity
  8
0
  6
Continuous
 62
     7
370
    15
100
AcDbLine
 10
-63.5543902682
 20
370.7154156277
 30
0.0
 11
-63.5543902682
 21
371.2154091904
 31
0.0
  0
LINE
  5
7A
330
1F
100
AcDbEntity
  8
0
  6
Continuous
 62
     7
370
    15
100
AcDbLine
 10
-79.5543891655
 20
371.2154091904
 30
0.0
 11
-79.5543891655
 21
370.7154156277
 31
0.0
  0
LINE
  5
7B
330
1F
100
AcDbEntity
  8
0
  6
Continuous
 62
     7
370
    15
100
AcDbLine
 10
74.4656073583
 20
370.7154156277
 30
0.0
 11
74.4656073583
 21
371.2154091904
 31
0.0
  0
LINE
  5
7C
330
1F
100
AcDbEntity
  8
0
  6
Continuous
 62
     7
370
    15
100
AcDbLine
 10
58.465608461
 20
371.2154091904
 30
0.0
 11
58.465608461
 21
370.7154156277
 31
0.0
  0
LINE
  5
7D
330
1F
100
AcDbEntity
  8
0
  6
Continuous
 62
     7
370
    15
100
AcDbLine
 10
-65.0543895827
 20
371.2154091904
 30
0.0
 11
-65.0543895827
 21
382.7154101441
 31
0.0
  0
LINE
  5
7E
330
1F
100
AcDbEntity
  8
0
  6
Continuous
 62
     7
370
    15
100
AcDbLine
 10
-78.0543935763
 20
382.7154101441
 30
0.0
 11
-78.0543935763
 21
371.2154091904
 31
0.0
  0
LINE
  5
7F
330
1F
100
AcDbEntity
  8
0
  6
Continuous
 62
     7
370
    15
100
AcDbLine
 10
72.9656117691
 20
371.2154091904
 30
0.0
 11
72.9656117691
 21
382.7154101441
 31
0.0
  0
LINE
  5
80
330
1F
100
AcDbEntity
  8
0
  6
Continuous
 62
     7
370
    15
100
AcDbLine
 10
59.9656077756
 20
382.7154101441
 30
0.0
 11
59.9656077756
 21
371.2154091904
 31
0.0
  0
LINE
  5
81
330
1F
100
AcDbEntity
  8
0
  6
Continuous
 62
     7
370
    15
100
AcDbLine
 10
-65.554390596
 20
363.8054193566
 30
0.0
 11
-65.554390596
 21
370.7154156277
 31
0.0
  0
LINE
  5
82
330
1F
100
AcDbEntity
  8
0
  6
Continuous
 62
     7
370
    15
100
AcDbLine
 10
-77.554392563
 20
370.7154156277
 30
0.0
 11
-77.554392563
 21
363.8054193566
 31
0.0
  0
LINE
  5
83
330
1F
100
AcDbEntity
  8
0
  6
Continuous
 62
     7
370
    15
100
AcDbLine
 10
-65.554390596
 20
246.5154142687
 30
0.0
 11
-65.554390596
 21
328.2550410936
 31
0.0
  0
LINE
  5
84
330
1F
100
AcDbEntity
  8
0
  6
Continuous
 62
     7
370
    15
100
AcDbLine
 10
-77.554392563
 20
342.2276885817
 30
0.0
 11
-77.554392563
 21
246.5154142687
 31
0.0
  0
LINE
  5
85
330
1F
100
AcDbEntity
  8
0
  6
Continuous
 62
     7
370
    15
100
AcDbLine
 10
72.4656107558
 20
246.5154142687
 30
0.0
 11
72.4656107558
 21
342.2276885817
 31
0.0
  0
LINE
  5
86
330
1F
100
AcDbEntity
  8
0
  6
Continuous
 62
     7
370
    15
100
AcDbLine
 10
60.4656087889
 20
328.2550410936
 30
0.0
 11
60.4656087889
 21
246.5154142687
 31
0.0
  0
LINE
  5
87
330
1F
100
AcDbEntity
  8
0
  6
Continuous
 62
     7
370
    15
100
AcDbLine
 10
72.4656107558
 20
363.8054193566
 30
0.0
 11
72.4656107558
 21
370.7154156277
 31
0.0
  0
LINE
  5
88
330
1F
100
AcDbEntity
  8
0
  6
Continuous
 62
     7
370
    15
100
AcDbLine
 10
60.4656087889
 20
370.7154156277
 30
0.0
 11
60.4656087889
 21
363.8054193566
 31
0.0
  0
LINE
  5
89
330
1F
100
AcDbEntity
  8
0
  6
Continuous
 62
     7
370
    15
100
AcDbLine
 10
82.4556099905
 20
237.7125849584
 30
0.0
 11
82.4556099905
 21
242.5817293683
 31
0.0
  0
LINE
  5
8A
330
1F
100
AcDbEntity
  8
0
  6
Continuous
 62
     7
370
    15
100
AcDbLine
 10
-87.5443917977
 20
242.5817293683
 30
0.0
 11
-87.5443917977
 21
237.7125849584
 31
0.0
  0
LINE
  5
8B
330
1F
100
AcDbEntity
  8
0
  6
Continuous
 62
     7
370
    15
100
AcDbLine
 10
-10.5543908941
 20
371.2154091904
 30
0.0
 11
-10.5543908941
 21
370.7154156277
 31
0.0
  0
LINE
  5
8C
330
1F
100
AcDbEntity
  8
0
  6
Continuous
 62
     7
370
    15
100
AcDbLine
 10
-9.0543911138
 20
382.7154101441
 30
0.0
 11
-9.0543911138
 21
371.2154091904
 31
0.0
  0
LINE
  5
8D
330
1F
100
AcDbEntity
  8
0
  6
Continuous
 62
     7
370
    15
100
AcDbLine
 10
-8.5543910319
 20
370.7154156277
 30
0.0
 11
-8.5543910319
 21
363.8054193566
 31
0.0
  0
LINE
  5
8E
330
1F
100
AcDbEntity
  8
0
  6
Continuous
 62
     7
370
    15
100
AcDbLine
 10
13.4556098564
 20
351.3054163763
 30
0.0
 11
-18.5443916635
 21
351.3054163763
 31
0.0
  0
LINE
  5
8F
330
1F
100
AcDbEntity
  8
0
  6
Continuous
 62
     7
370
    15
100
AcDbLine
 10
-18.5443916635
 20
351.3054163763
 30
0.0
 11
-18.5443916635
 21
346.3054136941
 31
0.0
  0
LINE
  5
90
330
1F
100
AcDbEntity
  8
0
  6
Continuous
 62
     7
370
    15
100
AcDbLine
 10
13.4556098564
 20
346.3054136941
 30
0.0
 11
-18.5443916635
 21
346.3054136941
 31
0.0
  0
LINE
  5
91
330
1F
100
AcDbEntity
  8
0
  6
Continuous
 62
     7
370
    15
100
AcDbLine
 10
13.4556098564
 20
351.3054163763
 30
0.0
 11
13.4556098564
 21
346.3054136941
 31
0.0
  0
LWPOLYLINE
  5
92
330
1F
100
AcDbEntity
  8
0
  6
Continuous
 62
     7
370
    15
100
AcDbPolyline
 90
        3
 70
   128
 43
0.0
 10
73.0906101598
 20
243.0572328726
 10
71.415853752
 20
243.1446617106
 10
59.8406093849
 20
243.7484381357
  0
LINE
  5
93
330
1F
100
AcDbEntity
  8
0
  6
Continuous
 62
     7
370
    15
100
AcDbLine
 10
-50.5014014708
 20
244.4983167211
 30
0.0
 11
-50.9705794321
 21
244.4983167211
 31
0.0
  0
LINE
  5
94
330
1F
100
AcDbEntity
  8
0
  6
Continuous
 62
     7
370
    15
100
AcDbLine
 10
-9.2690372186
 20
244.4983167211
 30
0.0
 11
-50.5014014708
 21
244.4983167211
 31
0.0
  0
LINE
  5
95
330
1F
100
AcDbEntity
  8
0
  6
Continuous
 62
     7
370
    15
100
AcDbLine
 10
4.1802554114
 20
244.4983167211
 30
0.0
 11
4.0906090943
 21
244.4983167211
 31
0.0
  0
LINE
  5
96
330
1F
100
AcDbEntity
  8
0
  6
Continuous
 62
     7
370
    15
100
AcDbLine
 10
-9.1593907492
 20
244.4983167211
 30
0.0
 11
-9.2690372186
 21
244.4983167211
 31
0.0
  0
LINE
  5
97
330
1F
100
AcDbEntity
  8
0
  6
Continuous
 62
     7
370
    15
100
AcDbLine
 10
45.4126196636
 20
244.4983167211
 30
0.0
 11
4.1802554114
 21
244.4983167211
 31
0.0
  0
LINE
  5
98
330
1F
100
AcDbEntity
  8
0
  6
Continuous
 62
     7
370
    15
100
AcDbLine
 10
45.881797625
 20
244.4983167211
 30
0.0
 11
45.4126196636
 21
244.4983167211
 31
0.0
  0
SPLINE
  5
99
330
1F
100
AcDbEntity
  8
0
  6
Continuous
 62
     7
370
    15
100
AcDbSpline
210
0.0
220
0.0
230
1.0
 70
     8
 71
     3
 72
    12
 73
     8
 74
     0
 42
0.00000001
 43
0.00000001
 12
1.0
 22
0.0
 32
0.0
 13
1.0
 23
0.0
 33
0.0
 40
0.0
 40
0.0
 40
0.0
 40
0.0
 40
0.2050249136480749
 40
0.4102072629282477
 40
0.6152321813656945
 40
0.8262117879598622
 40
1.0
 40
1.0
 40
1.0
 40
1.0
 10
81.8759026659779
 20
242.6062957951905
 30
0.0
 10
81.95005788262209
 20
242.6031258439801
 30
0.0
 10
82.09842525861664
 20
242.5967835074
 30
0.0
 10
82.26074587549583
 20
242.5898608028797
 30
0.0
 10
82.37790228829543
 20
242.584871321545
 30
0.0
 10
82.44567037576147
 20
242.5819876855323
 30
0.0
 10
82.44984853704058
 20
242.5818097407141
 30
0.0
 10
82.45173568857234
 20
242.5817293683173
 30
0.0
  0
SPLINE
  5
9A
330
1F
100
AcDbEntity
  8
0
  6
Continuous
 62
     7
370
    15
100
AcDbSpline
210
0.0
220
0.0
230
1.0
 70
     8
 71
     3
 72
     8
 73
     4
 74
     0
 42
0.00000001
 43
0.00000001
 12
1.0
 22
0.0
 32
0.0
 13
1.0
 23
0.0
 33
0.0
 40
0.0
 40
0.0
 40
0.0
 40
0.0
 40
1.0
 40
1.0
 40
1.0
 40
1.0
 10
76.96647866163016
 20
242.7125845262886
 30
0.0
 10
78.6030066674395
 20
242.7125845262886
 30
0.0
 10
80.23947878443046
 20
242.6763027433893
 30
0.0
 10
81.87589895148561
 20
242.6062962129031
 30
0.0
  0
LINE
  5
9B
330
1F
100
AcDbEntity
  8
0
  6
Continuous
 62
     7
370
    15
100
AcDbLine
 10
76.9664766921
 20
242.7125839153
 30
0.0
 11
19.4617817832
 21
242.7125839153
 31
0.0
  0
SPLINE
  5
9C
330
1F
100
AcDbEntity
  8
0
  6
Continuous
 62
     7
370
    15
100
AcDbSpline
210
0.0
220
0.0
230
1.0
 70
     8
 71
     3
 72
     8
 73
     4
 74
     0
 42
0.00000001
 43
0.00000001
 12
1.0
 22
0.0
 32
0.0
 13
1.0
 23
0.0
 33
0.0
 40
0.0
 40
0.0
 40
0.0
 40
0.0
 40
1.0
 40
1.0
 40
1.0
 40
1.0
 10
1.72347282262963
 20
242.6062962129031
 30
0.0
 10
7.636049914928043
 20
242.6763027433894
 30
0.0
 10
13.54881470840893
 20
242.7125845262887
 30
0.0
 10
19.46178143471483
 20
242.7125845262887
 30
0.0
  0
SPLINE
  5
9D
330
1F
100
AcDbEntity
  8
0
  6
Continuous
 62
     7
370
    15
100
AcDbSpline
210
0.0
220
0.0
230
1.0
 70
     8
 71
     3
 72
    12
 73
     8
 74
     0
 42
0.00000001
 43
0.00000001
 12
1.0
 22
0.0
 32
0.0
 13
1.0
 23
0.0
 33
0.0
 40
0.0
 40
0.0
 40
0.0
 40
0.0
 40
0.5
 40
0.5
 40
0.75
 40
0.75
 40
1.0
 40
1.0
 40
1.0
 40
1.0
 10
-6.812254629802664
 20
242.6062962129031
 30
0.0
 10
-5.41432710342897
 20
242.5897443685103
 30
0.0
 10
-3.996460968772467
 20
242.5816219518498
 30
0.0
 10
-1.8405648883128
 20
242.5815370783598
 30
0.0
 10
-1.11361493614594
 20
242.5835952833303
 30
0.0
 10
0.3172522919756234
 20
242.5918465511151
 30
0.0
 10
1.02450776827034
 20
242.5980202754189
 30
0.0
 10
1.723472822629634
 20
242.6062962129031
 30
0.0
  0
SPLINE
  5
9E
330
1F
100
AcDbEntity
  8
0
  6
Continuous
 62
     7
370
    15
100
AcDbSpline
210
0.0
220
0.0
230
1.0
 70
     8
 71
     3
 72
     8
 73
     4
 74
     0
 42
0.00000001
 43
0.00000001
 12
1.0
 22
0.0
 32
0.0
 13
1.0
 23
0.0
 33
0.0
 40
0.0
 40
0.0
 40
0.0
 40
0.0
 40
1.0
 40
1.0
 40
1.0
 40
1.0
 10
-24.55056324188813
 20
242.7125845262886
 30
0.0
 10
-18.63759651558215
 20
242.7125845262886
 30
0.0
 10
-12.72483172210117
 20
242.6763027433894
 30
0.0
 10
-6.812254629802668
 20
242.6062962129031
 30
0.0
  0
LINE
  5
9F
330
1F
100
AcDbEntity
  8
0
  6
Continuous
 62
     7
370
    15
100
AcDbLine
 10
-24.5505635904
 20
242.7125839153
 30
0.0
 11
-82.0552584993
 21
242.7125839153
 31
0.0
  0
SPLINE
  5
A0
330
1F
100
AcDbEntity
  8
0
  6
Continuous
 62
     7
370
    15
100
AcDbSpline
210
0.0
220
0.0
230
1.0
 70
     8
 71
     3
 72
     8
 73
     4
 74
     0
 42
0.00000001
 43
0.00000001
 12
1.0
 22
0.0
 32
0.0
 13
1.0
 23
0.0
 33
0.0
 40
0.0
 40
0.0
 40
0.0
 40
0.0
 40
1.0
 40
1.0
 40
1.0
 40
1.0
 10
-86.96468075865943
 20
242.6062962129031
 30
0.0
 10
-85.32826059160428
 20
242.6763027433894
 30
0.0
 10
-83.69178847461333
 20
242.7125845262886
 30
0.0
 10
-82.05526046880401
 20
242.7125845262886
 30
0.0
  0
SPLINE
  5
A1
330
1F
100
AcDbEntity
  8
0
  6
Continuous
 62
     7
370
    15
100
AcDbSpline
210
0.0
220
0.0
230
1.0
 70
     8
 71
     3
 72
    13
 73
     9
 74
     0
 42
0.00000001
 43
0.00000001
 12
1.0
 22
0.0
 32
0.0
 13
1.0
 23
0.0
 33
0.0
 40
0.0
 40
0.0
 40
0.0
 40
0.0
 40
0.0373618694129142
 40
0.2483329656310276
 40
0.4352782101255497
 40
0.6222234308142063
 40
0.8111118849597388
 40
1.0
 40
1.0
 40
1.0
 40
1.0
 10
-87.5405174957462
 20
242.5817293683173
 30
0.0
 10
-87.5417141567973
 20
242.5816783858749
 30
0.0
 10
-87.54966799830329
 20
242.5813395211098
 30
0.0
 10
-87.51581575127554
 20
242.5827811598056
 30
0.0
 10
-87.44150961305066
 20
242.5859415072414
 30
0.0
 10
-87.32477447939992
 20
242.590918449051
 30
0.0
 10
-87.17077967032063
 20
242.5974835096054
 30
0.0
 10
-87.03338283109731
 20
242.6033583684199
 30
0.0
 10
-86.96468447315175
 20
242.6062957951905
 30
0.0
  0
SPLINE
  5
A2
330
1F
100
AcDbEntity
  8
0
  6
Continuous
 62
     7
370
    15
100
AcDbSpline
210
0.0
220
0.0
230
1.0
 70
     8
 71
     3
 72
     8
 73
     4
 74
     0
 42
0.00000001
 43
0.00000001
 12
1.0
 22
0.0
 32
0.0
 13
1.0
 23
0.0
 33
0.0
 40
0.0
 40
0.0
 40
0.0
 40
0.0
 40
1.0
 40
1.0
 40
1.0
 40
1.0
 10
-9.159390903586935
 20
243.0572326909867
 30
0.0
 10
-4.742819691021215
 20
243.0773993222355
 30
0.0
 10
-0.3260803831481298
 20
243.0773689118045
 30
0.0
 10
4.090609096413067
 20
243.057141231416
 30
0.0
  0
LWPOLYLINE
  5
A3
330
1F
100
AcDbEntity
  8
0
  6
Continuous
 62
     7
370
    15
100
AcDbPolyline
 90
        3
 70
   128
 43
0.0
 10
-78.1793919669
 20
243.057141603
 10
-66.5941042172
 20
243.6615606407
 10
-64.9293911921
 20
243.7483282397
  0
SPLINE
  5
A4
330
1F
100
AcDbEntity
  8
0
  6
Continuous
 62
     7
370
    15
100
AcDbSpline
210
0.0
220
0.0
230
1.0
 70
     8
 71
     3
 72
    49
 73
    45
 74
     0
 42
0.00000001
 43
0.00000001
 12
1.0
 22
0.0
 32
0.0
 13
1.0
 23
0.0
 33
0.0
 40
0.0
 40
0.0
 40
0.0
 40
0.0
 40
0.0625000000000007
 40
0.0625000000000007
 40
0.1250000000000014
 40
0.1250000000000014
 40
0.1562500000000019
 40
0.1562500000000019
 40
0.1875000000000024
 40
0.1875000000000024
 40
0.2500000000000024
 40
0.2500000000000024
 40
0.3125000000000025
 40
0.3125000000000025
 40
0.3750000000000026
 40
0.3750000000000026
 40
0.4062500000000026
 40
0.4062500000000026
 40
0.4375000000000026
 40
0.4687500000000026
 40
0.4687500000000026
 40
0.5000000000000026
 40
0.5000000000000026
 40
0.5625000000000027
 40
0.5625000000000027
 40
0.5937500000000027
 40
0.5937500000000027
 40
0.6250000000000027
 40
0.6250000000000027
 40
0.6875000000000028
 40
0.6875000000000028
 40
0.7187500000000028
 40
0.7187500000000028
 40
0.7500000000000028
 40
0.7500000000000028
 40
0.8125000000000022
 40
0.8125000000000022
 40
0.8750000000000016
 40
0.8750000000000016
 40
0.9062500000000012
 40
0.9062500000000012
 40
0.9375000000000009
 40
0.9375000000000009
 40
1.0
 40
1.0
 40
1.0
 40
1.0
 10
43.72579171375823
 20
244.0164444422636
 30
0.0
 10
43.33678799458722
 20
244.0448992315331
 30
0.0
 10
42.91166585395505
 20
244.0736556075156
 30
0.0
 10
41.98640099136541
 20
244.1318181145677
 30
0.0
 10
41.49952777923753
 20
244.1603816489082
 30
0.0
 10
40.73887427406206
 20
244.2021511815842
 30
0.0
 10
40.47997839361479
 20
244.2159087692867
 30
0.0
 10
39.95127434735404
 20
244.2430665350419
 30
0.0
 10
39.68022475013766
 20
244.2565226825583
 30
0.0
 10
38.86711246394486
 20
244.2954835939172
 30
0.0
 10
38.32098917747746
 20
244.3198229996438
 30
0.0
 10
37.22073924003971
 20
244.3650149518543
 30
0.0
 10
36.6623963150269
 20
244.3859745839382
 30
0.0
 10
35.58381688865565
 20
244.4222734438443
 30
0.0
 10
35.05839525221447
 20
244.4378552364179
 30
0.0
 10
34.29145887734861
 20
244.4570823702481
 30
0.0
 10
34.03890780539506
 20
244.462797518347
 30
0.0
 10
33.55202649013535
 20
244.4725459588321
 30
0.0
 10
33.08053247501374
 20
244.4806901134867
 30
0.0
 10
32.63927169818041
 20
244.485637428868
 30
0.0
 10
32.21329430703268
 20
244.4889544743329
 30
0.0
 10
32.00715286056509
 20
244.4897973089685
 30
0.0
 10
31.41808909980288
 20
244.4897771804352
 30
0.0
 10
31.06975766426923
 20
244.4864153501573
 30
0.0
 10
30.6116850592636
 20
244.4765684203366
 30
0.0
 10
30.46980973489076
 20
244.4724806551521
 30
0.0
 10
30.20828309959724
 20
244.4626731381484
 30
0.0
 10
30.08906329651563
 20
244.456953170559
 30
0.0
 10
29.77256405582732
 20
244.4377674956437
 30
0.0
 10
29.61308809333074
 20
244.4221935172671
 30
0.0
 10
29.45113133622058
 20
244.394876386367
 30
0.0
 10
29.40999826663124
 20
244.3850480152625
 30
0.0
 10
29.35550251999647
 20
244.3643686160129
 30
0.0
 10
29.34199624956901
 20
244.3535419475745
 30
0.0
 10
29.34159592284612
 20
244.3196961322289
 30
0.0
 10
29.39443466259018
 20
244.2953252245666
 30
0.0
 10
29.60981124539692
 20
244.2431176804374
 30
0.0
 10
29.77025055210088
 20
244.2158962994646
 30
0.0
 10
30.08403049114698
 20
244.1741259871189
 30
0.0
 10
30.20101875629227
 20
244.1600148547885
 30
0.0
 10
30.46023378262092
 20
244.1314232483184
 30
0.0
 10
30.60338755050974
 20
244.1168611109629
 30
0.0
 10
31.06285416642231
 20
244.07348116904
 30
0.0
 10
31.40957551690849
 20
244.0448351906602
 30
0.0
 10
31.7955995343336
 20
244.0164444422636
 30
0.0
  0
LINE
  5
A5
330
1F
100
AcDbEntity
  8
0
  6
Continuous
 62
     7
370
    15
100
AcDbLine
 10
31.7955995632
 20
244.016444833
 30
0.0
 11
35.6741073264
 21
243.7309329966
 31
0.0
  0
SPLINE
  5
A6
330
1F
100
AcDbEntity
  8
0
  6
Continuous
 62
     7
370
    15
100
AcDbSpline
210
0.0
220
0.0
230
1.0
 70
     8
 71
     3
 72
    49
 73
    45
 74
     0
 42
0.00000001
 43
0.00000001
 12
1.0
 22
0.0
 32
0.0
 13
1.0
 23
0.0
 33
0.0
 40
0.0
 40
0.0
 40
0.0
 40
0.0
 40
0.0624999999999999
 40
0.0624999999999999
 40
0.1249999999999998
 40
0.1249999999999998
 40
0.1562499999999998
 40
0.1562499999999998
 40
0.1874999999999999
 40
0.1874999999999999
 40
0.2500000000000001
 40
0.2500000000000001
 40
0.3125000000000002
 40
0.3125000000000002
 40
0.3750000000000003
 40
0.3750000000000003
 40
0.4062500000000004
 40
0.4062500000000004
 40
0.4375000000000004
 40
0.4687500000000005
 40
0.4687500000000005
 40
0.5000000000000006
 40
0.5000000000000006
 40
0.5625000000000013
 40
0.5625000000000013
 40
0.5937500000000016
 40
0.5937500000000016
 40
0.6250000000000019
 40
0.6250000000000019
 40
0.6875000000000017
 40
0.6875000000000017
 40
0.7187500000000014
 40
0.7187500000000014
 40
0.7500000000000012
 40
0.7500000000000012
 40
0.812500000000001
 40
0.812500000000001
 40
0.8750000000000008
 40
0.8750000000000008
 40
0.9062500000000003
 40
0.9062500000000003
 40
0.9374999999999998
 40
0.9374999999999998
 40
1.0
 40
1.0
 40
1.0
 40
1.0
 10
35.67410638145797
 20
243.7309331070294
 30
0.0
 10
36.06294271622565
 20
243.7022855657243
 30
0.0
 10
36.48838133438888
 20
243.6740984411249
 30
0.0
 10
37.41526984778035
 20
243.6185844315
 30
0.0
 10
37.90360999573313
 20
243.5920541077969
 30
0.0
 10
38.66690369192933
 20
243.554199082924
 30
0.0
 10
38.92678076835445
 20
243.5418898134702
 30
0.0
 10
39.45765397871803
 20
243.5178799930422
 30
0.0
 10
39.72988587270245
 20
243.5061328294656
 30
0.0
 10
40.54665593377852
 20
243.4725072548771
 30
0.0
 10
41.09547584486396
 20
243.4520200963689
 30
0.0
 10
42.20161464145382
 20
243.4146697744201
 30
0.0
 10
42.76301120694402
 20
243.3977336006348
 30
0.0
 10
43.84752056382318
 20
243.3688186090303
 30
0.0
 10
44.37599283135111
 20
243.3566321858337
 30
0.0
 10
45.14760075919227
 20
243.3417248955821
 30
0.0
 10
45.40151525807477
 20
243.3373251652317
 30
0.0
 10
45.89100111295473
 20
243.3298467021181
 30
0.0
 10
46.36507702238843
 20
243.3236281305335
 30
0.0
 10
46.80884978912731
 20
243.3198686949044
 30
0.0
 10
47.2372875434468
 20
243.3173480669017
 30
0.0
 10
47.4447624463242
 20
243.316707842142
 30
0.0
 10
48.03649926549001
 20
243.3167155911138
 30
0.0
 10
48.38647496331921
 20
243.3192444756969
 30
0.0
 10
48.84664773119392
 20
243.326733494543
 30
0.0
 10
48.98916158146064
 20
243.3298506872049
 30
0.0
 10
49.25180356249381
 20
243.3373723304566
 30
0.0
 10
49.37124127707765
 20
243.3417684692805
 30
0.0
 10
49.68835801853233
 20
243.3566159296172
 30
0.0
 10
49.84796251589992
 20
243.3687811185811
 30
0.0
 10
50.0094232504489
 20
243.3905427012964
 30
0.0
 10
50.05025786857337
 20
243.3984361521716
 30
0.0
 10
50.10382816210275
 20
243.4151780046304
 30
0.0
 10
50.11678530384002
 20
243.4240224310655
 30
0.0
 10
50.11521501845144
 20
243.451973785996
 30
0.0
 10
50.06064029471853
 20
243.4724838795353
 30
0.0
 10
49.84047581967602
 20
243.5175879706383
 30
0.0
 10
49.67773265739723
 20
243.5415538470489
 30
0.0
 10
49.35945710804879
 20
243.5794091254277
 30
0.0
 10
49.24084345900024
 20
243.5923615485964
 30
0.0
 10
48.97806352173968
 20
243.6189683605902
 30
0.0
 10
48.83312088515365
 20
243.6326855820837
 30
0.0
 10
48.3684155869712
 20
243.6740838376277
 30
0.0
 10
48.01731263860287
 20
243.7022200865784
 30
0.0
 10
47.62545945968583
 20
243.7309331070294
 30
0.0
  0
LINE
  5
A7
330
1F
100
AcDbEntity
  8
0
  6
Continuous
 62
     7
370
    15
100
AcDbLine
 10
47.6254607273
 20
243.7309329966
 30
0.0
 11
43.7257933153
 21
244.016444833
 31
0.0
  0
SPLINE
  5
A8
330
1F
100
AcDbEntity
  8
0
  6
Continuous
 62
     7
370
    15
100
AcDbSpline
210
0.0
220
0.0
230
1.0
 70
     8
 71
     3
 72
    49
 73
    45
 74
     0
 42
0.00000001
 43
0.00000001
 12
1.0
 22
0.0
 32
0.0
 13
1.0
 23
0.0
 33
0.0
 40
0.0
 40
0.0
 40
0.0
 40
0.0
 40
0.0624999999999998
 40
0.0624999999999998
 40
0.1249999999999996
 40
0.1249999999999996
 40
0.1562499999999994
 40
0.1562499999999994
 40
0.1874999999999993
 40
0.1874999999999993
 40
0.2499999999999999
 40
0.2499999999999999
 40
0.3125000000000004
 40
0.3125000000000004
 40
0.375000000000001
 40
0.375000000000001
 40
0.4062500000000014
 40
0.4062500000000014
 40
0.4375000000000019
 40
0.4687500000000023
 40
0.4687500000000023
 40
0.5000000000000028
 40
0.5000000000000028
 40
0.5625000000000037
 40
0.5625000000000037
 40
0.5937500000000039
 40
0.5937500000000039
 40
0.6250000000000041
 40
0.6250000000000041
 40
0.6875000000000046
 40
0.6875000000000046
 40
0.7187500000000044
 40
0.7187500000000044
 40
0.7500000000000043
 40
0.7500000000000043
 40
0.8125000000000033
 40
0.8125000000000033
 40
0.8750000000000023
 40
0.8750000000000023
 40
0.9062500000000014
 40
0.9062500000000014
 40
0.9375000000000006
 40
0.9375000000000006
 40
1.0
 40
1.0
 40
1.0
 40
1.0
 10
-36.8843813415078
 20
244.0164444422636
 30
0.0
 10
-36.49748657158641
 20
244.0448992315331
 30
0.0
 10
-36.14945030810279
 20
244.0736556075156
 30
0.0
 10
-35.53409150292659
 20
244.1318181145677
 30
0.0
 10
-35.27587250865881
 20
244.1603816489082
 30
0.0
 10
-34.96238088728867
 20
244.2021511815842
 30
0.0
 10
-34.87011465550527
 20
244.2159087692867
 30
0.0
 10
-34.71055167869514
 20
244.2430665350419
 30
0.0
 10
-34.64311767815451
 20
244.2565226825583
 30
0.0
 10
-34.48291797924785
 20
244.2954835939172
 30
0.0
 10
-34.43012763886505
 20
244.3198229996438
 30
0.0
 10
-34.43116712652188
 20
244.3650149518543
 30
0.0
 10
-34.48678654688002
 20
244.3859745839382
 30
0.0
 10
-34.70269644409336
 20
244.4222734438443
 30
0.0
 10
-34.86220204839999
 20
244.4378552364179
 30
0.0
 10
-35.18027609305638
 20
244.4570823702481
 30
0.0
 10
-35.29996220047888
 20
244.462797518347
 30
0.0
 10
-35.56076057933221
 20
244.4725459588321
 30
0.0
 10
-35.84400363771025
 20
244.4806901134867
 30
0.0
 10
-36.17134728006752
 20
244.485637428868
 30
0.0
 10
-36.52098475380745
 20
244.4889544743329
 30
0.0
 10
-36.70775709928718
 20
244.4897973089685
 30
0.0
 10
-37.29728365321833
 20
244.4897771804352
 30
0.0
 10
-37.72276675871689
 20
244.4864153501573
 30
0.0
 10
-38.40812311363628
 20
244.4765684203366
 30
0.0
 10
-38.64448767754112
 20
244.4724806551521
 30
0.0
 10
-39.13347573674195
 20
244.4626731381484
 30
0.0
 10
-39.38568126813627
 20
244.456953170559
 30
0.0
 10
-40.15009496658304
 20
244.4377674956437
 30
0.0
 10
-40.67530149858293
 20
244.4221935172671
 30
0.0
 10
-41.48650530358267
 20
244.394876386367
 30
0.0
 10
-41.76236589761575
 20
244.3850480152625
 30
0.0
 10
-42.3138179529998
 20
244.3643686160129
 30
0.0
 10
-42.58895358806934
 20
244.3535419475745
 30
0.0
 10
-43.41263922377753
 20
244.3196961322289
 30
0.0
 10
-43.95948454180933
 20
244.2953252245666
 30
0.0
 10
-45.0484800100171
 20
244.2431176804374
 30
0.0
 10
-45.57749043830802
 20
244.2158962994646
 30
0.0
 10
-46.33794305789374
 20
244.1741259871189
 30
0.0
 10
-46.5864861044175
 20
244.1600148547885
 30
0.0
 10
-47.07351174836785
 20
244.1314232483184
 30
0.0
 10
-47.31324661479131
 20
244.1168611109629
 30
0.0
 10
-48.00297078357607
 20
244.07348116904
 30
0.0
 10
-48.42644530069766
 20
244.0448351906602
 30
0.0
 10
-48.81457352093235
 20
244.0164444422636
 30
0.0
  0
LINE
  5
A9
330
1F
100
AcDbEntity
  8
0
  6
Continuous
 62
     7
370
    15
100
AcDbLine
 10
-48.8145751225
 20
244.016444833
 30
0.0
 11
-52.7142425345
 21
243.7309329966
 31
0.0
  0
SPLINE
  5
AA
330
1F
100
AcDbEntity
  8
0
  6
Continuous
 62
     7
370
    15
100
AcDbSpline
210
0.0
220
0.0
230
1.0
 70
     8
 71
     3
 72
    49
 73
    45
 74
     0
 42
0.00000001
 43
0.00000001
 12
1.0
 22
0.0
 32
0.0
 13
1.0
 23
0.0
 33
0.0
 40
0.0
 40
0.0
 40
0.0
 40
0.0
 40
0.0625
 40
0.0625
 40
0.1250000000000001
 40
0.1250000000000001
 40
0.1562500000000001
 40
0.1562500000000001
 40
0.1875000000000001
 40
0.1875000000000001
 40
0.2499999999999999
 40
0.2499999999999999
 40
0.3124999999999998
 40
0.3124999999999998
 40
0.3749999999999997
 40
0.3749999999999997
 40
0.4062499999999997
 40
0.4062499999999997
 40
0.4374999999999998
 40
0.4687499999999999
 40
0.4687499999999999
 40
0.4999999999999999
 40
0.4999999999999999
 40
0.5625000000000007
 40
0.5625000000000007
 40
0.593750000000001
 40
0.593750000000001
 40
0.6250000000000014
 40
0.6250000000000014
 40
0.6875000000000017
 40
0.6875000000000017
 40
0.7187500000000017
 40
0.7187500000000017
 40
0.7500000000000017
 40
0.7500000000000017
 40
0.8125000000000018
 40
0.8125000000000018
 40
0.875000000000002
 40
0.875000000000002
 40
0.9062500000000017
 40
0.9062500000000017
 40
0.9375000000000013
 40
0.9375000000000013
 40
1.0
 40
1.0
 40
1.0
 40
1.0
 10
-52.71424126685996
 20
243.7309331070294
 30
0.0
 10
-53.10520083684708
 20
243.7022855657243
 30
0.0
 10
-53.45715747137541
 20
243.674098441125
 30
0.0
 10
-54.08006682489995
 20
243.6185844315
 30
0.0
 10
-54.34189627613962
 20
243.5920541077969
 30
0.0
 10
-54.66021094110211
 20
243.554199082924
 30
0.0
 10
-54.7540050057602
 20
243.5418898134702
 30
0.0
 10
-54.91645493883697
 20
243.5178799930422
 30
0.0
 10
-54.98524813906623
 20
243.5061328294656
 30
0.0
 10
-55.14915673154548
 20
243.4725072548771
 30
0.0
 10
-55.20398380395002
 20
243.4520200963689
 30
0.0
 10
-55.20610295298322
 20
243.4146697744201
 30
0.0
 10
-55.15159898539454
 20
243.3977336006348
 30
0.0
 10
-54.93698162043012
 20
243.3688186090303
 30
0.0
 10
-54.7776487034681
 20
243.3566321858337
 30
0.0
 10
-54.4590112986775
 20
243.3417248955821
 30
0.0
 10
-54.33909026485029
 20
243.3373251652317
 30
0.0
 10
-54.07765137685801
 20
243.3298467021181
 30
0.0
 10
-53.79353891680774
 20
243.3236280991777
 30
0.0
 10
-53.46483886700062
 20
243.3198686949044
 30
0.0
 10
-53.11357573017325
 20
243.3173480669017
 30
0.0
 10
-52.92571760707091
 20
243.316707842142
 30
0.0
 10
-52.33374341478239
 20
243.3167155911138
 30
0.0
 10
-51.90622453712847
 20
243.3192444756969
 30
0.0
 10
-51.21710612465789
 20
243.326733494543
 30
0.0
 10
-50.97936859810387
 20
243.3298506872049
 30
0.0
 10
-50.48736450726779
 20
243.3373723304566
 30
0.0
 10
-50.23404579622504
 20
243.3417684692805
 30
0.0
 10
-49.46577940432558
 20
243.3566159296172
 30
0.0
 10
-48.93766602689904
 20
243.3687811185811
 30
0.0
 10
-48.12152204793045
 20
243.3905427012964
 30
0.0
 10
-47.84387449532657
 20
243.3984361521716
 30
0.0
 10
-47.28988007759033
 20
243.4151780046304
 30
0.0
 10
-47.01342087828964
 20
243.4240224310655
 30
0.0
 10
-46.18561792403007
 20
243.451973785996
 30
0.0
 10
-45.63583341781477
 20
243.4724838795353
 30
0.0
 10
-44.54059361472657
 20
243.5175879706382
 30
0.0
 10
-44.01069208830662
 20
243.5415538470489
 30
0.0
 10
-43.24734369856193
 20
243.5794091254277
 30
0.0
 10
-42.99783725257399
 20
243.5923615485964
 30
0.0
 10
-42.50891233361909
 20
243.6189683605902
 30
0.0
 10
-42.26853436232086
 20
243.6326855820837
 30
0.0
 10
-41.57756363505961
 20
243.6740838376277
 30
0.0
 10
-41.15261327929103
 20
243.7022200865784
 30
0.0
 10
-40.76288818863219
 20
243.7309331070294
 30
0.0
  0
LINE
  5
AB
330
1F
100
AcDbEntity
  8
0
  6
Continuous
 62
     7
370
    15
100
AcDbLine
 10
-40.7628891336
 20
243.7309329966
 30
0.0
 11
-36.8843813704
 21
244.016444833
 31
0.0
  0
LINE
  5
AC
330
1F
100
AcDbEntity
  8
0
  6
Continuous
 62
     7
370
    15
100
AcDbLine
 10
-6.8122548329
 20
237.7125849584
 30
0.0
 11
1.7234730257
 21
237.7125849584
 31
0.0
  0
LINE
  5
AD
330
1F
100
AcDbEntity
  8
0
  6
Continuous
 62
     7
370
    15
100
AcDbLine
 10
-24.5505635904
 20
227.7125847163
 30
0.0
 11
-19.1920799481
 21
227.7125847163
 31
0.0
  0
LINE
  5
AE
330
1F
100
AcDbEntity
  8
0
  6
Continuous
 62
     7
370
    15
100
AcDbLine
 10
-19.1920799481
 20
237.7125849584
 30
0.0
 11
-6.8122548329
 21
237.7125849584
 31
0.0
  0
LINE
  5
AF
330
1F
100
AcDbEntity
  8
0
  6
Continuous
 62
     7
370
    15
100
AcDbLine
 10
14.1032981409
 20
227.7125847163
 30
0.0
 11
19.4617817832
 21
227.7125847163
 31
0.0
  0
LINE
  5
B0
330
1F
100
AcDbEntity
  8
0
  6
Continuous
 62
     7
370
    15
100
AcDbLine
 10
1.7234730257
 20
237.7125849584
 30
0.0
 11
14.1032981409
 21
237.7125849584
 31
0.0
  0
LINE
  5
B1
330
1F
100
AcDbEntity
  8
0
  6
Continuous
 62
     7
370
    15
100
AcDbLine
 10
11.5698157532
 20
236.5866131717
 30
0.0
 11
-16.6585975604
 21
236.5866131717
 31
0.0
  0
LINE
  5
B2
330
1F
100
AcDbEntity
  8
0
  6
Continuous
 62
     7
370
    15
100
AcDbLine
 10
-16.6585975604
 20
227.7125847163
 30
0.0
 11
-19.1920799481
 21
227.7125847163
 31
0.0
  0
LINE
  5
B3
330
1F
100
AcDbEntity
  8
0
  6
Continuous
 62
     7
370
    15
100
AcDbLine
 10
14.1032981409
 20
227.7125847163
 30
0.0
 11
11.5698157532
 21
227.7125847163
 31
0.0
  0
LINE
  5
B4
330
1F
100
AcDbEntity
  8
0
  6
Continuous
 62
     7
370
    15
100
AcDbLine
 10
9.4656088112
 20
353.8054139922
 30
0.0
 11
-14.5343904661
 21
353.8054139922
 31
0.0
  0
LINE
  5
B5
330
1F
100
AcDbEntity
  8
0
  6
Continuous
 62
     7
370
    15
100
AcDbLine
 10
-60.8807009922
 20
230.7125847424
 30
0.0
 11
-82.0552584993
 21
230.7125847424
 31
0.0
  0
LINE
  5
B6
330
1F
100
AcDbEntity
  8
0
  6
Continuous
 62
     7
370
    15
100
AcDbLine
 10
-60.8807009922
 20
227.7125847163
 30
0.0
 11
-24.5505635904
 21
227.7125847163
 31
0.0
  0
LINE
  5
B7
330
1F
100
AcDbEntity
  8
0
  6
Continuous
 62
     7
370
    15
100
AcDbLine
 10
55.791919185
 20
230.7125847424
 30
0.0
 11
76.9664766921
 21
230.7125847424
 31
0.0
  0
LINE
  5
B8
330
1F
100
AcDbEntity
  8
0
  6
Continuous
 62
     7
370
    15
100
AcDbLine
 10
55.791919185
 20
227.7125847163
 30
0.0
 11
19.4617817832
 21
227.7125847163
 31
0.0
  0
LINE
  5
B9
330
1F
100
AcDbEntity
  8
0
  6
Continuous
 62
     7
370
    15
100
AcDbLine
 10
-11.8190813156
 20
322.2125829766
 30
0.0
 11
-17.2817389758
 21
322.2125829766
 31
0.0
  0
LINE
  5
BA
330
1F
100
AcDbEntity
  8
0
  6
Continuous
 62
     7
370
    15
100
AcDbLine
 10
-17.2817389758
 20
322.2125829766
 30
0.0
 11
-18.5443916635
 21
346.3054136941
 31
0.0
  0
LINE
  5
BB
330
1F
100
AcDbEntity
  8
0
  6
Continuous
 62
     7
370
    15
100
AcDbLine
 10
-11.8190813156
 20
322.2125829766
 30
0.0
 11
-10.5564295592
 21
346.3054136941
 31
0.0
  0
LINE
  5
BC
330
1F
100
AcDbEntity
  8
0
  6
Continuous
 62
     7
370
    15
100
AcDbLine
 10
12.1929571686
 20
322.2125829766
 30
0.0
 11
6.7302995084
 21
322.2125829766
 31
0.0
  0
LINE
  5
BD
330
1F
100
AcDbEntity
  8
0
  6
Continuous
 62
     7
370
    15
100
AcDbLine
 10
13.4556098564
 20
346.3054136941
 30
0.0
 11
12.1929571686
 21
322.2125829766
 31
0.0
  0
LINE
  5
BE
330
1F
100
AcDbEntity
  8
0
  6
Continuous
 62
     7
370
    15
100
AcDbLine
 10
5.467647752
 20
346.3054136941
 30
0.0
 11
6.7302995084
 21
322.2125829766
 31
0.0
  0
LINE
  5
BF
330
1F
100
AcDbEntity
  8
0
  6
Continuous
 62
     7
370
    15
100
AcDbLine
 10
2.950436501
 20
363.8054193566
 30
0.0
 11
2.950436501
 21
353.8054139922
 31
0.0
  0
LINE
  5
C0
330
1F
100
AcDbEntity
  8
0
  6
Continuous
 62
     7
370
    15
100
AcDbLine
 10
2.950436501
 20
363.8054193566
 30
0.0
 11
8.4352642952
 21
363.8054193566
 31
0.0
  0
LINE
  5
C1
330
1F
100
AcDbEntity
  8
0
  6
Continuous
 62
     7
370
    15
100
AcDbLine
 10
8.4352642952
 20
363.8054193566
 30
0.0
 11
8.4352642952
 21
353.8054139922
 31
0.0
  0
LINE
  5
C2
330
1F
100
AcDbEntity
  8
0
  6
Continuous
 62
     7
370
    15
100
AcDbLine
 10
-13.50404595
 20
363.8054193566
 30
0.0
 11
-13.50404595
 21
353.8054139922
 31
0.0
  0
LINE
  5
C3
330
1F
100
AcDbEntity
  8
0
  6
Continuous
 62
     7
370
    15
100
AcDbLine
 10
-13.50404595
 20
363.8054193566
 30
0.0
 11
-8.0192186216
 21
363.8054193566
 31
0.0
  0
LINE
  5
C4
330
1F
100
AcDbEntity
  8
0
  6
Continuous
 62
     7
370
    15
100
AcDbLine
 10
-8.0192186216
 20
363.8054193566
 30
0.0
 11
-8.0192186216
 21
353.8054139922
 31
0.0
  0
LINE
  5
C5
330
1F
100
AcDbEntity
  8
0
  6
Continuous
 62
     7
370
    15
100
AcDbLine
 10
-8.0192186216
 20
363.8054193566
 30
0.0
 11
2.950436501
 21
363.8054193566
 31
0.0
  0
LINE
  5
C6
330
1F
100
AcDbEntity
  8
0
  6
Continuous
 62
     7
370
    15
100
AcDbLine
 10
5.4656090869
 20
371.2154091904
 30
0.0
 11
-10.5343907418
 21
371.2154091904
 31
0.0
  0
LINE
  5
C7
330
1F
100
AcDbEntity
  8
0
  6
Continuous
 62
     7
370
    15
100
AcDbLine
 10
5.4656090869
 20
370.7154156277
 30
0.0
 11
-10.5343907418
 21
370.7154156277
 31
0.0
  0
LINE
  5
C8
330
1F
100
AcDbEntity
  8
0
  6
Continuous
 62
     7
370
    15
100
AcDbLine
 10
4.0906090943
 20
246.5154142687
 30
0.0
 11
4.0906090943
 21
243.057141603
 31
0.0
  0
LINE
  5
C9
330
1F
100
AcDbEntity
  8
0
  6
Continuous
 62
     7
370
    15
100
AcDbLine
 10
-9.1593907492
 20
246.5154142687
 30
0.0
 11
-9.1593907492
 21
243.0572328726
 31
0.0
  0
LINE
  5
CA
330
1F
100
AcDbEntity
  8
0
  6
Continuous
 62
     7
370
    15
100
AcDbLine
 10
-9.1593907492
 20
246.5154142687
 30
0.0
 11
4.0906090943
 21
246.5154142687
 31
0.0
  0
LINE
  5
CB
330
1F
100
AcDbEntity
  8
0
  6
Continuous
 62
     7
370
    15
100
AcDbLine
 10
3.9656093067
 20
382.7154101441
 30
0.0
 11
-9.0343909616
 21
382.7154101441
 31
0.0
  0
LINE
  5
CC
330
1F
100
AcDbEntity
  8
0
  6
Continuous
 62
     7
370
    15
100
AcDbLine
 10
25.4270984514
 20
227.7125847163
 30
0.0
 11
25.4270984514
 21
226.7125845524
 31
0.0
  0
LINE
  5
CD
330
1F
100
AcDbEntity
  8
0
  6
Continuous
 62
     7
370
    15
100
AcDbLine
 10
25.4270984514
 20
226.7125845524
 30
0.0
 11
61.6497817172
 21
226.7125845524
 31
0.0
  0
LINE
  5
CE
330
1F
100
AcDbEntity
  8
0
  6
Continuous
 62
     7
370
    15
100
AcDbLine
 10
-30.5158802586
 20
227.7125847163
 30
0.0
 11
-30.5158802586
 21
226.7125845524
 31
0.0
  0
LINE
  5
CF
330
1F
100
AcDbEntity
  8
0
  6
Continuous
 62
     7
370
    15
100
AcDbLine
 10
-66.7385635244
 20
226.7125845524
 30
0.0
 11
-30.5158802586
 21
226.7125845524
 31
0.0
  0
LINE
  5
D0
330
1F
100
AcDbEntity
  8
0
  6
Continuous
 62
     7
370
    15
100
AcDbLine
 10
25.4270984514
 20
226.7125845524
 30
0.0
 11
25.3742626591
 21
227.7125847163
 31
0.0
  0
LINE
  5
D1
330
1F
100
AcDbEntity
  8
0
  6
Continuous
 62
     7
370
    15
100
AcDbLine
 10
24.8691281958
 20
226.7125845524
 30
0.0
 11
25.4270984514
 21
226.7125845524
 31
0.0
  0
LINE
  5
D2
330
1F
100
AcDbEntity
  8
0
  6
Continuous
 62
     7
370
    15
100
AcDbLine
 10
-30.5158802586
 20
226.7125845524
 30
0.0
 11
-30.4630444663
 21
227.7125847163
 31
0.0
  0
LINE
  5
D3
330
1F
100
AcDbEntity
  8
0
  6
Continuous
 62
     7
370
    15
100
AcDbLine
 10
-30.5158802586
 20
226.7125845524
 30
0.0
 11
-29.9579100029
 21
226.7125845524
 31
0.0
  0
LINE
  5
D4
330
1F
100
AcDbEntity
  8
0
  6
Continuous
 62
     7
370
    15
100
AcDbLine
 10
-11.8190813156
 20
322.2125829766
 30
0.0
 11
-8.5343908796
 21
322.2125829766
 31
0.0
  0
LINE
  5
D5
330
1F
100
AcDbEntity
  8
0
  6
Continuous
 62
     7
370
    15
100
AcDbLine
 10
3.4656092247
 20
322.2125829766
 30
0.0
 11
6.7302995084
 21
322.2125829766
 31
0.0
  0
SPLINE
  5
D6
330
1F
100
AcDbEntity
  8
0
  6
Continuous
 62
     7
370
    15
100
AcDbSpline
210
0.0
220
0.0
230
1.0
 70
     8
 71
     3
 72
     8
 73
     4
 74
     0
 42
0.00000001
 43
0.00000001
 12
1.0
 22
0.0
 32
0.0
 13
1.0
 23
0.0
 33
0.0
 40
0.0000002004362731
 40
0.0000002004362731
 40
0.0000002004362731
 40
0.0000002004362731
 40
0.0204532522125208
 40
0.0204532522125208
 40
0.0204532522125208
 40
0.0204532522125208
 10
-58.26363919722082
 20
324.5817446356813
 30
0.0
 10
-58.53753282226554
 20
331.3845887824309
 30
0.0
 10
-58.80941071401111
 20
338.1875141368537
 30
0.0
 10
-59.0793586831043
 20
344.9905155641134
 30
0.0
  0
LINE
  5
D7
330
1F
100
AcDbEntity
  8
0
  6
Continuous
 62
     7
370
    15
100
AcDbLine
 10
-59.0793592201
 20
344.9905128786
 30
0.0
 11
-18.475479381
 21
344.9905128786
 31
0.0
  0
LINE
  5
D8
330
1F
100
AcDbEntity
  8
0
  6
Continuous
 62
     7
370
    15
100
AcDbLine
 10
13.4556098564
 20
350.5362333367
 30
0.0
 11
37.9061969651
 21
350.5362333367
 31
0.0
  0
SPLINE
  5
D9
330
1F
100
AcDbEntity
  8
0
  6
Continuous
 62
     7
370
    15
100
AcDbSpline
210
0.0
220
0.0
230
1.0
 70
     8
 71
     3
 72
     8
 73
     4
 74
     0
 42
0.00000001
 43
0.00000001
 12
1.0
 22
0.0
 32
0.0
 13
1.0
 23
0.0
 33
0.0
 40
0.0
 40
0.0
 40
0.0
 40
0.0
 40
1.0
 40
1.0
 40
1.0
 40
1.0
 10
50.20655961363434
 20
346.3054133733194
 30
0.0
 10
46.11123355281286
 20
347.7318201374732
 30
0.0
 10
42.01240991850118
 20
349.1464576482161
 30
0.0
 10
37.90619623677486
 20
350.5362278213645
 30
0.0
  0
SPLINE
  5
DA
330
1F
100
AcDbEntity
  8
0
  6
Continuous
 62
     7
370
    15
100
AcDbSpline
210
0.0
220
0.0
230
1.0
 70
     8
 71
     3
 72
     8
 73
     4
 74
     0
 42
0.00000001
 43
0.00000001
 12
1.0
 22
0.0
 32
0.0
 13
1.0
 23
0.0
 33
0.0
 40
0.000000611142159
 40
0.000000611142159
 40
0.000000611142159
 40
0.000000611142159
 40
0.0040071672192144
 40
0.0040071672192144
 40
0.0040071672192144
 40
0.0040071672192144
 10
50.20655961363434
 20
346.3054133733194
 30
0.0
 10
51.4683310009235
 20
345.8683567440964
 30
0.0
 10
52.72964449175324
 20
345.4299803022932
 30
0.0
 10
53.99057687593064
 20
344.9905155641134
 30
0.0
  0
LINE
  5
DB
330
1F
100
AcDbEntity
  8
0
  6
Continuous
 62
     7
370
    15
100
AcDbLine
 10
13.3866975738
 20
344.9905128786
 30
0.0
 11
53.990577413
 21
344.9905128786
 31
0.0
  0
SPLINE
  5
DC
330
1F
100
AcDbEntity
  8
0
  6
Continuous
 62
     7
370
    15
100
AcDbSpline
210
0.0
220
0.0
230
1.0
 70
     8
 71
     3
 72
     8
 73
     4
 74
     0
 42
0.00000001
 43
0.00000001
 12
1.0
 22
0.0
 32
0.0
 13
1.0
 23
0.0
 33
0.0
 40
0.0000002004316394
 40
0.0000002004316394
 40
0.0000002004316394
 40
0.0000002004316394
 40
0.020453252207887
 40
0.020453252207887
 40
0.020453252207887
 40
0.020453252207887
 10
53.99057687593065
 20
344.9905155641134
 30
0.0
 10
53.72062890683746
 20
338.1875141368537
 30
0.0
 10
53.44875101509188
 20
331.3845887824309
 30
0.0
 10
53.17485739004716
 20
324.5817446356813
 30
0.0
  0
SPLINE
  5
DD
330
1F
100
AcDbEntity
  8
0
  6
Continuous
 62
     7
370
    15
100
AcDbSpline
210
0.0
220
0.0
230
1.0
 70
     8
 71
     3
 72
     8
 73
     4
 74
     0
 42
0.00000001
 43
0.00000001
 12
1.0
 22
0.0
 32
0.0
 13
1.0
 23
0.0
 33
0.0
 40
0.0000006077928445
 40
0.0000006077928445
 40
0.0000006077928445
 40
0.0000006077928445
 40
0.0040071638698999
 40
0.0040071638698999
 40
0.0040071638698999
 40
0.0040071638698999
 10
-59.07935868310429
 20
344.9905155641134
 30
0.0
 10
-57.81842629892689
 20
345.4299803022932
 30
0.0
 10
-56.55711280809714
 20
345.8683567440964
 30
0.0
 10
-55.29534142080799
 20
346.3054133733194
 30
0.0
  0
SPLINE
  5
DE
330
1F
100
AcDbEntity
  8
0
  6
Continuous
 62
     7
370
    15
100
AcDbSpline
210
0.0
220
0.0
230
1.0
 70
     8
 71
     3
 72
     8
 73
     4
 74
     0
 42
0.00000001
 43
0.00000001
 12
1.0
 22
0.0
 32
0.0
 13
1.0
 23
0.0
 33
0.0
 40
0.0
 40
0.0
 40
0.0
 40
0.0
 40
1.0
 40
1.0
 40
1.0
 40
1.0
 10
-42.99497804394852
 20
350.5362278213644
 30
0.0
 10
-47.10193754818641
 20
349.1462052205634
 30
0.0
 10
-51.20078880435903
 20
347.7315507459112
 30
0.0
 10
-55.29534142080799
 20
346.3054133733194
 30
0.0
  0
LINE
  5
DF
330
1F
100
AcDbEntity
  8
0
  6
Continuous
 62
     7
370
    15
100
AcDbLine
 10
-42.9949787723
 20
350.5362333367
 30
0.0
 11
-18.5443916635
 21
350.5362333367
 31
0.0
  0
SPLINE
  5
E0
330
1F
100
AcDbEntity
  8
0
  6
Continuous
 62
     7
370
    15
100
AcDbSpline
210
0.0
220
0.0
230
1.0
 70
     8
 71
     3
 72
    20
 73
    16
 74
     0
 42
0.00000001
 43
0.00000001
 12
1.0
 22
0.0
 32
0.0
 13
1.0
 23
0.0
 33
0.0
 40
0.0
 40
0.0
 40
0.0
 40
0.0
 40
0.2499999999999992
 40
0.2499999999999992
 40
0.3749999999999993
 40
0.3749999999999993
 40
0.4999999999999994
 40
0.4999999999999994
 40
0.6249999999999996
 40
0.6249999999999996
 40
0.7499999999999997
 40
0.7499999999999997
 40
0.8749999999999999
 40
0.8749999999999999
 40
1.0
 40
1.0
 40
1.0
 40
1.0
 10
-55.71018843521909
 20
322.2125845262887
 30
0.0
 10
-56.02956714003792
 20
322.2125845262887
 30
0.0
 10
-56.35311513377484
 20
322.2709532982743
 30
0.0
 10
-56.8009566822416
 20
322.4407737059378
 30
0.0
 10
-56.94683368813684
 20
322.5119787003528
 30
0.0
 10
-57.22141768049359
 20
322.6800326160198
 30
0.0
 10
-57.34910938091921
 20
322.7758638138359
 30
0.0
 10
-57.58530789255796
 20
322.9911153823571
 30
0.0
 10
-57.69480871612673
 20
323.1121130920181
 30
0.0
 10
-57.88550329049935
 20
323.3698922989986
 30
0.0
 10
-57.96741877012568
 20
323.5067985361375
 30
0.0
 10
-58.10403289100675
 20
323.7968550953108
 30
0.0
 10
-58.15847786455306
 20
323.9506472511258
 30
0.0
 10
-58.23456680735292
 20
324.2613876814435
 30
0.0
 10
-58.257124096936
 20
324.4199255651172
 30
0.0
 10
-58.26363919722081
 20
324.5817446356813
 30
0.0
  0
LINE
  5
E1
330
1F
100
AcDbEntity
  8
0
  6
Continuous
 62
     7
370
    15
100
AcDbLine
 10
-55.7101880478
 20
322.2125829766
 30
0.0
 11
-17.2817389758
 21
322.2125829766
 31
0.0
  0
SPLINE
  5
E2
330
1F
100
AcDbEntity
  8
0
  6
Continuous
 62
     7
370
    15
100
AcDbSpline
210
0.0
220
0.0
230
1.0
 70
     8
 71
     3
 72
    18
 73
    14
 74
     0
 42
0.00000001
 43
0.00000001
 12
1.0
 22
0.0
 32
0.0
 13
1.0
 23
0.0
 33
0.0
 40
0.0
 40
0.0
 40
0.0
 40
0.0
 40
0.1250000000000008
 40
0.1250000000000008
 40
0.2500000000000017
 40
0.2500000000000017
 40
0.3750000000000025
 40
0.3750000000000025
 40
0.5000000000000033
 40
0.5000000000000033
 40
0.7500000000000017
 40
0.7500000000000017
 40
1.0
 40
1.0
 40
1.0
 40
1.0
 10
53.17485739004716
 20
324.5817446356813
 30
0.0
 10
53.16834604754553
 20
324.4200188992115
 30
0.0
 10
53.14581618003136
 20
324.2616905439779
 30
0.0
 10
53.06996352500035
 20
323.951564727494
 30
0.0
 10
53.01577259265451
 20
323.7981424645721
 30
0.0
 10
52.8790979884561
 20
323.5075985549747
 30
0.0
 10
52.79716244261593
 20
323.3705796554589
 30
0.0
 10
52.60657161339157
 20
323.1127586175984
 30
0.0
 10
52.49721039895326
 20
322.9918110340063
 30
0.0
 10
52.14270033604376
 20
322.6685246958196
 30
0.0
 10
51.86202079825951
 20
322.4976353963149
 30
0.0
 10
51.26434556672336
 20
322.2709174919358
 30
0.0
 10
50.94120532373227
 20
322.2125845262887
 30
0.0
 10
50.6214066280454
 20
322.2125845262887
 30
0.0
  0
LINE
  5
E3
330
1F
100
AcDbEntity
  8
0
  6
Continuous
 62
     7
370
    15
100
AcDbLine
 10
12.1929571686
 20
322.2125829766
 30
0.0
 11
50.6214062406
 21
322.2125829766
 31
0.0
  0
LINE
  5
E4
330
1F
100
AcDbEntity
  8
0
  6
Continuous
 62
     7
370
    15
100
AcDbLine
 10
11.5485229252
 20
226.7125845524
 30
0.0
 11
24.8691281958
 21
226.7125845524
 31
0.0
  0
LINE
  5
E5
330
1F
100
AcDbEntity
  8
0
  6
Continuous
 62
     7
370
    15
100
AcDbLine
 10
-29.9579100029
 20
226.7125845524
 30
0.0
 11
-16.6373047324
 21
226.7125845524
 31
0.0
  0
SPLINE
  5
E6
330
1F
100
AcDbEntity
  8
0
  6
Continuous
 62
     7
370
    15
100
AcDbSpline
210
0.0
220
0.0
230
1.0
 70
     8
 71
     3
 72
    21
 73
    17
 74
     0
 42
0.00000001
 43
0.00000001
 12
1.0
 22
0.0
 32
0.0
 13
1.0
 23
0.0
 33
0.0
 40
0.0
 40
0.0
 40
0.0
 40
0.0
 40
0.1223432571200016
 40
0.3287811584652891
 40
0.4115660619266136
 40
0.4945439805563241
 40
0.5774363380682735
 40
0.6601118556711941
 40
0.7426426016217507
 40
0.7968678166333684
 40
0.8510233336118057
 40
0.8881641884754551
 40
0.9252257915450777
 40
0.9502542226665561
 40
0.9752471569614971
 40
1.0
 40
1.0
 40
1.0
 40
1.0
 10
-0.1362750118472076
 20
231.0477179112019
 30
0.0
 10
-0.1921531179511974
 20
230.8446049542187
 30
0.0
 10
-0.3423180627972877
 20
230.2987660181934
 30
0.0
 10
-0.5646010944267139
 20
229.625479320279
 30
0.0
 10
-0.7809413646265955
 20
229.0222431804032
 30
0.0
 10
-0.9362710273359736
 20
228.6231814373191
 30
0.0
 10
-1.107895068732792
 20
228.2309542832762
 30
0.0
 10
-1.300972229777939
 20
227.8495678259844
 30
0.0
 10
-1.494872326201208
 20
227.5247731763999
 30
0.0
 10
-1.684255030661804
 20
227.2556813693702
 30
0.0
 10
-1.849005343472207
 20
227.0659055622084
 30
0.0
 10
-2.013070574657279
 20
226.917131050678
 30
0.0
 10
-2.155063031290253
 20
226.8202763710416
 30
0.0
 10
-2.291439231971523
 20
226.757018492275
 30
0.0
 10
-2.415840205437962
 20
226.7197283020096
 30
0.0
 10
-2.501678766934015
 20
226.7149581280475
 30
0.0
 10
-2.544390903586752
 20
226.7125845523657
 30
0.0
  0
SPLINE
  5
E7
330
1F
100
AcDbEntity
  8
0
  6
Continuous
 62
     7
370
    15
100
AcDbSpline
210
0.0
220
0.0
230
1.0
 70
     8
 71
     3
 72
    22
 73
    18
 74
     0
 42
0.00000001
 43
0.00000001
 12
1.0
 22
0.0
 32
0.0
 13
1.0
 23
0.0
 33
0.0
 40
0.0
 40
0.0
 40
0.0
 40
0.0
 40
0.0257237758230423
 40
0.047898345482213
 40
0.0700950882359064
 40
0.1088915911112672
 40
0.147788604185657
 40
0.1995958218731424
 40
0.2516050271464813
 40
0.30378511162021
 40
0.3558262288147633
 40
0.460463723992929
 40
0.5652308748681402
 40
0.6701073175039259
 40
0.774894227722116
 40
0.9877324701297142
 40
1.0
 40
1.0
 40
1.0
 40
1.0
 10
-2.544390903586752
 20
226.7125845523657
 30
0.0
 10
-2.588771724151845
 20
226.7151256509793
 30
0.0
 10
-2.671409976437759
 20
226.7198572432673
 30
0.0
 10
-2.787991354643879
 20
226.7542221600609
 30
0.0
 10
-2.919291086944285
 20
226.8120497281344
 30
0.0
 10
-3.063947042660117
 20
226.9072123222975
 30
0.0
 10
-3.230229271378322
 20
227.0564342120668
 30
0.0
 10
-3.393511022300034
 20
227.2407993315371
 30
0.0
 10
-3.551192577337609
 20
227.4585865258966
 30
0.0
 10
-3.692088745827704
 20
227.6878944057854
 30
0.0
 10
-3.864433170974398
 20
228.0035239303328
 30
0.0
 10
-4.060181912589491
 20
228.4091309497575
 30
0.0
 10
-4.267140720643503
 20
228.9091854476984
 30
0.0
 10
-4.452786641089062
 20
229.4177217880547
 30
0.0
 10
-4.680742573288967
 20
230.1082862497594
 30
0.0
 10
-4.848987146942758
 20
230.6510000136541
 30
0.0
 10
-4.94730700860809
 20
231.0257740319798
 30
0.0
 10
-4.952665120164346
 20
231.0461979927601
 30
0.0
  0
LINE
  5
E8
330
1F
100
AcDbEntity
  8
0
  6
Continuous
 62
     7
370
    15
100
AcDbLine
 10
11.5485229252
 20
226.7125845524
 30
0.0
 11
-2.5443909036
 21
226.7125845524
 31
0.0
  0
LINE
  5
E9
330
1F
100
AcDbEntity
  8
0
  6
Continuous
 62
     7
370
    15
100
AcDbLine
 10
-2.5443909036
 20
226.7125845524
 30
0.0
 11
-16.6373047324
 21
226.7125845524
 31
0.0
  0
SPLINE
  5
EA
330
1F
100
AcDbEntity
  8
0
  6
Continuous
 62
     7
370
    15
100
AcDbSpline
210
0.0
220
0.0
230
1.0
 70
     8
 71
     3
 72
    10
 73
     6
 74
     0
 42
0.00000001
 43
0.00000001
 12
1.0
 22
0.0
 32
0.0
 13
1.0
 23
0.0
 33
0.0
 40
0.0
 40
0.0
 40
0.0
 40
0.0
 40
0.5
 40
0.5
 40
1.0
 40
1.0
 40
1.0
 40
1.0
 10
28.5225569817421
 20
226.7125845262887
 30
0.0
 10
28.40219723746757
 20
226.1575175122424
 30
0.0
 10
28.34074718480085
 20
225.6257206115834
 30
0.0
 10
28.35175411641589
 20
224.6195837398338
 30
0.0
 10
28.42312756711977
 20
224.1446619914473
 30
0.0
 10
28.58596720612565
 20
223.7125845262887
 30
0.0
  0
LINE
  5
EB
330
1F
100
AcDbEntity
  8
0
  6
Continuous
 62
     7
370
    15
100
AcDbLine
 10
28.5859676732
 20
223.7125845263
 30
0.0
 11
-33.6747494804
 21
223.7125845263
 31
0.0
  0
SPLINE
  5
EC
330
1F
100
AcDbEntity
  8
0
  6
Continuous
 62
     7
370
    15
100
AcDbSpline
210
0.0
220
0.0
230
1.0
 70
     8
 71
     3
 72
    10
 73
     6
 74
     0
 42
0.00000001
 43
0.00000001
 12
1.0
 22
0.0
 32
0.0
 13
1.0
 23
0.0
 33
0.0
 40
0.0
 40
0.0
 40
0.0
 40
0.0
 40
0.5
 40
0.5
 40
1.0
 40
1.0
 40
1.0
 40
1.0
 10
-33.67474901329979
 20
223.7125845262887
 30
0.0
 10
-33.51190937429391
 20
224.1446619914473
 30
0.0
 10
-33.44053592359005
 20
224.6195837398338
 30
0.0
 10
-33.429528991975
 20
225.6257206115834
 30
0.0
 10
-33.49097904464174
 20
226.1575175122424
 30
0.0
 10
-33.61133878891626
 20
226.7125845262887
 30
0.0
  0
SPLINE
  5
ED
330
1F
100
AcDbEntity
  8
0
  6
Continuous
 62
     7
370
    15
100
AcDbSpline
210
0.0
220
0.0
230
1.0
 70
     8
 71
     3
 72
    12
 73
     8
 74
     0
 42
0.00000001
 43
0.00000001
 12
1.0
 22
0.0
 32
0.0
 13
1.0
 23
0.0
 33
0.0
 40
0.0
 40
0.0
 40
0.0
 40
0.0
 40
0.25
 40
0.25
 40
0.5
 40
0.5
 40
1.0
 40
1.0
 40
1.0
 40
1.0
 10
-9.269037354701299
 20
244.4983172771603
 30
0.0
 10
-9.821718459284224
 20
245.8885916702673
 30
0.0
 10
-10.30771824334733
 20
247.2970213440287
 30
0.0
 10
-11.2029540234884
 20
250.1348438725664
 30
0.0
 10
-11.61104564301447
 20
251.5645470877723
 30
0.0
 10
-12.75506647729424
 20
255.8756417562882
 30
0.0
 10
-13.41225243880809
 20
258.7786086309328
 30
0.0
 10
-14.00881009481603
 20
261.6983172771607
 30
0.0
  0
SPLINE
  5
EE
330
1F
100
AcDbEntity
  8
0
  6
Continuous
 62
     7
370
    15
100
AcDbSpline
210
0.0
220
0.0
230
1.0
 70
     8
 71
     3
 72
    12
 73
     8
 74
     0
 42
0.00000001
 43
0.00000001
 12
1.0
 22
0.0
 32
0.0
 13
1.0
 23
0.0
 33
0.0
 40
0.0
 40
0.0
 40
0.0
 40
0.0
 40
0.25
 40
0.25
 40
0.5
 40
0.5
 40
1.0
 40
1.0
 40
1.0
 40
1.0
 10
45.41262046634685
 20
244.4983172771603
 30
0.0
 10
45.2369536406527
 20
245.8885916702673
 30
0.0
 10
45.05952371012077
 20
247.2970213440287
 30
0.0
 10
44.70313704815813
 20
250.1348438725664
 30
0.0
 10
44.52414029578466
 20
251.5645470877723
 30
0.0
 10
43.98610439947237
 20
255.8756417562882
 30
0.0
 10
43.62607346707495
 20
258.7786086309328
 30
0.0
 10
43.26631904127777
 20
261.6983172771607
 30
0.0
  0
LINE
  5
EF
330
1F
100
AcDbEntity
  8
0
  6
Continuous
 62
     7
370
    15
100
AcDbLine
 10
8.9200279398
 20
261.6983154426
 30
0.0
 11
43.2663197352
 21
261.6983154426
 31
0.0
  0
SPLINE
  5
F0
330
1F
100
AcDbEntity
  8
0
  6
Continuous
 62
     7
370
    15
100
AcDbSpline
210
0.0
220
0.0
230
1.0
 70
     8
 71
     3
 72
    12
 73
     8
 74
     0
 42
0.00000001
 43
0.00000001
 12
1.0
 22
0.0
 32
0.0
 13
1.0
 23
0.0
 33
0.0
 40
0.0
 40
0.0
 40
0.0
 40
0.0
 40
0.4999999999999997
 40
0.4999999999999997
 40
0.7499999999999998
 40
0.7499999999999998
 40
1.0
 40
1.0
 40
1.0
 40
1.0
 10
8.920028287640058
 20
261.6983172771607
 30
0.0
 10
8.323470631632103
 20
258.7786086309328
 30
0.0
 10
7.66628467011826
 20
255.8756417562882
 30
0.0
 10
6.522263835838462
 20
251.5645470877723
 30
0.0
 10
6.114172216312354
 20
250.1348438725664
 30
0.0
 10
5.218936436171261
 20
247.2970213440287
 30
0.0
 10
4.732936652108153
 20
245.8885916702673
 30
0.0
 10
4.180255547525217
 20
244.4983172771603
 30
0.0
  0
LINE
  5
F1
330
1F
100
AcDbEntity
  8
0
  6
Continuous
 62
     7
370
    15
100
AcDbLine
 10
-48.3551015423
 20
261.6983154426
 30
0.0
 11
-14.008809747
 21
261.6983154426
 31
0.0
  0
SPLINE
  5
F2
330
1F
100
AcDbEntity
  8
0
  6
Continuous
 62
     7
370
    15
100
AcDbSpline
210
0.0
220
0.0
230
1.0
 70
     8
 71
     3
 72
    12
 73
     8
 74
     0
 42
0.00000001
 43
0.00000001
 12
1.0
 22
0.0
 32
0.0
 13
1.0
 23
0.0
 33
0.0
 40
0.0
 40
0.0
 40
0.0
 40
0.0
 40
0.5
 40
0.5
 40
0.75
 40
0.75
 40
1.0
 40
1.0
 40
1.0
 40
1.0
 10
-48.355100848452
 20
261.6983172771607
 30
0.0
 10
-48.71485527424915
 20
258.7786086309328
 30
0.0
 10
-49.07488620664655
 20
255.8756417562882
 30
0.0
 10
-49.61292210295883
 20
251.5645470877723
 30
0.0
 10
-49.79191885533227
 20
250.1348438725664
 30
0.0
 10
-50.14830551729488
 20
247.2970213440287
 30
0.0
 10
-50.32573544782682
 20
245.8885916702673
 30
0.0
 10
-50.50140227352094
 20
244.4983172771603
 30
0.0
  0
LINE
  5
F3
330
1F
100
AcDbEntity
  8
0
  6
Continuous
 62
     7
370
    15
100
AcDbLine
 10
-22.2336956577
 20
271.0851044962
 30
0.0
 11
-22.2336956577
 21
267.7125842879
 31
0.0
  0
LINE
  5
F4
330
1F
100
AcDbEntity
  8
0
  6
Continuous
 62
     7
370
    15
100
AcDbLine
 10
-22.2336956577
 20
267.7125842879
 30
0.0
 11
-25.6622665839
 21
267.7125842879
 31
0.0
  0
SPLINE
  5
F5
330
1F
100
AcDbEntity
  8
0
  6
Continuous
 62
     7
370
    15
100
AcDbSpline
210
0.0
220
0.0
230
1.0
 70
    24
 71
     3
 72
     8
 73
     4
 74
     0
 42
0.00000001
 43
0.00000001
 12
1.0
 22
0.0
 32
0.0
 13
1.0
 23
0.0
 33
0.0
 40
0.0
 40
0.0
 40
0.0
 40
0.0
 40
1.0
 40
1.0
 40
1.0
 40
1.0
 10
-25.66226718396346
 20
267.7125845262885
 30
0.0
 10
-25.66226718396349
 20
270.9637069563304
 30
0.0
 10
-25.66226718396353
 20
274.2147875604934
 30
0.0
 10
-25.66226718396356
 20
277.4658210386389
 30
0.0
  0
LWPOLYLINE
  5
F6
330
1F
100
AcDbEntity
  8
0
  6
Continuous
 62
     7
370
    15
100
AcDbPolyline
 90
       11
 70
   128
 43
0.0
 10
-25.6622665839
 20
277.4658226976
 10
-24.5008980201
 20
277.9386663446
 10
-23.3237249123
 20
278.4179398427
 10
-22.1316543685
 20
278.9032855639
 10
-20.925599085
 20
279.3943235288
 10
-19.706481071
 20
279.8906774828
 10
-18.4752353744
 20
280.3919711718
 10
-17.2328072877
 20
280.8978171656
 10
-15.9801476912
 20
281.4078280339
 10
-14.7182167785
 20
281.9216126213
 10
-13.4479812624
 20
282.4387797723
  0
LINE
  5
F7
330
1F
100
AcDbEntity
  8
0
  6
Continuous
 62
     7
370
    15
100
AcDbLine
 10
-13.4479812624
 20
282.4387797723
 30
0.0
 11
-13.4479812624
 21
278.5981097827
 31
0.0
  0
LWPOLYLINE
  5
F8
330
1F
100
AcDbEntity
  8
0
  6
Continuous
 62
     7
370
    15
100
AcDbPolyline
 90
        3
 70
   128
 43
0.0
 10
-13.4479812624
 20
278.5981097827
 10
-14.3930361884
 20
278.2133394489
 10
-15.3336962031
 20
277.8303572545
  0
LINE
  5
F9
330
1F
100
AcDbEntity
  8
0
  6
Continuous
 62
     7
370
    15
100
AcDbLine
 10
-15.3336962031
 20
277.8303572545
 30
0.0
 11
-15.3336962031
 21
272.2466574619
 31
0.0
  0
LWPOLYLINE
  5
FA
330
1F
100
AcDbEntity
  8
0
  6
Continuous
 62
     7
370
    15
100
AcDbPolyline
 90
        3
 70
   128
 43
0.0
 10
-15.3336962031
 20
272.2466574619
 10
-14.3935363086
 20
271.8857662389
 10
-13.4479812624
 20
271.5228000293
  0
LWPOLYLINE
  5
FB
330
1F
100
AcDbEntity
  8
0
  6
Continuous
 62
     7
370
    15
100
AcDbPolyline
 90
        8
 70
   128
 43
0.0
 10
-13.4479812624
 20
267.7125842879
 10
-14.7385456877
 20
268.2079845676
 10
-16.018889779
 20
268.6994621167
 10
-17.2880440296
 20
269.1866481314
 10
-18.5450491773
 20
269.6691663573
 10
-19.7889515476
 20
270.1466554413
 10
-21.0188114362
 20
270.6187540302
 10
-22.2336956577
 20
271.0851044962
  0
LWPOLYLINE
  5
FC
330
1F
100
AcDbEntity
  8
0
  6
Continuous
 62
     7
370
    15
100
AcDbPolyline
 90
        4
 70
   128
 43
0.0
 10
-18.590838583
 20
273.1297077248
 10
-20.0327457206
 20
273.6832039068
 10
-21.4552738981
 20
274.229260684
 10
-22.8569516258
 20
274.7673155377
  0
LINE
  5
FD
330
1F
100
AcDbEntity
  8
0
  6
Continuous
 62
     7
370
    15
100
AcDbLine
 10
-18.590838583
 20
276.5042321393
 30
0.0
 11
-18.590838583
 21
273.1297077248
 31
0.0
  0
LWPOLYLINE
  5
FE
330
1F
100
AcDbEntity
  8
0
  6
Continuous
 62
     7
370
    15
100
AcDbPolyline
 90
        4
 70
   128
 43
0.0
 10
-22.8569516258
 20
274.7673155377
 10
-21.4526401179
 20
275.3390730927
 10
-20.0301119404
 20
275.9182439754
 10
-18.590838583
 20
276.5042321393
  0
LINE
  5
FF
330
1F
100
AcDbEntity
  8
0
  6
Continuous
 62
     7
370
    15
100
AcDbLine
 10
-13.4479812624
 20
271.5228000293
 30
0.0
 11
-13.4479812624
 21
267.7125842879
 31
0.0
  0
SPLINE
  5
100
330
1F
100
AcDbEntity
  8
0
  6
Continuous
 62
     7
370
    15
100
AcDbSpline
210
0.0
220
0.0
230
1.0
 70
     8
 71
     3
 72
    10
 73
     6
 74
     0
 42
0.00000001
 43
0.00000001
 12
1.0
 22
0.0
 32
0.0
 13
1.0
 23
0.0
 33
0.0
 40
0.0
 40
0.0
 40
0.0
 40
0.0
 40
0.5
 40
0.5
 40
1.0
 40
1.0
 40
1.0
 40
1.0
 10
35.29607426217194
 20
223.7125845262887
 30
0.0
 10
35.98953962932673
 20
224.1446619914473
 30
0.0
 10
36.65120134246202
 20
224.6195837398338
 30
0.0
 10
37.93292779980225
 20
225.6257206115834
 30
0.0
 10
38.55255808109208
 20
226.1575175122424
 30
0.0
 10
39.15506651602715
 20
226.7125845262887
 30
0.0
  0
LINE
  5
101
330
1F
100
AcDbEntity
  8
0
  6
Continuous
 62
     7
370
    15
100
AcDbLine
 10
28.5859676732
 20
223.7125845263
 30
0.0
 11
35.2960760428
 21
223.7125845263
 31
0.0
  0
SPLINE
  5
102
330
1F
100
AcDbEntity
  8
0
  6
Continuous
 62
     7
370
    15
100
AcDbSpline
210
0.0
220
0.0
230
1.0
 70
     8
 71
     3
 72
    10
 73
     6
 74
     0
 42
0.00000001
 43
0.00000001
 12
1.0
 22
0.0
 32
0.0
 13
1.0
 23
0.0
 33
0.0
 40
0.0
 40
0.0
 40
0.0
 40
0.0
 40
0.5
 40
0.5
 40
1.0
 40
1.0
 40
1.0
 40
1.0
 10
-44.24384832320079
 20
226.7125845262882
 30
0.0
 10
-43.64133988826577
 20
226.1575175122421
 30
0.0
 10
-43.02170960697603
 20
225.6257206115831
 30
0.0
 10
-41.73998314963595
 20
224.6195837398337
 30
0.0
 10
-41.07832143650072
 20
224.1446619914472
 30
0.0
 10
-40.38485606934604
 20
223.7125845262887
 30
0.0
  0
LINE
  5
103
330
1F
100
AcDbEntity
  8
0
  6
Continuous
 62
     7
370
    15
100
AcDbLine
 10
-40.38485785
 20
223.7125845263
 30
0.0
 11
-33.6747494804
 21
223.7125845263
 31
0.0
  0
SPLINE
  5
104
330
1F
100
AcDbEntity
  8
0
  6
Continuous
 62
     7
370
    15
100
AcDbSpline
210
0.0
220
0.0
230
1.0
 70
    24
 71
     3
 72
     8
 73
     4
 74
     0
 42
0.00000001
 43
0.00000001
 12
1.0
 22
0.0
 32
0.0
 13
1.0
 23
0.0
 33
0.0
 40
0.0
 40
0.0
 40
0.0
 40
0.0
 40
1.0
 40
1.0
 40
1.0
 40
1.0
 10
-30.59083861253481
 20
267.7125845262885
 30
0.0
 10
-30.59083861253487
 20
272.0841716237882
 30
0.0
 10
-30.59083861253492
 20
276.4556112650251
 30
0.0
 10
-30.59083861253498
 20
280.8268702405743
 30
0.0
  0
LWPOLYLINE
  5
105
330
1F
100
AcDbEntity
  8
0
  6
Continuous
 62
     7
370
    15
100
AcDbPolyline
 90
       12
 70
   128
 43
0.0
 10
-30.5908386873
 20
280.8268690119
 10
-29.5776491331
 20
281.2393815825
 10
-28.5467160212
 20
281.6591212163
 10
-27.4987490194
 20
282.0857936153
 10
-26.434470834
 20
282.5191044817
 10
-25.3546172099
 20
282.9587595174
 10
-24.2599332051
 20
283.4044532487
 10
-23.1511731909
 20
283.8558764765
 10
-22.0291064398
 20
284.3127200017
 10
-20.8945040868
 20
284.7746634493
 10
-19.7481521683
 20
285.2413938949
 10
-18.590838583
 20
285.712583513
  0
LWPOLYLINE
  5
106
330
1F
100
AcDbEntity
  8
0
  6
Continuous
 62
     7
370
    15
100
AcDbPolyline
 90
       12
 70
   128
 43
0.0
 10
-18.590838583
 20
285.712583513
 10
-19.759056093
 20
286.1882174024
 10
-20.9141885208
 20
286.6585166762
 10
-22.0554256158
 20
287.1231646845
 10
-23.1819608526
 20
287.5818298766
 10
-24.2930007445
 20
288.0341769764
 10
-25.3877629803
 20
288.4799005101
 10
-26.4654764252
 20
288.9186875532
 10
-27.5253792571
 20
289.3502177307
 10
-28.5667282807
 20
289.7742004702
 10
-29.5887877511
 20
290.1903228471
 10
-30.5908386873
 20
290.5983017394
  0
SPLINE
  5
107
330
1F
100
AcDbEntity
  8
0
  6
Continuous
 62
     7
370
    15
100
AcDbSpline
210
0.0
220
0.0
230
1.0
 70
    24
 71
     3
 72
     8
 73
     4
 74
     0
 42
0.00000001
 43
0.00000001
 12
1.0
 22
0.0
 32
0.0
 13
1.0
 23
0.0
 33
0.0
 40
0.0
 40
0.0
 40
0.0
 40
0.0
 40
1.0
 40
1.0
 40
1.0
 40
1.0
 10
-30.59083861253512
 20
290.5982988120028
 30
0.0
 10
-30.59083861253516
 20
294.9699153651821
 30
0.0
 10
-30.59083861253521
 20
299.3413576545541
 30
0.0
 10
-30.59083861253525
 20
303.7125845262886
 30
0.0
  0
LINE
  5
108
330
1F
100
AcDbEntity
  8
0
  6
Continuous
 62
     7
370
    15
100
AcDbLine
 10
-30.5908386873
 20
303.7125827381
 30
0.0
 11
-27.0336949544
 21
303.7125827381
 31
0.0
  0
SPLINE
  5
109
330
1F
100
AcDbEntity
  8
0
  6
Continuous
 62
     7
370
    15
100
AcDbSpline
210
0.0
220
0.0
230
1.0
 70
    24
 71
     3
 72
     8
 73
     4
 74
     0
 42
0.00000001
 43
0.00000001
 12
1.0
 22
0.0
 32
0.0
 13
1.0
 23
0.0
 33
0.0
 40
0.0
 40
0.0
 40
0.0
 40
0.0
 40
1.0
 40
1.0
 40
1.0
 40
1.0
 10
-27.0336957553924
 20
303.7125845262887
 30
0.0
 10
-27.03369575539237
 20
300.1541252436468
 30
0.0
 10
-27.03369575539233
 20
296.5955860827966
 30
0.0
 10
-27.03369575539229
 20
293.036975538809
 30
0.0
  0
LWPOLYLINE
  5
10A
330
1F
100
AcDbEntity
  8
0
  6
Continuous
 62
     7
370
    15
100
AcDbPolyline
 90
       13
 70
   128
 43
0.0
 10
-27.0336949544
 20
293.0369736264
 10
-25.9820957946
 20
292.6088260124
 10
-24.9132988321
 20
292.1736748526
 10
-23.8280509876
 20
291.7318181703
 10
-22.7271010445
 20
291.2835763404
 10
-21.61121455
 20
290.8292473862
 10
-20.4811645018
 20
290.3691591332
 10
-19.3377369361
 20
289.9036245057
 10
-18.1817234771
 20
289.4329564283
 10
-17.0139278563
 20
288.9574976275
 10
-15.8351593928
 20
288.4775684783
 10
-14.646235788
 20
287.9935117075
 10
-13.4479812624
 20
287.50564769
  0
LINE
  5
10B
330
1F
100
AcDbEntity
  8
0
  6
Continuous
 62
     7
370
    15
100
AcDbLine
 10
-13.4479812624
 20
287.50564769
 30
0.0
 11
-13.4479812624
 21
283.919519336
 31
0.0
  0
LWPOLYLINE
  5
10C
330
1F
100
AcDbEntity
  8
0
  6
Continuous
 62
     7
370
    15
100
AcDbPolyline
 90
       12
 70
   128
 43
0.0
 10
-13.4479812624
 20
283.919519336
 10
-14.7415426837
 20
283.39285642
 10
-16.0264297666
 20
282.8697250793
 10
-17.3016161935
 20
282.350538821
 10
-18.566084029
 20
281.8357223282
 10
-19.8188227879
 20
281.3256779323
 10
-21.0588340925
 20
280.8208154151
 10
-22.2851251529
 20
280.3215408335
 10
-23.4967180805
 20
279.828249068
 10
-24.6926461624
 20
279.3413349995
 10
-25.8719519989
 20
278.8611897836
 10
-27.0336949544
 20
278.3881933997
  0
SPLINE
  5
10D
330
1F
100
AcDbEntity
  8
0
  6
Continuous
 62
     7
370
    15
100
AcDbSpline
210
0.0
220
0.0
230
1.0
 70
    24
 71
     3
 72
     8
 73
     4
 74
     0
 42
0.00000001
 43
0.00000001
 12
1.0
 22
0.0
 32
0.0
 13
1.0
 23
0.0
 33
0.0
 40
0.0
 40
0.0
 40
0.0
 40
0.0
 40
1.0
 40
1.0
 40
1.0
 40
1.0
 10
-27.03369575539213
 20
278.3881935137682
 30
0.0
 10
-27.0336957553921
 20
274.8297221491915
 30
0.0
 10
-27.03369575539206
 20
271.2711836633105
 30
0.0
 10
-27.03369575539202
 20
267.7125845262886
 30
0.0
  0
LINE
  5
10E
330
1F
100
AcDbEntity
  8
0
  6
Continuous
 62
     7
370
    15
100
AcDbLine
 10
-27.0336949544
 20
267.7125842879
 30
0.0
 11
-30.5908386873
 21
267.7125842879
 31
0.0
  0
LINE
  5
10F
330
1F
100
AcDbEntity
  8
0
  6
Continuous
 62
     7
370
    15
100
AcDbLine
 10
-25.6622665839
 20
303.7125827381
 30
0.0
 11
-22.2336956577
 21
303.7125827381
 31
0.0
  0
LINE
  5
110
330
1F
100
AcDbEntity
  8
0
  6
Continuous
 62
     7
370
    15
100
AcDbLine
 10
-22.2336956577
 20
303.7125827381
 30
0.0
 11
-22.2336956577
 21
302.6840151856
 31
0.0
  0
SPLINE
  5
111
330
1F
100
AcDbEntity
  8
0
  6
Continuous
 62
     7
370
    15
100
AcDbSpline
210
0.0
220
0.0
230
1.0
 70
     8
 71
     3
 72
    16
 73
    12
 74
     0
 42
0.00000001
 43
0.00000001
 12
1.0
 22
0.0
 32
0.0
 13
1.0
 23
0.0
 33
0.0
 40
0.0
 40
0.0
 40
0.0
 40
0.0
 40
0.2500000000000004
 40
0.2500000000000004
 40
0.5000000000000009
 40
0.5000000000000009
 40
0.6249999999999991
 40
0.6249999999999991
 40
0.7499999999999973
 40
0.7499999999999973
 40
1.0
 40
1.0
 40
1.0
 40
1.0
 10
-22.23369575539239
 20
302.6840130977172
 30
0.0
 10
-21.83117849637735
 20
302.5301067770964
 30
0.0
 10
-21.44966820078668
 20
302.3297271530496
 30
0.0
 10
-20.73192731257634
 20
301.8333708531301
 30
0.0
 10
-20.39385649322041
 20
301.5334866202357
 30
0.0
 10
-19.95296394751711
 20
301.0300594538631
 30
0.0
 10
-19.81586603381555
 20
300.8526166251417
 30
0.0
 10
-19.56239563434092
 20
300.47781290462
 30
0.0
 10
-19.44538370623722
 20
300.279157480548
 30
0.0
 10
-19.1331251720956
 20
299.6603550607821
 30
0.0
 10
-18.97816868218414
 20
299.2237951492766
 30
0.0
 10
-18.88009634613883
 20
298.7620495033652
 30
0.0
  0
LWPOLYLINE
  5
112
330
1F
100
AcDbEntity
  8
0
  6
Continuous
 62
     7
370
    15
100
AcDbPolyline
 90
        5
 70
   128
 43
0.0
 10
-18.8800961988
 20
298.7620519111
 10
-17.5388147401
 20
299.7727753231
 10
-16.1855052503
 20
300.7925660918
 10
-14.8214604052
 20
301.8204481909
 10
-13.4479812624
 20
302.855438144
  0
LINE
  5
113
330
1F
100
AcDbEntity
  8
0
  6
Continuous
 62
     7
370
    15
100
AcDbLine
 10
-13.4479812624
 20
302.855438144
 30
0.0
 11
-13.4479812624
 21
298.4014140079
 31
0.0
  0
LWPOLYLINE
  5
114
330
1F
100
AcDbEntity
  8
0
  6
Continuous
 62
     7
370
    15
100
AcDbPolyline
 90
        5
 70
   128
 43
0.0
 10
-13.4479812624
 20
298.4014140079
 10
-14.6601730304
 20
297.4879653761
 10
-15.8652560131
 20
296.5798662612
 10
-17.0623501109
 20
295.677794666
 10
-18.2505780177
 20
294.7823987911
  0
LWPOLYLINE
  5
115
330
1F
100
AcDbEntity
  8
0
  6
Continuous
 62
     7
370
    15
100
AcDbPolyline
 90
        5
 70
   128
 43
0.0
 10
-18.2505780177
 20
294.7823987911
 10
-17.0663510727
 20
294.3002493689
 10
-15.8705952855
 20
293.8134060809
 10
-14.6641795801
 20
293.3222265551
 10
-13.4479812624
 20
292.8270609686
  0
LINE
  5
116
330
1F
100
AcDbEntity
  8
0
  6
Continuous
 62
     7
370
    15
100
AcDbLine
 10
-13.4479812624
 20
292.8270609686
 30
0.0
 11
-13.4479812624
 21
288.986390979
 31
0.0
  0
LINE
  5
117
330
1F
100
AcDbEntity
  8
0
  6
Continuous
 62
     7
370
    15
100
AcDbLine
 10
-25.6622665839
 20
293.9593480537
 30
0.0
 11
-25.6622665839
 21
297.8000180433
 31
0.0
  0
LWPOLYLINE
  5
118
330
1F
100
AcDbEntity
  8
0
  6
Continuous
 62
     7
370
    15
100
AcDbPolyline
 90
        5
 70
   128
 43
0.0
 10
-25.6622665839
 20
297.8000180433
 10
-24.5734145211
 20
297.3567010472
 10
-23.4675434695
 20
296.9064475605
 10
-22.3454599546
 20
296.4496003101
 10
-21.2079835402
 20
295.9864871213
  0
SPLINE
  5
119
330
1F
100
AcDbEntity
  8
0
  6
Continuous
 62
     7
370
    15
100
AcDbSpline
210
0.0
220
0.0
230
1.0
 70
     8
 71
     3
 72
    22
 73
    18
 74
     0
 42
0.00000001
 43
0.00000001
 12
1.0
 22
0.0
 32
0.0
 13
1.0
 23
0.0
 33
0.0
 40
0.0
 40
0.0
 40
0.0
 40
0.0
 40
0.125
 40
0.125
 40
0.25
 40
0.25
 40
0.375
 40
0.375
 40
0.5
 40
0.5
 40
0.625
 40
0.625
 40
0.75
 40
0.75
 40
0.875
 40
0.875
 40
1.0
 40
1.0
 40
1.0
 40
1.0
 10
-21.20798329990044
 20
295.9864870603444
 30
0.0
 10
-21.21905426643145
 20
296.2954346253387
 30
0.0
 10
-21.26164856478486
 20
296.5959237479313
 30
0.0
 10
-21.40516979555014
 20
297.1811262555892
 30
0.0
 10
-21.50789936803719
 20
297.4686630272931
 30
0.0
 10
-21.76233729707424
 20
298.0051269705936
 30
0.0
 10
-21.91389536701919
 20
298.2561146600408
 30
0.0
 10
-22.26316176457825
 20
298.7247318790032
 30
0.0
 10
-22.45857434882311
 20
298.9385752112754
 30
0.0
 10
-22.87825893504441
 20
299.3190978500762
 30
0.0
 10
-23.10568114475529
 20
299.4885186782336
 30
0.0
 10
-23.58174579013464
 20
299.7784815811173
 30
0.0
 10
-23.82821399333795
 20
299.898252744669
 30
0.0
 10
-24.33619676550251
 20
300.0908406726921
 30
0.0
 10
-24.59957608954276
 20
300.1638116183103
 30
0.0
 10
-25.12847323764518
 20
300.2600899395013
 30
0.0
 10
-25.39459321628446
 20
300.2840130977172
 30
0.0
 10
-25.6622671839638
 20
300.2840130977172
 30
0.0
  0
LINE
  5
11A
330
1F
100
AcDbEntity
  8
0
  6
Continuous
 62
     7
370
    15
100
AcDbLine
 10
-25.6622665839
 20
300.284011812
 30
0.0
 11
-25.6622665839
 21
303.7125827381
 31
0.0
  0
LWPOLYLINE
  5
11B
330
1F
100
AcDbEntity
  8
0
  6
Continuous
 62
     7
370
    15
100
AcDbPolyline
 90
       11
 70
   128
 43
0.0
 10
-13.4479812624
 20
288.986390979
 10
-14.7299710007
 20
289.5083414028
 10
-16.0011601912
 20
290.0258959839
 10
-17.2605336921
 20
290.5386449406
 10
-18.5070884691
 20
291.0461710403
 10
-19.7398261445
 20
291.5480719516
 10
-20.9577632414
 20
292.0439453432
 10
-22.1599311845
 20
292.5333963344
 10
-23.3453651236
 20
293.0160374949
 10
-24.5131206976
 20
293.4914813945
 10
-25.6622665839
 20
293.9593480537
  0
LINE
  5
11C
330
1F
100
AcDbEntity
  8
0
  6
Continuous
 62
     7
370
    15
100
AcDbLine
 10
-42.9949787723
 20
351.3054163763
 30
0.0
 11
-42.9949787723
 21
350.5362333367
 31
0.0
  0
LINE
  5
11D
330
1F
100
AcDbEntity
  8
0
  6
Continuous
 62
     7
370
    15
100
AcDbLine
 10
37.9061969651
 20
350.5362333367
 30
0.0
 11
37.9061969651
 21
351.3054163763
 31
0.0
  0
LINE
  5
11E
330
1F
100
AcDbEntity
  8
0
  6
Continuous
 62
     7
370
    15
100
AcDbLine
 10
-44.0443893241
 20
354.3054075549
 30
0.0
 11
-13.50404595
 21
354.3054075549
 31
0.0
  0
LINE
  5
11F
330
1F
100
AcDbEntity
  8
0
  6
Continuous
 62
     7
370
    15
100
AcDbLine
 10
8.4352642952
 20
354.3054075549
 30
0.0
 11
38.9556075169
 21
354.3054075549
 31
0.0
  0
LINE
  5
120
330
1F
100
AcDbEntity
  8
0
  6
Continuous
 62
     7
370
    15
100
AcDbLine
 10
-40.38485785
 20
223.7125845263
 30
0.0
 11
-51.5443896221
 21
223.7125845263
 31
0.0
  0
LINE
  5
121
330
1F
100
AcDbEntity
  8
0
  6
Continuous
 62
     7
370
    15
100
AcDbLine
 10
46.4556078149
 20
223.7125845263
 30
0.0
 11
35.2960760428
 21
223.7125845263
 31
0.0
  0
LINE
  5
122
330
1F
100
AcDbEntity
  8
0
  6
Continuous
 62
     7
370
    15
100
AcDbLine
 10
78.4495445622
 20
237.7125849584
 30
0.0
 11
81.875902666
 21
237.7125849584
 31
0.0
  0
LINE
  5
123
330
1F
100
AcDbEntity
  8
0
  6
Continuous
 62
     7
370
    15
100
AcDbLine
 10
76.9664766921
 20
230.7125847424
 30
0.0
 11
78.4495445622
 21
230.7125847424
 31
0.0
  0
LINE
  5
124
330
1F
100
AcDbEntity
  8
0
  6
Continuous
 62
     7
370
    15
100
AcDbLine
 10
-86.9646844732
 20
237.7125849584
 30
0.0
 11
-83.5383263694
 21
237.7125849584
 31
0.0
  0
LINE
  5
125
330
1F
100
AcDbEntity
  8
0
  6
Continuous
 62
     7
370
    15
100
AcDbLine
 10
-83.5383263694
 20
230.7125847424
 30
0.0
 11
-82.0552584993
 21
230.7125847424
 31
0.0
  0
LINE
  5
126
330
1F
100
AcDbEntity
  8
0
  6
Continuous
 62
     7
370
    15
100
AcDbLine
 10
78.5220089091
 20
230.7125847424
 30
0.0
 11
78.4495445622
 21
230.7125847424
 31
0.0
  0
LINE
  5
127
330
1F
100
AcDbEntity
  8
0
  6
Continuous
 62
     7
370
    15
100
AcDbLine
 10
-83.5383263694
 20
230.7125847424
 30
0.0
 11
-83.6107907163
 21
230.7125847424
 31
0.0
  0
LINE
  5
128
330
1F
100
AcDbEntity
  8
0
  6
Continuous
 62
     7
370
    15
100
AcDbLine
 10
-55.2953397201
 20
346.3054136941
 30
0.0
 11
-81.0564262139
 21
346.3054136941
 31
0.0
  0
LINE
  5
129
330
1F
100
AcDbEntity
  8
0
  6
Continuous
 62
     7
370
    15
100
AcDbLine
 10
-89.5443884002
 20
351.3054163763
 30
0.0
 11
-89.5443884002
 21
346.3054136941
 31
0.0
  0
LINE
  5
12A
330
1F
100
AcDbEntity
  8
0
  6
Continuous
 62
     7
370
    15
100
AcDbLine
 10
-42.9949787723
 20
351.3054163763
 30
0.0
 11
-89.5443884002
 21
351.3054163763
 31
0.0
  0
LINE
  5
12B
330
1F
100
AcDbEntity
  8
0
  6
Continuous
 62
     7
370
    15
100
AcDbLine
 10
-89.5443884002
 20
346.3054136941
 30
0.0
 11
-81.0564262139
 21
346.3054136941
 31
0.0
  0
LINE
  5
12C
330
1F
100
AcDbEntity
  8
0
  6
Continuous
 62
     7
370
    15
100
AcDbLine
 10
-81.0564262139
 20
346.3054136941
 30
0.0
 11
-60.3650016056
 21
322.2125829766
 31
0.0
  0
LINE
  5
12D
330
1F
100
AcDbEntity
  8
0
  6
Continuous
 62
     7
370
    15
100
AcDbLine
 10
-60.3650016056
 20
322.2125829766
 30
0.0
 11
-55.7101880478
 21
322.2125829766
 31
0.0
  0
LINE
  5
12E
330
1F
100
AcDbEntity
  8
0
  6
Continuous
 62
     7
370
    15
100
AcDbLine
 10
84.455606593
 20
351.3054163763
 30
0.0
 11
84.455606593
 21
346.3054136941
 31
0.0
  0
LINE
  5
12F
330
1F
100
AcDbEntity
  8
0
  6
Continuous
 62
     7
370
    15
100
AcDbLine
 10
84.455606593
 20
346.3054136941
 30
0.0
 11
75.9676444067
 21
346.3054136941
 31
0.0
  0
LINE
  5
130
330
1F
100
AcDbEntity
  8
0
  6
Continuous
 62
     7
370
    15
100
AcDbLine
 10
75.9676444067
 20
346.3054136941
 30
0.0
 11
50.206557913
 21
346.3054136941
 31
0.0
  0
LINE
  5
131
330
1F
100
AcDbEntity
  8
0
  6
Continuous
 62
     7
370
    15
100
AcDbLine
 10
84.455606593
 20
351.3054163763
 30
0.0
 11
37.9061969651
 21
351.3054163763
 31
0.0
  0
LINE
  5
132
330
1F
100
AcDbEntity
  8
0
  6
Continuous
 62
     7
370
    15
100
AcDbLine
 10
55.2762197985
 20
322.2125829766
 30
0.0
 11
75.9676444067
 21
346.3054136941
 31
0.0
  0
LINE
  5
133
330
1F
100
AcDbEntity
  8
0
  6
Continuous
 62
     7
370
    15
100
AcDbLine
 10
50.6214062406
 20
322.2125829766
 30
0.0
 11
55.2762197985
 21
322.2125829766
 31
0.0
  0
LINE
  5
134
330
1F
100
AcDbEntity
  8
0
  6
Continuous
 62
     7
370
    15
100
AcDbLine
 10
-83.6107907163
 20
236.5866131717
 30
0.0
 11
-86.5543884503
 21
236.5866131717
 31
0.0
  0
LINE
  5
135
330
1F
100
AcDbEntity
  8
0
  6
Continuous
 62
     7
370
    15
100
AcDbLine
 10
81.4656066431
 20
236.5866131717
 30
0.0
 11
78.5220089091
 21
236.5866131717
 31
0.0
  0
LINE
  5
136
330
1F
100
AcDbEntity
  8
0
  6
Continuous
 62
     7
370
    15
100
AcDbLine
 10
-59.5543896126
 20
353.8054139922
 30
0.0
 11
-83.5543898212
 21
353.8054139922
 31
0.0
  0
LINE
  5
137
330
1F
100
AcDbEntity
  8
0
  6
Continuous
 62
     7
370
    15
100
AcDbLine
 10
66.465606047
 20
353.8054139922
 30
0.0
 11
54.4656078054
 21
353.8054139922
 31
0.0
  0
LINE
  5
138
330
1F
100
AcDbEntity
  8
0
  6
Continuous
 62
     7
370
    15
100
AcDbLine
 10
78.465608014
 20
353.8054139922
 30
0.0
 11
66.465606047
 21
353.8054139922
 31
0.0
  0
LINE
  5
139
330
1F
100
AcDbEntity
  8
0
  6
Continuous
 62
     7
370
    15
100
AcDbLine
 10
-71.5543878542
 20
363.8054193566
 30
0.0
 11
-71.5543878542
 21
353.8054139922
 31
0.0
  0
LINE
  5
13A
330
1F
100
AcDbEntity
  8
0
  6
Continuous
 62
     7
370
    15
100
AcDbLine
 10
-71.5543878542
 20
363.8054193566
 30
0.0
 11
-62.0543909537
 21
363.8054193566
 31
0.0
  0
LINE
  5
13B
330
1F
100
AcDbEntity
  8
0
  6
Continuous
 62
     7
370
    15
100
AcDbLine
 10
-62.0543909537
 20
363.8054193566
 30
0.0
 11
-62.0543909537
 21
353.8054139922
 31
0.0
  0
LINE
  5
13C
330
1F
100
AcDbEntity
  8
0
  6
Continuous
 62
     7
370
    15
100
AcDbLine
 10
-81.0543922054
 20
363.8054193566
 30
0.0
 11
-81.0543922054
 21
353.8054139922
 31
0.0
  0
LINE
  5
13D
330
1F
100
AcDbEntity
  8
0
  6
Continuous
 62
     7
370
    15
100
AcDbLine
 10
-81.0543922054
 20
363.8054193566
 30
0.0
 11
-71.5543878542
 21
363.8054193566
 31
0.0
  0
LINE
  5
13E
330
1F
100
AcDbEntity
  8
0
  6
Continuous
 62
     7
370
    15
100
AcDbLine
 10
56.9656091465
 20
363.8054193566
 30
0.0
 11
56.9656091465
 21
353.8054139922
 31
0.0
  0
LINE
  5
13F
330
1F
100
AcDbEntity
  8
0
  6
Continuous
 62
     7
370
    15
100
AcDbLine
 10
56.9656091465
 20
363.8054193566
 30
0.0
 11
66.465606047
 21
363.8054193566
 31
0.0
  0
LINE
  5
140
330
1F
100
AcDbEntity
  8
0
  6
Continuous
 62
     7
370
    15
100
AcDbLine
 10
66.465606047
 20
363.8054193566
 30
0.0
 11
66.465606047
 21
353.8054139922
 31
0.0
  0
LINE
  5
141
330
1F
100
AcDbEntity
  8
0
  6
Continuous
 62
     7
370
    15
100
AcDbLine
 10
66.465606047
 20
363.8054193566
 30
0.0
 11
75.9656103982
 21
363.8054193566
 31
0.0
  0
LINE
  5
142
330
1F
100
AcDbEntity
  8
0
  6
Continuous
 62
     7
370
    15
100
AcDbLine
 10
75.9656103982
 20
363.8054193566
 30
0.0
 11
75.9656103982
 21
353.8054139922
 31
0.0
  0
LINE
  5
143
330
1F
100
AcDbEntity
  8
0
  6
Continuous
 62
     7
370
    15
100
AcDbLine
 10
-63.5543902682
 20
371.2154091904
 30
0.0
 11
-79.5543891655
 21
371.2154091904
 31
0.0
  0
LINE
  5
144
330
1F
100
AcDbEntity
  8
0
  6
Continuous
 62
     7
370
    15
100
AcDbLine
 10
-63.5543902682
 20
370.7154156277
 30
0.0
 11
-79.5543891655
 21
370.7154156277
 31
0.0
  0
LINE
  5
145
330
1F
100
AcDbEntity
  8
0
  6
Continuous
 62
     7
370
    15
100
AcDbLine
 10
66.465606047
 20
371.2154091904
 30
0.0
 11
58.465608461
 21
371.2154091904
 31
0.0
  0
LINE
  5
146
330
1F
100
AcDbEntity
  8
0
  6
Continuous
 62
     7
370
    15
100
AcDbLine
 10
74.4656073583
 20
371.2154091904
 30
0.0
 11
66.465606047
 21
371.2154091904
 31
0.0
  0
LINE
  5
147
330
1F
100
AcDbEntity
  8
0
  6
Continuous
 62
     7
370
    15
100
AcDbLine
 10
66.465606047
 20
370.7154156277
 30
0.0
 11
58.465608461
 21
370.7154156277
 31
0.0
  0
LINE
  5
148
330
1F
100
AcDbEntity
  8
0
  6
Continuous
 62
     7
370
    15
100
AcDbLine
 10
74.4656073583
 20
370.7154156277
 30
0.0
 11
66.465606047
 21
370.7154156277
 31
0.0
  0
LINE
  5
149
330
1F
100
AcDbEntity
  8
0
  6
Continuous
 62
     7
370
    15
100
AcDbLine
 10
-64.9293911921
 20
246.5154142687
 30
0.0
 11
-64.9293911921
 21
243.7483282397
 31
0.0
  0
LINE
  5
14A
330
1F
100
AcDbEntity
  8
0
  6
Continuous
 62
     7
370
    15
100
AcDbLine
 10
-78.1793919669
 20
246.5154142687
 30
0.0
 11
-78.1793919669
 21
243.057141603
 31
0.0
  0
LINE
  5
14B
330
1F
100
AcDbEntity
  8
0
  6
Continuous
 62
     7
370
    15
100
AcDbLine
 10
-78.1793919669
 20
246.5154142687
 30
0.0
 11
-64.9293911921
 21
246.5154142687
 31
0.0
  0
LINE
  5
14C
330
1F
100
AcDbEntity
  8
0
  6
Continuous
 62
     7
370
    15
100
AcDbLine
 10
59.8406093849
 20
246.5154142687
 30
0.0
 11
59.8406093849
 21
243.7484381357
 31
0.0
  0
LINE
  5
14D
330
1F
100
AcDbEntity
  8
0
  6
Continuous
 62
     7
370
    15
100
AcDbLine
 10
59.8406093849
 20
246.5154142687
 30
0.0
 11
73.0906101598
 21
246.5154142687
 31
0.0
  0
LINE
  5
14E
330
1F
100
AcDbEntity
  8
0
  6
Continuous
 62
     7
370
    15
100
AcDbLine
 10
73.0906101598
 20
246.5154142687
 30
0.0
 11
73.0906101598
 21
243.0572328726
 31
0.0
  0
LINE
  5
14F
330
1F
100
AcDbEntity
  8
0
  6
Continuous
 62
     7
370
    15
100
AcDbLine
 10
-65.0543895827
 20
382.7154101441
 30
0.0
 11
-78.0543935763
 21
382.7154101441
 31
0.0
  0
LINE
  5
150
330
1F
100
AcDbEntity
  8
0
  6
Continuous
 62
     7
370
    15
100
AcDbLine
 10
66.465606047
 20
382.7154101441
 30
0.0
 11
59.9656077756
 21
382.7154101441
 31
0.0
  0
LINE
  5
151
330
1F
100
AcDbEntity
  8
0
  6
Continuous
 62
     7
370
    15
100
AcDbLine
 10
72.9656117691
 20
382.7154101441
 30
0.0
 11
66.465606047
 21
382.7154101441
 31
0.0
  0
LINE
  5
152
330
1F
100
AcDbEntity
  8
0
  6
Continuous
 62
     7
370
    15
100
AcDbLine
 10
81.875902666
 20
237.7125849584
 30
0.0
 11
82.4556099905
 21
237.7125849584
 31
0.0
  0
LINE
  5
153
330
1F
100
AcDbEntity
  8
0
  6
Continuous
 62
     7
370
    15
100
AcDbLine
 10
-87.5443917977
 20
237.7125849584
 30
0.0
 11
-86.9646844732
 21
237.7125849584
 31
0.0
  0
LINE
  5
154
330
1F
100
AcDbEntity
  8
0
  6
Continuous
 62
     7
370
    15
100
AcDbLine
 10
-13.5240461023
 20
363.8054193566
 30
0.0
 11
-13.5240461023
 21
354.3054075549
 31
0.0
  0
LINE
  5
155
330
1F
100
AcDbEntity
  8
0
  6
Continuous
 62
     7
370
    15
100
AcDbLine
 10
-13.5240461023
 20
363.8054193566
 30
0.0
 11
-13.50404595
 21
363.8054193566
 31
0.0
  0
LINE
  5
156
330
1F
100
AcDbEntity
  8
0
  6
Continuous
 62
     7
370
    15
100
AcDbLine
 10
-10.5343907418
 20
371.2154091904
 30
0.0
 11
-10.5543908941
 21
371.2154091904
 31
0.0
  0
LINE
  5
157
330
1F
100
AcDbEntity
  8
0
  6
Continuous
 62
     7
370
    15
100
AcDbLine
 10
-10.5343907418
 20
370.7154156277
 30
0.0
 11
-10.5543908941
 21
370.7154156277
 31
0.0
  0
LINE
  5
158
330
1F
100
AcDbEntity
  8
0
  6
Continuous
 62
     7
370
    15
100
AcDbLine
 10
-9.0343909616
 20
382.7154101441
 30
0.0
 11
-9.0543911138
 21
382.7154101441
 31
0.0
  0
LINE
  5
159
330
1F
100
AcDbEntity
  8
0
  6
Continuous
 62
     8
370
     0
100
AcDbLine
 10
1.7234730257
 20
242.6062957952
 30
0.0
 11
1.7234730257
 21
237.7125849584
 31
0.0
  0
LINE
  5
15A
330
1F
100
AcDbEntity
  8
0
  6
Continuous
 62
     8
370
     0
100
AcDbLine
 10
-6.8122548329
 20
242.6062957952
 30
0.0
 11
-6.8122548329
 21
237.7125849584
 31
0.0
  0
LINE
  5
15B
330
1F
100
AcDbEntity
  8
0
  6
Continuous
 62
     8
370
     0
100
AcDbLine
 10
-24.5505635904
 20
242.7125839153
 30
0.0
 11
-24.5505635904
 21
227.7125847163
 31
0.0
  0
LINE
  5
15C
330
1F
100
AcDbEntity
  8
0
  6
Continuous
 62
     8
370
     0
100
AcDbLine
 10
-19.1920799481
 20
227.7125847163
 30
0.0
 11
-19.1920799481
 21
237.7125849584
 31
0.0
  0
LINE
  5
15D
330
1F
100
AcDbEntity
  8
0
  6
Continuous
 62
     8
370
     0
100
AcDbLine
 10
19.4617817832
 20
242.7125839153
 30
0.0
 11
19.4617817832
 21
227.7125847163
 31
0.0
  0
LINE
  5
15E
330
1F
100
AcDbEntity
  8
0
  6
Continuous
 62
     8
370
     0
100
AcDbLine
 10
14.1032981409
 20
237.7125849584
 30
0.0
 11
14.1032981409
 21
227.7125847163
 31
0.0
  0
LINE
  5
15F
330
1F
100
AcDbEntity
  8
0
  6
Continuous
 62
     8
370
     0
100
AcDbLine
 10
-60.8807009922
 20
230.7125847424
 30
0.0
 11
-60.8807009922
 21
227.7125847163
 31
0.0
  0
LINE
  5
160
330
1F
100
AcDbEntity
  8
0
  6
Continuous
 62
     8
370
     0
100
AcDbLine
 10
-82.0552584993
 20
242.7125839153
 30
0.0
 11
-82.0552584993
 21
230.7125847424
 31
0.0
  0
LINE
  5
161
330
1F
100
AcDbEntity
  8
0
  6
Continuous
 62
     8
370
     0
100
AcDbLine
 10
76.9664766921
 20
242.7125839153
 30
0.0
 11
76.9664766921
 21
230.7125847424
 31
0.0
  0
LINE
  5
162
330
1F
100
AcDbEntity
  8
0
  6
Continuous
 62
     8
370
     0
100
AcDbLine
 10
55.791919185
 20
230.7125847424
 30
0.0
 11
55.791919185
 21
227.7125847163
 31
0.0
  0
LINE
  5
163
330
1F
100
AcDbEntity
  8
0
  6
Continuous
 62
     8
370
     0
100
AcDbLine
 10
24.8251548691
 20
227.7125847163
 30
0.0
 11
24.8691281958
 21
226.7125845524
 31
0.0
  0
LINE
  5
164
330
1F
100
AcDbEntity
  8
0
  6
Continuous
 62
     8
370
     0
100
AcDbLine
 10
-29.9139366763
 20
227.7125847163
 30
0.0
 11
-29.9579100029
 21
226.7125845524
 31
0.0
  0
LINE
  5
165
330
1F
100
AcDbEntity
  8
0
  6
Continuous
 62
     8
370
     0
100
AcDbLine
 10
-58.2636398541
 20
324.5817409465
 30
0.0
 11
-17.4059019701
 21
324.5817409465
 31
0.0
  0
LINE
  5
166
330
1F
100
AcDbEntity
  8
0
  6
Continuous
 62
     8
370
     0
100
AcDbLine
 10
12.317120163
 20
324.5817409465
 30
0.0
 11
53.1748580469
 21
324.5817409465
 31
0.0
  0
LINE
  5
167
330
1F
100
AcDbEntity
  8
0
  6
Continuous
 62
     8
370
     0
100
AcDbLine
 10
11.5698157532
 20
228.2116930569
 30
0.0
 11
11.5485229252
 21
226.7125845524
 31
0.0
  0
LINE
  5
168
330
1F
100
AcDbEntity
  8
0
  6
Continuous
 62
     8
370
     0
100
AcDbLine
 10
-16.6585975604
 20
228.2116930569
 30
0.0
 11
-16.6373047324
 21
226.7125845524
 31
0.0
  0
LINE
  5
169
330
1F
100
AcDbEntity
  8
0
  6
Continuous
 62
     8
370
     0
100
AcDbLine
 10
47.6254607273
 20
243.7309329966
 30
0.0
 11
47.6408014728
 21
243.3168986449
 31
0.0
  0
LINE
  5
16A
330
1F
100
AcDbEntity
  8
0
  6
Continuous
 62
     8
370
     0
100
AcDbLine
 10
-52.7142425345
 20
243.7309329966
 30
0.0
 11
-52.72958328
 21
243.316893057
 31
0.0
  0
LINE
  5
16B
330
1F
100
AcDbEntity
  8
0
  6
Continuous
 62
     8
370
     0
100
AcDbLine
 10
46.9556088282
 20
318.8734860728
 30
0.0
 11
3.4656092247
 21
318.8734860728
 31
0.0
  0
LINE
  5
16C
330
1F
100
AcDbEntity
  8
0
  6
Continuous
 62
     8
370
     0
100
AcDbLine
 10
-8.5343908796
 20
318.8734860728
 30
0.0
 11
-52.0443906354
 21
318.8734860728
 31
0.0
  0
LINE
  5
16D
330
1F
100
AcDbEntity
  8
0
  6
Continuous
 62
     8
370
     0
100
AcDbLine
 10
45.8839731945
 20
316.5753544876
 30
0.0
 11
3.4656092247
 21
316.5753544876
 31
0.0
  0
LINE
  5
16E
330
1F
100
AcDbEntity
  8
0
  6
Continuous
 62
     8
370
     0
100
AcDbLine
 10
-8.5343908796
 20
316.5753544876
 30
0.0
 11
-50.9727550017
 21
316.5753544876
 31
0.0
  0
LINE
  5
16F
330
1F
100
AcDbEntity
  8
0
  6
Continuous
 62
     8
370
     0
100
AcDbLine
 10
46.9556088282
 20
319.7125853608
 30
0.0
 11
3.4656092247
 21
319.7125853608
 31
0.0
  0
LINE
  5
170
330
1F
100
AcDbEntity
  8
0
  6
Continuous
 62
     8
370
     0
100
AcDbLine
 10
-8.5343908796
 20
319.7125853608
 30
0.0
 11
-52.0443906354
 21
319.7125853608
 31
0.0
  0
LINE
  5
171
330
1F
100
AcDbEntity
  8
0
  6
Continuous
 62
     8
370
     0
100
AcDbLine
 10
-23.6196396218
 20
261.6983154426
 30
0.0
 11
-23.6196396218
 21
244.4983167211
 31
0.0
  0
LINE
  5
172
330
1F
100
AcDbEntity
  8
0
  6
Continuous
 62
     8
370
     0
100
AcDbLine
 10
41.2988560928
 20
310.0374402115
 30
0.0
 11
3.4656092247
 21
310.0374402115
 31
0.0
  0
LINE
  5
173
330
1F
100
AcDbEntity
  8
0
  6
Continuous
 62
     8
370
     0
100
AcDbLine
 10
-8.5343908796
 20
310.0374402115
 30
0.0
 11
-46.3876379
 21
310.0374402115
 31
0.0
  0
LINE
  5
174
330
1F
100
AcDbEntity
  8
0
  6
Continuous
 62
     8
370
     0
100
AcDbLine
 10
18.5308578147
 20
261.6983154426
 30
0.0
 11
18.5308578147
 21
244.4983167211
 31
0.0
  0
LINE
  5
175
330
1F
100
AcDbEntity
  8
0
  6
Continuous
 62
     8
370
     0
100
AcDbLine
 10
43.0727387501
 20
314.2164485166
 30
0.0
 11
3.4656092247
 21
314.2164485166
 31
0.0
  0
LINE
  5
176
330
1F
100
AcDbEntity
  8
0
  6
Continuous
 62
     8
370
     0
100
AcDbLine
 10
-8.5343908796
 20
314.2164485166
 30
0.0
 11
-48.1615205573
 21
314.2164485166
 31
0.0
  0
LINE
  5
177
330
1F
100
AcDbEntity
  8
0
  6
Continuous
 62
     8
370
     0
100
AcDbLine
 10
43.7257933153
 20
244.016444833
 30
0.0
 11
43.7496724261
 21
243.3720422546
 31
0.0
  0
LINE
  5
178
330
1F
100
AcDbEntity
  8
0
  6
Continuous
 62
     8
370
     0
100
AcDbLine
 10
-48.8145751225
 20
244.016444833
 30
0.0
 11
-48.8384542333
 21
243.3720068643
 31
0.0
  0
LINE
  5
179
330
1F
100
AcDbEntity
  8
0
  6
Continuous
 62
     8
370
     0
100
AcDbLine
 10
-46.0443896519
 20
352.3054184029
 30
0.0
 11
-14.5343904661
 21
352.3054184029
 31
0.0
  0
LINE
  5
17A
330
1F
100
AcDbEntity
  8
0
  6
Continuous
 62
     8
370
     0
100
AcDbLine
 10
9.4656088112
 20
352.3054184029
 30
0.0
 11
40.9556078447
 21
352.3054184029
 31
0.0
  0
LINE
  5
17B
330
1F
100
AcDbEntity
  8
0
  6
Continuous
 62
     8
370
     0
100
AcDbLine
 10
31.2322797908
 20
261.6983154426
 30
0.0
 11
31.2322797908
 21
244.4983167211
 31
0.0
  0
LINE
  5
17C
330
1F
100
AcDbEntity
  8
0
  6
Continuous
 62
     8
370
     0
100
AcDbLine
 10
-36.3210615979
 20
261.6983154426
 30
0.0
 11
-36.3210615979
 21
244.4983167211
 31
0.0
  0
LINE
  5
17D
330
1F
100
AcDbEntity
  8
0
  6
Continuous
 62
     8
370
     0
100
AcDbLine
 10
81.875902666
 20
242.6062957952
 30
0.0
 11
81.875902666
 21
237.7125849584
 31
0.0
  0
LINE
  5
17E
330
1F
100
AcDbEntity
  8
0
  6
Continuous
 62
     8
370
     0
100
AcDbLine
 10
78.4495445622
 20
230.7125847424
 30
0.0
 11
78.4495445622
 21
237.7125849584
 31
0.0
  0
LINE
  5
17F
330
1F
100
AcDbEntity
  8
0
  6
Continuous
 62
     8
370
     0
100
AcDbLine
 10
-86.9646844732
 20
242.6062957952
 30
0.0
 11
-86.9646844732
 21
237.7125849584
 31
0.0
  0
LINE
  5
180
330
1F
100
AcDbEntity
  8
0
  6
Continuous
 62
     8
370
     0
100
AcDbLine
 10
-83.5383263694
 20
237.7125849584
 30
0.0
 11
-83.5383263694
 21
230.7125847424
 31
0.0
  0
LINE
  5
181
330
1F
100
AcDbEntity
  8
0
  6
CENTERX2
 62
     7
370
     0
100
AcDbLine
 10
-2.5443909036
 20
389.6877029232
 30
0.0
 11
-2.5443909036
 21
217.2046680348
 31
0.0
  0
LINE
  5
182
330
1F
100
AcDbEntity
  8
0
  6
Continuous
 62
     7
370
    15
100
AcDbLine
 10
370.6075582872
 20
243.766766564
 30
0.0
 11
356.6487465272
 21
244.4983167211
 31
0.0
  0
LINE
  5
183
330
1F
100
AcDbEntity
  8
0
  6
Continuous
 62
     7
370
    15
100
AcDbLine
 10
393.2225588928
 20
242.5815654555
 30
0.0
 11
383.8576335678
 21
243.0723594139
 31
0.0
  0
LINE
  5
184
330
1F
100
AcDbEntity
  8
0
  6
Continuous
 62
     7
370
    15
100
AcDbLine
 10
232.5874824295
 20
243.0723594139
 30
0.0
 11
223.2225571046
 21
242.5815654555
 31
0.0
  0
LINE
  5
185
330
1F
100
AcDbEntity
  8
0
  6
Continuous
 62
     7
370
    15
100
AcDbLine
 10
259.7963694702
 20
244.4983167211
 30
0.0
 11
245.8375577102
 21
243.766766564
 31
0.0
  0
ARC
  5
186
330
1F
100
AcDbEntity
  8
0
  6
Continuous
 62
     7
370
    15
100
AcDbCircle
 10
308.2325579987
 20
253.5880848926
 30
0.0
 40
22.67267151925521
100
AcDbArc
 50
231.4672612677
 51
308.4681572088
  0
LINE
  5
187
330
1F
100
AcDbEntity
  8
0
  6
Continuous
 62
     7
370
    15
100
AcDbLine
 10
322.3367646555
 20
237.7125849584
 30
0.0
 11
322.3367646555
 21
230.7125847424
 31
0.0
  0
LINE
  5
188
330
1F
100
AcDbEntity
  8
0
  6
Continuous
 62
     7
370
    15
100
AcDbLine
 10
294.1083513419
 20
230.7125847424
 30
0.0
 11
294.1083513419
 21
237.7125849584
 31
0.0
  0
LINE
  5
189
330
1F
100
AcDbEntity
  8
0
  6
Continuous
 62
     7
370
    15
100
AcDbLine
 10
320.2325577135
 20
351.3054163763
 30
0.0
 11
320.2325577135
 21
353.8054139922
 31
0.0
  0
LINE
  5
18A
330
1F
100
AcDbEntity
  8
0
  6
Continuous
 62
     7
370
    15
100
AcDbLine
 10
296.2325584362
 20
353.8054139922
 30
0.0
 11
296.2325584362
 21
351.3054163763
 31
0.0
  0
LINE
  5
18B
330
1F
100
AcDbEntity
  8
0
  6
Continuous
 62
     7
370
    15
100
AcDbLine
 10
316.2325579892
 20
370.7154156277
 30
0.0
 11
316.2325579892
 21
371.2154091904
 31
0.0
  0
LINE
  5
18C
330
1F
100
AcDbEntity
  8
0
  6
Continuous
 62
     7
370
    15
100
AcDbLine
 10
300.2325581605
 20
371.2154091904
 30
0.0
 11
300.2325581605
 21
370.7154156277
 31
0.0
  0
LINE
  5
18D
330
1F
100
AcDbEntity
  8
0
  6
Continuous
 62
     7
370
    15
100
AcDbLine
 10
314.732558209
 20
371.2154091904
 30
0.0
 11
314.732558209
 21
382.7154101441
 31
0.0
  0
LINE
  5
18E
330
1F
100
AcDbEntity
  8
0
  6
Continuous
 62
     7
370
    15
100
AcDbLine
 10
301.7325579407
 20
382.7154101441
 30
0.0
 11
301.7325579407
 21
371.2154091904
 31
0.0
  0
LINE
  5
18F
330
1F
100
AcDbEntity
  8
0
  6
Continuous
 62
     7
370
    15
100
AcDbLine
 10
314.232558127
 20
363.8054193566
 30
0.0
 11
314.232558127
 21
370.7154156277
 31
0.0
  0
LINE
  5
190
330
1F
100
AcDbEntity
  8
0
  6
Continuous
 62
     7
370
    15
100
AcDbLine
 10
302.2325580227
 20
370.7154156277
 30
0.0
 11
302.2325580227
 21
363.8054193566
 31
0.0
  0
LINE
  5
191
330
1F
100
AcDbEntity
  8
0
  6
Continuous
 62
     7
370
    15
100
AcDbLine
 10
314.232558127
 20
246.5154142687
 30
0.0
 11
314.232558127
 21
346.3054136941
 31
0.0
  0
LINE
  5
192
330
1F
100
AcDbEntity
  8
0
  6
Continuous
 62
     7
370
    15
100
AcDbLine
 10
302.2325580227
 20
346.3054136941
 30
0.0
 11
302.2325580227
 21
246.5154142687
 31
0.0
  0
LINE
  5
193
330
1F
100
AcDbEntity
  8
0
  6
Continuous
 62
     7
370
    15
100
AcDbLine
 10
372.4167306195
 20
226.7125845524
 30
0.0
 11
372.4167306195
 21
227.7125847163
 31
0.0
  0
LINE
  5
194
330
1F
100
AcDbEntity
  8
0
  6
Continuous
 62
     7
370
    15
100
AcDbLine
 10
244.0283853779
 20
227.7125847163
 30
0.0
 11
244.0283853779
 21
226.7125845524
 31
0.0
  0
ARC
  5
195
330
1F
100
AcDbEntity
  8
0
  6
Continuous
 62
     7
370
    15
100
AcDbCircle
 10
354.7225579987
 20
318.8734848951
 30
0.0
 40
3.0
100
AcDbArc
 50
310.0
 51
0.0
  0
ARC
  5
196
330
1F
100
AcDbEntity
  8
0
  6
Continuous
 62
     7
370
    15
100
AcDbCircle
 10
261.7225579987
 20
318.8734848951
 30
0.0
 40
3.0
100
AcDbArc
 50
180.0
 51
230.0
  0
LINE
  5
197
330
1F
100
AcDbEntity
  8
0
  6
Continuous
 62
     7
370
    15
100
AcDbLine
 10
357.7225577305
 20
318.8734860728
 30
0.0
 11
357.7225577305
 21
319.7125853608
 31
0.0
  0
LINE
  5
198
330
1F
100
AcDbEntity
  8
0
  6
Continuous
 62
     7
370
    15
100
AcDbLine
 10
258.7225582669
 20
319.7125853608
 30
0.0
 11
258.7225582669
 21
318.8734860728
 31
0.0
  0
ARC
  5
199
330
1F
100
AcDbEntity
  8
0
  6
Continuous
 62
     7
370
    15
100
AcDbCircle
 10
355.7225579987
 20
319.7125845263
 30
0.0
 40
2.0
100
AcDbArc
 50
0.0
 51
90.0
  0
ARC
  5
19A
330
1F
100
AcDbEntity
  8
0
  6
Continuous
 62
     7
370
    15
100
AcDbCircle
 10
260.7225579987
 20
319.7125845263
 30
0.0
 40
2.0
100
AcDbArc
 50
90.0
 51
180.0
  0
LINE
  5
19B
330
1F
100
AcDbEntity
  8
0
  6
Continuous
 62
     7
370
    15
100
AcDbLine
 10
355.7225574027
 20
321.7125819633
 30
0.0
 11
314.232558127
 21
321.7125819633
 31
0.0
  0
LINE
  5
19C
330
1F
100
AcDbEntity
  8
0
  6
Continuous
 62
     7
370
    15
100
AcDbLine
 10
302.2325580227
 20
321.7125819633
 30
0.0
 11
260.7225585947
 21
321.7125819633
 31
0.0
  0
LINE
  5
19D
330
1F
100
AcDbEntity
  8
0
  6
Continuous
 62
     7
370
    15
100
AcDbLine
 10
356.6487465272
 20
244.4983167211
 30
0.0
 11
355.0254475544
 21
267.7125842879
 31
0.0
  0
LINE
  5
19E
330
1F
100
AcDbEntity
  8
0
  6
Continuous
 62
     7
370
    15
100
AcDbLine
 10
354.731678612
 20
271.9136500368
 30
0.0
 11
354.2916622231
 21
278.206205518
 31
0.0
  0
LINE
  5
19F
330
1F
100
AcDbEntity
  8
0
  6
Continuous
 62
     7
370
    15
100
AcDbLine
 10
353.9956916342
 20
282.4387797723
 30
0.0
 11
353.9182018707
 21
283.5469232509
 31
0.0
  0
LINE
  5
1A0
330
1F
100
AcDbEntity
  8
0
  6
Continuous
 62
     7
370
    15
100
AcDbLine
 10
353.6164235542
 20
287.8625901053
 30
0.0
 11
353.5378385554
 21
288.986390979
 31
0.0
  0
LINE
  5
1A1
330
1F
100
AcDbEntity
  8
0
  6
Continuous
 62
     7
370
    15
100
AcDbLine
 10
353.2456640373
 20
293.164691479
 30
0.0
 11
352.9209751854
 21
297.8079231093
 31
0.0
  0
LINE
  5
1A2
330
1F
100
AcDbEntity
  8
0
  6
Continuous
 62
     7
370
    15
100
AcDbLine
 10
352.5680188308
 20
302.855438144
 30
0.0
 11
352.0658049951
 21
310.0374402115
 31
0.0
  0
LINE
  5
1A3
330
1F
100
AcDbEntity
  8
0
  6
Continuous
 62
     7
370
    15
100
AcDbLine
 10
264.3793110023
 20
310.0374402115
 30
0.0
 11
259.7963694702
 21
244.4983167211
 31
0.0
  0
LINE
  5
1A4
330
1F
100
AcDbEntity
  8
0
  6
Continuous
 62
     7
370
    15
100
AcDbLine
 10
259.7941939006
 20
316.5753544876
 30
0.0
 11
262.605428345
 21
314.2164485166
 31
0.0
  0
LINE
  5
1A5
330
1F
100
AcDbEntity
  8
0
  6
Continuous
 62
     7
370
    15
100
AcDbLine
 10
353.8396876524
 20
314.2164485166
 30
0.0
 11
356.6509220968
 21
316.5753544876
 31
0.0
  0
LINE
  5
1A6
330
1F
100
AcDbEntity
  8
0
  6
Continuous
 62
     7
370
    15
100
AcDbLine
 10
260.8364444445
 20
322.2125829766
 30
0.0
 11
261.4417109857
 21
321.7125819633
 31
0.0
  0
LINE
  5
1A7
330
1F
100
AcDbEntity
  8
0
  6
Continuous
 62
     7
370
    15
100
AcDbLine
 10
355.0034050117
 20
321.7125819633
 30
0.0
 11
355.6086715529
 21
322.2125829766
 31
0.0
  0
ARC
  5
1A8
330
1F
100
AcDbEntity
  8
0
  6
Continuous
 62
     7
370
    15
100
AcDbCircle
 10
357.0536254877
 20
310.3862244507
 30
0.0
 40
5.000000000000008
100
AcDbArc
 50
130.0
 51
184.0
  0
ARC
  5
1A9
330
1F
100
AcDbEntity
  8
0
  6
Continuous
 62
     7
370
    15
100
AcDbCircle
 10
259.3914905097
 20
310.3862244507
 30
0.0
 40
5.000000000000008
100
AcDbArc
 50
356.0
 51
50.0
  0
LINE
  5
1AA
330
1F
100
AcDbEntity
  8
0
  6
Continuous
 62
     7
370
    15
100
AcDbLine
 10
264.7225592504
 20
352.3054184029
 30
0.0
 11
264.7225592504
 21
351.3054163763
 31
0.0
  0
LINE
  5
1AB
330
1F
100
AcDbEntity
  8
0
  6
Continuous
 62
     7
370
    15
100
AcDbLine
 10
351.722556747
 20
351.3054163763
 30
0.0
 11
351.722556747
 21
352.3054184029
 31
0.0
  0
ARC
  5
1AC
330
1F
100
AcDbEntity
  8
0
  6
Continuous
 62
     7
370
    15
100
AcDbCircle
 10
266.7225579987
 20
352.3054133733
 30
0.0
 40
2.0
100
AcDbArc
 50
90.0
 51
180.0
  0
ARC
  5
1AD
330
1F
100
AcDbEntity
  8
0
  6
Continuous
 62
     7
370
    15
100
AcDbCircle
 10
349.7225579987
 20
352.3054133733
 30
0.0
 40
2.0
100
AcDbArc
 50
0.0
 51
90.0
  0
LINE
  5
1AE
330
1F
100
AcDbEntity
  8
0
  6
Continuous
 62
     7
370
    15
100
AcDbLine
 10
357.2225567172
 20
223.7125845263
 30
0.0
 11
360.2225590716
 21
226.7125845524
 31
0.0
  0
LINE
  5
1AF
330
1F
100
AcDbEntity
  8
0
  6
Continuous
 62
     7
370
    15
100
AcDbLine
 10
256.2225569258
 20
226.7125845524
 30
0.0
 11
259.2225592802
 21
223.7125845263
 31
0.0
  0
LINE
  5
1B0
330
1F
100
AcDbEntity
  8
0
  6
Continuous
 62
     7
370
    15
100
AcDbLine
 10
227.156158186
 20
237.7125849584
 30
0.0
 11
227.156158186
 21
227.7125847163
 31
0.0
  0
LINE
  5
1B1
330
1F
100
AcDbEntity
  8
0
  6
Continuous
 62
     7
370
    15
100
AcDbLine
 10
389.2889578114
 20
227.7125847163
 30
0.0
 11
389.2889578114
 21
237.7125849584
 31
0.0
  0
LINE
  5
1B2
330
1F
100
AcDbEntity
  8
0
  6
Continuous
 62
     7
370
    15
100
AcDbLine
 10
224.212560452
 20
237.7125849584
 30
0.0
 11
224.212560452
 21
236.5866131717
 31
0.0
  0
ARC
  5
1B3
330
1F
100
AcDbEntity
  8
0
  6
Continuous
 62
     7
370
    15
100
AcDbCircle
 10
239.2125579987
 20
253.5880848926
 30
0.0
 40
22.67267151925521
100
AcDbArc
 50
228.5787947176
 51
237.8756191067
  0
LINE
  5
1B4
330
1F
100
AcDbEntity
  8
0
  6
Continuous
 62
     7
370
    15
100
AcDbLine
 10
392.2325555454
 20
236.5866131717
 30
0.0
 11
392.2325555454
 21
237.7125849584
 31
0.0
  0
ARC
  5
1B5
330
1F
100
AcDbEntity
  8
0
  6
Continuous
 62
     7
370
    15
100
AcDbCircle
 10
377.2325579987
 20
253.5880848926
 30
0.0
 40
22.67267151925524
100
AcDbArc
 50
302.1243808933
 51
311.4212052824
  0
LINE
  5
1B6
330
1F
100
AcDbEntity
  8
0
  6
Continuous
 62
     7
370
    15
100
AcDbLine
 10
251.2125592897
 20
351.3054163763
 30
0.0
 11
251.2125592897
 21
353.8054139922
 31
0.0
  0
LINE
  5
1B7
330
1F
100
AcDbEntity
  8
0
  6
Continuous
 62
     7
370
    15
100
AcDbLine
 10
227.2125590811
 20
353.8054139922
 30
0.0
 11
227.2125590811
 21
351.3054163763
 31
0.0
  0
LINE
  5
1B8
330
1F
100
AcDbEntity
  8
0
  6
Continuous
 62
     7
370
    15
100
AcDbLine
 10
389.2325569163
 20
351.3054163763
 30
0.0
 11
389.2325569163
 21
353.8054139922
 31
0.0
  0
LINE
  5
1B9
330
1F
100
AcDbEntity
  8
0
  6
Continuous
 62
     7
370
    15
100
AcDbLine
 10
365.2325567077
 20
353.8054139922
 30
0.0
 11
365.2325567077
 21
351.3054163763
 31
0.0
  0
LINE
  5
1BA
330
1F
100
AcDbEntity
  8
0
  6
Continuous
 62
     7
370
    15
100
AcDbLine
 10
247.2125586341
 20
370.7154156277
 30
0.0
 11
247.2125586341
 21
371.2154091904
 31
0.0
  0
LINE
  5
1BB
330
1F
100
AcDbEntity
  8
0
  6
Continuous
 62
     7
370
    15
100
AcDbLine
 10
231.2125597368
 20
371.2154091904
 30
0.0
 11
231.2125597368
 21
370.7154156277
 31
0.0
  0
LINE
  5
1BC
330
1F
100
AcDbEntity
  8
0
  6
Continuous
 62
     7
370
    15
100
AcDbLine
 10
385.2325562606
 20
370.7154156277
 30
0.0
 11
385.2325562606
 21
371.2154091904
 31
0.0
  0
LINE
  5
1BD
330
1F
100
AcDbEntity
  8
0
  6
Continuous
 62
     7
370
    15
100
AcDbLine
 10
369.2325573633
 20
371.2154091904
 30
0.0
 11
369.2325573633
 21
370.7154156277
 31
0.0
  0
LINE
  5
1BE
330
1F
100
AcDbEntity
  8
0
  6
Continuous
 62
     7
370
    15
100
AcDbLine
 10
245.7125593195
 20
371.2154091904
 30
0.0
 11
245.7125593195
 21
382.7154101441
 31
0.0
  0
LINE
  5
1BF
330
1F
100
AcDbEntity
  8
0
  6
Continuous
 62
     7
370
    15
100
AcDbLine
 10
232.712555326
 20
382.7154101441
 30
0.0
 11
232.712555326
 21
371.2154091904
 31
0.0
  0
LINE
  5
1C0
330
1F
100
AcDbEntity
  8
0
  6
Continuous
 62
     7
370
    15
100
AcDbLine
 10
383.7325606714
 20
371.2154091904
 30
0.0
 11
383.7325606714
 21
382.7154101441
 31
0.0
  0
LINE
  5
1C1
330
1F
100
AcDbEntity
  8
0
  6
Continuous
 62
     7
370
    15
100
AcDbLine
 10
370.7325566779
 20
382.7154101441
 30
0.0
 11
370.7325566779
 21
371.2154091904
 31
0.0
  0
LINE
  5
1C2
330
1F
100
AcDbEntity
  8
0
  6
Continuous
 62
     7
370
    15
100
AcDbLine
 10
245.2125583063
 20
363.8054193566
 30
0.0
 11
245.2125583063
 21
370.7154156277
 31
0.0
  0
LINE
  5
1C3
330
1F
100
AcDbEntity
  8
0
  6
Continuous
 62
     7
370
    15
100
AcDbLine
 10
233.2125563393
 20
370.7154156277
 30
0.0
 11
233.2125563393
 21
363.8054193566
 31
0.0
  0
LINE
  5
1C4
330
1F
100
AcDbEntity
  8
0
  6
Continuous
 62
     7
370
    15
100
AcDbLine
 10
245.2125583063
 20
246.5154142687
 30
0.0
 11
245.2125583063
 21
328.2550410936
 31
0.0
  0
LINE
  5
1C5
330
1F
100
AcDbEntity
  8
0
  6
Continuous
 62
     7
370
    15
100
AcDbLine
 10
233.2125563393
 20
342.2276885817
 30
0.0
 11
233.2125563393
 21
246.5154142687
 31
0.0
  0
LINE
  5
1C6
330
1F
100
AcDbEntity
  8
0
  6
Continuous
 62
     7
370
    15
100
AcDbLine
 10
383.2325596581
 20
363.8054193566
 30
0.0
 11
383.2325596581
 21
370.7154156277
 31
0.0
  0
LINE
  5
1C7
330
1F
100
AcDbEntity
  8
0
  6
Continuous
 62
     7
370
    15
100
AcDbLine
 10
371.2325576911
 20
370.7154156277
 30
0.0
 11
371.2325576911
 21
363.8054193566
 31
0.0
  0
LINE
  5
1C8
330
1F
100
AcDbEntity
  8
0
  6
Continuous
 62
     7
370
    15
100
AcDbLine
 10
383.2325596581
 20
246.5154142687
 30
0.0
 11
383.2325596581
 21
342.2276885817
 31
0.0
  0
LINE
  5
1C9
330
1F
100
AcDbEntity
  8
0
  6
Continuous
 62
     7
370
    15
100
AcDbLine
 10
371.2325576911
 20
328.2550410936
 30
0.0
 11
371.2325576911
 21
246.5154142687
 31
0.0
  0
LINE
  5
1CA
330
1F
100
AcDbEntity
  8
0
  6
Continuous
 62
     7
370
    15
100
AcDbLine
 10
393.2225588928
 20
237.7125849584
 30
0.0
 11
393.2225588928
 21
242.5817293683
 31
0.0
  0
LINE
  5
1CB
330
1F
100
AcDbEntity
  8
0
  6
Continuous
 62
     7
370
    15
100
AcDbLine
 10
223.2225571046
 20
242.5817293683
 30
0.0
 11
223.2225571046
 21
237.7125849584
 31
0.0
  0
LINE
  5
1CC
330
1F
100
AcDbEntity
  8
0
  6
Continuous
 62
     7
370
    15
100
AcDbLine
 10
300.2125580082
 20
371.2154091904
 30
0.0
 11
300.2125580082
 21
370.7154156277
 31
0.0
  0
LINE
  5
1CD
330
1F
100
AcDbEntity
  8
0
  6
Continuous
 62
     7
370
    15
100
AcDbLine
 10
301.7125577884
 20
382.7154101441
 30
0.0
 11
301.7125577884
 21
371.2154091904
 31
0.0
  0
LINE
  5
1CE
330
1F
100
AcDbEntity
  8
0
  6
Continuous
 62
     7
370
    15
100
AcDbLine
 10
302.2125578704
 20
370.7154156277
 30
0.0
 11
302.2125578704
 21
363.8054193566
 31
0.0
  0
LINE
  5
1CF
330
1F
100
AcDbEntity
  8
0
  6
Continuous
 62
     7
370
    15
100
AcDbLine
 10
324.2225587587
 20
351.3054163763
 30
0.0
 11
324.2225587587
 21
346.3054136941
 31
0.0
  0
LINE
  5
1D0
330
1F
100
AcDbEntity
  8
0
  6
Continuous
 62
     7
370
    15
100
AcDbLine
 10
292.2225572387
 20
351.3054163763
 30
0.0
 11
292.2225572387
 21
346.3054136941
 31
0.0
  0
LINE
  5
1D1
330
1F
100
AcDbEntity
  8
0
  6
Continuous
 62
     7
370
    15
100
AcDbLine
 10
324.2225587587
 20
351.3054163763
 30
0.0
 11
292.2225572387
 21
351.3054163763
 31
0.0
  0
LINE
  5
1D2
330
1F
100
AcDbEntity
  8
0
  6
Continuous
 62
     7
370
    15
100
AcDbLine
 10
324.2225587587
 20
346.3054136941
 30
0.0
 11
292.2225572387
 21
346.3054136941
 31
0.0
  0
LWPOLYLINE
  5
1D3
330
1F
100
AcDbEntity
  8
0
  6
Continuous
 62
     7
370
    15
100
AcDbPolyline
 90
        3
 70
   128
 43
0.0
 10
232.5875569353
 20
243.057141603
 10
234.2623207937
 20
243.1445685784
 10
245.8375577102
 20
243.7483282397
  0
LINE
  5
1D4
330
1F
100
AcDbEntity
  8
0
  6
Continuous
 62
     7
370
    15
100
AcDbLine
 10
314.9472043137
 20
244.4983167211
 30
0.0
 11
314.8575579966
 21
244.4983167211
 31
0.0
  0
LINE
  5
1D5
330
1F
100
AcDbEntity
  8
0
  6
Continuous
 62
     7
370
    15
100
AcDbLine
 10
301.6075581531
 20
244.4983167211
 30
0.0
 11
301.4979116837
 21
244.4983167211
 31
0.0
  0
LINE
  5
1D6
330
1F
100
AcDbEntity
  8
0
  6
Continuous
 62
     7
370
    15
100
AcDbLine
 10
356.1795685659
 20
244.4983167211
 30
0.0
 11
314.9472043137
 21
244.4983167211
 31
0.0
  0
LINE
  5
1D7
330
1F
100
AcDbEntity
  8
0
  6
Continuous
 62
     7
370
    15
100
AcDbLine
 10
356.6487465272
 20
244.4983167211
 30
0.0
 11
356.1795685659
 21
244.4983167211
 31
0.0
  0
LINE
  5
1D8
330
1F
100
AcDbEntity
  8
0
  6
Continuous
 62
     7
370
    15
100
AcDbLine
 10
260.2655474315
 20
244.4983167211
 30
0.0
 11
259.7963694702
 21
244.4983167211
 31
0.0
  0
LINE
  5
1D9
330
1F
100
AcDbEntity
  8
0
  6
Continuous
 62
     7
370
    15
100
AcDbLine
 10
301.4979116837
 20
244.4983167211
 30
0.0
 11
260.2655474315
 21
244.4983167211
 31
0.0
  0
SPLINE
  5
1DA
330
1F
100
AcDbEntity
  8
0
  6
Continuous
 62
     7
370
    15
100
AcDbSpline
210
0.0
220
0.0
230
1.0
 70
     8
 71
     3
 72
     8
 73
     4
 74
     0
 42
0.00000001
 43
0.00000001
 12
1.0
 22
0.0
 32
0.0
 13
1.0
 23
0.0
 33
0.0
 40
0.0
 40
0.0
 40
0.0
 40
0.0
 40
1.0
 40
1.0
 40
1.0
 40
1.0
 10
223.8022681436262
 20
242.6062962129033
 30
0.0
 10
225.4386883106813
 20
242.6763027433895
 30
0.0
 10
227.0751604276723
 20
242.7125845262888
 30
0.0
 10
228.7116884334816
 20
242.7125845262888
 30
0.0
  0
SPLINE
  5
1DB
330
1F
100
AcDbEntity
  8
0
  6
Continuous
 62
     7
370
    15
100
AcDbSpline
210
0.0
220
0.0
230
1.0
 70
     8
 71
     3
 72
    13
 73
     9
 74
     0
 42
0.00000001
 43
0.00000001
 12
1.0
 22
0.0
 32
0.0
 13
1.0
 23
0.0
 33
0.0
 40
0.0
 40
0.0
 40
0.0
 40
0.0
 40
0.0373618694129141
 40
0.2483329656310275
 40
0.4352782101255496
 40
0.6222234308142062
 40
0.8111118849597387
 40
1.0
 40
1.0
 40
1.0
 40
1.0
 10
223.2264314065375
 20
242.5817293683173
 30
0.0
 10
223.2252347454864
 20
242.5816783858749
 30
0.0
 10
223.2172809039804
 20
242.5813395211098
 30
0.0
 10
223.2511331510081
 20
242.5827811598056
 30
0.0
 10
223.325439289233
 20
242.5859415072414
 30
0.0
 10
223.4421744228838
 20
242.590918449051
 30
0.0
 10
223.5961692319631
 20
242.5974835096054
 30
0.0
 10
223.7335660711863
 20
242.6033583684199
 30
0.0
 10
223.8022644291319
 20
242.6062957951905
 30
0.0
  0
SPLINE
  5
1DC
330
1F
100
AcDbEntity
  8
0
  6
Continuous
 62
     7
370
    15
100
AcDbSpline
210
0.0
220
0.0
230
1.0
 70
     8
 71
     3
 72
    12
 73
     8
 74
     0
 42
0.00000001
 43
0.00000001
 12
1.0
 22
0.0
 32
0.0
 13
1.0
 23
0.0
 33
0.0
 40
0.0
 40
0.0
 40
0.0
 40
0.0
 40
0.2050249136480749
 40
0.4102072629282477
 40
0.6152321813656945
 40
0.8262117879598622
 40
1.0
 40
1.0
 40
1.0
 40
1.0
 10
392.6428515682616
 20
242.6062957951905
 30
0.0
 10
392.7170067849058
 20
242.6031258439801
 30
0.0
 10
392.8653741609003
 20
242.5967835074
 30
0.0
 10
393.0276947777795
 20
242.5898608028797
 30
0.0
 10
393.1448511905791
 20
242.584871321545
 30
0.0
 10
393.2126192780451
 20
242.5819876855323
 30
0.0
 10
393.2167974393242
 20
242.5818097407141
 30
0.0
 10
393.218684590856
 20
242.5817293683173
 30
0.0
  0
SPLINE
  5
1DD
330
1F
100
AcDbEntity
  8
0
  6
Continuous
 62
     7
370
    15
100
AcDbSpline
210
0.0
220
0.0
230
1.0
 70
     8
 71
     3
 72
     8
 73
     4
 74
     0
 42
0.00000001
 43
0.00000001
 12
1.0
 22
0.0
 32
0.0
 13
1.0
 23
0.0
 33
0.0
 40
0.0
 40
0.0
 40
0.0
 40
0.0
 40
1.0
 40
1.0
 40
1.0
 40
1.0
 10
387.7334275639139
 20
242.7125845262886
 30
0.0
 10
389.3699555697232
 20
242.7125845262886
 30
0.0
 10
391.0064276867142
 20
242.6763027433894
 30
0.0
 10
392.6428478537693
 20
242.6062962129031
 30
0.0
  0
LINE
  5
1DE
330
1F
100
AcDbEntity
  8
0
  6
Continuous
 62
     7
370
    15
100
AcDbLine
 10
387.7334255944
 20
242.7125839153
 30
0.0
 11
330.2287306855
 21
242.7125839153
 31
0.0
  0
SPLINE
  5
1DF
330
1F
100
AcDbEntity
  8
0
  6
Continuous
 62
     7
370
    15
100
AcDbSpline
210
0.0
220
0.0
230
1.0
 70
     8
 71
     3
 72
     8
 73
     4
 74
     0
 42
0.00000001
 43
0.00000001
 12
1.0
 22
0.0
 32
0.0
 13
1.0
 23
0.0
 33
0.0
 40
0.0
 40
0.0
 40
0.0
 40
0.0
 40
1.0
 40
1.0
 40
1.0
 40
1.0
 10
312.4904217249131
 20
242.6062962129031
 30
0.0
 10
318.4029988172115
 20
242.6763027433894
 30
0.0
 10
324.3157636106923
 20
242.7125845262886
 30
0.0
 10
330.2287303369982
 20
242.7125845262886
 30
0.0
  0
SPLINE
  5
1E0
330
1F
100
AcDbEntity
  8
0
  6
Continuous
 62
     7
370
    15
100
AcDbSpline
210
0.0
220
0.0
230
1.0
 70
     8
 71
     3
 72
    12
 73
     8
 74
     0
 42
0.00000001
 43
0.00000001
 12
1.0
 22
0.0
 32
0.0
 13
1.0
 23
0.0
 33
0.0
 40
0.0
 40
0.0
 40
0.0
 40
0.0
 40
0.5
 40
0.5
 40
0.75
 40
0.75
 40
1.0
 40
1.0
 40
1.0
 40
1.0
 10
303.9546942724808
 20
242.6062962129031
 30
0.0
 10
305.3526217988545
 20
242.5897443685103
 30
0.0
 10
306.770487933511
 20
242.5816219518498
 30
0.0
 10
308.9263840139706
 20
242.5815370783598
 30
0.0
 10
309.6533339661375
 20
242.5835952833303
 30
0.0
 10
311.084201194259
 20
242.5918465511151
 30
0.0
 10
311.7914566705538
 20
242.5980202754189
 30
0.0
 10
312.4904217249131
 20
242.6062962129031
 30
0.0
  0
SPLINE
  5
1E1
330
1F
100
AcDbEntity
  8
0
  6
Continuous
 62
     7
370
    15
100
AcDbSpline
210
0.0
220
0.0
230
1.0
 70
     8
 71
     3
 72
     8
 73
     4
 74
     0
 42
0.00000001
 43
0.00000001
 12
1.0
 22
0.0
 32
0.0
 13
1.0
 23
0.0
 33
0.0
 40
0.0
 40
0.0
 40
0.0
 40
0.0
 40
1.0
 40
1.0
 40
1.0
 40
1.0
 10
286.216385660396
 20
242.7125845262886
 30
0.0
 10
292.1293523867017
 20
242.7125845262886
 30
0.0
 10
298.0421171801825
 20
242.6763027433894
 30
0.0
 10
303.9546942724808
 20
242.6062962129031
 30
0.0
  0
LINE
  5
1E2
330
1F
100
AcDbEntity
  8
0
  6
Continuous
 62
     7
370
    15
100
AcDbLine
 10
286.2163853119
 20
242.7125839153
 30
0.0
 11
228.711690403
 21
242.7125839153
 31
0.0
  0
LWPOLYLINE
  5
1E3
330
1F
100
AcDbEntity
  8
0
  6
Continuous
 62
     7
370
    15
100
AcDbPolyline
 90
        3
 70
   128
 43
0.0
 10
370.6075582872
 20
243.7484381357
 10
372.2722787629
 20
243.6616686741
 10
383.857559062
 20
243.0572328726
  0
SPLINE
  5
1E4
330
1F
100
AcDbEntity
  8
0
  6
Continuous
 62
     7
370
    15
100
AcDbSpline
210
0.0
220
0.0
230
1.0
 70
     8
 71
     3
 72
     8
 73
     4
 74
     0
 42
0.00000001
 43
0.00000001
 12
1.0
 22
0.0
 32
0.0
 13
1.0
 23
0.0
 33
0.0
 40
0.0
 40
0.0
 40
0.0
 40
0.0
 40
1.0
 40
1.0
 40
1.0
 40
1.0
 10
301.6075579986975
 20
243.0572326909867
 30
0.0
 10
306.0242477449743
 20
243.0773998634756
 30
0.0
 10
310.4409870558094
 20
243.0773683689268
 30
0.0
 10
314.8575579986975
 20
243.057141231416
 30
0.0
  0
SPLINE
  5
1E5
330
1F
100
AcDbEntity
  8
0
  6
Continuous
 62
     7
370
    15
100
AcDbSpline
210
0.0
220
0.0
230
1.0
 70
     8
 71
     3
 72
    49
 73
    45
 74
     0
 42
0.00000001
 43
0.00000001
 12
1.0
 22
0.0
 32
0.0
 13
1.0
 23
0.0
 33
0.0
 40
0.0
 40
0.0
 40
0.0
 40
0.0
 40
0.0624999999999997
 40
0.0624999999999997
 40
0.1249999999999993
 40
0.1249999999999993
 40
0.1562499999999993
 40
0.1562499999999993
 40
0.1874999999999993
 40
0.1874999999999993
 40
0.2500000000000002
 40
0.2500000000000002
 40
0.3125000000000011
 40
0.3125000000000011
 40
0.3750000000000019
 40
0.3750000000000019
 40
0.4062500000000025
 40
0.4062500000000025
 40
0.4375000000000031
 40
0.4687500000000037
 40
0.4687500000000037
 40
0.5000000000000043
 40
0.5000000000000043
 40
0.5625000000000044
 40
0.5625000000000044
 40
0.5937500000000042
 40
0.5937500000000042
 40
0.6250000000000041
 40
0.6250000000000041
 40
0.6875000000000034
 40
0.6875000000000034
 40
0.718750000000003
 40
0.718750000000003
 40
0.7500000000000026
 40
0.7500000000000026
 40
0.8125000000000026
 40
0.8125000000000026
 40
0.8750000000000026
 40
0.8750000000000026
 40
0.9062500000000022
 40
0.9062500000000022
 40
0.9375000000000018
 40
0.9375000000000018
 40
1.0
 40
1.0
 40
1.0
 40
1.0
 10
273.8825675607757
 20
244.0164444422636
 30
0.0
 10
274.2694623306971
 20
244.0448992315331
 30
0.0
 10
274.6174985941807
 20
244.0736556075156
 30
0.0
 10
275.2328573993569
 20
244.1318181145677
 30
0.0
 10
275.4910763936247
 20
244.1603816489082
 30
0.0
 10
275.8045680149949
 20
244.2021511815842
 30
0.0
 10
275.8968342467783
 20
244.2159087692867
 30
0.0
 10
276.0563972235884
 20
244.2430665350419
 30
0.0
 10
276.123831224129
 20
244.2565226825583
 30
0.0
 10
276.2840309230357
 20
244.2954835939172
 30
0.0
 10
276.3368212634185
 20
244.3198229996438
 30
0.0
 10
276.3357817757617
 20
244.3650149518543
 30
0.0
 10
276.2801623554035
 20
244.3859745839382
 30
0.0
 10
276.0642524581902
 20
244.4222734438443
 30
0.0
 10
275.9047468538836
 20
244.4378552364179
 30
0.0
 10
275.5866728092271
 20
244.4570823702481
 30
0.0
 10
275.4669867018047
 20
244.462797518347
 30
0.0
 10
275.2061883229513
 20
244.4725459588321
 30
0.0
 10
274.9229452645733
 20
244.4806901134867
 30
0.0
 10
274.595601622216
 20
244.485637428868
 30
0.0
 10
274.2459641484761
 20
244.4889544743329
 30
0.0
 10
274.0591918029964
 20
244.4897973089685
 30
0.0
 10
273.4696652490653
 20
244.4897771804352
 30
0.0
 10
273.0441821435667
 20
244.4864153501573
 30
0.0
 10
272.3588257886473
 20
244.4765684203366
 30
0.0
 10
272.1224612247425
 20
244.4724806551521
 30
0.0
 10
271.6334731655416
 20
244.4626731381484
 30
0.0
 10
271.3812676341473
 20
244.456953170559
 30
0.0
 10
270.6168539357006
 20
244.4377674956437
 30
0.0
 10
270.0916474037006
 20
244.4221935172671
 30
0.0
 10
269.2804435987009
 20
244.394876386367
 30
0.0
 10
269.0045830046678
 20
244.3850480152625
 30
0.0
 10
268.4531309492838
 20
244.3643686160129
 30
0.0
 10
268.1779953142142
 20
244.3535419475745
 30
0.0
 10
267.3543096785061
 20
244.3196961322289
 30
0.0
 10
266.8074643604742
 20
244.2953252245666
 30
0.0
 10
265.7184688922665
 20
244.2431176804374
 30
0.0
 10
265.1894584639756
 20
244.2158962994646
 30
0.0
 10
264.4290058443898
 20
244.1741259871189
 30
0.0
 10
264.180462797866
 20
244.1600148547885
 30
0.0
 10
263.6934371539157
 20
244.1314232483184
 30
0.0
 10
263.4537022874923
 20
244.1168611109629
 30
0.0
 10
262.7639781187075
 20
244.07348116904
 30
0.0
 10
262.340503601586
 20
244.0448351906602
 30
0.0
 10
261.9523753813513
 20
244.0164444422636
 30
0.0
  0
LINE
  5
1E6
330
1F
100
AcDbEntity
  8
0
  6
Continuous
 62
     7
370
    15
100
AcDbLine
 10
261.9523737798
 20
244.016444833
 30
0.0
 11
258.0527063678
 21
243.7309329966
 31
0.0
  0
SPLINE
  5
1E7
330
1F
100
AcDbEntity
  8
0
  6
Continuous
 62
     7
370
    15
100
AcDbSpline
210
0.0
220
0.0
230
1.0
 70
     8
 71
     3
 72
    49
 73
    45
 74
     0
 42
0.00000001
 43
0.00000001
 12
1.0
 22
0.0
 32
0.0
 13
1.0
 23
0.0
 33
0.0
 40
0.0
 40
0.0
 40
0.0
 40
0.0
 40
0.0624999999999994
 40
0.0624999999999994
 40
0.1249999999999989
 40
0.1249999999999989
 40
0.1562499999999987
 40
0.1562499999999987
 40
0.1874999999999986
 40
0.1874999999999986
 40
0.2499999999999984
 40
0.2499999999999984
 40
0.3124999999999983
 40
0.3124999999999983
 40
0.3749999999999982
 40
0.3749999999999982
 40
0.4062499999999983
 40
0.4062499999999983
 40
0.4374999999999984
 40
0.4687499999999985
 40
0.4687499999999985
 40
0.4999999999999986
 40
0.4999999999999986
 40
0.5624999999999982
 40
0.5624999999999982
 40
0.593749999999998
 40
0.593749999999998
 40
0.6249999999999979
 40
0.6249999999999979
 40
0.6874999999999982
 40
0.6874999999999982
 40
0.7187499999999983
 40
0.7187499999999983
 40
0.7499999999999984
 40
0.7499999999999984
 40
0.8124999999999988
 40
0.8124999999999988
 40
0.8749999999999991
 40
0.8749999999999991
 40
0.9062499999999996
 40
0.9062499999999996
 40
0.9374999999999999
 40
0.9374999999999999
 40
1.0
 40
1.0
 40
1.0
 40
1.0
 10
258.0527076354236
 20
243.7309331070294
 30
0.0
 10
257.6617480654365
 20
243.7022855657243
 30
0.0
 10
257.3097914309081
 20
243.674098441125
 30
0.0
 10
256.6868820773835
 20
243.6185844315
 30
0.0
 10
256.4250526261439
 20
243.5920541077969
 30
0.0
 10
256.1067379611815
 20
243.554199082924
 30
0.0
 10
256.0129438965233
 20
243.5418898134702
 30
0.0
 10
255.8504939634466
 20
243.5178799930422
 30
0.0
 10
255.7817007632173
 20
243.5061328294656
 30
0.0
 10
255.6177921707381
 20
243.4725072548771
 30
0.0
 10
255.5629650983335
 20
243.4520200963689
 30
0.0
 10
255.5608459493003
 20
243.4146697744201
 30
0.0
 10
255.6153499168889
 20
243.3977336006348
 30
0.0
 10
255.8299672818534
 20
243.3688186090303
 30
0.0
 10
255.9893001988154
 20
243.3566321858337
 30
0.0
 10
256.307937603606
 20
243.3417248955821
 30
0.0
 10
256.4278586374332
 20
243.3373251652317
 30
0.0
 10
256.6892975254255
 20
243.3298467021181
 30
0.0
 10
256.9734099854758
 20
243.3236280991777
 30
0.0
 10
257.3021100352829
 20
243.3198686949044
 30
0.0
 10
257.6533731721102
 20
243.3173480669017
 30
0.0
 10
257.8412312952126
 20
243.316707842142
 30
0.0
 10
258.4332054875011
 20
243.3167155911138
 30
0.0
 10
258.8607243651551
 20
243.3192444756969
 30
0.0
 10
259.5498427776257
 20
243.326733494543
 30
0.0
 10
259.7875803041796
 20
243.3298506872048
 30
0.0
 10
260.2795843950157
 20
243.3373723304566
 30
0.0
 10
260.5329031060585
 20
243.3417684692805
 30
0.0
 10
261.3011694979579
 20
243.3566159296172
 30
0.0
 10
261.8292828753844
 20
243.3687811185811
 30
0.0
 10
262.645426854353
 20
243.3905427012963
 30
0.0
 10
262.923074406957
 20
243.3984361521716
 30
0.0
 10
263.4770688246932
 20
243.4151780046304
 30
0.0
 10
263.7535280239939
 20
243.4240224310655
 30
0.0
 10
264.5813309782535
 20
243.451973785996
 30
0.0
 10
265.1311154844687
 20
243.4724838795353
 30
0.0
 10
266.2263552875569
 20
243.5175879706383
 30
0.0
 10
266.7562568139768
 20
243.5415538470489
 30
0.0
 10
267.5196052037216
 20
243.5794091254277
 30
0.0
 10
267.7691116497095
 20
243.5923615485964
 30
0.0
 10
268.2580365686644
 20
243.6189683605902
 30
0.0
 10
268.4984145399627
 20
243.6326855820837
 30
0.0
 10
269.1893852672239
 20
243.6740838376277
 30
0.0
 10
269.6143356229925
 20
243.7022200865784
 30
0.0
 10
270.0040607136513
 20
243.7309331070294
 30
0.0
  0
LINE
  5
1E8
330
1F
100
AcDbEntity
  8
0
  6
Continuous
 62
     7
370
    15
100
AcDbLine
 10
270.0040597687
 20
243.7309329966
 30
0.0
 11
273.8825675319
 21
244.016444833
 31
0.0
  0
SPLINE
  5
1E9
330
1F
100
AcDbEntity
  8
0
  6
Continuous
 62
     7
370
    15
100
AcDbSpline
210
0.0
220
0.0
230
1.0
 70
     8
 71
     3
 72
    49
 73
    45
 74
     0
 42
0.00000001
 43
0.00000001
 12
1.0
 22
0.0
 32
0.0
 13
1.0
 23
0.0
 33
0.0
 40
0.0
 40
0.0
 40
0.0
 40
0.0
 40
0.0624999999999998
 40
0.0624999999999998
 40
0.1249999999999996
 40
0.1249999999999996
 40
0.1562499999999994
 40
0.1562499999999994
 40
0.1874999999999993
 40
0.1874999999999993
 40
0.2499999999999999
 40
0.2499999999999999
 40
0.3125000000000004
 40
0.3125000000000004
 40
0.375000000000001
 40
0.375000000000001
 40
0.4062500000000014
 40
0.4062500000000014
 40
0.4375000000000019
 40
0.4687500000000023
 40
0.4687500000000023
 40
0.5000000000000028
 40
0.5000000000000028
 40
0.5625000000000037
 40
0.5625000000000037
 40
0.5937500000000039
 40
0.5937500000000039
 40
0.6250000000000041
 40
0.6250000000000041
 40
0.6875000000000046
 40
0.6875000000000046
 40
0.7187500000000044
 40
0.7187500000000044
 40
0.7500000000000043
 40
0.7500000000000043
 40
0.8125000000000033
 40
0.8125000000000033
 40
0.8750000000000023
 40
0.8750000000000023
 40
0.9062500000000014
 40
0.9062500000000014
 40
0.9375000000000006
 40
0.9375000000000006
 40
1.0
 40
1.0
 40
1.0
 40
1.0
 10
354.4927406160423
 20
244.0164444422636
 30
0.0
 10
354.1037368968712
 20
244.0448992315331
 30
0.0
 10
353.6786147562391
 20
244.0736556075156
 30
0.0
 10
352.7533498936494
 20
244.1318181145677
 30
0.0
 10
352.2664766815216
 20
244.1603816489082
 30
0.0
 10
351.505823176346
 20
244.2021511815842
 30
0.0
 10
351.2469272958988
 20
244.2159087692867
 30
0.0
 10
350.7182232496381
 20
244.2430665350419
 30
0.0
 10
350.4471736524217
 20
244.2565226825583
 30
0.0
 10
349.6340613662289
 20
244.2954835939172
 30
0.0
 10
349.0879380797614
 20
244.3198229996438
 30
0.0
 10
347.9876881423237
 20
244.3650149518543
 30
0.0
 10
347.4293452173109
 20
244.3859745839382
 30
0.0
 10
346.3507657909396
 20
244.4222734438443
 30
0.0
 10
345.8253441544985
 20
244.4378552364179
 30
0.0
 10
345.0584077796326
 20
244.4570823702481
 30
0.0
 10
344.805856707679
 20
244.462797518347
 30
0.0
 10
344.3189753924194
 20
244.4725459588321
 30
0.0
 10
343.8474813772978
 20
244.4806901134867
 30
0.0
 10
343.4062206004645
 20
244.485637428868
 30
0.0
 10
342.9802432093168
 20
244.4889544743329
 30
0.0
 10
342.7741017628491
 20
244.4897973089685
 30
0.0
 10
342.1850380020869
 20
244.4897771804352
 30
0.0
 10
341.8367065665532
 20
244.4864153501573
 30
0.0
 10
341.3786339615477
 20
244.4765684203366
 30
0.0
 10
341.2367586371748
 20
244.4724806551521
 30
0.0
 10
340.9752320018813
 20
244.4626731381484
 30
0.0
 10
340.8560121987997
 20
244.456953170559
 30
0.0
 10
340.5395129581114
 20
244.4377674956437
 30
0.0
 10
340.3800369956148
 20
244.4221935172671
 30
0.0
 10
340.2180802385047
 20
244.394876386367
 30
0.0
 10
340.1769471689153
 20
244.3850480152625
 30
0.0
 10
340.1224514222806
 20
244.3643686160129
 30
0.0
 10
340.1089451518531
 20
244.3535419475745
 30
0.0
 10
340.1085448251302
 20
244.3196961322289
 30
0.0
 10
340.1613835648743
 20
244.2953252245666
 30
0.0
 10
340.376760147681
 20
244.2431176804374
 30
0.0
 10
340.537199454385
 20
244.2158962994646
 30
0.0
 10
340.8509793934311
 20
244.1741259871189
 30
0.0
 10
340.9679676585764
 20
244.1600148547885
 30
0.0
 10
341.2271826849051
 20
244.1314232483184
 30
0.0
 10
341.3703364527939
 20
244.1168611109629
 30
0.0
 10
341.8298030687065
 20
244.07348116904
 30
0.0
 10
342.1765244191927
 20
244.0448351906602
 30
0.0
 10
342.5625484366178
 20
244.0164444422636
 30
0.0
  0
LINE
  5
1EA
330
1F
100
AcDbEntity
  8
0
  6
Continuous
 62
     7
370
    15
100
AcDbLine
 10
342.5625484655
 20
244.016444833
 30
0.0
 11
346.4410562287
 21
243.7309329966
 31
0.0
  0
SPLINE
  5
1EB
330
1F
100
AcDbEntity
  8
0
  6
Continuous
 62
     7
370
    15
100
AcDbSpline
210
0.0
220
0.0
230
1.0
 70
     8
 71
     3
 72
    49
 73
    45
 74
     0
 42
0.00000001
 43
0.00000001
 12
1.0
 22
0.0
 32
0.0
 13
1.0
 23
0.0
 33
0.0
 40
0.0
 40
0.0
 40
0.0
 40
0.0
 40
0.0625
 40
0.0625
 40
0.1250000000000001
 40
0.1250000000000001
 40
0.1562500000000001
 40
0.1562500000000001
 40
0.1875000000000001
 40
0.1875000000000001
 40
0.2499999999999999
 40
0.2499999999999999
 40
0.3124999999999998
 40
0.3124999999999998
 40
0.3749999999999997
 40
0.3749999999999997
 40
0.4062499999999997
 40
0.4062499999999997
 40
0.4374999999999998
 40
0.4687499999999999
 40
0.4687499999999999
 40
0.4999999999999999
 40
0.4999999999999999
 40
0.5625000000000007
 40
0.5625000000000007
 40
0.593750000000001
 40
0.593750000000001
 40
0.6250000000000014
 40
0.6250000000000014
 40
0.6875000000000017
 40
0.6875000000000017
 40
0.7187500000000017
 40
0.7187500000000017
 40
0.7500000000000017
 40
0.7500000000000017
 40
0.8125000000000018
 40
0.8125000000000018
 40
0.875000000000002
 40
0.875000000000002
 40
0.9062500000000017
 40
0.9062500000000017
 40
0.9375000000000013
 40
0.9375000000000013
 40
1.0
 40
1.0
 40
1.0
 40
1.0
 10
346.4410552837422
 20
243.7309331070294
 30
0.0
 10
346.8298916185099
 20
243.7022855657243
 30
0.0
 10
347.2553302366731
 20
243.674098441125
 30
0.0
 10
348.1822187500646
 20
243.6185844315
 30
0.0
 10
348.6705588980174
 20
243.5920541077969
 30
0.0
 10
349.4338525942135
 20
243.554199082924
 30
0.0
 10
349.6937296706387
 20
243.5418898134702
 30
0.0
 10
350.2246028810023
 20
243.5178799930422
 30
0.0
 10
350.4968347749867
 20
243.5061328294656
 30
0.0
 10
351.3136048360628
 20
243.4725072548771
 30
0.0
 10
351.8624247471482
 20
243.4520200963689
 30
0.0
 10
352.968563543738
 20
243.4146697744201
 30
0.0
 10
353.5299601092283
 20
243.3977336006348
 30
0.0
 10
354.6144694661074
 20
243.3688186090303
 30
0.0
 10
355.1429417336353
 20
243.3566321858337
 30
0.0
 10
355.9145496614765
 20
243.3417248955821
 30
0.0
 10
356.168464160359
 20
243.3373251652317
 30
0.0
 10
356.6579500152389
 20
243.3298467021181
 30
0.0
 10
357.13202610465
 20
243.3236280991777
 30
0.0
 10
357.5757986914115
 20
243.3198686949044
 30
0.0
 10
358.0042364457311
 20
243.3173480669017
 30
0.0
 10
358.2117113486084
 20
243.316707842142
 30
0.0
 10
358.8034481677742
 20
243.3167155911138
 30
0.0
 10
359.1534238656034
 20
243.3192444756969
 30
0.0
 10
359.6135966334781
 20
243.326733494543
 30
0.0
 10
359.7561104837449
 20
243.3298506872049
 30
0.0
 10
360.018752464778
 20
243.3373723304566
 30
0.0
 10
360.1381901793618
 20
243.3417684692805
 30
0.0
 10
360.4553069208165
 20
243.3566159296172
 30
0.0
 10
360.6149114181841
 20
243.3687811185811
 30
0.0
 10
360.7763721527331
 20
243.3905427012964
 30
0.0
 10
360.8172067708575
 20
243.3984361521716
 30
0.0
 10
360.8707770643869
 20
243.4151780046304
 30
0.0
 10
360.8837342061242
 20
243.4240224310655
 30
0.0
 10
360.8821639207356
 20
243.451973785996
 30
0.0
 10
360.8275891970026
 20
243.4724838795353
 30
0.0
 10
360.6074247219601
 20
243.5175879706382
 30
0.0
 10
360.4446815596813
 20
243.5415538470489
 30
0.0
 10
360.1264060103329
 20
243.5794091254277
 30
0.0
 10
360.0077923612843
 20
243.5923615485964
 30
0.0
 10
359.7450124240238
 20
243.6189683605902
 30
0.0
 10
359.6000697874377
 20
243.6326855820837
 30
0.0
 10
359.1353644892553
 20
243.6740838376277
 30
0.0
 10
358.784261540887
 20
243.7022200865784
 30
0.0
 10
358.3924083619699
 20
243.7309331070294
 30
0.0
  0
LINE
  5
1EC
330
1F
100
AcDbEntity
  8
0
  6
Continuous
 62
     7
370
    15
100
AcDbLine
 10
358.3924096296
 20
243.7309329966
 30
0.0
 11
354.4927422176
 21
244.016444833
 31
0.0
  0
LINE
  5
1ED
330
1F
100
AcDbEntity
  8
0
  6
Continuous
 62
     7
370
    15
100
AcDbLine
 10
303.9546940694
 20
237.7125849584
 30
0.0
 11
312.490421928
 21
237.7125849584
 31
0.0
  0
LINE
  5
1EE
330
1F
100
AcDbEntity
  8
0
  6
Continuous
 62
     7
370
    15
100
AcDbLine
 10
324.8702470432
 20
230.7125847424
 30
0.0
 11
330.2287306855
 21
230.7125847424
 31
0.0
  0
LINE
  5
1EF
330
1F
100
AcDbEntity
  8
0
  6
Continuous
 62
     7
370
    15
100
AcDbLine
 10
312.490421928
 20
237.7125849584
 30
0.0
 11
324.8702470432
 21
237.7125849584
 31
0.0
  0
LINE
  5
1F0
330
1F
100
AcDbEntity
  8
0
  6
Continuous
 62
     7
370
    15
100
AcDbLine
 10
286.2163853119
 20
230.7125847424
 30
0.0
 11
291.5748689542
 21
230.7125847424
 31
0.0
  0
LINE
  5
1F1
330
1F
100
AcDbEntity
  8
0
  6
Continuous
 62
     7
370
    15
100
AcDbLine
 10
291.5748689542
 20
237.7125849584
 30
0.0
 11
303.9546940694
 21
237.7125849584
 31
0.0
  0
LINE
  5
1F2
330
1F
100
AcDbEntity
  8
0
  6
Continuous
 62
     7
370
    15
100
AcDbLine
 10
322.3367646555
 20
236.5866131717
 30
0.0
 11
294.1083513419
 21
236.5866131717
 31
0.0
  0
LINE
  5
1F3
330
1F
100
AcDbEntity
  8
0
  6
Continuous
 62
     7
370
    15
100
AcDbLine
 10
324.8702470432
 20
230.7125847424
 30
0.0
 11
322.3367646555
 21
230.7125847424
 31
0.0
  0
LINE
  5
1F4
330
1F
100
AcDbEntity
  8
0
  6
Continuous
 62
     7
370
    15
100
AcDbLine
 10
294.1083513419
 20
230.7125847424
 30
0.0
 11
291.5748689542
 21
230.7125847424
 31
0.0
  0
LINE
  5
1F5
330
1F
100
AcDbEntity
  8
0
  6
Continuous
 62
     7
370
    15
100
AcDbLine
 10
320.2325577135
 20
353.8054139922
 30
0.0
 11
296.2325584362
 21
353.8054139922
 31
0.0
  0
LINE
  5
1F6
330
1F
100
AcDbEntity
  8
0
  6
Continuous
 62
     7
370
    15
100
AcDbLine
 10
249.8862479101
 20
227.7125847163
 30
0.0
 11
228.711690403
 21
227.7125847163
 31
0.0
  0
LINE
  5
1F7
330
1F
100
AcDbEntity
  8
0
  6
Continuous
 62
     7
370
    15
100
AcDbLine
 10
249.8862479101
 20
230.7125847424
 30
0.0
 11
286.2163853119
 21
230.7125847424
 31
0.0
  0
LINE
  5
1F8
330
1F
100
AcDbEntity
  8
0
  6
Continuous
 62
     7
370
    15
100
AcDbLine
 10
366.5588680873
 20
227.7125847163
 30
0.0
 11
387.7334255944
 21
227.7125847163
 31
0.0
  0
LINE
  5
1F9
330
1F
100
AcDbEntity
  8
0
  6
Continuous
 62
     7
370
    15
100
AcDbLine
 10
366.5588680873
 20
230.7125847424
 30
0.0
 11
330.2287306855
 21
230.7125847424
 31
0.0
  0
LINE
  5
1FA
330
1F
100
AcDbEntity
  8
0
  6
Continuous
 62
     7
370
    15
100
AcDbLine
 10
298.9478675867
 20
322.2125829766
 30
0.0
 11
293.4852099265
 21
322.2125829766
 31
0.0
  0
LINE
  5
1FB
330
1F
100
AcDbEntity
  8
0
  6
Continuous
 62
     7
370
    15
100
AcDbLine
 10
293.4852099265
 20
322.2125829766
 30
0.0
 11
292.2225572387
 21
346.3054136941
 31
0.0
  0
LINE
  5
1FC
330
1F
100
AcDbEntity
  8
0
  6
Continuous
 62
     7
370
    15
100
AcDbLine
 10
298.9478675867
 20
322.2125829766
 30
0.0
 11
300.2105193431
 21
346.3054136941
 31
0.0
  0
LINE
  5
1FD
330
1F
100
AcDbEntity
  8
0
  6
Continuous
 62
     7
370
    15
100
AcDbLine
 10
324.2225587587
 20
346.3054136941
 30
0.0
 11
322.9599060709
 21
322.2125829766
 31
0.0
  0
LINE
  5
1FE
330
1F
100
AcDbEntity
  8
0
  6
Continuous
 62
     7
370
    15
100
AcDbLine
 10
322.9599060709
 20
322.2125829766
 30
0.0
 11
317.4972484107
 21
322.2125829766
 31
0.0
  0
LINE
  5
1FF
330
1F
100
AcDbEntity
  8
0
  6
Continuous
 62
     7
370
    15
100
AcDbLine
 10
316.2345966543
 20
346.3054136941
 30
0.0
 11
317.4972484107
 21
322.2125829766
 31
0.0
  0
LINE
  5
200
330
1F
100
AcDbEntity
  8
0
  6
Continuous
 62
     7
370
    15
100
AcDbLine
 10
297.2629029522
 20
363.8054193566
 30
0.0
 11
297.2629029522
 21
353.8054139922
 31
0.0
  0
LINE
  5
201
330
1F
100
AcDbEntity
  8
0
  6
Continuous
 62
     7
370
    15
100
AcDbLine
 10
297.2629029522
 20
363.8054193566
 30
0.0
 11
302.7477302807
 21
363.8054193566
 31
0.0
  0
LINE
  5
202
330
1F
100
AcDbEntity
  8
0
  6
Continuous
 62
     7
370
    15
100
AcDbLine
 10
302.7477302807
 20
363.8054193566
 30
0.0
 11
302.7477302807
 21
353.8054139922
 31
0.0
  0
LINE
  5
203
330
1F
100
AcDbEntity
  8
0
  6
Continuous
 62
     7
370
    15
100
AcDbLine
 10
313.7173854033
 20
363.8054193566
 30
0.0
 11
313.7173854033
 21
353.8054139922
 31
0.0
  0
LINE
  5
204
330
1F
100
AcDbEntity
  8
0
  6
Continuous
 62
     7
370
    15
100
AcDbLine
 10
302.7477302807
 20
363.8054193566
 30
0.0
 11
313.7173854033
 21
363.8054193566
 31
0.0
  0
LINE
  5
205
330
1F
100
AcDbEntity
  8
0
  6
Continuous
 62
     7
370
    15
100
AcDbLine
 10
319.2022131974
 20
363.8054193566
 30
0.0
 11
319.2022131974
 21
353.8054139922
 31
0.0
  0
LINE
  5
206
330
1F
100
AcDbEntity
  8
0
  6
Continuous
 62
     7
370
    15
100
AcDbLine
 10
313.7173854033
 20
363.8054193566
 30
0.0
 11
319.2022131974
 21
363.8054193566
 31
0.0
  0
LINE
  5
207
330
1F
100
AcDbEntity
  8
0
  6
Continuous
 62
     7
370
    15
100
AcDbLine
 10
316.2325579892
 20
370.7154156277
 30
0.0
 11
300.2325581605
 21
370.7154156277
 31
0.0
  0
LINE
  5
208
330
1F
100
AcDbEntity
  8
0
  6
Continuous
 62
     7
370
    15
100
AcDbLine
 10
316.2325579892
 20
371.2154091904
 30
0.0
 11
300.2325581605
 21
371.2154091904
 31
0.0
  0
LINE
  5
209
330
1F
100
AcDbEntity
  8
0
  6
Continuous
 62
     7
370
    15
100
AcDbLine
 10
301.6075581531
 20
246.5154142687
 30
0.0
 11
314.8575579966
 21
246.5154142687
 31
0.0
  0
LINE
  5
20A
330
1F
100
AcDbEntity
  8
0
  6
Continuous
 62
     7
370
    15
100
AcDbLine
 10
314.8575579966
 20
246.5154142687
 30
0.0
 11
314.8575579966
 21
243.057141603
 31
0.0
  0
LINE
  5
20B
330
1F
100
AcDbEntity
  8
0
  6
Continuous
 62
     7
370
    15
100
AcDbLine
 10
301.6075581531
 20
246.5154142687
 30
0.0
 11
301.6075581531
 21
243.0572328726
 31
0.0
  0
LINE
  5
20C
330
1F
100
AcDbEntity
  8
0
  6
Continuous
 62
     7
370
    15
100
AcDbLine
 10
314.732558209
 20
382.7154101441
 30
0.0
 11
301.7325579407
 21
382.7154101441
 31
0.0
  0
LINE
  5
20D
330
1F
100
AcDbEntity
  8
0
  6
Continuous
 62
     7
370
    15
100
AcDbLine
 10
336.1940473537
 20
230.7125847424
 30
0.0
 11
336.1940473537
 21
226.7125845524
 31
0.0
  0
LINE
  5
20E
330
1F
100
AcDbEntity
  8
0
  6
Continuous
 62
     7
370
    15
100
AcDbLine
 10
336.1940473537
 20
226.7125845524
 30
0.0
 11
372.4167306195
 21
226.7125845524
 31
0.0
  0
LINE
  5
20F
330
1F
100
AcDbEntity
  8
0
  6
Continuous
 62
     7
370
    15
100
AcDbLine
 10
280.2510686437
 20
230.7125847424
 30
0.0
 11
280.2510686437
 21
226.7125845524
 31
0.0
  0
LINE
  5
210
330
1F
100
AcDbEntity
  8
0
  6
Continuous
 62
     7
370
    15
100
AcDbLine
 10
244.0283853779
 20
226.7125845524
 30
0.0
 11
280.2510686437
 21
226.7125845524
 31
0.0
  0
LINE
  5
211
330
1F
100
AcDbEntity
  8
0
  6
Continuous
 62
     7
370
    15
100
AcDbLine
 10
280.2510686437
 20
226.7125845524
 30
0.0
 11
280.4779630373
 21
230.7125847424
 31
0.0
  0
LINE
  5
212
330
1F
100
AcDbEntity
  8
0
  6
Continuous
 62
     7
370
    15
100
AcDbLine
 10
280.2510686437
 20
226.7125845524
 30
0.0
 11
280.8090388993
 21
226.7125845524
 31
0.0
  0
LINE
  5
213
330
1F
100
AcDbEntity
  8
0
  6
Continuous
 62
     7
370
    15
100
AcDbLine
 10
336.1940473537
 20
226.7125845524
 30
0.0
 11
335.9671529601
 21
230.7125847424
 31
0.0
  0
LINE
  5
214
330
1F
100
AcDbEntity
  8
0
  6
Continuous
 62
     7
370
    15
100
AcDbLine
 10
335.6360770981
 20
226.7125845524
 30
0.0
 11
336.1940473537
 21
226.7125845524
 31
0.0
  0
LINE
  5
215
330
1F
100
AcDbEntity
  8
0
  6
Continuous
 62
     7
370
    15
100
AcDbLine
 10
298.9478675867
 20
322.2125829766
 30
0.0
 11
302.2325580227
 21
322.2125829766
 31
0.0
  0
LINE
  5
216
330
1F
100
AcDbEntity
  8
0
  6
Continuous
 62
     7
370
    15
100
AcDbLine
 10
314.232558127
 20
322.2125829766
 30
0.0
 11
317.4972484107
 21
322.2125829766
 31
0.0
  0
SPLINE
  5
217
330
1F
100
AcDbEntity
  8
0
  6
Continuous
 62
     7
370
    15
100
AcDbSpline
210
0.0
220
0.0
230
1.0
 70
     8
 71
     3
 72
     8
 73
     4
 74
     0
 42
0.00000001
 43
0.00000001
 12
1.0
 22
0.0
 32
0.0
 13
1.0
 23
0.0
 33
0.0
 40
0.0000002004362731
 40
0.0000002004362731
 40
0.0000002004362731
 40
0.0000002004362731
 40
0.0204532522125208
 40
0.0204532522125208
 40
0.0204532522125208
 40
0.0204532522125208
 10
252.5033097050627
 20
324.5817446356813
 30
0.0
 10
252.229416080018
 20
331.3845887824309
 30
0.0
 10
251.9575381882724
 20
338.1875141368537
 30
0.0
 10
251.6875902191792
 20
344.9905155641134
 30
0.0
  0
LINE
  5
218
330
1F
100
AcDbEntity
  8
0
  6
Continuous
 62
     7
370
    15
100
AcDbLine
 10
251.6875896821
 20
344.9905128786
 30
0.0
 11
292.2914695213
 21
344.9905128786
 31
0.0
  0
SPLINE
  5
219
330
1F
100
AcDbEntity
  8
0
  6
Continuous
 62
     7
370
    15
100
AcDbSpline
210
0.0
220
0.0
230
1.0
 70
     8
 71
     3
 72
     8
 73
     4
 74
     0
 42
0.00000001
 43
0.00000001
 12
1.0
 22
0.0
 32
0.0
 13
1.0
 23
0.0
 33
0.0
 40
0.0000006077928445
 40
0.0000006077928445
 40
0.0000006077928445
 40
0.0000006077928445
 40
0.0040071638698999
 40
0.0040071638698999
 40
0.0040071638698999
 40
0.0040071638698999
 10
251.6875902191792
 20
344.9905155641134
 30
0.0
 10
252.9485226033567
 20
345.4299803022932
 30
0.0
 10
254.2098360941864
 20
345.8683567440964
 30
0.0
 10
255.4716074814755
 20
346.3054133733194
 30
0.0
  0
SPLINE
  5
21A
330
1F
100
AcDbEntity
  8
0
  6
Continuous
 62
     7
370
    15
100
AcDbSpline
210
0.0
220
0.0
230
1.0
 70
     8
 71
     3
 72
     8
 73
     4
 74
     0
 42
0.00000001
 43
0.00000001
 12
1.0
 22
0.0
 32
0.0
 13
1.0
 23
0.0
 33
0.0
 40
0.0
 40
0.0
 40
0.0
 40
0.0
 40
1.0
 40
1.0
 40
1.0
 40
1.0
 10
267.771970858335
 20
350.5362278213644
 30
0.0
 10
263.6651065152115
 20
349.146237428356
 30
0.0
 10
259.5664229503485
 20
347.7316422977119
 30
0.0
 10
255.4716074814755
 20
346.3054133733194
 30
0.0
  0
LINE
  5
21B
330
1F
100
AcDbEntity
  8
0
  6
Continuous
 62
     7
370
    15
100
AcDbLine
 10
267.77197013
 20
350.5362333367
 30
0.0
 11
292.2225572387
 21
350.5362333367
 31
0.0
  0
LINE
  5
21C
330
1F
100
AcDbEntity
  8
0
  6
Continuous
 62
     7
370
    15
100
AcDbLine
 10
324.1536464761
 20
344.9905128786
 30
0.0
 11
364.7575263153
 21
344.9905128786
 31
0.0
  0
SPLINE
  5
21D
330
1F
100
AcDbEntity
  8
0
  6
Continuous
 62
     7
370
    15
100
AcDbSpline
210
0.0
220
0.0
230
1.0
 70
     8
 71
     3
 72
     8
 73
     4
 74
     0
 42
0.00000001
 43
0.00000001
 12
1.0
 22
0.0
 32
0.0
 13
1.0
 23
0.0
 33
0.0
 40
0.0000002004362731
 40
0.0000002004362731
 40
0.0000002004362731
 40
0.0000002004362731
 40
0.0204532522125208
 40
0.0204532522125208
 40
0.0204532522125208
 40
0.0204532522125208
 10
363.9418062923308
 20
324.5817446356813
 30
0.0
 10
364.2156999173755
 20
331.3845887824309
 30
0.0
 10
364.487577809121
 20
338.1875141368537
 30
0.0
 10
364.7575257782143
 20
344.9905155641134
 30
0.0
  0
SPLINE
  5
21E
330
1F
100
AcDbEntity
  8
0
  6
Continuous
 62
     7
370
    15
100
AcDbSpline
210
0.0
220
0.0
230
1.0
 70
     8
 71
     3
 72
     8
 73
     4
 74
     0
 42
0.00000001
 43
0.00000001
 12
1.0
 22
0.0
 32
0.0
 13
1.0
 23
0.0
 33
0.0
 40
0.0000006077928445
 40
0.0000006077928445
 40
0.0000006077928445
 40
0.0000006077928445
 40
0.0040071638698999
 40
0.0040071638698999
 40
0.0040071638698999
 40
0.0040071638698999
 10
364.7575257782143
 20
344.9905155641134
 30
0.0
 10
363.4965933940368
 20
345.4299803022932
 30
0.0
 10
362.2352799032071
 20
345.8683567440964
 30
0.0
 10
360.973508515918
 20
346.3054133733194
 30
0.0
  0
LINE
  5
21F
330
1F
100
AcDbEntity
  8
0
  6
Continuous
 62
     7
370
    15
100
AcDbLine
 10
324.2225587587
 20
350.5362333367
 30
0.0
 11
348.6731458674
 21
350.5362333367
 31
0.0
  0
SPLINE
  5
220
330
1F
100
AcDbEntity
  8
0
  6
Continuous
 62
     7
370
    15
100
AcDbSpline
210
0.0
220
0.0
230
1.0
 70
     8
 71
     3
 72
     8
 73
     4
 74
     0
 42
0.00000001
 43
0.00000001
 12
1.0
 22
0.0
 32
0.0
 13
1.0
 23
0.0
 33
0.0
 40
0.0
 40
0.0
 40
0.0
 40
0.0
 40
1.0
 40
1.0
 40
1.0
 40
1.0
 10
348.6731451390585
 20
350.5362278213644
 30
0.0
 10
352.7801046432964
 20
349.1462052205634
 30
0.0
 10
356.878955899469
 20
347.7315507459111
 30
0.0
 10
360.973508515918
 20
346.3054133733194
 30
0.0
  0
SPLINE
  5
221
330
1F
100
AcDbEntity
  8
0
  6
Continuous
 62
     7
370
    15
100
AcDbSpline
210
0.0
220
0.0
230
1.0
 70
     8
 71
     3
 72
    20
 73
    16
 74
     0
 42
0.00000001
 43
0.00000001
 12
1.0
 22
0.0
 32
0.0
 13
1.0
 23
0.0
 33
0.0
 40
0.0
 40
0.0
 40
0.0
 40
0.0
 40
0.2500000000000067
 40
0.2500000000000067
 40
0.3750000000000056
 40
0.3750000000000056
 40
0.5000000000000044
 40
0.5000000000000044
 40
0.6250000000000033
 40
0.6250000000000033
 40
0.7500000000000022
 40
0.7500000000000022
 40
0.8750000000000011
 40
0.8750000000000011
 40
1.0
 40
1.0
 40
1.0
 40
1.0
 10
361.3883555303291
 20
322.2125845262887
 30
0.0
 10
361.7077342351479
 20
322.2125845262887
 30
0.0
 10
362.0312822288848
 20
322.2709532982743
 30
0.0
 10
362.4791237773516
 20
322.4407737059378
 30
0.0
 10
362.6250007832468
 20
322.5119787003528
 30
0.0
 10
362.8995847756036
 20
322.6800326160198
 30
0.0
 10
363.0272764760292
 20
322.7758638138359
 30
0.0
 10
363.2634749876679
 20
322.9911153823572
 30
0.0
 10
363.3729758112368
 20
323.1121130920181
 30
0.0
 10
363.5636703856093
 20
323.3698922989986
 30
0.0
 10
363.6455858652357
 20
323.5067985361376
 30
0.0
 10
363.7821999861167
 20
323.7968550953108
 30
0.0
 10
363.836644959663
 20
323.9506472511258
 30
0.0
 10
363.9127339024629
 20
324.2613876814435
 30
0.0
 10
363.935291192046
 20
324.4199255651172
 30
0.0
 10
363.9418062923308
 20
324.5817446356813
 30
0.0
  0
LINE
  5
222
330
1F
100
AcDbEntity
  8
0
  6
Continuous
 62
     7
370
    15
100
AcDbLine
 10
322.9599060709
 20
322.2125829766
 30
0.0
 11
361.3883551429
 21
322.2125829766
 31
0.0
  0
SPLINE
  5
223
330
1F
100
AcDbEntity
  8
0
  6
Continuous
 62
     7
370
    15
100
AcDbSpline
210
0.0
220
0.0
230
1.0
 70
     8
 71
     3
 72
    20
 73
    16
 74
     0
 42
0.00000001
 43
0.00000001
 12
1.0
 22
0.0
 32
0.0
 13
1.0
 23
0.0
 33
0.0
 40
0.0
 40
0.0
 40
0.0
 40
0.0
 40
0.2500000000000067
 40
0.2500000000000067
 40
0.3750000000000056
 40
0.3750000000000056
 40
0.5000000000000044
 40
0.5000000000000044
 40
0.6250000000000033
 40
0.6250000000000033
 40
0.7500000000000022
 40
0.7500000000000022
 40
0.8750000000000011
 40
0.8750000000000011
 40
1.0
 40
1.0
 40
1.0
 40
1.0
 10
255.0567604670644
 20
322.2125845262887
 30
0.0
 10
254.7373817622456
 20
322.2125845262887
 30
0.0
 10
254.4138337685087
 20
322.2709532982743
 30
0.0
 10
253.9659922200419
 20
322.4407737059378
 30
0.0
 10
253.8201152141467
 20
322.5119787003528
 30
0.0
 10
253.5455312217899
 20
322.6800326160198
 30
0.0
 10
253.4178395213643
 20
322.7758638138359
 30
0.0
 10
253.1816410097256
 20
322.9911153823572
 30
0.0
 10
253.0721401861568
 20
323.1121130920181
 30
0.0
 10
252.8814456117842
 20
323.3698922989986
 30
0.0
 10
252.7995301321578
 20
323.5067985361376
 30
0.0
 10
252.6629160112768
 20
323.7968550953108
 30
0.0
 10
252.6084710377304
 20
323.9506472511258
 30
0.0
 10
252.5323820949306
 20
324.2613876814435
 30
0.0
 10
252.5098248053475
 20
324.4199255651172
 30
0.0
 10
252.5033097050627
 20
324.5817446356813
 30
0.0
  0
LINE
  5
224
330
1F
100
AcDbEntity
  8
0
  6
Continuous
 62
     7
370
    15
100
AcDbLine
 10
255.0567608545
 20
322.2125829766
 30
0.0
 11
293.4852099265
 21
322.2125829766
 31
0.0
  0
LINE
  5
225
330
1F
100
AcDbEntity
  8
0
  6
Continuous
 62
     7
370
    15
100
AcDbLine
 10
280.8090388993
 20
226.7125845524
 30
0.0
 11
294.1296441699
 21
226.7125845524
 31
0.0
  0
LINE
  5
226
330
1F
100
AcDbEntity
  8
0
  6
Continuous
 62
     7
370
    15
100
AcDbLine
 10
322.3154718275
 20
226.7125845524
 30
0.0
 11
335.6360770981
 21
226.7125845524
 31
0.0
  0
SPLINE
  5
227
330
1F
100
AcDbEntity
  8
0
  6
Continuous
 62
     7
370
    15
100
AcDbSpline
210
0.0
220
0.0
230
1.0
 70
     8
 71
     3
 72
    21
 73
    17
 74
     0
 42
0.00000001
 43
0.00000001
 12
1.0
 22
0.0
 32
0.0
 13
1.0
 23
0.0
 33
0.0
 40
0.0
 40
0.0
 40
0.0
 40
0.0
 40
0.1223432571199974
 40
0.3287811584652777
 40
0.4115660619265992
 40
0.4945439805563069
 40
0.5774363380682535
 40
0.6601118556711711
 40
0.7426426016217248
 40
0.7968678166333406
 40
0.8510233336117761
 40
0.8881641884754241
 40
0.9252257915450455
 40
0.950254222666523
 40
0.9752471569614631
 40
1.0
 40
1.0
 40
1.0
 40
1.0
 10
310.6306738904365
 20
231.0477179112019
 30
0.0
 10
310.5747957843325
 20
230.8446049542187
 30
0.0
 10
310.4246308394864
 20
230.2987660181934
 30
0.0
 10
310.2023478078569
 20
229.625479320279
 30
0.0
 10
309.9860075376571
 20
229.0222431804032
 30
0.0
 10
309.8306778749477
 20
228.6231814373191
 30
0.0
 10
309.6590538335509
 20
228.2309542832762
 30
0.0
 10
309.4659766725057
 20
227.8495678259844
 30
0.0
 10
309.2720765760824
 20
227.5247731763999
 30
0.0
 10
309.0826938716219
 20
227.2556813693702
 30
0.0
 10
308.9179435588115
 20
227.0659055622084
 30
0.0
 10
308.7538783276264
 20
226.917131050678
 30
0.0
 10
308.6118858709934
 20
226.8202763710416
 30
0.0
 10
308.4755096703122
 20
226.757018492275
 30
0.0
 10
308.3511086968457
 20
226.7197283020095
 30
0.0
 10
308.2652701353496
 20
226.7149581280475
 30
0.0
 10
308.2225579986967
 20
226.7125845523657
 30
0.0
  0
SPLINE
  5
228
330
1F
100
AcDbEntity
  8
0
  6
Continuous
 62
     7
370
    15
100
AcDbSpline
210
0.0
220
0.0
230
1.0
 70
     8
 71
     3
 72
    22
 73
    18
 74
     0
 42
0.00000001
 43
0.00000001
 12
1.0
 22
0.0
 32
0.0
 13
1.0
 23
0.0
 33
0.0
 40
0.0
 40
0.0
 40
0.0
 40
0.0
 40
0.0257237758230083
 40
0.0478983454821797
 40
0.0700950882358739
 40
0.1088915911112361
 40
0.1477886041856272
 40
0.1995958218731144
 40
0.2516050271464551
 40
0.3037851116201856
 40
0.3558262288147407
 40
0.4604637239929101
 40
0.5652308748681248
 40
0.6701073175039144
 40
0.7748942277221081
 40
0.9877324701297138
 40
1.0
 40
1.0
 40
1.0
 40
1.0
 10
308.2225579986967
 20
226.7125845523657
 30
0.0
 10
308.1781771781317
 20
226.7151256509793
 30
0.0
 10
308.0955389258459
 20
226.7198572432673
 30
0.0
 10
307.9789575476398
 20
226.7542221600609
 30
0.0
 10
307.8476578153394
 20
226.8120497281344
 30
0.0
 10
307.7030018596236
 20
226.9072123222975
 30
0.0
 10
307.5367196309053
 20
227.0564342120668
 30
0.0
 10
307.3734378799837
 20
227.2407993315371
 30
0.0
 10
307.2157563249461
 20
227.4585865258966
 30
0.0
 10
307.0748601564559
 20
227.6878944057854
 30
0.0
 10
306.9025157313093
 20
228.0035239303328
 30
0.0
 10
306.7067669896942
 20
228.4091309497575
 30
0.0
 10
306.4998081816402
 20
228.9091854476984
 30
0.0
 10
306.3141622611946
 20
229.4177217880547
 30
0.0
 10
306.0862063289947
 20
230.1082862497594
 30
0.0
 10
305.9179617553409
 20
230.6510000136541
 30
0.0
 10
305.8196418936756
 20
231.0257740319798
 30
0.0
 10
305.8142837821193
 20
231.0461979927601
 30
0.0
  0
LINE
  5
229
330
1F
100
AcDbEntity
  8
0
  6
Continuous
 62
     7
370
    15
100
AcDbLine
 10
322.3154718275
 20
226.7125845524
 30
0.0
 11
308.2225579987
 21
226.7125845524
 31
0.0
  0
LINE
  5
22A
330
1F
100
AcDbEntity
  8
0
  6
Continuous
 62
     7
370
    15
100
AcDbLine
 10
308.2225579987
 20
226.7125845524
 30
0.0
 11
294.1296441699
 21
226.7125845524
 31
0.0
  0
SPLINE
  5
22B
330
1F
100
AcDbEntity
  8
0
  6
Continuous
 62
     7
370
    15
100
AcDbSpline
210
0.0
220
0.0
230
1.0
 70
     8
 71
     3
 72
    10
 73
     6
 74
     0
 42
0.00000001
 43
0.00000001
 12
1.0
 22
0.0
 32
0.0
 13
1.0
 23
0.0
 33
0.0
 40
0.0
 40
0.0
 40
0.0
 40
0.0
 40
0.5000000000000001
 40
0.5000000000000001
 40
1.0
 40
1.0
 40
1.0
 40
1.0
 10
277.0921998889838
 20
223.7125845262887
 30
0.0
 10
277.2550395279897
 20
224.1446619914473
 30
0.0
 10
277.3264129786935
 20
224.6195837398338
 30
0.0
 10
277.3374199103085
 20
225.6257206115834
 30
0.0
 10
277.2759698576418
 20
226.1575175122425
 30
0.0
 10
277.1556101133672
 20
226.7125845262887
 30
0.0
  0
SPLINE
  5
22C
330
1F
100
AcDbEntity
  8
0
  6
Continuous
 62
     7
370
    15
100
AcDbSpline
210
0.0
220
0.0
230
1.0
 70
     8
 71
     3
 72
    10
 73
     6
 74
     0
 42
0.00000001
 43
0.00000001
 12
1.0
 22
0.0
 32
0.0
 13
1.0
 23
0.0
 33
0.0
 40
0.0
 40
0.0
 40
0.0
 40
0.0
 40
0.5
 40
0.5
 40
1.0
 40
1.0
 40
1.0
 40
1.0
 10
339.2895058840261
 20
226.7125845262882
 30
0.0
 10
339.1691461397516
 20
226.1575175122421
 30
0.0
 10
339.1076960870849
 20
225.6257206115831
 30
0.0
 10
339.1187030187
 20
224.6195837398337
 30
0.0
 10
339.1900764694038
 20
224.1446619914472
 30
0.0
 10
339.3529161084097
 20
223.7125845262887
 30
0.0
  0
LINE
  5
22D
330
1F
100
AcDbEntity
  8
0
  6
Continuous
 62
     7
370
    15
100
AcDbLine
 10
339.3529165755
 20
223.7125845263
 30
0.0
 11
277.0921994219
 21
223.7125845263
 31
0.0
  0
SPLINE
  5
22E
330
1F
100
AcDbEntity
  8
0
  6
Continuous
 62
     7
370
    15
100
AcDbSpline
210
0.0
220
0.0
230
1.0
 70
     8
 71
     3
 72
    12
 73
     8
 74
     0
 42
0.00000001
 43
0.00000001
 12
1.0
 22
0.0
 32
0.0
 13
1.0
 23
0.0
 33
0.0
 40
0.0
 40
0.0
 40
0.0
 40
0.0
 40
0.5
 40
0.5
 40
0.75
 40
0.75
 40
1.0
 40
1.0
 40
1.0
 40
1.0
 10
319.6869771899239
 20
261.6983172771607
 30
0.0
 10
319.090419533916
 20
258.7786086309328
 30
0.0
 10
318.4332335724021
 20
255.8756417562882
 30
0.0
 10
317.2892127381223
 20
251.5645470877723
 30
0.0
 10
316.8811211185962
 20
250.1348438725664
 30
0.0
 10
315.9858853384551
 20
247.2970213440287
 30
0.0
 10
315.499885554392
 20
245.8885916702673
 30
0.0
 10
314.9472044498091
 20
244.4983172771603
 30
0.0
  0
SPLINE
  5
22F
330
1F
100
AcDbEntity
  8
0
  6
Continuous
 62
     7
370
    15
100
AcDbSpline
210
0.0
220
0.0
230
1.0
 70
     8
 71
     3
 72
    16
 73
    12
 74
     0
 42
0.00000001
 43
0.00000001
 12
1.0
 22
0.0
 32
0.0
 13
1.0
 23
0.0
 33
0.0
 40
0.0
 40
0.0
 40
0.0
 40
0.0
 40
0.1009399443203551
 40
0.2240757838558881
 40
0.3477712328669852
 40
0.4713975107453022
 40
0.5944395471123239
 40
0.7032074213506435
 40
0.8124704778548033
 40
0.9216844124286383
 40
1.0
 40
1.0
 40
1.0
 40
1.0
 10
347.2202863762774
 20
299.9888943145157
 30
0.0
 10
347.284414300548
 20
299.9448171322689
 30
0.0
 10
347.4267713723173
 20
299.8469705440959
 30
0.0
 10
347.6366973830687
 20
299.6471193142002
 30
0.0
 10
347.8499202070338
 20
299.3974809223574
 30
0.0
 10
348.0503828984408
 20
299.1077808185434
 30
0.0
 10
348.2290840207307
 20
298.7932730148596
 30
0.0
 10
348.3863519196808
 20
298.4591717658076
 30
0.0
 10
348.5231782160614
 20
298.1117802463123
 30
0.0
 10
348.6362268649489
 20
297.7776956184815
 30
0.0
 10
348.6959825881199
 20
297.5516270098656
 30
0.0
 10
348.7209376166262
 20
297.4572168300034
 30
0.0
  0
ELLIPSE
  5
230
330
1F
100
AcDbEntity
  8
0
  6
Continuous
 62
     7
370
    15
100
AcDbEllipse
 10
308.2225579987
 20
284.017773166
 30
0.0
 11
45.64420996768677
 21
0.0
 31
0.0
210
0.0
220
0.0
230
1.0
 40
0.4073079628
 41
0.4160412824337836
 42
0.5225220395040266
  0
ELLIPSE
  5
231
330
1F
100
AcDbEntity
  8
0
  6
Continuous
 62
     7
370
    15
100
AcDbEllipse
 10
308.2225579987
 20
309.3290137224
 30
0.0
 11
43.83180624748672
 21
0.0
 31
0.0
210
0.0
220
0.0
230
1.0
 40
0.7546024
 41
6.034608007516901
 42
6.086193146241135
  0
ELLIPSE
  5
232
330
1F
100
AcDbEntity
  8
0
  6
Continuous
 62
     7
370
    15
100
AcDbEllipse
 10
308.2225579987
 20
286.3506935447
 30
0.0
 11
45.4811424106922
 21
0.0
 31
0.0
210
0.0
220
0.0
230
1.0
 40
0.4073079628
 41
5.825180744146757
 42
5.919167374187197
  0
ELLIPSE
  5
233
330
1F
100
AcDbEntity
  8
0
  6
Continuous
 62
     7
370
    15
100
AcDbEllipse
 10
308.2225579987
 20
263.0414737573
 30
0.0
 11
47.11254368054574
 21
0.0
 31
0.0
210
0.0
220
0.0
230
1.0
 40
0.3840023995
 41
0.2611545212905543
 42
0.3669539227099607
  0
SPLINE
  5
234
330
1F
100
AcDbEntity
  8
0
  6
Continuous
 62
     7
370
    15
100
AcDbSpline
210
0.0
220
0.0
230
1.0
 70
     8
 71
     3
 72
    12
 73
     8
 74
     0
 42
0.00000001
 43
0.00000001
 12
1.0
 22
0.0
 32
0.0
 13
1.0
 23
0.0
 33
0.0
 40
0.0
 40
0.0
 40
0.0
 40
0.0
 40
0.4999999999999997
 40
0.4999999999999997
 40
0.7499999999999998
 40
0.7499999999999998
 40
1.0
 40
1.0
 40
1.0
 40
1.0
 10
262.4118480538316
 20
261.6983172771607
 30
0.0
 10
262.0520936280345
 20
258.7786086309328
 30
0.0
 10
261.6920626956371
 20
255.8756417562882
 30
0.0
 10
261.1540267993249
 20
251.5645470877723
 30
0.0
 10
260.9750300469514
 20
250.1348438725664
 30
0.0
 10
260.6186433849887
 20
247.2970213440287
 30
0.0
 10
260.4412134544568
 20
245.8885916702673
 30
0.0
 10
260.2655466287627
 20
244.4983172771603
 30
0.0
  0
SPLINE
  5
235
330
1F
100
AcDbEntity
  8
0
  6
Continuous
 62
     7
370
    15
100
AcDbSpline
210
0.0
220
0.0
230
1.0
 70
     8
 71
     3
 72
    12
 73
     8
 74
     0
 42
0.00000001
 43
0.00000001
 12
1.0
 22
0.0
 32
0.0
 13
1.0
 23
0.0
 33
0.0
 40
0.0
 40
0.0
 40
0.0
 40
0.0
 40
0.25
 40
0.25
 40
0.5
 40
0.5
 40
1.0
 40
1.0
 40
1.0
 40
1.0
 10
356.1795693686305
 20
244.4983172771603
 30
0.0
 10
356.0039025429363
 20
245.8885916702673
 30
0.0
 10
355.8264726124044
 20
247.2970213440287
 30
0.0
 10
355.4700859504417
 20
250.1348438725664
 30
0.0
 10
355.2910891980682
 20
251.5645470877723
 30
0.0
 10
354.7530533017559
 20
255.8756417562882
 30
0.0
 10
354.3930223693585
 20
258.7786086309328
 30
0.0
 10
354.0332679435613
 20
261.6983172771607
 30
0.0
  0
LINE
  5
236
330
1F
100
AcDbEntity
  8
0
  6
Continuous
 62
     7
370
    15
100
AcDbLine
 10
319.6869768421
 20
261.6983154426
 30
0.0
 11
354.0332686375
 21
261.6983154426
 31
0.0
  0
SPLINE
  5
237
330
1F
100
AcDbEntity
  8
0
  6
Continuous
 62
     7
370
    15
100
AcDbSpline
210
0.0
220
0.0
230
1.0
 70
     8
 71
     3
 72
    12
 73
     8
 74
     0
 42
0.00000001
 43
0.00000001
 12
1.0
 22
0.0
 32
0.0
 13
1.0
 23
0.0
 33
0.0
 40
0.0
 40
0.0
 40
0.0
 40
0.0
 40
0.2499999999999999
 40
0.2499999999999999
 40
0.4999999999999997
 40
0.4999999999999997
 40
1.0
 40
1.0
 40
1.0
 40
1.0
 10
301.4979115475825
 20
244.4983172771603
 30
0.0
 10
300.9452304429997
 20
245.8885916702673
 30
0.0
 10
300.4592306589365
 20
247.2970213440287
 30
0.0
 10
299.5639948787954
 20
250.1348438725664
 30
0.0
 10
299.1559032592694
 20
251.5645470877723
 30
0.0
 10
298.0118824249896
 20
255.8756417562882
 30
0.0
 10
297.3546964634757
 20
258.7786086309328
 30
0.0
 10
296.7581388074678
 20
261.6983172771607
 30
0.0
  0
LINE
  5
238
330
1F
100
AcDbEntity
  8
0
  6
Continuous
 62
     7
370
    15
100
AcDbLine
 10
262.4118473599
 20
261.6983154426
 30
0.0
 11
296.7581391553
 21
261.6983154426
 31
0.0
  0
SPLINE
  5
239
330
1F
100
AcDbEntity
  8
0
  6
Continuous
 62
     7
370
    15
100
AcDbSpline
210
0.0
220
0.0
230
1.0
 70
     8
 71
     3
 72
     8
 73
     4
 74
     0
 42
0.00000001
 43
0.00000001
 12
1.0
 22
0.0
 32
0.0
 13
1.0
 23
0.0
 33
0.0
 40
0.0
 40
0.0
 40
0.0
 40
0.0
 40
1.0
 40
1.0
 40
1.0
 40
1.0
 10
342.4950606644838
 20
303.7125845262886
 30
0.0
 10
342.8900260269782
 20
299.3413982952246
 30
0.0
 10
343.2822797490316
 20
294.9699524099564
 30
0.0
 10
343.672080042311
 20
290.5982988120028
 30
0.0
  0
ELLIPSE
  5
23A
330
1F
100
AcDbEntity
  8
0
  6
Continuous
 62
     7
370
    15
100
AcDbEllipse
 10
308.2225579987
 20
278.6457369942
 30
0.0
 11
46.01970705821805
 21
0.0
 31
0.0
210
0.0
220
0.0
230
1.0
 40
0.4073079628
 41
0.3865716731812704
 42
0.6914663953263447
  0
ELLIPSE
  5
23B
330
1F
100
AcDbEntity
  8
0
  6
Continuous
 62
     7
370
    15
100
AcDbEllipse
 10
308.2225579987
 20
291.7227297165
 30
0.0
 11
45.10564532016087
 21
0.0
 31
0.0
210
0.0
220
0.0
230
1.0
 40
0.4073079628
 41
5.648315902196465
 42
5.949911838494748
  0
SPLINE
  5
23C
330
1F
100
AcDbEntity
  8
0
  6
Continuous
 62
     7
370
    15
100
AcDbSpline
210
0.0
220
0.0
230
1.0
 70
     8
 71
     3
 72
     8
 73
     4
 74
     0
 42
0.00000001
 43
0.00000001
 12
1.0
 22
0.0
 32
0.0
 13
1.0
 23
0.0
 33
0.0
 40
0.0
 40
0.0
 40
0.0
 40
0.0
 40
1.0
 40
1.0
 40
1.0
 40
1.0
 10
344.5393302426166
 20
280.8268702405743
 30
0.0
 10
344.9255360962249
 20
276.4556409243501
 30
0.0
 10
345.3094615119773
 20
272.0841993778544
 30
0.0
 10
345.6913082463329
 20
267.7125845262885
 30
0.0
  0
SPLINE
  5
23D
330
1F
100
AcDbEntity
  8
0
  6
Continuous
 62
     7
370
    15
100
AcDbSpline
210
0.0
220
0.0
230
1.0
 70
     8
 71
     3
 72
    10
 73
     6
 74
     0
 42
0.00000001
 43
0.00000001
 12
1.0
 22
0.0
 32
0.0
 13
1.0
 23
0.0
 33
0.0
 40
0.0
 40
0.0
 40
0.0
 40
0.0
 40
0.5
 40
0.5
 40
1.0
 40
1.0
 40
1.0
 40
1.0
 10
346.063023164456
 20
223.7125845262887
 30
0.0
 10
346.7564885316107
 20
224.1446619914473
 30
0.0
 10
347.418150244746
 20
224.6195837398338
 30
0.0
 10
348.6998767020862
 20
225.6257206115834
 30
0.0
 10
349.3195069833761
 20
226.1575175122424
 30
0.0
 10
349.9220154183112
 20
226.7125845262887
 30
0.0
  0
LINE
  5
23E
330
1F
100
AcDbEntity
  8
0
  6
Continuous
 62
     7
370
    15
100
AcDbLine
 10
339.3529165755
 20
223.7125845263
 30
0.0
 11
346.0630249451
 21
223.7125845263
 31
0.0
  0
SPLINE
  5
23F
330
1F
100
AcDbEntity
  8
0
  6
Continuous
 62
     7
370
    15
100
AcDbSpline
210
0.0
220
0.0
230
1.0
 70
     8
 71
     3
 72
    10
 73
     6
 74
     0
 42
0.00000001
 43
0.00000001
 12
1.0
 22
0.0
 32
0.0
 13
1.0
 23
0.0
 33
0.0
 40
0.0
 40
0.0
 40
0.0
 40
0.0
 40
0.5
 40
0.5
 40
1.0
 40
1.0
 40
1.0
 40
1.0
 10
266.5231005790823
 20
226.7125845262887
 30
0.0
 10
267.1256090140174
 20
226.1575175122425
 30
0.0
 10
267.7452392953072
 20
225.6257206115834
 30
0.0
 10
269.0269657526475
 20
224.6195837398338
 30
0.0
 10
269.6886274657828
 20
224.1446619914473
 30
0.0
 10
270.3820928329375
 20
223.7125845262887
 30
0.0
  0
LINE
  5
240
330
1F
100
AcDbEntity
  8
0
  6
Continuous
 62
     7
370
    15
100
AcDbLine
 10
270.3820910523
 20
223.7125845263
 30
0.0
 11
277.0921994219
 21
223.7125845263
 31
0.0
  0
LINE
  5
241
330
1F
100
AcDbEntity
  8
0
  6
Continuous
 62
     7
370
    15
100
AcDbLine
 10
348.6731458674
 20
351.3054163763
 30
0.0
 11
348.6731458674
 21
350.5362333367
 31
0.0
  0
LINE
  5
242
330
1F
100
AcDbEntity
  8
0
  6
Continuous
 62
     7
370
    15
100
AcDbLine
 10
267.77197013
 20
351.3054163763
 30
0.0
 11
267.77197013
 21
350.5362333367
 31
0.0
  0
LINE
  5
243
330
1F
100
AcDbEntity
  8
0
  6
Continuous
 62
     7
370
    15
100
AcDbLine
 10
319.2022131974
 20
354.3054075549
 30
0.0
 11
349.7225564192
 21
354.3054075549
 31
0.0
  0
LINE
  5
244
330
1F
100
AcDbEntity
  8
0
  6
Continuous
 62
     7
370
    15
100
AcDbLine
 10
266.7225595782
 20
354.3054075549
 30
0.0
 11
297.2629029522
 21
354.3054075549
 31
0.0
  0
LINE
  5
245
330
1F
100
AcDbEntity
  8
0
  6
Continuous
 62
     7
370
    15
100
AcDbLine
 10
357.2225567172
 20
223.7125845263
 30
0.0
 11
346.0630249451
 21
223.7125845263
 31
0.0
  0
LINE
  5
246
330
1F
100
AcDbEntity
  8
0
  6
Continuous
 62
     7
370
    15
100
AcDbLine
 10
270.3820910523
 20
223.7125845263
 30
0.0
 11
259.2225592802
 21
223.7125845263
 31
0.0
  0
SPLINE
  5
247
330
1F
100
AcDbEntity
  8
0
  6
Continuous
 62
     7
370
    15
100
AcDbSpline
210
0.0
220
0.0
230
1.0
 70
     8
 71
     3
 72
     8
 73
     4
 74
     0
 42
0.00000001
 43
0.00000001
 12
1.0
 22
0.0
 32
0.0
 13
1.0
 23
0.0
 33
0.0
 40
0.0
 40
0.0
 40
0.0
 40
0.0
 40
1.0
 40
1.0
 40
1.0
 40
1.0
 10
345.5704956781173
 20
290.5982988120028
 30
0.0
 10
345.1882047832786
 20
294.9699153651821
 30
0.0
 10
344.8038149431052
 20
299.3413576545541
 30
0.0
 10
344.4171216268547
 20
303.7125845262886
 30
0.0
  0
LINE
  5
248
330
1F
100
AcDbEntity
  8
0
  6
Continuous
 62
     7
370
    15
100
AcDbLine
 10
345.5704968641
 20
290.5983017394
 30
0.0
 11
343.6720814774
 21
290.5983017394
 31
0.0
  0
LINE
  5
249
330
1F
100
AcDbEntity
  8
0
  6
Continuous
 62
     7
370
    15
100
AcDbLine
 10
344.4171209107
 20
303.7125827381
 30
0.0
 11
342.4950611065
 21
303.7125827381
 31
0.0
  0
SPLINE
  5
24A
330
1F
100
AcDbEntity
  8
0
  6
Continuous
 62
     7
370
    15
100
AcDbSpline
210
0.0
220
0.0
230
1.0
 70
     8
 71
     3
 72
     8
 73
     4
 74
     0
 42
0.00000001
 43
0.00000001
 12
1.0
 22
0.0
 32
0.0
 13
1.0
 23
0.0
 33
0.0
 40
0.0
 40
0.0
 40
0.0
 40
0.0
 40
1.0
 40
1.0
 40
1.0
 40
1.0
 10
347.5534590755092
 20
267.7125845262885
 30
0.0
 10
347.1780065659422
 20
272.0841716237882
 30
0.0
 10
346.8007562084493
 20
276.4556112650251
 30
0.0
 10
346.4215454470863
 20
280.8268702405743
 30
0.0
  0
ELLIPSE
  5
24B
330
1F
100
AcDbEntity
  8
0
  6
Continuous
 62
     7
370
    15
100
AcDbEllipse
 10
308.2225579987
 20
291.7052859606
 30
0.0
 11
46.60991793676174
 21
0.0
 31
0.0
210
0.0
220
0.0
230
1.0
 40
0.4073079628
 41
5.673007832755274
 42
5.962031754002883
  0
ELLIPSE
  5
24C
330
1F
100
AcDbEntity
  8
0
  6
Continuous
 62
     7
370
    15
100
AcDbEllipse
 10
308.2225579987
 20
278.6282932383
 30
0.0
 11
47.52397967481892
 21
0.0
 31
0.0
210
0.0
220
0.0
230
1.0
 40
0.4073079628
 41
0.3746886817726233
 42
0.6666854679881441
  0
LINE
  5
24D
330
1F
100
AcDbEntity
  8
0
  6
Continuous
 62
     7
370
    15
100
AcDbLine
 10
344.4171209107
 20
303.7125827381
 30
0.0
 11
346.9126556287
 21
303.7125827381
 31
0.0
  0
SPLINE
  5
24E
330
1F
100
AcDbEntity
  8
0
  6
Continuous
 62
     7
370
    15
100
AcDbSpline
210
0.0
220
0.0
230
1.0
 70
     8
 71
     3
 72
     8
 73
     4
 74
     0
 42
0.00000001
 43
0.00000001
 12
1.0
 22
0.0
 32
0.0
 13
1.0
 23
0.0
 33
0.0
 40
0.0
 40
0.0
 40
0.0
 40
0.0
 40
1.0
 40
1.0
 40
1.0
 40
1.0
 10
346.9126550934171
 20
303.7125845262887
 30
0.0
 10
347.2071439354943
 20
300.1541252436468
 30
0.0
 10
347.5006781591946
 20
296.5955860827966
 30
0.0
 10
347.7933197281656
 20
293.036975538809
 30
0.0
  0
ELLIPSE
  5
24F
330
1F
100
AcDbEntity
  8
0
  6
Continuous
 62
     7
370
    15
100
AcDbEllipse
 10
308.2225579987
 20
282.5183883973
 30
0.0
 11
47.25206798857215
 21
0.0
 31
0.0
210
0.0
220
0.0
230
1.0
 40
0.4073079628
 41
0.2621217257186914
 42
0.5782145480827405
  0
LWPOLYLINE
  5
250
330
1F
100
AcDbEntity
  8
0
  6
Continuous
 62
     7
370
    15
100
AcDbPolyline
 90
        3
 70
   128
 43
0.0
 10
353.8606051574
 20
287.50564769
 10
353.9787639151
 20
285.8620570609
 10
354.1183915208
 20
283.919519336
  0
ELLIPSE
  5
251
330
1F
100
AcDbEntity
  8
0
  6
Continuous
 62
     7
370
    15
100
AcDbEllipse
 10
308.2225579987
 20
287.8151908017
 30
0.0
 11
46.88182962300851
 21
0.0
 31
0.0
210
0.0
220
0.0
230
1.0
 40
0.4073079628
 41
5.766868476235517
 42
6.0777313737604
  0
SPLINE
  5
252
330
1F
100
AcDbEntity
  8
0
  6
Continuous
 62
     7
370
    15
100
AcDbSpline
210
0.0
220
0.0
230
1.0
 70
     8
 71
     3
 72
     8
 73
     4
 74
     0
 42
0.00000001
 43
0.00000001
 12
1.0
 22
0.0
 32
0.0
 13
1.0
 23
0.0
 33
0.0
 40
0.0
 40
0.0
 40
0.0
 40
0.0
 40
1.0
 40
1.0
 40
1.0
 40
1.0
 10
348.9930309035535
 20
278.3881935137682
 30
0.0
 10
349.2833019219577
 20
274.8297221491915
 30
0.0
 10
349.5727568905467
 20
271.2711836633105
 30
0.0
 10
349.8614455496402
 20
267.7125845262886
 30
0.0
  0
LINE
  5
253
330
1F
100
AcDbEntity
  8
0
  6
Continuous
 62
     7
370
    15
100
AcDbLine
 10
349.8614464174
 20
267.7125842879
 30
0.0
 11
347.5534577141
 21
267.7125842879
 31
0.0
  0
LINE
  5
254
330
1F
100
AcDbEntity
  8
0
  6
Continuous
 62
     7
370
    15
100
AcDbLine
 10
352.4494018624
 20
285.712583513
 30
0.0
 11
350.8463349412
 21
285.712583513
 31
0.0
  0
LINE
  5
255
330
1F
100
AcDbEntity
  8
0
  6
Continuous
 62
     7
370
    15
100
AcDbLine
 10
346.4215468834
 20
280.8268690119
 30
0.0
 11
344.5393290589
 21
280.8268690119
 31
0.0
  0
LINE
  5
256
330
1F
100
AcDbEntity
  8
0
  6
Continuous
 62
     7
370
    15
100
AcDbLine
 10
347.5534577141
 20
267.7125842879
 30
0.0
 11
345.6913080285
 21
267.7125842879
 31
0.0
  0
SPLINE
  5
257
330
1F
100
AcDbEntity
  8
0
  6
Continuous
 62
     7
370
    15
100
AcDbSpline
210
0.0
220
0.0
230
1.0
 70
     8
 71
     3
 72
    22
 73
    18
 74
     0
 42
0.00000001
 43
0.00000001
 12
1.0
 22
0.0
 32
0.0
 13
1.0
 23
0.0
 33
0.0
 40
0.0
 40
0.0
 40
0.0
 40
0.0
 40
0.125
 40
0.125
 40
0.25
 40
0.25
 40
0.375
 40
0.375
 40
0.5
 40
0.5
 40
0.625
 40
0.625
 40
0.75
 40
0.75
 40
0.875
 40
0.875
 40
1.0
 40
1.0
 40
1.0
 40
1.0
 10
350.6264272096272
 20
295.9864870603444
 30
0.0
 10
350.5979507431113
 20
296.2954346253387
 30
0.0
 10
350.5562657976067
 20
296.5959237479313
 30
0.0
 10
350.4477046005364
 20
297.1811262555892
 30
0.0
 10
350.3797914949131
 20
297.4686630272931
 30
0.0
 10
350.2231624711345
 20
298.0051269705936
 30
0.0
 10
350.1343674286325
 20
298.2561146600408
 30
0.0
 10
349.9349385691937
 20
298.7247318790032
 30
0.0
 10
349.8256297176016
 20
298.9385752112754
 30
0.0
 10
349.5924775936307
 20
299.3190978500762
 30
0.0
 10
349.4668810482081
 20
299.4885186782336
 30
0.0
 10
349.2033109541026
 20
299.7784815811173
 30
0.0
 10
349.0665352002962
 20
299.898252744669
 30
0.0
 10
348.7824951556263
 20
300.0908406726921
 30
0.0
 10
348.6341675196032
 20
300.1638116183103
 30
0.0
 10
348.3332643150158
 20
300.2600899395013
 30
0.0
 10
348.180373872492
 20
300.2840130977172
 30
0.0
 10
348.024904302405
 20
300.2840130977172
 30
0.0
  0
LINE
  5
258
330
1F
100
AcDbEntity
  8
0
  6
Continuous
 62
     7
370
    15
100
AcDbLine
 10
348.0249043773
 20
300.284011812
 30
0.0
 11
347.1959043513
 21
300.284011812
 31
0.0
  0
LINE
  5
259
330
1F
100
AcDbEntity
  8
0
  6
Continuous
 62
     7
370
    15
100
AcDbLine
 10
347.7474037776
 20
303.7125827381
 30
0.0
 11
349.5623801122
 21
303.7125827381
 31
0.0
  0
LWPOLYLINE
  5
25A
330
1F
100
AcDbEntity
  8
0
  6
Continuous
 62
     7
370
    15
100
AcDbPolyline
 90
        3
 70
   128
 43
0.0
 10
349.5623801122
 20
303.7125827381
 10
349.6158045004
 20
303.0227409313
 10
349.6420342694
 20
302.6840151856
  0
SPLINE
  5
25B
330
1F
100
AcDbEntity
  8
0
  6
Continuous
 62
     7
370
    15
100
AcDbSpline
210
0.0
220
0.0
230
1.0
 70
     8
 71
     3
 72
    16
 73
    12
 74
     0
 42
0.00000001
 43
0.00000001
 12
1.0
 22
0.0
 32
0.0
 13
1.0
 23
0.0
 33
0.0
 40
0.0
 40
0.0
 40
0.0
 40
0.0
 40
0.2500000000000004
 40
0.2500000000000004
 40
0.5000000000000009
 40
0.5000000000000009
 40
0.6249999999999991
 40
0.6249999999999991
 40
0.7499999999999973
 40
0.7499999999999973
 40
1.0
 40
1.0
 40
1.0
 40
1.0
 10
349.6420324274997
 20
302.6840130977172
 30
0.0
 10
349.8452906919364
 20
302.5301067770964
 30
0.0
 10
350.0348171123159
 20
302.3297271530496
 30
0.0
 10
350.3897788806416
 20
301.8333708531301
 30
0.0
 10
350.5561303264723
 20
301.5334866202357
 30
0.0
 10
350.7764250356204
 20
301.0300594538631
 30
0.0
 10
350.845562837987
 20
300.8526166251417
 30
0.0
 10
350.9756074980907
 20
300.47781290462
 30
0.0
 10
351.0368601305013
 20
300.279157480548
 30
0.0
 10
351.2056782273615
 20
299.6603550607821
 30
0.0
 10
351.297354399208
 20
299.2237951492766
 30
0.0
 10
351.3690107619637
 20
298.7620495033652
 30
0.0
  0
ELLIPSE
  5
25C
330
1F
100
AcDbEntity
  8
0
  6
Continuous
 62
     7
370
    15
100
AcDbEllipse
 10
308.2225579987
 20
309.2691407855
 30
0.0
 11
45.33756100127152
 21
0.0
 31
0.0
210
0.0
220
0.0
230
1.0
 40
0.7546024
 41
5.971021448443731
 42
6.094599257033816
  0
LWPOLYLINE
  5
25D
330
1F
100
AcDbEntity
  8
0
  6
Continuous
 62
     7
370
    15
100
AcDbPolyline
 90
        3
 70
   128
 43
0.0
 10
352.7562987278
 20
302.855438144
 10
352.9113862882
 20
300.7009761045
 10
353.076886035
 20
298.4014140079
  0
ELLIPSE
  5
25E
330
1F
100
AcDbEntity
  8
0
  6
Continuous
 62
     7
370
    15
100
AcDbEllipse
 10
308.2225579987
 20
304.8027138074
 30
0.0
 11
45.64945009825414
 21
0.0
 31
0.0
210
0.0
220
0.0
230
1.0
 40
0.7546024
 41
5.988029229863121
 42
6.096269471460262
  0
ELLIPSE
  5
25F
330
1F
100
AcDbEntity
  8
0
  6
Continuous
 62
     7
370
    15
100
AcDbEllipse
 10
308.2225579987
 20
287.8441139124
 30
0.0
 11
46.8798079419247
 21
0.0
 31
0.0
210
0.0
220
0.0
230
1.0
 40
0.4073079628
 41
0.2640185966423614
 42
0.3718776171865893
  0
LWPOLYLINE
  5
260
330
1F
100
AcDbEntity
  8
0
  6
Continuous
 62
     7
370
    15
100
AcDbPolyline
 90
        3
 70
   128
 43
0.0
 10
353.4779358874
 20
292.8270609686
 10
353.6072258125
 20
291.0294221351
 10
353.7541438113
 20
288.986390979
  0
ELLIPSE
  5
261
330
1F
100
AcDbEntity
  8
0
  6
Continuous
 62
     7
370
    15
100
AcDbEllipse
 10
308.2225579987
 20
284.0003294102
 30
0.0
 11
47.14848258428759
 21
0.0
 31
0.0
210
0.0
220
0.0
230
1.0
 40
0.4073079628
 41
0.2626464459711872
 42
0.5452035389547276
  0
LWPOLYLINE
  5
262
330
1F
100
AcDbEntity
  8
0
  6
Continuous
 62
     7
370
    15
100
AcDbPolyline
 90
        3
 70
   128
 43
0.0
 10
348.5355373691
 20
293.9593480537
 10
348.403013892
 20
295.6027077148
 10
348.2256490956
 20
297.8000180433
  0
ELLIPSE
  5
263
330
1F
100
AcDbEntity
  8
0
  6
Continuous
 62
     7
370
    15
100
AcDbEllipse
 10
308.2225579987
 20
287.8441139124
 30
0.0
 11
46.8798079419247
 21
0.0
 31
0.0
210
0.0
220
0.0
230
1.0
 40
0.4073079628
 41
0.4405363039899302
 42
0.5484920699640339
  0
LWPOLYLINE
  5
264
330
1F
100
AcDbEntity
  8
0
  6
Continuous
 62
     7
370
    15
100
AcDbPolyline
 90
        3
 70
   128
 43
0.0
 10
348.0249043773
 20
300.284011812
 10
347.9117747615
 20
301.6824932406
 10
347.7474037776
 20
303.7125827381
  0
LINE
  5
265
330
1F
100
AcDbEntity
  8
0
  6
Continuous
 62
     7
370
    15
100
AcDbLine
 10
347.7474037776
 20
303.7125827381
 30
0.0
 11
346.9126556287
 21
303.7125827381
 31
0.0
  0
LINE
  5
266
330
1F
100
AcDbEntity
  8
0
  6
Continuous
 62
     7
370
    15
100
AcDbLine
 10
348.5355373691
 20
293.9593480537
 30
0.0
 11
347.7173593114
 21
293.9593480537
 31
0.0
  0
LINE
  5
267
330
1F
100
AcDbEntity
  8
0
  6
Continuous
 62
     7
370
    15
100
AcDbLine
 10
348.2256490956
 20
297.8000180433
 30
0.0
 11
347.4010635386
 21
297.8000180433
 31
0.0
  0
LINE
  5
268
330
1F
100
AcDbEntity
  8
0
  6
Continuous
 62
     7
370
    15
100
AcDbLine
 10
353.7541438113
 20
288.986390979
 30
0.0
 11
352.7263473938
 21
288.986390979
 31
0.0
  0
SPLINE
  5
269
330
1F
100
AcDbEntity
  8
0
  6
Continuous
 62
     7
370
    15
100
AcDbSpline
210
0.0
220
0.0
230
1.0
 70
     8
 71
     3
 72
     8
 73
     4
 74
     0
 42
0.00000001
 43
0.00000001
 12
1.0
 22
0.0
 32
0.0
 13
1.0
 23
0.0
 33
0.0
 40
0.0
 40
0.0
 40
0.0
 40
0.0
 40
1.0
 40
1.0
 40
1.0
 40
1.0
 10
350.6382013969756
 20
267.7125845262885
 30
0.0
 10
350.3792865007509
 20
270.9637069563304
 30
0.0
 10
350.1198321810036
 20
274.2147875604934
 30
0.0
 10
349.8598078877469
 20
277.4658210386389
 30
0.0
  0
LINE
  5
26A
330
1F
100
AcDbEntity
  8
0
  6
Continuous
 62
     7
370
    15
100
AcDbLine
 10
350.6382029722
 20
267.7125842879
 30
0.0
 11
349.8614464174
 21
267.7125842879
 31
0.0
  0
LINE
  5
26B
330
1F
100
AcDbEntity
  8
0
  6
Continuous
 62
     7
370
    15
100
AcDbLine
 10
349.8598072896
 20
277.4658226976
 30
0.0
 11
349.0681607495
 21
277.4658226976
 31
0.0
  0
ELLIPSE
  5
26C
330
1F
100
AcDbEntity
  8
0
  6
Continuous
 62
     7
370
    15
100
AcDbEllipse
 10
308.2225579987
 20
286.3332497888
 30
0.0
 11
46.98541502729302
 21
0.0
 31
0.0
210
0.0
220
0.0
230
1.0
 40
0.4073079628
 41
5.80141044132247
 42
6.0782548922474
  0
LINE
  5
26D
330
1F
100
AcDbEntity
  8
0
  6
Continuous
 62
     7
370
    15
100
AcDbLine
 10
354.2248118887
 20
282.4387797723
 30
0.0
 11
353.2077703844
 21
282.4387797723
 31
0.0
  0
LWPOLYLINE
  5
26E
330
1F
100
AcDbEntity
  8
0
  6
Continuous
 62
     7
370
    15
100
AcDbPolyline
 90
        3
 70
   128
 43
0.0
 10
352.0760160158
 20
271.0851044962
 10
352.2034805487
 20
269.4217549274
 10
352.3343947003
 20
267.7125842879
  0
LINE
  5
26F
330
1F
100
AcDbEntity
  8
0
  6
Continuous
 62
     7
370
    15
100
AcDbLine
 10
352.3343947003
 20
267.7125842879
 30
0.0
 11
350.6382029722
 21
267.7125842879
 31
0.0
  0
LWPOLYLINE
  5
270
330
1F
100
AcDbEntity
  8
0
  6
Continuous
 62
     7
370
    15
100
AcDbPolyline
 90
        3
 70
   128
 43
0.0
 10
354.2248118887
 20
282.4387797723
 10
354.350138105
 20
280.6946808109
 10
354.5007739435
 20
278.5981097827
  0
ELLIPSE
  5
271
330
1F
100
AcDbEntity
  8
0
  6
Continuous
 62
     7
370
    15
100
AcDbEllipse
 10
308.2225579987
 20
282.4894652866
 30
0.0
 11
47.25408966965597
 21
0.0
 31
0.0
210
0.0
220
0.0
230
1.0
 40
0.4073079628
 41
6.038686796643461
 42
6.079601809708926
  0
LWPOLYLINE
  5
272
330
1F
100
AcDbEntity
  8
0
  6
Continuous
 62
     7
370
    15
100
AcDbPolyline
 90
        3
 70
   128
 43
0.0
 10
354.0712554226
 20
277.8303572545
 10
354.2614426682
 20
275.210211576
 10
354.4764850507
 20
272.2466574619
  0
ELLIPSE
  5
273
330
1F
100
AcDbEntity
  8
0
  6
Continuous
 62
     7
370
    15
100
AcDbEllipse
 10
308.2225579987
 20
266.8389321591
 30
0.0
 11
48.35021624696731
 21
0.0
 31
0.0
210
0.0
220
0.0
230
1.0
 40
0.3840023995
 41
0.2550294311783902
 42
0.295544713685448
  0
LWPOLYLINE
  5
274
330
1F
100
AcDbEntity
  8
0
  6
Continuous
 62
     7
370
    15
100
AcDbPolyline
 90
        3
 70
   128
 43
0.0
 10
355.0089296172
 20
271.5228000293
 10
355.1290255258
 20
269.8500590036
 10
355.2824627827
 20
267.7125842879
  0
ELLIPSE
  5
275
330
1F
100
AcDbEntity
  8
0
  6
Continuous
 62
     7
370
    15
100
AcDbEllipse
 10
308.2225579987
 20
263.0259691035
 30
0.0
 11
48.61674852549152
 21
0.0
 31
0.0
210
0.0
220
0.0
230
1.0
 40
0.3840023995
 41
0.2537524473476347
 42
0.4463617636605055
  0
ELLIPSE
  5
276
330
1F
100
AcDbEntity
  8
0
  6
Continuous
 62
     7
370
    15
100
AcDbEllipse
 10
308.2225579987
 20
266.4714176477
 30
0.0
 11
48.37590610513831
 21
0.0
 31
0.0
210
0.0
220
0.0
230
1.0
 40
0.3840023995
 41
0.3665815046396265
 42
0.4629406233657264
  0
LWPOLYLINE
  5
277
330
1F
100
AcDbEntity
  8
0
  6
Continuous
 62
     7
370
    15
100
AcDbPolyline
 90
        3
 70
   128
 43
0.0
 10
353.1337749432
 20
276.5042321393
 10
353.2515984247
 20
274.9172994504
 10
353.3842746387
 20
273.1297077248
  0
ELLIPSE
  5
278
330
1F
100
AcDbEntity
  8
0
  6
Continuous
 62
     7
370
    15
100
AcDbEllipse
 10
308.2225579987
 20
282.4894652866
 30
0.0
 11
47.25408966965597
 21
0.0
 31
0.0
210
0.0
220
0.0
230
1.0
 40
0.4073079628
 41
5.870343687638229
 42
5.966971722870356
  0
LINE
  5
279
330
1F
100
AcDbEntity
  8
0
  6
Continuous
 62
     7
370
    15
100
AcDbLine
 10
389.2164934645
 20
237.7125849584
 30
0.0
 11
392.6428515683
 21
237.7125849584
 31
0.0
  0
LINE
  5
27A
330
1F
100
AcDbEntity
  8
0
  6
Continuous
 62
     7
370
    15
100
AcDbLine
 10
387.7334255944
 20
227.7125847163
 30
0.0
 11
389.2164934645
 21
227.7125847163
 31
0.0
  0
LINE
  5
27B
330
1F
100
AcDbEntity
  8
0
  6
Continuous
 62
     7
370
    15
100
AcDbLine
 10
223.8022644291
 20
237.7125849584
 30
0.0
 11
227.2286225329
 21
237.7125849584
 31
0.0
  0
LINE
  5
27C
330
1F
100
AcDbEntity
  8
0
  6
Continuous
 62
     7
370
    15
100
AcDbLine
 10
227.2286225329
 20
227.7125847163
 30
0.0
 11
228.711690403
 21
227.7125847163
 31
0.0
  0
LINE
  5
27D
330
1F
100
AcDbEntity
  8
0
  6
Continuous
 62
     7
370
    15
100
AcDbLine
 10
351.6731146942
 20
274.6340842554
 30
0.0
 11
351.6525883446
 21
274.9094428131
 31
0.0
  0
LINE
  5
27E
330
1F
100
AcDbEntity
  8
0
  6
Continuous
 62
     7
370
    15
100
AcDbLine
 10
355.2824627827
 20
267.7125842879
 30
0.0
 11
353.7376333247
 21
267.7125842879
 31
0.0
  0
LINE
  5
27F
330
1F
100
AcDbEntity
  8
0
  6
Continuous
 62
     7
370
    15
100
AcDbLine
 10
227.2286225329
 20
227.7125847163
 30
0.0
 11
227.156158186
 21
227.7125847163
 31
0.0
  0
LINE
  5
280
330
1F
100
AcDbEntity
  8
0
  6
Continuous
 62
     7
370
    15
100
AcDbLine
 10
389.2889578114
 20
227.7125847163
 30
0.0
 11
389.2164934645
 21
227.7125847163
 31
0.0
  0
LINE
  5
281
330
1F
100
AcDbEntity
  8
0
  6
Continuous
 62
     7
370
    15
100
AcDbLine
 10
352.7562987278
 20
302.855438144
 30
0.0
 11
351.2066450189
 21
302.855438144
 31
0.0
  0
LINE
  5
282
330
1F
100
AcDbEntity
  8
0
  6
Continuous
 62
     7
370
    15
100
AcDbLine
 10
255.4716091822
 20
346.3054136941
 30
0.0
 11
229.7105226884
 21
346.3054136941
 31
0.0
  0
LINE
  5
283
330
1F
100
AcDbEntity
  8
0
  6
Continuous
 62
     7
370
    15
100
AcDbLine
 10
221.2225605021
 20
351.3054163763
 30
0.0
 11
221.2225605021
 21
346.3054136941
 31
0.0
  0
LINE
  5
284
330
1F
100
AcDbEntity
  8
0
  6
Continuous
 62
     7
370
    15
100
AcDbLine
 10
267.77197013
 20
351.3054163763
 30
0.0
 11
221.2225605021
 21
351.3054163763
 31
0.0
  0
LINE
  5
285
330
1F
100
AcDbEntity
  8
0
  6
Continuous
 62
     7
370
    15
100
AcDbLine
 10
221.2225605021
 20
346.3054136941
 30
0.0
 11
229.7105226884
 21
346.3054136941
 31
0.0
  0
LINE
  5
286
330
1F
100
AcDbEntity
  8
0
  6
Continuous
 62
     7
370
    15
100
AcDbLine
 10
229.7105226884
 20
346.3054136941
 30
0.0
 11
250.4019472967
 21
322.2125829766
 31
0.0
  0
LINE
  5
287
330
1F
100
AcDbEntity
  8
0
  6
Continuous
 62
     7
370
    15
100
AcDbLine
 10
250.4019472967
 20
322.2125829766
 30
0.0
 11
255.0567608545
 21
322.2125829766
 31
0.0
  0
LINE
  5
288
330
1F
100
AcDbEntity
  8
0
  6
Continuous
 62
     7
370
    15
100
AcDbLine
 10
395.2225554953
 20
351.3054163763
 30
0.0
 11
395.2225554953
 21
346.3054136941
 31
0.0
  0
LINE
  5
289
330
1F
100
AcDbEntity
  8
0
  6
Continuous
 62
     7
370
    15
100
AcDbLine
 10
395.2225554953
 20
346.3054136941
 30
0.0
 11
386.734593309
 21
346.3054136941
 31
0.0
  0
LINE
  5
28A
330
1F
100
AcDbEntity
  8
0
  6
Continuous
 62
     7
370
    15
100
AcDbLine
 10
386.734593309
 20
346.3054136941
 30
0.0
 11
360.9735068152
 21
346.3054136941
 31
0.0
  0
LINE
  5
28B
330
1F
100
AcDbEntity
  8
0
  6
Continuous
 62
     7
370
    15
100
AcDbLine
 10
395.2225554953
 20
351.3054163763
 30
0.0
 11
348.6731458674
 21
351.3054163763
 31
0.0
  0
LINE
  5
28C
330
1F
100
AcDbEntity
  8
0
  6
Continuous
 62
     7
370
    15
100
AcDbLine
 10
366.0431687007
 20
322.2125829766
 30
0.0
 11
386.734593309
 21
346.3054136941
 31
0.0
  0
LINE
  5
28D
330
1F
100
AcDbEntity
  8
0
  6
Continuous
 62
     7
370
    15
100
AcDbLine
 10
361.3883551429
 20
322.2125829766
 30
0.0
 11
366.0431687007
 21
322.2125829766
 31
0.0
  0
LINE
  5
28E
330
1F
100
AcDbEntity
  8
0
  6
Continuous
 62
     7
370
    15
100
AcDbLine
 10
227.156158186
 20
236.5866131717
 30
0.0
 11
224.212560452
 21
236.5866131717
 31
0.0
  0
LINE
  5
28F
330
1F
100
AcDbEntity
  8
0
  6
Continuous
 62
     7
370
    15
100
AcDbLine
 10
392.2325555454
 20
236.5866131717
 30
0.0
 11
389.2889578114
 21
236.5866131717
 31
0.0
  0
LINE
  5
290
330
1F
100
AcDbEntity
  8
0
  6
Continuous
 62
     7
370
    15
100
AcDbLine
 10
251.2125592897
 20
353.8054139922
 30
0.0
 11
227.2125590811
 21
353.8054139922
 31
0.0
  0
LINE
  5
291
330
1F
100
AcDbEntity
  8
0
  6
Continuous
 62
     7
370
    15
100
AcDbLine
 10
377.2325549493
 20
353.8054139922
 30
0.0
 11
365.2325567077
 21
353.8054139922
 31
0.0
  0
LINE
  5
292
330
1F
100
AcDbEntity
  8
0
  6
Continuous
 62
     7
370
    15
100
AcDbLine
 10
389.2325569163
 20
353.8054139922
 30
0.0
 11
377.2325549493
 21
353.8054139922
 31
0.0
  0
LINE
  5
293
330
1F
100
AcDbEntity
  8
0
  6
Continuous
 62
     7
370
    15
100
AcDbLine
 10
239.2125610481
 20
363.8054193566
 30
0.0
 11
239.2125610481
 21
353.8054139922
 31
0.0
  0
LINE
  5
294
330
1F
100
AcDbEntity
  8
0
  6
Continuous
 62
     7
370
    15
100
AcDbLine
 10
239.2125610481
 20
363.8054193566
 30
0.0
 11
248.7125579486
 21
363.8054193566
 31
0.0
  0
LINE
  5
295
330
1F
100
AcDbEntity
  8
0
  6
Continuous
 62
     7
370
    15
100
AcDbLine
 10
248.7125579486
 20
363.8054193566
 30
0.0
 11
248.7125579486
 21
353.8054139922
 31
0.0
  0
LINE
  5
296
330
1F
100
AcDbEntity
  8
0
  6
Continuous
 62
     7
370
    15
100
AcDbLine
 10
229.7125566969
 20
363.8054193566
 30
0.0
 11
229.7125566969
 21
353.8054139922
 31
0.0
  0
LINE
  5
297
330
1F
100
AcDbEntity
  8
0
  6
Continuous
 62
     7
370
    15
100
AcDbLine
 10
229.7125566969
 20
363.8054193566
 30
0.0
 11
239.2125610481
 21
363.8054193566
 31
0.0
  0
LINE
  5
298
330
1F
100
AcDbEntity
  8
0
  6
Continuous
 62
     7
370
    15
100
AcDbLine
 10
377.2325549493
 20
363.8054193566
 30
0.0
 11
377.2325549493
 21
353.8054139922
 31
0.0
  0
LINE
  5
299
330
1F
100
AcDbEntity
  8
0
  6
Continuous
 62
     7
370
    15
100
AcDbLine
 10
377.2325549493
 20
363.8054193566
 30
0.0
 11
386.7325593005
 21
363.8054193566
 31
0.0
  0
LINE
  5
29A
330
1F
100
AcDbEntity
  8
0
  6
Continuous
 62
     7
370
    15
100
AcDbLine
 10
386.7325593005
 20
363.8054193566
 30
0.0
 11
386.7325593005
 21
353.8054139922
 31
0.0
  0
LINE
  5
29B
330
1F
100
AcDbEntity
  8
0
  6
Continuous
 62
     7
370
    15
100
AcDbLine
 10
367.7325580488
 20
363.8054193566
 30
0.0
 11
367.7325580488
 21
353.8054139922
 31
0.0
  0
LINE
  5
29C
330
1F
100
AcDbEntity
  8
0
  6
Continuous
 62
     7
370
    15
100
AcDbLine
 10
367.7325580488
 20
363.8054193566
 30
0.0
 11
377.2325549493
 21
363.8054193566
 31
0.0
  0
LINE
  5
29D
330
1F
100
AcDbEntity
  8
0
  6
Continuous
 62
     7
370
    15
100
AcDbLine
 10
247.2125586341
 20
371.2154091904
 30
0.0
 11
231.2125597368
 21
371.2154091904
 31
0.0
  0
LINE
  5
29E
330
1F
100
AcDbEntity
  8
0
  6
Continuous
 62
     7
370
    15
100
AcDbLine
 10
247.2125586341
 20
370.7154156277
 30
0.0
 11
231.2125597368
 21
370.7154156277
 31
0.0
  0
LINE
  5
29F
330
1F
100
AcDbEntity
  8
0
  6
Continuous
 62
     7
370
    15
100
AcDbLine
 10
377.2325549493
 20
371.2154091904
 30
0.0
 11
369.2325573633
 21
371.2154091904
 31
0.0
  0
LINE
  5
2A0
330
1F
100
AcDbEntity
  8
0
  6
Continuous
 62
     7
370
    15
100
AcDbLine
 10
385.2325562606
 20
371.2154091904
 30
0.0
 11
377.2325549493
 21
371.2154091904
 31
0.0
  0
LINE
  5
2A1
330
1F
100
AcDbEntity
  8
0
  6
Continuous
 62
     7
370
    15
100
AcDbLine
 10
377.2325549493
 20
370.7154156277
 30
0.0
 11
369.2325573633
 21
370.7154156277
 31
0.0
  0
LINE
  5
2A2
330
1F
100
AcDbEntity
  8
0
  6
Continuous
 62
     7
370
    15
100
AcDbLine
 10
385.2325562606
 20
370.7154156277
 30
0.0
 11
377.2325549493
 21
370.7154156277
 31
0.0
  0
LINE
  5
2A3
330
1F
100
AcDbEntity
  8
0
  6
Continuous
 62
     7
370
    15
100
AcDbLine
 10
232.5875569353
 20
246.5154142687
 30
0.0
 11
245.8375577102
 21
246.5154142687
 31
0.0
  0
LINE
  5
2A4
330
1F
100
AcDbEntity
  8
0
  6
Continuous
 62
     7
370
    15
100
AcDbLine
 10
245.8375577102
 20
246.5154142687
 30
0.0
 11
245.8375577102
 21
243.7483282397
 31
0.0
  0
LINE
  5
2A5
330
1F
100
AcDbEntity
  8
0
  6
Continuous
 62
     7
370
    15
100
AcDbLine
 10
232.5875569353
 20
246.5154142687
 30
0.0
 11
232.5875569353
 21
243.057141603
 31
0.0
  0
LINE
  5
2A6
330
1F
100
AcDbEntity
  8
0
  6
Continuous
 62
     7
370
    15
100
AcDbLine
 10
383.857559062
 20
246.5154142687
 30
0.0
 11
383.857559062
 21
243.0572328726
 31
0.0
  0
LINE
  5
2A7
330
1F
100
AcDbEntity
  8
0
  6
Continuous
 62
     7
370
    15
100
AcDbLine
 10
370.6075582872
 20
246.5154142687
 30
0.0
 11
383.857559062
 21
246.5154142687
 31
0.0
  0
LINE
  5
2A8
330
1F
100
AcDbEntity
  8
0
  6
Continuous
 62
     7
370
    15
100
AcDbLine
 10
370.6075582872
 20
246.5154142687
 30
0.0
 11
370.6075582872
 21
243.7484381357
 31
0.0
  0
LINE
  5
2A9
330
1F
100
AcDbEntity
  8
0
  6
Continuous
 62
     7
370
    15
100
AcDbLine
 10
245.7125593195
 20
382.7154101441
 30
0.0
 11
232.712555326
 21
382.7154101441
 31
0.0
  0
LINE
  5
2AA
330
1F
100
AcDbEntity
  8
0
  6
Continuous
 62
     7
370
    15
100
AcDbLine
 10
377.2325549493
 20
382.7154101441
 30
0.0
 11
370.7325566779
 21
382.7154101441
 31
0.0
  0
LINE
  5
2AB
330
1F
100
AcDbEntity
  8
0
  6
Continuous
 62
     7
370
    15
100
AcDbLine
 10
383.7325606714
 20
382.7154101441
 30
0.0
 11
377.2325549493
 21
382.7154101441
 31
0.0
  0
LINE
  5
2AC
330
1F
100
AcDbEntity
  8
0
  6
Continuous
 62
     7
370
    15
100
AcDbLine
 10
392.6428515683
 20
237.7125849584
 30
0.0
 11
393.2225588928
 21
237.7125849584
 31
0.0
  0
LINE
  5
2AD
330
1F
100
AcDbEntity
  8
0
  6
Continuous
 62
     7
370
    15
100
AcDbLine
 10
223.2225571046
 20
237.7125849584
 30
0.0
 11
223.8022644291
 21
237.7125849584
 31
0.0
  0
LINE
  5
2AE
330
1F
100
AcDbEntity
  8
0
  6
Continuous
 62
     7
370
    15
100
AcDbLine
 10
297.2429027999
 20
363.8054193566
 30
0.0
 11
297.2429027999
 21
354.3054075549
 31
0.0
  0
LINE
  5
2AF
330
1F
100
AcDbEntity
  8
0
  6
Continuous
 62
     7
370
    15
100
AcDbLine
 10
297.2429027999
 20
363.8054193566
 30
0.0
 11
297.2629029522
 21
363.8054193566
 31
0.0
  0
LINE
  5
2B0
330
1F
100
AcDbEntity
  8
0
  6
Continuous
 62
     7
370
    15
100
AcDbLine
 10
300.2325581605
 20
371.2154091904
 30
0.0
 11
300.2125580082
 21
371.2154091904
 31
0.0
  0
LINE
  5
2B1
330
1F
100
AcDbEntity
  8
0
  6
Continuous
 62
     7
370
    15
100
AcDbLine
 10
300.2325581605
 20
370.7154156277
 30
0.0
 11
300.2125580082
 21
370.7154156277
 31
0.0
  0
LINE
  5
2B2
330
1F
100
AcDbEntity
  8
0
  6
Continuous
 62
     7
370
    15
100
AcDbLine
 10
301.7325579407
 20
382.7154101441
 30
0.0
 11
301.7125577884
 21
382.7154101441
 31
0.0
  0
LINE
  5
2B3
330
1F
100
AcDbEntity
  8
0
  6
Continuous
 62
     8
370
     0
100
AcDbLine
 10
312.490421928
 20
242.6062957952
 30
0.0
 11
312.490421928
 21
237.7125849584
 31
0.0
  0
LINE
  5
2B4
330
1F
100
AcDbEntity
  8
0
  6
Continuous
 62
     8
370
     0
100
AcDbLine
 10
303.9546940694
 20
242.6062957952
 30
0.0
 11
303.9546940694
 21
237.7125849584
 31
0.0
  0
LINE
  5
2B5
330
1F
100
AcDbEntity
  8
0
  6
Continuous
 62
     8
370
     0
100
AcDbLine
 10
330.2287306855
 20
242.7125839153
 30
0.0
 11
330.2287306855
 21
230.7125847424
 31
0.0
  0
LINE
  5
2B6
330
1F
100
AcDbEntity
  8
0
  6
Continuous
 62
     8
370
     0
100
AcDbLine
 10
324.8702470432
 20
237.7125849584
 30
0.0
 11
324.8702470432
 21
230.7125847424
 31
0.0
  0
LINE
  5
2B7
330
1F
100
AcDbEntity
  8
0
  6
Continuous
 62
     8
370
     0
100
AcDbLine
 10
286.2163853119
 20
242.7125839153
 30
0.0
 11
286.2163853119
 21
230.7125847424
 31
0.0
  0
LINE
  5
2B8
330
1F
100
AcDbEntity
  8
0
  6
Continuous
 62
     8
370
     0
100
AcDbLine
 10
291.5748689542
 20
230.7125847424
 30
0.0
 11
291.5748689542
 21
237.7125849584
 31
0.0
  0
LINE
  5
2B9
330
1F
100
AcDbEntity
  8
0
  6
Continuous
 62
     8
370
     0
100
AcDbLine
 10
228.711690403
 20
242.7125839153
 30
0.0
 11
228.711690403
 21
227.7125847163
 31
0.0
  0
LINE
  5
2BA
330
1F
100
AcDbEntity
  8
0
  6
Continuous
 62
     8
370
     0
100
AcDbLine
 10
249.8862479101
 20
230.7125847424
 30
0.0
 11
249.8862479101
 21
227.7125847163
 31
0.0
  0
LINE
  5
2BB
330
1F
100
AcDbEntity
  8
0
  6
Continuous
 62
     8
370
     0
100
AcDbLine
 10
366.5588680873
 20
230.7125847424
 30
0.0
 11
366.5588680873
 21
227.7125847163
 31
0.0
  0
LINE
  5
2BC
330
1F
100
AcDbEntity
  8
0
  6
Continuous
 62
     8
370
     0
100
AcDbLine
 10
387.7334255944
 20
242.7125839153
 30
0.0
 11
387.7334255944
 21
227.7125847163
 31
0.0
  0
LINE
  5
2BD
330
1F
100
AcDbEntity
  8
0
  6
Continuous
 62
     8
370
     0
100
AcDbLine
 10
280.9849266181
 20
230.7125847424
 30
0.0
 11
280.8090388993
 21
226.7125845524
 31
0.0
  0
LINE
  5
2BE
330
1F
100
AcDbEntity
  8
0
  6
Continuous
 62
     8
370
     0
100
AcDbLine
 10
335.4601893793
 20
230.7125847424
 30
0.0
 11
335.6360770981
 21
226.7125845524
 31
0.0
  0
LINE
  5
2BF
330
1F
100
AcDbEntity
  8
0
  6
Continuous
 62
     8
370
     0
100
AcDbLine
 10
252.5033090482
 20
324.5817409465
 30
0.0
 11
293.3610469321
 21
324.5817409465
 31
0.0
  0
LINE
  5
2C0
330
1F
100
AcDbEntity
  8
0
  6
Continuous
 62
     8
370
     0
100
AcDbLine
 10
323.0840690653
 20
324.5817409465
 30
0.0
 11
363.9418069492
 21
324.5817409465
 31
0.0
  0
LINE
  5
2C1
330
1F
100
AcDbEntity
  8
0
  6
Continuous
 62
     8
370
     0
100
AcDbLine
 10
294.0728306989
 20
230.7125847424
 30
0.0
 11
294.1296441699
 21
226.7125845524
 31
0.0
  0
LINE
  5
2C2
330
1F
100
AcDbEntity
  8
0
  6
Continuous
 62
     8
370
     0
100
AcDbLine
 10
322.3722852985
 20
230.7125847424
 30
0.0
 11
322.3154718275
 21
226.7125845524
 31
0.0
  0
LINE
  5
2C3
330
1F
100
AcDbEntity
  8
0
  6
Continuous
 62
     8
370
     0
100
AcDbLine
 10
258.0527063678
 20
243.7309329966
 30
0.0
 11
258.0373656223
 21
243.316893057
 31
0.0
  0
LINE
  5
2C4
330
1F
100
AcDbEntity
  8
0
  6
Continuous
 62
     8
370
     0
100
AcDbLine
 10
358.3924096296
 20
243.7309329966
 30
0.0
 11
358.4077503751
 21
243.3168986449
 31
0.0
  0
LINE
  5
2C5
330
1F
100
AcDbEntity
  8
0
  6
Continuous
 62
     8
370
     0
100
AcDbLine
 10
357.7225577305
 20
318.8734860728
 30
0.0
 11
314.232558127
 21
318.8734860728
 31
0.0
  0
LINE
  5
2C6
330
1F
100
AcDbEntity
  8
0
  6
Continuous
 62
     8
370
     0
100
AcDbLine
 10
302.2325580227
 20
318.8734860728
 30
0.0
 11
258.7225582669
 21
318.8734860728
 31
0.0
  0
LINE
  5
2C7
330
1F
100
AcDbEntity
  8
0
  6
Continuous
 62
     8
370
     0
100
AcDbLine
 10
356.6509220968
 20
316.5753544876
 30
0.0
 11
314.232558127
 21
316.5753544876
 31
0.0
  0
LINE
  5
2C8
330
1F
100
AcDbEntity
  8
0
  6
Continuous
 62
     8
370
     0
100
AcDbLine
 10
302.2325580227
 20
316.5753544876
 30
0.0
 11
259.7941939006
 21
316.5753544876
 31
0.0
  0
LINE
  5
2C9
330
1F
100
AcDbEntity
  8
0
  6
Continuous
 62
     8
370
     0
100
AcDbLine
 10
357.7225577305
 20
319.7125853608
 30
0.0
 11
314.232558127
 21
319.7125853608
 31
0.0
  0
LINE
  5
2CA
330
1F
100
AcDbEntity
  8
0
  6
Continuous
 62
     8
370
     0
100
AcDbLine
 10
302.2325580227
 20
319.7125853608
 30
0.0
 11
258.7225582669
 21
319.7125853608
 31
0.0
  0
LINE
  5
2CB
330
1F
100
AcDbEntity
  8
0
  6
Continuous
 62
     8
370
     0
100
AcDbLine
 10
329.297806717
 20
261.6983154426
 30
0.0
 11
329.297806717
 21
244.4983167211
 31
0.0
  0
LINE
  5
2CC
330
1F
100
AcDbEntity
  8
0
  6
Continuous
 62
     8
370
     0
100
AcDbLine
 10
352.0658049951
 20
310.0374402115
 30
0.0
 11
314.232558127
 21
310.0374402115
 31
0.0
  0
LINE
  5
2CD
330
1F
100
AcDbEntity
  8
0
  6
Continuous
 62
     8
370
     0
100
AcDbLine
 10
302.2325580227
 20
310.0374402115
 30
0.0
 11
264.3793110023
 21
310.0374402115
 31
0.0
  0
LINE
  5
2CE
330
1F
100
AcDbEntity
  8
0
  6
Continuous
 62
     8
370
     0
100
AcDbLine
 10
287.1473092804
 20
261.6983154426
 30
0.0
 11
287.1473092804
 21
244.4983167211
 31
0.0
  0
LINE
  5
2CF
330
1F
100
AcDbEntity
  8
0
  6
Continuous
 62
     8
370
     0
100
AcDbLine
 10
353.8396876524
 20
314.2164485166
 30
0.0
 11
314.232558127
 21
314.2164485166
 31
0.0
  0
LINE
  5
2D0
330
1F
100
AcDbEntity
  8
0
  6
Continuous
 62
     8
370
     0
100
AcDbLine
 10
302.2325580227
 20
314.2164485166
 30
0.0
 11
262.605428345
 21
314.2164485166
 31
0.0
  0
LINE
  5
2D1
330
1F
100
AcDbEntity
  8
0
  6
Continuous
 62
     8
370
     0
100
AcDbLine
 10
354.4927422176
 20
244.016444833
 30
0.0
 11
354.5166213284
 21
243.3720422546
 31
0.0
  0
LINE
  5
2D2
330
1F
100
AcDbEntity
  8
0
  6
Continuous
 62
     8
370
     0
100
AcDbLine
 10
261.9523737798
 20
244.016444833
 30
0.0
 11
261.928494669
 21
243.3720068643
 31
0.0
  0
LINE
  5
2D3
330
1F
100
AcDbEntity
  8
0
  6
Continuous
 62
     8
370
     0
100
AcDbLine
 10
320.2325577135
 20
352.3054184029
 30
0.0
 11
351.722556747
 21
352.3054184029
 31
0.0
  0
LINE
  5
2D4
330
1F
100
AcDbEntity
  8
0
  6
Continuous
 62
     8
370
     0
100
AcDbLine
 10
264.7225592504
 20
352.3054184029
 30
0.0
 11
296.2325584362
 21
352.3054184029
 31
0.0
  0
LINE
  5
2D5
330
1F
100
AcDbEntity
  8
0
  6
Continuous
 62
     8
370
     0
100
AcDbLine
 10
274.4458873043
 20
261.6983154426
 30
0.0
 11
274.4458873043
 21
244.4983167211
 31
0.0
  0
LINE
  5
2D6
330
1F
100
AcDbEntity
  8
0
  6
Continuous
 62
     8
370
     0
100
AcDbLine
 10
341.999228693
 20
261.6983154426
 30
0.0
 11
341.999228693
 21
244.4983167211
 31
0.0
  0
LINE
  5
2D7
330
1F
100
AcDbEntity
  8
0
  6
Continuous
 62
     8
370
     0
100
AcDbLine
 10
392.6428515683
 20
242.6062957952
 30
0.0
 11
392.6428515683
 21
237.7125849584
 31
0.0
  0
LINE
  5
2D8
330
1F
100
AcDbEntity
  8
0
  6
Continuous
 62
     8
370
     0
100
AcDbLine
 10
389.2164934645
 20
227.7125847163
 30
0.0
 11
389.2164934645
 21
237.7125849584
 31
0.0
  0
LINE
  5
2D9
330
1F
100
AcDbEntity
  8
0
  6
Continuous
 62
     8
370
     0
100
AcDbLine
 10
223.8022644291
 20
242.6062957952
 30
0.0
 11
223.8022644291
 21
237.7125849584
 31
0.0
  0
LINE
  5
2DA
330
1F
100
AcDbEntity
  8
0
  6
Continuous
 62
     8
370
     0
100
AcDbLine
 10
227.2286225329
 20
237.7125849584
 30
0.0
 11
227.2286225329
 21
227.7125847163
 31
0.0
  0
LINE
  5
2DB
330
1F
100
AcDbEntity
  8
0
  6
CENTERX2
 62
     7
370
     0
100
AcDbLine
 10
308.2125579987
 20
353.3054133733
 30
0.0
 11
308.2125579987
 21
244.5154133733
 31
0.0
  0
LINE
  5
2DC
330
1F
100
AcDbEntity
  8
0
  6
CENTERX2
 62
     7
370
     0
100
AcDbLine
 10
308.2225579987
 20
388.0445322465
 30
0.0
 11
308.2225579987
 21
218.3844464632
 31
0.0
  0
LINE
  5
2DD
330
1F
100
AcDbEntity
  8
0
  6
CENTERX2
 62
     7
370
     0
100
AcDbLine
 10
308.2125579987
 20
239.7125845263
 30
0.0
 11
308.2125579987
 21
234.5866133733
 31
0.0
  0
CIRCLE
  5
2DE
330
1F
100
AcDbEntity
  8
0
  6
Continuous
 62
     7
370
    15
100
AcDbCircle
 10
-2.5543909036
 20
65.6696279012
 30
0.0
 40
6.499999999999999
  0
CIRCLE
  5
2DF
330
1F
100
AcDbEntity
  8
0
  6
Continuous
 62
     7
370
    15
100
AcDbCircle
 10
66.4656090964
 20
-3.3303720988
 30
0.0
 40
6.499999999999999
  0
CIRCLE
  5
2E0
330
1F
100
AcDbEntity
  8
0
  6
Continuous
 62
     7
370
    15
100
AcDbCircle
 10
-71.5543909036
 20
-3.3503720988
 30
0.0
 40
6.5
  0
CIRCLE
  5
2E1
330
1F
100
AcDbEntity
  8
0
  6
Continuous
 62
     7
370
    15
100
AcDbCircle
 10
-2.5343909036
 20
-72.3503720988
 30
0.0
 40
6.5
  0
CIRCLE
  5
2E2
330
1F
100
AcDbEntity
  8
0
  6
Continuous
 62
     7
370
    15
100
AcDbCircle
 10
-2.5543909036
 20
65.6696279012
 30
0.0
 40
8.0
  0
CIRCLE
  5
2E3
330
1F
100
AcDbEntity
  8
0
  6
Continuous
 62
     7
370
    15
100
AcDbCircle
 10
-71.5543909036
 20
-3.3503720988
 30
0.0
 40
8.0
  0
CIRCLE
  5
2E4
330
1F
100
AcDbEntity
  8
0
  6
Continuous
 62
     7
370
    15
100
AcDbCircle
 10
66.4656090964
 20
-3.3303720988
 30
0.0
 40
8.0
  0
CIRCLE
  5
2E5
330
1F
100
AcDbEntity
  8
0
  6
Continuous
 62
     7
370
    15
100
AcDbCircle
 10
-2.5343909036
 20
-72.3503720988
 30
0.0
 40
8.0
  0
LINE
  5
2E6
330
1F
100
AcDbEntity
  8
0
  6
Continuous
 62
     7
370
    15
100
AcDbLine
 10
-8.0392183082
 20
75.1696292029
 30
0.0
 11
-13.5240461023
 21
65.6696248518
 31
0.0
  0
LINE
  5
2E7
330
1F
100
AcDbEntity
  8
0
  6
Continuous
 62
     7
370
    15
100
AcDbLine
 10
2.9304368144
 20
75.1696292029
 30
0.0
 11
-8.0392183082
 21
75.1696292029
 31
0.0
  0
LINE
  5
2E8
330
1F
100
AcDbEntity
  8
0
  6
Continuous
 62
     7
370
    15
100
AcDbLine
 10
8.4152641429
 20
65.6696248518
 30
0.0
 11
2.9304368144
 21
75.1696292029
 31
0.0
  0
LINE
  5
2E9
330
1F
100
AcDbEntity
  8
0
  6
Continuous
 62
     7
370
    15
100
AcDbLine
 10
2.9304368144
 20
56.1696279513
 30
0.0
 11
8.4152641429
 21
65.6696248518
 31
0.0
  0
LINE
  5
2EA
330
1F
100
AcDbEntity
  8
0
  6
Continuous
 62
     7
370
    15
100
AcDbLine
 10
-8.0392183082
 20
56.1696279513
 30
0.0
 11
2.9304368144
 21
56.1696279513
 31
0.0
  0
LINE
  5
2EB
330
1F
100
AcDbEntity
  8
0
  6
Continuous
 62
     7
370
    15
100
AcDbLine
 10
-13.5240461023
 20
65.6696248518
 30
0.0
 11
-8.0392183082
 21
56.1696279513
 31
0.0
  0
LINE
  5
2EC
330
1F
100
AcDbEntity
  8
0
  6
Continuous
 62
     7
370
    15
100
AcDbLine
 10
-81.0543922054
 20
-8.8351995034
 30
0.0
 11
-71.5543878542
 21
-14.3200272976
 31
0.0
  0
LINE
  5
2ED
330
1F
100
AcDbEntity
  8
0
  6
Continuous
 62
     7
370
    15
100
AcDbLine
 10
-81.0543922054
 20
2.1344556192
 30
0.0
 11
-81.0543922054
 21
-8.8351995034
 31
0.0
  0
LINE
  5
2EE
330
1F
100
AcDbEntity
  8
0
  6
Continuous
 62
     7
370
    15
100
AcDbLine
 10
-62.0543909537
 20
-8.8351995034
 30
0.0
 11
-62.0543909537
 21
2.1344556192
 31
0.0
  0
LINE
  5
2EF
330
1F
100
AcDbEntity
  8
0
  6
Continuous
 62
     7
370
    15
100
AcDbLine
 10
-71.5543878542
 20
-14.3200272976
 30
0.0
 11
-62.0543909537
 21
-8.8351995034
 31
0.0
  0
LINE
  5
2F0
330
1F
100
AcDbEntity
  8
0
  6
Continuous
 62
     7
370
    15
100
AcDbLine
 10
-62.0543909537
 20
2.1344556192
 30
0.0
 11
-71.5543878542
 21
7.6192829476
 31
0.0
  0
LINE
  5
2F1
330
1F
100
AcDbEntity
  8
0
  6
Continuous
 62
     7
370
    15
100
AcDbLine
 10
-71.5543878542
 20
7.6192829476
 30
0.0
 11
-81.0543922054
 21
2.1344556192
 31
0.0
  0
LINE
  5
2F2
330
1F
100
AcDbEntity
  8
0
  6
Continuous
 62
     7
370
    15
100
AcDbLine
 10
75.9656103982
 20
2.1544553058
 30
0.0
 11
66.465606047
 21
7.6392830999
 31
0.0
  0
LINE
  5
2F3
330
1F
100
AcDbEntity
  8
0
  6
Continuous
 62
     7
370
    15
100
AcDbLine
 10
66.465606047
 20
-14.3000271453
 30
0.0
 11
75.9656103982
 21
-8.8151998168
 31
0.0
  0
LINE
  5
2F4
330
1F
100
AcDbEntity
  8
0
  6
Continuous
 62
     7
370
    15
100
AcDbLine
 10
56.9656091465
 20
-8.8151998168
 30
0.0
 11
66.465606047
 21
-14.3000271453
 31
0.0
  0
LINE
  5
2F5
330
1F
100
AcDbEntity
  8
0
  6
Continuous
 62
     7
370
    15
100
AcDbLine
 10
75.9656103982
 20
-8.8151998168
 30
0.0
 11
75.9656103982
 21
2.1544553058
 31
0.0
  0
LINE
  5
2F6
330
1F
100
AcDbEntity
  8
0
  6
Continuous
 62
     7
370
    15
100
AcDbLine
 10
56.9656091465
 20
2.1544553058
 30
0.0
 11
56.9656091465
 21
-8.8151998168
 31
0.0
  0
LINE
  5
2F7
330
1F
100
AcDbEntity
  8
0
  6
Continuous
 62
     7
370
    15
100
AcDbLine
 10
66.465606047
 20
7.6392830999
 30
0.0
 11
56.9656091465
 21
2.1544553058
 31
0.0
  0
LINE
  5
2F8
330
1F
100
AcDbEntity
  8
0
  6
Continuous
 62
     7
370
    15
100
AcDbLine
 10
2.950436501
 20
-81.8503734006
 30
0.0
 11
8.4352642952
 21
-72.3503690494
 31
0.0
  0
LINE
  5
2F9
330
1F
100
AcDbEntity
  8
0
  6
Continuous
 62
     7
370
    15
100
AcDbLine
 10
-8.0192186216
 20
-81.8503734006
 30
0.0
 11
2.950436501
 21
-81.8503734006
 31
0.0
  0
LINE
  5
2FA
330
1F
100
AcDbEntity
  8
0
  6
Continuous
 62
     7
370
    15
100
AcDbLine
 10
-13.50404595
 20
-72.3503690494
 30
0.0
 11
-8.0192186216
 21
-81.8503734006
 31
0.0
  0
LINE
  5
2FB
330
1F
100
AcDbEntity
  8
0
  6
Continuous
 62
     7
370
    15
100
AcDbLine
 10
8.4352642952
 20
-72.3503690494
 30
0.0
 11
2.950436501
 21
-62.8503721489
 31
0.0
  0
LINE
  5
2FC
330
1F
100
AcDbEntity
  8
0
  6
Continuous
 62
     7
370
    15
100
AcDbLine
 10
-8.0192186216
 20
-62.8503721489
 30
0.0
 11
-13.50404595
 21
-72.3503690494
 31
0.0
  0
LINE
  5
2FD
330
1F
100
AcDbEntity
  8
0
  6
Continuous
 62
     7
370
    15
100
AcDbLine
 10
2.950436501
 20
-62.8503721489
 30
0.0
 11
-8.0192186216
 21
-62.8503721489
 31
0.0
  0
CIRCLE
  5
2FE
330
1F
100
AcDbEntity
  8
0
  6
Continuous
 62
     7
370
    15
100
AcDbCircle
 10
-2.5443909036
 20
-3.3403720988
 30
0.0
 40
43.49999999999999
  0
CIRCLE
  5
2FF
330
1F
100
AcDbEntity
  8
0
  6
Continuous
 62
     7
370
    15
100
AcDbCircle
 10
-2.5443909036
 20
-3.3403720988
 30
0.0
 40
36.99999999999999
  0
CIRCLE
  5
300
330
1F
100
AcDbEntity
  8
0
  6
Continuous
 62
     7
370
    15
100
AcDbCircle
 10
-2.5543909036
 20
65.6696279012
 30
0.0
 40
12.0
  0
CIRCLE
  5
301
330
1F
100
AcDbEntity
  8
0
  6
Continuous
 62
     7
370
    15
100
AcDbCircle
 10
66.4656090964
 20
-3.3303720988
 30
0.0
 40
12.0
  0
CIRCLE
  5
302
330
1F
100
AcDbEntity
  8
0
  6
Continuous
 62
     7
370
    15
100
AcDbCircle
 10
-71.5543909036
 20
-3.3503720988
 30
0.0
 40
12.0
  0
CIRCLE
  5
303
330
1F
100
AcDbEntity
  8
0
  6
Continuous
 62
     7
370
    15
100
AcDbCircle
 10
-2.5343909036
 20
-72.3503720988
 30
0.0
 40
12.0
  0
LINE
  5
304
330
1F
100
AcDbEntity
  8
0
  6
Continuous
 62
     7
370
    15
100
AcDbLine
 10
-10.2943907769
 20
74.8398218022
 30
0.0
 11
-10.2943907769
 21
75.4096273051
 31
0.0
  0
LINE
  5
305
330
1F
100
AcDbEntity
  8
0
  6
Continuous
 62
     7
370
    15
100
AcDbLine
 10
-10.2943907769
 20
55.9096287655
 30
0.0
 11
-10.2943907769
 21
56.499435352
 31
0.0
  0
LINE
  5
306
330
1F
100
AcDbEntity
  8
0
  6
Continuous
 62
     7
370
    15
100
AcDbLine
 10
-9.5359668413
 20
55.9096287655
 30
0.0
 11
-10.2943907769
 21
55.9096287655
 31
0.0
  0
LINE
  5
307
330
1F
100
AcDbEntity
  8
0
  6
Continuous
 62
     7
370
    15
100
AcDbLine
 10
5.2056089698
 20
55.9096287655
 30
0.0
 11
4.4271848818
 21
55.9096287655
 31
0.0
  0
LINE
  5
308
330
1F
100
AcDbEntity
  8
0
  6
Continuous
 62
     7
370
    15
100
AcDbLine
 10
5.2056089698
 20
56.5163556205
 30
0.0
 11
5.2056089698
 21
55.9096287655
 31
0.0
  0
LINE
  5
309
330
1F
100
AcDbEntity
  8
0
  6
Continuous
 62
     7
370
    15
100
AcDbLine
 10
5.2056089698
 20
75.4096273051
 30
0.0
 11
5.2056089698
 21
74.8229015337
 31
0.0
  0
LINE
  5
30A
330
1F
100
AcDbEntity
  8
0
  6
Continuous
 62
     7
370
    15
100
AcDbLine
 10
4.4550598322
 20
75.4096273051
 30
0.0
 11
5.2056089698
 21
75.4096273051
 31
0.0
  0
LINE
  5
30B
330
1F
100
AcDbEntity
  8
0
  6
Continuous
 62
     7
370
    15
100
AcDbLine
 10
-10.2943907769
 20
75.4096273051
 30
0.0
 11
-9.5638417916
 21
75.4096273051
 31
0.0
  0
LINE
  5
30C
330
1F
100
AcDbEntity
  8
0
  6
Continuous
 62
     7
370
    15
100
AcDbLine
 10
8.4556090368
 20
50.9096260832
 30
0.0
 11
8.4556090368
 21
38.7458491789
 31
0.0
  0
LINE
  5
30D
330
1F
100
AcDbEntity
  8
0
  6
Continuous
 62
     7
370
    15
100
AcDbLine
 10
-13.544390844
 20
50.9096260832
 30
0.0
 11
8.4556090368
 21
50.9096260832
 31
0.0
  0
LINE
  5
30E
330
1F
100
AcDbEntity
  8
0
  6
Continuous
 62
     7
370
    15
100
AcDbLine
 10
-13.544390844
 20
38.7458491789
 30
0.0
 11
-13.544390844
 21
50.9096260832
 31
0.0
  0
LINE
  5
30F
330
1F
100
AcDbEntity
  8
0
  6
Continuous
 62
     7
370
    15
100
AcDbLine
 10
13.4556098564
 20
83.6596253978
 30
0.0
 11
13.4556098564
 21
37.1102157699
 31
0.0
  0
LINE
  5
310
330
1F
100
AcDbEntity
  8
0
  6
Continuous
 62
     7
370
    15
100
AcDbLine
 10
-18.5443916635
 20
37.1102157699
 30
0.0
 11
-18.5443916635
 21
83.6596253978
 31
0.0
  0
LINE
  5
311
330
1F
100
AcDbEntity
  8
0
  6
Continuous
 62
     7
370
    15
100
AcDbLine
 10
-18.5443916635
 20
83.6596253978
 30
0.0
 11
13.4556098564
 21
83.6596253978
 31
0.0
  0
LINE
  5
312
330
1F
100
AcDbEntity
  8
0
  6
Continuous
 62
     7
370
    15
100
AcDbLine
 10
76.2056085004
 20
-11.0903719722
 30
0.0
 11
75.6188827289
 21
-11.0903719722
 31
0.0
  0
LINE
  5
313
330
1F
100
AcDbEntity
  8
0
  6
Continuous
 62
     7
370
    15
100
AcDbLine
 10
76.2056085004
 20
-10.3398228346
 30
0.0
 11
76.2056085004
 21
-11.0903719722
 31
0.0
  0
LINE
  5
314
330
1F
100
AcDbEntity
  8
0
  6
Continuous
 62
     7
370
    15
100
AcDbLine
 10
76.2056085004
 20
4.4096277745
 30
0.0
 11
76.2056085004
 21
3.6790787892
 31
0.0
  0
LINE
  5
315
330
1F
100
AcDbEntity
  8
0
  6
Continuous
 62
     7
370
    15
100
AcDbLine
 10
75.6358029975
 20
4.4096277745
 30
0.0
 11
76.2056085004
 21
4.4096277745
 31
0.0
  0
LINE
  5
316
330
1F
100
AcDbEntity
  8
0
  6
Continuous
 62
     7
370
    15
100
AcDbLine
 10
56.7056099607
 20
4.4096277745
 30
0.0
 11
57.2954165472
 21
4.4096277745
 31
0.0
  0
LINE
  5
317
330
1F
100
AcDbEntity
  8
0
  6
Continuous
 62
     7
370
    15
100
AcDbLine
 10
56.7056099607
 20
3.6512038389
 30
0.0
 11
56.7056099607
 21
4.4096277745
 31
0.0
  0
LINE
  5
318
330
1F
100
AcDbEntity
  8
0
  6
Continuous
 62
     7
370
    15
100
AcDbLine
 10
56.7056099607
 20
-11.0903719722
 30
0.0
 11
56.7056099607
 21
-10.3119478842
 31
0.0
  0
LINE
  5
319
330
1F
100
AcDbEntity
  8
0
  6
Continuous
 62
     7
370
    15
100
AcDbLine
 10
57.3123368157
 20
-11.0903719722
 30
0.0
 11
56.7056099607
 21
-11.0903719722
 31
0.0
  0
LINE
  5
31A
330
1F
100
AcDbEntity
  8
0
  6
Continuous
 62
     7
370
    15
100
AcDbLine
 10
51.7056072785
 20
-14.3403720392
 30
0.0
 11
39.5418303741
 21
-14.3403720392
 31
0.0
  0
LINE
  5
31B
330
1F
100
AcDbEntity
  8
0
  6
Continuous
 62
     7
370
    15
100
AcDbLine
 10
51.7056072785
 20
7.6596278416
 30
0.0
 11
51.7056072785
 21
-14.3403720392
 31
0.0
  0
LINE
  5
31C
330
1F
100
AcDbEntity
  8
0
  6
Continuous
 62
     7
370
    15
100
AcDbLine
 10
39.5418303741
 20
7.6596278416
 30
0.0
 11
51.7056072785
 21
7.6596278416
 31
0.0
  0
LINE
  5
31D
330
1F
100
AcDbEntity
  8
0
  6
Continuous
 62
     7
370
    15
100
AcDbLine
 10
37.9061969651
 20
12.6596286611
 30
0.0
 11
84.455606593
 21
12.6596286611
 31
0.0
  0
LINE
  5
31E
330
1F
100
AcDbEntity
  8
0
  6
Continuous
 62
     7
370
    15
100
AcDbLine
 10
84.455606593
 20
12.6596286611
 30
0.0
 11
84.455606593
 21
-19.3403728588
 31
0.0
  0
LINE
  5
31F
330
1F
100
AcDbEntity
  8
0
  6
Continuous
 62
     7
370
    15
100
AcDbLine
 10
84.455606593
 20
-19.3403728588
 30
0.0
 11
37.9061969651
 21
-19.3403728588
 31
0.0
  0
LINE
  5
320
330
1F
100
AcDbEntity
  8
0
  6
Continuous
 62
     7
370
    15
100
AcDbLine
 10
-81.2943903075
 20
3.6590786369
 30
0.0
 11
-81.2943903075
 21
4.4096277745
 31
0.0
  0
LINE
  5
321
330
1F
100
AcDbEntity
  8
0
  6
Continuous
 62
     7
370
    15
100
AcDbLine
 10
-81.2943903075
 20
-11.0903719722
 30
0.0
 11
-81.2943903075
 21
-10.3598229869
 31
0.0
  0
LINE
  5
322
330
1F
100
AcDbEntity
  8
0
  6
Continuous
 62
     7
370
    15
100
AcDbLine
 10
-80.7245848046
 20
-11.0903719722
 30
0.0
 11
-81.2943903075
 21
-11.0903719722
 31
0.0
  0
LINE
  5
323
330
1F
100
AcDbEntity
  8
0
  6
Continuous
 62
     7
370
    15
100
AcDbLine
 10
-61.7943917679
 20
-11.0903719722
 30
0.0
 11
-62.3841983544
 21
-11.0903719722
 31
0.0
  0
LINE
  5
324
330
1F
100
AcDbEntity
  8
0
  6
Continuous
 62
     7
370
    15
100
AcDbLine
 10
-61.7943917679
 20
-10.3319480365
 30
0.0
 11
-61.7943917679
 21
-11.0903719722
 31
0.0
  0
LINE
  5
325
330
1F
100
AcDbEntity
  8
0
  6
Continuous
 62
     7
370
    15
100
AcDbLine
 10
-61.7943917679
 20
4.4096277745
 30
0.0
 11
-61.7943917679
 21
3.6312036866
 31
0.0
  0
LINE
  5
326
330
1F
100
AcDbEntity
  8
0
  6
Continuous
 62
     7
370
    15
100
AcDbLine
 10
-62.4011186229
 20
4.4096277745
 30
0.0
 11
-61.7943917679
 21
4.4096277745
 31
0.0
  0
LINE
  5
327
330
1F
100
AcDbEntity
  8
0
  6
Continuous
 62
     7
370
    15
100
AcDbLine
 10
-81.2943903075
 20
4.4096277745
 30
0.0
 11
-80.7076645361
 21
4.4096277745
 31
0.0
  0
LINE
  5
328
330
1F
100
AcDbEntity
  8
0
  6
Continuous
 62
     7
370
    15
100
AcDbLine
 10
-42.9949787723
 20
-19.3403728588
 30
0.0
 11
-89.5443884002
 21
-19.3403728588
 31
0.0
  0
LINE
  5
329
330
1F
100
AcDbEntity
  8
0
  6
Continuous
 62
     7
370
    15
100
AcDbLine
 10
-89.5443884002
 20
-19.3403728588
 30
0.0
 11
-89.5443884002
 21
12.6596286611
 31
0.0
  0
LINE
  5
32A
330
1F
100
AcDbEntity
  8
0
  6
Continuous
 62
     7
370
    15
100
AcDbLine
 10
-56.7943890856
 20
7.6596278416
 30
0.0
 11
-44.6306121813
 21
7.6596278416
 31
0.0
  0
LINE
  5
32B
330
1F
100
AcDbEntity
  8
0
  6
Continuous
 62
     7
370
    15
100
AcDbLine
 10
-56.7943890856
 20
-14.3403720392
 30
0.0
 11
-56.7943890856
 21
7.6596278416
 31
0.0
  0
LINE
  5
32C
330
1F
100
AcDbEntity
  8
0
  6
Continuous
 62
     7
370
    15
100
AcDbLine
 10
-44.6306121813
 20
-14.3403720392
 30
0.0
 11
-56.7943890856
 21
-14.3403720392
 31
0.0
  0
LINE
  5
32D
330
1F
100
AcDbEntity
  8
0
  6
Continuous
 62
     7
370
    15
100
AcDbLine
 10
-89.5443884002
 20
12.6596286611
 30
0.0
 11
-42.9949787723
 21
12.6596286611
 31
0.0
  0
LINE
  5
32E
330
1F
100
AcDbEntity
  8
0
  6
Continuous
 62
     7
370
    15
100
AcDbLine
 10
-10.2943907769
 20
-63.1970998181
 30
0.0
 11
-10.2943907769
 21
-62.5903729631
 31
0.0
  0
LINE
  5
32F
330
1F
100
AcDbEntity
  8
0
  6
Continuous
 62
     7
370
    15
100
AcDbLine
 10
-10.2943907769
 20
-82.0903715028
 30
0.0
 11
-10.2943907769
 21
-81.5036457313
 31
0.0
  0
LINE
  5
330
330
1F
100
AcDbEntity
  8
0
  6
Continuous
 62
     7
370
    15
100
AcDbLine
 10
-9.5438416393
 20
-82.0903715028
 30
0.0
 11
-10.2943907769
 21
-82.0903715028
 31
0.0
  0
LINE
  5
331
330
1F
100
AcDbEntity
  8
0
  6
Continuous
 62
     7
370
    15
100
AcDbLine
 10
5.2056089698
 20
-82.0903715028
 30
0.0
 11
4.4750599845
 21
-82.0903715028
 31
0.0
  0
LINE
  5
332
330
1F
100
AcDbEntity
  8
0
  6
Continuous
 62
     7
370
    15
100
AcDbLine
 10
5.2056089698
 20
-81.5205659999
 30
0.0
 11
5.2056089698
 21
-82.0903715028
 31
0.0
  0
LINE
  5
333
330
1F
100
AcDbEntity
  8
0
  6
Continuous
 62
     7
370
    15
100
AcDbLine
 10
5.2056089698
 20
-62.5903729631
 30
0.0
 11
5.2056089698
 21
-63.1801795496
 31
0.0
  0
LINE
  5
334
330
1F
100
AcDbEntity
  8
0
  6
Continuous
 62
     7
370
    15
100
AcDbLine
 10
4.4471850341
 20
-62.5903729631
 30
0.0
 11
5.2056089698
 21
-62.5903729631
 31
0.0
  0
LINE
  5
335
330
1F
100
AcDbEntity
  8
0
  6
Continuous
 62
     7
370
    15
100
AcDbLine
 10
-10.2943907769
 20
-62.5903729631
 30
0.0
 11
-9.515966689
 21
-62.5903729631
 31
0.0
  0
LINE
  5
336
330
1F
100
AcDbEntity
  8
0
  6
Continuous
 62
     7
370
    15
100
AcDbLine
 10
13.4556098564
 20
-90.3403695954
 30
0.0
 11
-18.5443916635
 21
-90.3403695954
 31
0.0
  0
LINE
  5
337
330
1F
100
AcDbEntity
  8
0
  6
Continuous
 62
     7
370
    15
100
AcDbLine
 10
8.4556090368
 20
-57.5903702809
 30
0.0
 11
-13.544390844
 21
-57.5903702809
 31
0.0
  0
LINE
  5
338
330
1F
100
AcDbEntity
  8
0
  6
Continuous
 62
     7
370
    15
100
AcDbLine
 10
13.4556098564
 20
-43.7909599675
 30
0.0
 11
13.4556098564
 21
-90.3403695954
 31
0.0
  0
LINE
  5
339
330
1F
100
AcDbEntity
  8
0
  6
Continuous
 62
     7
370
    15
100
AcDbLine
 10
-18.5443916635
 20
-90.3403695954
 30
0.0
 11
-18.5443916635
 21
-43.7909599675
 31
0.0
  0
LINE
  5
33A
330
1F
100
AcDbEntity
  8
0
  6
Continuous
 62
     7
370
    15
100
AcDbLine
 10
8.4556090368
 20
-45.4265933765
 30
0.0
 11
8.4556090368
 21
-57.5903702809
 31
0.0
  0
LINE
  5
33B
330
1F
100
AcDbEntity
  8
0
  6
Continuous
 62
     7
370
    15
100
AcDbLine
 10
-13.544390844
 20
-57.5903702809
 30
0.0
 11
-13.544390844
 21
-45.4265933765
 31
0.0
  0
ARC
  5
33C
330
1F
100
AcDbEntity
  8
0
  6
Continuous
 62
     7
370
    15
100
AcDbCircle
 10
-2.5443909036
 20
-3.3403720988
 30
0.0
 40
58.73671920158969
100
AcDbArc
 50
105.8072501932
 51
164.1927498068
  0
ARC
  5
33D
330
1F
100
AcDbEntity
  8
0
  6
Continuous
 62
     7
370
    15
100
AcDbCircle
 10
-2.5443909036
 20
-3.3403720988
 30
0.0
 40
58.73671920158969
100
AcDbArc
 50
15.8072501932
 51
74.1927498068
  0
ARC
  5
33E
330
1F
100
AcDbEntity
  8
0
  6
Continuous
 62
     7
370
    15
100
AcDbCircle
 10
-2.5443909036
 20
-3.3403720988
 30
0.0
 40
58.73671920158971
100
AcDbArc
 50
285.8072501932
 51
344.1927498068
  0
ARC
  5
33F
330
1F
100
AcDbEntity
  8
0
  6
Continuous
 62
     7
370
    15
100
AcDbCircle
 10
-2.5443909036
 20
-3.3403720988
 30
0.0
 40
58.73671920158971
100
AcDbArc
 50
195.8072501932
 51
254.1927498068
  0
CIRCLE
  5
340
330
1F
100
AcDbEntity
  8
0
  6
Continuous
 62
     7
370
    15
100
AcDbCircle
 10
-2.5443909036
 20
-3.3403720988
 30
0.0
 40
25.0
  0
LINE
  5
341
330
1F
100
AcDbEntity
  8
0
  6
Continuous
 62
     7
370
    15
100
AcDbLine
 10
-18.5443916635
 20
77.8328243362
 30
0.0
 11
-24.5505635904
 21
76.1704954969
 31
0.0
  0
LINE
  5
342
330
1F
100
AcDbEntity
  8
0
  6
Continuous
 62
     7
370
    15
100
AcDbLine
 10
19.4617817832
 20
76.1704954969
 30
0.0
 11
13.4556098564
 21
77.8328243362
 31
0.0
  0
ARC
  5
343
330
1F
100
AcDbEntity
  8
0
  6
Continuous
 62
     7
370
    15
100
AcDbCircle
 10
-2.5443909036
 20
-3.3403720988
 30
0.0
 40
82.5
100
AcDbArc
 50
15.4704577118
 51
74.5295422882
  0
LINE
  5
344
330
1F
100
AcDbEntity
  8
0
  6
Continuous
 62
     7
370
    15
100
AcDbLine
 10
78.6288055314
 20
12.6596286611
 30
0.0
 11
76.9664766921
 21
18.665800588
 31
0.0
  0
LINE
  5
345
330
1F
100
AcDbEntity
  8
0
  6
Continuous
 62
     7
370
    15
100
AcDbLine
 10
76.9664766921
 20
-25.3465447856
 30
0.0
 11
78.6288055314
 21
-19.3403728588
 31
0.0
  0
ARC
  5
346
330
1F
100
AcDbEntity
  8
0
  6
Continuous
 62
     7
370
    15
100
AcDbCircle
 10
-2.5443909036
 20
-3.3403720988
 30
0.0
 40
82.50000000000098
100
AcDbArc
 50
285.4704577118
 51
344.5295422882
  0
LINE
  5
347
330
1F
100
AcDbEntity
  8
0
  6
Continuous
 62
     7
370
    15
100
AcDbLine
 10
13.4556098564
 20
-84.5135685338
 30
0.0
 11
19.4617817832
 21
-82.8512396945
 31
0.0
  0
LINE
  5
348
330
1F
100
AcDbEntity
  8
0
  6
Continuous
 62
     7
370
    15
100
AcDbLine
 10
-24.5505635904
 20
-82.8512396945
 30
0.0
 11
-18.5443916635
 21
-84.5135685338
 31
0.0
  0
ARC
  5
349
330
1F
100
AcDbEntity
  8
0
  6
Continuous
 62
     7
370
    15
100
AcDbCircle
 10
-2.5443909036
 20
-3.3403720988
 30
0.0
 40
82.50000000000001
100
AcDbArc
 50
195.4704577118
 51
254.5295422882
  0
LINE
  5
34A
330
1F
100
AcDbEntity
  8
0
  6
Continuous
 62
     7
370
    15
100
AcDbLine
 10
-83.7175873386
 20
-19.3403728588
 30
0.0
 11
-82.0552584993
 21
-25.3465447856
 31
0.0
  0
LINE
  5
34B
330
1F
100
AcDbEntity
  8
0
  6
Continuous
 62
     7
370
    15
100
AcDbLine
 10
-82.0552584993
 20
18.665800588
 30
0.0
 11
-83.7175873386
 21
12.6596286611
 31
0.0
  0
ARC
  5
34C
330
1F
100
AcDbEntity
  8
0
  6
Continuous
 62
     7
370
    15
100
AcDbCircle
 10
-2.5443909036
 20
-3.3403720988
 30
0.0
 40
82.50000000000001
100
AcDbArc
 50
105.4704577118
 51
164.5295422882
  0
LINE
  5
34D
330
1F
100
AcDbEntity
  8
0
  6
Continuous
 62
     7
370
    15
100
AcDbLine
 10
32.5888926817
 20
-50.4081744982
 30
0.0
 11
35.6741073264
 21
-53.5102237297
 31
0.0
  0
SPLINE
  5
34E
330
1F
100
AcDbEntity
  8
0
  6
Continuous
 62
     7
370
    15
100
AcDbSpline
210
0.0
220
0.0
230
1.0
 70
     8
 71
     3
 72
    49
 73
    45
 74
     0
 42
0.00000001
 43
0.00000001
 12
1.0
 22
0.0
 32
0.0
 13
1.0
 23
0.0
 33
0.0
 40
0.0
 40
0.0
 40
0.0
 40
0.0
 40
0.0624999999999999
 40
0.0624999999999999
 40
0.1249999999999998
 40
0.1249999999999998
 40
0.1562499999999998
 40
0.1562499999999998
 40
0.1874999999999999
 40
0.1874999999999999
 40
0.2500000000000001
 40
0.2500000000000001
 40
0.3125000000000002
 40
0.3125000000000002
 40
0.3750000000000003
 40
0.3750000000000003
 40
0.4062500000000004
 40
0.4062500000000004
 40
0.4375000000000004
 40
0.4687500000000005
 40
0.4687500000000005
 40
0.5000000000000006
 40
0.5000000000000006
 40
0.5625000000000013
 40
0.5625000000000013
 40
0.5937500000000016
 40
0.5937500000000016
 40
0.6250000000000019
 40
0.6250000000000019
 40
0.6875000000000017
 40
0.6875000000000017
 40
0.7187500000000014
 40
0.7187500000000014
 40
0.7500000000000012
 40
0.7500000000000012
 40
0.812500000000001
 40
0.812500000000001
 40
0.8750000000000008
 40
0.8750000000000008
 40
0.9062500000000003
 40
0.9062500000000003
 40
0.9374999999999998
 40
0.9374999999999998
 40
1.0
 40
1.0
 40
1.0
 40
1.0
 10
35.67410638145797
 20
-53.51022246208921
 30
0.0
 10
36.06294271622565
 20
-53.90118203207633
 30
0.0
 10
36.48838133438888
 20
-54.25313866660468
 30
0.0
 10
37.41526984778035
 20
-54.87604802012923
 30
0.0
 10
37.90360999573313
 20
-55.1378774713689
 30
0.0
 10
38.66690369192933
 20
-55.45619213633141
 30
0.0
 10
38.92678076835445
 20
-55.5499862009895
 30
0.0
 10
39.45765397871803
 20
-55.71243613406625
 30
0.0
 10
39.72988587270245
 20
-55.78122933429553
 30
0.0
 10
40.54665593377852
 20
-55.94513792677477
 30
0.0
 10
41.09547584486396
 20
-55.99996499917931
 30
0.0
 10
42.20161464145382
 20
-56.00208414821254
 30
0.0
 10
42.76301120694402
 20
-55.94758018062389
 30
0.0
 10
43.84752056382318
 20
-55.73296281565947
 30
0.0
 10
44.37599283135111
 20
-55.57362989869745
 30
0.0
 10
45.14760075919227
 20
-55.25499249390685
 30
0.0
 10
45.40151525807477
 20
-55.13507146007965
 30
0.0
 10
45.89100111295473
 20
-54.87363257208736
 30
0.0
 10
46.36507702238843
 20
-54.58951984696628
 30
0.0
 10
46.80884978912731
 20
-54.26082006223
 30
0.0
 10
47.2372875434468
 20
-53.90955692540264
 30
0.0
 10
47.4447624463242
 20
-53.7216988023003
 30
0.0
 10
48.03649926549001
 20
-53.12972461001176
 30
0.0
 10
48.38647496331921
 20
-52.70220573235787
 30
0.0
 10
48.84664773119392
 20
-52.0130873198873
 30
0.0
 10
48.98916158146064
 20
-51.77534979333326
 30
0.0
 10
49.25180356249381
 20
-51.28334570249721
 30
0.0
 10
49.37124127707765
 20
-51.03002699145445
 30
0.0
 10
49.68835801853233
 20
-50.261760599555
 30
0.0
 10
49.84796251589992
 20
-49.73364722212846
 30
0.0
 10
50.0094232504489
 20
-48.91750324315988
 30
0.0
 10
50.05025786857337
 20
-48.63985569055597
 30
0.0
 10
50.10382816210275
 20
-48.08586127281972
 30
0.0
 10
50.11678530384002
 20
-47.80940207351902
 30
0.0
 10
50.11521501845144
 20
-46.98159911925946
 30
0.0
 10
50.06064029471853
 20
-46.43181461304417
 30
0.0
 10
49.84047581967602
 20
-45.33657480995598
 30
0.0
 10
49.67773265739723
 20
-44.80667328353602
 30
0.0
 10
49.35945710804879
 20
-44.04332489379136
 30
0.0
 10
49.24084345900024
 20
-43.79381844780338
 30
0.0
 10
48.97806352173968
 20
-43.30489352884848
 30
0.0
 10
48.83312088515365
 20
-43.06451555755024
 30
0.0
 10
48.3684155869712
 20
-42.37354483028901
 30
0.0
 10
48.01731263860287
 20
-41.94859447452041
 30
0.0
 10
47.62545945968583
 20
-41.55886938386157
 30
0.0
  0
LINE
  5
34F
330
1F
100
AcDbEntity
  8
0
  6
Continuous
 62
     7
370
    15
100
AcDbLine
 10
47.6254607273
 20
-41.5588703288
 30
0.0
 11
44.5211353434
 21
-38.4713907076
 31
0.0
  0
LINE
  5
350
330
1F
100
AcDbEntity
  8
0
  6
Continuous
 62
     7
370
    15
100
AcDbLine
 10
44.5234114958
 20
31.7929114865
 30
0.0
 11
47.6254607273
 21
34.8781261312
 31
0.0
  0
SPLINE
  5
351
330
1F
100
AcDbEntity
  8
0
  6
Continuous
 62
     7
370
    15
100
AcDbSpline
210
0.0
220
0.0
230
1.0
 70
     8
 71
     3
 72
    49
 73
    45
 74
     0
 42
0.00000001
 43
0.00000001
 12
1.0
 22
0.0
 32
0.0
 13
1.0
 23
0.0
 33
0.0
 40
0.0
 40
0.0
 40
0.0
 40
0.0
 40
0.0625
 40
0.0625
 40
0.1250000000000001
 40
0.1250000000000001
 40
0.1562500000000001
 40
0.1562500000000001
 40
0.1875000000000001
 40
0.1875000000000001
 40
0.2499999999999999
 40
0.2499999999999999
 40
0.3124999999999998
 40
0.3124999999999998
 40
0.3749999999999997
 40
0.3749999999999997
 40
0.4062499999999997
 40
0.4062499999999997
 40
0.4374999999999998
 40
0.4687499999999999
 40
0.4687499999999999
 40
0.4999999999999999
 40
0.4999999999999999
 40
0.5625000000000007
 40
0.5625000000000007
 40
0.593750000000001
 40
0.593750000000001
 40
0.6250000000000014
 40
0.6250000000000014
 40
0.6875000000000017
 40
0.6875000000000017
 40
0.7187500000000017
 40
0.7187500000000017
 40
0.7500000000000017
 40
0.7500000000000017
 40
0.8125000000000018
 40
0.8125000000000018
 40
0.875000000000002
 40
0.875000000000002
 40
0.9062500000000017
 40
0.9062500000000017
 40
0.9375000000000013
 40
0.9375000000000013
 40
1.0
 40
1.0
 40
1.0
 40
1.0
 10
47.62545945968609
 20
34.87812518622965
 30
0.0
 10
48.01641902967321
 20
35.26696152099733
 30
0.0
 10
48.36837566420154
 20
35.69240013916055
 30
0.0
 10
48.99128501772608
 20
36.61928865255204
 30
0.0
 10
49.25311446896575
 20
37.10762880050481
 30
0.0
 10
49.57142913392824
 20
37.87092249670101
 30
0.0
 10
49.66522319858633
 20
38.13079957312613
 30
0.0
 10
49.8276731316631
 20
38.66167278348973
 30
0.0
 10
49.89646633189236
 20
38.93390467747415
 30
0.0
 10
50.06037492437162
 20
39.75067473855024
 30
0.0
 10
50.11520199677614
 20
40.29949464963567
 30
0.0
 10
50.11732114580934
 20
41.4056334462255
 30
0.0
 10
50.06281717822067
 20
41.96703001171571
 30
0.0
 10
49.84819981325625
 20
43.05153936859487
 30
0.0
 10
49.68886689629422
 20
43.58001163612278
 30
0.0
 10
49.37022949150363
 20
44.35161956396398
 30
0.0
 10
49.25030845767643
 20
44.60553406284644
 30
0.0
 10
48.98886956968414
 20
45.09501991772639
 30
0.0
 10
48.70475710963387
 20
45.56909600713754
 30
0.0
 10
48.37605705982675
 20
46.012868593899
 30
0.0
 10
48.02479392299937
 20
46.44130634821848
 30
0.0
 10
47.83693579989703
 20
46.64878125109588
 30
0.0
 10
47.24496160760852
 20
47.24051807026166
 30
0.0
 10
46.8174427299546
 20
47.59049376809087
 30
0.0
 10
46.12832431748402
 20
48.05066653596557
 30
0.0
 10
45.89058679093001
 20
48.19318038623229
 30
0.0
 10
45.39858270009392
 20
48.45582236726543
 30
0.0
 10
45.14526398905117
 20
48.57526008184931
 30
0.0
 10
44.37699759715171
 20
48.89237682330395
 30
0.0
 10
43.84888421972516
 20
49.05198132067153
 30
0.0
 10
43.03274024075658
 20
49.21344205522053
 30
0.0
 10
42.7550926881527
 20
49.25427667334499
 30
0.0
 10
42.20109827041645
 20
49.30784696687439
 30
0.0
 10
41.92463907111576
 20
49.32080410861165
 30
0.0
 10
41.0968361168562
 20
49.31923382322307
 30
0.0
 10
40.5470516106409
 20
49.26465909949012
 30
0.0
 10
39.45181180755269
 20
49.04449462444759
 30
0.0
 10
38.92191028113275
 20
48.88175146216881
 30
0.0
 10
38.15856189138806
 20
48.56347591282034
 30
0.0
 10
37.90905544540012
 20
48.4448622637718
 30
0.0
 10
37.42013052644522
 20
48.18208232651124
 30
0.0
 10
37.17975255514699
 20
48.03713968992523
 30
0.0
 10
36.48878182788575
 20
47.57243439174277
 30
0.0
 10
36.06383147211717
 20
47.22133144337444
 30
0.0
 10
35.67410638145832
 20
46.82947826445737
 30
0.0
  0
LINE
  5
352
330
1F
100
AcDbEntity
  8
0
  6
Continuous
 62
     7
370
    15
100
AcDbLine
 10
35.6741073264
 20
46.8294795321
 30
0.0
 11
32.5866277052
 21
43.7251541482
 31
0.0
  0
LINE
  5
353
330
1F
100
AcDbEntity
  8
0
  6
Continuous
 62
     7
370
    15
100
AcDbLine
 10
-37.6776744889
 20
43.7274303006
 30
0.0
 11
-40.7628891336
 21
46.8294795321
 31
0.0
  0
SPLINE
  5
354
330
1F
100
AcDbEntity
  8
0
  6
Continuous
 62
     7
370
    15
100
AcDbSpline
210
0.0
220
0.0
230
1.0
 70
     8
 71
     3
 72
    49
 73
    45
 74
     0
 42
0.00000001
 43
0.00000001
 12
1.0
 22
0.0
 32
0.0
 13
1.0
 23
0.0
 33
0.0
 40
0.0
 40
0.0
 40
0.0
 40
0.0
 40
0.0624999999999994
 40
0.0624999999999994
 40
0.1249999999999989
 40
0.1249999999999989
 40
0.1562499999999987
 40
0.1562499999999987
 40
0.1874999999999986
 40
0.1874999999999986
 40
0.2499999999999984
 40
0.2499999999999984
 40
0.3124999999999983
 40
0.3124999999999983
 40
0.3749999999999982
 40
0.3749999999999982
 40
0.4062499999999983
 40
0.4062499999999983
 40
0.4374999999999984
 40
0.4687499999999985
 40
0.4687499999999985
 40
0.4999999999999986
 40
0.4999999999999986
 40
0.5624999999999982
 40
0.5624999999999982
 40
0.593749999999998
 40
0.593749999999998
 40
0.6249999999999979
 40
0.6249999999999979
 40
0.6874999999999982
 40
0.6874999999999982
 40
0.7187499999999983
 40
0.7187499999999983
 40
0.7499999999999984
 40
0.7499999999999984
 40
0.8124999999999988
 40
0.8124999999999988
 40
0.8749999999999991
 40
0.8749999999999991
 40
0.9062499999999996
 40
0.9062499999999996
 40
0.9374999999999999
 40
0.9374999999999999
 40
1.0
 40
1.0
 40
1.0
 40
1.0
 10
-40.76288818863219
 20
46.82947826445736
 30
0.0
 10
-41.15172452339988
 20
47.22043783444447
 30
0.0
 10
-41.57716314156311
 20
47.57239446897282
 30
0.0
 10
-42.50405165495461
 20
48.19530382249738
 30
0.0
 10
-42.99239180290735
 20
48.45713327373703
 30
0.0
 10
-43.75568549910355
 20
48.77544793869952
 30
0.0
 10
-44.01556257552868
 20
48.8692420033576
 30
0.0
 10
-44.54643578589228
 20
49.03169193643438
 30
0.0
 10
-44.81866767987667
 20
49.10048513666366
 30
0.0
 10
-45.63543774095276
 20
49.26439372914289
 30
0.0
 10
-46.18425765203819
 20
49.31922080154741
 30
0.0
 10
-47.29039644862804
 20
49.32133995058065
 30
0.0
 10
-47.85179301411826
 20
49.26683598299198
 30
0.0
 10
-48.93630237099743
 20
49.05221861802757
 30
0.0
 10
-49.46477463852535
 20
48.89288570106556
 30
0.0
 10
-50.23638256636651
 20
48.57424829627494
 30
0.0
 10
-50.49029706524898
 20
48.45432726244771
 30
0.0
 10
-50.97978292012893
 20
48.19288837445542
 30
0.0
 10
-51.4538590095401
 20
47.90877591440523
 30
0.0
 10
-51.89763159630154
 20
47.58007586459807
 30
0.0
 10
-52.32606935062103
 20
47.22881272777072
 30
0.0
 10
-52.53354425349843
 20
47.04095460466836
 30
0.0
 10
-53.12528107266422
 20
46.44898041237983
 30
0.0
 10
-53.47525677049343
 20
46.02146153472592
 30
0.0
 10
-53.9354295383681
 20
45.33234312225531
 30
0.0
 10
-54.07794338863483
 20
45.0946055957013
 30
0.0
 10
-54.34058536966801
 20
44.60260150486528
 30
0.0
 10
-54.46002308425187
 20
44.3492827938225
 30
0.0
 10
-54.77713982570652
 20
43.58101640192305
 30
0.0
 10
-54.93674432307411
 20
43.05290302449652
 30
0.0
 10
-55.09820505762309
 20
42.23675904552793
 30
0.0
 10
-55.13903967574755
 20
41.95911149292402
 30
0.0
 10
-55.19260996927694
 20
41.40511707518777
 30
0.0
 10
-55.2055671110142
 20
41.12865787588708
 30
0.0
 10
-55.20399682562563
 20
40.30085492162749
 30
0.0
 10
-55.1494221018927
 20
39.75107041541222
 30
0.0
 10
-54.92925762685018
 20
38.65583061232402
 30
0.0
 10
-54.76651446457139
 20
38.12592908590407
 30
0.0
 10
-54.44823891522294
 20
37.36258069615938
 30
0.0
 10
-54.32962526617438
 20
37.11307425017144
 30
0.0
 10
-54.06684532891383
 20
36.62414933121654
 30
0.0
 10
-53.92190269232781
 20
36.38377135991831
 30
0.0
 10
-53.45719739414536
 20
35.69280063265707
 30
0.0
 10
-53.10609444577704
 20
35.2678502768885
 30
0.0
 10
-52.71424126685996
 20
34.87812518622964
 30
0.0
  0
LINE
  5
355
330
1F
100
AcDbEntity
  8
0
  6
Continuous
 62
     7
370
    15
100
AcDbLine
 10
-52.7142425345
 20
34.8781261312
 30
0.0
 11
-49.6099171506
 21
31.79064651
 31
0.0
  0
LINE
  5
356
330
1F
100
AcDbEntity
  8
0
  6
Continuous
 62
     7
370
    15
100
AcDbLine
 10
-49.612193303
 20
-38.4736556841
 30
0.0
 11
-52.7142425345
 21
-41.5588703288
 31
0.0
  0
SPLINE
  5
357
330
1F
100
AcDbEntity
  8
0
  6
Continuous
 62
     7
370
    15
100
AcDbSpline
210
0.0
220
0.0
230
1.0
 70
     8
 71
     3
 72
    49
 73
    45
 74
     0
 42
0.00000001
 43
0.00000001
 12
1.0
 22
0.0
 32
0.0
 13
1.0
 23
0.0
 33
0.0
 40
0.0
 40
0.0
 40
0.0
 40
0.0
 40
0.0625
 40
0.0625
 40
0.1250000000000001
 40
0.1250000000000001
 40
0.1562500000000001
 40
0.1562500000000001
 40
0.1875000000000001
 40
0.1875000000000001
 40
0.2499999999999999
 40
0.2499999999999999
 40
0.3124999999999998
 40
0.3124999999999998
 40
0.3749999999999997
 40
0.3749999999999997
 40
0.4062499999999997
 40
0.4062499999999997
 40
0.4374999999999998
 40
0.4687499999999999
 40
0.4687499999999999
 40
0.4999999999999999
 40
0.4999999999999999
 40
0.5625000000000007
 40
0.5625000000000007
 40
0.593750000000001
 40
0.593750000000001
 40
0.6250000000000014
 40
0.6250000000000014
 40
0.6875000000000017
 40
0.6875000000000017
 40
0.7187500000000017
 40
0.7187500000000017
 40
0.7500000000000017
 40
0.7500000000000017
 40
0.8125000000000018
 40
0.8125000000000018
 40
0.875000000000002
 40
0.875000000000002
 40
0.9062500000000017
 40
0.9062500000000017
 40
0.9375000000000013
 40
0.9375000000000013
 40
1.0
 40
1.0
 40
1.0
 40
1.0
 10
-52.71424126685996
 20
-41.55886938386123
 30
0.0
 10
-53.10520083684708
 20
-41.94770571862891
 30
0.0
 10
-53.45715747137541
 20
-42.37314433679213
 30
0.0
 10
-54.08006682489995
 20
-43.30003285018362
 30
0.0
 10
-54.34189627613962
 20
-43.78837299813639
 30
0.0
 10
-54.66021094110211
 20
-44.55166669433259
 30
0.0
 10
-54.7540050057602
 20
-44.81154377075771
 30
0.0
 10
-54.91645493883697
 20
-45.3424169811213
 30
0.0
 10
-54.98524813906623
 20
-45.61464887510572
 30
0.0
 10
-55.14915673154548
 20
-46.43141893618181
 30
0.0
 10
-55.20398380395002
 20
-46.98023884726725
 30
0.0
 10
-55.20610295298322
 20
-48.08637764385708
 30
0.0
 10
-55.15159898539454
 20
-48.6477742093473
 30
0.0
 10
-54.93698162043012
 20
-49.73228356622645
 30
0.0
 10
-54.7776487034681
 20
-50.26075583375435
 30
0.0
 10
-54.4590112986775
 20
-51.03236376159556
 30
0.0
 10
-54.33909026485029
 20
-51.28627826047803
 30
0.0
 10
-54.07765137685801
 20
-51.77576411535797
 30
0.0
 10
-53.79353891680774
 20
-52.24984020476911
 30
0.0
 10
-53.46483886700062
 20
-52.69361279153058
 30
0.0
 10
-53.11357573017325
 20
-53.12205054585007
 30
0.0
 10
-52.92571760707091
 20
-53.32952544872745
 30
0.0
 10
-52.33374341478239
 20
-53.92126226789324
 30
0.0
 10
-51.90622453712847
 20
-54.27123796572246
 30
0.0
 10
-51.21710612465789
 20
-54.73141073359715
 30
0.0
 10
-50.97936859810387
 20
-54.87392458386387
 30
0.0
 10
-50.48736450726779
 20
-55.13656656489701
 30
0.0
 10
-50.23404579622504
 20
-55.25600427948089
 30
0.0
 10
-49.46577940432558
 20
-55.57312102093552
 30
0.0
 10
-48.93766602689904
 20
-55.73272551830311
 30
0.0
 10
-48.12152204793045
 20
-55.89418625285211
 30
0.0
 10
-47.84387449532657
 20
-55.93502087097657
 30
0.0
 10
-47.28988007759033
 20
-55.98859116450597
 30
0.0
 10
-47.01342087828964
 20
-56.00154830624323
 30
0.0
 10
-46.18561792403007
 20
-55.99997802085465
 30
0.0
 10
-45.63583341781477
 20
-55.94540329712171
 30
0.0
 10
-44.54059361472657
 20
-55.72523882207917
 30
0.0
 10
-44.01069208830662
 20
-55.56249565980038
 30
0.0
 10
-43.24734369856193
 20
-55.24422011045192
 30
0.0
 10
-42.99783725257399
 20
-55.12560646140338
 30
0.0
 10
-42.50891233361909
 20
-54.86282652414283
 30
0.0
 10
-42.26853436232086
 20
-54.71788388755681
 30
0.0
 10
-41.57756363505961
 20
-54.25317858937436
 30
0.0
 10
-41.15261327929103
 20
-53.90207564100602
 30
0.0
 10
-40.76288818863219
 20
-53.51022246208895
 30
0.0
  0
LINE
  5
358
330
1F
100
AcDbEntity
  8
0
  6
Continuous
 62
     7
370
    15
100
AcDbLine
 10
-40.7628891336
 20
-53.5102237297
 30
0.0
 11
-37.6754095124
 21
-50.4058983458
 31
0.0
  0
CIRCLE
  5
359
330
1F
100
AcDbEntity
  8
0
  6
Continuous
 62
     8
370
     0
100
AcDbCircle
 10
-2.5443909036
 20
-3.3403720988
 30
0.0
 40
41.49999999999999
  0
INSERT
  5
365
330
1F
100
AcDbEntity
  8
0
  6
Continuous
 62
     7
370
     0
100
AcDbBlockReference
  2
SW_CENTERMARKSYMBOL_0
 10
-2.5443909036
 20
-3.3403720988
 30
0.0
  0
ENDSEC
  0
SECTION
  2
OBJECTS
  0
DICTIONARY
  5
C
330
0
100
AcDbDictionary
281
     1
  3
ACAD_GROUP
350
D
  3
ACAD_LAYOUT
350
1A
  3
ACAD_MLINESTYLE
350
17
  3
ACAD_PLOTSETTINGS
350
19
  3
ACAD_PLOTSTYLENAME
350
E
  0
DICTIONARY
  5
D
102
{ACAD_REACTORS
330
C
102
}
330
C
100
AcDbDictionary
281
     1
  0
DICTIONARY
  5
1A
102
{ACAD_REACTORS
330
C
102
}
330
C
100
AcDbDictionary
281
     1
  3
Layout1
350
1E
  3
Layout2
350
26
  3
Model
350
22
  0
DICTIONARY
  5
17
102
{ACAD_REACTORS
330
C
102
}
330
C
100
AcDbDictionary
281
     1
  3
Standard
350
18
  0
DICTIONARY
  5
19
102
{ACAD_REACTORS
330
C
102
}
330
C
100
AcDbDictionary
281
     1
  0
ACDBDICTIONARYWDFLT
  5
E
102
{ACAD_REACTORS
330
C
102
}
330
C
100
AcDbDictionary
281
     1
  3
Normal
350
F
100
AcDbDictionaryWithDefault
340
F
  0
LAYOUT
  5
1E
102
{ACAD_REACTORS
330
1A
102
}
330
1A
100
AcDbPlotSettings
  1

  2
none_device
  4

  6

 40
0.0
 41
0.0
 42
0.0
 43
0.0
 44
0.0
 45
0.0
 46
0.0
 47
0.0
 48
0.0
 49
0.0
140
0.0
141
0.0
142
1.0
143
1.0
 70
   688
 72
     0
 73
     0
 74
     5
  7

 75
    16
147
1.0
148
0.0
149
0.0
100
AcDbLayout
  1
Layout1
 70
     1
 71
     1
 10
0.0
 20
0.0
 11
420.0
 21
297.0
 12
0.0
 22
0.0
 32
0.0
 14
1.0000000000E+20
 24
1.0000000000E+20
 34
1.0000000000E+20
 15
-1.0000000000E+20
 25
-1.0000000000E+20
 35
-1.0000000000E+20
146
0.0
 13
0.0
 23
0.0
 33
0.0
 16
1.0
 26
0.0
 36
0.0
 17
0.0
 27
1.0
 37
0.0
 76
     0
330
1B
  0
LAYOUT
  5
26
102
{ACAD_REACTORS
330
1A
102
}
330
1A
100
AcDbPlotSettings
  1

  2
none_device
  4

  6

 40
0.0
 41
0.0
 42
0.0
 43
0.0
 44
0.0
 45
0.0
 46
0.0
 47
0.0
 48
0.0
 49
0.0
140
0.0
141
0.0
142
1.0
143
1.0
 70
   688
 72
     0
 73
     0
 74
     5
  7

 75
    16
147
1.0
148
0.0
149
0.0
100
AcDbLayout
  1
Layout2
 70
     1
 71
     2
 10
0.0
 20
0.0
 11
0.0
 21
0.0
 12
0.0
 22
0.0
 32
0.0
 14
0.0
 24
0.0
 34
0.0
 15
0.0
 25
0.0
 35
0.0
146
0.0
 13
0.0
 23
0.0
 33
0.0
 16
1.0
 26
0.0
 36
0.0
 17
0.0
 27
1.0
 37
0.0
 76
     0
330
23
  0
LAYOUT
  5
22
102
{ACAD_REACTORS
330
1A
102
}
330
1A
100
AcDbPlotSettings
  1

  2
none_device
  4

  6

 40
0.0
 41
0.0
 42
0.0
 43
0.0
 44
0.0
 45
0.0
 46
0.0
 47
0.0
 48
0.0
 49
0.0
140
0.0
141
0.0
142
1.0
143
1.0
 70
  1712
 72
     0
 73
     0
 74
     0
  7

 75
     0
147
1.0
148
0.0
149
0.0
100
AcDbLayout
  1
Model
 70
     1
 71
     0
 10
0.0
 20
0.0
 11
431.8
 21
279.4
 12
0.0
 22
0.0
 32
0.0
 14
0.0
 24
0.0
 34
0.0
 15
431.8
 25
279.4
 35
0.0
146
0.0
 13
0.0
 23
0.0
 33
0.0
 16
1.0
 26
0.0
 36
0.0
 17
0.0
 27
1.0
 37
0.0
 76
     0
330
1F
331
29
  0
MLINESTYLE
  5
18
102
{ACAD_REACTORS
330
17
102
}
330
17
100
AcDbMlineStyle
  2
Standard
 70
     0
  3

 62
   256
 51
90.0
 52
90.0
 71
     2
 49
0.5
 62
   256
  6
BYLAYER
 49
-0.5
 62
   256
  6
BYLAYER
  0
ACDBPLACEHOLDER
  5
F
102
{ACAD_REACTORS
330
E
102
}
330
E
  0
ENDSEC
  0
EOF
