  0
SECTION
  2
HEADER
  9
$ACADVER
  1
AC1015
  9
$ACADMAINTVER
 70
     6
  9
$DWGCODEPAGE
  3
ANSI_1252
  9
$INSBASE
 10
0.0
 20
0.0
 30
0.0
  9
$EXTMIN
 10
0.0
 20
0.0
 30
0.0
  9
$EXTMAX
 10
841.0
 20
594.0
 30
0.0
  9
$LIMMIN
 10
0.0
 20
0.0
  9
$LIMMAX
 10
841.0
 20
594.0
  9
$ORTHOMODE
 70
     0
  9
$REGENMODE
 70
     1
  9
$FILLMODE
 70
     1
  9
$QTEXTMODE
 70
     0
  9
$MIRRTEXT
 70
     1
  9
$LTSCALE
 40
1.0
  9
$ATTMODE
 70
     1
  9
$TEXTSIZE
 40
2.5
  9
$TRACEWID
 40
1.0
  9
$TEXTSTYLE
  7
Standard
  9
$CLAYER
  8
0
  9
$CELTYPE
  6
ByLayer
  9
$CECOLOR
 62
   256
  9
$CELTSCALE
 40
1.0
  9
$DISPSILH
 70
     0
  9
$DIMSCALE
 40
1.0
  9
$DIMASZ
 40
2.5
  9
$DIMEXO
 40
1.0
  9
$DIMDLI
 40
3.75
  9
$DIMRND
 40
0.0
  9
$DIMDLE
 40
0.0
  9
$DIMEXE
 40
1.0
  9
$DIMTP
 40
0.0
  9
$DIMTM
 40
0.0
  9
$DIMTXT
 40
2.5
  9
$DIMCEN
 40
2.5
  9
$DIMTSZ
 40
0.0
  9
$DIMTOL
 70
     0
  9
$DIMLIM
 70
     0
  9
$DIMTIH
 70
     1
  9
$DIMTOH
 70
     1
  9
$DIMSE1
 70
     0
  9
$DIMSE2
 70
     0
  9
$DIMTAD
 70
     1
  9
$DIMZIN
 70
     0
  9
$DIMBLK
  1

  9
$DIMASO
 70
     1
  9
$DIMSHO
 70
     1
  9
$DIMPOST
  1

  9
$DIMAPOST
  1

  9
$DIMALT
 70
     0
  9
$DIMALTD
 70
     3
  9
$DIMALTF
 40
0.0393700787
  9
$DIMLFAC
 40
1.0
  9
$DIMTOFL
 70
     1
  9
$DIMTVP
 40
0.0
  9
$DIMTIX
 70
     0
  9
$DIMSOXD
 70
     0
  9
$DIMSAH
 70
     0
  9
$DIMBLK1
  1

  9
$DIMBLK2
  1

  9
$DIMSTYLE
  2
ISO-25
  9
$DIMCLRD
 70
     0
  9
$DIMCLRE
 70
     0
  9
$DIMCLRT
 70
     0
  9
$DIMTFAC
 40
1.0
  9
$DIMGAP
 40
1.524
  9
$DIMJUST
 70
     0
  9
$DIMSD1
 70
     0
  9
$DIMSD2
 70
     0
  9
$DIMTOLJ
 70
     0
  9
$DIMTZIN
 70
     0
  9
$DIMALTZ
 70
     0
  9
$DIMALTTZ
 70
     0
  9
$DIMUPT
 70
     0
  9
$DIMDEC
 70
     2
  9
$DIMTDEC
 70
     2
  9
$DIMALTU
 70
     2
  9
$DIMALTTD
 70
     3
  9
$DIMTXSTY
  7
Standard
  9
$DIMAUNIT
 70
     0
  9
$DIMADEC
 70
     2
  9
$DIMALTRND
 40
0.0
  9
$DIMAZIN
 70
     0
  9
$DIMDSEP
 70
    44
  9
$DIMATFIT
 70
     3
  9
$DIMFRAC
 70
     0
  9
$DIMLDRBLK
  1

  9
$DIMLUNIT
 70
     2
  9
$DIMLWD
 70
    -2
  9
$DIMLWE
 70
    -2
  9
$DIMTMOVE
 70
     0
  9
$LUNITS
 70
     2
  9
$LUPREC
 70
     2
  9
$SKETCHINC
 40
1.0
  9
$FILLETRAD
 40
10.0
  9
$AUNITS
 70
     0
  9
$AUPREC
 70
     2
  9
$MENU
  1
.
  9
$ELEVATION
 40
0.0
  9
$PELEVATION
 40
0.0
  9
$THICKNESS
 40
0.0
  9
$LIMCHECK
 70
     0
  9
$CHAMFERA
 40
10.0
  9
$CHAMFERB
 40
10.0
  9
$CHAMFERC
 40
20.0
  9
$CHAMFERD
 40
0.0
  9
$SKPOLY
 70
     0
  9
$TDCREATE
 40
2458052.438152014
  9
$TDUCREATE
 40
2458052.35481868
  9
$TDUPDATE
 40
2458052.438152917
  9
$TDUUPDATE
 40
2458052.354819583
  9
$TDINDWG
 40
0.0000000116
  9
$TDUSRTIMER
 40
0.0000000116
  9
$USRTIMER
 70
     1
  9
$ANGBASE
 50
0.0
  9
$ANGDIR
 70
     0
  9
$PDMODE
 70
     0
  9
$PDSIZE
 40
-1.0
  9
$PLINEWID
 40
0.0
  9
$SPLFRAME
 70
     0
  9
$SPLINETYPE
 70
     6
  9
$SPLINESEGS
 70
     8
  9
$HANDSEED
  5
3B1
  9
$SURFTAB1
 70
     6
  9
$SURFTAB2
 70
     6
  9
$SURFTYPE
 70
     6
  9
$SURFU
 70
     6
  9
$SURFV
 70
     6
  9
$UCSBASE
  2

  9
$UCSNAME
  2

  9
$UCSORG
 10
0.0
 20
0.0
 30
0.0
  9
$UCSXDIR
 10
1.0
 20
0.0
 30
0.0
  9
$UCSYDIR
 10
0.0
 20
1.0
 30
0.0
  9
$UCSORTHOREF
  2

  9
$UCSORTHOVIEW
 70
     0
  9
$UCSORGTOP
 10
0.0
 20
0.0
 30
0.0
  9
$UCSORGBOTTOM
 10
0.0
 20
0.0
 30
0.0
  9
$UCSORGLEFT
 10
0.0
 20
0.0
 30
0.0
  9
$UCSORGRIGHT
 10
0.0
 20
0.0
 30
0.0
  9
$UCSORGFRONT
 10
0.0
 20
0.0
 30
0.0
  9
$UCSORGBACK
 10
0.0
 20
0.0
 30
0.0
  9
$PUCSBASE
  2

  9
$PUCSNAME
  2

  9
$PUCSORG
 10
0.0
 20
0.0
 30
0.0
  9
$PUCSXDIR
 10
1.0
 20
0.0
 30
0.0
  9
$PUCSYDIR
 10
0.0
 20
1.0
 30
0.0
  9
$PUCSORTHOREF
  2

  9
$PUCSORTHOVIEW
 70
     0
  9
$PUCSORGTOP
 10
0.0
 20
0.0
 30
0.0
  9
$PUCSORGBOTTOM
 10
0.0
 20
0.0
 30
0.0
  9
$PUCSORGLEFT
 10
0.0
 20
0.0
 30
0.0
  9
$PUCSORGRIGHT
 10
0.0
 20
0.0
 30
0.0
  9
$PUCSORGFRONT
 10
0.0
 20
0.0
 30
0.0
  9
$PUCSORGBACK
 10
0.0
 20
0.0
 30
0.0
  9
$USERI1
 70
     0
  9
$USERI2
 70
     0
  9
$USERI3
 70
     0
  9
$USERI4
 70
     0
  9
$USERI5
 70
     0
  9
$USERR1
 40
0.0
  9
$USERR2
 40
0.0
  9
$USERR3
 40
0.0
  9
$USERR4
 40
0.0
  9
$USERR5
 40
0.0
  9
$WORLDVIEW
 70
     1
  9
$SHADEDGE
 70
     3
  9
$SHADEDIF
 70
    70
  9
$TILEMODE
 70
     1
  9
$MAXACTVP
 70
    64
  9
$PINSBASE
 10
0.0
 20
0.0
 30
0.0
  9
$PLIMCHECK
 70
     0
  9
$PEXTMIN
 10
1.0000000000E+20
 20
1.0000000000E+20
 30
1.0000000000E+20
  9
$PEXTMAX
 10
-1.0000000000E+20
 20
-1.0000000000E+20
 30
-1.0000000000E+20
  9
$PLIMMIN
 10
0.0
 20
0.0
  9
$PLIMMAX
 10
420.0
 20
297.0
  9
$UNITMODE
 70
     0
  9
$VISRETAIN
 70
     1
  9
$PLINEGEN
 70
     0
  9
$PSLTSCALE
 70
     1
  9
$TREEDEPTH
 70
  3020
  9
$CMLSTYLE
  2
Standard
  9
$CMLJUST
 70
     0
  9
$CMLSCALE
 40
20.0
  9
$PROXYGRAPHICS
 70
     1
  9
$MEASUREMENT
 70
     1
  9
$CELWEIGHT
370
    -1
  9
$ENDCAPS
280
     0
  9
$JOINSTYLE
280
     0
  9
$LWDISPLAY
290
     1
  9
$INSUNITS
 70
     4
  9
$HYPERLINKBASE
  1

  9
$STYLESHEET
  1

  9
$XEDIT
290
     1
  9
$CEPSNTYPE
380
     0
  9
$PSTYLEMODE
290
     1
  9
$FINGERPRINTGUID
  2
{22C75972-BD52-418F-A338-43E36B88BA5B}
  9
$VERSIONGUID
  2
{FAEB1C32-E019-11D5-929B-00C0DF256EC4}
  9
$EXTNAMES
290
     1
  9
$PSVPSCALE
 40
0.0
  9
$OLESTARTUP
290
     0
  0
ENDSEC
  0
SECTION
  2
CLASSES
  0
CLASS
  1
ACDBDICTIONARYWDFLT
  2
AcDbDictionaryWithDefault
  3
ObjectDBX Classes
 90
        0
280
     0
281
     0
  0
CLASS
  1
VISUALSTYLE
  2
AcDbVisualStyle
  3
ObjectDBX Classes
 90
     4095
280
     0
281
     0
  0
CLASS
  1
MATERIAL
  2
AcDbMaterial
  3
ObjectDBX Classes
 90
     1153
280
     0
281
     0
  0
CLASS
  1
ACDBPLACEHOLDER
  2
AcDbPlaceHolder
  3
ObjectDBX Classes
 90
        0
280
     0
281
     0
  0
CLASS
  1
LAYOUT
  2
AcDbLayout
  3
ObjectDBX Classes
 90
        0
280
     0
281
     0
  0
ENDSEC
  0
SECTION
  2
TABLES
  0
TABLE
  2
VPORT
  5
8
330
0
100
AcDbSymbolTable
 70
     1
  0
VPORT
  5
29
330
8
100
AcDbSymbolTableRecord
100
AcDbViewportTableRecord
  2
*Active
 70
     0
 10
0.0
 20
0.0
 11
1.0
 21
1.0
 12
420.5
 22
297.0
 13
0.0
 23
0.0
 14
10.0
 24
10.0
 15
10.0
 25
10.0
 16
0.0
 26
0.0
 36
1.0
 17
0.0
 27
0.0
 37
0.0
 40
594.0
 41
1.4158249158
 42
50.0
 43
0.0
 44
0.0
 50
0.0
 51
0.0
 71
     0
 72
  2000
 73
     1
 74
     3
 75
     0
 76
     0
 77
     0
 78
     0
281
     0
 65
     1
110
0.0
120
0.0
130
0.0
111
1.0
121
0.0
131
0.0
112
0.0
122
1.0
132
0.0
 79
     0
146
0.0
  0
ENDTAB
  0
TABLE
  2
LTYPE
  5
5
330
0
100
AcDbSymbolTable
 70
     6
  0
LTYPE
  5
14
330
5
100
AcDbSymbolTableRecord
100
AcDbLinetypeTableRecord
  2
ByBlock
 70
     0
  3

 72
    65
 73
     0
 40
0.0
  0
LTYPE
  5
15
330
5
100
AcDbSymbolTableRecord
100
AcDbLinetypeTableRecord
  2
ByLayer
 70
     0
  3

 72
    65
 73
     0
 40
0.0
  0
LTYPE
  5
16
330
5
100
AcDbSymbolTableRecord
100
AcDbLinetypeTableRecord
  2
Continuous
 70
     0
  3
Solid line
 72
    65
 73
     0
 40
0.0
  0
LTYPE
  5
3F
330
5
100
AcDbSymbolTableRecord
100
AcDbLinetypeTableRecord
  2
HIDDEN
 70
     0
  3
Hidden __ __ __ __ __ __ __ __ __ __ __ __ __ __
 72
    65
 73
     2
 40
1.905
 49
1.27
 74
     0
 49
-0.635
 74
     0
  0
LTYPE
  5
40
330
5
100
AcDbSymbolTableRecord
100
AcDbLinetypeTableRecord
  2
PHANTOM
 70
     0
  3
Phantom ______  __  __  ______  __  __  ______
 72
    65
 73
     6
 40
12.7
 49
6.35
 74
     0
 49
-1.27
 74
     0
 49
1.27
 74
     0
 49
-1.27
 74
     0
 49
1.27
 74
     0
 49
-1.27
 74
     0
  0
LTYPE
  5
41
330
5
100
AcDbSymbolTableRecord
100
AcDbLinetypeTableRecord
  2
CENTER
 70
     0
  3
Center ____ _ ____ _ ____ _ ____ _ ____ _ ____
 72
    65
 73
     4
 40
10.16
 49
6.35
 74
     0
 49
-1.27
 74
     0
 49
1.27
 74
     0
 49
-1.27
 74
     0
  0
LTYPE
  5
42
330
5
100
AcDbSymbolTableRecord
100
AcDbLinetypeTableRecord
  2
CENTERX2
 70
     0
  3
Center (2x) ________  __  ________  __  _____
 72
    65
 73
     4
 40
20.32
 49
12.7
 74
     0
 49
-2.54
 74
     0
 49
2.54
 74
     0
 49
-2.54
 74
     0
  0
LTYPE
  5
43
330
5
100
AcDbSymbolTableRecord
100
AcDbLinetypeTableRecord
  2
DOT2
 70
     0
  3
Dot (.5x) ........................................
 72
    65
 73
     2
 40
0.635
 49
0.0
 74
     0
 49
-0.635
 74
     0
  0
ENDTAB
  0
TABLE
  2
LAYER
  5
2
330
0
100
AcDbSymbolTable
 70
     3
  0
LAYER
  5
10
330
2
100
AcDbSymbolTableRecord
100
AcDbLayerTableRecord
  2
0
 70
     0
 62
     7
  6
Continuous
370
    -3
390
F
  0
LAYER
  5
44
330
2
100
AcDbSymbolTableRecord
100
AcDbLayerTableRecord
  2
FORMAT
 70
     0
 62
     7
  6
Continuous
370
    -3
390
F
  0
LAYER
  5
45
330
2
100
AcDbSymbolTableRecord
100
AcDbLayerTableRecord
  2
PROTOTYPE
 70
     0
 62
     7
  6
Continuous
370
    -3
390
F
  0
ENDTAB
  0
TABLE
  2
STYLE
  5
3
330
0
100
AcDbSymbolTable
 70
     1
  0
STYLE
  5
11
330
3
100
AcDbSymbolTableRecord
100
AcDbTextStyleTableRecord
  2
Standard
 70
     0
 40
0.0
 41
1.0
 50
0.0
 71
     0
 42
2.5
  3
txt
  4

  0
ENDTAB
  0
TABLE
  2
VIEW
  5
6
330
0
100
AcDbSymbolTable
 70
     0
  0
ENDTAB
  0
TABLE
  2
UCS
  5
7
330
0
100
AcDbSymbolTable
 70
     0
  0
ENDTAB
  0
TABLE
  2
APPID
  5
9
330
0
100
AcDbSymbolTable
 70
     1
  0
APPID
  5
12
330
9
100
AcDbSymbolTableRecord
100
AcDbRegAppTableRecord
  2
ACAD
 70
     0
  0
ENDTAB
  0
TABLE
  2
DIMSTYLE
  5
A
330
0
100
AcDbSymbolTable
 70
     1
100
AcDbDimStyleTable
  0
DIMSTYLE
105
27
330
A
100
AcDbSymbolTableRecord
100
AcDbDimStyleTableRecord
  2
ISO-25
 70
     0
 41
2.5
 42
0.625
 43
3.75
 44
1.25
 73
     0
 74
     0
 77
     1
 78
     8
140
2.5
141
2.5
143
0.0393700787
147
0.625
171
     3
172
     1
178
     0
271
     2
272
     2
274
     3
278
    44
283
     0
284
     8
340
11
  0
ENDTAB
  0
TABLE
  2
BLOCK_RECORD
  5
1
330
0
100
AcDbSymbolTable
 70
     2
  0
BLOCK_RECORD
  5
1F
330
1
100
AcDbSymbolTableRecord
100
AcDbBlockTableRecord
  2
*Model_Space
340
22
  0
BLOCK_RECORD
  5
1B
330
1
100
AcDbSymbolTableRecord
100
AcDbBlockTableRecord
  2
*Paper_Space
340
1E
  0
BLOCK_RECORD
  5
23
330
1
100
AcDbSymbolTableRecord
100
AcDbBlockTableRecord
  2
*Paper_Space0
340
26
  0
BLOCK_RECORD
  5
264
330
1
100
AcDbSymbolTableRecord
100
AcDbBlockTableRecord
  2
SW_CENTERMARKSYMBOL_0
340
0
102
{BLKREFS
331
26F
102
}
  0
ENDTAB
  0
ENDSEC
  0
SECTION
  2
BLOCKS
  0
BLOCK
  5
20
330
1F
100
AcDbEntity
  8
0
100
AcDbBlockBegin
  2
*Model_Space
 70
     0
 10
0.0
 20
0.0
 30
0.0
  3
*Model_Space
  1

  0
ENDBLK
  5
21
330
1F
100
AcDbEntity
  8
0
100
AcDbBlockEnd
  0
BLOCK
  5
1C
330
1B
100
AcDbEntity
 67
     1
  8
0
100
AcDbBlockBegin
  2
*Paper_Space
 70
     0
 10
0.0
 20
0.0
 30
0.0
  3
*Paper_Space
  1

  0
ENDBLK
  5
1D
330
1B
100
AcDbEntity
 67
     1
  8
0
100
AcDbBlockEnd
  0
BLOCK
  5
24
330
23
100
AcDbEntity
  8
0
100
AcDbBlockBegin
  2
*Paper_Space0
 70
     0
 10
0.0
 20
0.0
 30
0.0
  3
*Paper_Space0
  1

  0
ENDBLK
  5
25
330
23
100
AcDbEntity
  8
0
100
AcDbBlockEnd
  0
BLOCK
  5
265
330
264
100
AcDbEntity
  8
0
100
AcDbBlockBegin
  2
SW_CENTERMARKSYMBOL_0
 70
     0
 10
0.0
 20
0.0
 30
0.0
  3
SW_CENTERMARKSYMBOL_0
  1

  0
LINE
  5
267
330
264
100
AcDbEntity
  8
FORMAT
 62
     0
100
AcDbLine
 10
0.0
 20
0.0
 30
0.0
 11
0.0
 21
2.5
 31
0.0
  0
LINE
  5
268
330
264
100
AcDbEntity
  8
FORMAT
 62
     0
100
AcDbLine
 10
0.0
 20
0.0
 30
0.0
 11
-2.5
 21
0.0
 31
0.0
  0
LINE
  5
269
330
264
100
AcDbEntity
  8
FORMAT
 62
     0
100
AcDbLine
 10
0.0
 20
0.0
 30
0.0
 11
0.0
 21
-2.5
 31
0.0
  0
LINE
  5
26A
330
264
100
AcDbEntity
  8
FORMAT
 62
     0
100
AcDbLine
 10
0.0
 20
0.0
 30
0.0
 11
2.5
 21
0.0
 31
0.0
  0
LINE
  5
26B
330
264
100
AcDbEntity
  8
FORMAT
 62
     0
100
AcDbLine
 10
0.0
 20
5.0
 30
0.0
 11
0.0
 21
145.0
 31
0.0
  0
LINE
  5
26C
330
264
100
AcDbEntity
  8
FORMAT
 62
     0
100
AcDbLine
 10
-5.0
 20
0.0
 30
0.0
 11
-145.0
 21
0.0
 31
0.0
  0
LINE
  5
26D
330
264
100
AcDbEntity
  8
FORMAT
 62
     0
100
AcDbLine
 10
0.0
 20
-5.0
 30
0.0
 11
0.0
 21
-145.0
 31
0.0
  0
LINE
  5
26E
330
264
100
AcDbEntity
  8
FORMAT
 62
     0
100
AcDbLine
 10
5.0
 20
0.0
 30
0.0
 11
145.0
 21
0.0
 31
0.0
  0
ENDBLK
  5
266
330
264
100
AcDbEntity
  8
0
100
AcDbBlockEnd
  0
ENDSEC
  0
SECTION
  2
ENTITIES
  0
LINE
  5
46
330
1F
100
AcDbEntity
  8
0
  6
Continuous
 62
     7
370
    15
100
AcDbLine
 10
754.8905205386
 20
604.7996567615
 30
0.0
 11
735.8905211495
 21
604.7996567615
 31
0.0
  0
LINE
  5
47
330
1F
100
AcDbEntity
  8
0
  6
Continuous
 62
     7
370
    15
100
AcDbLine
 10
735.8905211495
 20
319.7996603378
 30
0.0
 11
754.8905205386
 21
319.7996603378
 31
0.0
  0
LINE
  5
48
330
1F
100
AcDbEntity
  8
0
  6
Continuous
 62
     7
370
    15
100
AcDbLine
 10
653.8905170219
 20
319.7996603378
 30
0.0
 11
675.8905169027
 21
319.7996603378
 31
0.0
  0
LINE
  5
49
330
1F
100
AcDbEntity
  8
0
  6
Continuous
 62
     7
370
    15
100
AcDbLine
 10
675.8905169027
 20
604.7996567615
 30
0.0
 11
653.8905170219
 21
604.7996567615
 31
0.0
  0
LINE
  5
4A
330
1F
100
AcDbEntity
  8
0
  6
Continuous
 62
     7
370
    15
100
AcDbLine
 10
554.8905175583
 20
319.7996603378
 30
0.0
 11
573.8905262606
 21
319.7996603378
 31
0.0
  0
LINE
  5
4B
330
1F
100
AcDbEntity
  8
0
  6
Continuous
 62
     7
370
    15
100
AcDbLine
 10
573.8905262606
 20
604.7996567615
 30
0.0
 11
554.8905175583
 21
604.7996567615
 31
0.0
  0
LINE
  5
4C
330
1F
100
AcDbEntity
  8
0
  6
Continuous
 62
     7
370
    15
100
AcDbLine
 10
754.8905205386
 20
489.7216713109
 30
0.0
 11
757.8905205647
 21
489.7216713109
 31
0.0
  0
LINE
  5
4D
330
1F
100
AcDbEntity
  8
0
  6
Continuous
 62
     7
370
    15
100
AcDbLine
 10
757.8905205647
 20
526.7216699251
 30
0.0
 11
754.8905205386
 21
526.7216699251
 31
0.0
  0
LINE
  5
4E
330
1F
100
AcDbEntity
  8
0
  6
Continuous
 62
     7
370
    15
100
AcDbLine
 10
554.8905175583
 20
526.7216699251
 30
0.0
 11
551.8905263798
 21
526.7216699251
 31
0.0
  0
LINE
  5
4F
330
1F
100
AcDbEntity
  8
0
  6
Continuous
 62
     7
370
    15
100
AcDbLine
 10
551.8905263798
 20
489.7216713109
 30
0.0
 11
554.8905175583
 21
489.7216713109
 31
0.0
  0
LINE
  5
50
330
1F
100
AcDbEntity
  8
0
  6
Continuous
 62
     7
370
    15
100
AcDbLine
 10
754.8905205386
 20
397.8776471742
 30
0.0
 11
757.8905205647
 21
397.8776471742
 31
0.0
  0
LINE
  5
51
330
1F
100
AcDbEntity
  8
0
  6
Continuous
 62
     7
370
    15
100
AcDbLine
 10
757.8905205647
 20
434.8776457884
 30
0.0
 11
754.8905205386
 21
434.8776457884
 31
0.0
  0
LINE
  5
52
330
1F
100
AcDbEntity
  8
0
  6
Continuous
 62
     7
370
    15
100
AcDbLine
 10
554.8905175583
 20
434.8776457884
 30
0.0
 11
551.8905263798
 21
434.8776457884
 31
0.0
  0
LINE
  5
53
330
1F
100
AcDbEntity
  8
0
  6
Continuous
 62
     7
370
    15
100
AcDbLine
 10
551.8905263798
 20
397.8776471742
 30
0.0
 11
554.8905175583
 21
397.8776471742
 31
0.0
  0
LINE
  5
54
330
1F
100
AcDbEntity
  8
0
  6
Continuous
 62
     7
370
    15
100
AcDbLine
 10
536.1979943173
 20
431.9102006086
 30
0.0
 11
535.8905237572
 21
431.3776461461
 31
0.0
  0
LINE
  5
55
330
1F
100
AcDbEntity
  8
0
  6
Continuous
 62
     7
370
    15
100
AcDbLine
 10
773.8905199276
 20
431.3776461461
 30
0.0
 11
773.5831126975
 21
431.9100944378
 31
0.0
  0
LINE
  5
56
330
1F
100
AcDbEntity
  8
0
  6
Continuous
 62
     7
370
    15
100
AcDbLine
 10
535.8905237572
 20
518.2216713258
 30
0.0
 11
489.8905348437
 21
518.2216713258
 31
0.0
  0
LINE
  5
57
330
1F
100
AcDbEntity
  8
0
  6
Continuous
 62
     7
370
    15
100
AcDbLine
 10
489.8905348437
 20
498.2216717728
 30
0.0
 11
535.8905237572
 21
498.2216717728
 31
0.0
  0
LINE
  5
58
330
1F
100
AcDbEntity
  8
0
  6
Continuous
 62
     7
370
    15
100
AcDbLine
 10
653.8905170219
 20
518.2216713258
 30
0.0
 11
573.8905262606
 21
518.2216713258
 31
0.0
  0
LINE
  5
59
330
1F
100
AcDbEntity
  8
0
  6
Continuous
 62
     7
370
    15
100
AcDbLine
 10
573.8905262606
 20
498.2216717728
 30
0.0
 11
653.8905170219
 21
498.2216717728
 31
0.0
  0
LINE
  5
5A
330
1F
100
AcDbEntity
  8
0
  6
Continuous
 62
     7
370
    15
100
AcDbLine
 10
735.8905211495
 20
518.2216713258
 30
0.0
 11
675.8905169027
 21
518.2216713258
 31
0.0
  0
LINE
  5
5B
330
1F
100
AcDbEntity
  8
0
  6
Continuous
 62
     7
370
    15
100
AcDbLine
 10
675.8905169027
 20
498.2216717728
 30
0.0
 11
735.8905211495
 21
498.2216717728
 31
0.0
  0
LINE
  5
5C
330
1F
100
AcDbEntity
  8
0
  6
Continuous
 62
     7
370
    15
100
AcDbLine
 10
819.8905181544
 20
518.2216713258
 30
0.0
 11
773.8905199276
 21
518.2216713258
 31
0.0
  0
LINE
  5
5D
330
1F
100
AcDbEntity
  8
0
  6
Continuous
 62
     7
370
    15
100
AcDbLine
 10
773.8905199276
 20
498.2216717728
 30
0.0
 11
819.8905181544
 21
498.2216717728
 31
0.0
  0
LINE
  5
5E
330
1F
100
AcDbEntity
  8
0
  6
Continuous
 62
     7
370
    15
100
AcDbLine
 10
819.8905181544
 20
426.3776453265
 30
0.0
 11
773.8905199276
 21
426.3776453265
 31
0.0
  0
LINE
  5
5F
330
1F
100
AcDbEntity
  8
0
  6
Continuous
 62
     7
370
    15
100
AcDbLine
 10
773.8905199276
 20
406.3776457735
 30
0.0
 11
819.8905181544
 21
406.3776457735
 31
0.0
  0
LINE
  5
60
330
1F
100
AcDbEntity
  8
0
  6
Continuous
 62
     7
370
    15
100
AcDbLine
 10
535.8905237572
 20
426.3776453265
 30
0.0
 11
489.8905348437
 21
426.3776453265
 31
0.0
  0
LINE
  5
61
330
1F
100
AcDbEntity
  8
0
  6
Continuous
 62
     7
370
    15
100
AcDbLine
 10
489.8905348437
 20
406.3776457735
 30
0.0
 11
535.8905237572
 21
406.3776457735
 31
0.0
  0
LINE
  5
62
330
1F
100
AcDbEntity
  8
0
  6
Continuous
 62
     7
370
    15
100
AcDbLine
 10
653.8905170219
 20
426.3776453265
 30
0.0
 11
573.8905262606
 21
426.3776453265
 31
0.0
  0
LINE
  5
63
330
1F
100
AcDbEntity
  8
0
  6
Continuous
 62
     7
370
    15
100
AcDbLine
 10
573.8905262606
 20
406.3776457735
 30
0.0
 11
653.8905170219
 21
406.3776457735
 31
0.0
  0
LINE
  5
64
330
1F
100
AcDbEntity
  8
0
  6
Continuous
 62
     7
370
    15
100
AcDbLine
 10
735.8905211495
 20
426.3776453265
 30
0.0
 11
675.8905169027
 21
426.3776453265
 31
0.0
  0
LINE
  5
65
330
1F
100
AcDbEntity
  8
0
  6
Continuous
 62
     7
370
    15
100
AcDbLine
 10
675.8905169027
 20
406.3776457735
 30
0.0
 11
735.8905211495
 21
406.3776457735
 31
0.0
  0
LINE
  5
66
330
1F
100
AcDbEntity
  8
0
  6
Continuous
 62
     7
370
    15
100
AcDbLine
 10
535.8905237572
 20
401.3776468166
 30
0.0
 11
536.1979943173
 21
400.8450942167
 31
0.0
  0
LINE
  5
67
330
1F
100
AcDbEntity
  8
0
  6
Continuous
 62
     7
370
    15
100
AcDbLine
 10
773.5831126975
 20
400.8451985248
 30
0.0
 11
773.8905199276
 21
401.3776468166
 31
0.0
  0
ARC
  5
68
330
1F
100
AcDbEntity
  8
0
  6
Continuous
 62
     7
370
    15
100
AcDbCircle
 10
648.7030265561
 20
378.2996585497
 30
0.0
 40
17.50000000000001
100
AcDbArc
 50
223.6666445473
 51
254.5246563334
  0
ARC
  5
69
330
1F
100
AcDbEntity
  8
0
  6
Continuous
 62
     7
370
    15
100
AcDbCircle
 10
648.7030265561
 20
546.2996585497
 30
0.0
 40
17.5000000000001
100
AcDbArc
 50
105.4753436666
 51
136.3333554527
  0
ARC
  5
6A
330
1F
100
AcDbEntity
  8
0
  6
Continuous
 62
     7
370
    15
100
AcDbCircle
 10
633.1473757131
 20
366.2996585497
 30
0.0
 40
2.000000000000016
100
AcDbArc
 50
222.0
 51
312.0
  0
ARC
  5
6B
330
1F
100
AcDbEntity
  8
0
  6
Continuous
 62
     7
370
    15
100
AcDbCircle
 10
633.1473757131
 20
558.2996585497
 30
0.0
 40
2.000000000000059
100
AcDbArc
 50
48.0
 51
138.0
  0
LINE
  5
6C
330
1F
100
AcDbEntity
  8
0
  6
Continuous
 62
     7
370
    15
100
AcDbLine
 10
634.4856363194
 20
364.8133711942
 30
0.0
 11
636.0440668123
 21
366.2165837415
 31
0.0
  0
LINE
  5
6D
330
1F
100
AcDbEntity
  8
0
  6
Continuous
 62
     7
370
    15
100
AcDbLine
 10
636.0440668123
 20
558.3827333578
 30
0.0
 11
634.4856363194
 21
559.7859459051
 31
0.0
  0
LINE
  5
6E
330
1F
100
AcDbEntity
  8
0
  6
Continuous
 62
     7
370
    15
100
AcDbLine
 10
631.6610839622
 20
559.6379177698
 30
0.0
 11
623.3233999865
 21
550.3779785761
 31
0.0
  0
LINE
  5
6F
330
1F
100
AcDbEntity
  8
0
  6
Continuous
 62
     7
370
    15
100
AcDbLine
 10
623.3233999865
 20
374.2213385233
 30
0.0
 11
631.6610839622
 21
364.9613993295
 31
0.0
  0
LINE
  5
70
330
1F
100
AcDbEntity
  8
0
  6
Continuous
 62
     7
370
    15
100
AcDbLine
 10
573.8905262606
 20
372.4950986036
 30
0.0
 11
623.3233999865
 21
374.2213385233
 31
0.0
  0
LINE
  5
71
330
1F
100
AcDbEntity
  8
0
  6
Continuous
 62
     7
370
    15
100
AcDbLine
 10
623.3233999865
 20
550.3779785761
 30
0.0
 11
573.8905262606
 21
552.1042184957
 31
0.0
  0
LINE
  5
72
330
1F
100
AcDbEntity
  8
0
  6
Continuous
 62
     7
370
    15
100
AcDbLine
 10
735.8905211495
 20
542.2996567615
 30
0.0
 11
675.8905169027
 21
542.2996567615
 31
0.0
  0
LINE
  5
73
330
1F
100
AcDbEntity
  8
0
  6
Continuous
 62
     7
370
    15
100
AcDbLine
 10
675.8905169027
 20
382.2996603378
 30
0.0
 11
735.8905211495
 21
382.2996603378
 31
0.0
  0
LINE
  5
74
330
1F
100
AcDbEntity
  8
0
  6
Continuous
 62
     7
370
    15
100
AcDbLine
 10
554.8905175583
 20
591.6652070411
 30
0.0
 11
551.8905263798
 21
591.6652070411
 31
0.0
  0
LINE
  5
75
330
1F
100
AcDbEntity
  8
0
  6
Continuous
 62
     7
370
    15
100
AcDbLine
 10
551.8905263798
 20
554.6651991137
 30
0.0
 11
554.8905175583
 21
554.6651991137
 31
0.0
  0
LINE
  5
76
330
1F
100
AcDbEntity
  8
0
  6
Continuous
 62
     7
370
    15
100
AcDbLine
 10
754.8905205386
 20
554.6651991137
 30
0.0
 11
757.8905205647
 21
554.6651991137
 31
0.0
  0
LINE
  5
77
330
1F
100
AcDbEntity
  8
0
  6
Continuous
 62
     7
370
    15
100
AcDbLine
 10
757.8905205647
 20
591.6652070411
 30
0.0
 11
754.8905205386
 21
591.6652070411
 31
0.0
  0
LINE
  5
78
330
1F
100
AcDbEntity
  8
0
  6
Continuous
 62
     7
370
    15
100
AcDbLine
 10
754.8905205386
 20
332.9341100582
 30
0.0
 11
757.8905205647
 21
332.9341100582
 31
0.0
  0
LINE
  5
79
330
1F
100
AcDbEntity
  8
0
  6
Continuous
 62
     7
370
    15
100
AcDbLine
 10
757.8905205647
 20
369.9341179856
 30
0.0
 11
754.8905205386
 21
369.9341179856
 31
0.0
  0
LINE
  5
7A
330
1F
100
AcDbEntity
  8
0
  6
Continuous
 62
     7
370
    15
100
AcDbLine
 10
554.8905175583
 20
369.9341179856
 30
0.0
 11
551.8905263798
 21
369.9341179856
 31
0.0
  0
LINE
  5
7B
330
1F
100
AcDbEntity
  8
0
  6
Continuous
 62
     7
370
    15
100
AcDbLine
 10
551.8905263798
 20
332.9341100582
 30
0.0
 11
554.8905175583
 21
332.9341100582
 31
0.0
  0
LINE
  5
7C
330
1F
100
AcDbEntity
  8
0
  6
Continuous
 62
     7
370
    15
100
AcDbLine
 10
773.5830493676
 20
557.6326461562
 30
0.0
 11
773.8905199276
 21
558.1651987561
 31
0.0
  0
LINE
  5
7D
330
1F
100
AcDbEntity
  8
0
  6
Continuous
 62
     7
370
    15
100
AcDbLine
 10
535.8905237572
 20
558.1651987561
 30
0.0
 11
536.1979347127
 21
557.6327579149
 31
0.0
  0
LINE
  5
7E
330
1F
100
AcDbEntity
  8
0
  6
Continuous
 62
     7
370
    15
100
AcDbLine
 10
653.8905170219
 20
583.1652047166
 30
0.0
 11
573.8905262606
 21
583.1652047166
 31
0.0
  0
LINE
  5
7F
330
1F
100
AcDbEntity
  8
0
  6
Continuous
 62
     7
370
    15
100
AcDbLine
 10
573.8905262606
 20
563.1652014383
 30
0.0
 11
653.8905170219
 21
563.1652014383
 31
0.0
  0
LINE
  5
80
330
1F
100
AcDbEntity
  8
0
  6
Continuous
 62
     7
370
    15
100
AcDbLine
 10
535.8905237572
 20
583.1652047166
 30
0.0
 11
489.8905348437
 21
583.1652047166
 31
0.0
  0
LINE
  5
81
330
1F
100
AcDbEntity
  8
0
  6
Continuous
 62
     7
370
    15
100
AcDbLine
 10
489.8905348437
 20
563.1652014383
 30
0.0
 11
535.8905237572
 21
563.1652014383
 31
0.0
  0
LINE
  5
82
330
1F
100
AcDbEntity
  8
0
  6
Continuous
 62
     7
370
    15
100
AcDbLine
 10
819.8905181544
 20
583.1652047166
 30
0.0
 11
773.8905199276
 21
583.1652047166
 31
0.0
  0
LINE
  5
83
330
1F
100
AcDbEntity
  8
0
  6
Continuous
 62
     7
370
    15
100
AcDbLine
 10
773.8905199276
 20
563.1652014383
 30
0.0
 11
819.8905181544
 21
563.1652014383
 31
0.0
  0
LINE
  5
84
330
1F
100
AcDbEntity
  8
0
  6
Continuous
 62
     7
370
    15
100
AcDbLine
 10
735.8905211495
 20
583.1652047166
 30
0.0
 11
675.8905169027
 21
583.1652047166
 31
0.0
  0
LINE
  5
85
330
1F
100
AcDbEntity
  8
0
  6
Continuous
 62
     7
370
    15
100
AcDbLine
 10
675.8905169027
 20
563.1652014383
 30
0.0
 11
735.8905211495
 21
563.1652014383
 31
0.0
  0
LINE
  5
86
330
1F
100
AcDbEntity
  8
0
  6
Continuous
 62
     7
370
    15
100
AcDbLine
 10
535.8905237572
 20
361.434115661
 30
0.0
 11
489.8905348437
 21
361.434115661
 31
0.0
  0
LINE
  5
87
330
1F
100
AcDbEntity
  8
0
  6
Continuous
 62
     7
370
    15
100
AcDbLine
 10
489.8905348437
 20
341.4341123828
 30
0.0
 11
535.8905237572
 21
341.4341123828
 31
0.0
  0
LINE
  5
88
330
1F
100
AcDbEntity
  8
0
  6
Continuous
 62
     7
370
    15
100
AcDbLine
 10
819.8905181544
 20
361.434115661
 30
0.0
 11
773.8905199276
 21
361.434115661
 31
0.0
  0
LINE
  5
89
330
1F
100
AcDbEntity
  8
0
  6
Continuous
 62
     7
370
    15
100
AcDbLine
 10
773.8905199276
 20
341.4341123828
 30
0.0
 11
819.8905181544
 21
341.4341123828
 31
0.0
  0
LINE
  5
8A
330
1F
100
AcDbEntity
  8
0
  6
Continuous
 62
     7
370
    15
100
AcDbLine
 10
735.8905211495
 20
361.434115661
 30
0.0
 11
675.8905169027
 21
361.434115661
 31
0.0
  0
LINE
  5
8B
330
1F
100
AcDbEntity
  8
0
  6
Continuous
 62
     7
370
    15
100
AcDbLine
 10
675.8905169027
 20
341.4341123828
 30
0.0
 11
735.8905211495
 21
341.4341123828
 31
0.0
  0
LINE
  5
8C
330
1F
100
AcDbEntity
  8
0
  6
Continuous
 62
     7
370
    15
100
AcDbLine
 10
653.8905170219
 20
361.434115661
 30
0.0
 11
573.8905262606
 21
361.434115661
 31
0.0
  0
LINE
  5
8D
330
1F
100
AcDbEntity
  8
0
  6
Continuous
 62
     7
370
    15
100
AcDbLine
 10
573.8905262606
 20
341.4341123828
 30
0.0
 11
653.8905170219
 21
341.4341123828
 31
0.0
  0
LINE
  5
8E
330
1F
100
AcDbEntity
  8
0
  6
Continuous
 62
     7
370
    15
100
AcDbLine
 10
535.8905237572
 20
336.4341097006
 30
0.0
 11
537.230272259
 21
334.1136114725
 31
0.0
  0
LINE
  5
8F
330
1F
100
AcDbEntity
  8
0
  6
Continuous
 62
     7
370
    15
100
AcDbLine
 10
772.5507751511
 20
334.1136114725
 30
0.0
 11
773.8905199276
 21
336.4341097006
 31
0.0
  0
LINE
  5
90
330
1F
100
AcDbEntity
  8
0
  6
Continuous
 62
     7
370
    15
100
AcDbLine
 10
773.8905199276
 20
366.4341183432
 30
0.0
 11
772.5507751511
 21
368.7546240219
 31
0.0
  0
LINE
  5
91
330
1F
100
AcDbEntity
  8
0
  6
Continuous
 62
     7
370
    15
100
AcDbLine
 10
537.230272259
 20
368.7546240219
 30
0.0
 11
535.8905237572
 21
366.4341183432
 31
0.0
  0
LINE
  5
92
330
1F
100
AcDbEntity
  8
0
  6
Continuous
 62
     7
370
    15
100
AcDbLine
 10
773.8905199276
 20
588.1652073988
 30
0.0
 11
773.5830493676
 21
588.6977599987
 31
0.0
  0
LINE
  5
93
330
1F
100
AcDbEntity
  8
0
  6
Continuous
 62
     7
370
    15
100
AcDbLine
 10
536.1979347127
 20
588.6976556906
 30
0.0
 11
535.8905237572
 21
588.1652073988
 31
0.0
  0
LINE
  5
94
330
1F
100
AcDbEntity
  8
0
  6
Continuous
 62
     7
370
    15
100
AcDbLine
 10
773.536492552
 20
588.7783901819
 30
0.0
 11
772.5507751511
 21
590.4857056268
 31
0.0
  0
LINE
  5
95
330
1F
100
AcDbEntity
  8
0
  6
Continuous
 62
     7
370
    15
100
AcDbLine
 10
537.230272259
 20
590.4857056268
 30
0.0
 11
536.2270217793
 21
588.7480365166
 31
0.0
  0
LINE
  5
96
330
1F
100
AcDbEntity
  8
0
  6
Continuous
 62
     7
370
    15
100
AcDbLine
 10
772.5507751511
 20
555.8446930774
 30
0.0
 11
773.5830493676
 21
557.6326461562
 31
0.0
  0
LINE
  5
97
330
1F
100
AcDbEntity
  8
0
  6
Continuous
 62
     7
370
    15
100
AcDbLine
 10
536.1979347127
 20
557.6327579149
 30
0.0
 11
537.230272259
 21
555.8446930774
 31
0.0
  0
LINE
  5
98
330
1F
100
AcDbEntity
  8
0
  6
Continuous
 62
     7
370
    15
100
AcDbLine
 10
773.8905199276
 20
523.2216702827
 30
0.0
 11
773.5831126975
 21
523.7541185745
 31
0.0
  0
LINE
  5
99
330
1F
100
AcDbEntity
  8
0
  6
Continuous
 62
     7
370
    15
100
AcDbLine
 10
536.1979943173
 20
523.7542228826
 30
0.0
 11
535.8905237572
 21
523.2216702827
 31
0.0
  0
LINE
  5
9A
330
1F
100
AcDbEntity
  8
0
  6
Continuous
 62
     7
370
    15
100
AcDbLine
 10
535.8905237572
 20
493.2216709533
 30
0.0
 11
536.1979943173
 21
492.6891164907
 31
0.0
  0
LINE
  5
9B
330
1F
100
AcDbEntity
  8
0
  6
Continuous
 62
     7
370
    15
100
AcDbLine
 10
773.5831126975
 20
492.6892226615
 30
0.0
 11
773.8905199276
 21
493.2216709533
 31
0.0
  0
LINE
  5
9C
330
1F
100
AcDbEntity
  8
0
  6
Continuous
 62
     7
370
    15
100
AcDbLine
 10
735.8905211495
 20
462.2996585497
 30
0.0
 11
735.8905211495
 21
604.7996567615
 31
0.0
  0
LINE
  5
9D
330
1F
100
AcDbEntity
  8
0
  6
Continuous
 62
     7
370
    15
100
AcDbLine
 10
735.8905211495
 20
319.7996603378
 30
0.0
 11
735.8905211495
 21
462.2996585497
 31
0.0
  0
LINE
  5
9E
330
1F
100
AcDbEntity
  8
0
  6
Continuous
 62
     7
370
    15
100
AcDbLine
 10
754.8905205386
 20
462.2996585497
 30
0.0
 11
754.8905205386
 21
604.7996567615
 31
0.0
  0
LINE
  5
9F
330
1F
100
AcDbEntity
  8
0
  6
Continuous
 62
     7
370
    15
100
AcDbLine
 10
754.8905205386
 20
319.7996603378
 30
0.0
 11
754.8905205386
 21
462.2996585497
 31
0.0
  0
LINE
  5
A0
330
1F
100
AcDbEntity
  8
0
  6
Continuous
 62
     7
370
    15
100
AcDbLine
 10
653.8905170219
 20
563.0623759755
 30
0.0
 11
653.8905170219
 21
604.7996567615
 31
0.0
  0
LINE
  5
A1
330
1F
100
AcDbEntity
  8
0
  6
Continuous
 62
     7
370
    15
100
AcDbLine
 10
653.8905170219
 20
319.7996603378
 30
0.0
 11
653.8905170219
 21
563.0623759755
 31
0.0
  0
LINE
  5
A2
330
1F
100
AcDbEntity
  8
0
  6
Continuous
 62
     7
370
    15
100
AcDbLine
 10
675.8905169027
 20
563.0623759755
 30
0.0
 11
675.8905169027
 21
604.7996567615
 31
0.0
  0
LINE
  5
A3
330
1F
100
AcDbEntity
  8
0
  6
Continuous
 62
     7
370
    15
100
AcDbLine
 10
675.8905169027
 20
319.7996603378
 30
0.0
 11
675.8905169027
 21
563.0623759755
 31
0.0
  0
LINE
  5
A4
330
1F
100
AcDbEntity
  8
0
  6
Continuous
 62
     7
370
    15
100
AcDbLine
 10
573.8905262606
 20
462.2996585497
 30
0.0
 11
573.8905262606
 21
319.7996603378
 31
0.0
  0
LINE
  5
A5
330
1F
100
AcDbEntity
  8
0
  6
Continuous
 62
     7
370
    15
100
AcDbLine
 10
573.8905262606
 20
604.7996567615
 30
0.0
 11
573.8905262606
 21
462.2996585497
 31
0.0
  0
LINE
  5
A6
330
1F
100
AcDbEntity
  8
0
  6
Continuous
 62
     7
370
    15
100
AcDbLine
 10
554.8905175583
 20
462.2996585497
 30
0.0
 11
554.8905175583
 21
319.7996603378
 31
0.0
  0
LINE
  5
A7
330
1F
100
AcDbEntity
  8
0
  6
Continuous
 62
     7
370
    15
100
AcDbLine
 10
554.8905175583
 20
604.7996567615
 30
0.0
 11
554.8905175583
 21
462.2996585497
 31
0.0
  0
SPLINE
  5
A8
330
1F
100
AcDbEntity
  8
0
  6
Continuous
 62
     7
370
    15
100
AcDbSpline
210
0.0
220
0.0
230
1.0
 70
     8
 71
     3
 72
     9
 73
     5
 74
     0
 42
0.00000001
 43
0.00000001
 12
1.0
 22
0.0
 32
0.0
 13
1.0
 23
0.0
 33
0.0
 40
0.0
 40
0.0
 40
0.0
 40
0.0
 40
0.4964340829107726
 40
1.0
 40
1.0
 40
1.0
 40
1.0
 10
743.7405205385757
 20
494.6604223651373
 30
0.0
 10
744.7580152398085
 20
494.2698429256538
 30
0.0
 10
746.8076220985215
 20
493.4830729335667
 30
0.0
 10
748.8580133750294
 20
492.6960010995707
 30
0.0
 10
749.8905205385756
 20
492.2996585496694
 30
0.0
  0
LINE
  5
A9
330
1F
100
AcDbEntity
  8
0
  6
Continuous
 62
     7
370
    15
100
AcDbLine
 10
743.740520853
 20
492.2996578791
 30
0.0
 11
743.740520853
 21
494.6604209074
 31
0.0
  0
LINE
  5
AA
330
1F
100
AcDbEntity
  8
0
  6
Continuous
 62
     7
370
    15
100
AcDbLine
 10
741.3405202733
 20
492.2996578791
 30
0.0
 11
743.740520853
 21
492.2996578791
 31
0.0
  0
LINE
  5
AB
330
1F
100
AcDbEntity
  8
0
  6
Continuous
 62
     7
370
    15
100
AcDbLine
 10
741.3405202733
 20
499.1269247659
 30
0.0
 11
741.3405202733
 21
492.2996578791
 31
0.0
  0
SPLINE
  5
AC
330
1F
100
AcDbEntity
  8
0
  6
Continuous
 62
     7
370
    15
100
AcDbSpline
210
0.0
220
0.0
230
1.0
 70
     8
 71
     3
 72
    11
 73
     7
 74
     0
 42
0.00000001
 43
0.00000001
 12
1.0
 22
0.0
 32
0.0
 13
1.0
 23
0.0
 33
0.0
 40
0.0
 40
0.0
 40
0.0
 40
0.0
 40
0.2466128453210095
 40
0.4954837250833358
 40
0.7466127429973413
 40
1.0
 40
1.0
 40
1.0
 40
1.0
 10
749.890520538576
 20
502.6079955368859
 30
0.0
 10
749.1880048081886
 20
502.3219715165739
 30
0.0
 10
747.7765409788453
 20
501.7473045852423
 30
0.0
 10
745.6489383432792
 20
500.8810670618016
 30
0.0
 10
743.5015330540699
 20
500.0067656343115
 30
0.0
 10
742.0630043516052
 20
499.4210784716078
 30
0.0
 10
741.3405205385759
 20
499.1269241083147
 30
0.0
  0
LINE
  5
AD
330
1F
100
AcDbEntity
  8
0
  6
Continuous
 62
     7
370
    15
100
AcDbLine
 10
749.8905206503
 20
499.9195287057
 30
0.0
 11
749.8905206503
 21
502.6079962083
 31
0.0
  0
LINE
  5
AE
330
1F
100
AcDbEntity
  8
0
  6
Continuous
 62
     7
370
    15
100
AcDbLine
 10
748.5705203781
 20
499.3820997008
 30
0.0
 11
749.8905206503
 21
499.9195287057
 31
0.0
  0
LINE
  5
AF
330
1F
100
AcDbEntity
  8
0
  6
Continuous
 62
     7
370
    15
100
AcDbLine
 10
748.5705203781
 20
495.4735102185
 30
0.0
 11
748.5705203781
 21
499.3820997008
 31
0.0
  0
LINE
  5
B0
330
1F
100
AcDbEntity
  8
0
  6
Continuous
 62
     7
370
    15
100
AcDbLine
 10
749.8905206503
 20
494.9668111333
 30
0.0
 11
748.5705203781
 21
495.4735102185
 31
0.0
  0
SPLINE
  5
B1
330
1F
100
AcDbEntity
  8
0
  6
Continuous
 62
     7
370
    15
100
AcDbSpline
210
0.0
220
0.0
230
1.0
 70
    24
 71
     3
 72
     9
 73
     5
 74
     0
 42
0.00000001
 43
0.00000001
 12
1.0
 22
0.0
 32
0.0
 13
1.0
 23
0.0
 33
0.0
 40
0.0
 40
0.0
 40
0.0
 40
0.0
 40
0.5002224904709242
 40
1.0
 40
1.0
 40
1.0
 40
1.0
 10
746.2905205385757
 20
496.0916453114803
 30
0.0
 10
745.7925338185466
 20
496.2828045032247
 30
0.0
 10
744.7970033705648
 20
496.6649528379877
 30
0.0
 10
743.8016808209148
 20
497.047021368058
 30
0.0
 10
743.3042409958725
 20
497.2379706264861
 30
0.0
  0
LINE
  5
B2
330
1F
100
AcDbEntity
  8
0
  6
Continuous
 62
     7
370
    15
100
AcDbLine
 10
746.2905202465
 20
496.0916439124
 30
0.0
 11
746.2905202465
 21
498.4538132378
 31
0.0
  0
SPLINE
  5
B3
330
1F
100
AcDbEntity
  8
0
  6
Continuous
 62
     7
370
    15
100
AcDbSpline
210
0.0
220
0.0
230
1.0
 70
    24
 71
     3
 72
     9
 73
     5
 74
     0
 42
0.00000001
 43
0.00000001
 12
1.0
 22
0.0
 32
0.0
 13
1.0
 23
0.0
 33
0.0
 40
0.0
 40
0.0
 40
0.0
 40
0.0
 40
0.5002409219424525
 40
0.9999999999999999
 40
0.9999999999999999
 40
0.9999999999999999
 40
0.9999999999999999
 10
743.3042409958726
 20
497.2379706264861
 30
0.0
 10
743.8022576813567
 20
497.4407345627188
 30
0.0
 10
744.7978113508767
 20
497.8460671281663
 30
0.0
 10
745.7931106689729
 20
498.2512961362483
 30
0.0
 10
746.290520538576
 20
498.4538130117296
 30
0.0
  0
LINE
  5
B4
330
1F
100
AcDbEntity
  8
0
  6
Continuous
 62
     7
370
    15
100
AcDbLine
 10
749.8905206503
 20
492.2996578791
 30
0.0
 11
749.8905206503
 21
494.9668111333
 31
0.0
  0
SPLINE
  5
B5
330
1F
100
AcDbEntity
  8
0
  6
Continuous
 62
     7
370
    15
100
AcDbSpline
210
0.0
220
0.0
230
1.0
 70
     8
 71
     3
 72
     9
 73
     5
 74
     0
 42
0.00000001
 43
0.00000001
 12
1.0
 22
0.0
 32
0.0
 13
1.0
 23
0.0
 33
0.0
 40
0.0
 40
0.0
 40
0.0
 40
0.0
 40
0.4964340829110053
 40
1.0
 40
1.0
 40
1.0
 40
1.0
 10
566.0405205385757
 20
429.9388947342007
 30
0.0
 10
565.0230258373424
 20
430.3294741736843
 30
0.0
 10
562.9734189786296
 20
431.1162441657714
 30
0.0
 10
560.923027702122
 20
431.9033159997674
 30
0.0
 10
559.890520538576
 20
432.2996585496685
 30
0.0
  0
LINE
  5
B6
330
1F
100
AcDbEntity
  8
0
  6
Continuous
 62
     7
370
    15
100
AcDbLine
 10
566.0405200379
 20
432.2996592202
 30
0.0
 11
566.0405200379
 21
429.938896192
 31
0.0
  0
LINE
  5
B7
330
1F
100
AcDbEntity
  8
0
  6
Continuous
 62
     7
370
    15
100
AcDbLine
 10
568.4405159609
 20
432.2996592202
 30
0.0
 11
566.0405200379
 21
432.2996592202
 31
0.0
  0
LINE
  5
B8
330
1F
100
AcDbEntity
  8
0
  6
Continuous
 62
     7
370
    15
100
AcDbLine
 10
568.4405159609
 20
425.4723923334
 30
0.0
 11
568.4405159609
 21
432.2996592202
 31
0.0
  0
SPLINE
  5
B9
330
1F
100
AcDbEntity
  8
0
  6
Continuous
 62
     7
370
    15
100
AcDbSpline
210
0.0
220
0.0
230
1.0
 70
     8
 71
     3
 72
    11
 73
     7
 74
     0
 42
0.00000001
 43
0.00000001
 12
1.0
 22
0.0
 32
0.0
 13
1.0
 23
0.0
 33
0.0
 40
0.0
 40
0.0
 40
0.0
 40
0.0
 40
0.2466128453210109
 40
0.4954837250833364
 40
0.7466127429973429
 40
1.0
 40
1.0
 40
1.0
 40
1.0
 10
559.8905205385757
 20
421.9913215624519
 30
0.0
 10
560.593036268963
 20
422.277345582764
 30
0.0
 10
562.0045000983064
 20
422.8520125140956
 30
0.0
 10
564.1321027338724
 20
423.7182500375363
 30
0.0
 10
566.2795080230817
 20
424.5925514650265
 30
0.0
 10
567.7180367255464
 20
425.1782386277301
 30
0.0
 10
568.4405205385757
 20
425.4723929910232
 30
0.0
  0
LINE
  5
BA
330
1F
100
AcDbEntity
  8
0
  6
Continuous
 62
     7
370
    15
100
AcDbLine
 10
559.8905276911
 20
424.6797883936
 30
0.0
 11
559.8905276911
 21
421.991320891
 31
0.0
  0
LINE
  5
BB
330
1F
100
AcDbEntity
  8
0
  6
Continuous
 62
     7
370
    15
100
AcDbLine
 10
561.2105172532
 20
425.2172173985
 30
0.0
 11
559.8905276911
 21
424.6797883936
 31
0.0
  0
LINE
  5
BC
330
1F
100
AcDbEntity
  8
0
  6
Continuous
 62
     7
370
    15
100
AcDbLine
 10
561.2105172532
 20
429.1258068808
 30
0.0
 11
561.2105172532
 21
425.2172173985
 31
0.0
  0
LINE
  5
BD
330
1F
100
AcDbEntity
  8
0
  6
Continuous
 62
     7
370
    15
100
AcDbLine
 10
559.8905276911
 20
429.6325059661
 30
0.0
 11
561.2105172532
 21
429.1258068808
 31
0.0
  0
LINE
  5
BE
330
1F
100
AcDbEntity
  8
0
  6
Continuous
 62
     7
370
    15
100
AcDbLine
 10
559.8905276911
 20
432.2996592202
 30
0.0
 11
559.8905276911
 21
429.6325059661
 31
0.0
  0
LINE
  5
BF
330
1F
100
AcDbEntity
  8
0
  6
Continuous
 62
     7
370
    15
100
AcDbLine
 10
740.380520414
 20
510.0267330238
 30
0.0
 11
740.380520414
 21
517.4996579119
 31
0.0
  0
SPLINE
  5
C0
330
1F
100
AcDbEntity
  8
0
  6
Continuous
 62
     7
370
    15
100
AcDbSpline
210
0.0
220
0.0
230
1.0
 70
     8
 71
     3
 72
    11
 73
     7
 74
     0
 42
0.00000001
 43
0.00000001
 12
1.0
 22
0.0
 32
0.0
 13
1.0
 23
0.0
 33
0.0
 40
0.0
 40
0.0
 40
0.0
 40
0.0
 40
0.2534122308892888
 40
0.5045495120493277
 40
0.753412035853552
 40
1.0
 40
1.0
 40
1.0
 40
1.0
 10
749.8905205385761
 20
506.154803687005
 30
0.0
 10
749.0866885345857
 20
506.4820784714178
 30
0.0
 10
747.4862407426234
 20
507.1336900065124
 30
0.0
 10
745.0975309616263
 20
508.1062370869611
 30
0.0
 10
742.7312277216462
 20
509.0696596071172
 30
0.0
 10
741.161687736771
 20
509.7086859416136
 30
0.0
 10
740.3805205385761
 20
510.0267322584338
 30
0.0
  0
LINE
  5
C1
330
1F
100
AcDbEntity
  8
0
  6
Continuous
 62
     7
370
    15
100
AcDbLine
 10
749.8905206503
 20
503.6445135304
 30
0.0
 11
749.8905206503
 21
506.1548041233
 31
0.0
  0
SPLINE
  5
C2
330
1F
100
AcDbEntity
  8
0
  6
Continuous
 62
     7
370
    15
100
AcDbSpline
210
0.0
220
0.0
230
1.0
 70
     8
 71
     3
 72
    11
 73
     7
 74
     0
 42
0.00000001
 43
0.00000001
 12
1.0
 22
0.0
 32
0.0
 13
1.0
 23
0.0
 33
0.0
 40
0.0
 40
0.0
 40
0.0
 40
0.0
 40
0.2537163348298235
 40
0.5049550248168605
 40
0.7537162014035115
 40
1.0
 40
1.0
 40
1.0
 40
1.0
 10
740.3805205385759
 20
499.7725848409051
 30
0.0
 10
741.1852213051184
 20
500.1002133433537
 30
0.0
 10
742.7867646027233
 20
500.7522709205515
 30
0.0
 10
745.1763659851727
 20
501.7251810909002
 30
0.0
 10
747.5417757211117
 20
502.6882397454836
 30
0.0
 10
749.1102219503671
 20
503.3268207508592
 30
0.0
 10
749.890520538576
 20
503.6445134123337
 30
0.0
  0
LINE
  5
C3
330
1F
100
AcDbEntity
  8
0
  6
Continuous
 62
     7
370
    15
100
AcDbLine
 10
740.380520414
 20
492.2996578791
 30
0.0
 11
740.380520414
 21
499.7725846299
 31
0.0
  0
SPLINE
  5
C4
330
1F
100
AcDbEntity
  8
0
  6
Continuous
 62
     7
370
    15
100
AcDbSpline
210
0.0
220
0.0
230
1.0
 70
     8
 71
     3
 72
    11
 73
     7
 74
     0
 42
0.00000001
 43
0.00000001
 12
1.0
 22
0.0
 32
0.0
 13
1.0
 23
0.0
 33
0.0
 40
0.0
 40
0.0
 40
0.0
 40
0.0
 40
0.2467910937220266
 40
0.4957213817989539
 40
0.7467909797082615
 40
1.0
 40
1.0
 40
1.0
 40
1.0
 10
746.2905205385761
 20
504.8996585496694
 30
0.0
 10
745.5998503096897
 20
504.6184573270444
 30
0.0
 10
744.2125230967532
 20
504.0536174191661
 30
0.0
 10
742.121762473537
 20
503.2023797922458
 30
0.0
 10
740.0125151628991
 20
502.3436141788991
 30
0.0
 10
738.5998498432209
 20
501.7684571350669
 30
0.0
 10
737.8905205385761
 20
501.4796585496695
 30
0.0
  0
SPLINE
  5
C5
330
1F
100
AcDbEntity
  8
0
  6
Continuous
 62
     7
370
    15
100
AcDbSpline
210
0.0
220
0.0
230
1.0
 70
     8
 71
     3
 72
    11
 73
     7
 74
     0
 42
0.00000001
 43
0.00000001
 12
1.0
 22
0.0
 32
0.0
 13
1.0
 23
0.0
 33
0.0
 40
0.0
 40
0.0
 40
0.0
 40
0.0
 40
0.2469342793318465
 40
0.4959122787386169
 40
0.7469341396327533
 40
1.0
 40
1.0
 40
1.0
 40
1.0
 10
737.8905205385761
 20
508.3196585496694
 30
0.0
 10
738.5815517818858
 20
508.0383103428244
 30
0.0
 10
739.9693335004732
 20
507.4732853865765
 30
0.0
 10
742.0604654805875
 20
506.6218965396604
 30
0.0
 10
744.1693421351405
 20
505.7632818606137
 30
0.0
 10
745.5815523045445
 20
505.1883101277908
 30
0.0
 10
746.2905205385758
 20
504.8996585496694
 30
0.0
  0
LINE
  5
C6
330
1F
100
AcDbEntity
  8
0
  6
Continuous
 62
     7
370
    15
100
AcDbLine
 10
737.8905196147
 20
517.4996579119
 30
0.0
 11
737.8905196147
 21
508.3196597227
 31
0.0
  0
LINE
  5
C7
330
1F
100
AcDbEntity
  8
0
  6
Continuous
 62
     7
370
    15
100
AcDbLine
 10
737.8905196147
 20
517.4996579119
 30
0.0
 11
740.380520414
 21
517.4996579119
 31
0.0
  0
LINE
  5
C8
330
1F
100
AcDbEntity
  8
0
  6
Continuous
 62
     7
370
    15
100
AcDbLine
 10
737.8905196147
 20
501.479657931
 30
0.0
 11
737.8905196147
 21
492.2996578791
 31
0.0
  0
LINE
  5
C9
330
1F
100
AcDbEntity
  8
0
  6
Continuous
 62
     7
370
    15
100
AcDbLine
 10
737.8905196147
 20
492.2996578791
 30
0.0
 11
740.380520414
 21
492.2996578791
 31
0.0
  0
LINE
  5
CA
330
1F
100
AcDbEntity
  8
0
  6
Continuous
 62
     7
370
    15
100
AcDbLine
 10
569.4005232709
 20
414.5725840756
 30
0.0
 11
569.4005232709
 21
407.0996591874
 31
0.0
  0
SPLINE
  5
CB
330
1F
100
AcDbEntity
  8
0
  6
Continuous
 62
     7
370
    15
100
AcDbSpline
210
0.0
220
0.0
230
1.0
 70
     8
 71
     3
 72
    11
 73
     7
 74
     0
 42
0.00000001
 43
0.00000001
 12
1.0
 22
0.0
 32
0.0
 13
1.0
 23
0.0
 33
0.0
 40
0.0
 40
0.0
 40
0.0
 40
0.0
 40
0.2534122308892888
 40
0.5045495120493267
 40
0.7534120358535507
 40
1.0
 40
1.0
 40
1.0
 40
1.0
 10
559.8905205385756
 20
418.4445134123329
 30
0.0
 10
560.6943525425661
 20
418.1172386279201
 30
0.0
 10
562.2948003345283
 20
417.4656270928255
 30
0.0
 10
564.6835101155255
 20
416.4930800123768
 30
0.0
 10
567.0498133555055
 20
415.5296574922207
 30
0.0
 10
568.6193533403806
 20
414.8906311577243
 30
0.0
 10
569.4005205385756
 20
414.5725848409042
 30
0.0
  0
LINE
  5
CC
330
1F
100
AcDbEntity
  8
0
  6
Continuous
 62
     7
370
    15
100
AcDbLine
 10
559.8905276911
 20
420.954803569
 30
0.0
 11
559.8905276911
 21
418.4445129761
 31
0.0
  0
SPLINE
  5
CD
330
1F
100
AcDbEntity
  8
0
  6
Continuous
 62
     7
370
    15
100
AcDbSpline
210
0.0
220
0.0
230
1.0
 70
     8
 71
     3
 72
    11
 73
     7
 74
     0
 42
0.00000001
 43
0.00000001
 12
1.0
 22
0.0
 32
0.0
 13
1.0
 23
0.0
 33
0.0
 40
0.0
 40
0.0
 40
0.0
 40
0.0
 40
0.253716334829822
 40
0.5049550248168608
 40
0.7537162014035115
 40
1.0
 40
1.0
 40
1.0
 40
1.0
 10
569.4005205385758
 20
424.8267322584328
 30
0.0
 10
568.5958197720333
 20
424.4991037559842
 30
0.0
 10
566.9942764744285
 20
423.8470461787864
 30
0.0
 10
564.6046750919788
 20
422.8741360084377
 30
0.0
 10
562.2392653560399
 20
421.9110773538543
 30
0.0
 10
560.6708191267846
 20
421.2724963484787
 30
0.0
 10
559.8905205385757
 20
420.9548036870044
 30
0.0
  0
LINE
  5
CE
330
1F
100
AcDbEntity
  8
0
  6
Continuous
 62
     7
370
    15
100
AcDbLine
 10
569.4005232709
 20
432.2996592202
 30
0.0
 11
569.4005232709
 21
424.8267324694
 31
0.0
  0
LINE
  5
CF
330
1F
100
AcDbEntity
  8
0
  6
Continuous
 62
     7
370
    15
100
AcDbLine
 10
571.8905222075
 20
423.1196591684
 30
0.0
 11
571.8905222075
 21
432.2996592202
 31
0.0
  0
SPLINE
  5
D0
330
1F
100
AcDbEntity
  8
0
  6
Continuous
 62
     7
370
    15
100
AcDbSpline
210
0.0
220
0.0
230
1.0
 70
     8
 71
     3
 72
    11
 73
     7
 74
     0
 42
0.00000001
 43
0.00000001
 12
1.0
 22
0.0
 32
0.0
 13
1.0
 23
0.0
 33
0.0
 40
0.0
 40
0.0
 40
0.0
 40
0.0
 40
0.2467910937215347
 40
0.4957213817982986
 40
0.7467909797077737
 40
1.0
 40
1.0
 40
1.0
 40
1.0
 10
563.4905205385758
 20
419.6996585496686
 30
0.0
 10
564.1811907674606
 20
419.9808597722929
 30
0.0
 10
565.5685179803953
 20
420.5456996801705
 30
0.0
 10
567.6592786036101
 20
421.3969373070902
 30
0.0
 10
569.7685259142495
 20
422.2557029204374
 30
0.0
 10
571.1811912339296
 20
422.8308599642704
 30
0.0
 10
571.8905205385757
 20
423.1196585496684
 30
0.0
  0
SPLINE
  5
D1
330
1F
100
AcDbEntity
  8
0
  6
Continuous
 62
     7
370
    15
100
AcDbSpline
210
0.0
220
0.0
230
1.0
 70
     8
 71
     3
 72
    11
 73
     7
 74
     0
 42
0.00000001
 43
0.00000001
 12
1.0
 22
0.0
 32
0.0
 13
1.0
 23
0.0
 33
0.0
 40
0.0
 40
0.0
 40
0.0
 40
0.0
 40
0.2469342793318195
 40
0.4959122787385739
 40
0.7469341396327234
 40
1.0
 40
1.0
 40
1.0
 40
1.0
 10
571.8905205385757
 20
416.2796585496685
 30
0.0
 10
571.1994892952661
 20
416.5610067565135
 30
0.0
 10
569.8117075766786
 20
417.1260317127614
 30
0.0
 10
567.7205755965646
 20
417.9774205596773
 30
0.0
 10
565.6116989420115
 20
418.8360352387241
 30
0.0
 10
564.1994887726074
 20
419.4110069715471
 30
0.0
 10
563.4905205385759
 20
419.6996585496685
 30
0.0
  0
LINE
  5
D2
330
1F
100
AcDbEntity
  8
0
  6
Continuous
 62
     7
370
    15
100
AcDbLine
 10
571.8905222075
 20
407.0996591874
 30
0.0
 11
571.8905222075
 21
416.2796573766
 31
0.0
  0
LINE
  5
D3
330
1F
100
AcDbEntity
  8
0
  6
Continuous
 62
     7
370
    15
100
AcDbLine
 10
571.8905222075
 20
407.0996591874
 30
0.0
 11
569.4005232709
 21
407.0996591874
 31
0.0
  0
LINE
  5
D4
330
1F
100
AcDbEntity
  8
0
  6
Continuous
 62
     7
370
    15
100
AcDbLine
 10
571.8905222075
 20
432.2996592202
 30
0.0
 11
569.4005232709
 21
432.2996592202
 31
0.0
  0
LINE
  5
D5
330
1F
100
AcDbEntity
  8
0
  6
Continuous
 62
     7
370
    15
100
AcDbLine
 10
743.740520853
 20
516.77965988
 30
0.0
 11
743.740520853
 21
517.4996579119
 31
0.0
  0
SPLINE
  5
D6
330
1F
100
AcDbEntity
  8
0
  6
Continuous
 62
     7
370
    15
100
AcDbSpline
210
0.0
220
0.0
230
1.0
 70
     8
 71
     3
 72
    22
 73
    18
 74
     0
 42
0.00000001
 43
0.00000001
 12
1.0
 22
0.0
 32
0.0
 13
1.0
 23
0.0
 33
0.0
 40
0.0
 40
0.0
 40
0.0
 40
0.0
 40
0.0419249423403996
 40
0.083876922023217
 40
0.1259202118758166
 40
0.1887224982000374
 40
0.2514273111580594
 40
0.3140342535502789
 40
0.3765425582700891
 40
0.4389532513691135
 40
0.5012713316175279
 40
0.6256253563474112
 40
0.7498605006881536
 40
0.8123260493790225
 40
0.8744484953502178
 40
0.9373256617753087
 40
1.0
 40
1.0
 40
1.0
 40
1.0
 10
746.0880401250536
 20
514.034284033623
 30
0.0
 10
746.0767663812285
 20
514.0843629393498
 30
0.0
 10
746.0542116231547
 20
514.1845530466264
 30
0.0
 10
746.0123602295638
 20
514.3331666887335
 30
0.0
 10
745.9568610503309
 20
514.5045503558401
 30
0.0
 10
745.8832071564763
 20
514.6970008857115
 30
0.0
 10
745.7872486808061
 20
514.9081170321565
 30
0.0
 10
745.6784516496659
 20
515.1132618760131
 30
0.0
 10
745.5572088605435
 20
515.3117566465191
 30
0.0
 10
745.4238779421007
 20
515.502933519618
 30
0.0
 10
745.2306740159358
 20
515.7469366468102
 30
0.0
 10
744.9605574475886
 20
516.0306592411378
 30
0.0
 10
744.6545064778375
 20
516.2812373685254
 30
0.0
 10
744.3906141089175
 20
516.4585342377826
 30
0.0
 10
744.1825936332821
 20
516.5794382795423
 30
0.0
 10
743.9665032779507
 20
516.6883383072435
 30
0.0
 10
743.8157669469556
 20
516.7492512704501
 30
0.0
 10
743.7405205385762
 20
516.7796585496693
 30
0.0
  0
SPLINE
  5
D7
330
1F
100
AcDbEntity
  8
0
  6
Continuous
 62
     7
370
    15
100
AcDbSpline
210
0.0
220
0.0
230
1.0
 70
     8
 71
     3
 72
    10
 73
     6
 74
     0
 42
0.00000001
 43
0.00000001
 12
1.0
 22
0.0
 32
0.0
 13
1.0
 23
0.0
 33
0.0
 40
0.0
 40
0.0
 40
0.0
 40
0.0
 40
0.3307545327067141
 40
0.6640876414966997
 40
1.0
 40
1.0
 40
1.0
 40
1.0
 10
749.8905205385762
 20
516.8996585496692
 30
0.0
 10
749.471877270156
 20
516.5841884649884
 30
0.0
 10
748.6313269729962
 20
515.9507888777356
 30
0.0
 10
747.3638212251641
 20
514.9956547775814
 30
0.0
 10
746.514391716091
 20
514.3555632454156
 30
0.0
 10
746.0880401250536
 20
514.034284033623
 30
0.0
  0
LINE
  5
D8
330
1F
100
AcDbEntity
  8
0
  6
Continuous
 62
     7
370
    15
100
AcDbLine
 10
749.8905206503
 20
513.7818405458
 30
0.0
 11
749.8905206503
 21
516.8996589311
 31
0.0
  0
SPLINE
  5
D9
330
1F
100
AcDbEntity
  8
0
  6
Continuous
 62
     7
370
    15
100
AcDbSpline
210
0.0
220
0.0
230
1.0
 70
     8
 71
     3
 72
     9
 73
     5
 74
     0
 42
0.00000001
 43
0.00000001
 12
1.0
 22
0.0
 32
0.0
 13
1.0
 23
0.0
 33
0.0
 40
0.0
 40
0.0
 40
0.0
 40
0.0
 40
0.5026437339627498
 40
1.0
 40
1.0
 40
1.0
 40
1.0
 10
746.5287032246788
 20
511.2485297082674
 30
0.0
 10
747.0925618843333
 20
511.6734279515182
 30
0.0
 10
748.214347796612
 20
512.5187547994251
 30
0.0
 10
749.3337692596149
 20
513.3622988444091
 30
0.0
 10
749.8905205385761
 20
513.7818407608602
 30
0.0
  0
SPLINE
  5
DA
330
1F
100
AcDbEntity
  8
0
  6
Continuous
 62
     7
370
    15
100
AcDbSpline
210
0.0
220
0.0
230
1.0
 70
     8
 71
     3
 72
     9
 73
     5
 74
     0
 42
0.00000001
 43
0.00000001
 12
1.0
 22
0.0
 32
0.0
 13
1.0
 23
0.0
 33
0.0
 40
0.0
 40
0.0
 40
0.0
 40
0.0
 40
0.5015679278636791
 40
1.0
 40
1.0
 40
1.0
 40
1.0
 10
749.8905205385761
 20
509.879789801895
 30
0.0
 10
749.328338617385
 20
510.1086782336913
 30
0.0
 10
748.2074895958265
 20
510.5650240626028
 30
0.0
 10
747.0871275838508
 20
511.0211712970184
 30
0.0
 10
746.5287032246789
 20
511.2485297082674
 30
0.0
  0
LINE
  5
DB
330
1F
100
AcDbEntity
  8
0
  6
Continuous
 62
     7
370
    15
100
AcDbLine
 10
741.3405202733
 20
513.3608603903
 30
0.0
 11
741.3405202733
 21
510.6723928877
 31
0.0
  0
SPLINE
  5
DC
330
1F
100
AcDbEntity
  8
0
  6
Continuous
 62
     7
370
    15
100
AcDbSpline
210
0.0
220
0.0
230
1.0
 70
     8
 71
     3
 72
     9
 73
     5
 74
     0
 42
0.00000001
 43
0.00000001
 12
1.0
 22
0.0
 32
0.0
 13
1.0
 23
0.0
 33
0.0
 40
0.0
 40
0.0
 40
0.0
 40
0.0
 40
0.5014270628128653
 40
1.0
 40
1.0
 40
1.0
 40
1.0
 10
744.4585192574204
 20
512.0913903235083
 30
0.0
 10
743.9372575440633
 20
512.3036183809356
 30
0.0
 10
742.8977011419156
 20
512.7268664925089
 30
0.0
 10
741.8585921571621
 20
513.149932145321
 30
0.0
 10
741.3405205385761
 20
513.3608612304664
 30
0.0
  0
SPLINE
  5
DD
330
1F
100
AcDbEntity
  8
0
  6
Continuous
 62
     7
370
    15
100
AcDbSpline
210
0.0
220
0.0
230
1.0
 70
     8
 71
     3
 72
    26
 73
    22
 74
     0
 42
0.00000001
 43
0.00000001
 12
1.0
 22
0.0
 32
0.0
 13
1.0
 23
0.0
 33
0.0
 40
0.0
 40
0.0
 40
0.0
 40
0.0
 40
0.0157638970986414
 40
0.0314988549243172
 40
0.0628947206717469
 40
0.1254699797199536
 40
0.1879119390909579
 40
0.2503074844567066
 40
0.3126894323876652
 40
0.3750550996404262
 40
0.4373850289725358
 40
0.4996617325395059
 40
0.5618918279176289
 40
0.6241465649330679
 40
0.6864907244648636
 40
0.7489535478908413
 40
0.8115403979169714
 40
0.8742444027894427
 40
0.9370579990027301
 40
0.9685529414290512
 40
1.0
 40
1.0
 40
1.0
 40
1.0
 10
741.3405205385761
 20
515.0996585496695
 30
0.0
 10
741.366549883316
 20
515.0994610199848
 30
0.0
 10
741.4185607882721
 20
515.0990663232393
 30
0.0
 10
741.5223297049139
 20
515.0948671593832
 30
0.0
 10
741.7029189996638
 20
515.0808857805156
 30
0.0
 10
741.9581862341768
 20
515.041252978058
 30
0.0
 10
742.256870303264
 20
514.9642092686362
 30
0.0
 10
742.5452195983679
 20
514.859307886855
 30
0.0
 10
742.8207415759092
 20
514.7282272601351
 30
0.0
 10
743.0809573127049
 20
514.5725775278665
 30
0.0
 10
743.3234210788886
 20
514.3940076632666
 30
0.0
 10
743.5455029358425
 20
514.1939643252106
 30
0.0
 10
743.7452558749385
 20
513.9745241464904
 30
0.0
 10
743.9222745729243
 20
513.7385128687525
 30
0.0
 10
744.0756561063421
 20
513.4879596962521
 30
0.0
 10
744.2047336584922
 20
513.225011648099
 30
0.0
 10
744.3087404730696
 20
512.9517618688459
 30
0.0
 10
744.3870670588213
 20
512.6703421668882
 30
0.0
 10
744.4299370088244
 20
512.4307520440561
 30
0.0
 10
744.451265544527
 20
512.2372672197878
 30
0.0
 10
744.4561025797328
 20
512.1399912876713
 30
0.0
 10
744.4585192574204
 20
512.0913903235083
 30
0.0
  0
LINE
  5
DE
330
1F
100
AcDbEntity
  8
0
  6
Continuous
 62
     7
370
    15
100
AcDbLine
 10
741.3405202733
 20
517.4996579119
 30
0.0
 11
741.3405202733
 21
515.0996582636
 31
0.0
  0
LINE
  5
DF
330
1F
100
AcDbEntity
  8
0
  6
Continuous
 62
     7
370
    15
100
AcDbLine
 10
741.3405202733
 20
517.4996579119
 30
0.0
 11
743.740520853
 21
517.4996579119
 31
0.0
  0
LINE
  5
E0
330
1F
100
AcDbEntity
  8
0
  6
Continuous
 62
     7
370
    15
100
AcDbLine
 10
749.8905206503
 20
507.1913214453
 30
0.0
 11
749.8905206503
 21
509.8797889479
 31
0.0
  0
SPLINE
  5
E1
330
1F
100
AcDbEntity
  8
0
  6
Continuous
 62
     7
370
    15
100
AcDbSpline
210
0.0
220
0.0
230
1.0
 70
     8
 71
     3
 72
    11
 73
     7
 74
     0
 42
0.00000001
 43
0.00000001
 12
1.0
 22
0.0
 32
0.0
 13
1.0
 23
0.0
 33
0.0
 40
0.0
 40
0.0
 40
0.0
 40
0.0
 40
0.2469599701765154
 40
0.4959465159787037
 40
0.746959804797183
 40
1.0
 40
1.0
 40
1.0
 40
1.0
 10
741.340520538576
 20
510.6723929910242
 30
0.0
 10
742.0439278702206
 20
510.3860059609992
 30
0.0
 10
743.4565147570497
 20
509.8108817833403
 30
0.0
 10
745.5850343345993
 20
508.9442708695854
 30
0.0
 10
747.7315244320314
 20
508.0703421189071
 30
0.0
 10
749.1689284671668
 20
507.4851128584261
 30
0.0
 10
749.8905205385761
 20
507.1913215624527
 30
0.0
  0
LINE
  5
E2
330
1F
100
AcDbEntity
  8
0
  6
Continuous
 62
     7
370
    15
100
AcDbLine
 10
566.0405200379
 20
407.8196572193
 30
0.0
 11
566.0405200379
 21
407.0996591874
 31
0.0
  0
SPLINE
  5
E3
330
1F
100
AcDbEntity
  8
0
  6
Continuous
 62
     7
370
    15
100
AcDbSpline
210
0.0
220
0.0
230
1.0
 70
     8
 71
     3
 72
    22
 73
    18
 74
     0
 42
0.00000001
 43
0.00000001
 12
1.0
 22
0.0
 32
0.0
 13
1.0
 23
0.0
 33
0.0
 40
0.0
 40
0.0
 40
0.0
 40
0.0
 40
0.0419249423382352
 40
0.0838769220210366
 40
0.1259202118758045
 40
0.1887224982000249
 40
0.2514273111580493
 40
0.3140342535502685
 40
0.3765425582700809
 40
0.4389532513691037
 40
0.5012713316175178
 40
0.6256253563474025
 40
0.7498605006881425
 40
0.8123260493759978
 40
0.8744484953502115
 40
0.9373256617741917
 40
1.0
 40
1.0
 40
1.0
 40
1.0
 10
563.693000952098
 20
410.565033065715
 30
0.0
 10
563.7042746959228
 20
410.5149541599908
 30
0.0
 10
563.7268294539958
 20
410.4147640527167
 30
0.0
 10
563.7686808475873
 20
410.2661504106098
 30
0.0
 10
563.8241800268196
 20
410.0947667435003
 30
0.0
 10
563.8978339206755
 20
409.9023162136264
 30
0.0
 10
563.9937923963455
 20
409.6912000671815
 30
0.0
 10
564.1025894274858
 20
409.4860552233248
 30
0.0
 10
564.2238322166082
 20
409.2875604528187
 30
0.0
 10
564.357163135051
 20
409.09638357972
 30
0.0
 10
564.5503670612159
 20
408.8523804525277
 30
0.0
 10
564.820483629563
 20
408.5686578582001
 30
0.0
 10
565.1265345993114
 20
408.3180797308152
 30
0.0
 10
565.3904269682307
 20
408.140782861557
 30
0.0
 10
565.598447443865
 20
408.0198788197984
 30
0.0
 10
565.8145377991995
 20
407.9109787920946
 30
0.0
 10
565.9652741301948
 20
407.8500658288881
 30
0.0
 10
566.0405205385756
 20
407.8196585496686
 30
0.0
  0
SPLINE
  5
E4
330
1F
100
AcDbEntity
  8
0
  6
Continuous
 62
     7
370
    15
100
AcDbSpline
210
0.0
220
0.0
230
1.0
 70
     8
 71
     3
 72
    10
 73
     6
 74
     0
 42
0.00000001
 43
0.00000001
 12
1.0
 22
0.0
 32
0.0
 13
1.0
 23
0.0
 33
0.0
 40
0.0
 40
0.0
 40
0.0
 40
0.0
 40
0.3307545327074377
 40
0.6640876414974114
 40
0.9999999999999999
 40
0.9999999999999999
 40
0.9999999999999999
 40
0.9999999999999999
 10
559.8905205385756
 20
407.6996585496686
 30
0.0
 10
560.3091638069966
 20
408.0151286343501
 30
0.0
 10
561.1497141041573
 20
408.6485282216037
 30
0.0
 10
562.4172198519894
 20
409.6036623217578
 30
0.0
 10
563.2666493610616
 20
410.243753853923
 30
0.0
 10
563.6930009520981
 20
410.565033065715
 30
0.0
  0
LINE
  5
E5
330
1F
100
AcDbEntity
  8
0
  6
Continuous
 62
     7
370
    15
100
AcDbLine
 10
559.8905276911
 20
410.8174765536
 30
0.0
 11
559.8905276911
 21
407.6996581682
 31
0.0
  0
SPLINE
  5
E6
330
1F
100
AcDbEntity
  8
0
  6
Continuous
 62
     7
370
    15
100
AcDbSpline
210
0.0
220
0.0
230
1.0
 70
     8
 71
     3
 72
     9
 73
     5
 74
     0
 42
0.00000001
 43
0.00000001
 12
1.0
 22
0.0
 32
0.0
 13
1.0
 23
0.0
 33
0.0
 40
0.0
 40
0.0
 40
0.0
 40
0.0
 40
0.5026437339624376
 40
1.0
 40
1.0
 40
1.0
 40
1.0
 10
563.2523378524728
 20
413.3507873910706
 30
0.0
 10
562.6884791928187
 20
412.9258891478199
 30
0.0
 10
561.5666932805401
 20
412.080562299913
 30
0.0
 10
560.4472718175372
 20
411.2370182549291
 30
0.0
 10
559.8905205385757
 20
410.8174763384777
 30
0.0
  0
SPLINE
  5
E7
330
1F
100
AcDbEntity
  8
0
  6
Continuous
 62
     7
370
    15
100
AcDbSpline
210
0.0
220
0.0
230
1.0
 70
     8
 71
     3
 72
     9
 73
     5
 74
     0
 42
0.00000001
 43
0.00000001
 12
1.0
 22
0.0
 32
0.0
 13
1.0
 23
0.0
 33
0.0
 40
0.0
 40
0.0
 40
0.0
 40
0.0
 40
0.501567927859494
 40
1.0
 40
1.0
 40
1.0
 40
1.0
 10
559.8905205385756
 20
414.7195272974431
 30
0.0
 10
560.452702459762
 20
414.4906388656486
 30
0.0
 10
561.5735514813205
 20
414.034293036737
 30
0.0
 10
562.6939134932962
 20
413.5781458023214
 30
0.0
 10
563.2523378524728
 20
413.3507873910705
 30
0.0
  0
LINE
  5
E8
330
1F
100
AcDbEntity
  8
0
  6
Continuous
 62
     7
370
    15
100
AcDbLine
 10
559.8905276911
 20
417.407995654
 30
0.0
 11
559.8905276911
 21
414.7195281514
 31
0.0
  0
LINE
  5
E9
330
1F
100
AcDbEntity
  8
0
  6
Continuous
 62
     7
370
    15
100
AcDbLine
 10
568.4405159609
 20
411.238456709
 30
0.0
 11
568.4405159609
 21
413.9269242116
 31
0.0
  0
SPLINE
  5
EA
330
1F
100
AcDbEntity
  8
0
  6
Continuous
 62
     7
370
    15
100
AcDbSpline
210
0.0
220
0.0
230
1.0
 70
     8
 71
     3
 72
     9
 73
     5
 74
     0
 42
0.00000001
 43
0.00000001
 12
1.0
 22
0.0
 32
0.0
 13
1.0
 23
0.0
 33
0.0
 40
0.0
 40
0.0
 40
0.0
 40
0.0
 40
0.5014270628140519
 40
1.0
 40
1.0
 40
1.0
 40
1.0
 10
565.3225218197313
 20
412.5079267758296
 30
0.0
 10
565.8437835330897
 20
412.2956987184018
 30
0.0
 10
566.8833399352374
 20
411.8724506068285
 30
0.0
 10
567.9224489199908
 20
411.4493849540165
 30
0.0
 10
568.4405205385756
 20
411.2384558688715
 30
0.0
  0
SPLINE
  5
EB
330
1F
100
AcDbEntity
  8
0
  6
Continuous
 62
     7
370
    15
100
AcDbSpline
210
0.0
220
0.0
230
1.0
 70
     8
 71
     3
 72
    26
 73
    22
 74
     0
 42
0.00000001
 43
0.00000001
 12
1.0
 22
0.0
 32
0.0
 13
1.0
 23
0.0
 33
0.0
 40
0.0
 40
0.0
 40
0.0
 40
0.0
 40
0.0157638970986376
 40
0.0314988549243119
 40
0.0628947206717462
 40
0.1254699797199491
 40
0.1879119390909555
 40
0.2503074844567037
 40
0.3126894323876656
 40
0.3750550996404254
 40
0.4373850289725353
 40
0.4996617325395032
 40
0.5618918279176299
 40
0.6241465649330656
 40
0.6864907244648625
 40
0.7489535478908412
 40
0.811540397916969
 40
0.8742444027894429
 40
0.9370579990027301
 40
0.9685529414290514
 40
1.0
 40
1.0
 40
1.0
 40
1.0
 10
568.4405205385755
 20
409.4996585496685
 30
0.0
 10
568.4144911938358
 20
409.4998560793532
 30
0.0
 10
568.3624802888797
 20
409.5002507760986
 30
0.0
 10
568.2587113722377
 20
409.5044499399548
 30
0.0
 10
568.078122077488
 20
409.5184313188224
 30
0.0
 10
567.8228548429751
 20
409.5580641212801
 30
0.0
 10
567.5241707738876
 20
409.6351078307017
 30
0.0
 10
567.2358214787838
 20
409.7400092124828
 30
0.0
 10
566.9602995012426
 20
409.8710898392028
 30
0.0
 10
566.700083764447
 20
410.0267395714714
 30
0.0
 10
566.4576199982631
 20
410.2053094360714
 30
0.0
 10
566.2355381413093
 20
410.4053527741274
 30
0.0
 10
566.0357852022132
 20
410.6247929528475
 30
0.0
 10
565.8587665042276
 20
410.8608042305855
 30
0.0
 10
565.7053849708096
 20
411.1113574030857
 30
0.0
 10
565.5763074186596
 20
411.3743054512389
 30
0.0
 10
565.4723006040822
 20
411.647555230492
 30
0.0
 10
565.3939740183304
 20
411.9289749324496
 30
0.0
 10
565.3511040683273
 20
412.1685650552818
 30
0.0
 10
565.3297755326248
 20
412.3620498795501
 30
0.0
 10
565.3249384974189
 20
412.4593258116666
 30
0.0
 10
565.3225218197313
 20
412.5079267758296
 30
0.0
  0
LINE
  5
EC
330
1F
100
AcDbEntity
  8
0
  6
Continuous
 62
     7
370
    15
100
AcDbLine
 10
568.4405159609
 20
407.0996591874
 30
0.0
 11
568.4405159609
 21
409.4996588358
 31
0.0
  0
LINE
  5
ED
330
1F
100
AcDbEntity
  8
0
  6
Continuous
 62
     7
370
    15
100
AcDbLine
 10
568.4405159609
 20
407.0996591874
 30
0.0
 11
566.0405200379
 21
407.0996591874
 31
0.0
  0
SPLINE
  5
EE
330
1F
100
AcDbEntity
  8
0
  6
Continuous
 62
     7
370
    15
100
AcDbSpline
210
0.0
220
0.0
230
1.0
 70
     8
 71
     3
 72
    11
 73
     7
 74
     0
 42
0.00000001
 43
0.00000001
 12
1.0
 22
0.0
 32
0.0
 13
1.0
 23
0.0
 33
0.0
 40
0.0
 40
0.0
 40
0.0
 40
0.0
 40
0.2469599701765
 40
0.4959465159786832
 40
0.7469598047971633
 40
1.0
 40
1.0
 40
1.0
 40
1.0
 10
568.4405205385756
 20
413.9269241083137
 30
0.0
 10
567.7371132069311
 20
414.2133111383388
 30
0.0
 10
566.324526320102
 20
414.7884353159975
 30
0.0
 10
564.1960067425525
 20
415.6550462297526
 30
0.0
 10
562.0495166451203
 20
416.5289749804307
 30
0.0
 10
560.6121126099849
 20
417.1142042409118
 30
0.0
 10
559.8905205385757
 20
417.4079955368852
 30
0.0
  0
LINE
  5
EF
330
1F
100
AcDbEntity
  8
0
  6
Continuous
 62
     7
370
    15
100
AcDbLine
 10
757.8905205647
 20
489.7216713109
 30
0.0
 11
757.8905205647
 21
526.7216699251
 31
0.0
  0
LINE
  5
F0
330
1F
100
AcDbEntity
  8
0
  6
Continuous
 62
     7
370
    15
100
AcDbLine
 10
551.8905263798
 20
508.2216696867
 30
0.0
 11
551.8905263798
 21
489.7216713109
 31
0.0
  0
LINE
  5
F1
330
1F
100
AcDbEntity
  8
0
  6
Continuous
 62
     7
370
    15
100
AcDbLine
 10
551.8905263798
 20
526.7216699251
 30
0.0
 11
551.8905263798
 21
508.2216696867
 31
0.0
  0
LINE
  5
F2
330
1F
100
AcDbEntity
  8
0
  6
Continuous
 62
     7
370
    15
100
AcDbLine
 10
757.8905205647
 20
397.8776471742
 30
0.0
 11
757.8905205647
 21
434.8776457884
 31
0.0
  0
LINE
  5
F3
330
1F
100
AcDbEntity
  8
0
  6
Continuous
 62
     7
370
    15
100
AcDbLine
 10
551.8905263798
 20
403.2961713203
 30
0.0
 11
551.8905263798
 21
397.8776471742
 31
0.0
  0
LINE
  5
F4
330
1F
100
AcDbEntity
  8
0
  6
Continuous
 62
     7
370
    15
100
AcDbLine
 10
551.8905263798
 20
434.8776457884
 30
0.0
 11
551.8905263798
 21
403.2961713203
 31
0.0
  0
LINE
  5
F5
330
1F
100
AcDbEntity
  8
0
  6
Continuous
 62
     7
370
    15
100
AcDbLine
 10
551.8905263798
 20
404.1301967629
 30
0.0
 11
537.230272259
 21
404.1301967629
 31
0.0
  0
SPLINE
  5
F6
330
1F
100
AcDbEntity
  8
0
  6
Continuous
 62
     7
370
    15
100
AcDbSpline
210
0.0
220
0.0
230
1.0
 70
     8
 71
     3
 72
    12
 73
     8
 74
     0
 42
0.00000001
 43
0.00000001
 12
1.0
 22
0.0
 32
0.0
 13
1.0
 23
0.0
 33
0.0
 40
0.0
 40
0.0
 40
0.0
 40
0.0
 40
0.2500000000000004
 40
0.2500000000000004
 40
0.5000000000000008
 40
0.5000000000000008
 40
1.0
 40
1.0
 40
1.0
 40
1.0
 10
535.8905205385757
 20
412.4953609893205
 30
0.0
 10
535.8905205385757
 20
411.785437881609
 30
0.0
 10
535.9221870887661
 20
411.0723293114557
 30
0.0
 10
536.0447331874907
 20
409.661652101034
 30
0.0
 10
536.1354948959428
 20
408.961031633172
 30
0.0
 10
536.4855532693138
 20
406.8716138223947
 30
0.0
 10
536.8223205658701
 20
405.4952116541619
 30
0.0
 10
537.2302665007312
 20
404.1301979519424
 30
0.0
  0
SPLINE
  5
F7
330
1F
100
AcDbEntity
  8
0
  6
Continuous
 62
     7
370
    15
100
AcDbSpline
210
0.0
220
0.0
230
1.0
 70
     8
 71
     3
 72
    10
 73
     6
 74
     0
 42
0.00000001
 43
0.00000001
 12
1.0
 22
0.0
 32
0.0
 13
1.0
 23
0.0
 33
0.0
 40
0.0
 40
0.0
 40
0.0
 40
0.0
 40
0.5
 40
0.5
 40
1.0
 40
1.0
 40
1.0
 40
1.0
 10
537.2302665007311
 20
420.8605240266987
 30
0.0
 10
536.8212992111456
 20
419.4920928049639
 30
0.0
 10
536.4843710135704
 20
418.1136661468854
 30
0.0
 10
536.0182054226345
 20
415.3279956961032
 30
0.0
 10
535.8905205385756
 20
413.9205364924682
 30
0.0
 10
535.8905205385757
 20
412.4953609893205
 30
0.0
  0
LINE
  5
F8
330
1F
100
AcDbEntity
  8
0
  6
Continuous
 62
     7
370
    15
100
AcDbLine
 10
551.8905263798
 20
420.8605239221
 30
0.0
 11
537.230272259
 21
420.8605239221
 31
0.0
  0
SPLINE
  5
F9
330
1F
100
AcDbEntity
  8
0
  6
Continuous
 62
     7
370
    15
100
AcDbSpline
210
0.0
220
0.0
230
1.0
 70
     8
 71
     3
 72
    12
 73
     8
 74
     0
 42
0.00000001
 43
0.00000001
 12
1.0
 22
0.0
 32
0.0
 13
1.0
 23
0.0
 33
0.0
 40
0.0
 40
0.0
 40
0.0
 40
0.0
 40
0.2499999999999992
 40
0.2499999999999992
 40
0.4999999999999984
 40
0.4999999999999984
 40
1.0
 40
1.0
 40
1.0
 40
1.0
 10
535.8905205385757
 20
426.9842483836565
 30
0.0
 10
535.8905205385756
 20
426.4665366217079
 30
0.0
 10
535.9216347979008
 20
425.9471665634644
 30
0.0
 10
536.0452887032554
 20
424.905152658901
 30
0.0
 10
536.137189349743
 20
424.3879559687412
 30
0.0
 10
536.4893826599348
 20
422.8538564579499
 30
0.0
 10
536.8260304383865
 20
421.8506961150752
 30
0.0
 10
537.2302665007313
 20
420.8605240266986
 30
0.0
  0
LINE
  5
FA
330
1F
100
AcDbEntity
  8
0
  6
Continuous
 62
     7
370
    15
100
AcDbLine
 10
535.8905237572
 20
412.4953622052
 30
0.0
 11
535.8905237572
 21
426.984249247
 31
0.0
  0
SPLINE
  5
FB
330
1F
100
AcDbEntity
  8
0
  6
Continuous
 62
     7
370
    15
100
AcDbSpline
210
0.0
220
0.0
230
1.0
 70
     8
 71
     3
 72
    12
 73
     8
 74
     0
 42
0.00000001
 43
0.00000001
 12
1.0
 22
0.0
 32
0.0
 13
1.0
 23
0.0
 33
0.0
 40
0.0
 40
0.0
 40
0.0
 40
0.0
 40
0.2500000000000001
 40
0.2500000000000001
 40
0.5000000000000001
 40
0.5000000000000001
 40
1.0
 40
1.0
 40
1.0
 40
1.0
 10
773.8905205385757
 20
412.4953609893205
 30
0.0
 10
773.8905205385757
 20
413.205284097032
 30
0.0
 10
773.8588539883854
 20
413.9183926671853
 30
0.0
 10
773.7363078896609
 20
415.3290698776071
 30
0.0
 10
773.6455461812087
 20
416.0296903454691
 30
0.0
 10
773.2954878078377
 20
418.1191081562463
 30
0.0
 10
772.9587205112813
 20
419.4955103244791
 30
0.0
 10
772.5507745764203
 20
420.8605240266986
 30
0.0
  0
SPLINE
  5
FC
330
1F
100
AcDbEntity
  8
0
  6
Continuous
 62
     7
370
    15
100
AcDbSpline
210
0.0
220
0.0
230
1.0
 70
     8
 71
     3
 72
    12
 73
     8
 74
     0
 42
0.00000001
 43
0.00000001
 12
1.0
 22
0.0
 32
0.0
 13
1.0
 23
0.0
 33
0.0
 40
0.0
 40
0.0
 40
0.0
 40
0.0
 40
0.2500000000000004
 40
0.2500000000000004
 40
0.5000000000000008
 40
0.5000000000000008
 40
1.0
 40
1.0
 40
1.0
 40
1.0
 10
772.5507745764202
 20
420.8605240266986
 30
0.0
 10
772.7540769493811
 20
421.35851110395
 30
0.0
 10
772.9407223617294
 20
421.861072136465
 30
0.0
 10
773.27190961547
 20
422.8777557255009
 30
0.0
 10
773.4149920696356
 20
423.3877621421654
 30
0.0
 10
773.7647292220195
 20
424.9213352668004
 30
0.0
 10
773.8905205385757
 20
425.9494396761061
 30
0.0
 10
773.8905205385757
 20
426.9842483836565
 30
0.0
  0
LINE
  5
FD
330
1F
100
AcDbEntity
  8
0
  6
Continuous
 62
     7
370
    15
100
AcDbLine
 10
773.8905199276
 20
426.984249247
 30
0.0
 11
773.8905199276
 21
412.4953622052
 31
0.0
  0
LINE
  5
FE
330
1F
100
AcDbEntity
  8
0
  6
Continuous
 62
     7
370
    15
100
AcDbLine
 10
757.8905205647
 20
420.8605239221
 30
0.0
 11
772.5507751511
 21
420.8605239221
 31
0.0
  0
SPLINE
  5
FF
330
1F
100
AcDbEntity
  8
0
  6
Continuous
 62
     7
370
    15
100
AcDbSpline
210
0.0
220
0.0
230
1.0
 70
     8
 71
     3
 72
    10
 73
     6
 74
     0
 42
0.00000001
 43
0.00000001
 12
1.0
 22
0.0
 32
0.0
 13
1.0
 23
0.0
 33
0.0
 40
0.0
 40
0.0
 40
0.0
 40
0.0
 40
0.5
 40
0.5
 40
1.0
 40
1.0
 40
1.0
 40
1.0
 10
772.5507745764204
 20
404.1301979519424
 30
0.0
 10
772.9597418660059
 20
405.4986291736771
 30
0.0
 10
773.296670063581
 20
406.8770558317556
 30
0.0
 10
773.762835654517
 20
409.6627262825378
 30
0.0
 10
773.8905205385757
 20
411.0701854861728
 30
0.0
 10
773.8905205385757
 20
412.4953609893205
 30
0.0
  0
LINE
  5
100
330
1F
100
AcDbEntity
  8
0
  6
Continuous
 62
     7
370
    15
100
AcDbLine
 10
757.8905205647
 20
404.1301967629
 30
0.0
 11
772.5507751511
 21
404.1301967629
 31
0.0
  0
SPLINE
  5
101
330
1F
100
AcDbEntity
  8
0
  6
Continuous
 62
     7
370
    15
100
AcDbSpline
210
0.0
220
0.0
230
1.0
 70
     8
 71
     3
 72
    12
 73
     8
 74
     0
 42
0.00000001
 43
0.00000001
 12
1.0
 22
0.0
 32
0.0
 13
1.0
 23
0.0
 33
0.0
 40
0.0
 40
0.0
 40
0.0
 40
0.0
 40
0.2500000000000006
 40
0.2500000000000006
 40
0.4999999999999989
 40
0.4999999999999989
 40
1.0
 40
1.0
 40
1.0
 40
1.0
 10
773.8905205385757
 20
500.72167043348
 30
0.0
 10
773.8905205385757
 20
501.3581700789795
 30
0.0
 10
773.8588539883854
 20
501.9975257319717
 30
0.0
 10
773.7363078896609
 20
503.2623043179823
 30
0.0
 10
773.6455461812087
 20
503.8904634447664
 30
0.0
 10
773.2954878078377
 20
505.7637842050203
 30
0.0
 10
772.9587205112813
 20
506.9978326288967
 30
0.0
 10
772.5507745764203
 20
508.2216704334801
 30
0.0
  0
SPLINE
  5
102
330
1F
100
AcDbEntity
  8
0
  6
Continuous
 62
     7
370
    15
100
AcDbSpline
210
0.0
220
0.0
230
1.0
 70
     8
 71
     3
 72
    10
 73
     6
 74
     0
 42
0.00000001
 43
0.00000001
 12
1.0
 22
0.0
 32
0.0
 13
1.0
 23
0.0
 33
0.0
 40
0.0
 40
0.0
 40
0.0
 40
0.0
 40
0.5
 40
0.5
 40
1.0
 40
1.0
 40
1.0
 40
1.0
 10
772.5507745764204
 20
508.2216704334801
 30
0.0
 10
772.9597418660059
 20
509.4485723022364
 30
0.0
 10
773.296670063581
 20
510.6844358340522
 30
0.0
 10
773.762835654517
 20
513.1819996337667
 30
0.0
 10
773.8905205385757
 20
514.4438930338231
 30
0.0
 10
773.8905205385757
 20
515.7216704334801
 30
0.0
  0
LINE
  5
103
330
1F
100
AcDbEntity
  8
0
  6
Continuous
 62
     7
370
    15
100
AcDbLine
 10
773.8905199276
 20
515.7216699847
 30
0.0
 11
773.8905199276
 21
500.7216693887
 31
0.0
  0
LINE
  5
104
330
1F
100
AcDbEntity
  8
0
  6
Continuous
 62
     7
370
    15
100
AcDbLine
 10
757.8905205647
 20
523.2216702827
 30
0.0
 11
772.5507751511
 21
523.2216702827
 31
0.0
  0
SPLINE
  5
105
330
1F
100
AcDbEntity
  8
0
  6
Continuous
 62
     7
370
    15
100
AcDbSpline
210
0.0
220
0.0
230
1.0
 70
     8
 71
     3
 72
    12
 73
     8
 74
     0
 42
0.00000001
 43
0.00000001
 12
1.0
 22
0.0
 32
0.0
 13
1.0
 23
0.0
 33
0.0
 40
0.0
 40
0.0
 40
0.0
 40
0.0
 40
0.2499999999999999
 40
0.2499999999999999
 40
0.4999999999999998
 40
0.4999999999999998
 40
1.0
 40
1.0
 40
1.0
 40
1.0
 10
773.8905205385757
 20
515.7216704334801
 30
0.0
 10
773.8905205385757
 20
516.3581700789795
 30
0.0
 10
773.8588539883854
 20
516.9975257319718
 30
0.0
 10
773.7363078896609
 20
518.2623043179824
 30
0.0
 10
773.6455461812087
 20
518.8904634447663
 30
0.0
 10
773.2954878078377
 20
520.7637842050202
 30
0.0
 10
772.9587205112813
 20
521.9978326288967
 30
0.0
 10
772.5507745764203
 20
523.22167043348
 30
0.0
  0
LINE
  5
106
330
1F
100
AcDbEntity
  8
0
  6
Continuous
 62
     7
370
    15
100
AcDbLine
 10
757.8905205647
 20
508.2216696867
 30
0.0
 11
772.5507751511
 21
508.2216696867
 31
0.0
  0
SPLINE
  5
107
330
1F
100
AcDbEntity
  8
0
  6
Continuous
 62
     7
370
    15
100
AcDbSpline
210
0.0
220
0.0
230
1.0
 70
     8
 71
     3
 72
    12
 73
     8
 74
     0
 42
0.00000001
 43
0.00000001
 12
1.0
 22
0.0
 32
0.0
 13
1.0
 23
0.0
 33
0.0
 40
0.0
 40
0.0
 40
0.0
 40
0.0
 40
0.2500000000000027
 40
0.2500000000000027
 40
0.500000000000003
 40
0.500000000000003
 40
1.0
 40
1.0
 40
1.0
 40
1.0
 10
535.8905205385757
 20
515.7216704334801
 30
0.0
 10
535.8905205385757
 20
515.0851707879807
 30
0.0
 10
535.9221870887661
 20
514.4458151349884
 30
0.0
 10
536.0447331874906
 20
513.1810365489778
 30
0.0
 10
536.1354948959427
 20
512.5528774221938
 30
0.0
 10
536.4855532693138
 20
510.6795566619399
 30
0.0
 10
536.8223205658701
 20
509.4455082380633
 30
0.0
 10
537.2302665007312
 20
508.2216704334801
 30
0.0
  0
SPLINE
  5
108
330
1F
100
AcDbEntity
  8
0
  6
Continuous
 62
     7
370
    15
100
AcDbSpline
210
0.0
220
0.0
230
1.0
 70
     8
 71
     3
 72
    10
 73
     6
 74
     0
 42
0.00000001
 43
0.00000001
 12
1.0
 22
0.0
 32
0.0
 13
1.0
 23
0.0
 33
0.0
 40
0.0
 40
0.0
 40
0.0
 40
0.0
 40
0.5
 40
0.5
 40
1.0
 40
1.0
 40
1.0
 40
1.0
 10
537.2302665007311
 20
508.2216704334801
 30
0.0
 10
536.8212992111456
 20
506.9947685647238
 30
0.0
 10
536.4843710135704
 20
505.758905032908
 30
0.0
 10
536.0182054226345
 20
503.2613412331933
 30
0.0
 10
535.8905205385757
 20
501.9994478331371
 30
0.0
 10
535.8905205385757
 20
500.72167043348
 30
0.0
  0
LINE
  5
109
330
1F
100
AcDbEntity
  8
0
  6
Continuous
 62
     7
370
    15
100
AcDbLine
 10
535.8905237572
 20
500.7216693887
 30
0.0
 11
535.8905237572
 21
515.7216699847
 31
0.0
  0
LINE
  5
10A
330
1F
100
AcDbEntity
  8
0
  6
Continuous
 62
     7
370
    15
100
AcDbLine
 10
551.8905263798
 20
508.2216696867
 30
0.0
 11
537.230272259
 21
508.2216696867
 31
0.0
  0
SPLINE
  5
10B
330
1F
100
AcDbEntity
  8
0
  6
Continuous
 62
     7
370
    15
100
AcDbSpline
210
0.0
220
0.0
230
1.0
 70
     8
 71
     3
 72
    10
 73
     6
 74
     0
 42
0.00000001
 43
0.00000001
 12
1.0
 22
0.0
 32
0.0
 13
1.0
 23
0.0
 33
0.0
 40
0.0
 40
0.0
 40
0.0
 40
0.0
 40
0.5
 40
0.5
 40
1.0
 40
1.0
 40
1.0
 40
1.0
 10
537.2302665007311
 20
523.22167043348
 30
0.0
 10
536.8212992111456
 20
521.9947685647237
 30
0.0
 10
536.4843710135704
 20
520.7589050329079
 30
0.0
 10
536.0182054226345
 20
518.2613412331933
 30
0.0
 10
535.8905205385757
 20
516.999447833137
 30
0.0
 10
535.8905205385757
 20
515.7216704334801
 30
0.0
  0
LINE
  5
10C
330
1F
100
AcDbEntity
  8
0
  6
Continuous
 62
     7
370
    15
100
AcDbLine
 10
551.8905263798
 20
523.2216702827
 30
0.0
 11
537.230272259
 21
523.2216702827
 31
0.0
  0
LINE
  5
10D
330
1F
100
AcDbEntity
  8
0
  6
Continuous
 62
     7
370
    15
100
AcDbLine
 10
551.8905263798
 20
493.2216709533
 30
0.0
 11
537.230272259
 21
493.2216709533
 31
0.0
  0
SPLINE
  5
10E
330
1F
100
AcDbEntity
  8
0
  6
Continuous
 62
     7
370
    15
100
AcDbSpline
210
0.0
220
0.0
230
1.0
 70
     8
 71
     3
 72
    12
 73
     8
 74
     0
 42
0.00000001
 43
0.00000001
 12
1.0
 22
0.0
 32
0.0
 13
1.0
 23
0.0
 33
0.0
 40
0.0
 40
0.0
 40
0.0
 40
0.0
 40
0.2499999999999993
 40
0.2499999999999993
 40
0.4999999999999986
 40
0.4999999999999986
 40
1.0
 40
1.0
 40
1.0
 40
1.0
 10
535.8905205385757
 20
500.72167043348
 30
0.0
 10
535.8905205385757
 20
500.0851707879806
 30
0.0
 10
535.9221870887662
 20
499.4458151349883
 30
0.0
 10
536.0447331874906
 20
498.1810365489777
 30
0.0
 10
536.1354948959427
 20
497.5528774221937
 30
0.0
 10
536.4855532693138
 20
495.6795566619398
 30
0.0
 10
536.8223205658702
 20
494.4455082380633
 30
0.0
 10
537.2302665007312
 20
493.22167043348
 30
0.0
  0
SPLINE
  5
10F
330
1F
100
AcDbEntity
  8
0
  6
Continuous
 62
     7
370
    15
100
AcDbSpline
210
0.0
220
0.0
230
1.0
 70
     8
 71
     3
 72
    10
 73
     6
 74
     0
 42
0.00000001
 43
0.00000001
 12
1.0
 22
0.0
 32
0.0
 13
1.0
 23
0.0
 33
0.0
 40
0.0
 40
0.0
 40
0.0
 40
0.0
 40
0.5
 40
0.5
 40
1.0
 40
1.0
 40
1.0
 40
1.0
 10
772.5507745764204
 20
493.22167043348
 30
0.0
 10
772.9597418660059
 20
494.4485723022362
 30
0.0
 10
773.296670063581
 20
495.6844358340521
 30
0.0
 10
773.762835654517
 20
498.1819996337667
 30
0.0
 10
773.8905205385757
 20
499.443893033823
 30
0.0
 10
773.8905205385757
 20
500.72167043348
 30
0.0
  0
LINE
  5
110
330
1F
100
AcDbEntity
  8
0
  6
Continuous
 62
     7
370
    15
100
AcDbLine
 10
757.8905205647
 20
493.2216709533
 30
0.0
 11
772.5507751511
 21
493.2216709533
 31
0.0
  0
SPLINE
  5
111
330
1F
100
AcDbEntity
  8
0
  6
Continuous
 62
     7
370
    15
100
AcDbSpline
210
0.0
220
0.0
230
1.0
 70
     8
 71
     3
 72
    12
 73
     8
 74
     0
 42
0.00000001
 43
0.00000001
 12
1.0
 22
0.0
 32
0.0
 13
1.0
 23
0.0
 33
0.0
 40
0.0
 40
0.0
 40
0.0
 40
0.0
 40
0.2499999999999992
 40
0.2499999999999992
 40
0.4999999999999984
 40
0.4999999999999984
 40
1.0
 40
1.0
 40
1.0
 40
1.0
 10
537.2302665007313
 20
433.1079727406144
 30
0.0
 10
537.0269641277703
 20
432.609985663363
 30
0.0
 10
536.8403187154221
 20
432.107424630848
 30
0.0
 10
536.5091314616816
 20
431.0907410418121
 30
0.0
 10
536.3660490075158
 20
430.5807346251476
 30
0.0
 10
536.016311855132
 20
429.0471615005126
 30
0.0
 10
535.8905205385756
 20
428.0190570912068
 30
0.0
 10
535.8905205385757
 20
426.9842483836565
 30
0.0
  0
LINE
  5
112
330
1F
100
AcDbEntity
  8
0
  6
Continuous
 62
     7
370
    15
100
AcDbLine
 10
551.8905263798
 20
433.1079727092
 30
0.0
 11
537.230272259
 21
433.1079727092
 31
0.0
  0
LINE
  5
113
330
1F
100
AcDbEntity
  8
0
  6
Continuous
 62
     7
370
    15
100
AcDbLine
 10
757.8905205647
 20
433.1079727092
 30
0.0
 11
772.5507751511
 21
433.1079727092
 31
0.0
  0
SPLINE
  5
114
330
1F
100
AcDbEntity
  8
0
  6
Continuous
 62
     7
370
    15
100
AcDbSpline
210
0.0
220
0.0
230
1.0
 70
     8
 71
     3
 72
    12
 73
     8
 74
     0
 42
0.00000001
 43
0.00000001
 12
1.0
 22
0.0
 32
0.0
 13
1.0
 23
0.0
 33
0.0
 40
0.0
 40
0.0
 40
0.0
 40
0.0
 40
0.2500000000000001
 40
0.2500000000000001
 40
0.5000000000000001
 40
0.5000000000000001
 40
1.0
 40
1.0
 40
1.0
 40
1.0
 10
773.8905205385757
 20
426.9842483836565
 30
0.0
 10
773.8905205385757
 20
427.5019601456051
 30
0.0
 10
773.8594062792507
 20
428.0213302038486
 30
0.0
 10
773.7357523738962
 20
429.063344108412
 30
0.0
 10
773.6438517274084
 20
429.5805407985717
 30
0.0
 10
773.2916584172167
 20
431.1146403093631
 30
0.0
 10
772.955010638765
 20
432.1178006522378
 30
0.0
 10
772.5507745764202
 20
433.1079727406144
 30
0.0
  0
SPLINE
  5
115
330
1F
100
AcDbEntity
  8
0
  6
Continuous
 62
     7
370
    15
100
AcDbSpline
210
0.0
220
0.0
230
1.0
 70
     8
 71
     3
 72
    12
 73
     8
 74
     0
 42
0.00000001
 43
0.00000001
 12
1.0
 22
0.0
 32
0.0
 13
1.0
 23
0.0
 33
0.0
 40
0.0
 40
0.0
 40
0.0
 40
0.0
 40
0.2499999999999989
 40
0.2499999999999989
 40
0.4999999999999979
 40
0.4999999999999979
 40
1.0
 40
1.0
 40
1.0
 40
1.0
 10
773.8905205385757
 20
401.8887592715222
 30
0.0
 10
773.8905205385757
 20
402.0789825949217
 30
0.0
 10
773.8588539883854
 20
402.27005946041
 30
0.0
 10
773.736307889661
 20
402.6480492797235
 30
0.0
 10
773.6455461812087
 20
402.8357799682879
 30
0.0
 10
773.2954878078377
 20
403.3956377833369
 30
0.0
 10
772.9587205112814
 20
403.7644436327753
 30
0.0
 10
772.5507745764203
 20
404.1301979519424
 30
0.0
  0
LINE
  5
116
330
1F
100
AcDbEntity
  8
0
  6
Continuous
 62
     7
370
    15
100
AcDbLine
 10
773.8905199276
 20
412.4953622052
 30
0.0
 11
773.8905199276
 21
401.8887603709
 31
0.0
  0
SPLINE
  5
117
330
1F
100
AcDbEntity
  8
0
  6
Continuous
 62
     7
370
    15
100
AcDbSpline
210
0.0
220
0.0
230
1.0
 70
     8
 71
     3
 72
    10
 73
     6
 74
     0
 42
0.00000001
 43
0.00000001
 12
1.0
 22
0.0
 32
0.0
 13
1.0
 23
0.0
 33
0.0
 40
0.0
 40
0.0
 40
0.0
 40
0.0
 40
0.5
 40
0.5
 40
1.0
 40
1.0
 40
1.0
 40
1.0
 10
537.2302665007311
 20
404.1301979519424
 30
0.0
 10
536.8212992111456
 20
403.7635279111811
 30
0.0
 10
536.4843710135704
 20
403.3941796013233
 30
0.0
 10
536.0182054226345
 20
402.647761453657
 30
0.0
 10
535.8905205385757
 20
402.2706338966633
 30
0.0
 10
535.8905205385757
 20
401.8887592715222
 30
0.0
  0
LINE
  5
118
330
1F
100
AcDbEntity
  8
0
  6
Continuous
 62
     7
370
    15
100
AcDbLine
 10
535.8905237572
 20
401.8887603709
 30
0.0
 11
535.8905237572
 21
412.4953622052
 31
0.0
  0
SPLINE
  5
119
330
1F
100
AcDbEntity
  8
0
  6
Continuous
 62
     7
370
    15
100
AcDbSpline
210
0.0
220
0.0
230
1.0
 70
    24
 71
     3
 72
    12
 73
     8
 74
     0
 42
0.00000001
 43
0.00000001
 12
1.0
 22
0.0
 32
0.0
 13
1.0
 23
0.0
 33
0.0
 40
0.0
 40
0.0
 40
0.0
 40
0.0
 40
0.25
 40
0.25
 40
0.5
 40
0.5
 40
1.0
 40
1.0
 40
1.0
 40
1.0
 10
535.8905205385757
 20
493.2216704334799
 30
0.0
 10
535.8905205385757
 20
493.2216704334799
 30
0.0
 10
535.9216347979008
 20
493.2216704334799
 30
0.0
 10
536.0452887032554
 20
493.22167043348
 30
0.0
 10
536.137189349743
 20
493.22167043348
 30
0.0
 10
536.4893826599347
 20
493.22167043348
 30
0.0
 10
536.8260304383865
 20
493.22167043348
 30
0.0
 10
537.2302665007313
 20
493.22167043348
 30
0.0
  0
LINE
  5
11A
330
1F
100
AcDbEntity
  8
0
  6
Continuous
 62
     7
370
    15
100
AcDbLine
 10
535.8905237572
 20
500.7216693887
 30
0.0
 11
535.8905237572
 21
493.2216709533
 31
0.0
  0
SPLINE
  5
11B
330
1F
100
AcDbEntity
  8
0
  6
Continuous
 62
     7
370
    15
100
AcDbSpline
210
0.0
220
0.0
230
1.0
 70
    24
 71
     3
 72
    12
 73
     8
 74
     0
 42
0.00000001
 43
0.00000001
 12
1.0
 22
0.0
 32
0.0
 13
1.0
 23
0.0
 33
0.0
 40
0.0
 40
0.0
 40
0.0
 40
0.0
 40
0.2500000000000012
 40
0.2500000000000012
 40
0.5000000000000023
 40
0.5000000000000023
 40
1.0
 40
1.0
 40
1.0
 40
1.0
 10
772.5507745764202
 20
493.22167043348
 30
0.0
 10
772.7540769493811
 20
493.22167043348
 30
0.0
 10
772.9407223617294
 20
493.22167043348
 30
0.0
 10
773.27190961547
 20
493.22167043348
 30
0.0
 10
773.4149920696356
 20
493.22167043348
 30
0.0
 10
773.7647292220196
 20
493.22167043348
 30
0.0
 10
773.8905205385757
 20
493.2216704334799
 30
0.0
 10
773.8905205385757
 20
493.2216704334799
 30
0.0
  0
LINE
  5
11C
330
1F
100
AcDbEntity
  8
0
  6
Continuous
 62
     7
370
    15
100
AcDbLine
 10
773.8905199276
 20
500.7216693887
 30
0.0
 11
773.8905199276
 21
493.2216709533
 31
0.0
  0
SPLINE
  5
11D
330
1F
100
AcDbEntity
  8
0
  6
Continuous
 62
     7
370
    15
100
AcDbSpline
210
0.0
220
0.0
230
1.0
 70
    24
 71
     3
 72
    12
 73
     8
 74
     0
 42
0.00000001
 43
0.00000001
 12
1.0
 22
0.0
 32
0.0
 13
1.0
 23
0.0
 33
0.0
 40
0.0
 40
0.0
 40
0.0
 40
0.0
 40
0.25
 40
0.25
 40
0.5
 40
0.5
 40
1.0
 40
1.0
 40
1.0
 40
1.0
 10
535.8905205385757
 20
523.2216704334799
 30
0.0
 10
535.8905205385757
 20
523.2216704334799
 30
0.0
 10
535.9216347979008
 20
523.2216704334799
 30
0.0
 10
536.0452887032554
 20
523.2216704334799
 30
0.0
 10
536.137189349743
 20
523.22167043348
 30
0.0
 10
536.4893826599347
 20
523.22167043348
 30
0.0
 10
536.8260304383865
 20
523.22167043348
 30
0.0
 10
537.2302665007313
 20
523.22167043348
 30
0.0
  0
LINE
  5
11E
330
1F
100
AcDbEntity
  8
0
  6
Continuous
 62
     7
370
    15
100
AcDbLine
 10
535.8905237572
 20
515.7216699847
 30
0.0
 11
535.8905237572
 21
523.2216702827
 31
0.0
  0
SPLINE
  5
11F
330
1F
100
AcDbEntity
  8
0
  6
Continuous
 62
     7
370
    15
100
AcDbSpline
210
0.0
220
0.0
230
1.0
 70
    24
 71
     3
 72
    12
 73
     8
 74
     0
 42
0.00000001
 43
0.00000001
 12
1.0
 22
0.0
 32
0.0
 13
1.0
 23
0.0
 33
0.0
 40
0.0
 40
0.0
 40
0.0
 40
0.0
 40
0.2499999999999988
 40
0.2499999999999988
 40
0.4999999999999976
 40
0.4999999999999976
 40
1.0
 40
1.0
 40
1.0
 40
1.0
 10
772.5507745764202
 20
523.22167043348
 30
0.0
 10
772.7540769493811
 20
523.22167043348
 30
0.0
 10
772.9407223617294
 20
523.22167043348
 30
0.0
 10
773.2719096154701
 20
523.22167043348
 30
0.0
 10
773.4149920696356
 20
523.22167043348
 30
0.0
 10
773.7647292220196
 20
523.22167043348
 30
0.0
 10
773.8905205385757
 20
523.2216704334799
 30
0.0
 10
773.8905205385757
 20
523.2216704334799
 30
0.0
  0
LINE
  5
120
330
1F
100
AcDbEntity
  8
0
  6
Continuous
 62
     7
370
    15
100
AcDbLine
 10
773.8905199276
 20
523.2216702827
 30
0.0
 11
773.8905199276
 21
515.7216699847
 31
0.0
  0
SPLINE
  5
121
330
1F
100
AcDbEntity
  8
0
  6
Continuous
 62
     7
370
    15
100
AcDbSpline
210
0.0
220
0.0
230
1.0
 70
     8
 71
     3
 72
    10
 73
     6
 74
     0
 42
0.00000001
 43
0.00000001
 12
1.0
 22
0.0
 32
0.0
 13
1.0
 23
0.0
 33
0.0
 40
0.0
 40
0.0
 40
0.0
 40
0.0
 40
0.5
 40
0.5
 40
1.0
 40
1.0
 40
1.0
 40
1.0
 10
772.5507745764204
 20
399.647320591102
 30
0.0
 10
772.9597418660059
 20
400.0139906318634
 30
0.0
 10
773.296670063581
 20
400.3833389417211
 30
0.0
 10
773.762835654517
 20
401.1297570893874
 30
0.0
 10
773.8905205385757
 20
401.5068846463812
 30
0.0
 10
773.8905205385757
 20
401.8887592715222
 30
0.0
  0
LINE
  5
122
330
1F
100
AcDbEntity
  8
0
  6
Continuous
 62
     7
370
    15
100
AcDbLine
 10
757.8905205647
 20
399.6473239788
 30
0.0
 11
772.5507751511
 21
399.6473239788
 31
0.0
  0
LINE
  5
123
330
1F
100
AcDbEntity
  8
0
  6
Continuous
 62
     7
370
    15
100
AcDbLine
 10
551.8905263798
 20
399.6473239788
 30
0.0
 11
537.230272259
 21
399.6473239788
 31
0.0
  0
SPLINE
  5
124
330
1F
100
AcDbEntity
  8
0
  6
Continuous
 62
     7
370
    15
100
AcDbSpline
210
0.0
220
0.0
230
1.0
 70
     8
 71
     3
 72
    12
 73
     8
 74
     0
 42
0.00000001
 43
0.00000001
 12
1.0
 22
0.0
 32
0.0
 13
1.0
 23
0.0
 33
0.0
 40
0.0
 40
0.0
 40
0.0
 40
0.0
 40
0.2499999999999994
 40
0.2499999999999994
 40
0.4999999999999989
 40
0.4999999999999989
 40
1.0
 40
1.0
 40
1.0
 40
1.0
 10
535.8905205385757
 20
401.8887592715222
 30
0.0
 10
535.8905205385757
 20
401.6985359481227
 30
0.0
 10
535.9221870887661
 20
401.5074590826344
 30
0.0
 10
536.0447331874906
 20
401.1294692633209
 30
0.0
 10
536.1354948959427
 20
400.9417385747565
 30
0.0
 10
536.4855532693138
 20
400.3818807597076
 30
0.0
 10
536.8223205658702
 20
400.0130749102692
 30
0.0
 10
537.2302665007312
 20
399.647320591102
 30
0.0
  0
SPLINE
  5
125
330
1F
100
AcDbEntity
  8
0
  6
Continuous
 62
     7
370
    15
100
AcDbSpline
210
0.0
220
0.0
230
1.0
 70
     8
 71
     3
 72
    11
 73
     7
 74
     0
 42
0.00000001
 43
0.00000001
 12
1.0
 22
0.0
 32
0.0
 13
1.0
 23
0.0
 33
0.0
 40
0.0
 40
0.0
 40
0.0
 40
0.0
 40
0.1328553747491781
 40
0.4218395997700847
 40
0.7109556681850975
 40
1.0
 40
1.0
 40
1.0
 40
1.0
 10
536.2038951771332
 20
431.906791967991
 30
0.0
 10
536.2333568848949
 20
431.960784646971
 30
0.0
 10
536.3269030815329
 20
432.1322210689783
 30
0.0
 10
536.5502855263043
 20
432.4183919600632
 30
0.0
 10
536.8599451898157
 20
432.7651766005575
 30
0.0
 10
537.1068401139626
 20
432.9937167918595
 30
0.0
 10
537.2302722590042
 20
433.1079727091819
 30
0.0
  0
LINE
  5
126
330
1F
100
AcDbEntity
  8
0
  6
Continuous
 62
     7
370
    15
100
AcDbLine
 10
535.8905237572
 20
426.984249247
 30
0.0
 11
535.8905237572
 21
431.3776461461
 31
0.0
  0
SPLINE
  5
127
330
1F
100
AcDbEntity
  8
0
  6
Continuous
 62
     7
370
    15
100
AcDbSpline
210
0.0
220
0.0
230
1.0
 70
     8
 71
     3
 72
    11
 73
     7
 74
     0
 42
0.00000001
 43
0.00000001
 12
1.0
 22
0.0
 32
0.0
 13
1.0
 23
0.0
 33
0.0
 40
0.0
 40
0.0
 40
0.0
 40
0.0
 40
0.3051751981270839
 40
0.6104367378388946
 40
0.9155387837306783
 40
1.0
 40
1.0
 40
1.0
 40
1.0
 10
772.5507751511408
 20
433.1079727091819
 30
0.0
 10
772.6809614100606
 20
432.9873255032419
 30
0.0
 10
772.9413707608014
 20
432.7459969572939
 30
0.0
 10
773.2623137628103
 20
432.3795223698949
 30
0.0
 10
773.4787804245482
 20
432.0996755912416
 30
0.0
 10
773.559846401066
 20
431.9411735594971
 30
0.0
 10
773.5774223165585
 20
431.9068087317974
 30
0.0
  0
LINE
  5
128
330
1F
100
AcDbEntity
  8
0
  6
Continuous
 62
     7
370
    15
100
AcDbLine
 10
773.8905199276
 20
431.3776461461
 30
0.0
 11
773.8905199276
 21
426.984249247
 31
0.0
  0
LINE
  5
129
330
1F
100
AcDbEntity
  8
0
  6
Continuous
 62
     7
370
    15
100
AcDbLine
 10
489.8905348437
 20
518.2216713258
 30
0.0
 11
489.8905348437
 21
498.2216717728
 31
0.0
  0
LINE
  5
12A
330
1F
100
AcDbEntity
  8
0
  6
Continuous
 62
     7
370
    15
100
AcDbLine
 10
819.8905181544
 20
518.2216713258
 30
0.0
 11
819.8905181544
 21
498.2216717728
 31
0.0
  0
LINE
  5
12B
330
1F
100
AcDbEntity
  8
0
  6
Continuous
 62
     7
370
    15
100
AcDbLine
 10
819.8905181544
 20
424.2796177098
 30
0.0
 11
819.8905181544
 21
406.3776457735
 31
0.0
  0
LINE
  5
12C
330
1F
100
AcDbEntity
  8
0
  6
Continuous
 62
     7
370
    15
100
AcDbLine
 10
819.8905181544
 20
426.3776453265
 30
0.0
 11
819.8905181544
 21
424.2796177098
 31
0.0
  0
LINE
  5
12D
330
1F
100
AcDbEntity
  8
0
  6
Continuous
 62
     7
370
    15
100
AcDbLine
 10
489.8905348437
 20
424.2796177098
 30
0.0
 11
489.8905348437
 21
406.3776457735
 31
0.0
  0
LINE
  5
12E
330
1F
100
AcDbEntity
  8
0
  6
Continuous
 62
     7
370
    15
100
AcDbLine
 10
489.8905348437
 20
426.3776453265
 30
0.0
 11
489.8905348437
 21
424.2796177098
 31
0.0
  0
LINE
  5
12F
330
1F
100
AcDbEntity
  8
0
  6
Continuous
 62
     7
370
    15
100
AcDbLine
 10
535.8905237572
 20
401.8887603709
 30
0.0
 11
535.8905237572
 21
401.3776468166
 31
0.0
  0
LINE
  5
130
330
1F
100
AcDbEntity
  8
0
  6
Continuous
 62
     7
370
    15
100
AcDbLine
 10
773.8905199276
 20
401.8887603709
 30
0.0
 11
773.8905199276
 21
401.3776468166
 31
0.0
  0
LINE
  5
131
330
1F
100
AcDbEntity
  8
0
  6
Continuous
 62
     7
370
    15
100
AcDbLine
 10
636.0440668123
 20
366.2165837415
 30
0.0
 11
636.0440668123
 21
406.3776457735
 31
0.0
  0
LINE
  5
132
330
1F
100
AcDbEntity
  8
0
  6
Continuous
 62
     7
370
    15
100
AcDbLine
 10
636.0440668123
 20
426.3776453265
 30
0.0
 11
636.0440668123
 21
498.2216717728
 31
0.0
  0
LINE
  5
133
330
1F
100
AcDbEntity
  8
0
  6
Continuous
 62
     7
370
    15
100
AcDbLine
 10
636.0440668123
 20
518.2216713258
 30
0.0
 11
636.0440668123
 21
558.3827333578
 31
0.0
  0
LINE
  5
134
330
1F
100
AcDbEntity
  8
0
  6
Continuous
 62
     7
370
    15
100
AcDbLine
 10
623.3233999865
 20
374.2213385233
 30
0.0
 11
623.3233999865
 21
406.3776457735
 31
0.0
  0
LINE
  5
135
330
1F
100
AcDbEntity
  8
0
  6
Continuous
 62
     7
370
    15
100
AcDbLine
 10
623.3233999865
 20
426.3776453265
 30
0.0
 11
623.3233999865
 21
498.2216717728
 31
0.0
  0
LINE
  5
136
330
1F
100
AcDbEntity
  8
0
  6
Continuous
 62
     7
370
    15
100
AcDbLine
 10
623.3233999865
 20
518.2216713258
 30
0.0
 11
623.3233999865
 21
550.3779785761
 31
0.0
  0
LINE
  5
137
330
1F
100
AcDbEntity
  8
0
  6
Continuous
 62
     7
370
    15
100
AcDbLine
 10
551.8905263798
 20
586.2466754445
 30
0.0
 11
551.8905263798
 21
554.6651991137
 31
0.0
  0
LINE
  5
138
330
1F
100
AcDbEntity
  8
0
  6
Continuous
 62
     7
370
    15
100
AcDbLine
 10
551.8905263798
 20
591.6652070411
 30
0.0
 11
551.8905263798
 21
586.2466754445
 31
0.0
  0
LINE
  5
139
330
1F
100
AcDbEntity
  8
0
  6
Continuous
 62
     7
370
    15
100
AcDbLine
 10
757.8905205647
 20
554.6651991137
 30
0.0
 11
757.8905205647
 21
591.6652070411
 31
0.0
  0
LINE
  5
13A
330
1F
100
AcDbEntity
  8
0
  6
Continuous
 62
     7
370
    15
100
AcDbLine
 10
757.8905205647
 20
332.9341100582
 30
0.0
 11
757.8905205647
 21
369.9341179856
 31
0.0
  0
LINE
  5
13B
330
1F
100
AcDbEntity
  8
0
  6
Continuous
 62
     7
370
    15
100
AcDbLine
 10
551.8905263798
 20
369.9341179856
 30
0.0
 11
551.8905263798
 21
332.9341100582
 31
0.0
  0
LINE
  5
13C
330
1F
100
AcDbEntity
  8
0
  6
Continuous
 62
     7
370
    15
100
AcDbLine
 10
757.8905205647
 20
585.4126500019
 30
0.0
 11
772.5507751511
 21
585.4126500019
 31
0.0
  0
SPLINE
  5
13D
330
1F
100
AcDbEntity
  8
0
  6
Continuous
 62
     7
370
    15
100
AcDbSpline
210
0.0
220
0.0
230
1.0
 70
     8
 71
     3
 72
    12
 73
     8
 74
     0
 42
0.00000001
 43
0.00000001
 12
1.0
 22
0.0
 32
0.0
 13
1.0
 23
0.0
 33
0.0
 40
0.0
 40
0.0
 40
0.0
 40
0.0
 40
0.2500000000000012
 40
0.2500000000000012
 40
0.5000000000000024
 40
0.5000000000000024
 40
1.0
 40
1.0
 40
1.0
 40
1.0
 10
773.8905205385757
 20
577.0474881275618
 30
0.0
 10
773.8905205385757
 20
577.7574112352733
 30
0.0
 10
773.8588539883854
 20
578.4705198054265
 30
0.0
 10
773.7363078896609
 20
579.8811970158483
 30
0.0
 10
773.6455461812087
 20
580.5818174837103
 30
0.0
 10
773.2954878078377
 20
582.6712352944875
 30
0.0
 10
772.9587205112814
 20
584.0476374627203
 30
0.0
 10
772.5507745764203
 20
585.4126511649398
 30
0.0
  0
SPLINE
  5
13E
330
1F
100
AcDbEntity
  8
0
  6
Continuous
 62
     7
370
    15
100
AcDbSpline
210
0.0
220
0.0
230
1.0
 70
     8
 71
     3
 72
    10
 73
     6
 74
     0
 42
0.00000001
 43
0.00000001
 12
1.0
 22
0.0
 32
0.0
 13
1.0
 23
0.0
 33
0.0
 40
0.0
 40
0.0
 40
0.0
 40
0.0
 40
0.5
 40
0.5
 40
1.0
 40
1.0
 40
1.0
 40
1.0
 10
772.5507745764204
 20
568.6823250901837
 30
0.0
 10
772.9597418660059
 20
570.0507563119183
 30
0.0
 10
773.296670063581
 20
571.4291829699969
 30
0.0
 10
773.762835654517
 20
574.2148534207791
 30
0.0
 10
773.8905205385757
 20
575.6223126244141
 30
0.0
 10
773.8905205385757
 20
577.0474881275618
 30
0.0
  0
LINE
  5
13F
330
1F
100
AcDbEntity
  8
0
  6
Continuous
 62
     7
370
    15
100
AcDbLine
 10
757.8905205647
 20
568.682326568
 30
0.0
 11
772.5507751511
 21
568.682326568
 31
0.0
  0
LINE
  5
140
330
1F
100
AcDbEntity
  8
0
  6
Continuous
 62
     7
370
    15
100
AcDbLine
 10
773.8905199276
 20
577.0474882849
 30
0.0
 11
773.8905199276
 21
562.5585975179
 31
0.0
  0
SPLINE
  5
141
330
1F
100
AcDbEntity
  8
0
  6
Continuous
 62
     7
370
    15
100
AcDbSpline
210
0.0
220
0.0
230
1.0
 70
     8
 71
     3
 72
    12
 73
     8
 74
     0
 42
0.00000001
 43
0.00000001
 12
1.0
 22
0.0
 32
0.0
 13
1.0
 23
0.0
 33
0.0
 40
0.0
 40
0.0
 40
0.0
 40
0.0
 40
0.2500000000000004
 40
0.2500000000000004
 40
0.5000000000000008
 40
0.5000000000000008
 40
1.0
 40
1.0
 40
1.0
 40
1.0
 10
772.5507745764202
 20
568.6823250901837
 30
0.0
 10
772.7540769493811
 20
568.1843380129324
 30
0.0
 10
772.9407223617294
 20
567.6817769804173
 30
0.0
 10
773.2719096154701
 20
566.6650933913812
 30
0.0
 10
773.4149920696356
 20
566.1550869747168
 30
0.0
 10
773.7647292220196
 20
564.6215138500819
 30
0.0
 10
773.8905205385757
 20
563.5934094407761
 30
0.0
 10
773.8905205385757
 20
562.5586007332257
 30
0.0
  0
SPLINE
  5
142
330
1F
100
AcDbEntity
  8
0
  6
Continuous
 62
     7
370
    15
100
AcDbSpline
210
0.0
220
0.0
230
1.0
 70
     8
 71
     3
 72
    12
 73
     8
 74
     0
 42
0.00000001
 43
0.00000001
 12
1.0
 22
0.0
 32
0.0
 13
1.0
 23
0.0
 33
0.0
 40
0.0
 40
0.0
 40
0.0
 40
0.0
 40
0.2500000000000017
 40
0.2500000000000017
 40
0.5000000000000033
 40
0.5000000000000033
 40
1.0
 40
1.0
 40
1.0
 40
1.0
 10
535.8905205385757
 20
577.0474881275618
 30
0.0
 10
535.8905205385757
 20
576.3375650198503
 30
0.0
 10
535.9221870887662
 20
575.6244564496969
 30
0.0
 10
536.0447331874906
 20
574.2137792392751
 30
0.0
 10
536.1354948959428
 20
573.5131587714131
 30
0.0
 10
536.4855532693138
 20
571.423740960636
 30
0.0
 10
536.8223205658701
 20
570.0473387924033
 30
0.0
 10
537.2302665007312
 20
568.6823250901837
 30
0.0
  0
SPLINE
  5
143
330
1F
100
AcDbEntity
  8
0
  6
Continuous
 62
     7
370
    15
100
AcDbSpline
210
0.0
220
0.0
230
1.0
 70
     8
 71
     3
 72
    12
 73
     8
 74
     0
 42
0.00000001
 43
0.00000001
 12
1.0
 22
0.0
 32
0.0
 13
1.0
 23
0.0
 33
0.0
 40
0.0
 40
0.0
 40
0.0
 40
0.0
 40
0.2500000000000008
 40
0.2500000000000008
 40
0.5000000000000017
 40
0.5000000000000017
 40
1.0
 40
1.0
 40
1.0
 40
1.0
 10
535.8905205385757
 20
562.5586007332257
 30
0.0
 10
535.8905205385757
 20
563.0763124951743
 30
0.0
 10
535.9216347979008
 20
563.5956825534179
 30
0.0
 10
536.0452887032554
 20
564.6376964579812
 30
0.0
 10
536.137189349743
 20
565.154893148141
 30
0.0
 10
536.4893826599348
 20
566.6889926589323
 30
0.0
 10
536.8260304383865
 20
567.6921530018072
 30
0.0
 10
537.2302665007313
 20
568.6823250901837
 30
0.0
  0
LINE
  5
144
330
1F
100
AcDbEntity
  8
0
  6
Continuous
 62
     7
370
    15
100
AcDbLine
 10
535.8905237572
 20
577.0474882849
 30
0.0
 11
535.8905237572
 21
562.5585975179
 31
0.0
  0
LINE
  5
145
330
1F
100
AcDbEntity
  8
0
  6
Continuous
 62
     7
370
    15
100
AcDbLine
 10
551.8905263798
 20
568.682326568
 30
0.0
 11
537.230272259
 21
568.682326568
 31
0.0
  0
SPLINE
  5
146
330
1F
100
AcDbEntity
  8
0
  6
Continuous
 62
     7
370
    15
100
AcDbSpline
210
0.0
220
0.0
230
1.0
 70
     8
 71
     3
 72
    10
 73
     6
 74
     0
 42
0.00000001
 43
0.00000001
 12
1.0
 22
0.0
 32
0.0
 13
1.0
 23
0.0
 33
0.0
 40
0.0
 40
0.0
 40
0.0
 40
0.0
 40
0.5
 40
0.5
 40
1.0
 40
1.0
 40
1.0
 40
1.0
 10
537.2302665007311
 20
585.4126511649398
 30
0.0
 10
536.8212992111456
 20
584.0442199432051
 30
0.0
 10
536.4843710135704
 20
582.6657932851266
 30
0.0
 10
536.0182054226345
 20
579.8801228343444
 30
0.0
 10
535.8905205385757
 20
578.4726636307095
 30
0.0
 10
535.8905205385757
 20
577.0474881275618
 30
0.0
  0
LINE
  5
147
330
1F
100
AcDbEntity
  8
0
  6
Continuous
 62
     7
370
    15
100
AcDbLine
 10
551.8905263798
 20
585.4126500019
 30
0.0
 11
537.230272259
 21
585.4126500019
 31
0.0
  0
LINE
  5
148
330
1F
100
AcDbEntity
  8
0
  6
Continuous
 62
     7
370
    15
100
AcDbLine
 10
551.8905263798
 20
556.4348759183
 30
0.0
 11
537.230272259
 21
556.4348759183
 31
0.0
  0
SPLINE
  5
149
330
1F
100
AcDbEntity
  8
0
  6
Continuous
 62
     7
370
    15
100
AcDbSpline
210
0.0
220
0.0
230
1.0
 70
     8
 71
     3
 72
    12
 73
     8
 74
     0
 42
0.00000001
 43
0.00000001
 12
1.0
 22
0.0
 32
0.0
 13
1.0
 23
0.0
 33
0.0
 40
0.0
 40
0.0
 40
0.0
 40
0.0
 40
0.2500000000000001
 40
0.2500000000000001
 40
0.5000000000000001
 40
0.5000000000000001
 40
1.0
 40
1.0
 40
1.0
 40
1.0
 10
537.2302665007313
 20
556.4348763762677
 30
0.0
 10
537.0269641277703
 20
556.9328634535191
 30
0.0
 10
536.8403187154221
 20
557.4354244860341
 30
0.0
 10
536.5091314616815
 20
558.4521080750701
 30
0.0
 10
536.3660490075158
 20
558.9621144917345
 30
0.0
 10
536.016311855132
 20
560.4956876163695
 30
0.0
 10
535.8905205385756
 20
561.5237920256752
 30
0.0
 10
535.8905205385757
 20
562.5586007332257
 30
0.0
  0
SPLINE
  5
14A
330
1F
100
AcDbEntity
  8
0
  6
Continuous
 62
     7
370
    15
100
AcDbSpline
210
0.0
220
0.0
230
1.0
 70
     8
 71
     3
 72
    12
 73
     8
 74
     0
 42
0.00000001
 43
0.00000001
 12
1.0
 22
0.0
 32
0.0
 13
1.0
 23
0.0
 33
0.0
 40
0.0
 40
0.0
 40
0.0
 40
0.0
 40
0.2499999999999991
 40
0.2499999999999991
 40
0.4999999999999982
 40
0.4999999999999982
 40
1.0
 40
1.0
 40
1.0
 40
1.0
 10
773.8905205385757
 20
562.5586007332257
 30
0.0
 10
773.8905205385757
 20
562.0408889712771
 30
0.0
 10
773.8594062792507
 20
561.5215189130336
 30
0.0
 10
773.7357523738962
 20
560.4795050084701
 30
0.0
 10
773.6438517274084
 20
559.9623083183104
 30
0.0
 10
773.2916584172167
 20
558.428208807519
 30
0.0
 10
772.955010638765
 20
557.4250484646441
 30
0.0
 10
772.5507745764202
 20
556.4348763762677
 30
0.0
  0
LINE
  5
14B
330
1F
100
AcDbEntity
  8
0
  6
Continuous
 62
     7
370
    15
100
AcDbLine
 10
757.8905205647
 20
556.4348759183
 30
0.0
 11
772.5507751511
 21
556.4348759183
 31
0.0
  0
SPLINE
  5
14C
330
1F
100
AcDbEntity
  8
0
  6
Continuous
 62
     7
370
    15
100
AcDbSpline
210
0.0
220
0.0
230
1.0
 70
     8
 71
     3
 72
    12
 73
     8
 74
     0
 42
0.00000001
 43
0.00000001
 12
1.0
 22
0.0
 32
0.0
 13
1.0
 23
0.0
 33
0.0
 40
0.0
 40
0.0
 40
0.0
 40
0.0
 40
0.2500000000000007
 40
0.2500000000000007
 40
0.5000000000000013
 40
0.5000000000000013
 40
1.0
 40
1.0
 40
1.0
 40
1.0
 10
535.8905205385757
 20
587.6540898453599
 30
0.0
 10
535.8905205385757
 20
587.4638665219603
 30
0.0
 10
535.9221870887662
 20
587.272789656472
 30
0.0
 10
536.0447331874906
 20
586.8947998371585
 30
0.0
 10
536.1354948959427
 20
586.7070691485943
 30
0.0
 10
536.4855532693138
 20
586.1472113335453
 30
0.0
 10
536.8223205658701
 20
585.778405484107
 30
0.0
 10
537.2302665007312
 20
585.4126511649398
 30
0.0
  0
LINE
  5
14D
330
1F
100
AcDbEntity
  8
0
  6
Continuous
 62
     7
370
    15
100
AcDbLine
 10
535.8905237572
 20
577.0474882849
 30
0.0
 11
535.8905237572
 21
587.6540826687
 31
0.0
  0
SPLINE
  5
14E
330
1F
100
AcDbEntity
  8
0
  6
Continuous
 62
     7
370
    15
100
AcDbSpline
210
0.0
220
0.0
230
1.0
 70
     8
 71
     3
 72
    10
 73
     6
 74
     0
 42
0.00000001
 43
0.00000001
 12
1.0
 22
0.0
 32
0.0
 13
1.0
 23
0.0
 33
0.0
 40
0.0
 40
0.0
 40
0.0
 40
0.0
 40
0.5
 40
0.5
 40
1.0
 40
1.0
 40
1.0
 40
1.0
 10
772.5507745764204
 20
585.4126511649398
 30
0.0
 10
772.9597418660059
 20
585.7793212057012
 30
0.0
 10
773.296670063581
 20
586.1486695155589
 30
0.0
 10
773.762835654517
 20
586.895087663225
 30
0.0
 10
773.8905205385757
 20
587.2722152202188
 30
0.0
 10
773.8905205385757
 20
587.6540898453599
 30
0.0
  0
LINE
  5
14F
330
1F
100
AcDbEntity
  8
0
  6
Continuous
 62
     7
370
    15
100
AcDbLine
 10
773.8905199276
 20
587.6540826687
 30
0.0
 11
773.8905199276
 21
577.0474882849
 31
0.0
  0
SPLINE
  5
150
330
1F
100
AcDbEntity
  8
0
  6
Continuous
 62
     7
370
    15
100
AcDbSpline
210
0.0
220
0.0
230
1.0
 70
     8
 71
     3
 72
    12
 73
     8
 74
     0
 42
0.00000001
 43
0.00000001
 12
1.0
 22
0.0
 32
0.0
 13
1.0
 23
0.0
 33
0.0
 40
0.0
 40
0.0
 40
0.0
 40
0.0
 40
0.25
 40
0.25
 40
0.5
 40
0.5
 40
1.0
 40
1.0
 40
1.0
 40
1.0
 10
535.8905205385757
 20
351.4341146483148
 30
0.0
 10
535.8905205385757
 20
350.7019596531671
 30
0.0
 10
535.9216347979008
 20
349.9674594729086
 30
0.0
 10
536.0452887032554
 20
348.4938292768937
 30
0.0
 10
536.137189349743
 20
347.7624027032552
 30
0.0
 10
536.4893826599347
 20
345.5928583690642
 30
0.0
 10
536.8260304383866
 20
344.1741754069358
 30
0.0
 10
537.2302665007313
 20
342.7738606104704
 30
0.0
  0
SPLINE
  5
151
330
1F
100
AcDbEntity
  8
0
  6
Continuous
 62
     7
370
    15
100
AcDbSpline
210
0.0
220
0.0
230
1.0
 70
     8
 71
     3
 72
    10
 73
     6
 74
     0
 42
0.00000001
 43
0.00000001
 12
1.0
 22
0.0
 32
0.0
 13
1.0
 23
0.0
 33
0.0
 40
0.0
 40
0.0
 40
0.0
 40
0.0
 40
0.5
 40
0.5
 40
1.0
 40
1.0
 40
1.0
 40
1.0
 10
537.2302665007311
 20
342.7738606104705
 30
0.0
 10
536.8212992111456
 20
342.0655084862748
 30
0.0
 10
536.4843710135704
 20
341.3519823434992
 30
0.0
 10
536.0182054226345
 20
339.9100132114157
 30
0.0
 10
535.8905205385757
 20
339.1814587172046
 30
0.0
 10
535.8905205385757
 20
338.4437335915482
 30
0.0
  0
LINE
  5
152
330
1F
100
AcDbEntity
  8
0
  6
Continuous
 62
     7
370
    15
100
AcDbLine
 10
535.8905237572
 20
338.4437324532
 30
0.0
 11
535.8905237572
 21
351.4341177472
 31
0.0
  0
SPLINE
  5
153
330
1F
100
AcDbEntity
  8
0
  6
Continuous
 62
     7
370
    15
100
AcDbSpline
210
0.0
220
0.0
230
1.0
 70
     8
 71
     3
 72
    12
 73
     8
 74
     0
 42
0.00000001
 43
0.00000001
 12
1.0
 22
0.0
 32
0.0
 13
1.0
 23
0.0
 33
0.0
 40
0.0
 40
0.0
 40
0.0
 40
0.0
 40
0.2499999999999999
 40
0.2499999999999999
 40
0.4999999999999999
 40
0.4999999999999999
 40
1.0
 40
1.0
 40
1.0
 40
1.0
 10
773.8905205385757
 20
351.4341146483148
 30
0.0
 10
773.8905205385757
 20
352.1662696434626
 30
0.0
 10
773.8594062792507
 20
352.9007698237211
 30
0.0
 10
773.7357523738962
 20
354.3744000197361
 30
0.0
 10
773.6438517274084
 20
355.1058265933745
 30
0.0
 10
773.2916584172167
 20
357.2753709275655
 30
0.0
 10
772.955010638765
 20
358.6940538896938
 30
0.0
 10
772.5507745764202
 20
360.0943686861592
 30
0.0
  0
SPLINE
  5
154
330
1F
100
AcDbEntity
  8
0
  6
Continuous
 62
     7
370
    15
100
AcDbSpline
210
0.0
220
0.0
230
1.0
 70
     8
 71
     3
 72
    10
 73
     6
 74
     0
 42
0.00000001
 43
0.00000001
 12
1.0
 22
0.0
 32
0.0
 13
1.0
 23
0.0
 33
0.0
 40
0.0
 40
0.0
 40
0.0
 40
0.0
 40
0.5
 40
0.5
 40
1.0
 40
1.0
 40
1.0
 40
1.0
 10
772.5507745764204
 20
360.0943686861592
 30
0.0
 10
772.9597418660059
 20
360.8027208103549
 30
0.0
 10
773.296670063581
 20
361.5162469531305
 30
0.0
 10
773.762835654517
 20
362.958216085214
 30
0.0
 10
773.8905205385757
 20
363.686770579425
 30
0.0
 10
773.8905205385757
 20
364.4244957050814
 30
0.0
  0
LINE
  5
155
330
1F
100
AcDbEntity
  8
0
  6
Continuous
 62
     7
370
    15
100
AcDbLine
 10
773.8905199276
 20
364.4244955906
 30
0.0
 11
773.8905199276
 21
351.4341177472
 31
0.0
  0
LINE
  5
156
330
1F
100
AcDbEntity
  8
0
  6
Continuous
 62
     7
370
    15
100
AcDbLine
 10
757.8905205647
 20
342.7738608846
 30
0.0
 11
772.5507751511
 21
342.7738608846
 31
0.0
  0
SPLINE
  5
157
330
1F
100
AcDbEntity
  8
0
  6
Continuous
 62
     7
370
    15
100
AcDbSpline
210
0.0
220
0.0
230
1.0
 70
     8
 71
     3
 72
    12
 73
     8
 74
     0
 42
0.00000001
 43
0.00000001
 12
1.0
 22
0.0
 32
0.0
 13
1.0
 23
0.0
 33
0.0
 40
0.0
 40
0.0
 40
0.0
 40
0.0
 40
0.2499999999999999
 40
0.2499999999999999
 40
0.4999999999999999
 40
0.4999999999999999
 40
1.0
 40
1.0
 40
1.0
 40
1.0
 10
773.8905205385757
 20
338.4437335915482
 30
0.0
 10
773.8905205385757
 20
338.8112168332164
 30
0.0
 10
773.8588539883854
 20
339.1803489915794
 30
0.0
 10
773.7363078896609
 20
339.9105692486779
 30
0.0
 10
773.6455461812087
 20
340.2732370896206
 30
0.0
 10
773.2954878078377
 20
341.3547993348317
 30
0.0
 10
772.9587205112813
 20
342.0672775245499
 30
0.0
 10
772.5507745764203
 20
342.7738606104705
 30
0.0
  0
SPLINE
  5
158
330
1F
100
AcDbEntity
  8
0
  6
Continuous
 62
     7
370
    15
100
AcDbSpline
210
0.0
220
0.0
230
1.0
 70
     8
 71
     3
 72
    10
 73
     6
 74
     0
 42
0.00000001
 43
0.00000001
 12
1.0
 22
0.0
 32
0.0
 13
1.0
 23
0.0
 33
0.0
 40
0.0
 40
0.0
 40
0.0
 40
0.0
 40
0.5
 40
0.5
 40
1.0
 40
1.0
 40
1.0
 40
1.0
 10
772.5507745764204
 20
334.1136065726259
 30
0.0
 10
772.9597418660059
 20
334.8219586968216
 30
0.0
 10
773.296670063581
 20
335.5354848395972
 30
0.0
 10
773.762835654517
 20
336.9774539716808
 30
0.0
 10
773.8905205385757
 20
337.7060084658918
 30
0.0
 10
773.8905205385757
 20
338.4437335915482
 30
0.0
  0
LINE
  5
159
330
1F
100
AcDbEntity
  8
0
  6
Continuous
 62
     7
370
    15
100
AcDbLine
 10
757.8905205647
 20
334.1136114725
 30
0.0
 11
772.5507751511
 21
334.1136114725
 31
0.0
  0
LINE
  5
15A
330
1F
100
AcDbEntity
  8
0
  6
Continuous
 62
     7
370
    15
100
AcDbLine
 10
551.8905263798
 20
342.7738608846
 30
0.0
 11
537.230272259
 21
342.7738608846
 31
0.0
  0
SPLINE
  5
15B
330
1F
100
AcDbEntity
  8
0
  6
Continuous
 62
     7
370
    15
100
AcDbSpline
210
0.0
220
0.0
230
1.0
 70
     8
 71
     3
 72
    12
 73
     8
 74
     0
 42
0.00000001
 43
0.00000001
 12
1.0
 22
0.0
 32
0.0
 13
1.0
 23
0.0
 33
0.0
 40
0.0
 40
0.0
 40
0.0
 40
0.0
 40
0.2500000000000008
 40
0.2500000000000008
 40
0.5000000000000016
 40
0.5000000000000016
 40
1.0
 40
1.0
 40
1.0
 40
1.0
 10
537.2302665007313
 20
360.0943686861592
 30
0.0
 10
537.0269641277703
 20
359.3901086076237
 30
0.0
 10
536.8403187154222
 20
358.6793799795208
 30
0.0
 10
536.5091314616815
 20
357.241572259264
 30
0.0
 10
536.3660490075158
 20
356.5203142679198
 30
0.0
 10
536.0163118551321
 20
354.3515143561702
 30
0.0
 10
535.8905205385757
 20
352.8975551569944
 30
0.0
 10
535.8905205385757
 20
351.4341146483148
 30
0.0
  0
LINE
  5
15C
330
1F
100
AcDbEntity
  8
0
  6
Continuous
 62
     7
370
    15
100
AcDbLine
 10
551.8905263798
 20
360.0943671593
 30
0.0
 11
537.230272259
 21
360.0943671593
 31
0.0
  0
LINE
  5
15D
330
1F
100
AcDbEntity
  8
0
  6
Continuous
 62
     7
370
    15
100
AcDbLine
 10
551.8905263798
 20
334.1136114725
 30
0.0
 11
537.230272259
 21
334.1136114725
 31
0.0
  0
SPLINE
  5
15E
330
1F
100
AcDbEntity
  8
0
  6
Continuous
 62
     7
370
    15
100
AcDbSpline
210
0.0
220
0.0
230
1.0
 70
     8
 71
     3
 72
    12
 73
     8
 74
     0
 42
0.00000001
 43
0.00000001
 12
1.0
 22
0.0
 32
0.0
 13
1.0
 23
0.0
 33
0.0
 40
0.0
 40
0.0
 40
0.0
 40
0.0
 40
0.2500000000000004
 40
0.2500000000000004
 40
0.5000000000000008
 40
0.5000000000000008
 40
1.0
 40
1.0
 40
1.0
 40
1.0
 10
535.8905205385757
 20
338.4437335915482
 30
0.0
 10
535.8905205385757
 20
338.07625034988
 30
0.0
 10
535.9221870887661
 20
337.707118191517
 30
0.0
 10
536.0447331874907
 20
336.9768979344186
 30
0.0
 10
536.1354948959428
 20
336.6142300934758
 30
0.0
 10
536.4855532693138
 20
335.5326678482647
 30
0.0
 10
536.8223205658701
 20
334.8201896585466
 30
0.0
 10
537.2302665007312
 20
334.1136065726259
 30
0.0
  0
SPLINE
  5
15F
330
1F
100
AcDbEntity
  8
0
  6
Continuous
 62
     7
370
    15
100
AcDbSpline
210
0.0
220
0.0
230
1.0
 70
     8
 71
     3
 72
    12
 73
     8
 74
     0
 42
0.00000001
 43
0.00000001
 12
1.0
 22
0.0
 32
0.0
 13
1.0
 23
0.0
 33
0.0
 40
0.0
 40
0.0
 40
0.0
 40
0.0
 40
0.2499999999999988
 40
0.2499999999999988
 40
0.4999999999999976
 40
0.4999999999999976
 40
1.0
 40
1.0
 40
1.0
 40
1.0
 10
772.5507745764202
 20
342.7738606104704
 30
0.0
 10
772.7540769493811
 20
343.4781206890059
 30
0.0
 10
772.9407223617294
 20
344.1888493171089
 30
0.0
 10
773.2719096154701
 20
345.6266570373656
 30
0.0
 10
773.4149920696356
 20
346.3479150287098
 30
0.0
 10
773.7647292220196
 20
348.5167149404596
 30
0.0
 10
773.8905205385757
 20
349.9706741396353
 30
0.0
 10
773.8905205385757
 20
351.4341146483148
 30
0.0
  0
LINE
  5
160
330
1F
100
AcDbEntity
  8
0
  6
Continuous
 62
     7
370
    15
100
AcDbLine
 10
773.8905199276
 20
351.4341177472
 30
0.0
 11
773.8905199276
 21
338.4437324532
 31
0.0
  0
LINE
  5
161
330
1F
100
AcDbEntity
  8
0
  6
Continuous
 62
     7
370
    15
100
AcDbLine
 10
757.8905205647
 20
360.0943671593
 30
0.0
 11
772.5507751511
 21
360.0943671593
 31
0.0
  0
SPLINE
  5
162
330
1F
100
AcDbEntity
  8
0
  6
Continuous
 62
     7
370
    15
100
AcDbSpline
210
0.0
220
0.0
230
1.0
 70
     8
 71
     3
 72
    12
 73
     8
 74
     0
 42
0.00000001
 43
0.00000001
 12
1.0
 22
0.0
 32
0.0
 13
1.0
 23
0.0
 33
0.0
 40
0.0
 40
0.0
 40
0.0
 40
0.0
 40
0.2500000000000014
 40
0.2500000000000014
 40
0.5000000000000029
 40
0.5000000000000029
 40
1.0
 40
1.0
 40
1.0
 40
1.0
 10
535.8905205385757
 20
364.4244957050814
 30
0.0
 10
535.8905205385757
 20
364.0570124634132
 30
0.0
 10
535.9221870887661
 20
363.6878803050502
 30
0.0
 10
536.0447331874906
 20
362.9576600479517
 30
0.0
 10
536.1354948959427
 20
362.5949922070091
 30
0.0
 10
536.4855532693138
 20
361.513429961798
 30
0.0
 10
536.8223205658701
 20
360.8009517720798
 30
0.0
 10
537.2302665007312
 20
360.0943686861592
 30
0.0
  0
LINE
  5
163
330
1F
100
AcDbEntity
  8
0
  6
Continuous
 62
     7
370
    15
100
AcDbLine
 10
535.8905237572
 20
351.4341177472
 30
0.0
 11
535.8905237572
 21
364.4244955906
 31
0.0
  0
LINE
  5
164
330
1F
100
AcDbEntity
  8
0
  6
Continuous
 62
     7
370
    15
100
AcDbLine
 10
757.8905205647
 20
368.7546240219
 30
0.0
 11
772.5507751511
 21
368.7546240219
 31
0.0
  0
SPLINE
  5
165
330
1F
100
AcDbEntity
  8
0
  6
Continuous
 62
     7
370
    15
100
AcDbSpline
210
0.0
220
0.0
230
1.0
 70
     8
 71
     3
 72
    12
 73
     8
 74
     0
 42
0.00000001
 43
0.00000001
 12
1.0
 22
0.0
 32
0.0
 13
1.0
 23
0.0
 33
0.0
 40
0.0
 40
0.0
 40
0.0
 40
0.0
 40
0.2499999999999999
 40
0.2499999999999999
 40
0.4999999999999998
 40
0.4999999999999998
 40
1.0
 40
1.0
 40
1.0
 40
1.0
 10
773.8905205385757
 20
364.4244957050814
 30
0.0
 10
773.8905205385757
 20
364.7919789467496
 30
0.0
 10
773.8588539883854
 20
365.1611111051126
 30
0.0
 10
773.7363078896609
 20
365.8913313622111
 30
0.0
 10
773.6455461812087
 20
366.2539992031538
 30
0.0
 10
773.2954878078377
 20
367.3355614483648
 30
0.0
 10
772.9587205112813
 20
368.0480396380829
 30
0.0
 10
772.5507745764203
 20
368.7546227240036
 30
0.0
  0
SPLINE
  5
166
330
1F
100
AcDbEntity
  8
0
  6
Continuous
 62
     7
370
    15
100
AcDbSpline
210
0.0
220
0.0
230
1.0
 70
     8
 71
     3
 72
    10
 73
     6
 74
     0
 42
0.00000001
 43
0.00000001
 12
1.0
 22
0.0
 32
0.0
 13
1.0
 23
0.0
 33
0.0
 40
0.0
 40
0.0
 40
0.0
 40
0.0
 40
0.5
 40
0.5
 40
1.0
 40
1.0
 40
1.0
 40
1.0
 10
537.2302665007311
 20
368.7546227240036
 30
0.0
 10
536.8212992111456
 20
368.0462705998079
 30
0.0
 10
536.4843710135704
 20
367.3327444570323
 30
0.0
 10
536.0182054226345
 20
365.8907753249488
 30
0.0
 10
535.8905205385757
 20
365.1622208307377
 30
0.0
 10
535.8905205385757
 20
364.4244957050814
 30
0.0
  0
LINE
  5
167
330
1F
100
AcDbEntity
  8
0
  6
Continuous
 62
     7
370
    15
100
AcDbLine
 10
551.8905263798
 20
368.7546240219
 30
0.0
 11
537.230272259
 21
368.7546240219
 31
0.0
  0
LINE
  5
168
330
1F
100
AcDbEntity
  8
0
  6
Continuous
 62
     7
370
    15
100
AcDbLine
 10
757.8905205647
 20
589.8955302366
 30
0.0
 11
772.5507751511
 21
589.8955302366
 31
0.0
  0
SPLINE
  5
169
330
1F
100
AcDbEntity
  8
0
  6
Continuous
 62
     7
370
    15
100
AcDbSpline
210
0.0
220
0.0
230
1.0
 70
     8
 71
     3
 72
    12
 73
     8
 74
     0
 42
0.00000001
 43
0.00000001
 12
1.0
 22
0.0
 32
0.0
 13
1.0
 23
0.0
 33
0.0
 40
0.0
 40
0.0
 40
0.0
 40
0.0
 40
0.2499999999999994
 40
0.2499999999999994
 40
0.4999999999999988
 40
0.4999999999999988
 40
1.0
 40
1.0
 40
1.0
 40
1.0
 10
773.8905205385757
 20
587.6540898453599
 30
0.0
 10
773.8905205385757
 20
587.8443131687594
 30
0.0
 10
773.8588539883854
 20
588.0353900342476
 30
0.0
 10
773.7363078896609
 20
588.4133798535611
 30
0.0
 10
773.6455461812087
 20
588.6011105421254
 30
0.0
 10
773.2954878078377
 20
589.1609683571744
 30
0.0
 10
772.9587205112813
 20
589.5297742066128
 30
0.0
 10
772.5507745764203
 20
589.8955285257798
 30
0.0
  0
SPLINE
  5
16A
330
1F
100
AcDbEntity
  8
0
  6
Continuous
 62
     7
370
    15
100
AcDbSpline
210
0.0
220
0.0
230
1.0
 70
     8
 71
     3
 72
    10
 73
     6
 74
     0
 42
0.00000001
 43
0.00000001
 12
1.0
 22
0.0
 32
0.0
 13
1.0
 23
0.0
 33
0.0
 40
0.0
 40
0.0
 40
0.0
 40
0.0
 40
0.5
 40
0.5
 40
1.0
 40
1.0
 40
1.0
 40
1.0
 10
537.2302665007311
 20
589.8955285257798
 30
0.0
 10
536.8212992111456
 20
589.5288584850184
 30
0.0
 10
536.4843710135704
 20
589.1595101751609
 30
0.0
 10
536.0182054226345
 20
588.4130920274946
 30
0.0
 10
535.8905205385757
 20
588.0359644705009
 30
0.0
 10
535.8905205385757
 20
587.6540898453599
 30
0.0
  0
LINE
  5
16B
330
1F
100
AcDbEntity
  8
0
  6
Continuous
 62
     7
370
    15
100
AcDbLine
 10
551.8905263798
 20
589.8955302366
 30
0.0
 11
537.230272259
 21
589.8955302366
 31
0.0
  0
SPLINE
  5
16C
330
1F
100
AcDbEntity
  8
0
  6
Continuous
 62
     7
370
    15
100
AcDbSpline
210
0.0
220
0.0
230
1.0
 70
     8
 71
     3
 72
    11
 73
     7
 74
     0
 42
0.00000001
 43
0.00000001
 12
1.0
 22
0.0
 32
0.0
 13
1.0
 23
0.0
 33
0.0
 40
0.0
 40
0.0
 40
0.0
 40
0.0
 40
0.1328558498995083
 40
0.4218404708943194
 40
0.710957114004701
 40
1.0
 40
1.0
 40
1.0
 40
1.0
 10
773.5771466450764
 20
557.6360585221083
 30
0.0
 10
773.5476818645897
 20
557.582064171648
 30
0.0
 10
773.4541260528979
 20
557.4106227015058
 30
0.0
 10
773.2307576428801
 20
557.1244652076168
 30
0.0
 10
772.9210850924443
 20
556.7776684861357
 30
0.0
 10
772.6742012997345
 20
556.5491303891865
 30
0.0
 10
772.5507751511408
 20
556.4348759182723
 30
0.0
  0
LINE
  5
16D
330
1F
100
AcDbEntity
  8
0
  6
Continuous
 62
     7
370
    15
100
AcDbLine
 10
773.8905199276
 20
558.1651987561
 30
0.0
 11
773.8905199276
 21
562.5585975179
 31
0.0
  0
SPLINE
  5
16E
330
1F
100
AcDbEntity
  8
0
  6
Continuous
 62
     7
370
    15
100
AcDbSpline
210
0.0
220
0.0
230
1.0
 70
     8
 71
     3
 72
    11
 73
     7
 74
     0
 42
0.00000001
 43
0.00000001
 12
1.0
 22
0.0
 32
0.0
 13
1.0
 23
0.0
 33
0.0
 40
0.0
 40
0.0
 40
0.0
 40
0.0
 40
0.3051753779793709
 40
0.6104365080325203
 40
0.9155390364177066
 40
1.0
 40
1.0
 40
1.0
 40
1.0
 10
537.2302722590042
 20
556.4348759182723
 30
0.0
 10
537.1000818512823
 20
556.5555219038746
 30
0.0
 10
536.8396644532755
 20
556.7968477757288
 30
0.0
 10
536.5187278399993
 20
557.1633293747325
 30
0.0
 10
536.3022657961322
 20
557.4431602862261
 30
0.0
 10
536.2211900300748
 20
557.6016759588597
 30
0.0
 10
536.2036120550705
 20
557.6360436209471
 30
0.0
  0
LINE
  5
16F
330
1F
100
AcDbEntity
  8
0
  6
Continuous
 62
     7
370
    15
100
AcDbLine
 10
535.8905237572
 20
558.1651987561
 30
0.0
 11
535.8905237572
 21
562.5585975179
 31
0.0
  0
LINE
  5
170
330
1F
100
AcDbEntity
  8
0
  6
Continuous
 62
     7
370
    15
100
AcDbLine
 10
489.8905348437
 20
583.1652047166
 30
0.0
 11
489.8905348437
 21
563.1652014383
 31
0.0
  0
LINE
  5
171
330
1F
100
AcDbEntity
  8
0
  6
Continuous
 62
     7
370
    15
100
AcDbLine
 10
819.8905181544
 20
583.1652047166
 30
0.0
 11
819.8905181544
 21
563.1652014383
 31
0.0
  0
LINE
  5
172
330
1F
100
AcDbEntity
  8
0
  6
Continuous
 62
     7
370
    15
100
AcDbLine
 10
489.8905348437
 20
352.6881249675
 30
0.0
 11
489.8905348437
 21
341.4341123828
 31
0.0
  0
LINE
  5
173
330
1F
100
AcDbEntity
  8
0
  6
Continuous
 62
     7
370
    15
100
AcDbLine
 10
489.8905348437
 20
361.434115661
 30
0.0
 11
489.8905348437
 21
352.6881249675
 31
0.0
  0
LINE
  5
174
330
1F
100
AcDbEntity
  8
0
  6
Continuous
 62
     7
370
    15
100
AcDbLine
 10
819.8905181544
 20
352.6881249675
 30
0.0
 11
819.8905181544
 21
341.4341123828
 31
0.0
  0
LINE
  5
175
330
1F
100
AcDbEntity
  8
0
  6
Continuous
 62
     7
370
    15
100
AcDbLine
 10
819.8905181544
 20
361.434115661
 30
0.0
 11
819.8905181544
 21
352.6881249675
 31
0.0
  0
LINE
  5
176
330
1F
100
AcDbEntity
  8
0
  6
Continuous
 62
     7
370
    15
100
AcDbLine
 10
535.8905237572
 20
336.4341097006
 30
0.0
 11
535.8905237572
 21
338.4437324532
 31
0.0
  0
LINE
  5
177
330
1F
100
AcDbEntity
  8
0
  6
Continuous
 62
     7
370
    15
100
AcDbLine
 10
773.8905199276
 20
338.4437324532
 30
0.0
 11
773.8905199276
 21
336.4341097006
 31
0.0
  0
LINE
  5
178
330
1F
100
AcDbEntity
  8
0
  6
Continuous
 62
     7
370
    15
100
AcDbLine
 10
773.8905199276
 20
366.4341183432
 30
0.0
 11
773.8905199276
 21
364.4244955906
 31
0.0
  0
LINE
  5
179
330
1F
100
AcDbEntity
  8
0
  6
Continuous
 62
     7
370
    15
100
AcDbLine
 10
535.8905237572
 20
364.4244955906
 30
0.0
 11
535.8905237572
 21
366.4341183432
 31
0.0
  0
LINE
  5
17A
330
1F
100
AcDbEntity
  8
0
  6
Continuous
 62
     7
370
    15
100
AcDbLine
 10
773.8905199276
 20
588.1652073988
 30
0.0
 11
773.8905199276
 21
587.6540826687
 31
0.0
  0
LINE
  5
17B
330
1F
100
AcDbEntity
  8
0
  6
Continuous
 62
     7
370
    15
100
AcDbLine
 10
535.8905237572
 20
587.6540826687
 30
0.0
 11
535.8905237572
 21
588.1652073988
 31
0.0
  0
LINE
  5
17C
330
1F
100
AcDbEntity
  8
0
  6
Continuous
 62
     7
370
    15
100
AcDbLine
 10
551.8905263798
 20
555.8446930774
 30
0.0
 11
537.230272259
 21
555.8446930774
 31
0.0
  0
SPLINE
  5
17D
330
1F
100
AcDbEntity
  8
0
  6
Continuous
 62
     7
370
    15
100
AcDbSpline
210
0.0
220
0.0
230
1.0
 70
     8
 71
     3
 72
     9
 73
     5
 74
     0
 42
0.00000001
 43
0.00000001
 12
1.0
 22
0.0
 32
0.0
 13
1.0
 23
0.0
 33
0.0
 40
0.0
 40
0.0
 40
0.0
 40
0.0
 40
0.4577721989135556
 40
1.0
 40
1.0
 40
1.0
 40
1.0
 10
536.6053622620178
 20
557.0732640155585
 30
0.0
 10
536.6905982530438
 20
556.8845162455654
 30
0.0
 10
536.8767956482291
 20
556.4721981309202
 30
0.0
 10
537.1059943506039
 20
556.0653159225784
 30
0.0
 10
537.2302722590042
 20
555.8446930774481
 30
0.0
  0
LINE
  5
17E
330
1F
100
AcDbEntity
  8
0
  6
Continuous
 62
     7
370
    15
100
AcDbLine
 10
757.8905205647
 20
590.4857056268
 30
0.0
 11
772.5507751511
 21
590.4857056268
 31
0.0
  0
SPLINE
  5
17F
330
1F
100
AcDbEntity
  8
0
  6
Continuous
 62
     7
370
    15
100
AcDbSpline
210
0.0
220
0.0
230
1.0
 70
     8
 71
     3
 72
     9
 73
     5
 74
     0
 42
0.00000001
 43
0.00000001
 12
1.0
 22
0.0
 32
0.0
 13
1.0
 23
0.0
 33
0.0
 40
0.0
 40
0.0
 40
0.0
 40
0.0
 40
0.4555485088697364
 40
1.0
 40
1.0
 40
1.0
 40
1.0
 10
773.1733140008522
 20
589.2621861823828
 30
0.0
 10
773.0888216741085
 20
589.4492476994345
 30
0.0
 10
772.9033478439925
 20
589.859876893493
 30
0.0
 10
772.6750644081731
 20
590.2650878936115
 30
0.0
 10
772.5507751511408
 20
590.4857056268485
 30
0.0
  0
SPLINE
  5
180
330
1F
100
AcDbEntity
  8
0
  6
Continuous
 62
     7
370
    15
100
AcDbSpline
210
0.0
220
0.0
230
1.0
 70
     8
 71
     3
 72
     9
 73
     5
 74
     0
 42
0.00000001
 43
0.00000001
 12
1.0
 22
0.0
 32
0.0
 13
1.0
 23
0.0
 33
0.0
 40
0.0
 40
0.0
 40
0.0
 40
0.0
 40
0.5772102547132857
 40
1.0
 40
1.0
 40
1.0
 40
1.0
 10
772.5507751511408
 20
555.8446930774481
 30
0.0
 10
772.6821319584326
 20
556.0776200013298
 30
0.0
 10
772.9097038115298
 20
556.4811591311008
 30
0.0
 10
773.0919134546599
 20
556.8903835563373
 30
0.0
 10
773.1689498232676
 20
557.0633994468482
 30
0.0
  0
LINE
  5
181
330
1F
100
AcDbEntity
  8
0
  6
Continuous
 62
     7
370
    15
100
AcDbLine
 10
757.8905205647
 20
555.8446930774
 30
0.0
 11
772.5507751511
 21
555.8446930774
 31
0.0
  0
SPLINE
  5
182
330
1F
100
AcDbEntity
  8
0
  6
Continuous
 62
     7
370
    15
100
AcDbSpline
210
0.0
220
0.0
230
1.0
 70
     8
 71
     3
 72
     9
 73
     5
 74
     0
 42
0.00000001
 43
0.00000001
 12
1.0
 22
0.0
 32
0.0
 13
1.0
 23
0.0
 33
0.0
 40
0.0
 40
0.0
 40
0.0
 40
0.0
 40
0.5749475431094191
 40
1.0
 40
1.0
 40
1.0
 40
1.0
 10
537.2302722590042
 20
590.4857056268485
 30
0.0
 10
537.0989310893548
 20
590.2527792264118
 30
0.0
 10
536.8704908234149
 20
589.8476528749246
 30
0.0
 10
536.687600425622
 20
589.4368141793307
 30
0.0
 10
536.6098624126984
 20
589.2621861823828
 30
0.0
  0
LINE
  5
183
330
1F
100
AcDbEntity
  8
0
  6
Continuous
 62
     7
370
    15
100
AcDbLine
 10
551.8905263798
 20
590.4857056268
 30
0.0
 11
537.230272259
 21
590.4857056268
 31
0.0
  0
SPLINE
  5
184
330
1F
100
AcDbEntity
  8
0
  6
Continuous
 62
     7
370
    15
100
AcDbSpline
210
0.0
220
0.0
230
1.0
 70
     8
 71
     3
 72
     9
 73
     5
 74
     0
 42
0.00000001
 43
0.00000001
 12
1.0
 22
0.0
 32
0.0
 13
1.0
 23
0.0
 33
0.0
 40
0.0
 40
0.0
 40
0.0
 40
0.0
 40
0.6343538926108895
 40
1.0
 40
1.0
 40
1.0
 40
1.0
 10
537.2302722590042
 20
524.9519931205542
 30
0.0
 10
537.0850355985307
 20
524.5886781338966
 30
0.0
 10
536.8560834912522
 20
524.0159457980672
 30
0.0
 10
536.6781221374699
 20
523.4343342729106
 30
0.0
 10
536.6130512611938
 20
523.2216702827246
 30
0.0
  0
LINE
  5
185
330
1F
100
AcDbEntity
  8
0
  6
Continuous
 62
     7
370
    15
100
AcDbLine
 10
551.8905263798
 20
524.9519931206
 30
0.0
 11
537.230272259
 21
524.9519931206
 31
0.0
  0
LINE
  5
186
330
1F
100
AcDbEntity
  8
0
  6
Continuous
 62
     7
370
    15
100
AcDbLine
 10
757.8905205647
 20
524.9519931206
 30
0.0
 11
772.5507751511
 21
524.9519931206
 31
0.0
  0
SPLINE
  5
187
330
1F
100
AcDbEntity
  8
0
  6
Continuous
 62
     7
370
    15
100
AcDbSpline
210
0.0
220
0.0
230
1.0
 70
     8
 71
     3
 72
    10
 73
     6
 74
     0
 42
0.00000001
 43
0.00000001
 12
1.0
 22
0.0
 32
0.0
 13
1.0
 23
0.0
 33
0.0
 40
0.0
 40
0.0
 40
0.0
 40
0.0
 40
0.104528274440681
 40
0.5520805234561471
 40
1.0
 40
1.0
 40
1.0
 40
1.0
 10
773.1715295867992
 20
523.2216702827246
 30
0.0
 10
773.154252593596
 20
523.282673817009
 30
0.0
 10
773.0630017669415
 20
523.604872411797
 30
0.0
 10
772.8539095201154
 20
524.1817916060332
 30
0.0
 10
772.6518475622605
 20
524.6951891019797
 30
0.0
 10
772.5507751511408
 20
524.9519931205542
 30
0.0
  0
SPLINE
  5
188
330
1F
100
AcDbEntity
  8
0
  6
Continuous
 62
     7
370
    15
100
AcDbSpline
210
0.0
220
0.0
230
1.0
 70
     8
 71
     3
 72
    12
 73
     8
 74
     0
 42
0.00000001
 43
0.00000001
 12
1.0
 22
0.0
 32
0.0
 13
1.0
 23
0.0
 33
0.0
 40
0.0
 40
0.0
 40
0.0
 40
0.0
 40
0.213017055803768
 40
0.4260943793825216
 40
0.6390603737832504
 40
0.8560493423178998
 40
1.0
 40
1.0
 40
1.0
 40
1.0
 10
772.5507751511408
 20
491.4913443901569
 30
0.0
 10
772.6806289876426
 20
491.6120031785874
 30
0.0
 10
772.9403733994972
 20
491.8533548927935
 30
0.0
 10
773.266303656076
 20
492.2196557108384
 30
0.0
 10
773.5342422305602
 20
492.5913529797147
 30
0.0
 10
773.7202463752318
 20
492.9256039823954
 30
0.0
 10
773.7816814301123
 20
493.1372584847951
 30
0.0
 10
773.8061830805613
 20
493.2216709532768
 30
0.0
  0
LINE
  5
189
330
1F
100
AcDbEntity
  8
0
  6
Continuous
 62
     7
370
    15
100
AcDbLine
 10
757.8905205647
 20
491.4913443902
 30
0.0
 11
772.5507751511
 21
491.4913443902
 31
0.0
  0
LINE
  5
18A
330
1F
100
AcDbEntity
  8
0
  6
Continuous
 62
     7
370
    15
100
AcDbLine
 10
551.8905263798
 20
491.4913443902
 30
0.0
 11
537.230272259
 21
491.4913443902
 31
0.0
  0
SPLINE
  5
18B
330
1F
100
AcDbEntity
  8
0
  6
Continuous
 62
     7
370
    15
100
AcDbSpline
210
0.0
220
0.0
230
1.0
 70
     8
 71
     3
 72
    12
 73
     8
 74
     0
 42
0.00000001
 43
0.00000001
 12
1.0
 22
0.0
 32
0.0
 13
1.0
 23
0.0
 33
0.0
 40
0.0
 40
0.0
 40
0.0
 40
0.0
 40
0.1966768722711243
 40
0.3947904032213723
 40
0.5964822793022491
 40
0.7982661733522874
 40
1.0
 40
1.0
 40
1.0
 40
1.0
 10
535.9658640282227
 20
493.2216709532768
 30
0.0
 10
536.0058121844456
 20
493.1064637751318
 30
0.0
 10
536.086000304793
 20
492.8752078689918
 30
0.0
 10
536.2882880611073
 20
492.5282014347812
 30
0.0
 10
536.5479119193258
 20
492.1808378282685
 30
0.0
 10
536.86053853253
 20
491.8341623243618
 30
0.0
 10
537.1070378785065
 20
491.6056075820709
 30
0.0
 10
537.2302722590042
 20
491.4913443901569
 30
0.0
  0
SPLINE
  5
18C
330
1F
100
AcDbEntity
  8
0
  6
Continuous
 62
     7
370
    15
100
AcDbSpline
210
0.0
220
0.0
230
1.0
 70
     8
 71
     3
 72
    11
 73
     7
 74
     0
 42
0.00000001
 43
0.00000001
 12
1.0
 22
0.0
 32
0.0
 13
1.0
 23
0.0
 33
0.0
 40
0.0
 40
0.0
 40
0.0
 40
0.0
 40
0.3051751600191012
 40
0.6104365619769901
 40
0.9155387672015279
 40
1.0
 40
1.0
 40
1.0
 40
1.0
 10
772.5507751511408
 20
524.9519931205542
 30
0.0
 10
772.6809613933914
 20
524.8313462328829
 30
0.0
 10
772.9413706682851
 20
524.5900183629518
 30
0.0
 10
773.2623139660244
 20
524.2235501398475
 30
0.0
 10
773.4787803919272
 20
523.943699564531
 30
0.0
 10
773.5598463989473
 20
523.7851976598275
 30
0.0
 10
773.5774223165585
 20
523.75083286846
 30
0.0
  0
SPLINE
  5
18D
330
1F
100
AcDbEntity
  8
0
  6
Continuous
 62
     7
370
    15
100
AcDbSpline
210
0.0
220
0.0
230
1.0
 70
     8
 71
     3
 72
    11
 73
     7
 74
     0
 42
0.00000001
 43
0.00000001
 12
1.0
 22
0.0
 32
0.0
 13
1.0
 23
0.0
 33
0.0
 40
0.0
 40
0.0
 40
0.0
 40
0.0
 40
0.1328554140732535
 40
0.4218396251191432
 40
0.7109556804358457
 40
1.0
 40
1.0
 40
1.0
 40
1.0
 10
536.2038951771332
 20
523.7508179672988
 30
0.0
 10
536.2333568823209
 20
523.8048106925578
 30
0.0
 10
536.3269030487188
 20
523.9762472210676
 30
0.0
 10
536.5502855331472
 20
524.2624159216349
 30
0.0
 10
536.8599451887633
 20
524.6091989192178
 30
0.0
 10
537.1068401134917
 20
524.8377378388305
 30
0.0
 10
537.2302722590042
 20
524.9519931205542
 30
0.0
  0
LINE
  5
18E
330
1F
100
AcDbEntity
  8
0
  6
Continuous
 62
     8
370
    15
100
AcDbLine
 10
648.7030279296
 20
542.5703512558
 30
0.0
 11
648.7030279296
 21
563.1652014383
 31
0.0
  0
LINE
  5
18F
330
1F
100
AcDbEntity
  8
0
  6
Continuous
 62
     8
370
    15
100
AcDbLine
 10
648.7030279296
 20
361.434115661
 30
0.0
 11
648.7030279296
 21
406.3776457735
 31
0.0
  0
LINE
  5
190
330
1F
100
AcDbEntity
  8
0
  6
Continuous
 62
     8
370
    15
100
AcDbLine
 10
648.7030279296
 20
426.3776453265
 30
0.0
 11
648.7030279296
 21
498.2216717728
 31
0.0
  0
LINE
  5
191
330
1F
100
AcDbEntity
  8
0
  6
Continuous
 62
     8
370
    15
100
AcDbLine
 10
648.7030279296
 20
518.2216713258
 30
0.0
 11
648.7030279296
 21
542.5703512558
 31
0.0
  0
LINE
  5
192
330
1F
100
AcDbEntity
  8
0
  6
Continuous
 62
     8
370
    15
100
AcDbLine
 10
631.6610839622
 20
364.9613993295
 30
0.0
 11
631.6610839622
 21
406.3776457735
 31
0.0
  0
LINE
  5
193
330
1F
100
AcDbEntity
  8
0
  6
Continuous
 62
     8
370
    15
100
AcDbLine
 10
631.6610839622
 20
426.3776453265
 30
0.0
 11
631.6610839622
 21
498.2216717728
 31
0.0
  0
LINE
  5
194
330
1F
100
AcDbEntity
  8
0
  6
Continuous
 62
     8
370
    15
100
AcDbLine
 10
631.6610839622
 20
518.2216713258
 30
0.0
 11
631.6610839622
 21
559.6379177698
 31
0.0
  0
LINE
  5
195
330
1F
100
AcDbEntity
  8
0
  6
Continuous
 62
     8
370
    15
100
AcDbLine
 10
634.4856363194
 20
364.8133711942
 30
0.0
 11
634.4856363194
 21
406.3776457735
 31
0.0
  0
LINE
  5
196
330
1F
100
AcDbEntity
  8
0
  6
Continuous
 62
     8
370
    15
100
AcDbLine
 10
634.4856363194
 20
426.3776453265
 30
0.0
 11
634.4856363194
 21
498.2216717728
 31
0.0
  0
LINE
  5
197
330
1F
100
AcDbEntity
  8
0
  6
Continuous
 62
     8
370
    15
100
AcDbLine
 10
634.4856363194
 20
518.2216713258
 30
0.0
 11
634.4856363194
 21
559.7859459051
 31
0.0
  0
LINE
  5
198
330
1F
100
AcDbEntity
  8
FORMAT
  6
CENTERX2
370
     0
100
AcDbLine
 10
502.8733736244
 20
462.2996585497
 30
0.0
 11
802.4911270373
 21
462.2996585497
 31
0.0
  0
CIRCLE
  5
199
330
1F
100
AcDbEntity
  8
0
  6
Continuous
 62
     7
370
    15
100
AcDbCircle
 10
256.845762267
 20
508.2216704335
 30
0.0
 40
9.999999999999975
  0
CIRCLE
  5
19A
330
1F
100
AcDbEntity
  8
0
  6
Continuous
 62
     7
370
    15
100
AcDbCircle
 10
256.845762267
 20
416.3776466659
 30
0.0
 40
9.999999999999945
  0
CIRCLE
  5
19B
330
1F
100
AcDbEntity
  8
0
  6
Continuous
 62
     7
370
    15
100
AcDbCircle
 10
191.9022302495
 20
351.4341146483
 30
0.0
 40
9.999999999999986
  0
CIRCLE
  5
19C
330
1F
100
AcDbEntity
  8
0
  6
Continuous
 62
     7
370
    15
100
AcDbCircle
 10
191.9022302495
 20
573.165202451
 30
0.0
 40
9.999999999999996
  0
CIRCLE
  5
19D
330
1F
100
AcDbEntity
  8
0
  6
Continuous
 62
     7
370
    15
100
AcDbCircle
 10
100.0582064819
 20
573.165202451
 30
0.0
 40
9.999999999999973
  0
CIRCLE
  5
19E
330
1F
100
AcDbEntity
  8
0
  6
Continuous
 62
     7
370
    15
100
AcDbCircle
 10
100.0582064819
 20
351.4341146483
 30
0.0
 40
9.999999999999996
  0
CIRCLE
  5
19F
330
1F
100
AcDbEntity
  8
0
  6
Continuous
 62
     7
370
    15
100
AcDbCircle
 10
35.1146744643
 20
416.3776466659
 30
0.0
 40
9.999999999999975
  0
CIRCLE
  5
1A0
330
1F
100
AcDbEntity
  8
0
  6
Continuous
 62
     7
370
    15
100
AcDbCircle
 10
35.1146744643
 20
508.2216704335
 30
0.0
 40
10.00000000000001
  0
SPLINE
  5
1A1
330
1F
100
AcDbEntity
  8
0
  6
Continuous
 62
     7
370
    15
100
AcDbSpline
210
0.0
220
0.0
230
1.0
 70
    24
 71
     3
 72
    12
 73
     8
 74
     0
 42
0.00000001
 43
0.00000001
 12
1.0
 22
0.0
 32
0.0
 13
1.0
 23
0.0
 33
0.0
 40
0.0
 40
0.0
 40
0.0
 40
0.0
 40
0.2500000000000001
 40
0.2500000000000001
 40
0.5000000000000001
 40
0.5000000000000001
 40
1.0
 40
1.0
 40
1.0
 40
1.0
 10
271.3346496613652
 20
512.1039561100192
 30
0.0
 10
271.5248729847647
 20
511.3940330023078
 30
0.0
 10
271.7159498502529
 20
510.6809244321544
 30
0.0
 10
272.0939396695664
 20
509.2702472217326
 30
0.0
 10
272.2816703581308
 20
508.5696267538706
 30
0.0
 10
272.8415281731798
 20
506.4802089430934
 30
0.0
 10
273.2103340226182
 20
505.1038067748607
 30
0.0
 10
273.5760883417852
 20
503.7387930726412
 30
0.0
  0
SPLINE
  5
1A2
330
1F
100
AcDbEntity
  8
0
  6
Continuous
 62
     7
370
    15
100
AcDbSpline
210
0.0
220
0.0
230
1.0
 70
    24
 71
     3
 72
    12
 73
     8
 74
     0
 42
0.00000001
 43
0.00000001
 12
1.0
 22
0.0
 32
0.0
 13
1.0
 23
0.0
 33
0.0
 40
0.0
 40
0.0
 40
0.0
 40
0.0
 40
0.25
 40
0.25
 40
0.5
 40
0.5
 40
1.0
 40
1.0
 40
1.0
 40
1.0
 10
273.5760883417852
 20
503.7387930726412
 30
0.0
 10
273.0781012645339
 20
503.2408059953897
 30
0.0
 10
272.5755402320189
 20
502.7382449628748
 30
0.0
 10
271.5588566429829
 20
501.7215613738388
 30
0.0
 10
271.0488502263185
 20
501.2115549571743
 30
0.0
 10
269.5152771016834
 20
499.6779818325393
 30
0.0
 10
268.4871726923778
 20
498.6498774232336
 30
0.0
 10
267.4523639848273
 20
497.6150687156832
 30
0.0
  0
ARC
  5
1A3
330
1F
100
AcDbEntity
  8
0
  6
Continuous
 62
     7
370
    15
100
AcDbCircle
 10
256.845762267
 20
508.2216704335
 30
0.0
 40
15.0
100
AcDbArc
 50
315.0
 51
15.0
  0
SPLINE
  5
1A4
330
1F
100
AcDbEntity
  8
0
  6
Continuous
 62
     7
370
    15
100
AcDbSpline
210
0.0
220
0.0
230
1.0
 70
    24
 71
     3
 72
    10
 73
     6
 74
     0
 42
0.00000001
 43
0.00000001
 12
1.0
 22
0.0
 32
0.0
 13
1.0
 23
0.0
 33
0.0
 40
0.0
 40
0.0
 40
0.0
 40
0.0
 40
0.5
 40
0.5
 40
1.0
 40
1.0
 40
1.0
 40
1.0
 10
274.1662703427189
 20
416.3776466658597
 30
0.0
 10
273.4579182185232
 20
415.1507447971034
 30
0.0
 10
272.7443920757476
 20
413.9148812652875
 30
0.0
 10
271.3024229436641
 20
411.4173174655729
 30
0.0
 10
270.573868449453
 20
410.1554240655166
 30
0.0
 10
269.8361433237966
 20
408.8776466658597
 30
0.0
  0
ARC
  5
1A5
330
1F
100
AcDbEntity
  8
0
  6
Continuous
 62
     7
370
    15
100
AcDbCircle
 10
256.845762267
 20
416.3776466659
 30
0.0
 40
15.00000000000002
100
AcDbArc
 50
330.0
 51
30.0
  0
SPLINE
  5
1A6
330
1F
100
AcDbEntity
  8
0
  6
Continuous
 62
     7
370
    15
100
AcDbSpline
210
0.0
220
0.0
230
1.0
 70
    24
 71
     3
 72
    12
 73
     8
 74
     0
 42
0.00000001
 43
0.00000001
 12
1.0
 22
0.0
 32
0.0
 13
1.0
 23
0.0
 33
0.0
 40
0.0
 40
0.0
 40
0.0
 40
0.0
 40
0.2500000000000001
 40
0.2500000000000001
 40
0.5000000000000001
 40
0.5000000000000001
 40
1.0
 40
1.0
 40
1.0
 40
1.0
 10
269.8361433237967
 20
423.8776466658596
 30
0.0
 10
270.2036265654649
 20
423.2411470203602
 30
0.0
 10
270.5727587238279
 20
422.601791367368
 30
0.0
 10
271.3029789809263
 20
421.3370127813573
 30
0.0
 10
271.665646821869
 20
420.7088536545733
 30
0.0
 10
272.7472090670801
 20
418.8355328943194
 30
0.0
 10
273.4596872567982
 20
417.6014844704429
 30
0.0
 10
274.1662703427189
 20
416.3776466658596
 30
0.0
  0
ARC
  5
1A7
330
1F
100
AcDbEntity
  8
0
  6
Continuous
 62
     7
370
    15
100
AcDbCircle
 10
256.845762267
 20
416.3776466659
 30
0.0
 40
15.0
100
AcDbArc
 50
90.0
 51
150.0
  0
ARC
  5
1A8
330
1F
100
AcDbEntity
  8
0
  6
Continuous
 62
     7
370
    15
100
AcDbCircle
 10
256.845762267
 20
416.3776466659
 30
0.0
 40
15.00000000000002
100
AcDbArc
 50
30.0
 51
90.0
  0
ARC
  5
1A9
330
1F
100
AcDbEntity
  8
0
  6
Continuous
 62
     7
370
    15
100
AcDbCircle
 10
256.845762267
 20
416.3776466659
 30
0.0
 40
15.0
100
AcDbArc
 50
270.0
 51
330.0
  0
ARC
  5
1AA
330
1F
100
AcDbEntity
  8
0
  6
Continuous
 62
     7
370
    15
100
AcDbCircle
 10
256.845762267
 20
416.3776466659
 30
0.0
 40
15.0
100
AcDbArc
 50
210.0
 51
270.0
  0
ARC
  5
1AB
330
1F
100
AcDbEntity
  8
0
  6
Continuous
 62
     7
370
    15
100
AcDbCircle
 10
256.845762267
 20
416.3776466659
 30
0.0
 40
15.0
100
AcDbArc
 50
150.0
 51
210.0
  0
ARC
  5
1AC
330
1F
100
AcDbEntity
  8
0
  6
Continuous
 62
     7
370
    15
100
AcDbCircle
 10
256.845762267
 20
508.2216704335
 30
0.0
 40
15.00000000000003
100
AcDbArc
 50
135.0
 51
195.0
  0
ARC
  5
1AD
330
1F
100
AcDbEntity
  8
0
  6
Continuous
 62
     7
370
    15
100
AcDbCircle
 10
256.845762267
 20
508.2216704335
 30
0.0
 40
15.00000000000006
100
AcDbArc
 50
75.0
 51
135.0
  0
ARC
  5
1AE
330
1F
100
AcDbEntity
  8
0
  6
Continuous
 62
     7
370
    15
100
AcDbCircle
 10
256.845762267
 20
508.2216704335
 30
0.0
 40
15.00000000000006
100
AcDbArc
 50
15.0
 51
75.0
  0
ARC
  5
1AF
330
1F
100
AcDbEntity
  8
0
  6
Continuous
 62
     7
370
    15
100
AcDbCircle
 10
256.845762267
 20
508.2216704335
 30
0.0
 40
15.00000000000001
100
AcDbArc
 50
255.0
 51
315.0
  0
ARC
  5
1B0
330
1F
100
AcDbEntity
  8
0
  6
Continuous
 62
     7
370
    15
100
AcDbCircle
 10
256.845762267
 20
508.2216704335
 30
0.0
 40
15.00000000000003
100
AcDbArc
 50
195.0
 51
255.0
  0
SPLINE
  5
1B1
330
1F
100
AcDbEntity
  8
0
  6
Continuous
 62
     7
370
    15
100
AcDbSpline
210
0.0
220
0.0
230
1.0
 70
    24
 71
     3
 72
    12
 73
     8
 74
     0
 42
0.00000001
 43
0.00000001
 12
1.0
 22
0.0
 32
0.0
 13
1.0
 23
0.0
 33
0.0
 40
0.0
 40
0.0
 40
0.0
 40
0.0
 40
0.2499999999999988
 40
0.2499999999999988
 40
0.4999999999999976
 40
0.4999999999999976
 40
1.0
 40
1.0
 40
1.0
 40
1.0
 10
260.728047943567
 20
522.7105578278175
 30
0.0
 10
261.4379710512785
 20
522.520334504418
 30
0.0
 10
262.1510796214317
 20
522.3292576389297
 30
0.0
 10
263.5617568318535
 20
521.9512678196162
 30
0.0
 10
264.2623772997156
 20
521.7635371310519
 30
0.0
 10
266.3517951104927
 20
521.2036793160029
 30
0.0
 10
267.7281972787255
 20
520.8348734665644
 30
0.0
 10
269.0932109809451
 20
520.4691191473972
 30
0.0
  0
SPLINE
  5
1B2
330
1F
100
AcDbEntity
  8
0
  6
Continuous
 62
     7
370
    15
100
AcDbSpline
210
0.0
220
0.0
230
1.0
 70
    24
 71
     3
 72
    10
 73
     6
 74
     0
 42
0.00000001
 43
0.00000001
 12
1.0
 22
0.0
 32
0.0
 13
1.0
 23
0.0
 33
0.0
 40
0.0
 40
0.0
 40
0.0
 40
0.0
 40
0.5
 40
0.5
 40
1.0
 40
1.0
 40
1.0
 40
1.0
 10
269.0932109809451
 20
520.4691191473974
 30
0.0
 10
269.4598810217065
 20
519.1006879256627
 30
0.0
 10
269.8292293315641
 20
517.722261267584
 30
0.0
 10
270.5756474792304
 20
514.9365908168019
 30
0.0
 10
270.9527750362242
 20
513.5291316131669
 30
0.0
 10
271.3346496613652
 20
512.1039561100192
 30
0.0
  0
SPLINE
  5
1B3
330
1F
100
AcDbEntity
  8
0
  6
Continuous
 62
     7
370
    15
100
AcDbSpline
210
0.0
220
0.0
230
1.0
 70
    24
 71
     3
 72
    12
 73
     8
 74
     0
 42
0.00000001
 43
0.00000001
 12
1.0
 22
0.0
 32
0.0
 13
1.0
 23
0.0
 33
0.0
 40
0.0
 40
0.0
 40
0.0
 40
0.0
 40
0.2499999999999988
 40
0.2499999999999988
 40
0.4999999999999976
 40
0.4999999999999976
 40
1.0
 40
1.0
 40
1.0
 40
1.0
 10
265.5060163048744
 20
401.3776466658597
 30
0.0
 10
264.801756226339
 20
401.3776466658597
 30
0.0
 10
264.091027598236
 20
401.3776466658597
 30
0.0
 10
262.6532198779792
 20
401.3776466658597
 30
0.0
 10
261.931961886635
 20
401.3776466658597
 30
0.0
 10
259.7631619748853
 20
401.3776466658597
 30
0.0
 10
258.3092027757096
 20
401.3776466658597
 30
0.0
 10
256.84576226703
 20
401.3776466658597
 30
0.0
  0
SPLINE
  5
1B4
330
1F
100
AcDbEntity
  8
0
  6
Continuous
 62
     7
370
    15
100
AcDbSpline
210
0.0
220
0.0
230
1.0
 70
    24
 71
     3
 72
    12
 73
     8
 74
     0
 42
0.00000001
 43
0.00000001
 12
1.0
 22
0.0
 32
0.0
 13
1.0
 23
0.0
 33
0.0
 40
0.0
 40
0.0
 40
0.0
 40
0.0
 40
0.2499999999999999
 40
0.2499999999999999
 40
0.4999999999999999
 40
0.4999999999999999
 40
1.0
 40
1.0
 40
1.0
 40
1.0
 10
269.8361433237966
 20
408.8776466658597
 30
0.0
 10
269.4686600821284
 20
408.2411470203602
 30
0.0
 10
269.0995279237654
 20
407.601791367368
 30
0.0
 10
268.3693076666669
 20
406.3370127813574
 30
0.0
 10
268.0066398257243
 20
405.7088536545733
 30
0.0
 10
266.9250775805132
 20
403.8355328943194
 30
0.0
 10
266.212599390795
 20
402.601484470443
 30
0.0
 10
265.5060163048744
 20
401.3776466658597
 30
0.0
  0
SPLINE
  5
1B5
330
1F
100
AcDbEntity
  8
0
  6
Continuous
 62
     7
370
    15
100
AcDbSpline
210
0.0
220
0.0
230
1.0
 70
    24
 71
     3
 72
    12
 73
     8
 74
     0
 42
0.00000001
 43
0.00000001
 12
1.0
 22
0.0
 32
0.0
 13
1.0
 23
0.0
 33
0.0
 40
0.0
 40
0.0
 40
0.0
 40
0.0
 40
0.2499999999999988
 40
0.2499999999999988
 40
0.4999999999999976
 40
0.4999999999999976
 40
1.0
 40
1.0
 40
1.0
 40
1.0
 10
265.5060163048745
 20
431.3776466658596
 30
0.0
 10
264.8017562263391
 20
431.3776466658597
 30
0.0
 10
264.0910275982361
 20
431.3776466658596
 30
0.0
 10
262.6532198779793
 20
431.3776466658597
 30
0.0
 10
261.9319618866351
 20
431.3776466658597
 30
0.0
 10
259.7631619748854
 20
431.3776466658597
 30
0.0
 10
258.3092027757097
 20
431.3776466658597
 30
0.0
 10
256.8457622670301
 20
431.3776466658597
 30
0.0
  0
SPLINE
  5
1B6
330
1F
100
AcDbEntity
  8
0
  6
Continuous
 62
     7
370
    15
100
AcDbSpline
210
0.0
220
0.0
230
1.0
 70
    24
 71
     3
 72
    10
 73
     6
 74
     0
 42
0.00000001
 43
0.00000001
 12
1.0
 22
0.0
 32
0.0
 13
1.0
 23
0.0
 33
0.0
 40
0.0
 40
0.0
 40
0.0
 40
0.0
 40
0.5
 40
0.5
 40
1.0
 40
1.0
 40
1.0
 40
1.0
 10
265.5060163048745
 20
431.3776466658597
 30
0.0
 10
266.2143684290702
 20
430.1507447971034
 30
0.0
 10
266.9278945718457
 20
428.9148812652876
 30
0.0
 10
268.3698637039292
 20
426.4173174655729
 30
0.0
 10
269.0984181981403
 20
425.1554240655166
 30
0.0
 10
269.8361433237967
 20
423.8776466658596
 30
0.0
  0
SPLINE
  5
1B7
330
1F
100
AcDbEntity
  8
0
  6
Continuous
 62
     7
370
    15
100
AcDbSpline
210
0.0
220
0.0
230
1.0
 70
    24
 71
     3
 72
    10
 73
     6
 74
     0
 42
0.00000001
 43
0.00000001
 12
1.0
 22
0.0
 32
0.0
 13
1.0
 23
0.0
 33
0.0
 40
0.0
 40
0.0
 40
0.0
 40
0.0
 40
0.5
 40
0.5
 40
1.0
 40
1.0
 40
1.0
 40
1.0
 10
261.3286396278694
 20
491.4913443587253
 30
0.0
 10
259.9602084061348
 20
491.8580143994866
 30
0.0
 10
258.5817817480562
 20
492.2273627093443
 30
0.0
 10
255.796111297274
 20
492.9737808570106
 30
0.0
 10
254.388652093639
 20
493.3509084140044
 30
0.0
 10
252.9634765904914
 20
493.7327830391454
 30
0.0
  0
SPLINE
  5
1B8
330
1F
100
AcDbEntity
  8
0
  6
Continuous
 62
     7
370
    15
100
AcDbSpline
210
0.0
220
0.0
230
1.0
 70
    24
 71
     3
 72
    12
 73
     8
 74
     0
 42
0.00000001
 43
0.00000001
 12
1.0
 22
0.0
 32
0.0
 13
1.0
 23
0.0
 33
0.0
 40
0.0
 40
0.0
 40
0.0
 40
0.0
 40
0.2500000000000002
 40
0.2500000000000002
 40
0.5000000000000003
 40
0.5000000000000003
 40
1.0
 40
1.0
 40
1.0
 40
1.0
 10
267.4523639848273
 20
497.6150687156832
 30
0.0
 10
266.9346522228788
 20
497.0973569537346
 30
0.0
 10
266.4152821646353
 20
496.5779868954911
 30
0.0
 10
265.3732682600718
 20
495.5359729909277
 30
0.0
 10
264.856071569912
 20
495.0187763007679
 30
0.0
 10
263.3219720591207
 20
493.4846767899766
 30
0.0
 10
262.3188117162459
 20
492.4815164471018
 30
0.0
 10
261.3286396278693
 20
491.4913443587253
 30
0.0
  0
SPLINE
  5
1B9
330
1F
100
AcDbEntity
  8
0
  6
Continuous
 62
     7
370
    15
100
AcDbSpline
210
0.0
220
0.0
230
1.0
 70
    24
 71
     3
 72
    12
 73
     8
 74
     0
 42
0.00000001
 43
0.00000001
 12
1.0
 22
0.0
 32
0.0
 13
1.0
 23
0.0
 33
0.0
 40
0.0
 40
0.0
 40
0.0
 40
0.0
 40
0.2500000000000008
 40
0.2500000000000008
 40
0.5000000000000017
 40
0.5000000000000017
 40
1.0
 40
1.0
 40
1.0
 40
1.0
 10
252.3628849061889
 20
524.9519965082377
 30
0.0
 10
251.8648978289375
 20
524.4540094309862
 30
0.0
 10
251.3623367964225
 20
523.9514483984711
 30
0.0
 10
250.3456532073866
 20
522.9347648094353
 30
0.0
 10
249.8356467907221
 20
522.4247583927709
 30
0.0
 10
248.3020736660871
 20
520.8911852681357
 30
0.0
 10
247.2739692567814
 20
519.86308085883
 30
0.0
 10
246.2391605492309
 20
518.8282721512796
 30
0.0
  0
SPLINE
  5
1BA
330
1F
100
AcDbEntity
  8
0
  6
Continuous
 62
     7
370
    15
100
AcDbSpline
210
0.0
220
0.0
230
1.0
 70
    24
 71
     3
 72
    10
 73
     6
 74
     0
 42
0.00000001
 43
0.00000001
 12
1.0
 22
0.0
 32
0.0
 13
1.0
 23
0.0
 33
0.0
 40
0.0
 40
0.0
 40
0.0
 40
0.0
 40
0.5
 40
0.5
 40
1.0
 40
1.0
 40
1.0
 40
1.0
 10
252.3628849061889
 20
524.9519965082377
 30
0.0
 10
253.7313161279235
 20
524.5853264674762
 30
0.0
 10
255.1097427860022
 20
524.2159781576186
 30
0.0
 10
257.8954132367843
 20
523.4695600099523
 30
0.0
 10
259.3028724404193
 20
523.0924324529584
 30
0.0
 10
260.728047943567
 20
522.7105578278175
 30
0.0
  0
SPLINE
  5
1BB
330
1F
100
AcDbEntity
  8
0
  6
Continuous
 62
     7
370
    15
100
AcDbSpline
210
0.0
220
0.0
230
1.0
 70
    24
 71
     3
 72
    10
 73
     6
 74
     0
 42
0.00000001
 43
0.00000001
 12
1.0
 22
0.0
 32
0.0
 13
1.0
 23
0.0
 33
0.0
 40
0.0
 40
0.0
 40
0.0
 40
0.0
 40
0.5
 40
0.5
 40
1.0
 40
1.0
 40
1.0
 40
1.0
 10
248.1855082291856
 20
401.3776466658597
 30
0.0
 10
247.4771561049899
 20
402.604548534616
 30
0.0
 10
246.7636299622145
 20
403.8404120664318
 30
0.0
 10
245.3216608301309
 20
406.3379758661465
 30
0.0
 10
244.5931063359199
 20
407.5998692662027
 30
0.0
 10
243.8553812102635
 20
408.8776466658597
 30
0.0
  0
SPLINE
  5
1BC
330
1F
100
AcDbEntity
  8
0
  6
Continuous
 62
     7
370
    15
100
AcDbSpline
210
0.0
220
0.0
230
1.0
 70
    24
 71
     3
 72
    12
 73
     8
 74
     0
 42
0.00000001
 43
0.00000001
 12
1.0
 22
0.0
 32
0.0
 13
1.0
 23
0.0
 33
0.0
 40
0.0
 40
0.0
 40
0.0
 40
0.0
 40
0.2500000000000001
 40
0.2500000000000001
 40
0.5000000000000001
 40
0.5000000000000001
 40
1.0
 40
1.0
 40
1.0
 40
1.0
 10
256.84576226703
 20
401.3776466658597
 30
0.0
 10
256.1136072718822
 20
401.3776466658597
 30
0.0
 10
255.3791070916238
 20
401.3776466658597
 30
0.0
 10
253.9054768956088
 20
401.3776466658597
 30
0.0
 10
253.1740503219704
 20
401.3776466658597
 30
0.0
 10
251.0045059877794
 20
401.3776466658597
 30
0.0
 10
249.5858230256511
 20
401.3776466658597
 30
0.0
 10
248.1855082291856
 20
401.3776466658597
 30
0.0
  0
SPLINE
  5
1BD
330
1F
100
AcDbEntity
  8
0
  6
Continuous
 62
     7
370
    15
100
AcDbSpline
210
0.0
220
0.0
230
1.0
 70
    24
 71
     3
 72
    12
 73
     8
 74
     0
 42
0.00000001
 43
0.00000001
 12
1.0
 22
0.0
 32
0.0
 13
1.0
 23
0.0
 33
0.0
 40
0.0
 40
0.0
 40
0.0
 40
0.0
 40
0.2499999999999999
 40
0.2499999999999999
 40
0.4999999999999999
 40
0.4999999999999999
 40
1.0
 40
1.0
 40
1.0
 40
1.0
 10
243.8553812102635
 20
423.8776466658597
 30
0.0
 10
244.2228644519317
 20
424.5141463113592
 30
0.0
 10
244.5919966102947
 20
425.1535019643514
 30
0.0
 10
245.3222168673932
 20
426.4182805503621
 30
0.0
 10
245.6848847083359
 20
427.0464396771461
 30
0.0
 10
246.766446953547
 20
428.9197604374
 30
0.0
 10
247.4789251432651
 20
430.1538088612764
 30
0.0
 10
248.1855082291857
 20
431.3776466658597
 30
0.0
  0
SPLINE
  5
1BE
330
1F
100
AcDbEntity
  8
0
  6
Continuous
 62
     7
370
    15
100
AcDbSpline
210
0.0
220
0.0
230
1.0
 70
    24
 71
     3
 72
    12
 73
     8
 74
     0
 42
0.00000001
 43
0.00000001
 12
1.0
 22
0.0
 32
0.0
 13
1.0
 23
0.0
 33
0.0
 40
0.0
 40
0.0
 40
0.0
 40
0.0
 40
0.2499999999999999
 40
0.2499999999999999
 40
0.4999999999999999
 40
0.4999999999999999
 40
1.0
 40
1.0
 40
1.0
 40
1.0
 10
256.8457622670301
 20
431.3776466658597
 30
0.0
 10
256.1136072718824
 20
431.3776466658597
 30
0.0
 10
255.3791070916239
 20
431.3776466658597
 30
0.0
 10
253.9054768956089
 20
431.3776466658597
 30
0.0
 10
253.1740503219705
 20
431.3776466658597
 30
0.0
 10
251.0045059877795
 20
431.3776466658597
 30
0.0
 10
249.5858230256511
 20
431.3776466658597
 30
0.0
 10
248.1855082291857
 20
431.3776466658597
 30
0.0
  0
SPLINE
  5
1BF
330
1F
100
AcDbEntity
  8
0
  6
Continuous
 62
     7
370
    15
100
AcDbSpline
210
0.0
220
0.0
230
1.0
 70
    24
 71
     3
 72
    10
 73
     6
 74
     0
 42
0.00000001
 43
0.00000001
 12
1.0
 22
0.0
 32
0.0
 13
1.0
 23
0.0
 33
0.0
 40
0.0
 40
0.0
 40
0.0
 40
0.0
 40
0.5
 40
0.5
 40
1.0
 40
1.0
 40
1.0
 40
1.0
 10
244.5983135531132
 20
495.9742217195655
 30
0.0
 10
244.2316435123519
 20
497.3426529413002
 30
0.0
 10
243.8622952024942
 20
498.7210795993788
 30
0.0
 10
243.1158770548279
 20
501.506750050161
 30
0.0
 10
242.7387494978341
 20
502.9142092537959
 30
0.0
 10
242.3568748726931
 20
504.3393847569436
 30
0.0
  0
SPLINE
  5
1C0
330
1F
100
AcDbEntity
  8
0
  6
Continuous
 62
     7
370
    15
100
AcDbSpline
210
0.0
220
0.0
230
1.0
 70
    24
 71
     3
 72
    12
 73
     8
 74
     0
 42
0.00000001
 43
0.00000001
 12
1.0
 22
0.0
 32
0.0
 13
1.0
 23
0.0
 33
0.0
 40
0.0
 40
0.0
 40
0.0
 40
0.0
 40
0.249999999999999
 40
0.249999999999999
 40
0.499999999999998
 40
0.499999999999998
 40
1.0
 40
1.0
 40
1.0
 40
1.0
 10
252.9634765904914
 20
493.7327830391454
 30
0.0
 10
252.2535534827798
 20
493.9230063625449
 30
0.0
 10
251.5404449126265
 20
494.1140832280332
 30
0.0
 10
250.1297677022047
 20
494.4920730473467
 30
0.0
 10
249.4291472343427
 20
494.679803735911
 30
0.0
 10
247.3397294235656
 20
495.23966155096
 30
0.0
 10
245.9633272553327
 20
495.6084674003984
 30
0.0
 10
244.5983135531132
 20
495.9742217195655
 30
0.0
  0
SPLINE
  5
1C1
330
1F
100
AcDbEntity
  8
0
  6
Continuous
 62
     7
370
    15
100
AcDbSpline
210
0.0
220
0.0
230
1.0
 70
    24
 71
     3
 72
    12
 73
     8
 74
     0
 42
0.00000001
 43
0.00000001
 12
1.0
 22
0.0
 32
0.0
 13
1.0
 23
0.0
 33
0.0
 40
0.0
 40
0.0
 40
0.0
 40
0.0
 40
0.2500000000000001
 40
0.2500000000000001
 40
0.5000000000000001
 40
0.5000000000000001
 40
1.0
 40
1.0
 40
1.0
 40
1.0
 10
242.3568748726931
 20
504.3393847569436
 30
0.0
 10
242.1666515492936
 20
505.0493078646552
 30
0.0
 10
241.9755746838053
 20
505.7624164348085
 30
0.0
 10
241.5975848644918
 20
507.1730936452302
 30
0.0
 10
241.4098541759275
 20
507.8737141130922
 30
0.0
 10
240.8499963608785
 20
509.9631319238694
 30
0.0
 10
240.4811905114402
 20
511.3395340921023
 30
0.0
 10
240.115436192273
 20
512.7045477943217
 30
0.0
  0
SPLINE
  5
1C2
330
1F
100
AcDbEntity
  8
0
  6
Continuous
 62
     7
370
    15
100
AcDbSpline
210
0.0
220
0.0
230
1.0
 70
    24
 71
     3
 72
    12
 73
     8
 74
     0
 42
0.00000001
 43
0.00000001
 12
1.0
 22
0.0
 32
0.0
 13
1.0
 23
0.0
 33
0.0
 40
0.0
 40
0.0
 40
0.0
 40
0.0
 40
0.2499999999999996
 40
0.2499999999999996
 40
0.4999999999999991
 40
0.4999999999999991
 40
1.0
 40
1.0
 40
1.0
 40
1.0
 10
246.2391605492309
 20
518.8282721512796
 30
0.0
 10
245.7214487872824
 20
518.310560389331
 30
0.0
 10
245.2020787290389
 20
517.7911903310876
 30
0.0
 10
244.1600648244754
 20
516.7491764265242
 30
0.0
 10
243.6428681343156
 20
516.2319797363643
 30
0.0
 10
242.1087686235243
 20
514.697880225573
 30
0.0
 10
241.1056082806496
 20
513.6947198826983
 30
0.0
 10
240.115436192273
 20
512.7045477943217
 30
0.0
  0
SPLINE
  5
1C3
330
1F
100
AcDbEntity
  8
0
  6
Continuous
 62
     7
370
    15
100
AcDbSpline
210
0.0
220
0.0
230
1.0
 70
    24
 71
     3
 72
    10
 73
     6
 74
     0
 42
0.00000001
 43
0.00000001
 12
1.0
 22
0.0
 32
0.0
 13
1.0
 23
0.0
 33
0.0
 40
0.0
 40
0.0
 40
0.0
 40
0.0
 40
0.5
 40
0.5
 40
1.0
 40
1.0
 40
1.0
 40
1.0
 10
239.5252541913413
 20
416.3776466658597
 30
0.0
 10
240.233606315537
 20
417.604548534616
 30
0.0
 10
240.9471324583125
 20
418.8404120664318
 30
0.0
 10
242.389101590396
 20
421.3379758661465
 30
0.0
 10
243.1176560846071
 20
422.5998692662027
 30
0.0
 10
243.8553812102635
 20
423.8776466658597
 30
0.0
  0
SPLINE
  5
1C4
330
1F
100
AcDbEntity
  8
0
  6
Continuous
 62
     7
370
    15
100
AcDbSpline
210
0.0
220
0.0
230
1.0
 70
    24
 71
     3
 72
    12
 73
     8
 74
     0
 42
0.00000001
 43
0.00000001
 12
1.0
 22
0.0
 32
0.0
 13
1.0
 23
0.0
 33
0.0
 40
0.0
 40
0.0
 40
0.0
 40
0.0
 40
0.2499999999999999
 40
0.2499999999999999
 40
0.4999999999999998
 40
0.4999999999999998
 40
1.0
 40
1.0
 40
1.0
 40
1.0
 10
243.8553812102635
 20
408.8776466658597
 30
0.0
 10
243.4878979685953
 20
409.5141463113592
 30
0.0
 10
243.1187658102323
 20
410.1535019643514
 30
0.0
 10
242.3885455531338
 20
411.4182805503621
 30
0.0
 10
242.0258777121911
 20
412.0464396771461
 30
0.0
 10
240.94431546698
 20
413.9197604374
 30
0.0
 10
240.2318372772619
 20
415.1538088612764
 30
0.0
 10
239.5252541913413
 20
416.3776466658598
 30
0.0
  0
SPLINE
  5
1C5
330
1F
100
AcDbEntity
  8
0
  6
Continuous
 62
     7
370
    15
100
AcDbSpline
210
0.0
220
0.0
230
1.0
 70
    24
 71
     3
 72
    10
 73
     6
 74
     0
 42
0.00000001
 43
0.00000001
 12
1.0
 22
0.0
 32
0.0
 13
1.0
 23
0.0
 33
0.0
 40
0.0
 40
0.0
 40
0.0
 40
0.0
 40
0.5
 40
0.5
 40
1.0
 40
1.0
 40
1.0
 40
1.0
 10
208.6325563242431
 20
355.9169920091556
 30
0.0
 10
208.2658862834817
 20
354.5485607874209
 30
0.0
 10
207.896537973624
 20
353.1701341293423
 30
0.0
 10
207.1501198259577
 20
350.3844636785601
 30
0.0
 10
206.7729922689639
 20
348.9770044749252
 30
0.0
 10
206.3911176438229
 20
347.5518289717775
 30
0.0
  0
ARC
  5
1C6
330
1F
100
AcDbEntity
  8
0
  6
Continuous
 62
     7
370
    15
100
AcDbCircle
 10
191.9022302495
 20
351.4341146483
 30
0.0
 40
14.99999999999999
100
AcDbArc
 50
345.0
 51
45.0
  0
SPLINE
  5
1C7
330
1F
100
AcDbEntity
  8
0
  6
Continuous
 62
     7
370
    15
100
AcDbSpline
210
0.0
220
0.0
230
1.0
 70
    24
 71
     3
 72
    12
 73
     8
 74
     0
 42
0.00000001
 43
0.00000001
 12
1.0
 22
0.0
 32
0.0
 13
1.0
 23
0.0
 33
0.0
 40
0.0
 40
0.0
 40
0.0
 40
0.0
 40
0.25
 40
0.25
 40
0.5
 40
0.5
 40
1.0
 40
1.0
 40
1.0
 40
1.0
 10
208.632556324243
 20
355.9169920091555
 30
0.0
 10
208.1345692469916
 20
356.414979086407
 30
0.0
 10
207.6320082144767
 20
356.917540118922
 30
0.0
 10
206.6153246254407
 20
357.9342237079579
 30
0.0
 10
206.1053182087763
 20
358.4442301246224
 30
0.0
 10
204.5717450841412
 20
359.9778032492574
 30
0.0
 10
203.5436406748355
 20
361.0059076585631
 30
0.0
 10
202.5088319672851
 20
362.0407163661135
 30
0.0
  0
SPLINE
  5
1C8
330
1F
100
AcDbEntity
  8
0
  6
Continuous
 62
     7
370
    15
100
AcDbSpline
210
0.0
220
0.0
230
1.0
 70
    24
 71
     3
 72
    12
 73
     8
 74
     0
 42
0.00000001
 43
0.00000001
 12
1.0
 22
0.0
 32
0.0
 13
1.0
 23
0.0
 33
0.0
 40
0.0
 40
0.0
 40
0.0
 40
0.0
 40
0.2500000000000012
 40
0.2500000000000012
 40
0.5000000000000024
 40
0.5000000000000024
 40
1.0
 40
1.0
 40
1.0
 40
1.0
 10
206.3911176438229
 20
347.5518289717775
 30
0.0
 10
206.2008943204234
 20
346.8419058640661
 30
0.0
 10
206.0098174549351
 20
346.1287972939127
 30
0.0
 10
205.6318276356216
 20
344.7181200834909
 30
0.0
 10
205.4440969470572
 20
344.0174996156289
 30
0.0
 10
204.8842391320083
 20
341.9280818048517
 30
0.0
 10
204.5154332825699
 20
340.5516796366189
 30
0.0
 10
204.1496789634027
 20
339.1866659343994
 30
0.0
  0
SPLINE
  5
1C9
330
1F
100
AcDbEntity
  8
0
  6
Continuous
 62
     7
370
    15
100
AcDbSpline
210
0.0
220
0.0
230
1.0
 70
    24
 71
     3
 72
    10
 73
     6
 74
     0
 42
0.00000001
 43
0.00000001
 12
1.0
 22
0.0
 32
0.0
 13
1.0
 23
0.0
 33
0.0
 40
0.0
 40
0.0
 40
0.0
 40
0.0
 40
0.5
 40
0.5
 40
1.0
 40
1.0
 40
1.0
 40
1.0
 10
204.1496789634027
 20
339.1866659343995
 30
0.0
 10
202.781247741668
 20
338.8199958936381
 30
0.0
 10
201.4028210835895
 20
338.4506475837804
 30
0.0
 10
198.6171506328072
 20
337.7042294361141
 30
0.0
 10
197.2096914291723
 20
337.3271018791204
 30
0.0
 10
195.7845159260246
 20
336.9452272539793
 30
0.0
  0
ARC
  5
1CA
330
1F
100
AcDbEntity
  8
0
  6
Continuous
 62
     7
370
    15
100
AcDbCircle
 10
191.9022302495
 20
351.4341146483
 30
0.0
 40
15.00000000000002
100
AcDbArc
 50
285.0
 51
345.0
  0
SPLINE
  5
1CB
330
1F
100
AcDbEntity
  8
0
  6
Continuous
 62
     7
370
    15
100
AcDbSpline
210
0.0
220
0.0
230
1.0
 70
    24
 71
     3
 72
    12
 73
     8
 74
     0
 42
0.00000001
 43
0.00000001
 12
1.0
 22
0.0
 32
0.0
 13
1.0
 23
0.0
 33
0.0
 40
0.0
 40
0.0
 40
0.0
 40
0.0
 40
0.2499999999999999
 40
0.2499999999999999
 40
0.4999999999999999
 40
0.4999999999999999
 40
1.0
 40
1.0
 40
1.0
 40
1.0
 10
199.4022302494846
 20
586.155583507791
 30
0.0
 10
200.038729894984
 20
585.7881002661228
 30
0.0
 10
200.6780855479763
 20
585.4189681077597
 30
0.0
 10
201.9428641339869
 20
584.6887478506612
 30
0.0
 10
202.5710232607709
 20
584.3260800097187
 30
0.0
 10
204.4443440210248
 20
583.2445177645076
 30
0.0
 10
205.6783924449013
 20
582.5320395747893
 30
0.0
 10
206.9022302494846
 20
581.8254564888688
 30
0.0
  0
SPLINE
  5
1CC
330
1F
100
AcDbEntity
  8
0
  6
Continuous
 62
     7
370
    15
100
AcDbSpline
210
0.0
220
0.0
230
1.0
 70
    24
 71
     3
 72
    12
 73
     8
 74
     0
 42
0.00000001
 43
0.00000001
 12
1.0
 22
0.0
 32
0.0
 13
1.0
 23
0.0
 33
0.0
 40
0.0
 40
0.0
 40
0.0
 40
0.0
 40
0.2499999999999988
 40
0.2499999999999988
 40
0.4999999999999976
 40
0.4999999999999976
 40
1.0
 40
1.0
 40
1.0
 40
1.0
 10
206.9022302494846
 20
581.8254564888688
 30
0.0
 10
206.9022302494846
 20
581.1211964103334
 30
0.0
 10
206.9022302494846
 20
580.4104677822304
 30
0.0
 10
206.9022302494846
 20
578.9726600619736
 30
0.0
 10
206.9022302494846
 20
578.2514020706294
 30
0.0
 10
206.9022302494846
 20
576.0826021588796
 30
0.0
 10
206.9022302494846
 20
574.6286429597039
 30
0.0
 10
206.9022302494846
 20
573.1652024510245
 30
0.0
  0
ARC
  5
1CD
330
1F
100
AcDbEntity
  8
0
  6
Continuous
 62
     7
370
    15
100
AcDbCircle
 10
191.9022302495
 20
573.165202451
 30
0.0
 40
15.0
100
AcDbArc
 50
0.0
 51
60.0
  0
SPLINE
  5
1CE
330
1F
100
AcDbEntity
  8
0
  6
Continuous
 62
     7
370
    15
100
AcDbSpline
210
0.0
220
0.0
230
1.0
 70
    24
 71
     3
 72
    12
 73
     8
 74
     0
 42
0.00000001
 43
0.00000001
 12
1.0
 22
0.0
 32
0.0
 13
1.0
 23
0.0
 33
0.0
 40
0.0
 40
0.0
 40
0.0
 40
0.0
 40
0.2500000000000001
 40
0.2500000000000001
 40
0.5000000000000001
 40
0.5000000000000001
 40
1.0
 40
1.0
 40
1.0
 40
1.0
 10
206.9022302494846
 20
573.1652024510245
 30
0.0
 10
206.9022302494846
 20
572.4330474558766
 30
0.0
 10
206.9022302494846
 20
571.6985472756182
 30
0.0
 10
206.9022302494846
 20
570.2249170796032
 30
0.0
 10
206.9022302494846
 20
569.4934905059649
 30
0.0
 10
206.9022302494846
 20
567.3239461717739
 30
0.0
 10
206.9022302494846
 20
565.9052632096456
 30
0.0
 10
206.9022302494846
 20
564.50494841318
 30
0.0
  0
ARC
  5
1CF
330
1F
100
AcDbEntity
  8
0
  6
Continuous
 62
     7
370
    15
100
AcDbCircle
 10
191.9022302495
 20
573.165202451
 30
0.0
 40
15.0
100
AcDbArc
 50
300.0
 51
0.0
  0
SPLINE
  5
1D0
330
1F
100
AcDbEntity
  8
0
  6
Continuous
 62
     7
370
    15
100
AcDbSpline
210
0.0
220
0.0
230
1.0
 70
    24
 71
     3
 72
    10
 73
     6
 74
     0
 42
0.00000001
 43
0.00000001
 12
1.0
 22
0.0
 32
0.0
 13
1.0
 23
0.0
 33
0.0
 40
0.0
 40
0.0
 40
0.0
 40
0.0
 40
0.5
 40
0.5
 40
1.0
 40
1.0
 40
1.0
 40
1.0
 10
206.9022302494846
 20
564.50494841318
 30
0.0
 10
205.6753283807283
 20
563.7965962889842
 30
0.0
 10
204.4394648489125
 20
563.0830701462088
 30
0.0
 10
201.9419010491978
 20
561.6411010141253
 30
0.0
 10
200.6800076491416
 20
560.9125465199143
 30
0.0
 10
199.4022302494846
 20
560.174821394258
 30
0.0
  0
ARC
  5
1D1
330
1F
100
AcDbEntity
  8
0
  6
Continuous
 62
     7
370
    15
100
AcDbCircle
 10
191.9022302495
 20
351.4341146483
 30
0.0
 40
14.99999999999998
100
AcDbArc
 50
45.0
 51
105.0
  0
ARC
  5
1D2
330
1F
100
AcDbEntity
  8
0
  6
Continuous
 62
     7
370
    15
100
AcDbCircle
 10
191.9022302495
 20
351.4341146483
 30
0.0
 40
15.00000000000002
100
AcDbArc
 50
225.0
 51
285.0
  0
ARC
  5
1D3
330
1F
100
AcDbEntity
  8
0
  6
Continuous
 62
     7
370
    15
100
AcDbCircle
 10
191.9022302495
 20
351.4341146483
 30
0.0
 40
15.00000000000002
100
AcDbArc
 50
165.0
 51
225.0
  0
ARC
  5
1D4
330
1F
100
AcDbEntity
  8
0
  6
Continuous
 62
     7
370
    15
100
AcDbCircle
 10
191.9022302495
 20
351.4341146483
 30
0.0
 40
15.00000000000002
100
AcDbArc
 50
105.0
 51
165.0
  0
ARC
  5
1D5
330
1F
100
AcDbEntity
  8
0
  6
Continuous
 62
     7
370
    15
100
AcDbCircle
 10
191.9022302495
 20
573.165202451
 30
0.0
 40
15.0
100
AcDbArc
 50
180.0
 51
240.0
  0
ARC
  5
1D6
330
1F
100
AcDbEntity
  8
0
  6
Continuous
 62
     7
370
    15
100
AcDbCircle
 10
191.9022302495
 20
573.165202451
 30
0.0
 40
15.0
100
AcDbArc
 50
120.0
 51
180.0
  0
ARC
  5
1D7
330
1F
100
AcDbEntity
  8
0
  6
Continuous
 62
     7
370
    15
100
AcDbCircle
 10
191.9022302495
 20
573.165202451
 30
0.0
 40
14.99999999999995
100
AcDbArc
 50
60.0
 51
120.0
  0
ARC
  5
1D8
330
1F
100
AcDbEntity
  8
0
  6
Continuous
 62
     7
370
    15
100
AcDbCircle
 10
191.9022302495
 20
573.165202451
 30
0.0
 40
14.99999999999995
100
AcDbArc
 50
240.0
 51
300.0
  0
SPLINE
  5
1D9
330
1F
100
AcDbEntity
  8
0
  6
Continuous
 62
     7
370
    15
100
AcDbSpline
210
0.0
220
0.0
230
1.0
 70
    24
 71
     3
 72
    12
 73
     8
 74
     0
 42
0.00000001
 43
0.00000001
 12
1.0
 22
0.0
 32
0.0
 13
1.0
 23
0.0
 33
0.0
 40
0.0
 40
0.0
 40
0.0
 40
0.0
 40
0.2499999999999999
 40
0.2499999999999999
 40
0.4999999999999999
 40
0.4999999999999999
 40
1.0
 40
1.0
 40
1.0
 40
1.0
 10
188.0199445729491
 20
365.9230020426514
 30
0.0
 10
188.7298676806606
 20
366.1132253660509
 30
0.0
 10
189.4429762508139
 20
366.3043022315392
 30
0.0
 10
190.8536534612357
 20
366.6822920508527
 30
0.0
 10
191.5542739290977
 20
366.870022739417
 30
0.0
 10
193.6436917398749
 20
367.429880554466
 30
0.0
 10
195.0200939081077
 20
367.7986864039044
 30
0.0
 10
196.3851076103272
 20
368.1644407230716
 30
0.0
  0
SPLINE
  5
1DA
330
1F
100
AcDbEntity
  8
0
  6
Continuous
 62
     7
370
    15
100
AcDbSpline
210
0.0
220
0.0
230
1.0
 70
    24
 71
     3
 72
    12
 73
     8
 74
     0
 42
0.00000001
 43
0.00000001
 12
1.0
 22
0.0
 32
0.0
 13
1.0
 23
0.0
 33
0.0
 40
0.0
 40
0.0
 40
0.0
 40
0.0
 40
0.2500000000000004
 40
0.2500000000000004
 40
0.5000000000000008
 40
0.5000000000000008
 40
1.0
 40
1.0
 40
1.0
 40
1.0
 10
202.5088319672851
 20
362.0407163661135
 30
0.0
 10
201.9911202053366
 20
362.5584281280621
 30
0.0
 10
201.4717501470931
 20
363.0777981863056
 30
0.0
 10
200.4297362425296
 20
364.1198120908691
 30
0.0
 10
199.9125395523699
 20
364.6370087810289
 30
0.0
 10
198.3784400415785
 20
366.1711082918202
 30
0.0
 10
197.3752796987038
 20
367.174268634695
 30
0.0
 10
196.3851076103272
 20
368.1644407230716
 30
0.0
  0
SPLINE
  5
1DB
330
1F
100
AcDbEntity
  8
0
  6
Continuous
 62
     7
370
    15
100
AcDbSpline
210
0.0
220
0.0
230
1.0
 70
    24
 71
     3
 72
    12
 73
     8
 74
     0
 42
0.00000001
 43
0.00000001
 12
1.0
 22
0.0
 32
0.0
 13
1.0
 23
0.0
 33
0.0
 40
0.0
 40
0.0
 40
0.0
 40
0.0
 40
0.2499999999999981
 40
0.2499999999999981
 40
0.4999999999999987
 40
0.4999999999999987
 40
1.0
 40
1.0
 40
1.0
 40
1.0
 10
184.4022302494846
 20
586.155583507791
 30
0.0
 10
185.038729894984
 20
586.5230667494592
 30
0.0
 10
185.6780855479763
 20
586.8921989078221
 30
0.0
 10
186.9428641339869
 20
587.6224191649206
 30
0.0
 10
187.5710232607709
 20
587.9850870058634
 30
0.0
 10
189.4443440210248
 20
589.0666492510745
 30
0.0
 10
190.6783924449013
 20
589.7791274407926
 30
0.0
 10
191.9022302494846
 20
590.4857105267132
 30
0.0
  0
SPLINE
  5
1DC
330
1F
100
AcDbEntity
  8
0
  6
Continuous
 62
     7
370
    15
100
AcDbSpline
210
0.0
220
0.0
230
1.0
 70
    24
 71
     3
 72
    10
 73
     6
 74
     0
 42
0.00000001
 43
0.00000001
 12
1.0
 22
0.0
 32
0.0
 13
1.0
 23
0.0
 33
0.0
 40
0.0
 40
0.0
 40
0.0
 40
0.0
 40
0.5
 40
0.5
 40
1.0
 40
1.0
 40
1.0
 40
1.0
 10
191.9022302494845
 20
590.4857105267132
 30
0.0
 10
193.1291321182408
 20
589.7773584025174
 30
0.0
 10
194.3649956500567
 20
589.0638322597421
 30
0.0
 10
196.8625594497713
 20
587.6218631276585
 30
0.0
 10
198.1244528498276
 20
586.8933086334473
 30
0.0
 10
199.4022302494846
 20
586.155583507791
 30
0.0
  0
SPLINE
  5
1DD
330
1F
100
AcDbEntity
  8
0
  6
Continuous
 62
     7
370
    15
100
AcDbSpline
210
0.0
220
0.0
230
1.0
 70
    24
 71
     3
 72
    10
 73
     6
 74
     0
 42
0.00000001
 43
0.00000001
 12
1.0
 22
0.0
 32
0.0
 13
1.0
 23
0.0
 33
0.0
 40
0.0
 40
0.0
 40
0.0
 40
0.0
 40
0.5
 40
0.5
 40
1.0
 40
1.0
 40
1.0
 40
1.0
 10
191.9022302494846
 20
555.8446943753357
 30
0.0
 10
190.6753283807283
 20
556.5530464995313
 30
0.0
 10
189.4394648489125
 20
557.2665726423069
 30
0.0
 10
186.9419010491978
 20
558.7085417743904
 30
0.0
 10
185.6800076491415
 20
559.4370962686015
 30
0.0
 10
184.4022302494846
 20
560.174821394258
 30
0.0
  0
SPLINE
  5
1DE
330
1F
100
AcDbEntity
  8
0
  6
Continuous
 62
     7
370
    15
100
AcDbSpline
210
0.0
220
0.0
230
1.0
 70
    24
 71
     3
 72
    12
 73
     8
 74
     0
 42
0.00000001
 43
0.00000001
 12
1.0
 22
0.0
 32
0.0
 13
1.0
 23
0.0
 33
0.0
 40
0.0
 40
0.0
 40
0.0
 40
0.0
 40
0.2500000000000001
 40
0.2500000000000001
 40
0.5000000000000001
 40
0.5000000000000001
 40
1.0
 40
1.0
 40
1.0
 40
1.0
 10
199.4022302494846
 20
560.174821394258
 30
0.0
 10
198.7657306039851
 20
559.8073381525896
 30
0.0
 10
198.1263749509929
 20
559.4382059942267
 30
0.0
 10
196.8615963649823
 20
558.7079857371282
 30
0.0
 10
196.2334372381983
 20
558.3453178961855
 30
0.0
 10
194.3601164779444
 20
557.2637556509744
 30
0.0
 10
193.1260680540679
 20
556.5512774612563
 30
0.0
 10
191.9022302494845
 20
555.8446943753357
 30
0.0
  0
SPLINE
  5
1DF
330
1F
100
AcDbEntity
  8
0
  6
Continuous
 62
     7
370
    15
100
AcDbSpline
210
0.0
220
0.0
230
1.0
 70
    24
 71
     3
 72
    12
 73
     8
 74
     0
 42
0.00000001
 43
0.00000001
 12
1.0
 22
0.0
 32
0.0
 13
1.0
 23
0.0
 33
0.0
 40
0.0
 40
0.0
 40
0.0
 40
0.0
 40
0.2499999999999983
 40
0.2499999999999983
 40
0.4999999999999967
 40
0.4999999999999967
 40
1.0
 40
1.0
 40
1.0
 40
1.0
 10
187.4193528886465
 20
334.7037885735593
 30
0.0
 10
186.9213658113951
 20
335.2017756508106
 30
0.0
 10
186.4188047788801
 20
335.7043366833257
 30
0.0
 10
185.4021211898442
 20
336.7210202723616
 30
0.0
 10
184.8921147731797
 20
337.2310266890261
 30
0.0
 10
183.3585416485447
 20
338.7645998136611
 30
0.0
 10
182.330437239239
 20
339.7927042229668
 30
0.0
 10
181.2956285316886
 20
340.8275129305173
 30
0.0
  0
SPLINE
  5
1E0
330
1F
100
AcDbEntity
  8
0
  6
Continuous
 62
     7
370
    15
100
AcDbSpline
210
0.0
220
0.0
230
1.0
 70
    24
 71
     3
 72
    12
 73
     8
 74
     0
 42
0.00000001
 43
0.00000001
 12
1.0
 22
0.0
 32
0.0
 13
1.0
 23
0.0
 33
0.0
 40
0.0
 40
0.0
 40
0.0
 40
0.0
 40
0.2500000000000001
 40
0.2500000000000001
 40
0.5000000000000001
 40
0.5000000000000001
 40
1.0
 40
1.0
 40
1.0
 40
1.0
 10
195.7845159260246
 20
336.9452272539793
 30
0.0
 10
195.0745928183131
 20
336.7550039305799
 30
0.0
 10
194.3614842481598
 20
336.5639270650915
 30
0.0
 10
192.9508070377381
 20
336.1859372457781
 30
0.0
 10
192.250186569876
 20
335.9982065572137
 30
0.0
 10
190.1607687590989
 20
335.4383487421647
 30
0.0
 10
188.784366590866
 20
335.0695428927264
 30
0.0
 10
187.4193528886465
 20
334.7037885735593
 30
0.0
  0
SPLINE
  5
1E1
330
1F
100
AcDbEntity
  8
0
  6
Continuous
 62
     7
370
    15
100
AcDbSpline
210
0.0
220
0.0
230
1.0
 70
    24
 71
     3
 72
    12
 73
     8
 74
     0
 42
0.00000001
 43
0.00000001
 12
1.0
 22
0.0
 32
0.0
 13
1.0
 23
0.0
 33
0.0
 40
0.0
 40
0.0
 40
0.0
 40
0.0
 40
0.2500000000000012
 40
0.2500000000000012
 40
0.5000000000000024
 40
0.5000000000000024
 40
1.0
 40
1.0
 40
1.0
 40
1.0
 10
177.4133428551509
 20
355.3164003248533
 30
0.0
 10
177.6035661785504
 20
356.0263234325648
 30
0.0
 10
177.7946430440387
 20
356.739432002718
 30
0.0
 10
178.1726328633521
 20
358.1501092131398
 30
0.0
 10
178.3603635519165
 20
358.8507296810018
 30
0.0
 10
178.9202213669654
 20
360.940147491779
 30
0.0
 10
179.289027216404
 20
362.3165496600118
 30
0.0
 10
179.654781535571
 20
363.6815633622314
 30
0.0
  0
SPLINE
  5
1E2
330
1F
100
AcDbEntity
  8
0
  6
Continuous
 62
     7
370
    15
100
AcDbSpline
210
0.0
220
0.0
230
1.0
 70
    24
 71
     3
 72
    10
 73
     6
 74
     0
 42
0.00000001
 43
0.00000001
 12
1.0
 22
0.0
 32
0.0
 13
1.0
 23
0.0
 33
0.0
 40
0.0
 40
0.0
 40
0.0
 40
0.0
 40
0.5
 40
0.5
 40
1.0
 40
1.0
 40
1.0
 40
1.0
 10
179.654781535571
 20
363.6815633622313
 30
0.0
 10
181.0232127573057
 20
364.0482334029927
 30
0.0
 10
182.4016394153843
 20
364.4175817128503
 30
0.0
 10
185.1873098661665
 20
365.1639998605167
 30
0.0
 10
186.5947690698014
 20
365.5411274175104
 30
0.0
 10
188.0199445729491
 20
365.9230020426514
 30
0.0
  0
SPLINE
  5
1E3
330
1F
100
AcDbEntity
  8
0
  6
Continuous
 62
     7
370
    15
100
AcDbSpline
210
0.0
220
0.0
230
1.0
 70
    24
 71
     3
 72
    12
 73
     8
 74
     0
 42
0.00000001
 43
0.00000001
 12
1.0
 22
0.0
 32
0.0
 13
1.0
 23
0.0
 33
0.0
 40
0.0
 40
0.0
 40
0.0
 40
0.0
 40
0.2499999999999988
 40
0.2499999999999988
 40
0.4999999999999976
 40
0.4999999999999976
 40
1.0
 40
1.0
 40
1.0
 40
1.0
 10
176.9022302494846
 20
581.8254564888688
 30
0.0
 10
176.9022302494846
 20
581.1211964103334
 30
0.0
 10
176.9022302494846
 20
580.4104677822304
 30
0.0
 10
176.9022302494846
 20
578.9726600619736
 30
0.0
 10
176.9022302494846
 20
578.2514020706294
 30
0.0
 10
176.9022302494846
 20
576.0826021588796
 30
0.0
 10
176.9022302494846
 20
574.6286429597039
 30
0.0
 10
176.9022302494846
 20
573.1652024510245
 30
0.0
  0
SPLINE
  5
1E4
330
1F
100
AcDbEntity
  8
0
  6
Continuous
 62
     7
370
    15
100
AcDbSpline
210
0.0
220
0.0
230
1.0
 70
    24
 71
     3
 72
    10
 73
     6
 74
     0
 42
0.00000001
 43
0.00000001
 12
1.0
 22
0.0
 32
0.0
 13
1.0
 23
0.0
 33
0.0
 40
0.0
 40
0.0
 40
0.0
 40
0.0
 40
0.5
 40
0.5
 40
1.0
 40
1.0
 40
1.0
 40
1.0
 10
176.9022302494845
 20
581.8254564888688
 30
0.0
 10
178.1291321182408
 20
582.5338086130645
 30
0.0
 10
179.3649956500566
 20
583.24733475584
 30
0.0
 10
181.8625594497713
 20
584.6893038879235
 30
0.0
 10
183.1244528498276
 20
585.4178583821346
 30
0.0
 10
184.4022302494846
 20
586.155583507791
 30
0.0
  0
SPLINE
  5
1E5
330
1F
100
AcDbEntity
  8
0
  6
Continuous
 62
     7
370
    15
100
AcDbSpline
210
0.0
220
0.0
230
1.0
 70
    24
 71
     3
 72
    12
 73
     8
 74
     0
 42
0.00000001
 43
0.00000001
 12
1.0
 22
0.0
 32
0.0
 13
1.0
 23
0.0
 33
0.0
 40
0.0
 40
0.0
 40
0.0
 40
0.0
 40
0.2500000000000001
 40
0.2500000000000001
 40
0.5000000000000001
 40
0.5000000000000001
 40
1.0
 40
1.0
 40
1.0
 40
1.0
 10
176.9022302494846
 20
573.1652024510245
 30
0.0
 10
176.9022302494846
 20
572.4330474558766
 30
0.0
 10
176.9022302494846
 20
571.6985472756182
 30
0.0
 10
176.9022302494846
 20
570.2249170796032
 30
0.0
 10
176.9022302494846
 20
569.4934905059649
 30
0.0
 10
176.9022302494846
 20
567.3239461717739
 30
0.0
 10
176.9022302494846
 20
565.9052632096456
 30
0.0
 10
176.9022302494846
 20
564.50494841318
 30
0.0
  0
SPLINE
  5
1E6
330
1F
100
AcDbEntity
  8
0
  6
Continuous
 62
     7
370
    15
100
AcDbSpline
210
0.0
220
0.0
230
1.0
 70
    24
 71
     3
 72
    12
 73
     8
 74
     0
 42
0.00000001
 43
0.00000001
 12
1.0
 22
0.0
 32
0.0
 13
1.0
 23
0.0
 33
0.0
 40
0.0
 40
0.0
 40
0.0
 40
0.0
 40
0.2499999999999993
 40
0.2499999999999993
 40
0.4999999999999987
 40
0.4999999999999987
 40
1.0
 40
1.0
 40
1.0
 40
1.0
 10
184.4022302494846
 20
560.174821394258
 30
0.0
 10
183.7657306039851
 20
560.542304635926
 30
0.0
 10
183.1263749509928
 20
560.911436794289
 30
0.0
 10
181.8615963649823
 20
561.6416570513876
 30
0.0
 10
181.2334372381983
 20
562.0043248923303
 30
0.0
 10
179.3601164779444
 20
563.0858871375412
 30
0.0
 10
178.1260680540679
 20
563.7983653272595
 30
0.0
 10
176.9022302494846
 20
564.50494841318
 30
0.0
  0
SPLINE
  5
1E7
330
1F
100
AcDbEntity
  8
0
  6
Continuous
 62
     7
370
    15
100
AcDbSpline
210
0.0
220
0.0
230
1.0
 70
    24
 71
     3
 72
    10
 73
     6
 74
     0
 42
0.00000001
 43
0.00000001
 12
1.0
 22
0.0
 32
0.0
 13
1.0
 23
0.0
 33
0.0
 40
0.0
 40
0.0
 40
0.0
 40
0.0
 40
0.5
 40
0.5
 40
1.0
 40
1.0
 40
1.0
 40
1.0
 10
175.1719041747307
 20
346.9512372874752
 30
0.0
 10
175.538574215492
 20
348.3196685092099
 30
0.0
 10
175.9079225253497
 20
349.6980951672884
 30
0.0
 10
176.6543406730161
 20
352.4837656180707
 30
0.0
 10
177.0314682300098
 20
353.8912248217055
 30
0.0
 10
177.4133428551509
 20
355.3164003248533
 30
0.0
  0
SPLINE
  5
1E8
330
1F
100
AcDbEntity
  8
0
  6
Continuous
 62
     7
370
    15
100
AcDbSpline
210
0.0
220
0.0
230
1.0
 70
    24
 71
     3
 72
    12
 73
     8
 74
     0
 42
0.00000001
 43
0.00000001
 12
1.0
 22
0.0
 32
0.0
 13
1.0
 23
0.0
 33
0.0
 40
0.0
 40
0.0
 40
0.0
 40
0.0
 40
0.2500000000000005
 40
0.2500000000000005
 40
0.500000000000001
 40
0.500000000000001
 40
1.0
 40
1.0
 40
1.0
 40
1.0
 10
181.2956285316886
 20
340.8275129305173
 30
0.0
 10
180.77791676974
 20
341.3452246924659
 30
0.0
 10
180.2585467114965
 20
341.8645947507093
 30
0.0
 10
179.2165328069331
 20
342.9066086552728
 30
0.0
 10
178.6993361167733
 20
343.4238053454325
 30
0.0
 10
177.165236605982
 20
344.9579048562239
 30
0.0
 10
176.1620762631072
 20
345.9610651990987
 30
0.0
 10
175.1719041747307
 20
346.9512372874752
 30
0.0
  0
SPLINE
  5
1E9
330
1F
100
AcDbEntity
  8
0
  6
Continuous
 62
     7
370
    15
100
AcDbSpline
210
0.0
220
0.0
230
1.0
 70
    24
 71
     3
 72
    12
 73
     8
 74
     0
 42
0.00000001
 43
0.00000001
 12
1.0
 22
0.0
 32
0.0
 13
1.0
 23
0.0
 33
0.0
 40
0.0
 40
0.0
 40
0.0
 40
0.0
 40
0.2499999999999993
 40
0.2499999999999993
 40
0.4999999999999987
 40
0.4999999999999987
 40
1.0
 40
1.0
 40
1.0
 40
1.0
 10
110.6648081996627
 20
583.7718041688217
 30
0.0
 10
111.1825199616113
 20
583.2540924068732
 30
0.0
 10
111.7018900198548
 20
582.7347223486298
 30
0.0
 10
112.7439039244182
 20
581.6927084440663
 30
0.0
 10
113.261100614578
 20
581.1755117539066
 30
0.0
 10
114.7952001253693
 20
579.6414122431152
 30
0.0
 10
115.798360468244
 20
578.6382519002404
 30
0.0
 10
116.7885325566206
 20
577.6480798118638
 30
0.0
  0
SPLINE
  5
1EA
330
1F
100
AcDbEntity
  8
0
  6
Continuous
 62
     7
370
    15
100
AcDbSpline
210
0.0
220
0.0
230
1.0
 70
    24
 71
     3
 72
    10
 73
     6
 74
     0
 42
0.00000001
 43
0.00000001
 12
1.0
 22
0.0
 32
0.0
 13
1.0
 23
0.0
 33
0.0
 40
0.0
 40
0.0
 40
0.0
 40
0.0
 40
0.5
 40
0.5
 40
1.0
 40
1.0
 40
1.0
 40
1.0
 10
116.7885325566206
 20
577.6480798118638
 30
0.0
 10
116.4218625158592
 20
576.2796485901291
 30
0.0
 10
116.0525142060015
 20
574.9012219320506
 30
0.0
 10
115.3060960583352
 20
572.1155514812683
 30
0.0
 10
114.9289685013414
 20
570.7080922776336
 30
0.0
 10
114.5470938762004
 20
569.2829167744857
 30
0.0
  0
ARC
  5
1EB
330
1F
100
AcDbEntity
  8
0
  6
Continuous
 62
     7
370
    15
100
AcDbCircle
 10
100.0582064819
 20
573.165202451
 30
0.0
 40
15.00000000000003
100
AcDbArc
 50
345.0
 51
45.0
  0
SPLINE
  5
1EC
330
1F
100
AcDbEntity
  8
0
  6
Continuous
 62
     7
370
    15
100
AcDbSpline
210
0.0
220
0.0
230
1.0
 70
    24
 71
     3
 72
    12
 73
     8
 74
     0
 42
0.00000001
 43
0.00000001
 12
1.0
 22
0.0
 32
0.0
 13
1.0
 23
0.0
 33
0.0
 40
0.0
 40
0.0
 40
0.0
 40
0.0
 40
0.2500000000000001
 40
0.2500000000000001
 40
0.5000000000000001
 40
0.5000000000000001
 40
1.0
 40
1.0
 40
1.0
 40
1.0
 10
107.5582064818652
 20
364.4244957050813
 30
0.0
 10
108.1947061273647
 20
364.0570124634131
 30
0.0
 10
108.8340617803569
 20
363.68788030505
 30
0.0
 10
110.0988403663675
 20
362.9576600479515
 30
0.0
 10
110.7269994931515
 20
362.5949922070089
 30
0.0
 10
112.6003202534054
 20
361.5134299617977
 30
0.0
 10
113.8343686772819
 20
360.8009517720796
 30
0.0
 10
115.0582064818652
 20
360.094368686159
 30
0.0
  0
SPLINE
  5
1ED
330
1F
100
AcDbEntity
  8
0
  6
Continuous
 62
     7
370
    15
100
AcDbSpline
210
0.0
220
0.0
230
1.0
 70
    24
 71
     3
 72
    12
 73
     8
 74
     0
 42
0.00000001
 43
0.00000001
 12
1.0
 22
0.0
 32
0.0
 13
1.0
 23
0.0
 33
0.0
 40
0.0
 40
0.0
 40
0.0
 40
0.0
 40
0.2500000000000001
 40
0.2500000000000001
 40
0.5000000000000001
 40
0.5000000000000001
 40
1.0
 40
1.0
 40
1.0
 40
1.0
 10
115.0582064818651
 20
351.4341146483146
 30
0.0
 10
115.0582064818651
 20
352.1662696434624
 30
0.0
 10
115.0582064818652
 20
352.9007698237209
 30
0.0
 10
115.0582064818652
 20
354.3744000197358
 30
0.0
 10
115.0582064818652
 20
355.1058265933743
 30
0.0
 10
115.0582064818652
 20
357.2753709275653
 30
0.0
 10
115.0582064818652
 20
358.6940538896936
 30
0.0
 10
115.0582064818652
 20
360.0943686861591
 30
0.0
  0
ARC
  5
1EE
330
1F
100
AcDbEntity
  8
0
  6
Continuous
 62
     7
370
    15
100
AcDbCircle
 10
100.0582064819
 20
351.4341146483
 30
0.0
 40
15.00000000000004
100
AcDbArc
 50
0.0
 51
60.0
  0
ARC
  5
1EF
330
1F
100
AcDbEntity
  8
0
  6
Continuous
 62
     7
370
    15
100
AcDbCircle
 10
100.0582064819
 20
573.165202451
 30
0.0
 40
15.00000000000001
100
AcDbArc
 50
225.0
 51
285.0
  0
ARC
  5
1F0
330
1F
100
AcDbEntity
  8
0
  6
Continuous
 62
     7
370
    15
100
AcDbCircle
 10
100.0582064819
 20
573.165202451
 30
0.0
 40
15.0
100
AcDbArc
 50
165.0
 51
225.0
  0
ARC
  5
1F1
330
1F
100
AcDbEntity
  8
0
  6
Continuous
 62
     7
370
    15
100
AcDbCircle
 10
100.0582064819
 20
573.165202451
 30
0.0
 40
15.0
100
AcDbArc
 50
105.0
 51
165.0
  0
ARC
  5
1F2
330
1F
100
AcDbEntity
  8
0
  6
Continuous
 62
     7
370
    15
100
AcDbCircle
 10
100.0582064819
 20
573.165202451
 30
0.0
 40
15.0
100
AcDbArc
 50
45.0
 51
105.0
  0
ARC
  5
1F3
330
1F
100
AcDbEntity
  8
0
  6
Continuous
 62
     7
370
    15
100
AcDbCircle
 10
100.0582064819
 20
573.165202451
 30
0.0
 40
15.00000000000003
100
AcDbArc
 50
285.0
 51
345.0
  0
ARC
  5
1F4
330
1F
100
AcDbEntity
  8
0
  6
Continuous
 62
     7
370
    15
100
AcDbCircle
 10
100.0582064819
 20
351.4341146483
 30
0.0
 40
15.00000000000001
100
AcDbArc
 50
300.0
 51
0.0
  0
ARC
  5
1F5
330
1F
100
AcDbEntity
  8
0
  6
Continuous
 62
     7
370
    15
100
AcDbCircle
 10
100.0582064819
 20
351.4341146483
 30
0.0
 40
15.00000000000001
100
AcDbArc
 50
240.0
 51
300.0
  0
ARC
  5
1F6
330
1F
100
AcDbEntity
  8
0
  6
Continuous
 62
     7
370
    15
100
AcDbCircle
 10
100.0582064819
 20
351.4341146483
 30
0.0
 40
15.0
100
AcDbArc
 50
180.0
 51
240.0
  0
ARC
  5
1F7
330
1F
100
AcDbEntity
  8
0
  6
Continuous
 62
     7
370
    15
100
AcDbCircle
 10
100.0582064819
 20
351.4341146483
 30
0.0
 40
15.00000000000001
100
AcDbArc
 50
120.0
 51
180.0
  0
ARC
  5
1F8
330
1F
100
AcDbEntity
  8
0
  6
Continuous
 62
     7
370
    15
100
AcDbCircle
 10
100.0582064819
 20
351.4341146483
 30
0.0
 40
15.00000000000004
100
AcDbArc
 50
60.0
 51
120.0
  0
SPLINE
  5
1F9
330
1F
100
AcDbEntity
  8
0
  6
Continuous
 62
     7
370
    15
100
AcDbSpline
210
0.0
220
0.0
230
1.0
 70
    24
 71
     3
 72
    12
 73
     8
 74
     0
 42
0.00000001
 43
0.00000001
 12
1.0
 22
0.0
 32
0.0
 13
1.0
 23
0.0
 33
0.0
 40
0.0
 40
0.0
 40
0.0
 40
0.0
 40
0.2500000000000009
 40
0.2500000000000009
 40
0.5000000000000019
 40
0.5000000000000019
 40
1.0
 40
1.0
 40
1.0
 40
1.0
 10
114.5470938762004
 20
569.2829167744857
 30
0.0
 10
114.3568705528009
 20
568.5729936667743
 30
0.0
 10
114.1657936873126
 20
567.859885096621
 30
0.0
 10
113.7878038679991
 20
566.4492078861992
 30
0.0
 10
113.6000731794347
 20
565.7485874183373
 30
0.0
 10
113.0402153643857
 20
563.65916960756
 30
0.0
 10
112.6714095149473
 20
562.2827674393271
 30
0.0
 10
112.3056551957801
 20
560.9177537371078
 30
0.0
  0
SPLINE
  5
1FA
330
1F
100
AcDbEntity
  8
0
  6
Continuous
 62
     7
370
    15
100
AcDbSpline
210
0.0
220
0.0
230
1.0
 70
    24
 71
     3
 72
    10
 73
     6
 74
     0
 42
0.00000001
 43
0.00000001
 12
1.0
 22
0.0
 32
0.0
 13
1.0
 23
0.0
 33
0.0
 40
0.0
 40
0.0
 40
0.0
 40
0.0
 40
0.5
 40
0.5
 40
1.0
 40
1.0
 40
1.0
 40
1.0
 10
112.3056551957802
 20
560.9177537371078
 30
0.0
 10
110.9372239740454
 20
560.5510836963464
 30
0.0
 10
109.5587973159669
 20
560.1817353864888
 30
0.0
 10
106.7731268651847
 20
559.4353172388224
 30
0.0
 10
105.3656676615497
 20
559.0581896818287
 30
0.0
 10
103.940492158402
 20
558.6763150566877
 30
0.0
  0
SPLINE
  5
1FB
330
1F
100
AcDbEntity
  8
0
  6
Continuous
 62
     7
370
    15
100
AcDbSpline
210
0.0
220
0.0
230
1.0
 70
    24
 71
     3
 72
    10
 73
     6
 74
     0
 42
0.00000001
 43
0.00000001
 12
1.0
 22
0.0
 32
0.0
 13
1.0
 23
0.0
 33
0.0
 40
0.0
 40
0.0
 40
0.0
 40
0.0
 40
0.5
 40
0.5
 40
1.0
 40
1.0
 40
1.0
 40
1.0
 10
115.0582064818651
 20
342.7738606104703
 30
0.0
 10
113.8313046131088
 20
342.0655084862746
 30
0.0
 10
112.595441081293
 20
341.3519823434991
 30
0.0
 10
110.0978772815783
 20
339.9100132114156
 30
0.0
 10
108.8359838815221
 20
339.1814587172045
 30
0.0
 10
107.5582064818651
 20
338.4437335915481
 30
0.0
  0
SPLINE
  5
1FC
330
1F
100
AcDbEntity
  8
0
  6
Continuous
 62
     7
370
    15
100
AcDbSpline
210
0.0
220
0.0
230
1.0
 70
    24
 71
     3
 72
    12
 73
     8
 74
     0
 42
0.00000001
 43
0.00000001
 12
1.0
 22
0.0
 32
0.0
 13
1.0
 23
0.0
 33
0.0
 40
0.0
 40
0.0
 40
0.0
 40
0.0
 40
0.2500000000000012
 40
0.2500000000000012
 40
0.5000000000000023
 40
0.5000000000000023
 40
1.0
 40
1.0
 40
1.0
 40
1.0
 10
115.0582064818651
 20
342.7738606104703
 30
0.0
 10
115.0582064818651
 20
343.4781206890057
 30
0.0
 10
115.0582064818651
 20
344.1888493171087
 30
0.0
 10
115.0582064818651
 20
345.6266570373655
 30
0.0
 10
115.0582064818651
 20
346.3479150287097
 30
0.0
 10
115.0582064818651
 20
348.5167149404594
 30
0.0
 10
115.0582064818651
 20
349.9706741396351
 30
0.0
 10
115.0582064818651
 20
351.4341146483146
 30
0.0
  0
SPLINE
  5
1FD
330
1F
100
AcDbEntity
  8
0
  6
Continuous
 62
     7
370
    15
100
AcDbSpline
210
0.0
220
0.0
230
1.0
 70
    24
 71
     3
 72
    12
 73
     8
 74
     0
 42
0.00000001
 43
0.00000001
 12
1.0
 22
0.0
 32
0.0
 13
1.0
 23
0.0
 33
0.0
 40
0.0
 40
0.0
 40
0.0
 40
0.0
 40
0.2499999999999994
 40
0.2499999999999994
 40
0.4999999999999988
 40
0.4999999999999988
 40
1.0
 40
1.0
 40
1.0
 40
1.0
 10
96.17592080532675
 20
587.6540898453599
 30
0.0
 10
96.88584391303824
 20
587.8443131687594
 30
0.0
 10
97.59895248319155
 20
588.0353900342476
 30
0.0
 10
99.00962969361332
 20
588.4133798535611
 30
0.0
 10
99.71025016147536
 20
588.6011105421254
 30
0.0
 10
101.7996679722525
 20
589.1609683571744
 30
0.0
 10
103.1760701404854
 20
589.5297742066128
 30
0.0
 10
104.5410838427049
 20
589.8955285257798
 30
0.0
  0
SPLINE
  5
1FE
330
1F
100
AcDbEntity
  8
0
  6
Continuous
 62
     7
370
    15
100
AcDbSpline
210
0.0
220
0.0
230
1.0
 70
    24
 71
     3
 72
    12
 73
     8
 74
     0
 42
0.00000001
 43
0.00000001
 12
1.0
 22
0.0
 32
0.0
 13
1.0
 23
0.0
 33
0.0
 40
0.0
 40
0.0
 40
0.0
 40
0.0
 40
0.2500000000000017
 40
0.2500000000000017
 40
0.5000000000000034
 40
0.5000000000000034
 40
1.0
 40
1.0
 40
1.0
 40
1.0
 10
104.5410838427049
 20
589.8955285257798
 30
0.0
 10
105.0390709199563
 20
589.3975414485284
 30
0.0
 10
105.5416319524713
 20
588.8949804160134
 30
0.0
 10
106.5583155415072
 20
587.8782968269775
 30
0.0
 10
107.0683219581717
 20
587.368290410313
 30
0.0
 10
108.6018950828066
 20
585.8347172856779
 30
0.0
 10
109.6299994921123
 20
584.8066128763722
 30
0.0
 10
110.6648081996627
 20
583.7718041688217
 30
0.0
  0
SPLINE
  5
1FF
330
1F
100
AcDbEntity
  8
0
  6
Continuous
 62
     7
370
    15
100
AcDbSpline
210
0.0
220
0.0
230
1.0
 70
    24
 71
     3
 72
    10
 73
     6
 74
     0
 42
0.00000001
 43
0.00000001
 12
1.0
 22
0.0
 32
0.0
 13
1.0
 23
0.0
 33
0.0
 40
0.0
 40
0.0
 40
0.0
 40
0.0
 40
0.5
 40
0.5
 40
1.0
 40
1.0
 40
1.0
 40
1.0
 10
100.058206481865
 20
334.1136065726259
 30
0.0
 10
98.83130461310874
 20
334.8219586968216
 30
0.0
 10
97.59544108129292
 20
335.5354848395972
 30
0.0
 10
95.09787728157832
 20
336.9774539716808
 30
0.0
 10
93.83598388152205
 20
337.7060084658918
 30
0.0
 10
92.55820648186506
 20
338.4437335915482
 30
0.0
  0
SPLINE
  5
200
330
1F
100
AcDbEntity
  8
0
  6
Continuous
 62
     7
370
    15
100
AcDbSpline
210
0.0
220
0.0
230
1.0
 70
    24
 71
     3
 72
    12
 73
     8
 74
     0
 42
0.00000001
 43
0.00000001
 12
1.0
 22
0.0
 32
0.0
 13
1.0
 23
0.0
 33
0.0
 40
0.0
 40
0.0
 40
0.0
 40
0.0
 40
0.2499999999999964
 40
0.2499999999999964
 40
0.4999999999999953
 40
0.4999999999999953
 40
1.0
 40
1.0
 40
1.0
 40
1.0
 10
107.5582064818651
 20
338.4437335915481
 30
0.0
 10
106.9217068363656
 20
338.0762503498799
 30
0.0
 10
106.2823511833733
 20
337.7071181915169
 30
0.0
 10
105.0175725973627
 20
336.9768979344185
 30
0.0
 10
104.3894134705787
 20
336.6142300934758
 30
0.0
 10
102.5160927103248
 20
335.5326678482646
 30
0.0
 10
101.2820442864483
 20
334.8201896585466
 30
0.0
 10
100.058206481865
 20
334.1136065726259
 30
0.0
  0
SPLINE
  5
201
330
1F
100
AcDbEntity
  8
0
  6
Continuous
 62
     7
370
    15
100
AcDbSpline
210
0.0
220
0.0
230
1.0
 70
    24
 71
     3
 72
    12
 73
     8
 74
     0
 42
0.00000001
 43
0.00000001
 12
1.0
 22
0.0
 32
0.0
 13
1.0
 23
0.0
 33
0.0
 40
0.0
 40
0.0
 40
0.0
 40
0.0
 40
0.2499999999999999
 40
0.2499999999999999
 40
0.4999999999999998
 40
0.4999999999999998
 40
1.0
 40
1.0
 40
1.0
 40
1.0
 10
92.55820648186523
 20
364.4244957050814
 30
0.0
 10
93.19470612736468
 20
364.7919789467496
 30
0.0
 10
93.83406178035695
 20
365.1611111051126
 30
0.0
 10
95.09884036636757
 20
365.8913313622111
 30
0.0
 10
95.72699949315158
 20
366.2539992031538
 30
0.0
 10
97.60032025340549
 20
367.3355614483648
 30
0.0
 10
98.83436867728196
 20
368.0480396380829
 30
0.0
 10
100.0582064818653
 20
368.7546227240036
 30
0.0
  0
SPLINE
  5
202
330
1F
100
AcDbEntity
  8
0
  6
Continuous
 62
     7
370
    15
100
AcDbSpline
210
0.0
220
0.0
230
1.0
 70
    24
 71
     3
 72
    10
 73
     6
 74
     0
 42
0.00000001
 43
0.00000001
 12
1.0
 22
0.0
 32
0.0
 13
1.0
 23
0.0
 33
0.0
 40
0.0
 40
0.0
 40
0.0
 40
0.0
 40
0.5
 40
0.5
 40
1.0
 40
1.0
 40
1.0
 40
1.0
 10
100.0582064818652
 20
368.7546227240036
 30
0.0
 10
101.2851083506215
 20
368.0462705998079
 30
0.0
 10
102.5209718824373
 20
367.3327444570323
 30
0.0
 10
105.018535682152
 20
365.8907753249488
 30
0.0
 10
106.2804290822082
 20
365.1622208307377
 30
0.0
 10
107.5582064818652
 20
364.4244957050813
 30
0.0
  0
SPLINE
  5
203
330
1F
100
AcDbEntity
  8
0
  6
Continuous
 62
     7
370
    15
100
AcDbSpline
210
0.0
220
0.0
230
1.0
 70
    24
 71
     3
 72
    12
 73
     8
 74
     0
 42
0.00000001
 43
0.00000001
 12
1.0
 22
0.0
 32
0.0
 13
1.0
 23
0.0
 33
0.0
 40
0.0
 40
0.0
 40
0.0
 40
0.0
 40
0.2499999999999991
 40
0.2499999999999991
 40
0.4999999999999982
 40
0.4999999999999982
 40
1.0
 40
1.0
 40
1.0
 40
1.0
 10
89.45160476406605
 20
562.5586007332257
 30
0.0
 10
89.96931652601461
 20
562.0408889712771
 30
0.0
 10
90.48868658425813
 20
561.5215189130336
 30
0.0
 10
91.53070048882155
 20
560.4795050084701
 30
0.0
 10
92.04789717898132
 20
559.9623083183104
 30
0.0
 10
93.58199668977262
 20
558.428208807519
 30
0.0
 10
94.58515703264742
 20
557.4250484646441
 30
0.0
 10
95.57532912102393
 20
556.4348763762677
 30
0.0
  0
SPLINE
  5
204
330
1F
100
AcDbEntity
  8
0
  6
Continuous
 62
     7
370
    15
100
AcDbSpline
210
0.0
220
0.0
230
1.0
 70
    24
 71
     3
 72
    12
 73
     8
 74
     0
 42
0.00000001
 43
0.00000001
 12
1.0
 22
0.0
 32
0.0
 13
1.0
 23
0.0
 33
0.0
 40
0.0
 40
0.0
 40
0.0
 40
0.0
 40
0.2499999999999992
 40
0.2499999999999992
 40
0.4999999999999983
 40
0.4999999999999983
 40
1.0
 40
1.0
 40
1.0
 40
1.0
 10
103.940492158402
 20
558.6763150566877
 30
0.0
 10
103.2305690506906
 20
558.4860917332883
 30
0.0
 10
102.5174604805373
 20
558.2950148677999
 30
0.0
 10
101.1067832701155
 20
557.9170250484864
 30
0.0
 10
100.4061628022534
 20
557.7292943599222
 30
0.0
 10
98.31674499147624
 20
557.1694365448732
 30
0.0
 10
96.9403428232434
 20
556.8006306954347
 30
0.0
 10
95.5753291210239
 20
556.4348763762677
 30
0.0
  0
SPLINE
  5
205
330
1F
100
AcDbEntity
  8
0
  6
Continuous
 62
     7
370
    15
100
AcDbSpline
210
0.0
220
0.0
230
1.0
 70
    24
 71
     3
 72
    12
 73
     8
 74
     0
 42
0.00000001
 43
0.00000001
 12
1.0
 22
0.0
 32
0.0
 13
1.0
 23
0.0
 33
0.0
 40
0.0
 40
0.0
 40
0.0
 40
0.0
 40
0.2500000000000012
 40
0.2500000000000012
 40
0.5000000000000024
 40
0.5000000000000024
 40
1.0
 40
1.0
 40
1.0
 40
1.0
 10
85.56931908752843
 20
577.0474881275618
 30
0.0
 10
85.75954241092792
 20
577.7574112352733
 30
0.0
 10
85.95061927641622
 20
578.4705198054265
 30
0.0
 10
86.32860909572973
 20
579.8811970158483
 30
0.0
 10
86.5163397842941
 20
580.5818174837103
 30
0.0
 10
87.07619759934306
 20
582.6712352944875
 30
0.0
 10
87.4450034487815
 20
584.0476374627203
 30
0.0
 10
87.81075776794867
 20
585.4126511649398
 30
0.0
  0
SPLINE
  5
206
330
1F
100
AcDbEntity
  8
0
  6
Continuous
 62
     7
370
    15
100
AcDbSpline
210
0.0
220
0.0
230
1.0
 70
    24
 71
     3
 72
    10
 73
     6
 74
     0
 42
0.00000001
 43
0.00000001
 12
1.0
 22
0.0
 32
0.0
 13
1.0
 23
0.0
 33
0.0
 40
0.0
 40
0.0
 40
0.0
 40
0.0
 40
0.5
 40
0.5
 40
1.0
 40
1.0
 40
1.0
 40
1.0
 10
87.81075776794862
 20
585.4126511649398
 30
0.0
 10
89.17918898968333
 20
585.7793212057012
 30
0.0
 10
90.55761564776189
 20
586.1486695155589
 30
0.0
 10
93.34328609854411
 20
586.895087663225
 30
0.0
 10
94.75074530217903
 20
587.2722152202188
 30
0.0
 10
96.17592080532675
 20
587.6540898453599
 30
0.0
  0
SPLINE
  5
207
330
1F
100
AcDbEntity
  8
0
  6
Continuous
 62
     7
370
    15
100
AcDbSpline
210
0.0
220
0.0
230
1.0
 70
    24
 71
     3
 72
    12
 73
     8
 74
     0
 42
0.00000001
 43
0.00000001
 12
1.0
 22
0.0
 32
0.0
 13
1.0
 23
0.0
 33
0.0
 40
0.0
 40
0.0
 40
0.0
 40
0.0
 40
0.2499999999999988
 40
0.2499999999999988
 40
0.4999999999999976
 40
0.4999999999999976
 40
1.0
 40
1.0
 40
1.0
 40
1.0
 10
85.05820648186507
 20
342.7738606104704
 30
0.0
 10
85.05820648186507
 20
343.4781206890059
 30
0.0
 10
85.05820648186508
 20
344.1888493171089
 30
0.0
 10
85.0582064818651
 20
345.6266570373656
 30
0.0
 10
85.0582064818651
 20
346.3479150287098
 30
0.0
 10
85.05820648186513
 20
348.5167149404596
 30
0.0
 10
85.05820648186513
 20
349.9706741396353
 30
0.0
 10
85.05820648186514
 20
351.4341146483148
 30
0.0
  0
SPLINE
  5
208
330
1F
100
AcDbEntity
  8
0
  6
Continuous
 62
     7
370
    15
100
AcDbSpline
210
0.0
220
0.0
230
1.0
 70
    24
 71
     3
 72
    12
 73
     8
 74
     0
 42
0.00000001
 43
0.00000001
 12
1.0
 22
0.0
 32
0.0
 13
1.0
 23
0.0
 33
0.0
 40
0.0
 40
0.0
 40
0.0
 40
0.0
 40
0.2499999999999999
 40
0.2499999999999999
 40
0.4999999999999999
 40
0.4999999999999999
 40
1.0
 40
1.0
 40
1.0
 40
1.0
 10
92.55820648186506
 20
338.4437335915482
 30
0.0
 10
91.9217068363656
 20
338.8112168332164
 30
0.0
 10
91.28235118337335
 20
339.1803489915794
 30
0.0
 10
90.01757259736276
 20
339.9105692486779
 30
0.0
 10
89.38941347057875
 20
340.2732370896206
 30
0.0
 10
87.51609271032484
 20
341.3547993348317
 30
0.0
 10
86.28204428644837
 20
342.0672775245499
 30
0.0
 10
85.05820648186507
 20
342.7738606104705
 30
0.0
  0
SPLINE
  5
209
330
1F
100
AcDbEntity
  8
0
  6
Continuous
 62
     7
370
    15
100
AcDbSpline
210
0.0
220
0.0
230
1.0
 70
    24
 71
     3
 72
    12
 73
     8
 74
     0
 42
0.00000001
 43
0.00000001
 12
1.0
 22
0.0
 32
0.0
 13
1.0
 23
0.0
 33
0.0
 40
0.0
 40
0.0
 40
0.0
 40
0.0
 40
0.2499999999999999
 40
0.2499999999999999
 40
0.4999999999999999
 40
0.4999999999999999
 40
1.0
 40
1.0
 40
1.0
 40
1.0
 10
85.05820648186514
 20
351.4341146483148
 30
0.0
 10
85.05820648186513
 20
352.1662696434626
 30
0.0
 10
85.05820648186514
 20
352.9007698237211
 30
0.0
 10
85.05820648186517
 20
354.3744000197361
 30
0.0
 10
85.05820648186516
 20
355.1058265933745
 30
0.0
 10
85.05820648186518
 20
357.2753709275655
 30
0.0
 10
85.05820648186521
 20
358.6940538896938
 30
0.0
 10
85.05820648186521
 20
360.0943686861592
 30
0.0
  0
SPLINE
  5
20A
330
1F
100
AcDbEntity
  8
0
  6
Continuous
 62
     7
370
    15
100
AcDbSpline
210
0.0
220
0.0
230
1.0
 70
    24
 71
     3
 72
    10
 73
     6
 74
     0
 42
0.00000001
 43
0.00000001
 12
1.0
 22
0.0
 32
0.0
 13
1.0
 23
0.0
 33
0.0
 40
0.0
 40
0.0
 40
0.0
 40
0.0
 40
0.5
 40
0.5
 40
1.0
 40
1.0
 40
1.0
 40
1.0
 10
85.05820648186518
 20
360.0943686861592
 30
0.0
 10
86.2851083506215
 20
360.8027208103549
 30
0.0
 10
87.5209718824373
 20
361.5162469531305
 30
0.0
 10
90.01853568215196
 20
362.958216085214
 30
0.0
 10
91.28042908220823
 20
363.686770579425
 30
0.0
 10
92.55820648186523
 20
364.4244957050814
 30
0.0
  0
SPLINE
  5
20B
330
1F
100
AcDbEntity
  8
0
  6
Continuous
 62
     7
370
    15
100
AcDbSpline
210
0.0
220
0.0
230
1.0
 70
    24
 71
     3
 72
    10
 73
     6
 74
     0
 42
0.00000001
 43
0.00000001
 12
1.0
 22
0.0
 32
0.0
 13
1.0
 23
0.0
 33
0.0
 40
0.0
 40
0.0
 40
0.0
 40
0.0
 40
0.5
 40
0.5
 40
1.0
 40
1.0
 40
1.0
 40
1.0
 10
83.32788040710817
 20
568.6823250901837
 30
0.0
 10
83.69455044786956
 20
570.0507563119183
 30
0.0
 10
84.06389875772724
 20
571.4291829699969
 30
0.0
 10
84.81031690539362
 20
574.2148534207791
 30
0.0
 10
85.18744446238735
 20
575.6223126244141
 30
0.0
 10
85.56931908752843
 20
577.0474881275618
 30
0.0
  0
SPLINE
  5
20C
330
1F
100
AcDbEntity
  8
0
  6
Continuous
 62
     7
370
    15
100
AcDbSpline
210
0.0
220
0.0
230
1.0
 70
    24
 71
     3
 72
    12
 73
     8
 74
     0
 42
0.00000001
 43
0.00000001
 12
1.0
 22
0.0
 32
0.0
 13
1.0
 23
0.0
 33
0.0
 40
0.0
 40
0.0
 40
0.0
 40
0.0
 40
0.2500000000000004
 40
0.2500000000000004
 40
0.5000000000000008
 40
0.5000000000000008
 40
1.0
 40
1.0
 40
1.0
 40
1.0
 10
83.32788040710818
 20
568.6823250901837
 30
0.0
 10
83.82586748435959
 20
568.1843380129324
 30
0.0
 10
84.32842851687457
 20
567.6817769804173
 30
0.0
 10
85.3451121059105
 20
566.6650933913812
 30
0.0
 10
85.85511852257497
 20
566.1550869747168
 30
0.0
 10
87.38869164720995
 20
564.6215138500819
 30
0.0
 10
88.41679605651566
 20
563.5934094407761
 30
0.0
 10
89.45160476406605
 20
562.5586007332257
 30
0.0
  0
SPLINE
  5
20D
330
1F
100
AcDbEntity
  8
0
  6
Continuous
 62
     7
370
    15
100
AcDbSpline
210
0.0
220
0.0
230
1.0
 70
    24
 71
     3
 72
    12
 73
     8
 74
     0
 42
0.00000001
 43
0.00000001
 12
1.0
 22
0.0
 32
0.0
 13
1.0
 23
0.0
 33
0.0
 40
0.0
 40
0.0
 40
0.0
 40
0.0
 40
0.2499999999999999
 40
0.2499999999999999
 40
0.4999999999999999
 40
0.4999999999999999
 40
1.0
 40
1.0
 40
1.0
 40
1.0
 10
49.60356185865712
 20
420.2599323423959
 30
0.0
 10
49.79378518205656
 20
419.5500092346844
 30
0.0
 10
49.98486204754487
 20
418.8369006645311
 30
0.0
 10
50.36285186685838
 20
417.4262234541093
 30
0.0
 10
50.55058255542269
 20
416.7256029862473
 30
0.0
 10
51.11044037047164
 20
414.6361851754701
 30
0.0
 10
51.47924621991005
 20
413.2597830072373
 30
0.0
 10
51.84500053907718
 20
411.8947693050178
 30
0.0
  0
SPLINE
  5
20E
330
1F
100
AcDbEntity
  8
0
  6
Continuous
 62
     7
370
    15
100
AcDbSpline
210
0.0
220
0.0
230
1.0
 70
    24
 71
     3
 72
    12
 73
     8
 74
     0
 42
0.00000001
 43
0.00000001
 12
1.0
 22
0.0
 32
0.0
 13
1.0
 23
0.0
 33
0.0
 40
0.0
 40
0.0
 40
0.0
 40
0.0
 40
0.25
 40
0.25
 40
0.5
 40
0.5
 40
1.0
 40
1.0
 40
1.0
 40
1.0
 10
45.72127618211917
 20
405.7710449480599
 30
0.0
 10
46.23898794406778
 20
406.2887567100084
 30
0.0
 10
46.75835800231122
 20
406.808126768252
 30
0.0
 10
47.80037190687474
 20
407.8501406728154
 30
0.0
 10
48.31756859703451
 20
408.3673373629751
 30
0.0
 10
49.85166810782581
 20
409.9014368737664
 30
0.0
 10
50.85482845070061
 20
410.9045972166413
 30
0.0
 10
51.84500053907718
 20
411.8947693050178
 30
0.0
  0
ARC
  5
20F
330
1F
100
AcDbEntity
  8
0
  6
Continuous
 62
     7
370
    15
100
AcDbCircle
 10
35.1146744643
 20
416.3776466659
 30
0.0
 40
15.00000000000003
100
AcDbArc
 50
315.0
 51
15.0
  0
SPLINE
  5
210
330
1F
100
AcDbEntity
  8
0
  6
Continuous
 62
     7
370
    15
100
AcDbSpline
210
0.0
220
0.0
230
1.0
 70
    24
 71
     3
 72
    10
 73
     6
 74
     0
 42
0.00000001
 43
0.00000001
 12
1.0
 22
0.0
 32
0.0
 13
1.0
 23
0.0
 33
0.0
 40
0.0
 40
0.0
 40
0.0
 40
0.0
 40
0.5
 40
0.5
 40
1.0
 40
1.0
 40
1.0
 40
1.0
 10
52.43518254000954
 20
508.2216704334797
 30
0.0
 10
51.7268304158138
 20
506.9947685647235
 30
0.0
 10
51.01330427303828
 20
505.7589050329076
 30
0.0
 10
49.57133514095477
 20
503.261341233193
 30
0.0
 10
48.84278064674365
 20
501.9994478331367
 30
0.0
 10
48.10505552108725
 20
500.7216704334798
 30
0.0
  0
ARC
  5
211
330
1F
100
AcDbEntity
  8
0
  6
Continuous
 62
     7
370
    15
100
AcDbCircle
 10
35.1146744643
 20
508.2216704335
 30
0.0
 40
15.00000000000006
100
AcDbArc
 50
330.0
 51
30.0
  0
SPLINE
  5
212
330
1F
100
AcDbEntity
  8
0
  6
Continuous
 62
     7
370
    15
100
AcDbSpline
210
0.0
220
0.0
230
1.0
 70
    24
 71
     3
 72
    12
 73
     8
 74
     0
 42
0.00000001
 43
0.00000001
 12
1.0
 22
0.0
 32
0.0
 13
1.0
 23
0.0
 33
0.0
 40
0.0
 40
0.0
 40
0.0
 40
0.0
 40
0.249999999999999
 40
0.249999999999999
 40
0.499999999999998
 40
0.499999999999998
 40
1.0
 40
1.0
 40
1.0
 40
1.0
 10
48.1050555210874
 20
515.7216704334799
 30
0.0
 10
48.47253876275558
 20
515.0851707879804
 30
0.0
 10
48.84167092111858
 20
514.4458151349882
 30
0.0
 10
49.57189117821704
 20
513.1810365489775
 30
0.0
 10
49.93455901915974
 20
512.5528774221934
 30
0.0
 10
51.01612126437082
 20
510.6795566619396
 30
0.0
 10
51.72859945408891
 20
509.445508238063
 30
0.0
 10
52.43518254000952
 20
508.2216704334796
 30
0.0
  0
ARC
  5
213
330
1F
100
AcDbEntity
  8
0
  6
Continuous
 62
     7
370
    15
100
AcDbCircle
 10
35.1146744643
 20
508.2216704335
 30
0.0
 40
14.99999999999996
100
AcDbArc
 50
270.0
 51
330.0
  0
ARC
  5
214
330
1F
100
AcDbEntity
  8
0
  6
Continuous
 62
     7
370
    15
100
AcDbCircle
 10
35.1146744643
 20
508.2216704335
 30
0.0
 40
14.99999999999998
100
AcDbArc
 50
210.0
 51
270.0
  0
ARC
  5
215
330
1F
100
AcDbEntity
  8
0
  6
Continuous
 62
     7
370
    15
100
AcDbCircle
 10
35.1146744643
 20
508.2216704335
 30
0.0
 40
15.00000000000005
100
AcDbArc
 50
150.0
 51
210.0
  0
ARC
  5
216
330
1F
100
AcDbEntity
  8
0
  6
Continuous
 62
     7
370
    15
100
AcDbCircle
 10
35.1146744643
 20
508.2216704335
 30
0.0
 40
15.00000000000005
100
AcDbArc
 50
90.0
 51
150.0
  0
ARC
  5
217
330
1F
100
AcDbEntity
  8
0
  6
Continuous
 62
     7
370
    15
100
AcDbCircle
 10
35.1146744643
 20
508.2216704335
 30
0.0
 40
15.00000000000006
100
AcDbArc
 50
30.0
 51
90.0
  0
ARC
  5
218
330
1F
100
AcDbEntity
  8
0
  6
Continuous
 62
     7
370
    15
100
AcDbCircle
 10
35.1146744643
 20
416.3776466659
 30
0.0
 40
15.00000000000003
100
AcDbArc
 50
255.0
 51
315.0
  0
ARC
  5
219
330
1F
100
AcDbEntity
  8
0
  6
Continuous
 62
     7
370
    15
100
AcDbCircle
 10
35.1146744643
 20
416.3776466659
 30
0.0
 40
15.00000000000004
100
AcDbArc
 50
195.0
 51
255.0
  0
ARC
  5
21A
330
1F
100
AcDbEntity
  8
0
  6
Continuous
 62
     7
370
    15
100
AcDbCircle
 10
35.1146744643
 20
416.3776466659
 30
0.0
 40
15.00000000000004
100
AcDbArc
 50
135.0
 51
195.0
  0
ARC
  5
21B
330
1F
100
AcDbEntity
  8
0
  6
Continuous
 62
     7
370
    15
100
AcDbCircle
 10
35.1146744643
 20
416.3776466659
 30
0.0
 40
15.0
100
AcDbArc
 50
75.0
 51
135.0
  0
ARC
  5
21C
330
1F
100
AcDbEntity
  8
0
  6
Continuous
 62
     7
370
    15
100
AcDbCircle
 10
35.1146744643
 20
416.3776466659
 30
0.0
 40
14.99999999999999
100
AcDbArc
 50
15.0
 51
75.0
  0
SPLINE
  5
21D
330
1F
100
AcDbEntity
  8
0
  6
Continuous
 62
     7
370
    15
100
AcDbSpline
210
0.0
220
0.0
230
1.0
 70
    24
 71
     3
 72
    12
 73
     8
 74
     0
 42
0.00000001
 43
0.00000001
 12
1.0
 22
0.0
 32
0.0
 13
1.0
 23
0.0
 33
0.0
 40
0.0
 40
0.0
 40
0.0
 40
0.0
 40
0.2500000000000009
 40
0.2500000000000009
 40
0.5000000000000019
 40
0.5000000000000019
 40
1.0
 40
1.0
 40
1.0
 40
1.0
 10
38.99696014085899
 20
430.8665340601942
 30
0.0
 10
39.70688324857044
 20
430.6763107367947
 30
0.0
 10
40.41999181872377
 20
430.4852338713064
 30
0.0
 10
41.83066902914555
 20
430.1072440519929
 30
0.0
 10
42.53128949700755
 20
429.9195133634286
 30
0.0
 10
44.62070730778475
 20
429.3596555483796
 30
0.0
 10
45.99710947601757
 20
428.9908496989411
 30
0.0
 10
47.36212317823708
 20
428.6250953797739
 30
0.0
  0
SPLINE
  5
21E
330
1F
100
AcDbEntity
  8
0
  6
Continuous
 62
     7
370
    15
100
AcDbSpline
210
0.0
220
0.0
230
1.0
 70
    24
 71
     3
 72
    10
 73
     6
 74
     0
 42
0.00000001
 43
0.00000001
 12
1.0
 22
0.0
 32
0.0
 13
1.0
 23
0.0
 33
0.0
 40
0.0
 40
0.0
 40
0.0
 40
0.0
 40
0.5
 40
0.5
 40
1.0
 40
1.0
 40
1.0
 40
1.0
 10
47.36212317823704
 20
428.625095379774
 30
0.0
 10
47.7287932189984
 20
427.2566641580393
 30
0.0
 10
48.09814152885607
 20
425.8782374999607
 30
0.0
 10
48.84455967652237
 20
423.0925670491785
 30
0.0
 10
49.22168723351608
 20
421.6851078455436
 30
0.0
 10
49.60356185865712
 20
420.2599323423959
 30
0.0
  0
SPLINE
  5
21F
330
1F
100
AcDbEntity
  8
0
  6
Continuous
 62
     7
370
    15
100
AcDbSpline
210
0.0
220
0.0
230
1.0
 70
    24
 71
     3
 72
    12
 73
     8
 74
     0
 42
0.00000001
 43
0.00000001
 12
1.0
 22
0.0
 32
0.0
 13
1.0
 23
0.0
 33
0.0
 40
0.0
 40
0.0
 40
0.0
 40
0.0
 40
0.2500000000000001
 40
0.2500000000000001
 40
0.5000000000000001
 40
0.5000000000000001
 40
1.0
 40
1.0
 40
1.0
 40
1.0
 10
35.11467446432061
 20
493.2216704334799
 30
0.0
 10
35.84682945946835
 20
493.2216704334799
 30
0.0
 10
36.5813296397268
 20
493.2216704334799
 30
0.0
 10
38.05495983574181
 20
493.2216704334799
 30
0.0
 10
38.78638640938019
 20
493.2216704334799
 30
0.0
 10
40.95593074357122
 20
493.2216704334799
 30
0.0
 10
42.37461370569953
 20
493.2216704334799
 30
0.0
 10
43.77492850216498
 20
493.2216704334798
 30
0.0
  0
SPLINE
  5
220
330
1F
100
AcDbEntity
  8
0
  6
Continuous
 62
     7
370
    15
100
AcDbSpline
210
0.0
220
0.0
230
1.0
 70
    24
 71
     3
 72
    12
 73
     8
 74
     0
 42
0.00000001
 43
0.00000001
 12
1.0
 22
0.0
 32
0.0
 13
1.0
 23
0.0
 33
0.0
 40
0.0
 40
0.0
 40
0.0
 40
0.0
 40
0.2500000000000006
 40
0.2500000000000006
 40
0.5000000000000011
 40
0.5000000000000011
 40
1.0
 40
1.0
 40
1.0
 40
1.0
 10
48.10505552108725
 20
500.7216704334798
 30
0.0
 10
47.73757227941902
 20
500.0851707879803
 30
0.0
 10
47.36844012105604
 20
499.4458151349881
 30
0.0
 10
46.63821986395751
 20
498.1810365489775
 30
0.0
 10
46.27555202301487
 20
497.5528774221934
 30
0.0
 10
45.19398977780371
 20
495.6795566619396
 30
0.0
 10
44.4815115880856
 20
494.4455082380631
 30
0.0
 10
43.77492850216497
 20
493.2216704334798
 30
0.0
  0
SPLINE
  5
221
330
1F
100
AcDbEntity
  8
0
  6
Continuous
 62
     7
370
    15
100
AcDbSpline
210
0.0
220
0.0
230
1.0
 70
    24
 71
     3
 72
    12
 73
     8
 74
     0
 42
0.00000001
 43
0.00000001
 12
1.0
 22
0.0
 32
0.0
 13
1.0
 23
0.0
 33
0.0
 40
0.0
 40
0.0
 40
0.0
 40
0.0
 40
0.2500000000000001
 40
0.2500000000000001
 40
0.5000000000000001
 40
0.5000000000000001
 40
1.0
 40
1.0
 40
1.0
 40
1.0
 10
35.11467446432091
 20
523.2216704334799
 30
0.0
 10
35.84682945946868
 20
523.2216704334799
 30
0.0
 10
36.58132963972712
 20
523.2216704334799
 30
0.0
 10
38.05495983574209
 20
523.2216704334799
 30
0.0
 10
38.7863864093805
 20
523.2216704334799
 30
0.0
 10
40.95593074357151
 20
523.2216704334799
 30
0.0
 10
42.37461370569985
 20
523.2216704334799
 30
0.0
 10
43.77492850216529
 20
523.2216704334797
 30
0.0
  0
SPLINE
  5
222
330
1F
100
AcDbEntity
  8
0
  6
Continuous
 62
     7
370
    15
100
AcDbSpline
210
0.0
220
0.0
230
1.0
 70
    24
 71
     3
 72
    10
 73
     6
 74
     0
 42
0.00000001
 43
0.00000001
 12
1.0
 22
0.0
 32
0.0
 13
1.0
 23
0.0
 33
0.0
 40
0.0
 40
0.0
 40
0.0
 40
0.0
 40
0.5
 40
0.5
 40
1.0
 40
1.0
 40
1.0
 40
1.0
 10
43.77492850216527
 20
523.2216704334799
 30
0.0
 10
44.48328062636097
 20
521.9947685647235
 30
0.0
 10
45.19680676913646
 20
520.7589050329077
 30
0.0
 10
46.63877590121994
 20
518.2613412331931
 30
0.0
 10
47.36733039543102
 20
516.9994478331367
 30
0.0
 10
48.1050555210874
 20
515.7216704334799
 30
0.0
  0
SPLINE
  5
223
330
1F
100
AcDbEntity
  8
0
  6
Continuous
 62
     7
370
    15
100
AcDbSpline
210
0.0
220
0.0
230
1.0
 70
    24
 71
     3
 72
    10
 73
     6
 74
     0
 42
0.00000001
 43
0.00000001
 12
1.0
 22
0.0
 32
0.0
 13
1.0
 23
0.0
 33
0.0
 40
0.0
 40
0.0
 40
0.0
 40
0.0
 40
0.5
 40
0.5
 40
1.0
 40
1.0
 40
1.0
 40
1.0
 10
39.59755182516121
 20
399.647320591102
 30
0.0
 10
38.22912060342649
 20
400.0139906318634
 30
0.0
 10
36.85069394534796
 20
400.3833389417211
 30
0.0
 10
34.06502349456579
 20
401.1297570893874
 30
0.0
 10
32.65756429093082
 20
401.5068846463812
 30
0.0
 10
31.23238878778312
 20
401.8887592715222
 30
0.0
  0
SPLINE
  5
224
330
1F
100
AcDbEntity
  8
0
  6
Continuous
 62
     7
370
    15
100
AcDbSpline
210
0.0
220
0.0
230
1.0
 70
    24
 71
     3
 72
    12
 73
     8
 74
     0
 42
0.00000001
 43
0.00000001
 12
1.0
 22
0.0
 32
0.0
 13
1.0
 23
0.0
 33
0.0
 40
0.0
 40
0.0
 40
0.0
 40
0.0
 40
0.2500000000000005
 40
0.2500000000000005
 40
0.500000000000001
 40
0.500000000000001
 40
1.0
 40
1.0
 40
1.0
 40
1.0
 10
39.59755182516118
 20
399.647320591102
 30
0.0
 10
40.09553890241258
 20
400.1453076683534
 30
0.0
 10
40.5980999349276
 20
400.6478687008684
 30
0.0
 10
41.61478352396355
 20
401.6645522899043
 30
0.0
 10
42.12478994062799
 20
402.1745587065688
 30
0.0
 10
43.65836306526304
 20
403.7081318312038
 30
0.0
 10
44.68646747456875
 20
404.7362362405095
 30
0.0
 10
45.72127618211917
 20
405.7710449480599
 30
0.0
  0
SPLINE
  5
225
330
1F
100
AcDbEntity
  8
0
  6
Continuous
 62
     7
370
    15
100
AcDbSpline
210
0.0
220
0.0
230
1.0
 70
    24
 71
     3
 72
    12
 73
     8
 74
     0
 42
0.00000001
 43
0.00000001
 12
1.0
 22
0.0
 32
0.0
 13
1.0
 23
0.0
 33
0.0
 40
0.0
 40
0.0
 40
0.0
 40
0.0
 40
0.2500000000000001
 40
0.2500000000000001
 40
0.5000000000000001
 40
0.5000000000000001
 40
1.0
 40
1.0
 40
1.0
 40
1.0
 10
24.50807274652293
 20
426.9842483836565
 30
0.0
 10
25.02578450847151
 20
427.5019601456051
 30
0.0
 10
25.54515456671502
 20
428.0213302038486
 30
0.0
 10
26.58716847127847
 20
429.063344108412
 30
0.0
 10
27.10436516143824
 20
429.5805407985717
 30
0.0
 10
28.63846467222957
 20
431.1146403093631
 30
0.0
 10
29.64162501510434
 20
432.1178006522378
 30
0.0
 10
30.63179710348093
 20
433.1079727406144
 30
0.0
  0
SPLINE
  5
226
330
1F
100
AcDbEntity
  8
0
  6
Continuous
 62
     7
370
    15
100
AcDbSpline
210
0.0
220
0.0
230
1.0
 70
    24
 71
     3
 72
    10
 73
     6
 74
     0
 42
0.00000001
 43
0.00000001
 12
1.0
 22
0.0
 32
0.0
 13
1.0
 23
0.0
 33
0.0
 40
0.0
 40
0.0
 40
0.0
 40
0.0
 40
0.5
 40
0.5
 40
1.0
 40
1.0
 40
1.0
 40
1.0
 10
30.63179710348089
 20
433.1079727406144
 30
0.0
 10
32.00022832521562
 20
432.7413026998531
 30
0.0
 10
33.37865498329415
 20
432.3719543899953
 30
0.0
 10
36.16432543407632
 20
431.625536242329
 30
0.0
 10
37.57178463771127
 20
431.2484086853352
 30
0.0
 10
38.99696014085899
 20
430.8665340601942
 30
0.0
  0
SPLINE
  5
227
330
1F
100
AcDbEntity
  8
0
  6
Continuous
 62
     7
370
    15
100
AcDbSpline
210
0.0
220
0.0
230
1.0
 70
    24
 71
     3
 72
    10
 73
     6
 74
     0
 42
0.00000001
 43
0.00000001
 12
1.0
 22
0.0
 32
0.0
 13
1.0
 23
0.0
 33
0.0
 40
0.0
 40
0.0
 40
0.0
 40
0.0
 40
0.5
 40
0.5
 40
1.0
 40
1.0
 40
1.0
 40
1.0
 10
26.45442042647621
 20
493.22167043348
 30
0.0
 10
25.7460683022805
 20
494.4485723022362
 30
0.0
 10
25.03254215950501
 20
495.6844358340521
 30
0.0
 10
23.59057302742154
 20
498.1819996337667
 30
0.0
 10
22.86201853321043
 20
499.443893033823
 30
0.0
 10
22.12429340755408
 20
500.72167043348
 30
0.0
  0
SPLINE
  5
228
330
1F
100
AcDbEntity
  8
0
  6
Continuous
 62
     7
370
    15
100
AcDbSpline
210
0.0
220
0.0
230
1.0
 70
    24
 71
     3
 72
    12
 73
     8
 74
     0
 42
0.00000001
 43
0.00000001
 12
1.0
 22
0.0
 32
0.0
 13
1.0
 23
0.0
 33
0.0
 40
0.0
 40
0.0
 40
0.0
 40
0.0
 40
0.2500000000000012
 40
0.2500000000000012
 40
0.5000000000000023
 40
0.5000000000000023
 40
1.0
 40
1.0
 40
1.0
 40
1.0
 10
26.45442042647619
 20
493.22167043348
 30
0.0
 10
27.15868050501165
 20
493.22167043348
 30
0.0
 10
27.8694091331146
 20
493.22167043348
 30
0.0
 10
29.30721685337141
 20
493.22167043348
 30
0.0
 10
30.0284748447156
 20
493.22167043348
 30
0.0
 10
32.19727475646532
 20
493.22167043348
 30
0.0
 10
33.65123395564107
 20
493.2216704334799
 30
0.0
 10
35.11467446432061
 20
493.2216704334799
 30
0.0
  0
SPLINE
  5
229
330
1F
100
AcDbEntity
  8
0
  6
Continuous
 62
     7
370
    15
100
AcDbSpline
210
0.0
220
0.0
230
1.0
 70
    24
 71
     3
 72
    12
 73
     8
 74
     0
 42
0.00000001
 43
0.00000001
 12
1.0
 22
0.0
 32
0.0
 13
1.0
 23
0.0
 33
0.0
 40
0.0
 40
0.0
 40
0.0
 40
0.0
 40
0.2499999999999999
 40
0.2499999999999999
 40
0.4999999999999998
 40
0.4999999999999998
 40
1.0
 40
1.0
 40
1.0
 40
1.0
 10
22.12429340755424
 20
515.7216704334801
 30
0.0
 10
22.49177664922244
 20
516.3581700789795
 30
0.0
 10
22.86090880758547
 20
516.9975257319718
 30
0.0
 10
23.59112906468403
 20
518.2623043179824
 30
0.0
 10
23.95379690562666
 20
518.8904634447663
 30
0.0
 10
25.0353591508378
 20
520.7637842050202
 30
0.0
 10
25.74783734055586
 20
521.9978326288967
 30
0.0
 10
26.45442042647653
 20
523.22167043348
 30
0.0
  0
SPLINE
  5
22A
330
1F
100
AcDbEntity
  8
0
  6
Continuous
 62
     7
370
    15
100
AcDbSpline
210
0.0
220
0.0
230
1.0
 70
    24
 71
     3
 72
    12
 73
     8
 74
     0
 42
0.00000001
 43
0.00000001
 12
1.0
 22
0.0
 32
0.0
 13
1.0
 23
0.0
 33
0.0
 40
0.0
 40
0.0
 40
0.0
 40
0.0
 40
0.2499999999999988
 40
0.2499999999999988
 40
0.4999999999999976
 40
0.4999999999999976
 40
1.0
 40
1.0
 40
1.0
 40
1.0
 10
26.45442042647651
 20
523.22167043348
 30
0.0
 10
27.15868050501198
 20
523.22167043348
 30
0.0
 10
27.86940913311494
 20
523.22167043348
 30
0.0
 10
29.30721685337169
 20
523.22167043348
 30
0.0
 10
30.02847484471592
 20
523.22167043348
 30
0.0
 10
32.19727475646565
 20
523.22167043348
 30
0.0
 10
33.6512339556414
 20
523.2216704334799
 30
0.0
 10
35.11467446432091
 20
523.2216704334799
 30
0.0
  0
SPLINE
  5
22B
330
1F
100
AcDbEntity
  8
0
  6
Continuous
 62
     7
370
    15
100
AcDbSpline
210
0.0
220
0.0
230
1.0
 70
    24
 71
     3
 72
    10
 73
     6
 74
     0
 42
0.00000001
 43
0.00000001
 12
1.0
 22
0.0
 32
0.0
 13
1.0
 23
0.0
 33
0.0
 40
0.0
 40
0.0
 40
0.0
 40
0.0
 40
0.5
 40
0.5
 40
1.0
 40
1.0
 40
1.0
 40
1.0
 10
22.86722575040506
 20
404.1301979519424
 30
0.0
 10
22.50055570964371
 20
405.4986291736771
 30
0.0
 10
22.13120739978602
 20
406.8770558317556
 30
0.0
 10
21.38478925211973
 20
409.6627262825378
 30
0.0
 10
21.007661695126
 20
411.0701854861728
 30
0.0
 10
20.62578706998497
 20
412.4953609893205
 30
0.0
  0
SPLINE
  5
22C
330
1F
100
AcDbEntity
  8
0
  6
Continuous
 62
     7
370
    15
100
AcDbSpline
210
0.0
220
0.0
230
1.0
 70
    24
 71
     3
 72
    12
 73
     8
 74
     0
 42
0.00000001
 43
0.00000001
 12
1.0
 22
0.0
 32
0.0
 13
1.0
 23
0.0
 33
0.0
 40
0.0
 40
0.0
 40
0.0
 40
0.0
 40
0.2499999999999989
 40
0.2499999999999989
 40
0.4999999999999979
 40
0.4999999999999979
 40
1.0
 40
1.0
 40
1.0
 40
1.0
 10
31.23238878778312
 20
401.8887592715222
 30
0.0
 10
30.52246568007162
 20
402.0789825949217
 30
0.0
 10
29.80935710991833
 20
402.27005946041
 30
0.0
 10
28.39867989949657
 20
402.6480492797235
 30
0.0
 10
27.6980594316345
 20
402.8357799682879
 30
0.0
 10
25.60864162085738
 20
403.3956377833369
 30
0.0
 10
24.23223945262451
 20
403.7644436327753
 30
0.0
 10
22.86722575040503
 20
404.1301979519424
 30
0.0
  0
SPLINE
  5
22D
330
1F
100
AcDbEntity
  8
0
  6
Continuous
 62
     7
370
    15
100
AcDbSpline
210
0.0
220
0.0
230
1.0
 70
    24
 71
     3
 72
    12
 73
     8
 74
     0
 42
0.00000001
 43
0.00000001
 12
1.0
 22
0.0
 32
0.0
 13
1.0
 23
0.0
 33
0.0
 40
0.0
 40
0.0
 40
0.0
 40
0.0
 40
0.2500000000000001
 40
0.2500000000000001
 40
0.5000000000000001
 40
0.5000000000000001
 40
1.0
 40
1.0
 40
1.0
 40
1.0
 10
20.62578706998497
 20
412.4953609893205
 30
0.0
 10
20.4355637465855
 20
413.205284097032
 30
0.0
 10
20.24448688109723
 20
413.9183926671853
 30
0.0
 10
19.86649706178375
 20
415.3290698776071
 30
0.0
 10
19.67876637321936
 20
416.0296903454691
 30
0.0
 10
19.11890855817039
 20
418.1191081562463
 30
0.0
 10
18.75010270873201
 20
419.4955103244791
 30
0.0
 10
18.3843483895649
 20
420.8605240266986
 30
0.0
  0
SPLINE
  5
22E
330
1F
100
AcDbEntity
  8
0
  6
Continuous
 62
     7
370
    15
100
AcDbSpline
210
0.0
220
0.0
230
1.0
 70
    24
 71
     3
 72
    12
 73
     8
 74
     0
 42
0.00000001
 43
0.00000001
 12
1.0
 22
0.0
 32
0.0
 13
1.0
 23
0.0
 33
0.0
 40
0.0
 40
0.0
 40
0.0
 40
0.0
 40
0.2500000000000004
 40
0.2500000000000004
 40
0.5000000000000008
 40
0.5000000000000008
 40
1.0
 40
1.0
 40
1.0
 40
1.0
 10
18.3843483895649
 20
420.8605240266986
 30
0.0
 10
18.88233546681631
 20
421.35851110395
 30
0.0
 10
19.38489649933131
 20
421.861072136465
 30
0.0
 10
20.40158008836731
 20
422.8777557255009
 30
0.0
 10
20.91158650503175
 20
423.3877621421654
 30
0.0
 10
22.4451596296668
 20
424.9213352668004
 30
0.0
 10
23.47326403897251
 20
425.9494396761061
 30
0.0
 10
24.50807274652293
 20
426.9842483836565
 30
0.0
  0
SPLINE
  5
22F
330
1F
100
AcDbEntity
  8
0
  6
Continuous
 62
     7
370
    15
100
AcDbSpline
210
0.0
220
0.0
230
1.0
 70
    24
 71
     3
 72
    12
 73
     8
 74
     0
 42
0.00000001
 43
0.00000001
 12
1.0
 22
0.0
 32
0.0
 13
1.0
 23
0.0
 33
0.0
 40
0.0
 40
0.0
 40
0.0
 40
0.0
 40
0.2500000000000006
 40
0.2500000000000006
 40
0.4999999999999989
 40
0.4999999999999989
 40
1.0
 40
1.0
 40
1.0
 40
1.0
 10
22.12429340755408
 20
500.72167043348
 30
0.0
 10
21.75681016588589
 20
501.3581700789795
 30
0.0
 10
21.38767800752288
 20
501.9975257319717
 30
0.0
 10
20.65745775042441
 20
503.2623043179823
 30
0.0
 10
20.29478990948169
 20
503.8904634447664
 30
0.0
 10
19.21322766427069
 20
505.7637842050203
 30
0.0
 10
18.50074947455252
 20
506.9978326288967
 30
0.0
 10
17.79416638863193
 20
508.2216704334801
 30
0.0
  0
SPLINE
  5
230
330
1F
100
AcDbEntity
  8
0
  6
Continuous
 62
     7
370
    15
100
AcDbSpline
210
0.0
220
0.0
230
1.0
 70
    24
 71
     3
 72
    10
 73
     6
 74
     0
 42
0.00000001
 43
0.00000001
 12
1.0
 22
0.0
 32
0.0
 13
1.0
 23
0.0
 33
0.0
 40
0.0
 40
0.0
 40
0.0
 40
0.0
 40
0.5
 40
0.5
 40
1.0
 40
1.0
 40
1.0
 40
1.0
 10
17.79416638863193
 20
508.2216704334801
 30
0.0
 10
18.50251851282766
 20
509.4485723022364
 30
0.0
 10
19.21604465560314
 20
510.6844358340522
 30
0.0
 10
20.65801378768672
 20
513.1819996337667
 30
0.0
 10
21.38656828189785
 20
514.4438930338231
 30
0.0
 10
22.12429340755424
 20
515.7216704334801
 30
0.0
  0
CIRCLE
  5
231
330
1F
100
AcDbEntity
  8
0
  6
Continuous
 62
     7
370
    15
100
AcDbCircle
 10
256.845762267
 20
508.2216704335
 30
0.0
 40
18.50000000000001
  0
CIRCLE
  5
232
330
1F
100
AcDbEntity
  8
0
  6
Continuous
 62
     7
370
    15
100
AcDbCircle
 10
256.845762267
 20
416.3776466659
 30
0.0
 40
18.5
  0
CIRCLE
  5
233
330
1F
100
AcDbEntity
  8
0
  6
Continuous
 62
     7
370
    15
100
AcDbCircle
 10
191.9022302495
 20
351.4341146483
 30
0.0
 40
18.49999999999999
  0
CIRCLE
  5
234
330
1F
100
AcDbEntity
  8
0
  6
Continuous
 62
     7
370
    15
100
AcDbCircle
 10
191.9022302495
 20
573.165202451
 30
0.0
 40
18.50000000000011
  0
CIRCLE
  5
235
330
1F
100
AcDbEntity
  8
0
  6
Continuous
 62
     7
370
    15
100
AcDbCircle
 10
100.0582064819
 20
573.165202451
 30
0.0
 40
18.50000000000001
  0
CIRCLE
  5
236
330
1F
100
AcDbEntity
  8
0
  6
Continuous
 62
     7
370
    15
100
AcDbCircle
 10
100.0582064819
 20
351.4341146483
 30
0.0
 40
18.50000000000006
  0
CIRCLE
  5
237
330
1F
100
AcDbEntity
  8
0
  6
Continuous
 62
     7
370
    15
100
AcDbCircle
 10
35.1146744643
 20
416.3776466659
 30
0.0
 40
18.49999999999999
  0
CIRCLE
  5
238
330
1F
100
AcDbEntity
  8
0
  6
Continuous
 62
     7
370
    15
100
AcDbCircle
 10
35.1146744643
 20
508.2216704335
 30
0.0
 40
18.5
  0
CIRCLE
  5
239
330
1F
100
AcDbEntity
  8
0
  6
Continuous
 62
     7
370
    15
100
AcDbCircle
 10
145.9802183657
 20
462.2996585497
 30
0.0
 40
74.99999999999999
  0
CIRCLE
  5
23A
330
1F
100
AcDbEntity
  8
0
  6
Continuous
 62
     7
370
    15
100
AcDbCircle
 10
145.9802183657
 20
462.2996585497
 30
0.0
 40
142.5
  0
LINE
  5
23B
330
1F
100
AcDbEntity
  8
0
  6
Continuous
 62
     7
370
    15
100
AcDbLine
 10
14.3554154186
 20
516.8996589311
 30
0.0
 11
12.8554049282
 21
516.8996589311
 31
0.0
  0
LINE
  5
23C
330
1F
100
AcDbEntity
  8
0
  6
Continuous
 62
     7
370
    15
100
AcDbLine
 10
13.1049546747
 20
513.7818405458
 30
0.0
 11
11.6049590855
 21
513.7818405458
 31
0.0
  0
ARC
  5
23D
330
1F
100
AcDbEntity
  8
0
  6
Continuous
 62
     7
370
    15
100
AcDbCircle
 10
144.4802183657
 20
462.2996585497
 30
0.0
 40
142.5
100
AcDbArc
 50
157.4705723705
 51
158.8212678814
  0
LINE
  5
23E
330
1F
100
AcDbEntity
  8
0
  6
Continuous
 62
     7
370
    15
100
AcDbLine
 10
12.1510121374
 20
511.2485313841
 30
0.0
 11
10.651001647
 21
511.2485313841
 31
0.0
  0
LINE
  5
23F
330
1F
100
AcDbEntity
  8
0
  6
Continuous
 62
     7
370
    15
100
AcDbLine
 10
11.6582903414
 20
509.8797889479
 30
0.0
 11
10.1582947521
 21
509.8797889479
 31
0.0
  0
SPLINE
  5
240
330
1F
100
AcDbEntity
  8
0
  6
Continuous
 62
     7
370
    15
100
AcDbSpline
210
0.0
220
0.0
230
1.0
 70
     8
 71
     3
 72
     9
 73
     5
 74
     0
 42
0.00000001
 43
0.00000001
 12
1.0
 22
0.0
 32
0.0
 13
1.0
 23
0.0
 33
0.0
 40
0.0
 40
0.0
 40
0.0
 40
0.0
 40
0.5015679278636791
 40
1.0
 40
1.0
 40
1.0
 40
1.0
 10
10.15828750544309
 20
509.879789801895
 30
0.0
 10
10.23969418008169
 20
510.1086782336913
 30
0.0
 10
10.40199856622007
 20
510.5650240626028
 30
0.0
 10
10.56817740100255
 20
511.0211712970184
 30
0.0
 10
10.65100626196836
 20
511.2485297082674
 30
0.0
  0
LINE
  5
241
330
1F
100
AcDbEntity
  8
0
  6
Continuous
 62
     7
370
    15
100
AcDbLine
 10
10.7360425739
 20
507.1913214453
 30
0.0
 11
9.2360320835
 21
507.1913214453
 31
0.0
  0
ARC
  5
242
330
1F
100
AcDbEntity
  8
0
  6
Continuous
 62
     7
370
    15
100
AcDbCircle
 10
144.4802183657
 20
462.2996585497
 30
0.0
 40
142.5
100
AcDbArc
 50
160.4946025352
 51
161.6374225676
  0
SPLINE
  5
243
330
1F
100
AcDbEntity
  8
0
  6
Continuous
 62
     7
370
    15
100
AcDbSpline
210
0.0
220
0.0
230
1.0
 70
     8
 71
     3
 72
     9
 73
     5
 74
     0
 42
0.00000001
 43
0.00000001
 12
1.0
 22
0.0
 32
0.0
 13
1.0
 23
0.0
 33
0.0
 40
0.0
 40
0.0
 40
0.0
 40
0.0
 40
0.5026437339627498
 40
1.0
 40
1.0
 40
1.0
 40
1.0
 10
10.65100626196833
 20
511.2485297082674
 30
0.0
 10
10.80756084746198
 20
511.6734279515182
 30
0.0
 10
11.11902317140143
 20
512.5187547994251
 30
0.0
 10
11.44355145677381
 20
513.3622988444091
 30
0.0
 10
11.60495763301009
 20
513.7818407608602
 30
0.0
  0
LINE
  5
244
330
1F
100
AcDbEntity
  8
0
  6
Continuous
 62
     7
370
    15
100
AcDbLine
 10
10.3963855057
 20
506.1548041233
 30
0.0
 11
8.8963899164
 21
506.1548041233
 31
0.0
  0
LINE
  5
245
330
1F
100
AcDbEntity
  8
0
  6
Continuous
 62
     7
370
    15
100
AcDbLine
 10
8.8963899164
 20
506.1548041233
 30
0.0
 11
9.2371794729
 21
507.1913214453
 31
0.0
  0
LINE
  5
246
330
1F
100
AcDbEntity
  8
0
  6
Continuous
 62
     7
370
    15
100
AcDbLine
 10
10.1835820227
 20
509.9500665494
 30
0.0
 11
10.2104339151
 21
510.0267330238
 31
0.0
  0
LINE
  5
247
330
1F
100
AcDbEntity
  8
0
  6
Continuous
 62
     7
370
    15
100
AcDbLine
 10
9.6099320202
 20
503.6445135304
 30
0.0
 11
8.1099364309
 21
503.6445135304
 31
0.0
  0
ARC
  5
248
330
1F
100
AcDbEntity
  8
0
  6
Continuous
 62
     7
370
    15
100
AcDbCircle
 10
144.4802183657
 20
462.2996585497
 30
0.0
 40
142.5
100
AcDbArc
 50
162.075987311
 51
163.1337021692
  0
LINE
  5
249
330
1F
100
AcDbEntity
  8
0
  6
Continuous
 62
     7
370
    15
100
AcDbLine
 10
6.9955679922
 20
499.7725846299
 30
0.0
 11
7.00580509
 21
499.8094687291
 31
0.0
  0
LINE
  5
24A
330
1F
100
AcDbEntity
  8
0
  6
Continuous
 62
     7
370
    15
100
AcDbLine
 10
7.8009608536
 20
502.6079962083
 30
0.0
 11
8.1099364309
 21
503.6445135304
 31
0.0
  0
LINE
  5
24B
330
1F
100
AcDbEntity
  8
0
  6
Continuous
 62
     7
370
    15
100
AcDbLine
 10
8.5357073097
 20
499.9195287057
 30
0.0
 11
7.0356968193
 21
499.9195287057
 31
0.0
  0
ARC
  5
24C
330
1F
100
AcDbEntity
  8
0
  6
Continuous
 62
     7
370
    15
100
AcDbCircle
 10
144.4802183657
 20
462.2996585497
 30
0.0
 40
142.5
100
AcDbArc
 50
163.5686972364
 51
164.6925136059
  0
LINE
  5
24D
330
1F
100
AcDbEntity
  8
0
  6
Continuous
 62
     7
370
    15
100
AcDbLine
 10
9.2999729662
 20
502.6079962083
 30
0.0
 11
7.7999773769
 21
502.6079962083
 31
0.0
  0
LINE
  5
24E
330
1F
100
AcDbEntity
  8
0
  6
Continuous
 62
     7
370
    15
100
AcDbLine
 10
8.3897355347
 20
499.3820997008
 30
0.0
 11
6.8897250443
 21
499.3820997008
 31
0.0
  0
LINE
  5
24F
330
1F
100
AcDbEntity
  8
0
  6
Continuous
 62
     7
370
    15
100
AcDbLine
 10
6.8897250443
 20
499.3820997008
 30
0.0
 11
7.0356968193
 21
499.9195287057
 31
0.0
  0
LINE
  5
250
330
1F
100
AcDbEntity
  8
0
  6
Continuous
 62
     7
370
    15
100
AcDbLine
 10
7.3954257517
 20
495.4735102185
 30
0.0
 11
5.8954301624
 21
495.4735102185
 31
0.0
  0
LINE
  5
251
330
1F
100
AcDbEntity
  8
0
  6
Continuous
 62
     7
370
    15
100
AcDbLine
 10
7.2751137762
 20
494.9668111333
 30
0.0
 11
5.7751032858
 21
494.9668111333
 31
0.0
  0
LINE
  5
252
330
1F
100
AcDbEntity
  8
0
  6
Continuous
 62
     7
370
    15
100
AcDbLine
 10
5.7751032858
 20
494.9668111333
 30
0.0
 11
5.8954301624
 21
495.4735102185
 31
0.0
  0
LINE
  5
253
330
1F
100
AcDbEntity
  8
0
  6
Continuous
 62
     7
370
    15
100
AcDbLine
 10
6.6738966255
 20
492.2996578791
 30
0.0
 11
5.1739010363
 21
492.2996578791
 31
0.0
  0
ARC
  5
254
330
1F
100
AcDbEntity
  8
0
  6
Continuous
 62
     7
370
    15
100
AcDbCircle
 10
144.4802183657
 20
462.2996585497
 30
0.0
 40
142.5
100
AcDbArc
 50
166.7474821782
 51
167.846802531
  0
ARC
  5
255
330
1F
100
AcDbEntity
  8
0
  6
Continuous
 62
     7
370
    15
100
AcDbCircle
 10
144.4802183657
 20
462.2996585497
 30
0.0
 40
142.5
100
AcDbArc
 50
164.9164294638
 51
166.5380856669
  0
SPLINE
  5
256
330
1F
100
AcDbEntity
  8
0
  6
Continuous
 62
     7
370
    15
100
AcDbSpline
210
0.0
220
0.0
230
1.0
 70
     8
 71
     3
 72
     9
 73
     5
 74
     0
 42
0.00000001
 43
0.00000001
 12
1.0
 22
0.0
 32
0.0
 13
1.0
 23
0.0
 33
0.0
 40
0.0
 40
0.0
 40
0.0
 40
0.0
 40
0.5014270628128653
 40
1.0
 40
1.0
 40
1.0
 40
1.0
 10
10.96230403594167
 20
512.0913903235083
 30
0.0
 10
11.04173628150779
 20
512.3036183809356
 30
0.0
 10
11.20014864385715
 20
512.7268664925089
 30
0.0
 10
11.36194763589141
 20
513.149932145321
 30
0.0
 10
11.44261623458387
 20
513.3608612304664
 30
0.0
  0
LINE
  5
257
330
1F
100
AcDbEntity
  8
0
  6
Continuous
 62
     7
370
    15
100
AcDbLine
 10
14.6059039383
 20
517.4996579119
 30
0.0
 11
13.105908349
 21
517.4996579119
 31
0.0
  0
ARC
  5
258
330
1F
100
AcDbEntity
  8
0
  6
Continuous
 62
     7
370
    15
100
AcDbCircle
 10
144.4802183657
 20
462.2996585497
 30
0.0
 40
142.5
100
AcDbArc
 50
157.2091463396
 51
157.4705723705
  0
LINE
  5
259
330
1F
100
AcDbEntity
  8
0
  6
Continuous
 62
     7
370
    15
100
AcDbLine
 10
6.6738966255
 20
432.2996592202
 30
0.0
 11
5.1739010363
 21
432.2996592202
 31
0.0
  0
LINE
  5
25A
330
1F
100
AcDbEntity
  8
0
  6
Continuous
 62
     7
370
    15
100
AcDbLine
 10
8.9722666292
 20
423.1196591684
 30
0.0
 11
7.47227104
 21
423.1196591684
 31
0.0
  0
ARC
  5
25B
330
1F
100
AcDbEntity
  8
0
  6
Continuous
 62
     7
370
    15
100
AcDbCircle
 10
144.4802183657
 20
462.2996585497
 30
0.0
 40
142.5
100
AcDbArc
 50
192.153197469
 51
195.95887769
  0
LINE
  5
25C
330
1F
100
AcDbEntity
  8
0
  6
Continuous
 62
     7
370
    15
100
AcDbLine
 10
9.9967959671
 20
419.6996601352
 30
0.0
 11
8.4968003779
 21
419.6996601352
 31
0.0
  0
SPLINE
  5
25D
330
1F
100
AcDbEntity
  8
0
  6
Continuous
 62
     7
370
    15
100
AcDbSpline
210
0.0
220
0.0
230
1.0
 70
     8
 71
     3
 72
    11
 73
     7
 74
     0
 42
0.00000001
 43
0.00000001
 12
1.0
 22
0.0
 32
0.0
 13
1.0
 23
0.0
 33
0.0
 40
0.0
 40
0.0
 40
0.0
 40
0.0
 40
0.2467910937215347
 40
0.4957213817982986
 40
0.7467909797077737
 40
1.0
 40
1.0
 40
1.0
 40
1.0
 10
8.496800258907783
 20
419.6996585496686
 30
0.0
 10
8.409255018516804
 20
419.9808597722929
 30
0.0
 10
8.233405692343542
 20
420.5456996801705
 30
0.0
 10
7.975841100707037
 20
421.3969373070902
 30
0.0
 10
7.721023155135259
 20
422.2557029204374
 30
0.0
 10
7.555422674568102
 20
422.8308599642704
 30
0.0
 10
7.472271150924525
 20
423.1196585496684
 30
0.0
  0
LINE
  5
25E
330
1F
100
AcDbEntity
  8
0
  6
Continuous
 62
     7
370
    15
100
AcDbLine
 10
11.1158135681
 20
416.2796573766
 30
0.0
 11
9.6158030777
 21
416.2796573766
 31
0.0
  0
SPLINE
  5
25F
330
1F
100
AcDbEntity
  8
0
  6
Continuous
 62
     7
370
    15
100
AcDbSpline
210
0.0
220
0.0
230
1.0
 70
     8
 71
     3
 72
    11
 73
     7
 74
     0
 42
0.00000001
 43
0.00000001
 12
1.0
 22
0.0
 32
0.0
 13
1.0
 23
0.0
 33
0.0
 40
0.0
 40
0.0
 40
0.0
 40
0.0
 40
0.2469342793318195
 40
0.4959122787385739
 40
0.7469341396327234
 40
1.0
 40
1.0
 40
1.0
 40
1.0
 10
9.615806455045895
 20
416.2796585496685
 30
0.0
 10
9.520363520525905
 20
416.5610067565135
 30
0.0
 10
9.328687730208785
 20
417.1260317127614
 30
0.0
 10
9.047502772526277
 20
417.9774205596773
 30
0.0
 10
8.76907511441688
 20
418.8360352387241
 30
0.0
 10
8.587803553665507
 20
419.4110069715471
 30
0.0
 10
8.496800258907838
 20
419.6996585496685
 30
0.0
  0
LINE
  5
260
330
1F
100
AcDbEntity
  8
0
  6
Continuous
 62
     7
370
    15
100
AcDbLine
 10
14.6059039383
 20
407.0996591874
 30
0.0
 11
13.105908349
 21
407.0996591874
 31
0.0
  0
ARC
  5
261
330
1F
100
AcDbEntity
  8
0
  6
Continuous
 62
     7
370
    15
100
AcDbCircle
 10
144.4802183657
 20
462.2996585497
 30
0.0
 40
142.5
100
AcDbArc
 50
198.8412632114
 51
202.7908536604
  0
LINE
  5
262
330
1F
100
AcDbEntity
  8
0
  6
Continuous
 62
     7
370
    15
100
AcDbLine
 10
7.7999773769
 20
421.991320891
 30
0.0
 11
7.6424721031
 21
422.5515263208
 31
0.0
  0
LINE
  5
263
330
1F
100
AcDbEntity
  8
0
  6
Continuous
 62
     7
370
    15
100
AcDbLine
 10
9.5358881502
 20
416.5239283868
 30
0.0
 11
9.2360320835
 21
417.407995654
 31
0.0
  0
INSERT
  5
26F
330
1F
100
AcDbEntity
  8
FORMAT
100
AcDbBlockReference
  2
SW_CENTERMARKSYMBOL_0
 10
145.9802183657
 20
462.2996585497
 30
0.0
  0
LINE
  5
270
330
1F
100
AcDbEntity
  8
0
  6
Continuous
 62
     7
370
    15
100
AcDbLine
 10
3.4802201538
 20
157.3029286175
 30
0.0
 11
3.4802201538
 21
138.3029199152
 31
0.0
  0
LINE
  5
271
330
1F
100
AcDbEntity
  8
0
  6
Continuous
 62
     7
370
    15
100
AcDbLine
 10
288.4802165775
 20
138.3029199152
 30
0.0
 11
288.4802165775
 21
157.3029286175
 31
0.0
  0
LINE
  5
272
330
1F
100
AcDbEntity
  8
0
  6
Continuous
 62
     7
370
    15
100
AcDbLine
 10
3.4802201538
 20
58.3029291539
 30
0.0
 11
3.4802201538
 21
36.3029292731
 31
0.0
  0
LINE
  5
273
330
1F
100
AcDbEntity
  8
0
  6
Continuous
 62
     7
370
    15
100
AcDbLine
 10
288.4802165775
 20
36.3029292731
 30
0.0
 11
288.4802165775
 21
58.3029291539
 31
0.0
  0
LINE
  5
274
330
1F
100
AcDbEntity
  8
0
  6
Continuous
 62
     7
370
    15
100
AcDbLine
 10
288.4802165775
 20
-42.6970743627
 30
0.0
 11
288.4802165775
 21
-23.6970749737
 31
0.0
  0
LINE
  5
275
330
1F
100
AcDbEntity
  8
0
  6
Continuous
 62
     7
370
    15
100
AcDbLine
 10
3.4802201538
 20
-23.6970749737
 30
0.0
 11
3.4802201538
 21
-42.6970743627
 31
0.0
  0
LINE
  5
276
330
1F
100
AcDbEntity
  8
0
  6
Continuous
 62
     7
370
    15
100
AcDbLine
 10
210.4022297411
 20
157.3029286175
 30
0.0
 11
210.4022297411
 21
160.302919796
 31
0.0
  0
LINE
  5
277
330
1F
100
AcDbEntity
  8
0
  6
Continuous
 62
     7
370
    15
100
AcDbLine
 10
173.4022311269
 20
160.302919796
 30
0.0
 11
173.4022311269
 21
157.3029286175
 31
0.0
  0
LINE
  5
278
330
1F
100
AcDbEntity
  8
0
  6
Continuous
 62
     7
370
    15
100
AcDbLine
 10
118.5582056044
 20
157.3029286175
 30
0.0
 11
118.5582056044
 21
160.302919796
 31
0.0
  0
LINE
  5
279
330
1F
100
AcDbEntity
  8
0
  6
Continuous
 62
     7
370
    15
100
AcDbLine
 10
81.5582069902
 20
160.302919796
 30
0.0
 11
81.5582069902
 21
157.3029286175
 31
0.0
  0
LINE
  5
27A
330
1F
100
AcDbEntity
  8
0
  6
Continuous
 62
     7
370
    15
100
AcDbLine
 10
173.4022311269
 20
-42.6970743627
 30
0.0
 11
173.4022311269
 21
-45.6970743888
 31
0.0
  0
LINE
  5
27B
330
1F
100
AcDbEntity
  8
0
  6
Continuous
 62
     7
370
    15
100
AcDbLine
 10
210.4022297411
 20
-45.6970743888
 30
0.0
 11
210.4022297411
 21
-42.6970743627
 31
0.0
  0
LINE
  5
27C
330
1F
100
AcDbEntity
  8
0
  6
Continuous
 62
     7
370
    15
100
AcDbLine
 10
81.5582069902
 20
-42.6970743627
 30
0.0
 11
81.5582069902
 21
-45.6970743888
 31
0.0
  0
LINE
  5
27D
330
1F
100
AcDbEntity
  8
0
  6
Continuous
 62
     7
370
    15
100
AcDbLine
 10
118.5582056044
 20
-45.6970743888
 30
0.0
 11
118.5582056044
 21
-42.6970743627
 31
0.0
  0
LINE
  5
27E
330
1F
100
AcDbEntity
  8
0
  6
Continuous
 62
     7
370
    15
100
AcDbLine
 10
115.5907604246
 20
175.9954518585
 30
0.0
 11
115.0582059621
 21
176.3029224186
 31
0.0
  0
LINE
  5
27F
330
1F
100
AcDbEntity
  8
0
  6
Continuous
 62
     7
370
    15
100
AcDbLine
 10
115.0582059621
 20
-61.6970737518
 30
0.0
 11
115.5906542538
 21
-61.3896665217
 31
0.0
  0
LINE
  5
280
330
1F
100
AcDbEntity
  8
0
  6
Continuous
 62
     7
370
    15
100
AcDbLine
 10
201.9022311418
 20
176.3029224186
 30
0.0
 11
201.9022311418
 21
222.3029113321
 31
0.0
  0
LINE
  5
281
330
1F
100
AcDbEntity
  8
0
  6
Continuous
 62
     7
370
    15
100
AcDbLine
 10
181.9022315888
 20
222.3029113321
 30
0.0
 11
181.9022315888
 21
176.3029224186
 31
0.0
  0
LINE
  5
282
330
1F
100
AcDbEntity
  8
0
  6
Continuous
 62
     7
370
    15
100
AcDbLine
 10
201.9022311418
 20
58.3029291539
 30
0.0
 11
201.9022311418
 21
138.3029199152
 31
0.0
  0
LINE
  5
283
330
1F
100
AcDbEntity
  8
0
  6
Continuous
 62
     7
370
    15
100
AcDbLine
 10
181.9022315888
 20
138.3029199152
 30
0.0
 11
181.9022315888
 21
58.3029291539
 31
0.0
  0
LINE
  5
284
330
1F
100
AcDbEntity
  8
0
  6
Continuous
 62
     7
370
    15
100
AcDbLine
 10
110.0582051425
 20
176.3029224186
 30
0.0
 11
110.0582051425
 21
222.3029113321
 31
0.0
  0
LINE
  5
285
330
1F
100
AcDbEntity
  8
0
  6
Continuous
 62
     7
370
    15
100
AcDbLine
 10
90.0582055895
 20
222.3029113321
 30
0.0
 11
90.0582055895
 21
176.3029224186
 31
0.0
  0
LINE
  5
286
330
1F
100
AcDbEntity
  8
0
  6
Continuous
 62
     7
370
    15
100
AcDbLine
 10
201.9022311418
 20
-23.6970749737
 30
0.0
 11
201.9022311418
 21
36.3029292731
 31
0.0
  0
LINE
  5
287
330
1F
100
AcDbEntity
  8
0
  6
Continuous
 62
     7
370
    15
100
AcDbLine
 10
181.9022315888
 20
36.3029292731
 30
0.0
 11
181.9022315888
 21
-23.6970749737
 31
0.0
  0
LINE
  5
288
330
1F
100
AcDbEntity
  8
0
  6
Continuous
 62
     7
370
    15
100
AcDbLine
 10
110.0582051425
 20
58.3029291539
 30
0.0
 11
110.0582051425
 21
138.3029199152
 31
0.0
  0
LINE
  5
289
330
1F
100
AcDbEntity
  8
0
  6
Continuous
 62
     7
370
    15
100
AcDbLine
 10
90.0582055895
 20
138.3029199152
 30
0.0
 11
90.0582055895
 21
58.3029291539
 31
0.0
  0
LINE
  5
28A
330
1F
100
AcDbEntity
  8
0
  6
Continuous
 62
     7
370
    15
100
AcDbLine
 10
201.9022311418
 20
-107.6970719786
 30
0.0
 11
201.9022311418
 21
-61.6970737518
 31
0.0
  0
LINE
  5
28B
330
1F
100
AcDbEntity
  8
0
  6
Continuous
 62
     7
370
    15
100
AcDbLine
 10
181.9022315888
 20
-61.6970737518
 30
0.0
 11
181.9022315888
 21
-107.6970719786
 31
0.0
  0
LINE
  5
28C
330
1F
100
AcDbEntity
  8
0
  6
Continuous
 62
     7
370
    15
100
AcDbLine
 10
110.0582051425
 20
-23.6970749737
 30
0.0
 11
110.0582051425
 21
36.3029292731
 31
0.0
  0
LINE
  5
28D
330
1F
100
AcDbEntity
  8
0
  6
Continuous
 62
     7
370
    15
100
AcDbLine
 10
90.0582055895
 20
36.3029292731
 30
0.0
 11
90.0582055895
 21
-23.6970749737
 31
0.0
  0
LINE
  5
28E
330
1F
100
AcDbEntity
  8
0
  6
Continuous
 62
     7
370
    15
100
AcDbLine
 10
110.0582051425
 20
-107.6970719786
 30
0.0
 11
110.0582051425
 21
-61.6970737518
 31
0.0
  0
LINE
  5
28F
330
1F
100
AcDbEntity
  8
0
  6
Continuous
 62
     7
370
    15
100
AcDbLine
 10
90.0582055895
 20
-61.6970737518
 30
0.0
 11
90.0582055895
 21
-107.6970719786
 31
0.0
  0
LINE
  5
290
330
1F
100
AcDbEntity
  8
0
  6
Continuous
 62
     7
370
    15
100
AcDbLine
 10
85.0582066326
 20
176.3029224186
 30
0.0
 11
84.5256540327
 21
175.9954518585
 31
0.0
  0
LINE
  5
291
330
1F
100
AcDbEntity
  8
0
  6
Continuous
 62
     7
370
    15
100
AcDbLine
 10
84.5257583408
 20
-61.3896665217
 30
0.0
 11
85.0582066326
 21
-61.6970737518
 31
0.0
  0
ARC
  5
292
330
1F
100
AcDbEntity
  8
0
  6
Continuous
 62
     7
370
    15
100
AcDbCircle
 10
61.9802183657
 20
63.4904196198
 30
0.0
 40
17.50000000000004
100
AcDbArc
 50
133.6666445473
 51
164.5246563334
  0
ARC
  5
293
330
1F
100
AcDbEntity
  8
0
  6
Continuous
 62
     7
370
    15
100
AcDbCircle
 10
229.9802183657
 20
63.4904196198
 30
0.0
 40
17.50000000000004
100
AcDbArc
 50
15.4753436666
 51
46.3333554527
  0
ARC
  5
294
330
1F
100
AcDbEntity
  8
0
  6
Continuous
 62
     7
370
    15
100
AcDbCircle
 10
49.9802183657
 20
79.0460704627
 30
0.0
 40
2.00000000000002
100
AcDbArc
 50
132.0
 51
222.0
  0
ARC
  5
295
330
1F
100
AcDbEntity
  8
0
  6
Continuous
 62
     7
370
    15
100
AcDbCircle
 10
241.9802183657
 20
79.0460704627
 30
0.0
 40
2.000000000000026
100
AcDbArc
 50
318.0
 51
48.0
  0
LINE
  5
296
330
1F
100
AcDbEntity
  8
0
  6
Continuous
 62
     7
370
    15
100
AcDbLine
 10
48.4939310103
 20
77.7078098564
 30
0.0
 11
49.8971435576
 21
76.1493793636
 31
0.0
  0
LINE
  5
297
330
1F
100
AcDbEntity
  8
0
  6
Continuous
 62
     7
370
    15
100
AcDbLine
 10
242.0632931738
 20
76.1493793636
 30
0.0
 11
243.4665057211
 21
77.7078098564
 31
0.0
  0
LINE
  5
298
330
1F
100
AcDbEntity
  8
0
  6
Continuous
 62
     7
370
    15
100
AcDbLine
 10
243.3184775858
 20
80.5323622136
 30
0.0
 11
234.0585383921
 21
88.8700461893
 31
0.0
  0
LINE
  5
299
330
1F
100
AcDbEntity
  8
0
  6
Continuous
 62
     7
370
    15
100
AcDbLine
 10
57.9018983393
 20
88.8700461893
 30
0.0
 11
48.6419591456
 21
80.5323622136
 31
0.0
  0
LINE
  5
29A
330
1F
100
AcDbEntity
  8
0
  6
Continuous
 62
     7
370
    15
100
AcDbLine
 10
56.1756584196
 20
138.3029199152
 30
0.0
 11
57.9018983393
 21
88.8700461893
 31
0.0
  0
LINE
  5
29B
330
1F
100
AcDbEntity
  8
0
  6
Continuous
 62
     7
370
    15
100
AcDbLine
 10
234.0585383921
 20
88.8700461893
 30
0.0
 11
235.7847783117
 21
138.3029199152
 31
0.0
  0
LINE
  5
29C
330
1F
100
AcDbEntity
  8
0
  6
Continuous
 62
     7
370
    15
100
AcDbLine
 10
225.9802165775
 20
-23.6970749737
 30
0.0
 11
225.9802165775
 21
36.3029292731
 31
0.0
  0
LINE
  5
29D
330
1F
100
AcDbEntity
  8
0
  6
Continuous
 62
     7
370
    15
100
AcDbLine
 10
65.9802201538
 20
36.3029292731
 30
0.0
 11
65.9802201538
 21
-23.6970749737
 31
0.0
  0
LINE
  5
29E
330
1F
100
AcDbEntity
  8
0
  6
Continuous
 62
     7
370
    15
100
AcDbLine
 10
275.3457668572
 20
157.3029286175
 30
0.0
 11
275.3457668572
 21
160.302919796
 31
0.0
  0
LINE
  5
29F
330
1F
100
AcDbEntity
  8
0
  6
Continuous
 62
     7
370
    15
100
AcDbLine
 10
238.3457589297
 20
160.302919796
 30
0.0
 11
238.3457589297
 21
157.3029286175
 31
0.0
  0
LINE
  5
2A0
330
1F
100
AcDbEntity
  8
0
  6
Continuous
 62
     7
370
    15
100
AcDbLine
 10
238.3457589297
 20
-42.6970743627
 30
0.0
 11
238.3457589297
 21
-45.6970743888
 31
0.0
  0
LINE
  5
2A1
330
1F
100
AcDbEntity
  8
0
  6
Continuous
 62
     7
370
    15
100
AcDbLine
 10
275.3457668572
 20
-45.6970743888
 30
0.0
 11
275.3457668572
 21
-42.6970743627
 31
0.0
  0
LINE
  5
2A2
330
1F
100
AcDbEntity
  8
0
  6
Continuous
 62
     7
370
    15
100
AcDbLine
 10
53.6146778016
 20
157.3029286175
 30
0.0
 11
53.6146778016
 21
160.302919796
 31
0.0
  0
LINE
  5
2A3
330
1F
100
AcDbEntity
  8
0
  6
Continuous
 62
     7
370
    15
100
AcDbLine
 10
16.6146698742
 20
160.302919796
 30
0.0
 11
16.6146698742
 21
157.3029286175
 31
0.0
  0
LINE
  5
2A4
330
1F
100
AcDbEntity
  8
0
  6
Continuous
 62
     7
370
    15
100
AcDbLine
 10
16.6146698742
 20
-42.6970743627
 30
0.0
 11
16.6146698742
 21
-45.6970743888
 31
0.0
  0
LINE
  5
2A5
330
1F
100
AcDbEntity
  8
0
  6
Continuous
 62
     7
370
    15
100
AcDbLine
 10
53.6146778016
 20
-45.6970743888
 30
0.0
 11
53.6146778016
 21
-42.6970743627
 31
0.0
  0
LINE
  5
2A6
330
1F
100
AcDbEntity
  8
0
  6
Continuous
 62
     7
370
    15
100
AcDbLine
 10
241.8457585721
 20
176.3029224186
 30
0.0
 11
241.3133177309
 21
175.9955114632
 31
0.0
  0
LINE
  5
2A7
330
1F
100
AcDbEntity
  8
0
  6
Continuous
 62
     7
370
    15
100
AcDbLine
 10
241.3132059722
 20
-61.3896031917
 30
0.0
 11
241.8457585721
 21
-61.6970737518
 31
0.0
  0
LINE
  5
2A8
330
1F
100
AcDbEntity
  8
0
  6
Continuous
 62
     7
370
    15
100
AcDbLine
 10
266.8457645326
 20
176.3029224186
 30
0.0
 11
266.8457645326
 21
222.3029113321
 31
0.0
  0
LINE
  5
2A9
330
1F
100
AcDbEntity
  8
0
  6
Continuous
 62
     7
370
    15
100
AcDbLine
 10
246.8457612543
 20
222.3029113321
 30
0.0
 11
246.8457612543
 21
176.3029224186
 31
0.0
  0
LINE
  5
2AA
330
1F
100
AcDbEntity
  8
0
  6
Continuous
 62
     7
370
    15
100
AcDbLine
 10
266.8457645326
 20
58.3029291539
 30
0.0
 11
266.8457645326
 21
138.3029199152
 31
0.0
  0
LINE
  5
2AB
330
1F
100
AcDbEntity
  8
0
  6
Continuous
 62
     7
370
    15
100
AcDbLine
 10
246.8457612543
 20
138.3029199152
 30
0.0
 11
246.8457612543
 21
58.3029291539
 31
0.0
  0
LINE
  5
2AC
330
1F
100
AcDbEntity
  8
0
  6
Continuous
 62
     7
370
    15
100
AcDbLine
 10
266.8457645326
 20
-23.6970749737
 30
0.0
 11
266.8457645326
 21
36.3029292731
 31
0.0
  0
LINE
  5
2AD
330
1F
100
AcDbEntity
  8
0
  6
Continuous
 62
     7
370
    15
100
AcDbLine
 10
246.8457612543
 20
36.3029292731
 30
0.0
 11
246.8457612543
 21
-23.6970749737
 31
0.0
  0
LINE
  5
2AE
330
1F
100
AcDbEntity
  8
0
  6
Continuous
 62
     7
370
    15
100
AcDbLine
 10
266.8457645326
 20
-107.6970719786
 30
0.0
 11
266.8457645326
 21
-61.6970737518
 31
0.0
  0
LINE
  5
2AF
330
1F
100
AcDbEntity
  8
0
  6
Continuous
 62
     7
370
    15
100
AcDbLine
 10
246.8457612543
 20
-61.6970737518
 30
0.0
 11
246.8457612543
 21
-107.6970719786
 31
0.0
  0
LINE
  5
2B0
330
1F
100
AcDbEntity
  8
0
  6
Continuous
 62
     7
370
    15
100
AcDbLine
 10
45.114675477
 20
176.3029224186
 30
0.0
 11
45.114675477
 21
222.3029113321
 31
0.0
  0
LINE
  5
2B1
330
1F
100
AcDbEntity
  8
0
  6
Continuous
 62
     7
370
    15
100
AcDbLine
 10
25.1146721988
 20
222.3029113321
 30
0.0
 11
25.1146721988
 21
176.3029224186
 31
0.0
  0
LINE
  5
2B2
330
1F
100
AcDbEntity
  8
0
  6
Continuous
 62
     7
370
    15
100
AcDbLine
 10
45.114675477
 20
58.3029291539
 30
0.0
 11
45.114675477
 21
138.3029199152
 31
0.0
  0
LINE
  5
2B3
330
1F
100
AcDbEntity
  8
0
  6
Continuous
 62
     7
370
    15
100
AcDbLine
 10
25.1146721988
 20
138.3029199152
 30
0.0
 11
25.1146721988
 21
58.3029291539
 31
0.0
  0
LINE
  5
2B4
330
1F
100
AcDbEntity
  8
0
  6
Continuous
 62
     7
370
    15
100
AcDbLine
 10
45.114675477
 20
-23.6970749737
 30
0.0
 11
45.114675477
 21
36.3029292731
 31
0.0
  0
LINE
  5
2B5
330
1F
100
AcDbEntity
  8
0
  6
Continuous
 62
     7
370
    15
100
AcDbLine
 10
25.1146721988
 20
36.3029292731
 30
0.0
 11
25.1146721988
 21
-23.6970749737
 31
0.0
  0
LINE
  5
2B6
330
1F
100
AcDbEntity
  8
0
  6
Continuous
 62
     7
370
    15
100
AcDbLine
 10
45.114675477
 20
-107.6970719786
 30
0.0
 11
45.114675477
 21
-61.6970737518
 31
0.0
  0
LINE
  5
2B7
330
1F
100
AcDbEntity
  8
0
  6
Continuous
 62
     7
370
    15
100
AcDbLine
 10
25.1146721988
 20
-61.6970737518
 30
0.0
 11
25.1146721988
 21
-107.6970719786
 31
0.0
  0
LINE
  5
2B8
330
1F
100
AcDbEntity
  8
0
  6
Continuous
 62
     7
370
    15
100
AcDbLine
 10
20.1146695166
 20
176.3029224186
 30
0.0
 11
17.7941712885
 21
174.9631739168
 31
0.0
  0
LINE
  5
2B9
330
1F
100
AcDbEntity
  8
0
  6
Continuous
 62
     7
370
    15
100
AcDbLine
 10
52.4351838379
 20
174.9631739168
 30
0.0
 11
50.1146781592
 21
176.3029224186
 31
0.0
  0
LINE
  5
2BA
330
1F
100
AcDbEntity
  8
0
  6
Continuous
 62
     7
370
    15
100
AcDbLine
 10
17.7941712885
 20
-60.3573289753
 30
0.0
 11
20.1146695166
 21
-61.6970737518
 31
0.0
  0
LINE
  5
2BB
330
1F
100
AcDbEntity
  8
0
  6
Continuous
 62
     7
370
    15
100
AcDbLine
 10
50.1146781592
 20
-61.6970737518
 30
0.0
 11
52.4351838379
 21
-60.3573289753
 31
0.0
  0
LINE
  5
2BC
330
1F
100
AcDbEntity
  8
0
  6
Continuous
 62
     7
370
    15
100
AcDbLine
 10
272.3782155066
 20
175.9955114632
 30
0.0
 11
271.8457672148
 21
176.3029224186
 31
0.0
  0
LINE
  5
2BD
330
1F
100
AcDbEntity
  8
0
  6
Continuous
 62
     7
370
    15
100
AcDbLine
 10
271.8457672148
 20
-61.6970737518
 30
0.0
 11
272.3783198147
 21
-61.3896031917
 31
0.0
  0
LINE
  5
2BE
330
1F
100
AcDbEntity
  8
0
  6
Continuous
 62
     7
370
    15
100
AcDbLine
 10
241.3133177309
 20
175.9955114632
 30
0.0
 11
239.5252528935
 21
174.9631739168
 31
0.0
  0
LINE
  5
2BF
330
1F
100
AcDbEntity
  8
0
  6
Continuous
 62
     7
370
    15
100
AcDbLine
 10
274.1662654429
 20
174.9631739168
 30
0.0
 11
272.4285963326
 21
175.9664243965
 31
0.0
  0
LINE
  5
2C0
330
1F
100
AcDbEntity
  8
0
  6
Continuous
 62
     7
370
    15
100
AcDbLine
 10
239.5252528935
 20
-60.3573289753
 30
0.0
 11
241.3132059722
 21
-61.3896031917
 31
0.0
  0
LINE
  5
2C1
330
1F
100
AcDbEntity
  8
0
  6
Continuous
 62
     7
370
    15
100
AcDbLine
 10
272.4589499979
 20
-61.3430463762
 30
0.0
 11
274.1662654429
 21
-60.3573289753
 31
0.0
  0
LINE
  5
2C2
330
1F
100
AcDbEntity
  8
0
  6
Continuous
 62
     7
370
    15
100
AcDbLine
 10
207.4347826986
 20
175.9954518585
 30
0.0
 11
206.9022300987
 21
176.3029224186
 31
0.0
  0
LINE
  5
2C3
330
1F
100
AcDbEntity
  8
0
  6
Continuous
 62
     7
370
    15
100
AcDbLine
 10
206.9022300987
 20
-61.6970737518
 30
0.0
 11
207.4346783905
 21
-61.3896665217
 31
0.0
  0
LINE
  5
2C4
330
1F
100
AcDbEntity
  8
0
  6
Continuous
 62
     7
370
    15
100
AcDbLine
 10
176.9022307693
 20
176.3029224186
 30
0.0
 11
176.3696763067
 21
175.9954518585
 31
0.0
  0
LINE
  5
2C5
330
1F
100
AcDbEntity
  8
0
  6
Continuous
 62
     7
370
    15
100
AcDbLine
 10
176.3697824775
 20
-61.3896665217
 30
0.0
 11
176.9022307693
 21
-61.6970737518
 31
0.0
  0
LINE
  5
2C6
330
1F
100
AcDbEntity
  8
0
  6
Continuous
 62
     7
370
    15
100
AcDbLine
 10
288.4802165775
 20
138.3029199152
 30
0.0
 11
3.4802201538
 21
138.3029199152
 31
0.0
  0
LINE
  5
2C7
330
1F
100
AcDbEntity
  8
0
  6
Continuous
 62
     7
370
    15
100
AcDbLine
 10
288.4802165775
 20
157.3029286175
 30
0.0
 11
3.4802201538
 21
157.3029286175
 31
0.0
  0
LINE
  5
2C8
330
1F
100
AcDbEntity
  8
0
  6
Continuous
 62
     7
370
    15
100
AcDbLine
 10
45.2175009399
 20
36.3029292731
 30
0.0
 11
288.4802165775
 21
36.3029292731
 31
0.0
  0
LINE
  5
2C9
330
1F
100
AcDbEntity
  8
0
  6
Continuous
 62
     7
370
    15
100
AcDbLine
 10
3.4802201538
 20
36.3029292731
 30
0.0
 11
45.2175009399
 21
36.3029292731
 31
0.0
  0
LINE
  5
2CA
330
1F
100
AcDbEntity
  8
0
  6
Continuous
 62
     7
370
    15
100
AcDbLine
 10
45.2175009399
 20
58.3029291539
 30
0.0
 11
288.4802165775
 21
58.3029291539
 31
0.0
  0
LINE
  5
2CB
330
1F
100
AcDbEntity
  8
0
  6
Continuous
 62
     7
370
    15
100
AcDbLine
 10
3.4802201538
 20
58.3029291539
 30
0.0
 11
45.2175009399
 21
58.3029291539
 31
0.0
  0
LINE
  5
2CC
330
1F
100
AcDbEntity
  8
0
  6
Continuous
 62
     7
370
    15
100
AcDbLine
 10
3.4802201538
 20
-42.6970743627
 30
0.0
 11
288.4802165775
 21
-42.6970743627
 31
0.0
  0
LINE
  5
2CD
330
1F
100
AcDbEntity
  8
0
  6
Continuous
 62
     7
370
    15
100
AcDbLine
 10
9.2798563986
 20
-28.2189347834
 30
0.0
 11
8.9722666292
 21
-25.6970734389
 31
0.0
  0
LINE
  5
2CE
330
1F
100
AcDbEntity
  8
0
  6
Continuous
 62
     7
370
    15
100
AcDbLine
 10
11.5746501236
 20
-29.1470740975
 30
0.0
 11
11.7104295044
 21
-28.1870742382
 31
0.0
  0
LINE
  5
2CF
330
1F
100
AcDbEntity
  8
0
  6
Continuous
 62
     7
370
    15
100
AcDbLine
 10
14.6059039383
 20
-25.6970734389
 30
0.0
 11
14.6059039383
 21
-28.1870742382
 31
0.0
  0
SPLINE
  5
2D0
330
1F
100
AcDbEntity
  8
0
  6
Continuous
 62
     7
370
    15
100
AcDbSpline
210
0.0
220
0.0
230
1.0
 70
     8
 71
     3
 72
    10
 73
     6
 74
     0
 42
0.00000001
 43
0.00000001
 12
1.0
 22
0.0
 32
0.0
 13
1.0
 23
0.0
 33
0.0
 40
0.0
 40
0.0
 40
0.0
 40
0.0
 40
0.3327513064050331
 40
0.6660821121148647
 40
1.0
 40
1.0
 40
1.0
 40
1.0
 10
14.35541067350798
 20
-37.6970743627368
 30
0.0
 10
14.22456610824385
 20
-37.27590280094174
 30
0.0
 10
13.96264910683079
 20
-36.43282619074298
 30
0.0
 10
13.57853280009183
 20
-35.1653111072969
 30
0.0
 10
13.32827909010967
 20
-34.31841471728168
 30
0.0
 10
13.2030421416153
 20
-33.89459394921422
 30
0.0
  0
SPLINE
  5
2D1
330
1F
100
AcDbEntity
  8
0
  6
Continuous
 62
     7
370
    15
100
AcDbSpline
210
0.0
220
0.0
230
1.0
 70
     8
 71
     3
 72
    14
 73
    10
 74
     0
 42
0.00000001
 43
0.00000001
 12
1.0
 22
0.0
 32
0.0
 13
1.0
 23
0.0
 33
0.0
 40
0.0
 40
0.0
 40
0.0
 40
0.0
 40
0.25
 40
0.25
 40
0.5
 40
0.5
 40
0.75
 40
0.75
 40
1.0
 40
1.0
 40
1.0
 40
1.0
 10
13.2030421416153
 20
-33.89459394921423
 30
0.0
 10
13.32072085561159
 20
-33.83044585716166
 30
0.0
 10
13.43438616133122
 20
-33.72981875508259
 30
0.0
 10
13.65371590796427
 20
-33.45933514919842
 30
0.0
 10
13.76003858657146
 20
-33.28707559998213
 30
0.0
 10
13.95254731663431
 20
-32.88664534950722
 30
0.0
 10
14.04074858010379
 20
-32.65544440725647
 30
0.0
 10
14.19407500312234
 20
-32.13497011863797
 30
0.0
 10
14.25732493068008
 20
-31.85283852310812
 30
0.0
 10
14.30569691220654
 20
-31.54707436273681
 30
0.0
  0
LINE
  5
2D2
330
1F
100
AcDbEntity
  8
0
  6
Continuous
 62
     7
370
    15
100
AcDbLine
 10
14.6059039383
 20
-29.1470740975
 30
0.0
 11
14.6059039383
 21
-31.5470746772
 31
0.0
  0
LINE
  5
2D3
330
1F
100
AcDbEntity
  8
0
  6
Continuous
 62
     7
370
    15
100
AcDbLine
 10
3.4802201538
 20
-23.6970749737
 30
0.0
 11
288.4802165775
 21
-23.6970749737
 31
0.0
  0
LINE
  5
2D4
330
1F
100
AcDbEntity
  8
0
  6
Continuous
 62
     7
370
    15
100
AcDbLine
 10
191.9022295027
 20
160.302919796
 30
0.0
 11
173.4022311269
 21
160.302919796
 31
0.0
  0
LINE
  5
2D5
330
1F
100
AcDbEntity
  8
0
  6
Continuous
 62
     7
370
    15
100
AcDbLine
 10
210.4022297411
 20
160.302919796
 30
0.0
 11
191.9022295027
 21
160.302919796
 31
0.0
  0
LINE
  5
2D6
330
1F
100
AcDbEntity
  8
0
  6
Continuous
 62
     7
370
    15
100
AcDbLine
 10
86.9767311363
 20
160.302919796
 30
0.0
 11
81.5582069902
 21
160.302919796
 31
0.0
  0
LINE
  5
2D7
330
1F
100
AcDbEntity
  8
0
  6
Continuous
 62
     7
370
    15
100
AcDbLine
 10
118.5582056044
 20
160.302919796
 30
0.0
 11
86.9767311363
 21
160.302919796
 31
0.0
  0
LINE
  5
2D8
330
1F
100
AcDbEntity
  8
0
  6
Continuous
 62
     7
370
    15
100
AcDbLine
 10
173.4022311269
 20
-45.6970743888
 30
0.0
 11
210.4022297411
 21
-45.6970743888
 31
0.0
  0
LINE
  5
2D9
330
1F
100
AcDbEntity
  8
0
  6
Continuous
 62
     7
370
    15
100
AcDbLine
 10
81.5582069902
 20
-45.6970743888
 30
0.0
 11
118.5582056044
 21
-45.6970743888
 31
0.0
  0
LINE
  5
2DA
330
1F
100
AcDbEntity
  8
0
  6
Continuous
 62
     7
370
    15
100
AcDbLine
 10
87.8107565789
 20
160.302919796
 30
0.0
 11
87.8107565789
 21
174.9631739168
 31
0.0
  0
SPLINE
  5
2DB
330
1F
100
AcDbEntity
  8
0
  6
Continuous
 62
     7
370
    15
100
AcDbSpline
210
0.0
220
0.0
230
1.0
 70
     8
 71
     3
 72
    12
 73
     8
 74
     0
 42
0.00000001
 43
0.00000001
 12
1.0
 22
0.0
 32
0.0
 13
1.0
 23
0.0
 33
0.0
 40
0.0
 40
0.0
 40
0.0
 40
0.0
 40
0.2500000000000007
 40
0.2500000000000007
 40
0.5000000000000013
 40
0.5000000000000013
 40
1.0
 40
1.0
 40
1.0
 40
1.0
 10
96.17592080532677
 20
176.3029256372636
 30
0.0
 10
95.46599769761526
 20
176.3029256372636
 30
0.0
 10
94.75288912746198
 20
176.2712590870731
 30
0.0
 10
93.34221191704023
 20
176.1487129883488
 30
0.0
 10
92.64159144917816
 20
176.0579512798967
 30
0.0
 10
90.55217363840097
 20
175.7078929065256
 30
0.0
 10
89.17577147016814
 20
175.3711256099693
 30
0.0
 10
87.81075776794864
 20
174.9631796751082
 30
0.0
  0
SPLINE
  5
2DC
330
1F
100
AcDbEntity
  8
0
  6
Continuous
 62
     7
370
    15
100
AcDbSpline
210
0.0
220
0.0
230
1.0
 70
     8
 71
     3
 72
    10
 73
     6
 74
     0
 42
0.00000001
 43
0.00000001
 12
1.0
 22
0.0
 32
0.0
 13
1.0
 23
0.0
 33
0.0
 40
0.0
 40
0.0
 40
0.0
 40
0.0
 40
0.5
 40
0.5
 40
1.0
 40
1.0
 40
1.0
 40
1.0
 10
104.5410838427049
 20
174.9631796751083
 30
0.0
 10
103.1726526209702
 20
175.3721469646937
 30
0.0
 10
101.7942259628916
 20
175.709075162269
 30
0.0
 10
99.00855551210944
 20
176.1752407532048
 30
0.0
 10
97.60109630847447
 20
176.3029256372636
 30
0.0
 10
96.17592080532677
 20
176.3029256372636
 30
0.0
  0
LINE
  5
2DD
330
1F
100
AcDbEntity
  8
0
  6
Continuous
 62
     7
370
    15
100
AcDbLine
 10
104.5410837381
 20
160.302919796
 30
0.0
 11
104.5410837381
 21
174.9631739168
 31
0.0
  0
SPLINE
  5
2DE
330
1F
100
AcDbEntity
  8
0
  6
Continuous
 62
     7
370
    15
100
AcDbSpline
210
0.0
220
0.0
230
1.0
 70
     8
 71
     3
 72
    12
 73
     8
 74
     0
 42
0.00000001
 43
0.00000001
 12
1.0
 22
0.0
 32
0.0
 13
1.0
 23
0.0
 33
0.0
 40
0.0
 40
0.0
 40
0.0
 40
0.0
 40
0.2500000000000017
 40
0.2500000000000017
 40
0.5000000000000033
 40
0.5000000000000033
 40
1.0
 40
1.0
 40
1.0
 40
1.0
 10
110.6648081996627
 20
176.3029256372636
 30
0.0
 10
110.1470964377141
 20
176.3029256372637
 30
0.0
 10
109.6277263794707
 20
176.2718113779385
 30
0.0
 10
108.5857124749072
 20
176.148157472584
 30
0.0
 10
108.0685157847475
 20
176.0562568260963
 30
0.0
 10
106.5344162739562
 20
175.7040635159046
 30
0.0
 10
105.5312559310814
 20
175.3674157374529
 30
0.0
 10
104.5410838427049
 20
174.9631796751081
 30
0.0
  0
LINE
  5
2DF
330
1F
100
AcDbEntity
  8
0
  6
Continuous
 62
     7
370
    15
100
AcDbLine
 10
96.1759220212
 20
176.3029224186
 30
0.0
 11
110.664809063
 21
176.3029224186
 31
0.0
  0
LINE
  5
2E0
330
1F
100
AcDbEntity
  8
0
  6
Continuous
 62
     7
370
    15
100
AcDbLine
 10
104.5410837381
 20
-45.6970743888
 30
0.0
 11
104.5410837381
 21
-60.3573289753
 31
0.0
  0
SPLINE
  5
2E1
330
1F
100
AcDbEntity
  8
0
  6
Continuous
 62
     7
370
    15
100
AcDbSpline
210
0.0
220
0.0
230
1.0
 70
     8
 71
     3
 72
    12
 73
     8
 74
     0
 42
0.00000001
 43
0.00000001
 12
1.0
 22
0.0
 32
0.0
 13
1.0
 23
0.0
 33
0.0
 40
0.0
 40
0.0
 40
0.0
 40
0.0
 40
0.2499999999999994
 40
0.2499999999999994
 40
0.4999999999999988
 40
0.4999999999999988
 40
1.0
 40
1.0
 40
1.0
 40
1.0
 10
96.17592080532675
 20
-61.69707436273642
 30
0.0
 10
96.88584391303824
 20
-61.69707436273642
 30
0.0
 10
97.59895248319155
 20
-61.66540781254599
 30
0.0
 10
99.00962969361332
 20
-61.54286171382154
 30
0.0
 10
99.71025016147536
 20
-61.45210000536937
 30
0.0
 10
101.7996679722525
 20
-61.10204163199838
 30
0.0
 10
103.1760701404854
 20
-60.76527433544203
 30
0.0
 10
104.5410838427049
 20
-60.35732840058093
 30
0.0
  0
SPLINE
  5
2E2
330
1F
100
AcDbEntity
  8
0
  6
Continuous
 62
     7
370
    15
100
AcDbSpline
210
0.0
220
0.0
230
1.0
 70
     8
 71
     3
 72
    10
 73
     6
 74
     0
 42
0.00000001
 43
0.00000001
 12
1.0
 22
0.0
 32
0.0
 13
1.0
 23
0.0
 33
0.0
 40
0.0
 40
0.0
 40
0.0
 40
0.0
 40
0.5
 40
0.5
 40
1.0
 40
1.0
 40
1.0
 40
1.0
 10
87.81075776794862
 20
-60.35732840058104
 30
0.0
 10
89.17918898968333
 20
-60.76629569016648
 30
0.0
 10
90.55761564776189
 20
-61.10322388774173
 30
0.0
 10
93.34328609854411
 20
-61.5693894786776
 30
0.0
 10
94.75074530217903
 20
-61.69707436273642
 30
0.0
 10
96.17592080532675
 20
-61.69707436273642
 30
0.0
  0
LINE
  5
2E3
330
1F
100
AcDbEntity
  8
0
  6
Continuous
 62
     7
370
    15
100
AcDbLine
 10
87.8107565789
 20
-45.6970743888
 30
0.0
 11
87.8107565789
 21
-60.3573289753
 31
0.0
  0
SPLINE
  5
2E4
330
1F
100
AcDbEntity
  8
0
  6
Continuous
 62
     7
370
    15
100
AcDbSpline
210
0.0
220
0.0
230
1.0
 70
     8
 71
     3
 72
    12
 73
     8
 74
     0
 42
0.00000001
 43
0.00000001
 12
1.0
 22
0.0
 32
0.0
 13
1.0
 23
0.0
 33
0.0
 40
0.0
 40
0.0
 40
0.0
 40
0.0
 40
0.2500000000000017
 40
0.2500000000000017
 40
0.5000000000000034
 40
0.5000000000000034
 40
1.0
 40
1.0
 40
1.0
 40
1.0
 10
104.5410838427049
 20
-60.35732840058082
 30
0.0
 10
105.0390709199563
 20
-60.5606307735418
 30
0.0
 10
105.5416319524713
 20
-60.74727618589009
 30
0.0
 10
106.5583155415072
 20
-61.07846343963068
 30
0.0
 10
107.0683219581717
 20
-61.22154589379629
 30
0.0
 10
108.6018950828066
 20
-61.57128304618013
 30
0.0
 10
109.6299994921123
 20
-61.69707436273642
 30
0.0
 10
110.6648081996627
 20
-61.69707436273642
 30
0.0
  0
LINE
  5
2E5
330
1F
100
AcDbEntity
  8
0
  6
Continuous
 62
     7
370
    15
100
AcDbLine
 10
110.664809063
 20
-61.6970737518
 30
0.0
 11
96.1759220212
 21
-61.6970737518
 31
0.0
  0
LINE
  5
2E6
330
1F
100
AcDbEntity
  8
0
  6
Continuous
 62
     7
370
    15
100
AcDbLine
 10
191.9022295027
 20
160.302919796
 30
0.0
 11
191.9022295027
 21
174.9631739168
 31
0.0
  0
SPLINE
  5
2E7
330
1F
100
AcDbEntity
  8
0
  6
Continuous
 62
     7
370
    15
100
AcDbSpline
210
0.0
220
0.0
230
1.0
 70
     8
 71
     3
 72
    12
 73
     8
 74
     0
 42
0.00000001
 43
0.00000001
 12
1.0
 22
0.0
 32
0.0
 13
1.0
 23
0.0
 33
0.0
 40
0.0
 40
0.0
 40
0.0
 40
0.0
 40
0.2499999999999986
 40
0.2499999999999986
 40
0.4999999999999996
 40
0.4999999999999996
 40
1.0
 40
1.0
 40
1.0
 40
1.0
 10
199.4022302494846
 20
176.3029256372636
 30
0.0
 10
198.7657306039851
 20
176.3029256372636
 30
0.0
 10
198.1263749509929
 20
176.2712590870731
 30
0.0
 10
196.8615963649823
 20
176.1487129883488
 30
0.0
 10
196.2334372381983
 20
176.0579512798966
 30
0.0
 10
194.3601164779444
 20
175.7078929065255
 30
0.0
 10
193.1260680540679
 20
175.3711256099693
 30
0.0
 10
191.9022302494845
 20
174.9631796751082
 30
0.0
  0
SPLINE
  5
2E8
330
1F
100
AcDbEntity
  8
0
  6
Continuous
 62
     7
370
    15
100
AcDbSpline
210
0.0
220
0.0
230
1.0
 70
     8
 71
     3
 72
    10
 73
     6
 74
     0
 42
0.00000001
 43
0.00000001
 12
1.0
 22
0.0
 32
0.0
 13
1.0
 23
0.0
 33
0.0
 40
0.0
 40
0.0
 40
0.0
 40
0.0
 40
0.5
 40
0.5
 40
1.0
 40
1.0
 40
1.0
 40
1.0
 10
206.9022302494846
 20
174.9631796751083
 30
0.0
 10
205.6753283807283
 20
175.3721469646937
 30
0.0
 10
204.4394648489125
 20
175.709075162269
 30
0.0
 10
201.9419010491978
 20
176.1752407532048
 30
0.0
 10
200.6800076491416
 20
176.3029256372636
 30
0.0
 10
199.4022302494846
 20
176.3029256372636
 30
0.0
  0
LINE
  5
2E9
330
1F
100
AcDbEntity
  8
0
  6
Continuous
 62
     7
370
    15
100
AcDbLine
 10
206.9022300987
 20
160.302919796
 30
0.0
 11
206.9022300987
 21
174.9631739168
 31
0.0
  0
SPLINE
  5
2EA
330
1F
100
AcDbEntity
  8
0
  6
Continuous
 62
     7
370
    15
100
AcDbSpline
210
0.0
220
0.0
230
1.0
 70
     8
 71
     3
 72
    10
 73
     6
 74
     0
 42
0.00000001
 43
0.00000001
 12
1.0
 22
0.0
 32
0.0
 13
1.0
 23
0.0
 33
0.0
 40
0.0
 40
0.0
 40
0.0
 40
0.0
 40
0.5
 40
0.5
 40
1.0
 40
1.0
 40
1.0
 40
1.0
 10
191.9022302494846
 20
174.9631796751083
 30
0.0
 10
190.6753283807283
 20
175.3721469646937
 30
0.0
 10
189.4394648489125
 20
175.709075162269
 30
0.0
 10
186.9419010491979
 20
176.1752407532048
 30
0.0
 10
185.6800076491416
 20
176.3029256372637
 30
0.0
 10
184.4022302494846
 20
176.3029256372636
 30
0.0
  0
LINE
  5
2EB
330
1F
100
AcDbEntity
  8
0
  6
Continuous
 62
     7
370
    15
100
AcDbLine
 10
184.4022292047
 20
176.3029224186
 30
0.0
 11
199.4022298007
 21
176.3029224186
 31
0.0
  0
LINE
  5
2EC
330
1F
100
AcDbEntity
  8
0
  6
Continuous
 62
     7
370
    15
100
AcDbLine
 10
176.9022307693
 20
160.302919796
 30
0.0
 11
176.9022307693
 21
174.9631739168
 31
0.0
  0
SPLINE
  5
2ED
330
1F
100
AcDbEntity
  8
0
  6
Continuous
 62
     7
370
    15
100
AcDbSpline
210
0.0
220
0.0
230
1.0
 70
     8
 71
     3
 72
    12
 73
     8
 74
     0
 42
0.00000001
 43
0.00000001
 12
1.0
 22
0.0
 32
0.0
 13
1.0
 23
0.0
 33
0.0
 40
0.0
 40
0.0
 40
0.0
 40
0.0
 40
0.2500000000000004
 40
0.2500000000000004
 40
0.5000000000000008
 40
0.5000000000000008
 40
1.0
 40
1.0
 40
1.0
 40
1.0
 10
184.4022302494846
 20
176.3029256372636
 30
0.0
 10
183.7657306039852
 20
176.3029256372636
 30
0.0
 10
183.1263749509929
 20
176.2712590870732
 30
0.0
 10
181.8615963649823
 20
176.1487129883487
 30
0.0
 10
181.2334372381983
 20
176.0579512798966
 30
0.0
 10
179.3601164779444
 20
175.7078929065256
 30
0.0
 10
178.1260680540679
 20
175.3711256099693
 30
0.0
 10
176.9022302494846
 20
174.9631796751082
 30
0.0
  0
LINE
  5
2EE
330
1F
100
AcDbEntity
  8
0
  6
Continuous
 62
     7
370
    15
100
AcDbLine
 10
206.9022300987
 20
-45.6970743888
 30
0.0
 11
206.9022300987
 21
-60.3573289753
 31
0.0
  0
SPLINE
  5
2EF
330
1F
100
AcDbEntity
  8
0
  6
Continuous
 62
     7
370
    15
100
AcDbSpline
210
0.0
220
0.0
230
1.0
 70
     8
 71
     3
 72
    12
 73
     8
 74
     0
 42
0.00000001
 43
0.00000001
 12
1.0
 22
0.0
 32
0.0
 13
1.0
 23
0.0
 33
0.0
 40
0.0
 40
0.0
 40
0.0
 40
0.0
 40
0.2499999999999999
 40
0.2499999999999999
 40
0.4999999999999999
 40
0.4999999999999999
 40
1.0
 40
1.0
 40
1.0
 40
1.0
 10
199.4022302494846
 20
-61.69707436273643
 30
0.0
 10
200.038729894984
 20
-61.69707436273643
 30
0.0
 10
200.6780855479763
 20
-61.66540781254601
 30
0.0
 10
201.9428641339869
 20
-61.54286171382154
 30
0.0
 10
202.5710232607709
 20
-61.45210000536937
 30
0.0
 10
204.4443440210248
 20
-61.1020416319984
 30
0.0
 10
205.6783924449013
 20
-60.76527433544203
 30
0.0
 10
206.9022302494846
 20
-60.35732840058095
 30
0.0
  0
SPLINE
  5
2F0
330
1F
100
AcDbEntity
  8
0
  6
Continuous
 62
     7
370
    15
100
AcDbSpline
210
0.0
220
0.0
230
1.0
 70
     8
 71
     3
 72
    10
 73
     6
 74
     0
 42
0.00000001
 43
0.00000001
 12
1.0
 22
0.0
 32
0.0
 13
1.0
 23
0.0
 33
0.0
 40
0.0
 40
0.0
 40
0.0
 40
0.0
 40
0.5
 40
0.5
 40
1.0
 40
1.0
 40
1.0
 40
1.0
 10
191.9022302494845
 20
-60.35732840058105
 30
0.0
 10
193.1291321182408
 20
-60.76629569016649
 30
0.0
 10
194.3649956500567
 20
-61.10322388774174
 30
0.0
 10
196.8625594497713
 20
-61.56938947867761
 30
0.0
 10
198.1244528498276
 20
-61.69707436273643
 30
0.0
 10
199.4022302494846
 20
-61.69707436273643
 30
0.0
  0
LINE
  5
2F1
330
1F
100
AcDbEntity
  8
0
  6
Continuous
 62
     7
370
    15
100
AcDbLine
 10
191.9022295027
 20
-45.6970743888
 30
0.0
 11
191.9022295027
 21
-60.3573289753
 31
0.0
  0
SPLINE
  5
2F2
330
1F
100
AcDbEntity
  8
0
  6
Continuous
 62
     7
370
    15
100
AcDbSpline
210
0.0
220
0.0
230
1.0
 70
     8
 71
     3
 72
    12
 73
     8
 74
     0
 42
0.00000001
 43
0.00000001
 12
1.0
 22
0.0
 32
0.0
 13
1.0
 23
0.0
 33
0.0
 40
0.0
 40
0.0
 40
0.0
 40
0.0
 40
0.2499999999999981
 40
0.2499999999999981
 40
0.4999999999999987
 40
0.4999999999999987
 40
1.0
 40
1.0
 40
1.0
 40
1.0
 10
184.4022302494846
 20
-61.69707436273643
 30
0.0
 10
185.038729894984
 20
-61.69707436273643
 30
0.0
 10
185.6780855479763
 20
-61.66540781254599
 30
0.0
 10
186.9428641339869
 20
-61.54286171382154
 30
0.0
 10
187.5710232607709
 20
-61.45210000536935
 30
0.0
 10
189.4443440210248
 20
-61.1020416319984
 30
0.0
 10
190.6783924449013
 20
-60.76527433544203
 30
0.0
 10
191.9022302494846
 20
-60.35732840058093
 30
0.0
  0
SPLINE
  5
2F3
330
1F
100
AcDbEntity
  8
0
  6
Continuous
 62
     7
370
    15
100
AcDbSpline
210
0.0
220
0.0
230
1.0
 70
     8
 71
     3
 72
    10
 73
     6
 74
     0
 42
0.00000001
 43
0.00000001
 12
1.0
 22
0.0
 32
0.0
 13
1.0
 23
0.0
 33
0.0
 40
0.0
 40
0.0
 40
0.0
 40
0.0
 40
0.5
 40
0.5
 40
1.0
 40
1.0
 40
1.0
 40
1.0
 10
176.9022302494845
 20
-60.35732840058104
 30
0.0
 10
178.1291321182408
 20
-60.76629569016648
 30
0.0
 10
179.3649956500566
 20
-61.10322388774173
 30
0.0
 10
181.8625594497713
 20
-61.56938947867761
 30
0.0
 10
183.1244528498276
 20
-61.69707436273643
 30
0.0
 10
184.4022302494846
 20
-61.69707436273643
 30
0.0
  0
LINE
  5
2F4
330
1F
100
AcDbEntity
  8
0
  6
Continuous
 62
     7
370
    15
100
AcDbLine
 10
176.9022307693
 20
-45.6970743888
 30
0.0
 11
176.9022307693
 21
-60.3573289753
 31
0.0
  0
LINE
  5
2F5
330
1F
100
AcDbEntity
  8
0
  6
Continuous
 62
     7
370
    15
100
AcDbLine
 10
199.4022298007
 20
-61.6970737518
 30
0.0
 11
184.4022292047
 21
-61.6970737518
 31
0.0
  0
SPLINE
  5
2F6
330
1F
100
AcDbEntity
  8
0
  6
Continuous
 62
     7
370
    15
100
AcDbSpline
210
0.0
220
0.0
230
1.0
 70
     8
 71
     3
 72
    12
 73
     8
 74
     0
 42
0.00000001
 43
0.00000001
 12
1.0
 22
0.0
 32
0.0
 13
1.0
 23
0.0
 33
0.0
 40
0.0
 40
0.0
 40
0.0
 40
0.0
 40
0.2500000000000001
 40
0.2500000000000001
 40
0.5000000000000001
 40
0.5000000000000001
 40
1.0
 40
1.0
 40
1.0
 40
1.0
 10
116.7885325566206
 20
174.963179675108
 30
0.0
 10
116.2905454793692
 20
175.166482048069
 30
0.0
 10
115.7879844468542
 20
175.3531274604173
 30
0.0
 10
114.7713008578183
 20
175.6843147141579
 30
0.0
 10
114.2612944411538
 20
175.8273971683236
 30
0.0
 10
112.7277213165188
 20
176.1771343207074
 30
0.0
 10
111.6996169072131
 20
176.3029256372637
 30
0.0
 10
110.6648081996627
 20
176.3029256372636
 30
0.0
  0
LINE
  5
2F7
330
1F
100
AcDbEntity
  8
0
  6
Continuous
 62
     7
370
    15
100
AcDbLine
 10
116.7885325252
 20
160.302919796
 30
0.0
 11
116.7885325252
 21
174.9631739168
 31
0.0
  0
LINE
  5
2F8
330
1F
100
AcDbEntity
  8
0
  6
Continuous
 62
     7
370
    15
100
AcDbLine
 10
116.7885325252
 20
-45.6970743888
 30
0.0
 11
116.7885325252
 21
-60.3573289753
 31
0.0
  0
SPLINE
  5
2F9
330
1F
100
AcDbEntity
  8
0
  6
Continuous
 62
     7
370
    15
100
AcDbSpline
210
0.0
220
0.0
230
1.0
 70
     8
 71
     3
 72
    12
 73
     8
 74
     0
 42
0.00000001
 43
0.00000001
 12
1.0
 22
0.0
 32
0.0
 13
1.0
 23
0.0
 33
0.0
 40
0.0
 40
0.0
 40
0.0
 40
0.0
 40
0.2499999999999993
 40
0.2499999999999993
 40
0.4999999999999987
 40
0.4999999999999987
 40
1.0
 40
1.0
 40
1.0
 40
1.0
 10
110.6648081996627
 20
-61.69707436273642
 30
0.0
 10
111.1825199616113
 20
-61.69707436273642
 30
0.0
 10
111.7018900198548
 20
-61.66596010341136
 30
0.0
 10
112.7439039244182
 20
-61.5423061980568
 30
0.0
 10
113.261100614578
 20
-61.45040555156913
 30
0.0
 10
114.7952001253693
 20
-61.09821224137736
 30
0.0
 10
115.798360468244
 20
-60.76156446292559
 30
0.0
 10
116.7885325566206
 20
-60.35732840058082
 30
0.0
  0
SPLINE
  5
2FA
330
1F
100
AcDbEntity
  8
0
  6
Continuous
 62
     7
370
    15
100
AcDbSpline
210
0.0
220
0.0
230
1.0
 70
     8
 71
     3
 72
    12
 73
     8
 74
     0
 42
0.00000001
 43
0.00000001
 12
1.0
 22
0.0
 32
0.0
 13
1.0
 23
0.0
 33
0.0
 40
0.0
 40
0.0
 40
0.0
 40
0.0
 40
0.2500000000000012
 40
0.2500000000000012
 40
0.5000000000000024
 40
0.5000000000000024
 40
1.0
 40
1.0
 40
1.0
 40
1.0
 10
85.56931908752843
 20
-61.69707436273643
 30
0.0
 10
85.75954241092792
 20
-61.69707436273643
 30
0.0
 10
85.95061927641622
 20
-61.66540781254599
 30
0.0
 10
86.32860909572973
 20
-61.54286171382154
 30
0.0
 10
86.5163397842941
 20
-61.45210000536937
 30
0.0
 10
87.07619759934306
 20
-61.1020416319984
 30
0.0
 10
87.4450034487815
 20
-60.76527433544204
 30
0.0
 10
87.81075776794867
 20
-60.35732840058095
 30
0.0
  0
LINE
  5
2FB
330
1F
100
AcDbEntity
  8
0
  6
Continuous
 62
     7
370
    15
100
AcDbLine
 10
96.1759220212
 20
-61.6970737518
 30
0.0
 11
85.5693201869
 21
-61.6970737518
 31
0.0
  0
SPLINE
  5
2FC
330
1F
100
AcDbEntity
  8
0
  6
Continuous
 62
     7
370
    15
100
AcDbSpline
210
0.0
220
0.0
230
1.0
 70
     8
 71
     3
 72
    10
 73
     6
 74
     0
 42
0.00000001
 43
0.00000001
 12
1.0
 22
0.0
 32
0.0
 13
1.0
 23
0.0
 33
0.0
 40
0.0
 40
0.0
 40
0.0
 40
0.0
 40
0.5
 40
0.5
 40
1.0
 40
1.0
 40
1.0
 40
1.0
 10
87.81075776794867
 20
174.9631796751083
 30
0.0
 10
87.44408772718728
 20
175.3721469646937
 30
0.0
 10
87.0747394173296
 20
175.709075162269
 30
0.0
 10
86.32832126966322
 20
176.1752407532048
 30
0.0
 10
85.9511937126695
 20
176.3029256372636
 30
0.0
 10
85.56931908752841
 20
176.3029256372636
 30
0.0
  0
LINE
  5
2FD
330
1F
100
AcDbEntity
  8
0
  6
Continuous
 62
     7
370
    15
100
AcDbLine
 10
85.5693201869
 20
176.3029224186
 30
0.0
 11
96.1759220212
 21
176.3029224186
 31
0.0
  0
SPLINE
  5
2FE
330
1F
100
AcDbEntity
  8
0
  6
Continuous
 62
     7
370
    15
100
AcDbSpline
210
0.0
220
0.0
230
1.0
 70
    24
 71
     3
 72
    12
 73
     8
 74
     0
 42
0.00000001
 43
0.00000001
 12
1.0
 22
0.0
 32
0.0
 13
1.0
 23
0.0
 33
0.0
 40
0.0
 40
0.0
 40
0.0
 40
0.0
 40
0.25
 40
0.25
 40
0.5
 40
0.5
 40
1.0
 40
1.0
 40
1.0
 40
1.0
 10
176.9022302494846
 20
176.3029256372636
 30
0.0
 10
176.9022302494846
 20
176.3029256372636
 30
0.0
 10
176.9022302494846
 20
176.2718113779386
 30
0.0
 10
176.9022302494846
 20
176.1481574725839
 30
0.0
 10
176.9022302494846
 20
176.0562568260963
 30
0.0
 10
176.9022302494846
 20
175.7040635159046
 30
0.0
 10
176.9022302494846
 20
175.3674157374528
 30
0.0
 10
176.9022302494846
 20
174.9631796751081
 30
0.0
  0
LINE
  5
2FF
330
1F
100
AcDbEntity
  8
0
  6
Continuous
 62
     7
370
    15
100
AcDbLine
 10
184.4022292047
 20
176.3029224186
 30
0.0
 11
176.9022307693
 21
176.3029224186
 31
0.0
  0
SPLINE
  5
300
330
1F
100
AcDbEntity
  8
0
  6
Continuous
 62
     7
370
    15
100
AcDbSpline
210
0.0
220
0.0
230
1.0
 70
    24
 71
     3
 72
    12
 73
     8
 74
     0
 42
0.00000001
 43
0.00000001
 12
1.0
 22
0.0
 32
0.0
 13
1.0
 23
0.0
 33
0.0
 40
0.0
 40
0.0
 40
0.0
 40
0.0
 40
0.25
 40
0.25
 40
0.5
 40
0.5
 40
1.0
 40
1.0
 40
1.0
 40
1.0
 10
206.9022302494846
 20
176.3029256372636
 30
0.0
 10
206.9022302494846
 20
176.3029256372636
 30
0.0
 10
206.9022302494846
 20
176.2718113779386
 30
0.0
 10
206.9022302494846
 20
176.1481574725839
 30
0.0
 10
206.9022302494846
 20
176.0562568260963
 30
0.0
 10
206.9022302494846
 20
175.7040635159046
 30
0.0
 10
206.9022302494846
 20
175.3674157374528
 30
0.0
 10
206.9022302494846
 20
174.9631796751081
 30
0.0
  0
LINE
  5
301
330
1F
100
AcDbEntity
  8
0
  6
Continuous
 62
     7
370
    15
100
AcDbLine
 10
199.4022298007
 20
176.3029224186
 30
0.0
 11
206.9022300987
 21
176.3029224186
 31
0.0
  0
SPLINE
  5
302
330
1F
100
AcDbEntity
  8
0
  6
Continuous
 62
     7
370
    15
100
AcDbSpline
210
0.0
220
0.0
230
1.0
 70
    24
 71
     3
 72
    12
 73
     8
 74
     0
 42
0.00000001
 43
0.00000001
 12
1.0
 22
0.0
 32
0.0
 13
1.0
 23
0.0
 33
0.0
 40
0.0
 40
0.0
 40
0.0
 40
0.0
 40
0.2499999999999988
 40
0.2499999999999988
 40
0.4999999999999976
 40
0.4999999999999976
 40
1.0
 40
1.0
 40
1.0
 40
1.0
 10
176.9022302494846
 20
-60.35732840058082
 30
0.0
 10
176.9022302494846
 20
-60.5606307735418
 30
0.0
 10
176.9022302494846
 20
-60.74727618589006
 30
0.0
 10
176.9022302494846
 20
-61.07846343963068
 30
0.0
 10
176.9022302494846
 20
-61.22154589379628
 30
0.0
 10
176.9022302494846
 20
-61.57128304618013
 30
0.0
 10
176.9022302494846
 20
-61.69707436273642
 30
0.0
 10
176.9022302494846
 20
-61.69707436273642
 30
0.0
  0
LINE
  5
303
330
1F
100
AcDbEntity
  8
0
  6
Continuous
 62
     7
370
    15
100
AcDbLine
 10
184.4022292047
 20
-61.6970737518
 30
0.0
 11
176.9022307693
 21
-61.6970737518
 31
0.0
  0
SPLINE
  5
304
330
1F
100
AcDbEntity
  8
0
  6
Continuous
 62
     7
370
    15
100
AcDbSpline
210
0.0
220
0.0
230
1.0
 70
    24
 71
     3
 72
    12
 73
     8
 74
     0
 42
0.00000001
 43
0.00000001
 12
1.0
 22
0.0
 32
0.0
 13
1.0
 23
0.0
 33
0.0
 40
0.0
 40
0.0
 40
0.0
 40
0.0
 40
0.2499999999999988
 40
0.2499999999999988
 40
0.4999999999999976
 40
0.4999999999999976
 40
1.0
 40
1.0
 40
1.0
 40
1.0
 10
206.9022302494846
 20
-60.35732840058082
 30
0.0
 10
206.9022302494846
 20
-60.5606307735418
 30
0.0
 10
206.9022302494846
 20
-60.74727618589006
 30
0.0
 10
206.9022302494846
 20
-61.07846343963068
 30
0.0
 10
206.9022302494846
 20
-61.22154589379628
 30
0.0
 10
206.9022302494846
 20
-61.57128304618013
 30
0.0
 10
206.9022302494846
 20
-61.69707436273642
 30
0.0
 10
206.9022302494846
 20
-61.69707436273642
 30
0.0
  0
LINE
  5
305
330
1F
100
AcDbEntity
  8
0
  6
Continuous
 62
     7
370
    15
100
AcDbLine
 10
206.9022300987
 20
-61.6970737518
 30
0.0
 11
199.4022298007
 21
-61.6970737518
 31
0.0
  0
LINE
  5
306
330
1F
100
AcDbEntity
  8
0
  6
Continuous
 62
     7
370
    15
100
AcDbLine
 10
83.3278837948
 20
160.302919796
 30
0.0
 11
83.3278837948
 21
174.9631739168
 31
0.0
  0
SPLINE
  5
307
330
1F
100
AcDbEntity
  8
0
  6
Continuous
 62
     7
370
    15
100
AcDbSpline
210
0.0
220
0.0
230
1.0
 70
     8
 71
     3
 72
    12
 73
     8
 74
     0
 42
0.00000001
 43
0.00000001
 12
1.0
 22
0.0
 32
0.0
 13
1.0
 23
0.0
 33
0.0
 40
0.0
 40
0.0
 40
0.0
 40
0.0
 40
0.2500000000000017
 40
0.2500000000000017
 40
0.5000000000000033
 40
0.5000000000000033
 40
1.0
 40
1.0
 40
1.0
 40
1.0
 10
85.56931908752841
 20
176.3029256372636
 30
0.0
 10
85.3790957641289
 20
176.3029256372636
 30
0.0
 10
85.18801889864064
 20
176.2712590870731
 30
0.0
 10
84.81002907932712
 20
176.1487129883488
 30
0.0
 10
84.62229839076275
 20
176.0579512798966
 30
0.0
 10
84.06244057571377
 20
175.7078929065256
 30
0.0
 10
83.69363472627532
 20
175.3711256099693
 30
0.0
 10
83.32788040710817
 20
174.9631796751082
 30
0.0
  0
SPLINE
  5
308
330
1F
100
AcDbEntity
  8
0
  6
Continuous
 62
     7
370
    15
100
AcDbSpline
210
0.0
220
0.0
230
1.0
 70
     8
 71
     3
 72
    10
 73
     6
 74
     0
 42
0.00000001
 43
0.00000001
 12
1.0
 22
0.0
 32
0.0
 13
1.0
 23
0.0
 33
0.0
 40
0.0
 40
0.0
 40
0.0
 40
0.0
 40
0.5
 40
0.5
 40
1.0
 40
1.0
 40
1.0
 40
1.0
 10
83.32788040710817
 20
-60.35732840058105
 30
0.0
 10
83.69455044786956
 20
-60.76629569016648
 30
0.0
 10
84.06389875772724
 20
-61.10322388774173
 30
0.0
 10
84.81031690539362
 20
-61.56938947867761
 30
0.0
 10
85.18744446238735
 20
-61.69707436273643
 30
0.0
 10
85.56931908752843
 20
-61.69707436273643
 30
0.0
  0
LINE
  5
309
330
1F
100
AcDbEntity
  8
0
  6
Continuous
 62
     7
370
    15
100
AcDbLine
 10
83.3278837948
 20
-45.6970743888
 30
0.0
 11
83.3278837948
 21
-60.3573289753
 31
0.0
  0
SPLINE
  5
30A
330
1F
100
AcDbEntity
  8
0
  6
Continuous
 62
     7
370
    15
100
AcDbSpline
210
0.0
220
0.0
230
1.0
 70
     8
 71
     3
 72
    11
 73
     7
 74
     0
 42
0.00000001
 43
0.00000001
 12
1.0
 22
0.0
 32
0.0
 13
1.0
 23
0.0
 33
0.0
 40
0.0
 40
0.0
 40
0.0
 40
0.0
 40
0.1328553747491781
 40
0.4218395997700847
 40
0.7109556681850975
 40
1.0
 40
1.0
 40
1.0
 40
1.0
 10
115.5873517839969
 20
175.9895509987062
 30
0.0
 10
115.6413444629769
 20
175.9600892909445
 30
0.0
 10
115.8127808849842
 20
175.8665430943064
 30
0.0
 10
116.098951776069
 20
175.6431606495351
 30
0.0
 10
116.4457364165633
 20
175.3335009860237
 30
0.0
 10
116.6742766078654
 20
175.0866060618768
 30
0.0
 10
116.7885325251878
 20
174.9631739168351
 30
0.0
  0
LINE
  5
30B
330
1F
100
AcDbEntity
  8
0
  6
Continuous
 62
     7
370
    15
100
AcDbLine
 10
110.664809063
 20
176.3029224186
 30
0.0
 11
115.0582059621
 21
176.3029224186
 31
0.0
  0
SPLINE
  5
30C
330
1F
100
AcDbEntity
  8
0
  6
Continuous
 62
     7
370
    15
100
AcDbSpline
210
0.0
220
0.0
230
1.0
 70
     8
 71
     3
 72
    11
 73
     7
 74
     0
 42
0.00000001
 43
0.00000001
 12
1.0
 22
0.0
 32
0.0
 13
1.0
 23
0.0
 33
0.0
 40
0.0
 40
0.0
 40
0.0
 40
0.0
 40
0.3051751981270839
 40
0.6104367378388946
 40
0.9155387837306783
 40
1.0
 40
1.0
 40
1.0
 40
1.0
 10
116.7885325251878
 20
-60.35732897530145
 30
0.0
 10
116.6678853192477
 20
-60.48751523422126
 30
0.0
 10
116.4265567732997
 20
-60.74792458496204
 30
0.0
 10
116.0600821859008
 20
-61.0688675869709
 30
0.0
 10
115.7802354072474
 20
-61.28533424870889
 30
0.0
 10
115.6217333755029
 20
-61.36640022522659
 30
0.0
 10
115.5873685478032
 20
-61.38397614071912
 30
0.0
  0
LINE
  5
30D
330
1F
100
AcDbEntity
  8
0
  6
Continuous
 62
     7
370
    15
100
AcDbLine
 10
115.0582059621
 20
-61.6970737518
 30
0.0
 11
110.664809063
 21
-61.6970737518
 31
0.0
  0
LINE
  5
30E
330
1F
100
AcDbEntity
  8
0
  6
Continuous
 62
     7
370
    15
100
AcDbLine
 10
201.9022311418
 20
222.3029113321
 30
0.0
 11
181.9022315888
 21
222.3029113321
 31
0.0
  0
LINE
  5
30F
330
1F
100
AcDbEntity
  8
0
  6
Continuous
 62
     7
370
    15
100
AcDbLine
 10
107.9601775258
 20
222.3029113321
 30
0.0
 11
90.0582055895
 21
222.3029113321
 31
0.0
  0
LINE
  5
310
330
1F
100
AcDbEntity
  8
0
  6
Continuous
 62
     7
370
    15
100
AcDbLine
 10
110.0582051425
 20
222.3029113321
 30
0.0
 11
107.9601775258
 21
222.3029113321
 31
0.0
  0
LINE
  5
311
330
1F
100
AcDbEntity
  8
0
  6
Continuous
 62
     7
370
    15
100
AcDbLine
 10
201.9022311418
 20
-107.6970719786
 30
0.0
 11
181.9022315888
 21
-107.6970719786
 31
0.0
  0
LINE
  5
312
330
1F
100
AcDbEntity
  8
0
  6
Continuous
 62
     7
370
    15
100
AcDbLine
 10
107.9601775258
 20
-107.6970719786
 30
0.0
 11
90.0582055895
 21
-107.6970719786
 31
0.0
  0
LINE
  5
313
330
1F
100
AcDbEntity
  8
0
  6
Continuous
 62
     7
370
    15
100
AcDbLine
 10
110.0582051425
 20
-107.6970719786
 30
0.0
 11
107.9601775258
 21
-107.6970719786
 31
0.0
  0
LINE
  5
314
330
1F
100
AcDbEntity
  8
0
  6
Continuous
 62
     7
370
    15
100
AcDbLine
 10
85.5693201869
 20
176.3029224186
 30
0.0
 11
85.0582066326
 21
176.3029224186
 31
0.0
  0
LINE
  5
315
330
1F
100
AcDbEntity
  8
0
  6
Continuous
 62
     7
370
    15
100
AcDbLine
 10
85.5693201869
 20
-61.6970737518
 30
0.0
 11
85.0582066326
 21
-61.6970737518
 31
0.0
  0
LINE
  5
316
330
1F
100
AcDbEntity
  8
0
  6
Continuous
 62
     7
370
    15
100
AcDbLine
 10
145.9802183657
 20
76.1493793636
 30
0.0
 11
181.9022315888
 21
76.1493793636
 31
0.0
  0
LINE
  5
317
330
1F
100
AcDbEntity
  8
0
  6
Continuous
 62
     7
370
    15
100
AcDbLine
 10
201.9022311418
 20
76.1493793636
 30
0.0
 11
242.0632931738
 21
76.1493793636
 31
0.0
  0
LINE
  5
318
330
1F
100
AcDbEntity
  8
0
  6
Continuous
 62
     7
370
    15
100
AcDbLine
 10
49.8971435576
 20
76.1493793636
 30
0.0
 11
90.0582055895
 21
76.1493793636
 31
0.0
  0
LINE
  5
319
330
1F
100
AcDbEntity
  8
0
  6
Continuous
 62
     7
370
    15
100
AcDbLine
 10
110.0582051425
 20
76.1493793636
 30
0.0
 11
145.9802183657
 21
76.1493793636
 31
0.0
  0
LINE
  5
31A
330
1F
100
AcDbEntity
  8
0
  6
Continuous
 62
     7
370
    15
100
AcDbLine
 10
57.9018983393
 20
88.8700461893
 30
0.0
 11
90.0582055895
 21
88.8700461893
 31
0.0
  0
LINE
  5
31B
330
1F
100
AcDbEntity
  8
0
  6
Continuous
 62
     7
370
    15
100
AcDbLine
 10
110.0582051425
 20
88.8700461893
 30
0.0
 11
181.9022315888
 21
88.8700461893
 31
0.0
  0
LINE
  5
31C
330
1F
100
AcDbEntity
  8
0
  6
Continuous
 62
     7
370
    15
100
AcDbLine
 10
201.9022311418
 20
88.8700461893
 30
0.0
 11
234.0585383921
 21
88.8700461893
 31
0.0
  0
LINE
  5
31D
330
1F
100
AcDbEntity
  8
0
  6
Continuous
 62
     7
370
    15
100
AcDbLine
 10
269.9272352605
 20
160.302919796
 30
0.0
 11
238.3457589297
 21
160.302919796
 31
0.0
  0
LINE
  5
31E
330
1F
100
AcDbEntity
  8
0
  6
Continuous
 62
     7
370
    15
100
AcDbLine
 10
275.3457668572
 20
160.302919796
 30
0.0
 11
269.9272352605
 21
160.302919796
 31
0.0
  0
LINE
  5
31F
330
1F
100
AcDbEntity
  8
0
  6
Continuous
 62
     7
370
    15
100
AcDbLine
 10
238.3457589297
 20
-45.6970743888
 30
0.0
 11
275.3457668572
 21
-45.6970743888
 31
0.0
  0
LINE
  5
320
330
1F
100
AcDbEntity
  8
0
  6
Continuous
 62
     7
370
    15
100
AcDbLine
 10
53.6146778016
 20
160.302919796
 30
0.0
 11
16.6146698742
 21
160.302919796
 31
0.0
  0
LINE
  5
321
330
1F
100
AcDbEntity
  8
0
  6
Continuous
 62
     7
370
    15
100
AcDbLine
 10
16.6146698742
 20
-45.6970743888
 30
0.0
 11
53.6146778016
 21
-45.6970743888
 31
0.0
  0
LINE
  5
322
330
1F
100
AcDbEntity
  8
0
  6
Continuous
 62
     7
370
    15
100
AcDbLine
 10
269.0932098179
 20
-45.6970743888
 30
0.0
 11
269.0932098179
 21
-60.3573289753
 31
0.0
  0
SPLINE
  5
323
330
1F
100
AcDbEntity
  8
0
  6
Continuous
 62
     7
370
    15
100
AcDbSpline
210
0.0
220
0.0
230
1.0
 70
     8
 71
     3
 72
    12
 73
     8
 74
     0
 42
0.00000001
 43
0.00000001
 12
1.0
 22
0.0
 32
0.0
 13
1.0
 23
0.0
 33
0.0
 40
0.0
 40
0.0
 40
0.0
 40
0.0
 40
0.2499999999999988
 40
0.2499999999999988
 40
0.4999999999999976
 40
0.4999999999999976
 40
1.0
 40
1.0
 40
1.0
 40
1.0
 10
260.728047943567
 20
-61.69707436273643
 30
0.0
 10
261.4379710512785
 20
-61.69707436273643
 30
0.0
 10
262.1510796214317
 20
-61.66540781254599
 30
0.0
 10
263.5617568318535
 20
-61.54286171382154
 30
0.0
 10
264.2623772997156
 20
-61.45210000536937
 30
0.0
 10
266.3517951104927
 20
-61.10204163199838
 30
0.0
 10
267.7281972787255
 20
-60.76527433544203
 30
0.0
 10
269.0932109809451
 20
-60.35732840058093
 30
0.0
  0
SPLINE
  5
324
330
1F
100
AcDbEntity
  8
0
  6
Continuous
 62
     7
370
    15
100
AcDbSpline
210
0.0
220
0.0
230
1.0
 70
     8
 71
     3
 72
    10
 73
     6
 74
     0
 42
0.00000001
 43
0.00000001
 12
1.0
 22
0.0
 32
0.0
 13
1.0
 23
0.0
 33
0.0
 40
0.0
 40
0.0
 40
0.0
 40
0.0
 40
0.5
 40
0.5
 40
1.0
 40
1.0
 40
1.0
 40
1.0
 10
252.3628849061889
 20
-60.35732840058104
 30
0.0
 10
253.7313161279235
 20
-60.76629569016648
 30
0.0
 10
255.1097427860022
 20
-61.10322388774173
 30
0.0
 10
257.8954132367843
 20
-61.56938947867761
 30
0.0
 10
259.3028724404193
 20
-61.69707436273643
 30
0.0
 10
260.728047943567
 20
-61.69707436273643
 30
0.0
  0
LINE
  5
325
330
1F
100
AcDbEntity
  8
0
  6
Continuous
 62
     7
370
    15
100
AcDbLine
 10
252.362886384
 20
-45.6970743888
 30
0.0
 11
252.362886384
 21
-60.3573289753
 31
0.0
  0
LINE
  5
326
330
1F
100
AcDbEntity
  8
0
  6
Continuous
 62
     7
370
    15
100
AcDbLine
 10
260.728048101
 20
-61.6970737518
 30
0.0
 11
246.2391573339
 21
-61.6970737518
 31
0.0
  0
SPLINE
  5
327
330
1F
100
AcDbEntity
  8
0
  6
Continuous
 62
     7
370
    15
100
AcDbSpline
210
0.0
220
0.0
230
1.0
 70
     8
 71
     3
 72
    12
 73
     8
 74
     0
 42
0.00000001
 43
0.00000001
 12
1.0
 22
0.0
 32
0.0
 13
1.0
 23
0.0
 33
0.0
 40
0.0
 40
0.0
 40
0.0
 40
0.0
 40
0.2500000000000008
 40
0.2500000000000008
 40
0.5000000000000017
 40
0.5000000000000017
 40
1.0
 40
1.0
 40
1.0
 40
1.0
 10
252.3628849061889
 20
-60.35732840058082
 30
0.0
 10
251.8648978289375
 20
-60.5606307735418
 30
0.0
 10
251.3623367964225
 20
-60.74727618589006
 30
0.0
 10
250.3456532073866
 20
-61.07846343963068
 30
0.0
 10
249.8356467907221
 20
-61.22154589379628
 30
0.0
 10
248.3020736660871
 20
-61.57128304618013
 30
0.0
 10
247.2739692567814
 20
-61.69707436273642
 30
0.0
 10
246.2391605492309
 20
-61.69707436273642
 30
0.0
  0
SPLINE
  5
328
330
1F
100
AcDbEntity
  8
0
  6
Continuous
 62
     7
370
    15
100
AcDbSpline
210
0.0
220
0.0
230
1.0
 70
     8
 71
     3
 72
    12
 73
     8
 74
     0
 42
0.00000001
 43
0.00000001
 12
1.0
 22
0.0
 32
0.0
 13
1.0
 23
0.0
 33
0.0
 40
0.0
 40
0.0
 40
0.0
 40
0.0
 40
0.2500000000000014
 40
0.2500000000000014
 40
0.5000000000000028
 40
0.5000000000000028
 40
1.0
 40
1.0
 40
1.0
 40
1.0
 10
260.728047943567
 20
176.3029256372636
 30
0.0
 10
260.0181248358555
 20
176.3029256372637
 30
0.0
 10
259.3050162657022
 20
176.2712590870732
 30
0.0
 10
257.8943390552804
 20
176.1487129883487
 30
0.0
 10
257.1937185874184
 20
176.0579512798965
 30
0.0
 10
255.1043007766413
 20
175.7078929065257
 30
0.0
 10
253.7278986084085
 20
175.3711256099693
 30
0.0
 10
252.3628849061889
 20
174.9631796751082
 30
0.0
  0
SPLINE
  5
329
330
1F
100
AcDbEntity
  8
0
  6
Continuous
 62
     7
370
    15
100
AcDbSpline
210
0.0
220
0.0
230
1.0
 70
     8
 71
     3
 72
    12
 73
     8
 74
     0
 42
0.00000001
 43
0.00000001
 12
1.0
 22
0.0
 32
0.0
 13
1.0
 23
0.0
 33
0.0
 40
0.0
 40
0.0
 40
0.0
 40
0.0
 40
0.2499999999999996
 40
0.2499999999999996
 40
0.4999999999999991
 40
0.4999999999999991
 40
1.0
 40
1.0
 40
1.0
 40
1.0
 10
246.2391605492309
 20
176.3029256372636
 30
0.0
 10
246.7568723111795
 20
176.3029256372636
 30
0.0
 10
247.276242369423
 20
176.2718113779386
 30
0.0
 10
248.3182562739865
 20
176.1481574725839
 30
0.0
 10
248.8354529641463
 20
176.0562568260963
 30
0.0
 10
250.3695524749376
 20
175.7040635159046
 30
0.0
 10
251.3727128178124
 20
175.3674157374528
 30
0.0
 10
252.3628849061889
 20
174.9631796751081
 30
0.0
  0
LINE
  5
32A
330
1F
100
AcDbEntity
  8
0
  6
Continuous
 62
     7
370
    15
100
AcDbLine
 10
260.728048101
 20
176.3029224186
 30
0.0
 11
246.2391573339
 21
176.3029224186
 31
0.0
  0
LINE
  5
32B
330
1F
100
AcDbEntity
  8
0
  6
Continuous
 62
     7
370
    15
100
AcDbLine
 10
252.362886384
 20
160.302919796
 30
0.0
 11
252.362886384
 21
174.9631739168
 31
0.0
  0
SPLINE
  5
32C
330
1F
100
AcDbEntity
  8
0
  6
Continuous
 62
     7
370
    15
100
AcDbSpline
210
0.0
220
0.0
230
1.0
 70
     8
 71
     3
 72
    10
 73
     6
 74
     0
 42
0.00000001
 43
0.00000001
 12
1.0
 22
0.0
 32
0.0
 13
1.0
 23
0.0
 33
0.0
 40
0.0
 40
0.0
 40
0.0
 40
0.0
 40
0.5
 40
0.5
 40
1.0
 40
1.0
 40
1.0
 40
1.0
 10
269.0932109809451
 20
174.9631796751083
 30
0.0
 10
267.7247797592104
 20
175.3721469646937
 30
0.0
 10
266.3463531011319
 20
175.709075162269
 30
0.0
 10
263.5606826503496
 20
176.1752407532048
 30
0.0
 10
262.1532234467147
 20
176.3029256372636
 30
0.0
 10
260.728047943567
 20
176.3029256372636
 30
0.0
  0
LINE
  5
32D
330
1F
100
AcDbEntity
  8
0
  6
Continuous
 62
     7
370
    15
100
AcDbLine
 10
269.0932098179
 20
160.302919796
 30
0.0
 11
269.0932098179
 21
174.9631739168
 31
0.0
  0
LINE
  5
32E
330
1F
100
AcDbEntity
  8
0
  6
Continuous
 62
     7
370
    15
100
AcDbLine
 10
240.1154357343
 20
160.302919796
 30
0.0
 11
240.1154357343
 21
174.9631739168
 31
0.0
  0
SPLINE
  5
32F
330
1F
100
AcDbEntity
  8
0
  6
Continuous
 62
     7
370
    15
100
AcDbSpline
210
0.0
220
0.0
230
1.0
 70
     8
 71
     3
 72
    12
 73
     8
 74
     0
 42
0.00000001
 43
0.00000001
 12
1.0
 22
0.0
 32
0.0
 13
1.0
 23
0.0
 33
0.0
 40
0.0
 40
0.0
 40
0.0
 40
0.0
 40
0.2499999999999988
 40
0.2499999999999988
 40
0.4999999999999976
 40
0.4999999999999976
 40
1.0
 40
1.0
 40
1.0
 40
1.0
 10
240.115436192273
 20
174.9631796751081
 30
0.0
 10
240.6134232695244
 20
175.1664820480691
 30
0.0
 10
241.1159843020394
 20
175.3531274604172
 30
0.0
 10
242.1326678910754
 20
175.6843147141579
 30
0.0
 10
242.6426743077398
 20
175.8273971683235
 30
0.0
 10
244.1762474323748
 20
176.1771343207073
 30
0.0
 10
245.2043518416805
 20
176.3029256372636
 30
0.0
 10
246.2391605492309
 20
176.3029256372636
 30
0.0
  0
SPLINE
  5
330
330
1F
100
AcDbEntity
  8
0
  6
Continuous
 62
     7
370
    15
100
AcDbSpline
210
0.0
220
0.0
230
1.0
 70
     8
 71
     3
 72
    12
 73
     8
 74
     0
 42
0.00000001
 43
0.00000001
 12
1.0
 22
0.0
 32
0.0
 13
1.0
 23
0.0
 33
0.0
 40
0.0
 40
0.0
 40
0.0
 40
0.0
 40
0.2499999999999996
 40
0.2499999999999996
 40
0.4999999999999991
 40
0.4999999999999991
 40
1.0
 40
1.0
 40
1.0
 40
1.0
 10
246.2391605492309
 20
-61.69707436273642
 30
0.0
 10
245.7214487872824
 20
-61.69707436273642
 30
0.0
 10
245.2020787290389
 20
-61.66596010341136
 30
0.0
 10
244.1600648244754
 20
-61.54230619805679
 30
0.0
 10
243.6428681343156
 20
-61.45040555156913
 30
0.0
 10
242.1087686235243
 20
-61.09821224137736
 30
0.0
 10
241.1056082806496
 20
-60.76156446292558
 30
0.0
 10
240.115436192273
 20
-60.35732840058082
 30
0.0
  0
LINE
  5
331
330
1F
100
AcDbEntity
  8
0
  6
Continuous
 62
     7
370
    15
100
AcDbLine
 10
240.1154357343
 20
-45.6970743888
 30
0.0
 11
240.1154357343
 21
-60.3573289753
 31
0.0
  0
SPLINE
  5
332
330
1F
100
AcDbEntity
  8
0
  6
Continuous
 62
     7
370
    15
100
AcDbSpline
210
0.0
220
0.0
230
1.0
 70
     8
 71
     3
 72
    12
 73
     8
 74
     0
 42
0.00000001
 43
0.00000001
 12
1.0
 22
0.0
 32
0.0
 13
1.0
 23
0.0
 33
0.0
 40
0.0
 40
0.0
 40
0.0
 40
0.0
 40
0.2500000000000004
 40
0.2500000000000004
 40
0.5000000000000008
 40
0.5000000000000008
 40
1.0
 40
1.0
 40
1.0
 40
1.0
 10
271.3346496613652
 20
176.3029256372636
 30
0.0
 10
271.1444263379656
 20
176.3029256372636
 30
0.0
 10
270.9533494724774
 20
176.2712590870732
 30
0.0
 10
270.5753596531639
 20
176.1487129883487
 30
0.0
 10
270.3876289645996
 20
176.0579512798966
 30
0.0
 10
269.8277711495506
 20
175.7078929065257
 30
0.0
 10
269.4589653001122
 20
175.3711256099693
 30
0.0
 10
269.0932109809451
 20
174.9631796751081
 30
0.0
  0
LINE
  5
333
330
1F
100
AcDbEntity
  8
0
  6
Continuous
 62
     7
370
    15
100
AcDbLine
 10
260.728048101
 20
176.3029224186
 30
0.0
 11
271.3346424847
 21
176.3029224186
 31
0.0
  0
SPLINE
  5
334
330
1F
100
AcDbEntity
  8
0
  6
Continuous
 62
     7
370
    15
100
AcDbSpline
210
0.0
220
0.0
230
1.0
 70
     8
 71
     3
 72
    10
 73
     6
 74
     0
 42
0.00000001
 43
0.00000001
 12
1.0
 22
0.0
 32
0.0
 13
1.0
 23
0.0
 33
0.0
 40
0.0
 40
0.0
 40
0.0
 40
0.0
 40
0.5
 40
0.5
 40
1.0
 40
1.0
 40
1.0
 40
1.0
 10
269.0932109809451
 20
-60.35732840058104
 30
0.0
 10
269.4598810217065
 20
-60.76629569016648
 30
0.0
 10
269.8292293315641
 20
-61.10322388774173
 30
0.0
 10
270.5756474792304
 20
-61.5693894786776
 30
0.0
 10
270.9527750362242
 20
-61.69707436273642
 30
0.0
 10
271.3346496613652
 20
-61.69707436273642
 30
0.0
  0
LINE
  5
335
330
1F
100
AcDbEntity
  8
0
  6
Continuous
 62
     7
370
    15
100
AcDbLine
 10
271.3346424847
 20
-61.6970737518
 30
0.0
 11
260.728048101
 21
-61.6970737518
 31
0.0
  0
LINE
  5
336
330
1F
100
AcDbEntity
  8
0
  6
Continuous
 62
     7
370
    15
100
AcDbLine
 10
17.7941712885
 20
160.302919796
 30
0.0
 11
17.7941712885
 21
174.9631739168
 31
0.0
  0
SPLINE
  5
337
330
1F
100
AcDbEntity
  8
0
  6
Continuous
 62
     7
370
    15
100
AcDbSpline
210
0.0
220
0.0
230
1.0
 70
     8
 71
     3
 72
    12
 73
     8
 74
     0
 42
0.00000001
 43
0.00000001
 12
1.0
 22
0.0
 32
0.0
 13
1.0
 23
0.0
 33
0.0
 40
0.0
 40
0.0
 40
0.0
 40
0.0
 40
0.2500000000000027
 40
0.2500000000000027
 40
0.500000000000003
 40
0.500000000000003
 40
1.0
 40
1.0
 40
1.0
 40
1.0
 10
22.12429340755424
 20
176.3029256372636
 30
0.0
 10
21.75681016588603
 20
176.3029256372636
 30
0.0
 10
21.38767800752302
 20
176.2712590870732
 30
0.0
 10
20.65745775042452
 20
176.1487129883488
 30
0.0
 10
20.2947899094818
 20
176.0579512798967
 30
0.0
 10
19.21322766427069
 20
175.7078929065256
 30
0.0
 10
18.50074947455255
 20
175.3711256099693
 30
0.0
 10
17.79416638863196
 20
174.9631796751082
 30
0.0
  0
SPLINE
  5
338
330
1F
100
AcDbEntity
  8
0
  6
Continuous
 62
     7
370
    15
100
AcDbSpline
210
0.0
220
0.0
230
1.0
 70
     8
 71
     3
 72
    10
 73
     6
 74
     0
 42
0.00000001
 43
0.00000001
 12
1.0
 22
0.0
 32
0.0
 13
1.0
 23
0.0
 33
0.0
 40
0.0
 40
0.0
 40
0.0
 40
0.0
 40
0.5
 40
0.5
 40
1.0
 40
1.0
 40
1.0
 40
1.0
 10
26.45442042647653
 20
174.9631796751083
 30
0.0
 10
25.74606830228082
 20
175.3721469646937
 30
0.0
 10
25.03254215950526
 20
175.709075162269
 30
0.0
 10
23.59057302742178
 20
176.1752407532048
 30
0.0
 10
22.86201853321063
 20
176.3029256372636
 30
0.0
 10
22.12429340755424
 20
176.3029256372636
 30
0.0
  0
LINE
  5
339
330
1F
100
AcDbEntity
  8
0
  6
Continuous
 62
     7
370
    15
100
AcDbLine
 10
26.4544207006
 20
160.302919796
 30
0.0
 11
26.4544207006
 21
174.9631739168
 31
0.0
  0
SPLINE
  5
33A
330
1F
100
AcDbEntity
  8
0
  6
Continuous
 62
     7
370
    15
100
AcDbSpline
210
0.0
220
0.0
230
1.0
 70
     8
 71
     3
 72
    12
 73
     8
 74
     0
 42
0.00000001
 43
0.00000001
 12
1.0
 22
0.0
 32
0.0
 13
1.0
 23
0.0
 33
0.0
 40
0.0
 40
0.0
 40
0.0
 40
0.0
 40
0.25
 40
0.25
 40
0.5
 40
0.5
 40
1.0
 40
1.0
 40
1.0
 40
1.0
 10
35.11467446432088
 20
176.3029256372636
 30
0.0
 10
34.38251946917315
 20
176.3029256372636
 30
0.0
 10
33.64801928891468
 20
176.2718113779386
 30
0.0
 10
32.1743890928997
 20
176.1481574725839
 30
0.0
 10
31.44296251926128
 20
176.0562568260963
 30
0.0
 10
29.27341818507026
 20
175.7040635159046
 30
0.0
 10
27.8547352229419
 20
175.3674157374528
 30
0.0
 10
26.45442042647651
 20
174.9631796751081
 30
0.0
  0
LINE
  5
33B
330
1F
100
AcDbEntity
  8
0
  6
Continuous
 62
     7
370
    15
100
AcDbLine
 10
22.1242922692
 20
176.3029224186
 30
0.0
 11
35.1146775632
 21
176.3029224186
 31
0.0
  0
SPLINE
  5
33C
330
1F
100
AcDbEntity
  8
0
  6
Continuous
 62
     7
370
    15
100
AcDbSpline
210
0.0
220
0.0
230
1.0
 70
     8
 71
     3
 72
    12
 73
     8
 74
     0
 42
0.00000001
 43
0.00000001
 12
1.0
 22
0.0
 32
0.0
 13
1.0
 23
0.0
 33
0.0
 40
0.0
 40
0.0
 40
0.0
 40
0.0
 40
0.2500000000000008
 40
0.2500000000000008
 40
0.5000000000000016
 40
0.5000000000000016
 40
1.0
 40
1.0
 40
1.0
 40
1.0
 10
43.7749285021653
 20
174.963179675108
 30
0.0
 10
43.07066842362976
 20
175.1664820480691
 30
0.0
 10
42.35993979552689
 20
175.3531274604173
 30
0.0
 10
40.9221320752701
 20
175.6843147141579
 30
0.0
 10
40.20087408392587
 20
175.8273971683236
 30
0.0
 10
38.0320741721762
 20
176.1771343207073
 30
0.0
 10
36.57811497300045
 20
176.3029256372636
 30
0.0
 10
35.11467446432088
 20
176.3029256372636
 30
0.0
  0
LINE
  5
33D
330
1F
100
AcDbEntity
  8
0
  6
Continuous
 62
     7
370
    15
100
AcDbLine
 10
43.7749269753
 20
160.302919796
 30
0.0
 11
43.7749269753
 21
174.9631739168
 31
0.0
  0
SPLINE
  5
33E
330
1F
100
AcDbEntity
  8
0
  6
Continuous
 62
     7
370
    15
100
AcDbSpline
210
0.0
220
0.0
230
1.0
 70
     8
 71
     3
 72
    12
 73
     8
 74
     0
 42
0.00000001
 43
0.00000001
 12
1.0
 22
0.0
 32
0.0
 13
1.0
 23
0.0
 33
0.0
 40
0.0
 40
0.0
 40
0.0
 40
0.0
 40
0.2499999999999993
 40
0.2499999999999993
 40
0.4999999999999986
 40
0.4999999999999986
 40
1.0
 40
1.0
 40
1.0
 40
1.0
 10
48.1050555210874
 20
176.3029256372636
 30
0.0
 10
47.7375722794192
 20
176.3029256372636
 30
0.0
 10
47.3684401210562
 20
176.2712590870731
 30
0.0
 10
46.63821986395774
 20
176.1487129883488
 30
0.0
 10
46.27555202301506
 20
176.0579512798966
 30
0.0
 10
45.19398977780401
 20
175.7078929065256
 30
0.0
 10
44.4815115880859
 20
175.3711256099692
 30
0.0
 10
43.77492850216529
 20
174.9631796751082
 30
0.0
  0
LINE
  5
33F
330
1F
100
AcDbEntity
  8
0
  6
Continuous
 62
     7
370
    15
100
AcDbLine
 10
35.1146775632
 20
176.3029224186
 30
0.0
 11
48.1050554066
 21
176.3029224186
 31
0.0
  0
SPLINE
  5
340
330
1F
100
AcDbEntity
  8
0
  6
Continuous
 62
     7
370
    15
100
AcDbSpline
210
0.0
220
0.0
230
1.0
 70
     8
 71
     3
 72
    10
 73
     6
 74
     0
 42
0.00000001
 43
0.00000001
 12
1.0
 22
0.0
 32
0.0
 13
1.0
 23
0.0
 33
0.0
 40
0.0
 40
0.0
 40
0.0
 40
0.0
 40
0.5
 40
0.5
 40
1.0
 40
1.0
 40
1.0
 40
1.0
 10
52.43518254000954
 20
174.9631796751083
 30
0.0
 10
51.72683041581389
 20
175.3721469646937
 30
0.0
 10
51.01330427303835
 20
175.709075162269
 30
0.0
 10
49.57133514095489
 20
176.1752407532048
 30
0.0
 10
48.84278064674378
 20
176.3029256372636
 30
0.0
 10
48.1050555210874
 20
176.3029256372636
 30
0.0
  0
LINE
  5
341
330
1F
100
AcDbEntity
  8
0
  6
Continuous
 62
     7
370
    15
100
AcDbLine
 10
52.4351838379
 20
160.302919796
 30
0.0
 11
52.4351838379
 21
174.9631739168
 31
0.0
  0
LINE
  5
342
330
1F
100
AcDbEntity
  8
0
  6
Continuous
 62
     7
370
    15
100
AcDbLine
 10
43.7749269753
 20
-45.6970743888
 30
0.0
 11
43.7749269753
 21
-60.3573289753
 31
0.0
  0
SPLINE
  5
343
330
1F
100
AcDbEntity
  8
0
  6
Continuous
 62
     7
370
    15
100
AcDbSpline
210
0.0
220
0.0
230
1.0
 70
     8
 71
     3
 72
    12
 73
     8
 74
     0
 42
0.00000001
 43
0.00000001
 12
1.0
 22
0.0
 32
0.0
 13
1.0
 23
0.0
 33
0.0
 40
0.0
 40
0.0
 40
0.0
 40
0.0
 40
0.2500000000000001
 40
0.2500000000000001
 40
0.5000000000000001
 40
0.5000000000000001
 40
1.0
 40
1.0
 40
1.0
 40
1.0
 10
35.11467446432091
 20
-61.69707436273642
 30
0.0
 10
35.84682945946868
 20
-61.69707436273642
 30
0.0
 10
36.58132963972712
 20
-61.66596010341136
 30
0.0
 10
38.05495983574209
 20
-61.5423061980568
 30
0.0
 10
38.7863864093805
 20
-61.45040555156913
 30
0.0
 10
40.95593074357151
 20
-61.09821224137736
 30
0.0
 10
42.37461370569985
 20
-60.76156446292559
 30
0.0
 10
43.77492850216529
 20
-60.35732840058082
 30
0.0
  0
SPLINE
  5
344
330
1F
100
AcDbEntity
  8
0
  6
Continuous
 62
     7
370
    15
100
AcDbSpline
210
0.0
220
0.0
230
1.0
 70
     8
 71
     3
 72
    12
 73
     8
 74
     0
 42
0.00000001
 43
0.00000001
 12
1.0
 22
0.0
 32
0.0
 13
1.0
 23
0.0
 33
0.0
 40
0.0
 40
0.0
 40
0.0
 40
0.0
 40
0.2499999999999988
 40
0.2499999999999988
 40
0.4999999999999976
 40
0.4999999999999976
 40
1.0
 40
1.0
 40
1.0
 40
1.0
 10
26.45442042647651
 20
-60.35732840058082
 30
0.0
 10
27.15868050501198
 20
-60.5606307735418
 30
0.0
 10
27.86940913311494
 20
-60.74727618589006
 30
0.0
 10
29.30721685337169
 20
-61.07846343963068
 30
0.0
 10
30.02847484471592
 20
-61.22154589379628
 30
0.0
 10
32.19727475646565
 20
-61.57128304618013
 30
0.0
 10
33.6512339556414
 20
-61.69707436273642
 30
0.0
 10
35.11467446432091
 20
-61.69707436273642
 30
0.0
  0
LINE
  5
345
330
1F
100
AcDbEntity
  8
0
  6
Continuous
 62
     7
370
    15
100
AcDbLine
 10
26.4544207006
 20
-45.6970743888
 30
0.0
 11
26.4544207006
 21
-60.3573289753
 31
0.0
  0
SPLINE
  5
346
330
1F
100
AcDbEntity
  8
0
  6
Continuous
 62
     7
370
    15
100
AcDbSpline
210
0.0
220
0.0
230
1.0
 70
     8
 71
     3
 72
    12
 73
     8
 74
     0
 42
0.00000001
 43
0.00000001
 12
1.0
 22
0.0
 32
0.0
 13
1.0
 23
0.0
 33
0.0
 40
0.0
 40
0.0
 40
0.0
 40
0.0
 40
0.2499999999999999
 40
0.2499999999999999
 40
0.4999999999999998
 40
0.4999999999999998
 40
1.0
 40
1.0
 40
1.0
 40
1.0
 10
22.12429340755424
 20
-61.69707436273642
 30
0.0
 10
22.49177664922244
 20
-61.69707436273643
 30
0.0
 10
22.86090880758547
 20
-61.66540781254599
 30
0.0
 10
23.59112906468403
 20
-61.54286171382154
 30
0.0
 10
23.95379690562666
 20
-61.45210000536937
 30
0.0
 10
25.0353591508378
 20
-61.10204163199838
 30
0.0
 10
25.74783734055586
 20
-60.76527433544203
 30
0.0
 10
26.45442042647653
 20
-60.35732840058093
 30
0.0
  0
SPLINE
  5
347
330
1F
100
AcDbEntity
  8
0
  6
Continuous
 62
     7
370
    15
100
AcDbSpline
210
0.0
220
0.0
230
1.0
 70
     8
 71
     3
 72
    10
 73
     6
 74
     0
 42
0.00000001
 43
0.00000001
 12
1.0
 22
0.0
 32
0.0
 13
1.0
 23
0.0
 33
0.0
 40
0.0
 40
0.0
 40
0.0
 40
0.0
 40
0.5
 40
0.5
 40
1.0
 40
1.0
 40
1.0
 40
1.0
 10
17.79416638863193
 20
-60.35732840058104
 30
0.0
 10
18.50251851282766
 20
-60.76629569016649
 30
0.0
 10
19.21604465560314
 20
-61.10322388774173
 30
0.0
 10
20.65801378768672
 20
-61.56938947867761
 30
0.0
 10
21.38656828189785
 20
-61.69707436273642
 30
0.0
 10
22.12429340755424
 20
-61.69707436273642
 30
0.0
  0
LINE
  5
348
330
1F
100
AcDbEntity
  8
0
  6
Continuous
 62
     7
370
    15
100
AcDbLine
 10
17.7941712885
 20
-45.6970743888
 30
0.0
 11
17.7941712885
 21
-60.3573289753
 31
0.0
  0
LINE
  5
349
330
1F
100
AcDbEntity
  8
0
  6
Continuous
 62
     7
370
    15
100
AcDbLine
 10
35.1146775632
 20
-61.6970737518
 30
0.0
 11
22.1242922692
 21
-61.6970737518
 31
0.0
  0
SPLINE
  5
34A
330
1F
100
AcDbEntity
  8
0
  6
Continuous
 62
     7
370
    15
100
AcDbSpline
210
0.0
220
0.0
230
1.0
 70
     8
 71
     3
 72
    10
 73
     6
 74
     0
 42
0.00000001
 43
0.00000001
 12
1.0
 22
0.0
 32
0.0
 13
1.0
 23
0.0
 33
0.0
 40
0.0
 40
0.0
 40
0.0
 40
0.0
 40
0.5
 40
0.5
 40
1.0
 40
1.0
 40
1.0
 40
1.0
 10
43.77492850216527
 20
-60.35732840058105
 30
0.0
 10
44.48328062636097
 20
-60.76629569016648
 30
0.0
 10
45.19680676913646
 20
-61.10322388774173
 30
0.0
 10
46.63877590121994
 20
-61.56938947867761
 30
0.0
 10
47.36733039543102
 20
-61.69707436273643
 30
0.0
 10
48.1050555210874
 20
-61.69707436273643
 30
0.0
  0
LINE
  5
34B
330
1F
100
AcDbEntity
  8
0
  6
Continuous
 62
     7
370
    15
100
AcDbLine
 10
48.1050554066
 20
-61.6970737518
 30
0.0
 11
35.1146775632
 21
-61.6970737518
 31
0.0
  0
LINE
  5
34C
330
1F
100
AcDbEntity
  8
0
  6
Continuous
 62
     7
370
    15
100
AcDbLine
 10
52.4351838379
 20
-45.6970743888
 30
0.0
 11
52.4351838379
 21
-60.3573289753
 31
0.0
  0
SPLINE
  5
34D
330
1F
100
AcDbEntity
  8
0
  6
Continuous
 62
     7
370
    15
100
AcDbSpline
210
0.0
220
0.0
230
1.0
 70
     8
 71
     3
 72
    12
 73
     8
 74
     0
 42
0.00000001
 43
0.00000001
 12
1.0
 22
0.0
 32
0.0
 13
1.0
 23
0.0
 33
0.0
 40
0.0
 40
0.0
 40
0.0
 40
0.0
 40
0.249999999999999
 40
0.249999999999999
 40
0.499999999999998
 40
0.499999999999998
 40
1.0
 40
1.0
 40
1.0
 40
1.0
 10
48.1050555210874
 20
-61.69707436273643
 30
0.0
 10
48.47253876275558
 20
-61.69707436273643
 30
0.0
 10
48.84167092111858
 20
-61.66540781254599
 30
0.0
 10
49.57189117821704
 20
-61.54286171382154
 30
0.0
 10
49.93455901915974
 20
-61.45210000536937
 30
0.0
 10
51.01612126437082
 20
-61.1020416319984
 30
0.0
 10
51.72859945408891
 20
-60.76527433544204
 30
0.0
 10
52.43518254000952
 20
-60.35732840058093
 30
0.0
  0
SPLINE
  5
34E
330
1F
100
AcDbEntity
  8
0
  6
Continuous
 62
     7
370
    15
100
AcDbSpline
210
0.0
220
0.0
230
1.0
 70
     8
 71
     3
 72
    10
 73
     6
 74
     0
 42
0.00000001
 43
0.00000001
 12
1.0
 22
0.0
 32
0.0
 13
1.0
 23
0.0
 33
0.0
 40
0.0
 40
0.0
 40
0.0
 40
0.0
 40
0.5
 40
0.5
 40
1.0
 40
1.0
 40
1.0
 40
1.0
 10
273.5760883417852
 20
174.9631796751083
 30
0.0
 10
273.209418301024
 20
175.3721469646937
 30
0.0
 10
272.8400699911663
 20
175.709075162269
 30
0.0
 10
272.0936518435
 20
176.1752407532048
 30
0.0
 10
271.7165242865062
 20
176.3029256372636
 30
0.0
 10
271.3346496613652
 20
176.3029256372636
 30
0.0
  0
LINE
  5
34F
330
1F
100
AcDbEntity
  8
0
  6
Continuous
 62
     7
370
    15
100
AcDbLine
 10
273.5760900526
 20
160.302919796
 30
0.0
 11
273.5760900526
 21
174.9631739168
 31
0.0
  0
LINE
  5
350
330
1F
100
AcDbEntity
  8
0
  6
Continuous
 62
     7
370
    15
100
AcDbLine
 10
273.5760900526
 20
-45.6970743888
 30
0.0
 11
273.5760900526
 21
-60.3573289753
 31
0.0
  0
SPLINE
  5
351
330
1F
100
AcDbEntity
  8
0
  6
Continuous
 62
     7
370
    15
100
AcDbSpline
210
0.0
220
0.0
230
1.0
 70
     8
 71
     3
 72
    12
 73
     8
 74
     0
 42
0.00000001
 43
0.00000001
 12
1.0
 22
0.0
 32
0.0
 13
1.0
 23
0.0
 33
0.0
 40
0.0
 40
0.0
 40
0.0
 40
0.0
 40
0.2500000000000001
 40
0.2500000000000001
 40
0.5000000000000001
 40
0.5000000000000001
 40
1.0
 40
1.0
 40
1.0
 40
1.0
 10
271.3346496613652
 20
-61.69707436273642
 30
0.0
 10
271.5248729847647
 20
-61.69707436273642
 30
0.0
 10
271.7159498502529
 20
-61.66540781254599
 30
0.0
 10
272.0939396695664
 20
-61.54286171382154
 30
0.0
 10
272.2816703581308
 20
-61.45210000536937
 30
0.0
 10
272.8415281731798
 20
-61.10204163199838
 30
0.0
 10
273.2103340226182
 20
-60.76527433544203
 30
0.0
 10
273.5760883417852
 20
-60.35732840058093
 30
0.0
  0
SPLINE
  5
352
330
1F
100
AcDbEntity
  8
0
  6
Continuous
 62
     7
370
    15
100
AcDbSpline
210
0.0
220
0.0
230
1.0
 70
     8
 71
     3
 72
    11
 73
     7
 74
     0
 42
0.00000001
 43
0.00000001
 12
1.0
 22
0.0
 32
0.0
 13
1.0
 23
0.0
 33
0.0
 40
0.0
 40
0.0
 40
0.0
 40
0.0
 40
0.3051753779793709
 40
0.6104365080325203
 40
0.9155390364177066
 40
1.0
 40
1.0
 40
1.0
 40
1.0
 10
240.115435734278
 20
174.9631739168351
 30
0.0
 10
240.2360817198804
 20
175.0933643245571
 30
0.0
 10
240.4774075917346
 20
175.3537817225638
 30
0.0
 10
240.8438891907383
 20
175.6747183358401
 30
0.0
 10
241.1237201022319
 20
175.8911803797071
 30
0.0
 10
241.2822357748655
 20
175.9722561457645
 30
0.0
 10
241.3166034369529
 20
175.9898341207688
 30
0.0
  0
LINE
  5
353
330
1F
100
AcDbEntity
  8
0
  6
Continuous
 62
     7
370
    15
100
AcDbLine
 10
241.8457585721
 20
176.3029224186
 30
0.0
 11
246.2391573339
 21
176.3029224186
 31
0.0
  0
SPLINE
  5
354
330
1F
100
AcDbEntity
  8
0
  6
Continuous
 62
     7
370
    15
100
AcDbSpline
210
0.0
220
0.0
230
1.0
 70
     8
 71
     3
 72
    11
 73
     7
 74
     0
 42
0.00000001
 43
0.00000001
 12
1.0
 22
0.0
 32
0.0
 13
1.0
 23
0.0
 33
0.0
 40
0.0
 40
0.0
 40
0.0
 40
0.0
 40
0.1328558498995083
 40
0.4218404708943194
 40
0.710957114004701
 40
1.0
 40
1.0
 40
1.0
 40
1.0
 10
241.3166183381141
 20
-61.38370046923703
 30
0.0
 10
241.2626239876539
 20
-61.35423568875026
 30
0.0
 10
241.0911825175116
 20
-61.26067987705855
 30
0.0
 10
240.8050250236226
 20
-61.03731146704077
 30
0.0
 10
240.4582283021415
 20
-60.72763891660496
 30
0.0
 10
240.2296902051924
 20
-60.48075512389521
 30
0.0
 10
240.115435734278
 20
-60.35732897530145
 30
0.0
  0
LINE
  5
355
330
1F
100
AcDbEntity
  8
0
  6
Continuous
 62
     7
370
    15
100
AcDbLine
 10
241.8457585721
 20
-61.6970737518
 30
0.0
 11
246.2391573339
 21
-61.6970737518
 31
0.0
  0
LINE
  5
356
330
1F
100
AcDbEntity
  8
0
  6
Continuous
 62
     7
370
    15
100
AcDbLine
 10
266.8457645326
 20
222.3029113321
 30
0.0
 11
246.8457612543
 21
222.3029113321
 31
0.0
  0
LINE
  5
357
330
1F
100
AcDbEntity
  8
0
  6
Continuous
 62
     7
370
    15
100
AcDbLine
 10
266.8457645326
 20
-107.6970719786
 30
0.0
 11
246.8457612543
 21
-107.6970719786
 31
0.0
  0
LINE
  5
358
330
1F
100
AcDbEntity
  8
0
  6
Continuous
 62
     7
370
    15
100
AcDbLine
 10
36.3686847835
 20
222.3029113321
 30
0.0
 11
25.1146721988
 21
222.3029113321
 31
0.0
  0
LINE
  5
359
330
1F
100
AcDbEntity
  8
0
  6
Continuous
 62
     7
370
    15
100
AcDbLine
 10
45.114675477
 20
222.3029113321
 30
0.0
 11
36.3686847835
 21
222.3029113321
 31
0.0
  0
LINE
  5
35A
330
1F
100
AcDbEntity
  8
0
  6
Continuous
 62
     7
370
    15
100
AcDbLine
 10
36.3686847835
 20
-107.6970719786
 30
0.0
 11
25.1146721988
 21
-107.6970719786
 31
0.0
  0
LINE
  5
35B
330
1F
100
AcDbEntity
  8
0
  6
Continuous
 62
     7
370
    15
100
AcDbLine
 10
45.114675477
 20
-107.6970719786
 30
0.0
 11
36.3686847835
 21
-107.6970719786
 31
0.0
  0
LINE
  5
35C
330
1F
100
AcDbEntity
  8
0
  6
Continuous
 62
     7
370
    15
100
AcDbLine
 10
10.2104339151
 20
-28.1870742382
 30
0.0
 11
13.105908349
 21
-28.1870742382
 31
0.0
  0
SPLINE
  5
35D
330
1F
100
AcDbEntity
  8
0
  6
Continuous
 62
     7
370
    15
100
AcDbSpline
210
0.0
220
0.0
230
1.0
 70
     8
 71
     3
 72
    11
 73
     7
 74
     0
 42
0.00000001
 43
0.00000001
 12
1.0
 22
0.0
 32
0.0
 13
1.0
 23
0.0
 33
0.0
 40
0.0
 40
0.0
 40
0.0
 40
0.0
 40
0.2534122308892888
 40
0.5045495120493277
 40
0.753412035853552
 40
1.0
 40
1.0
 40
1.0
 40
1.0
 10
8.896383617637449
 20
-37.69707436273671
 30
0.0
 10
9.002989484037299
 20
-36.89324235874629
 30
0.0
 10
9.21524418731215
 20
-35.29279456678397
 30
0.0
 10
9.542062448568478
 20
-32.90408478578689
 30
0.0
 10
9.872420882320625
 20
-30.53778154580675
 30
0.0
 10
10.09810474533621
 20
-28.96824156093174
 30
0.0
 10
10.2104286317288
 20
-28.18707436273674
 30
0.0
  0
LINE
  5
35E
330
1F
100
AcDbEntity
  8
0
  6
Continuous
 62
     7
370
    15
100
AcDbLine
 10
8.1099364309
 20
-37.6970744745
 30
0.0
 11
8.8963899164
 21
-37.6970744745
 31
0.0
  0
SPLINE
  5
35F
330
1F
100
AcDbEntity
  8
0
  6
Continuous
 62
     7
370
    15
100
AcDbSpline
210
0.0
220
0.0
230
1.0
 70
     8
 71
     3
 72
    11
 73
     7
 74
     0
 42
0.00000001
 43
0.00000001
 12
1.0
 22
0.0
 32
0.0
 13
1.0
 23
0.0
 33
0.0
 40
0.0
 40
0.0
 40
0.0
 40
0.0
 40
0.2537163348298235
 40
0.5049550248168605
 40
0.7537162014035115
 40
1.0
 40
1.0
 40
1.0
 40
1.0
 10
6.995565421531625
 20
-28.1870743627365
 30
0.0
 10
7.085582547950054
 20
-28.99177512927897
 30
0.0
 10
7.264737746353251
 20
-30.59331842688394
 30
0.0
 10
7.541662528170123
 20
-32.98291980933334
 30
0.0
 10
7.822101961411365
 20
-35.34832954527234
 30
0.0
 10
8.014314241089227
 20
-36.91677577452765
 30
0.0
 10
8.109939432231567
 20
-37.6970743627366
 30
0.0
  0
LINE
  5
360
330
1F
100
AcDbEntity
  8
0
  6
Continuous
 62
     7
370
    15
100
AcDbLine
 10
5.1739010363
 20
-28.1870742382
 30
0.0
 11
6.9955679922
 21
-28.1870742382
 31
0.0
  0
LINE
  5
361
330
1F
100
AcDbEntity
  8
0
  6
Continuous
 62
     7
370
    15
100
AcDbLine
 10
5.1739010363
 20
-25.6970734389
 30
0.0
 11
5.1739010363
 21
-28.1870742382
 31
0.0
  0
LINE
  5
362
330
1F
100
AcDbEntity
  8
0
  6
Continuous
 62
     7
370
    15
100
AcDbLine
 10
7.47227104
 20
-25.6970734389
 30
0.0
 11
5.1739010363
 21
-25.6970734389
 31
0.0
  0
SPLINE
  5
363
330
1F
100
AcDbEntity
  8
0
  6
Continuous
 62
     7
370
    15
100
AcDbSpline
210
0.0
220
0.0
230
1.0
 70
     8
 71
     3
 72
    11
 73
     7
 74
     0
 42
0.00000001
 43
0.00000001
 12
1.0
 22
0.0
 32
0.0
 13
1.0
 23
0.0
 33
0.0
 40
0.0
 40
0.0
 40
0.0
 40
0.0
 40
0.2467910937220266
 40
0.4957213817989539
 40
0.7467909797082615
 40
1.0
 40
1.0
 40
1.0
 40
1.0
 10
8.496800258907534
 20
-34.09707436273671
 30
0.0
 10
8.40925501851636
 20
-33.40640413385036
 30
0.0
 10
8.233405692342904
 20
-32.01907692091384
 30
0.0
 10
7.975841100706205
 20
-29.92831629769763
 30
0.0
 10
7.72102315513451
 20
-27.81906898705974
 30
0.0
 10
7.555422674567602
 20
-26.40640366738155
 30
0.0
 10
7.472271150924248
 20
-25.69707436273666
 30
0.0
  0
SPLINE
  5
364
330
1F
100
AcDbEntity
  8
0
  6
Continuous
 62
     7
370
    15
100
AcDbSpline
210
0.0
220
0.0
230
1.0
 70
     8
 71
     3
 72
    11
 73
     7
 74
     0
 42
0.00000001
 43
0.00000001
 12
1.0
 22
0.0
 32
0.0
 13
1.0
 23
0.0
 33
0.0
 40
0.0
 40
0.0
 40
0.0
 40
0.0
 40
0.2469342793318465
 40
0.4959122787386169
 40
0.7469341396327533
 40
1.0
 40
1.0
 40
1.0
 40
1.0
 10
9.615806455045561
 20
-25.69707436273666
 30
0.0
 10
9.5203635205256
 20
-26.38810560604642
 30
0.0
 10
9.328687730208479
 20
-27.7758873246339
 30
0.0
 10
9.047502772525974
 20
-29.86701930474806
 30
0.0
 10
8.769075114416575
 20
-31.9758959593011
 30
0.0
 10
8.587803553665202
 20
-33.38810612870508
 30
0.0
 10
8.49680025890756
 20
-34.09707436273646
 30
0.0
  0
LINE
  5
365
330
1F
100
AcDbEntity
  8
0
  6
Continuous
 62
     7
370
    15
100
AcDbLine
 10
13.105908349
 20
-25.6970734389
 30
0.0
 11
9.6158030777
 21
-25.6970734389
 31
0.0
  0
LINE
  5
366
330
1F
100
AcDbEntity
  8
0
  6
Continuous
 62
     7
370
    15
100
AcDbLine
 10
13.105908349
 20
-25.6970734389
 30
0.0
 11
13.105908349
 21
-28.1870742382
 31
0.0
  0
LINE
  5
367
330
1F
100
AcDbEntity
  8
0
  6
Continuous
 62
     7
370
    15
100
AcDbLine
 10
14.6059039383
 20
-25.6970734389
 30
0.0
 11
13.105908349
 21
-25.6970734389
 31
0.0
  0
LINE
  5
368
330
1F
100
AcDbEntity
  8
0
  6
Continuous
 62
     7
370
    15
100
AcDbLine
 10
14.6059039383
 20
-28.1870742382
 30
0.0
 11
13.105908349
 21
-28.1870742382
 31
0.0
  0
LINE
  5
369
330
1F
100
AcDbEntity
  8
0
  6
Continuous
 62
     7
370
    15
100
AcDbLine
 10
12.8056946545
 20
-31.5470746772
 30
0.0
 11
13.105908349
 21
-31.5470746772
 31
0.0
  0
SPLINE
  5
36A
330
1F
100
AcDbEntity
  8
0
  6
Continuous
 62
     7
370
    15
100
AcDbSpline
210
0.0
220
0.0
230
1.0
 70
     8
 71
     3
 72
    22
 73
    18
 74
     0
 42
0.00000001
 43
0.00000001
 12
1.0
 22
0.0
 32
0.0
 13
1.0
 23
0.0
 33
0.0
 40
0.0
 40
0.0
 40
0.0
 40
0.0
 40
0.0419249423403996
 40
0.083876922023217
 40
0.1259202118758166
 40
0.1887224982000374
 40
0.2514273111580594
 40
0.3140342535502789
 40
0.3765425582700891
 40
0.4389532513691135
 40
0.5012713316175279
 40
0.6256253563474112
 40
0.7498605006881536
 40
0.8123260493790225
 40
0.8744484953502178
 40
0.9373256617753087
 40
1.0
 40
1.0
 40
1.0
 40
1.0
 10
11.7030421416153
 20
-33.89459394921423
 30
0.0
 10
11.7225735756605
 20
-33.88332020538902
 30
0.0
 10
11.76164903954813
 20
-33.86076544731545
 30
0.0
 10
11.81985570437857
 20
-33.81891405372438
 30
0.0
 10
11.88718481122317
 20
-33.76341487449147
 30
0.0
 10
11.96310224486852
 20
-33.68976098063696
 30
0.0
 10
12.04677526216455
 20
-33.59380250496677
 30
0.0
 10
12.12845581176364
 20
-33.48500547382664
 30
0.0
 10
12.20783969449082
 20
-33.36376268470409
 30
0.0
 10
12.28462424767396
 20
-33.23043176626138
 30
0.0
 10
12.38302767438609
 20
-33.03722784009651
 30
0.0
 10
12.49813767128241
 20
-32.76711127174929
 30
0.0
 10
12.60051464236725
 20
-32.4610603019981
 30
0.0
 10
12.67326680703301
 20
-32.19716793307811
 30
0.0
 10
12.72301549840468
 20
-31.98914745744271
 30
0.0
 10
12.76793277306193
 20
-31.7730571021113
 30
0.0
 10
12.79312243043837
 20
-31.62232077111625
 30
0.0
 10
12.80569691220648
 20
-31.54707436273681
 30
0.0
  0
SPLINE
  5
36B
330
1F
100
AcDbEntity
  8
0
  6
Continuous
 62
     7
370
    15
100
AcDbSpline
210
0.0
220
0.0
230
1.0
 70
     8
 71
     3
 72
    10
 73
     6
 74
     0
 42
0.00000001
 43
0.00000001
 12
1.0
 22
0.0
 32
0.0
 13
1.0
 23
0.0
 33
0.0
 40
0.0
 40
0.0
 40
0.0
 40
0.0
 40
0.3307545327067141
 40
0.6640876414966997
 40
1.0
 40
1.0
 40
1.0
 40
1.0
 10
12.85541067350798
 20
-37.6970743627368
 30
0.0
 10
12.72534604251227
 20
-37.27843109431669
 30
0.0
 10
12.46420279125213
 20
-36.43788079715689
 30
0.0
 10
12.08003812811836
 20
-35.1703750493247
 30
0.0
 10
11.82902992952528
 20
-34.3209455402516
 30
0.0
 10
11.7030421416153
 20
-33.89459394921422
 30
0.0
  0
LINE
  5
36C
330
1F
100
AcDbEntity
  8
0
  6
Continuous
 62
     7
370
    15
100
AcDbLine
 10
11.6049590855
 20
-37.6970744745
 30
0.0
 11
12.8554049282
 21
-37.6970744745
 31
0.0
  0
SPLINE
  5
36D
330
1F
100
AcDbEntity
  8
0
  6
Continuous
 62
     7
370
    15
100
AcDbSpline
210
0.0
220
0.0
230
1.0
 70
     8
 71
     3
 72
     9
 73
     5
 74
     0
 42
0.00000001
 43
0.00000001
 12
1.0
 22
0.0
 32
0.0
 13
1.0
 23
0.0
 33
0.0
 40
0.0
 40
0.0
 40
0.0
 40
0.0
 40
0.5026437339627498
 40
1.0
 40
1.0
 40
1.0
 40
1.0
 10
10.65100626196833
 20
-34.33525704883947
 30
0.0
 10
10.80756084746198
 20
-34.89911570849399
 30
0.0
 10
11.11902317140143
 20
-36.02090162077259
 30
0.0
 10
11.44355145677381
 20
-37.14032308377557
 30
0.0
 10
11.60495763301009
 20
-37.69707436273669
 30
0.0
  0
SPLINE
  5
36E
330
1F
100
AcDbEntity
  8
0
  6
Continuous
 62
     7
370
    15
100
AcDbSpline
210
0.0
220
0.0
230
1.0
 70
     8
 71
     3
 72
     9
 73
     5
 74
     0
 42
0.00000001
 43
0.00000001
 12
1.0
 22
0.0
 32
0.0
 13
1.0
 23
0.0
 33
0.0
 40
0.0
 40
0.0
 40
0.0
 40
0.0
 40
0.5015679278636791
 40
1.0
 40
1.0
 40
1.0
 40
1.0
 10
10.15828750544309
 20
-37.69707436273676
 30
0.0
 10
10.23969418008169
 20
-37.13489244154564
 30
0.0
 10
10.40199856622007
 20
-36.01404341998717
 30
0.0
 10
10.56817740100255
 20
-34.8936814080114
 30
0.0
 10
10.65100626196836
 20
-34.33525704883951
 30
0.0
  0
LINE
  5
36F
330
1F
100
AcDbEntity
  8
0
  6
Continuous
 62
     7
370
    15
100
AcDbLine
 10
9.2360320835
 20
-37.6970744745
 30
0.0
 11
10.1582947521
 21
-37.6970744745
 31
0.0
  0
SPLINE
  5
370
330
1F
100
AcDbEntity
  8
0
  6
Continuous
 62
     7
370
    15
100
AcDbSpline
210
0.0
220
0.0
230
1.0
 70
     8
 71
     3
 72
    11
 73
     7
 74
     0
 42
0.00000001
 43
0.00000001
 12
1.0
 22
0.0
 32
0.0
 13
1.0
 23
0.0
 33
0.0
 40
0.0
 40
0.0
 40
0.0
 40
0.0
 40
0.2469599701765154
 40
0.4959465159787037
 40
0.746959804797183
 40
1.0
 40
1.0
 40
1.0
 40
1.0
 10
10.44168449326163
 20
-29.1470743627367
 30
0.0
 10
10.33892430285399
 20
-29.85048169438133
 30
0.0
 10
10.13256066271606
 20
-31.26306858121035
 30
0.0
 10
9.829661375135801
 20
-33.39158815875998
 30
0.0
 10
9.529626728410372
 20
-35.53807825619205
 30
0.0
 10
9.334162247501332
 20
-36.97548229132742
 30
0.0
 10
9.236037004898389
 20
-37.69707436273667
 30
0.0
  0
LINE
  5
371
330
1F
100
AcDbEntity
  8
0
  6
Continuous
 62
     7
370
    15
100
AcDbLine
 10
11.4426109343
 20
-29.1470740975
 30
0.0
 11
10.4416850357
 21
-29.1470740975
 31
0.0
  0
SPLINE
  5
372
330
1F
100
AcDbEntity
  8
0
  6
Continuous
 62
     7
370
    15
100
AcDbSpline
210
0.0
220
0.0
230
1.0
 70
     8
 71
     3
 72
     9
 73
     5
 74
     0
 42
0.00000001
 43
0.00000001
 12
1.0
 22
0.0
 32
0.0
 13
1.0
 23
0.0
 33
0.0
 40
0.0
 40
0.0
 40
0.0
 40
0.0
 40
0.5014270628128653
 40
1.0
 40
1.0
 40
1.0
 40
1.0
 10
10.96230403594167
 20
-32.26507308158106
 30
0.0
 10
11.04173628150779
 20
-31.74381136822387
 30
0.0
 10
11.20014864385715
 20
-30.70425496607621
 30
0.0
 10
11.36194763589141
 20
-29.66514598132279
 30
0.0
 10
11.44261623458387
 20
-29.14707436273675
 30
0.0
  0
SPLINE
  5
373
330
1F
100
AcDbEntity
  8
0
  6
Continuous
 62
     7
370
    15
100
AcDbSpline
210
0.0
220
0.0
230
1.0
 70
     8
 71
     3
 72
    26
 73
    22
 74
     0
 42
0.00000001
 43
0.00000001
 12
1.0
 22
0.0
 32
0.0
 13
1.0
 23
0.0
 33
0.0
 40
0.0
 40
0.0
 40
0.0
 40
0.0
 40
0.0157638970986414
 40
0.0314988549243172
 40
0.0628947206717469
 40
0.1254699797199536
 40
0.1879119390909579
 40
0.2503074844567066
 40
0.3126894323876652
 40
0.3750550996404262
 40
0.4373850289725358
 40
0.4996617325395059
 40
0.5618918279176289
 40
0.6241465649330679
 40
0.6864907244648636
 40
0.7489535478908413
 40
0.8115403979169714
 40
0.8742444027894427
 40
0.9370579990027301
 40
0.9685529414290512
 40
1.0
 40
1.0
 40
1.0
 40
1.0
 10
12.12308784374228
 20
-29.14707436273678
 30
0.0
 10
12.12300904423447
 20
-29.1731037074766
 30
0.0
 10
12.12285158987855
 20
-29.22511461243267
 30
0.0
 10
12.12117650928785
 20
-29.32888352907455
 30
0.0
 10
12.11559987393082
 20
-29.50947282382438
 30
0.0
 10
12.09979810415163
 20
-29.76474005833735
 30
0.0
 10
12.06912267294066
 20
-30.06342412742466
 30
0.0
 10
12.02743956085756
 20
-30.35177342252852
 30
0.0
 10
11.97548977058818
 20
-30.62729540006976
 30
0.0
 10
11.91399831860093
 20
-30.88751113686546
 30
0.0
 10
11.84371286940164
 20
-31.12997490304918
 30
0.0
 10
11.76530594244296
 20
-31.35205676000301
 30
0.0
 10
11.67969797807855
 20
-31.55180969909914
 30
0.0
 10
11.58809295394397
 20
-31.72882839708486
 30
0.0
 10
11.49137256929289
 20
-31.88220993050275
 30
0.0
 10
11.39045175810982
 20
-32.01128748265279
 30
0.0
 10
11.28621049474954
 20
-32.11529429723021
 30
0.0
 10
11.17952233759545
 20
-32.19362088298196
 30
0.0
 10
11.08928588068042
 20
-32.23649083298499
 30
0.0
 10
11.01675737476945
 20
-32.25781936868768
 30
0.0
 10
10.98044594076977
 20
-32.26265640389343
 30
0.0
 10
10.96230403594167
 20
-32.26507308158106
 30
0.0
  0
LINE
  5
374
330
1F
100
AcDbEntity
  8
0
  6
Continuous
 62
     7
370
    15
100
AcDbLine
 10
13.105908349
 20
-29.1470740975
 30
0.0
 11
12.1230873613
 21
-29.1470740975
 31
0.0
  0
LINE
  5
375
330
1F
100
AcDbEntity
  8
0
  6
Continuous
 62
     7
370
    15
100
AcDbLine
 10
13.105908349
 20
-29.1470740975
 30
0.0
 11
13.105908349
 21
-31.5470746772
 31
0.0
  0
LINE
  5
376
330
1F
100
AcDbEntity
  8
0
  6
Continuous
 62
     7
370
    15
100
AcDbLine
 10
14.6059039383
 20
-29.1470740975
 30
0.0
 11
13.105908349
 21
-29.1470740975
 31
0.0
  0
LINE
  5
377
330
1F
100
AcDbEntity
  8
0
  6
Continuous
 62
     7
370
    15
100
AcDbLine
 10
14.6059039383
 20
-31.5470746772
 30
0.0
 11
13.105908349
 21
-31.5470746772
 31
0.0
  0
LINE
  5
378
330
1F
100
AcDbEntity
  8
0
  6
Continuous
 62
     7
370
    15
100
AcDbLine
 10
13.2030490189
 20
-33.8945942984
 30
0.0
 11
11.7030385284
 21
-33.8945942984
 31
0.0
  0
LINE
  5
379
330
1F
100
AcDbEntity
  8
0
  6
Continuous
 62
     7
370
    15
100
AcDbLine
 10
14.3554154186
 20
-37.6970744745
 30
0.0
 11
12.8554049282
 21
-37.6970744745
 31
0.0
  0
LINE
  5
37A
330
1F
100
AcDbEntity
  8
0
  6
Continuous
 62
     7
370
    15
100
AcDbLine
 10
20.1146695166
 20
176.3029224186
 30
0.0
 11
22.1242922692
 21
176.3029224186
 31
0.0
  0
LINE
  5
37B
330
1F
100
AcDbEntity
  8
0
  6
Continuous
 62
     7
370
    15
100
AcDbLine
 10
48.1050554066
 20
176.3029224186
 30
0.0
 11
50.1146781592
 21
176.3029224186
 31
0.0
  0
LINE
  5
37C
330
1F
100
AcDbEntity
  8
0
  6
Continuous
 62
     7
370
    15
100
AcDbLine
 10
22.1242922692
 20
-61.6970737518
 30
0.0
 11
20.1146695166
 21
-61.6970737518
 31
0.0
  0
LINE
  5
37D
330
1F
100
AcDbEntity
  8
0
  6
Continuous
 62
     7
370
    15
100
AcDbLine
 10
50.1146781592
 20
-61.6970737518
 30
0.0
 11
48.1050554066
 21
-61.6970737518
 31
0.0
  0
LINE
  5
37E
330
1F
100
AcDbEntity
  8
0
  6
Continuous
 62
     7
370
    15
100
AcDbLine
 10
12.1230873613
 20
-29.1470740975
 30
0.0
 11
11.4426109343
 21
-29.1470740975
 31
0.0
  0
LINE
  5
37F
330
1F
100
AcDbEntity
  8
0
  6
Continuous
 62
     7
370
    15
100
AcDbLine
 10
271.3346424847
 20
176.3029224186
 30
0.0
 11
271.8457672148
 21
176.3029224186
 31
0.0
  0
LINE
  5
380
330
1F
100
AcDbEntity
  8
0
  6
Continuous
 62
     7
370
    15
100
AcDbLine
 10
271.8457672148
 20
-61.6970737518
 30
0.0
 11
271.3346424847
 21
-61.6970737518
 31
0.0
  0
LINE
  5
381
330
1F
100
AcDbEntity
  8
0
  6
Continuous
 62
     7
370
    15
100
AcDbLine
 10
11.6049590855
 20
-37.6970744745
 30
0.0
 11
10.1582947521
 21
-37.6970744745
 31
0.0
  0
LINE
  5
382
330
1F
100
AcDbEntity
  8
0
  6
Continuous
 62
     7
370
    15
100
AcDbLine
 10
9.2360320835
 20
-37.6970744745
 30
0.0
 11
8.8963899164
 21
-37.6970744745
 31
0.0
  0
LINE
  5
383
330
1F
100
AcDbEntity
  8
0
  6
Continuous
 62
     7
370
    15
100
AcDbLine
 10
8.9722666292
 20
-25.6970734389
 30
0.0
 11
7.47227104
 21
-25.6970734389
 31
0.0
  0
LINE
  5
384
330
1F
100
AcDbEntity
  8
0
  6
Continuous
 62
     7
370
    15
100
AcDbLine
 10
5.1739010363
 20
-37.6970744745
 30
0.0
 11
5.7751032858
 21
-37.6970744745
 31
0.0
  0
SPLINE
  5
385
330
1F
100
AcDbEntity
  8
0
  6
Continuous
 62
     7
370
    15
100
AcDbSpline
210
0.0
220
0.0
230
1.0
 70
     8
 71
     3
 72
     9
 73
     5
 74
     0
 42
0.00000001
 43
0.00000001
 12
1.0
 22
0.0
 32
0.0
 13
1.0
 23
0.0
 33
0.0
 40
0.0
 40
0.0
 40
0.0
 40
0.0
 40
0.4964340829107726
 40
1.0
 40
1.0
 40
1.0
 40
1.0
 10
5.703307586974349
 20
-31.54707436273632
 30
0.0
 10
5.613100706536062
 20
-32.56456906396914
 30
0.0
 10
5.43139102232304
 20
-34.61417592268212
 30
0.0
 10
5.260138261621611
 20
-36.66456719918991
 30
0.0
 10
5.173901208124914
 20
-37.69707436273631
 30
0.0
  0
LINE
  5
386
330
1F
100
AcDbEntity
  8
0
  6
Continuous
 62
     7
370
    15
100
AcDbLine
 10
5.1739010363
 20
-31.5470746772
 30
0.0
 11
5.7033094912
 21
-31.5470746772
 31
0.0
  0
LINE
  5
387
330
1F
100
AcDbEntity
  8
0
  6
Continuous
 62
     7
370
    15
100
AcDbLine
 10
5.1739010363
 20
-29.1470740975
 30
0.0
 11
5.1739010363
 21
-31.5470746772
 31
0.0
  0
LINE
  5
388
330
1F
100
AcDbEntity
  8
0
  6
Continuous
 62
     7
370
    15
100
AcDbLine
 10
6.8212095051
 20
-29.1470740975
 30
0.0
 11
5.1739010363
 21
-29.1470740975
 31
0.0
  0
SPLINE
  5
389
330
1F
100
AcDbEntity
  8
0
  6
Continuous
 62
     7
370
    15
100
AcDbSpline
210
0.0
220
0.0
230
1.0
 70
     8
 71
     3
 72
    11
 73
     7
 74
     0
 42
0.00000001
 43
0.00000001
 12
1.0
 22
0.0
 32
0.0
 13
1.0
 23
0.0
 33
0.0
 40
0.0
 40
0.0
 40
0.0
 40
0.0
 40
0.2466128453210095
 40
0.4954837250833358
 40
0.7466127429973413
 40
1.0
 40
1.0
 40
1.0
 40
1.0
 10
7.799978501512733
 20
-37.69707436273666
 30
0.0
 10
7.71618521539183
 20
-36.99455863234921
 30
0.0
 10
7.547831415774725
 20
-35.58309480300602
 30
0.0
 10
7.301654351894782
 20
-33.45549216743983
 30
0.0
 10
7.058315893125999
 20
-31.30808687823057
 30
0.0
 10
6.900480966102962
 20
-29.86955817576588
 30
0.0
 10
6.821210264232713
 20
-29.1470743627366
 30
0.0
  0
LINE
  5
38A
330
1F
100
AcDbEntity
  8
0
  6
Continuous
 62
     7
370
    15
100
AcDbLine
 10
7.0356968193
 20
-37.6970744745
 30
0.0
 11
7.7999773769
 21
-37.6970744745
 31
0.0
  0
LINE
  5
38B
330
1F
100
AcDbEntity
  8
0
  6
Continuous
 62
     7
370
    15
100
AcDbLine
 10
6.8897250443
 20
-36.3770742023
 30
0.0
 11
7.0356968193
 21
-37.6970744745
 31
0.0
  0
LINE
  5
38C
330
1F
100
AcDbEntity
  8
0
  6
Continuous
 62
     7
370
    15
100
AcDbLine
 10
5.8954301624
 20
-36.3770742023
 30
0.0
 11
6.8897250443
 21
-36.3770742023
 31
0.0
  0
LINE
  5
38D
330
1F
100
AcDbEntity
  8
0
  6
Continuous
 62
     7
370
    15
100
AcDbLine
 10
5.7751032858
 20
-37.6970744745
 30
0.0
 11
5.8954301624
 21
-36.3770742023
 31
0.0
  0
SPLINE
  5
38E
330
1F
100
AcDbEntity
  8
0
  6
Continuous
 62
     7
370
    15
100
AcDbSpline
210
0.0
220
0.0
230
1.0
 70
     8
 71
     3
 72
     9
 73
     5
 74
     0
 42
0.00000001
 43
0.00000001
 12
1.0
 22
0.0
 32
0.0
 13
1.0
 23
0.0
 33
0.0
 40
0.0
 40
0.0
 40
0.0
 40
0.0
 40
0.5002224904709242
 40
1.0
 40
1.0
 40
1.0
 40
1.0
 10
6.044848496954192
 20
-34.09707436273631
 30
0.0
 10
6.091720359138463
 20
-33.5990876427072
 30
0.0
 10
6.18542238788991
 20
-32.60355719472537
 30
0.0
 10
6.281625050880507
 20
-31.60823464507542
 30
0.0
 10
6.329704978200041
 20
-31.11079482003325
 30
0.0
  0
LINE
  5
38F
330
1F
100
AcDbEntity
  8
0
  6
Continuous
 62
     7
370
    15
100
AcDbLine
 10
6.0448441057
 20
-34.0970740707
 30
0.0
 11
6.6429022102
 21
-34.0970740707
 31
0.0
  0
SPLINE
  5
390
330
1F
100
AcDbEntity
  8
0
  6
Continuous
 62
     7
370
    15
100
AcDbSpline
210
0.0
220
0.0
230
1.0
 70
     8
 71
     3
 72
     9
 73
     5
 74
     0
 42
0.00000001
 43
0.00000001
 12
1.0
 22
0.0
 32
0.0
 13
1.0
 23
0.0
 33
0.0
 40
0.0
 40
0.0
 40
0.0
 40
0.0
 40
0.5002409219424525
 40
0.9999999999999999
 40
0.9999999999999999
 40
0.9999999999999999
 40
0.9999999999999999
 10
6.329704978200041
 20
-31.11079482003334
 30
0.0
 10
6.38122179060821
 20
-31.60881150551728
 30
0.0
 10
6.484205793212627
 20
-32.60436517503741
 30
0.0
 10
6.590017037463397
 20
-33.59966449313356
 30
0.0
 10
6.64289716733829
 20
-34.09707436273661
 30
0.0
  0
LINE
  5
391
330
1F
100
AcDbEntity
  8
0
  6
Continuous
 62
     7
370
    15
100
AcDbLine
 10
7.1041080504
 20
-29.1470740975
 30
0.0
 11
6.8212095051
 21
-29.1470740975
 31
0.0
  0
LINE
  5
392
330
1F
100
AcDbEntity
  8
0
  6
Continuous
 62
     7
370
    15
100
AcDbLine
 10
8.1099364309
 20
-37.6970744745
 30
0.0
 11
7.7999773769
 21
-37.6970744745
 31
0.0
  0
LINE
  5
393
330
1F
100
AcDbEntity
  8
0
  6
Continuous
 62
     7
370
    15
100
AcDbLine
 10
7.0356968193
 20
-37.6970744745
 30
0.0
 11
5.7751032858
 21
-37.6970744745
 31
0.0
  0
LINE
  5
394
330
1F
100
AcDbEntity
  8
0
  6
Continuous
 62
     7
370
    15
100
AcDbLine
 10
239.5252528935
 20
160.302919796
 30
0.0
 11
239.5252528935
 21
174.9631739168
 31
0.0
  0
SPLINE
  5
395
330
1F
100
AcDbEntity
  8
0
  6
Continuous
 62
     7
370
    15
100
AcDbSpline
210
0.0
220
0.0
230
1.0
 70
     8
 71
     3
 72
     9
 73
     5
 74
     0
 42
0.00000001
 43
0.00000001
 12
1.0
 22
0.0
 32
0.0
 13
1.0
 23
0.0
 33
0.0
 40
0.0
 40
0.0
 40
0.0
 40
0.0
 40
0.4577721989135556
 40
1.0
 40
1.0
 40
1.0
 40
1.0
 10
240.7538238315642
 20
175.5880839138215
 30
0.0
 10
240.5650760615712
 20
175.5028479227955
 30
0.0
 10
240.152757946926
 20
175.3166505276102
 30
0.0
 10
239.7458757385843
 20
175.0874518252355
 30
0.0
 10
239.5252528934539
 20
174.9631739168351
 30
0.0
  0
SPLINE
  5
396
330
1F
100
AcDbEntity
  8
0
  6
Continuous
 62
     7
370
    15
100
AcDbSpline
210
0.0
220
0.0
230
1.0
 70
     8
 71
     3
 72
     9
 73
     5
 74
     0
 42
0.00000001
 43
0.00000001
 12
1.0
 22
0.0
 32
0.0
 13
1.0
 23
0.0
 33
0.0
 40
0.0
 40
0.0
 40
0.0
 40
0.0
 40
0.5749475431094191
 40
1.0
 40
1.0
 40
1.0
 40
1.0
 10
274.1662654428542
 20
174.9631739168351
 30
0.0
 10
273.9333390424177
 20
175.0945150864845
 30
0.0
 10
273.5282126909304
 20
175.3229553524245
 30
0.0
 10
273.1173739953364
 20
175.5058457502174
 30
0.0
 10
272.9427459983885
 20
175.583583763141
 30
0.0
  0
LINE
  5
397
330
1F
100
AcDbEntity
  8
0
  6
Continuous
 62
     7
370
    15
100
AcDbLine
 10
274.1662654429
 20
160.302919796
 30
0.0
 11
274.1662654429
 21
174.9631739168
 31
0.0
  0
SPLINE
  5
398
330
1F
100
AcDbEntity
  8
0
  6
Continuous
 62
     7
370
    15
100
AcDbSpline
210
0.0
220
0.0
230
1.0
 70
     8
 71
     3
 72
     9
 73
     5
 74
     0
 42
0.00000001
 43
0.00000001
 12
1.0
 22
0.0
 32
0.0
 13
1.0
 23
0.0
 33
0.0
 40
0.0
 40
0.0
 40
0.0
 40
0.0
 40
0.5772102547132857
 40
1.0
 40
1.0
 40
1.0
 40
1.0
 10
239.5252528934539
 20
-60.35732897530145
 30
0.0
 10
239.7581798173357
 20
-60.48868578259323
 30
0.0
 10
240.1617189471066
 20
-60.71625763569037
 30
0.0
 10
240.5709433723431
 20
-60.89846727882046
 30
0.0
 10
240.7439592628539
 20
-60.97550364742822
 30
0.0
  0
LINE
  5
399
330
1F
100
AcDbEntity
  8
0
  6
Continuous
 62
     7
370
    15
100
AcDbLine
 10
239.5252528935
 20
-45.6970743888
 30
0.0
 11
239.5252528935
 21
-60.3573289753
 31
0.0
  0
LINE
  5
39A
330
1F
100
AcDbEntity
  8
0
  6
Continuous
 62
     7
370
    15
100
AcDbLine
 10
274.1662654429
 20
-45.6970743888
 30
0.0
 11
274.1662654429
 21
-60.3573289753
 31
0.0
  0
SPLINE
  5
39B
330
1F
100
AcDbEntity
  8
0
  6
Continuous
 62
     7
370
    15
100
AcDbSpline
210
0.0
220
0.0
230
1.0
 70
     8
 71
     3
 72
     9
 73
     5
 74
     0
 42
0.00000001
 43
0.00000001
 12
1.0
 22
0.0
 32
0.0
 13
1.0
 23
0.0
 33
0.0
 40
0.0
 40
0.0
 40
0.0
 40
0.0
 40
0.4555485088697364
 40
1.0
 40
1.0
 40
1.0
 40
1.0
 10
272.9427459983885
 20
-60.97986782501287
 30
0.0
 10
273.1298075154403
 20
-60.89537549826915
 30
0.0
 10
273.5404367094989
 20
-60.7099016681531
 30
0.0
 10
273.9456477096174
 20
-60.48161823233368
 30
0.0
 10
274.1662654428542
 20
-60.35732897530145
 30
0.0
  0
SPLINE
  5
39C
330
1F
100
AcDbEntity
  8
0
  6
Continuous
 62
     7
370
    15
100
AcDbSpline
210
0.0
220
0.0
230
1.0
 70
     8
 71
     3
 72
     9
 73
     5
 74
     0
 42
0.00000001
 43
0.00000001
 12
1.0
 22
0.0
 32
0.0
 13
1.0
 23
0.0
 33
0.0
 40
0.0
 40
0.0
 40
0.0
 40
0.0
 40
0.6343538926108895
 40
1.0
 40
1.0
 40
1.0
 40
1.0
 10
208.63255293656
 20
174.9631739168351
 30
0.0
 10
208.2692379499024
 20
175.1084105773086
 30
0.0
 10
207.6965056140729
 20
175.3373626845872
 30
0.0
 10
207.1148940889165
 20
175.5153240383694
 30
0.0
 10
206.9022300987304
 20
175.5803949146455
 30
0.0
  0
LINE
  5
39D
330
1F
100
AcDbEntity
  8
0
  6
Continuous
 62
     7
370
    15
100
AcDbLine
 10
208.6325529366
 20
160.302919796
 30
0.0
 11
208.6325529366
 21
174.9631739168
 31
0.0
  0
LINE
  5
39E
330
1F
100
AcDbEntity
  8
0
  6
Continuous
 62
     7
370
    15
100
AcDbLine
 10
208.6325529366
 20
-45.6970743888
 30
0.0
 11
208.6325529366
 21
-60.3573289753
 31
0.0
  0
SPLINE
  5
39F
330
1F
100
AcDbEntity
  8
0
  6
Continuous
 62
     7
370
    15
100
AcDbSpline
210
0.0
220
0.0
230
1.0
 70
     8
 71
     3
 72
    10
 73
     6
 74
     0
 42
0.00000001
 43
0.00000001
 12
1.0
 22
0.0
 32
0.0
 13
1.0
 23
0.0
 33
0.0
 40
0.0
 40
0.0
 40
0.0
 40
0.0
 40
0.104528274440681
 40
0.5520805234561471
 40
1.0
 40
1.0
 40
1.0
 40
1.0
 10
206.9022300987304
 20
-60.9780834109599
 30
0.0
 10
206.9632336330148
 20
-60.96080641775654
 30
0.0
 10
207.2854322278029
 20
-60.86955559110221
 30
0.0
 10
207.8623514220391
 20
-60.66046334427602
 30
0.0
 10
208.3757489179856
 20
-60.45840138642114
 30
0.0
 10
208.63255293656
 20
-60.35732897530145
 30
0.0
  0
LINE
  5
3A0
330
1F
100
AcDbEntity
  8
0
  6
Continuous
 62
     7
370
    15
100
AcDbLine
 10
175.1719042062
 20
160.302919796
 30
0.0
 11
175.1719042062
 21
174.9631739168
 31
0.0
  0
SPLINE
  5
3A1
330
1F
100
AcDbEntity
  8
0
  6
Continuous
 62
     7
370
    15
100
AcDbSpline
210
0.0
220
0.0
230
1.0
 70
     8
 71
     3
 72
    12
 73
     8
 74
     0
 42
0.00000001
 43
0.00000001
 12
1.0
 22
0.0
 32
0.0
 13
1.0
 23
0.0
 33
0.0
 40
0.0
 40
0.0
 40
0.0
 40
0.0
 40
0.1966768722711243
 40
0.3947904032213723
 40
0.5964822793022491
 40
0.7982661733522874
 40
1.0
 40
1.0
 40
1.0
 40
1.0
 10
176.9022307692826
 20
176.2275821476167
 30
0.0
 10
176.7870235911377
 20
176.1876339913937
 30
0.0
 10
176.5557676849976
 20
176.1074458710464
 30
0.0
 10
176.2087612507871
 20
175.9051581147321
 30
0.0
 10
175.8613976442743
 20
175.6455342565136
 30
0.0
 10
175.5147221403676
 20
175.3329076433093
 30
0.0
 10
175.2861673980768
 20
175.0864082973328
 30
0.0
 10
175.1719042061627
 20
174.9631739168351
 30
0.0
  0
SPLINE
  5
3A2
330
1F
100
AcDbEntity
  8
0
  6
Continuous
 62
     7
370
    15
100
AcDbSpline
210
0.0
220
0.0
230
1.0
 70
     8
 71
     3
 72
    12
 73
     8
 74
     0
 42
0.00000001
 43
0.00000001
 12
1.0
 22
0.0
 32
0.0
 13
1.0
 23
0.0
 33
0.0
 40
0.0
 40
0.0
 40
0.0
 40
0.0
 40
0.213017055803768
 40
0.4260943793825216
 40
0.6390603737832504
 40
0.8560493423178998
 40
1.0
 40
1.0
 40
1.0
 40
1.0
 10
175.1719042061627
 20
-60.35732897530145
 30
0.0
 10
175.2925629945933
 20
-60.48718281180336
 30
0.0
 10
175.5339147087993
 20
-60.74692722365781
 30
0.0
 10
175.9002155268442
 20
-61.07285748023671
 30
0.0
 10
176.2719127957205
 20
-61.34079605472075
 30
0.0
 10
176.6061637984012
 20
-61.52680019939248
 30
0.0
 10
176.8178183008009
 20
-61.58823525427289
 30
0.0
 10
176.9022307692826
 20
-61.61273690472192
 30
0.0
  0
LINE
  5
3A3
330
1F
100
AcDbEntity
  8
0
  6
Continuous
 62
     7
370
    15
100
AcDbLine
 10
175.1719042062
 20
-45.6970743888
 30
0.0
 11
175.1719042062
 21
-60.3573289753
 31
0.0
  0
SPLINE
  5
3A4
330
1F
100
AcDbEntity
  8
0
  6
Continuous
 62
     7
370
    15
100
AcDbSpline
210
0.0
220
0.0
230
1.0
 70
     8
 71
     3
 72
    11
 73
     7
 74
     0
 42
0.00000001
 43
0.00000001
 12
1.0
 22
0.0
 32
0.0
 13
1.0
 23
0.0
 33
0.0
 40
0.0
 40
0.0
 40
0.0
 40
0.0
 40
0.1328554140732535
 40
0.4218396251191432
 40
0.7109556804358457
 40
1.0
 40
1.0
 40
1.0
 40
1.0
 10
207.4313777833045
 20
175.9895509987062
 30
0.0
 10
207.4853705085636
 20
175.9600892935185
 30
0.0
 10
207.6568070370735
 20
175.8665431271206
 30
0.0
 10
207.9429757376407
 20
175.6431606426921
 30
0.0
 10
208.2897587352236
 20
175.3335009870762
 30
0.0
 10
208.5182976548364
 20
175.0866060623478
 30
0.0
 10
208.63255293656
 20
174.9631739168351
 30
0.0
  0
SPLINE
  5
3A5
330
1F
100
AcDbEntity
  8
0
  6
Continuous
 62
     7
370
    15
100
AcDbSpline
210
0.0
220
0.0
230
1.0
 70
     8
 71
     3
 72
    11
 73
     7
 74
     0
 42
0.00000001
 43
0.00000001
 12
1.0
 22
0.0
 32
0.0
 13
1.0
 23
0.0
 33
0.0
 40
0.0
 40
0.0
 40
0.0
 40
0.0
 40
0.3051751600191012
 40
0.6104365619769901
 40
0.9155387672015279
 40
1.0
 40
1.0
 40
1.0
 40
1.0
 10
208.63255293656
 20
-60.35732897530145
 30
0.0
 10
208.5119060488887
 20
-60.48751521755205
 30
0.0
 10
208.2705781789577
 20
-60.7479244924458
 30
0.0
 10
207.9041099558533
 20
-61.0688677901851
 30
0.0
 10
207.6242593805368
 20
-61.28533421608777
 30
0.0
 10
207.4657574758334
 20
-61.36640022310804
 30
0.0
 10
207.4313926844657
 20
-61.38397614071912
 30
0.0
  0
LINE
  5
3A6
330
1F
100
AcDbEntity
  8
0
  6
Continuous
 62
     8
370
    15
100
AcDbLine
 10
83.8604438453
 20
63.4904182463
 30
0.0
 11
90.0582055895
 21
63.4904182463
 31
0.0
  0
LINE
  5
3A7
330
1F
100
AcDbEntity
  8
0
  6
Continuous
 62
     8
370
    15
100
AcDbLine
 10
110.0582051425
 20
63.4904182463
 30
0.0
 11
181.9022315888
 21
63.4904182463
 31
0.0
  0
LINE
  5
3A8
330
1F
100
AcDbEntity
  8
0
  6
Continuous
 62
     8
370
    15
100
AcDbLine
 10
201.9022311418
 20
63.4904182463
 30
0.0
 11
246.8457612543
 21
63.4904182463
 31
0.0
  0
LINE
  5
3A9
330
1F
100
AcDbEntity
  8
0
  6
Continuous
 62
     8
370
    15
100
AcDbLine
 10
45.114675477
 20
63.4904182463
 30
0.0
 11
83.8604438453
 21
63.4904182463
 31
0.0
  0
LINE
  5
3AA
330
1F
100
AcDbEntity
  8
0
  6
Continuous
 62
     8
370
    15
100
AcDbLine
 10
48.6419591456
 20
80.5323622136
 30
0.0
 11
90.0582055895
 21
80.5323622136
 31
0.0
  0
LINE
  5
3AB
330
1F
100
AcDbEntity
  8
0
  6
Continuous
 62
     8
370
    15
100
AcDbLine
 10
110.0582051425
 20
80.5323622136
 30
0.0
 11
181.9022315888
 21
80.5323622136
 31
0.0
  0
LINE
  5
3AC
330
1F
100
AcDbEntity
  8
0
  6
Continuous
 62
     8
370
    15
100
AcDbLine
 10
201.9022311418
 20
80.5323622136
 30
0.0
 11
243.3184775858
 21
80.5323622136
 31
0.0
  0
LINE
  5
3AD
330
1F
100
AcDbEntity
  8
0
  6
Continuous
 62
     8
370
    15
100
AcDbLine
 10
48.4939310103
 20
77.7078098564
 30
0.0
 11
90.0582055895
 21
77.7078098564
 31
0.0
  0
LINE
  5
3AE
330
1F
100
AcDbEntity
  8
0
  6
Continuous
 62
     8
370
    15
100
AcDbLine
 10
110.0582051425
 20
77.7078098564
 30
0.0
 11
181.9022315888
 21
77.7078098564
 31
0.0
  0
LINE
  5
3AF
330
1F
100
AcDbEntity
  8
0
  6
Continuous
 62
     8
370
    15
100
AcDbLine
 10
201.9022311418
 20
77.7078098564
 30
0.0
 11
243.4665057211
 21
77.7078098564
 31
0.0
  0
LINE
  5
3B0
330
1F
100
AcDbEntity
  8
FORMAT
  6
CENTERX2
370
     0
100
AcDbLine
 10
145.9802183657
 20
-78.2128983465
 30
0.0
 11
145.9802183657
 21
191.1180816245
 31
0.0
  0
ENDSEC
  0
SECTION
  2
OBJECTS
  0
DICTIONARY
  5
C
330
0
100
AcDbDictionary
281
     1
  3
ACAD_GROUP
350
D
  3
ACAD_LAYOUT
350
1A
  3
ACAD_MLINESTYLE
350
17
  3
ACAD_PLOTSETTINGS
350
19
  3
ACAD_PLOTSTYLENAME
350
E
  0
DICTIONARY
  5
D
102
{ACAD_REACTORS
330
C
102
}
330
C
100
AcDbDictionary
281
     1
  0
DICTIONARY
  5
1A
102
{ACAD_REACTORS
330
C
102
}
330
C
100
AcDbDictionary
281
     1
  3
Layout1
350
1E
  3
Layout2
350
26
  3
Model
350
22
  0
DICTIONARY
  5
17
102
{ACAD_REACTORS
330
C
102
}
330
C
100
AcDbDictionary
281
     1
  3
Standard
350
18
  0
DICTIONARY
  5
19
102
{ACAD_REACTORS
330
C
102
}
330
C
100
AcDbDictionary
281
     1
  0
ACDBDICTIONARYWDFLT
  5
E
102
{ACAD_REACTORS
330
C
102
}
330
C
100
AcDbDictionary
281
     1
  3
Normal
350
F
100
AcDbDictionaryWithDefault
340
F
  0
LAYOUT
  5
1E
102
{ACAD_REACTORS
330
1A
102
}
330
1A
100
AcDbPlotSettings
  1

  2
none_device
  4

  6

 40
0.0
 41
0.0
 42
0.0
 43
0.0
 44
0.0
 45
0.0
 46
0.0
 47
0.0
 48
0.0
 49
0.0
140
0.0
141
0.0
142
1.0
143
1.0
 70
   688
 72
     0
 73
     0
 74
     5
  7

 75
    16
147
1.0
148
0.0
149
0.0
100
AcDbLayout
  1
Layout1
 70
     1
 71
     1
 10
0.0
 20
0.0
 11
420.0
 21
297.0
 12
0.0
 22
0.0
 32
0.0
 14
1.0000000000E+20
 24
1.0000000000E+20
 34
1.0000000000E+20
 15
-1.0000000000E+20
 25
-1.0000000000E+20
 35
-1.0000000000E+20
146
0.0
 13
0.0
 23
0.0
 33
0.0
 16
1.0
 26
0.0
 36
0.0
 17
0.0
 27
1.0
 37
0.0
 76
     0
330
1B
  0
LAYOUT
  5
26
102
{ACAD_REACTORS
330
1A
102
}
330
1A
100
AcDbPlotSettings
  1

  2
none_device
  4

  6

 40
0.0
 41
0.0
 42
0.0
 43
0.0
 44
0.0
 45
0.0
 46
0.0
 47
0.0
 48
0.0
 49
0.0
140
0.0
141
0.0
142
1.0
143
1.0
 70
   688
 72
     0
 73
     0
 74
     5
  7

 75
    16
147
1.0
148
0.0
149
0.0
100
AcDbLayout
  1
Layout2
 70
     1
 71
     2
 10
0.0
 20
0.0
 11
0.0
 21
0.0
 12
0.0
 22
0.0
 32
0.0
 14
0.0
 24
0.0
 34
0.0
 15
0.0
 25
0.0
 35
0.0
146
0.0
 13
0.0
 23
0.0
 33
0.0
 16
1.0
 26
0.0
 36
0.0
 17
0.0
 27
1.0
 37
0.0
 76
     0
330
23
  0
LAYOUT
  5
22
102
{ACAD_REACTORS
330
1A
102
}
330
1A
100
AcDbPlotSettings
  1

  2
none_device
  4

  6

 40
0.0
 41
0.0
 42
0.0
 43
0.0
 44
0.0
 45
0.0
 46
0.0
 47
0.0
 48
0.0
 49
0.0
140
0.0
141
0.0
142
1.0
143
1.0
 70
  1712
 72
     0
 73
     0
 74
     0
  7

 75
     0
147
1.0
148
0.0
149
0.0
100
AcDbLayout
  1
Model
 70
     1
 71
     0
 10
0.0
 20
0.0
 11
841.0
 21
594.0
 12
0.0
 22
0.0
 32
0.0
 14
0.0
 24
0.0
 34
0.0
 15
841.0
 25
594.0
 35
0.0
146
0.0
 13
0.0
 23
0.0
 33
0.0
 16
1.0
 26
0.0
 36
0.0
 17
0.0
 27
1.0
 37
0.0
 76
     0
330
1F
331
29
  0
MLINESTYLE
  5
18
102
{ACAD_REACTORS
330
17
102
}
330
17
100
AcDbMlineStyle
  2
Standard
 70
     0
  3

 62
   256
 51
90.0
 52
90.0
 71
     2
 49
0.5
 62
   256
  6
BYLAYER
 49
-0.5
 62
   256
  6
BYLAYER
  0
ACDBPLACEHOLDER
  5
F
102
{ACAD_REACTORS
330
E
102
}
330
E
  0
ENDSEC
  0
EOF
