  0
SECTION
  2
HEADER
  9
$ACADVER
  1
AC1015
  9
$ACADMAINTVER
 70
     6
  9
$DWGCODEPAGE
  3
ANSI_1252
  9
$INSBASE
 10
0.0
 20
0.0
 30
0.0
  9
$EXTMIN
 10
0.0
 20
0.0
 30
0.0
  9
$EXTMAX
 10
841.0
 20
594.0
 30
0.0
  9
$LIMMIN
 10
0.0
 20
0.0
  9
$LIMMAX
 10
841.0
 20
594.0
  9
$ORTHOMODE
 70
     0
  9
$REGENMODE
 70
     1
  9
$FILLMODE
 70
     1
  9
$QTEXTMODE
 70
     0
  9
$MIRRTEXT
 70
     1
  9
$LTSCALE
 40
1.0
  9
$ATTMODE
 70
     1
  9
$TEXTSIZE
 40
2.5
  9
$TRACEWID
 40
1.0
  9
$TEXTSTYLE
  7
Standard
  9
$CLAYER
  8
0
  9
$CELTYPE
  6
ByLayer
  9
$CECOLOR
 62
   256
  9
$CELTSCALE
 40
1.0
  9
$DISPSILH
 70
     0
  9
$DIMSCALE
 40
1.0
  9
$DIMASZ
 40
2.5
  9
$DIMEXO
 40
1.0
  9
$DIMDLI
 40
3.75
  9
$DIMRND
 40
0.0
  9
$DIMDLE
 40
0.0
  9
$DIMEXE
 40
1.0
  9
$DIMTP
 40
0.0
  9
$DIMTM
 40
0.0
  9
$DIMTXT
 40
2.5
  9
$DIMCEN
 40
2.5
  9
$DIMTSZ
 40
0.0
  9
$DIMTOL
 70
     0
  9
$DIMLIM
 70
     0
  9
$DIMTIH
 70
     1
  9
$DIMTOH
 70
     1
  9
$DIMSE1
 70
     0
  9
$DIMSE2
 70
     0
  9
$DIMTAD
 70
     1
  9
$DIMZIN
 70
     0
  9
$DIMBLK
  1

  9
$DIMASO
 70
     1
  9
$DIMSHO
 70
     1
  9
$DIMPOST
  1

  9
$DIMAPOST
  1

  9
$DIMALT
 70
     0
  9
$DIMALTD
 70
     3
  9
$DIMALTF
 40
0.0393700787
  9
$DIMLFAC
 40
1.0
  9
$DIMTOFL
 70
     1
  9
$DIMTVP
 40
0.0
  9
$DIMTIX
 70
     0
  9
$DIMSOXD
 70
     0
  9
$DIMSAH
 70
     0
  9
$DIMBLK1
  1

  9
$DIMBLK2
  1

  9
$DIMSTYLE
  2
ISO-25
  9
$DIMCLRD
 70
     0
  9
$DIMCLRE
 70
     0
  9
$DIMCLRT
 70
     0
  9
$DIMTFAC
 40
1.0
  9
$DIMGAP
 40
1.524
  9
$DIMJUST
 70
     0
  9
$DIMSD1
 70
     0
  9
$DIMSD2
 70
     0
  9
$DIMTOLJ
 70
     0
  9
$DIMTZIN
 70
     0
  9
$DIMALTZ
 70
     0
  9
$DIMALTTZ
 70
     0
  9
$DIMUPT
 70
     0
  9
$DIMDEC
 70
     2
  9
$DIMTDEC
 70
     2
  9
$DIMALTU
 70
     2
  9
$DIMALTTD
 70
     3
  9
$DIMTXSTY
  7
Standard
  9
$DIMAUNIT
 70
     0
  9
$DIMADEC
 70
     2
  9
$DIMALTRND
 40
0.0
  9
$DIMAZIN
 70
     0
  9
$DIMDSEP
 70
    44
  9
$DIMATFIT
 70
     3
  9
$DIMFRAC
 70
     0
  9
$DIMLDRBLK
  1

  9
$DIMLUNIT
 70
     2
  9
$DIMLWD
 70
    -2
  9
$DIMLWE
 70
    -2
  9
$DIMTMOVE
 70
     0
  9
$LUNITS
 70
     2
  9
$LUPREC
 70
     2
  9
$SKETCHINC
 40
1.0
  9
$FILLETRAD
 40
10.0
  9
$AUNITS
 70
     0
  9
$AUPREC
 70
     2
  9
$MENU
  1
.
  9
$ELEVATION
 40
0.0
  9
$PELEVATION
 40
0.0
  9
$THICKNESS
 40
0.0
  9
$LIMCHECK
 70
     0
  9
$CHAMFERA
 40
10.0
  9
$CHAMFERB
 40
10.0
  9
$CHAMFERC
 40
20.0
  9
$CHAMFERD
 40
0.0
  9
$SKPOLY
 70
     0
  9
$TDCREATE
 40
2458052.433855555
  9
$TDUCREATE
 40
2458052.350522222
  9
$TDUPDATE
 40
2458052.433856644
  9
$TDUUPDATE
 40
2458052.35052331
  9
$TDINDWG
 40
0.0000000116
  9
$TDUSRTIMER
 40
0.0000000116
  9
$USRTIMER
 70
     1
  9
$ANGBASE
 50
0.0
  9
$ANGDIR
 70
     0
  9
$PDMODE
 70
     0
  9
$PDSIZE
 40
-1.0
  9
$PLINEWID
 40
0.0
  9
$SPLFRAME
 70
     0
  9
$SPLINETYPE
 70
     6
  9
$SPLINESEGS
 70
     8
  9
$HANDSEED
  5
371
  9
$SURFTAB1
 70
     6
  9
$SURFTAB2
 70
     6
  9
$SURFTYPE
 70
     6
  9
$SURFU
 70
     6
  9
$SURFV
 70
     6
  9
$UCSBASE
  2

  9
$UCSNAME
  2

  9
$UCSORG
 10
0.0
 20
0.0
 30
0.0
  9
$UCSXDIR
 10
1.0
 20
0.0
 30
0.0
  9
$UCSYDIR
 10
0.0
 20
1.0
 30
0.0
  9
$UCSORTHOREF
  2

  9
$UCSORTHOVIEW
 70
     0
  9
$UCSORGTOP
 10
0.0
 20
0.0
 30
0.0
  9
$UCSORGBOTTOM
 10
0.0
 20
0.0
 30
0.0
  9
$UCSORGLEFT
 10
0.0
 20
0.0
 30
0.0
  9
$UCSORGRIGHT
 10
0.0
 20
0.0
 30
0.0
  9
$UCSORGFRONT
 10
0.0
 20
0.0
 30
0.0
  9
$UCSORGBACK
 10
0.0
 20
0.0
 30
0.0
  9
$PUCSBASE
  2

  9
$PUCSNAME
  2

  9
$PUCSORG
 10
0.0
 20
0.0
 30
0.0
  9
$PUCSXDIR
 10
1.0
 20
0.0
 30
0.0
  9
$PUCSYDIR
 10
0.0
 20
1.0
 30
0.0
  9
$PUCSORTHOREF
  2

  9
$PUCSORTHOVIEW
 70
     0
  9
$PUCSORGTOP
 10
0.0
 20
0.0
 30
0.0
  9
$PUCSORGBOTTOM
 10
0.0
 20
0.0
 30
0.0
  9
$PUCSORGLEFT
 10
0.0
 20
0.0
 30
0.0
  9
$PUCSORGRIGHT
 10
0.0
 20
0.0
 30
0.0
  9
$PUCSORGFRONT
 10
0.0
 20
0.0
 30
0.0
  9
$PUCSORGBACK
 10
0.0
 20
0.0
 30
0.0
  9
$USERI1
 70
     0
  9
$USERI2
 70
     0
  9
$USERI3
 70
     0
  9
$USERI4
 70
     0
  9
$USERI5
 70
     0
  9
$USERR1
 40
0.0
  9
$USERR2
 40
0.0
  9
$USERR3
 40
0.0
  9
$USERR4
 40
0.0
  9
$USERR5
 40
0.0
  9
$WORLDVIEW
 70
     1
  9
$SHADEDGE
 70
     3
  9
$SHADEDIF
 70
    70
  9
$TILEMODE
 70
     1
  9
$MAXACTVP
 70
    64
  9
$PINSBASE
 10
0.0
 20
0.0
 30
0.0
  9
$PLIMCHECK
 70
     0
  9
$PEXTMIN
 10
1.0000000000E+20
 20
1.0000000000E+20
 30
1.0000000000E+20
  9
$PEXTMAX
 10
-1.0000000000E+20
 20
-1.0000000000E+20
 30
-1.0000000000E+20
  9
$PLIMMIN
 10
0.0
 20
0.0
  9
$PLIMMAX
 10
420.0
 20
297.0
  9
$UNITMODE
 70
     0
  9
$VISRETAIN
 70
     1
  9
$PLINEGEN
 70
     0
  9
$PSLTSCALE
 70
     1
  9
$TREEDEPTH
 70
  3020
  9
$CMLSTYLE
  2
Standard
  9
$CMLJUST
 70
     0
  9
$CMLSCALE
 40
20.0
  9
$PROXYGRAPHICS
 70
     1
  9
$MEASUREMENT
 70
     1
  9
$CELWEIGHT
370
    -1
  9
$ENDCAPS
280
     0
  9
$JOINSTYLE
280
     0
  9
$LWDISPLAY
290
     1
  9
$INSUNITS
 70
     4
  9
$HYPERLINKBASE
  1

  9
$STYLESHEET
  1

  9
$XEDIT
290
     1
  9
$CEPSNTYPE
380
     0
  9
$PSTYLEMODE
290
     1
  9
$FINGERPRINTGUID
  2
{638F82BB-F9A6-46A4-AC54-A2FA446234CD}
  9
$VERSIONGUID
  2
{FAEB1C32-E019-11D5-929B-00C0DF256EC4}
  9
$EXTNAMES
290
     1
  9
$PSVPSCALE
 40
0.0
  9
$OLESTARTUP
290
     0
  0
ENDSEC
  0
SECTION
  2
CLASSES
  0
CLASS
  1
ACDBDICTIONARYWDFLT
  2
AcDbDictionaryWithDefault
  3
ObjectDBX Classes
 90
        0
280
     0
281
     0
  0
CLASS
  1
VISUALSTYLE
  2
AcDbVisualStyle
  3
ObjectDBX Classes
 90
     4095
280
     0
281
     0
  0
CLASS
  1
MATERIAL
  2
AcDbMaterial
  3
ObjectDBX Classes
 90
     1153
280
     0
281
     0
  0
CLASS
  1
ACDBPLACEHOLDER
  2
AcDbPlaceHolder
  3
ObjectDBX Classes
 90
        0
280
     0
281
     0
  0
CLASS
  1
LAYOUT
  2
AcDbLayout
  3
ObjectDBX Classes
 90
        0
280
     0
281
     0
  0
ENDSEC
  0
SECTION
  2
TABLES
  0
TABLE
  2
VPORT
  5
8
330
0
100
AcDbSymbolTable
 70
     1
  0
VPORT
  5
29
330
8
100
AcDbSymbolTableRecord
100
AcDbViewportTableRecord
  2
*Active
 70
     0
 10
0.0
 20
0.0
 11
1.0
 21
1.0
 12
420.5
 22
297.0
 13
0.0
 23
0.0
 14
10.0
 24
10.0
 15
10.0
 25
10.0
 16
0.0
 26
0.0
 36
1.0
 17
0.0
 27
0.0
 37
0.0
 40
594.0
 41
1.4158249158
 42
50.0
 43
0.0
 44
0.0
 50
0.0
 51
0.0
 71
     0
 72
  2000
 73
     1
 74
     3
 75
     0
 76
     0
 77
     0
 78
     0
281
     0
 65
     1
110
0.0
120
0.0
130
0.0
111
1.0
121
0.0
131
0.0
112
0.0
122
1.0
132
0.0
 79
     0
146
0.0
  0
ENDTAB
  0
TABLE
  2
LTYPE
  5
5
330
0
100
AcDbSymbolTable
 70
     6
  0
LTYPE
  5
14
330
5
100
AcDbSymbolTableRecord
100
AcDbLinetypeTableRecord
  2
ByBlock
 70
     0
  3

 72
    65
 73
     0
 40
0.0
  0
LTYPE
  5
15
330
5
100
AcDbSymbolTableRecord
100
AcDbLinetypeTableRecord
  2
ByLayer
 70
     0
  3

 72
    65
 73
     0
 40
0.0
  0
LTYPE
  5
16
330
5
100
AcDbSymbolTableRecord
100
AcDbLinetypeTableRecord
  2
Continuous
 70
     0
  3
Solid line
 72
    65
 73
     0
 40
0.0
  0
LTYPE
  5
3F
330
5
100
AcDbSymbolTableRecord
100
AcDbLinetypeTableRecord
  2
HIDDEN
 70
     0
  3
Hidden __ __ __ __ __ __ __ __ __ __ __ __ __ __
 72
    65
 73
     2
 40
1.905
 49
1.27
 74
     0
 49
-0.635
 74
     0
  0
LTYPE
  5
40
330
5
100
AcDbSymbolTableRecord
100
AcDbLinetypeTableRecord
  2
PHANTOM
 70
     0
  3
Phantom ______  __  __  ______  __  __  ______
 72
    65
 73
     6
 40
12.7
 49
6.35
 74
     0
 49
-1.27
 74
     0
 49
1.27
 74
     0
 49
-1.27
 74
     0
 49
1.27
 74
     0
 49
-1.27
 74
     0
  0
LTYPE
  5
41
330
5
100
AcDbSymbolTableRecord
100
AcDbLinetypeTableRecord
  2
CENTER
 70
     0
  3
Center ____ _ ____ _ ____ _ ____ _ ____ _ ____
 72
    65
 73
     4
 40
10.16
 49
6.35
 74
     0
 49
-1.27
 74
     0
 49
1.27
 74
     0
 49
-1.27
 74
     0
  0
LTYPE
  5
42
330
5
100
AcDbSymbolTableRecord
100
AcDbLinetypeTableRecord
  2
CENTERX2
 70
     0
  3
Center (2x) ________  __  ________  __  _____
 72
    65
 73
     4
 40
20.32
 49
12.7
 74
     0
 49
-2.54
 74
     0
 49
2.54
 74
     0
 49
-2.54
 74
     0
  0
LTYPE
  5
43
330
5
100
AcDbSymbolTableRecord
100
AcDbLinetypeTableRecord
  2
DOT2
 70
     0
  3
Dot (.5x) ........................................
 72
    65
 73
     2
 40
0.635
 49
0.0
 74
     0
 49
-0.635
 74
     0
  0
ENDTAB
  0
TABLE
  2
LAYER
  5
2
330
0
100
AcDbSymbolTable
 70
     3
  0
LAYER
  5
10
330
2
100
AcDbSymbolTableRecord
100
AcDbLayerTableRecord
  2
0
 70
     0
 62
     7
  6
Continuous
370
    -3
390
F
  0
LAYER
  5
44
330
2
100
AcDbSymbolTableRecord
100
AcDbLayerTableRecord
  2
FORMAT
 70
     0
 62
     7
  6
Continuous
370
    -3
390
F
  0
LAYER
  5
45
330
2
100
AcDbSymbolTableRecord
100
AcDbLayerTableRecord
  2
PROTOTYPE
 70
     0
 62
     7
  6
Continuous
370
    -3
390
F
  0
ENDTAB
  0
TABLE
  2
STYLE
  5
3
330
0
100
AcDbSymbolTable
 70
     1
  0
STYLE
  5
11
330
3
100
AcDbSymbolTableRecord
100
AcDbTextStyleTableRecord
  2
Standard
 70
     0
 40
0.0
 41
1.0
 50
0.0
 71
     0
 42
2.5
  3
txt
  4

  0
ENDTAB
  0
TABLE
  2
VIEW
  5
6
330
0
100
AcDbSymbolTable
 70
     0
  0
ENDTAB
  0
TABLE
  2
UCS
  5
7
330
0
100
AcDbSymbolTable
 70
     0
  0
ENDTAB
  0
TABLE
  2
APPID
  5
9
330
0
100
AcDbSymbolTable
 70
     1
  0
APPID
  5
12
330
9
100
AcDbSymbolTableRecord
100
AcDbRegAppTableRecord
  2
ACAD
 70
     0
  0
ENDTAB
  0
TABLE
  2
DIMSTYLE
  5
A
330
0
100
AcDbSymbolTable
 70
     1
100
AcDbDimStyleTable
  0
DIMSTYLE
105
27
330
A
100
AcDbSymbolTableRecord
100
AcDbDimStyleTableRecord
  2
ISO-25
 70
     0
 41
2.5
 42
0.625
 43
3.75
 44
1.25
 73
     0
 74
     0
 77
     1
 78
     8
140
2.5
141
2.5
143
0.0393700787
147
0.625
171
     3
172
     1
178
     0
271
     2
272
     2
274
     3
278
    44
283
     0
284
     8
340
11
  0
ENDTAB
  0
TABLE
  2
BLOCK_RECORD
  5
1
330
0
100
AcDbSymbolTable
 70
     2
  0
BLOCK_RECORD
  5
1F
330
1
100
AcDbSymbolTableRecord
100
AcDbBlockTableRecord
  2
*Model_Space
340
22
  0
BLOCK_RECORD
  5
1B
330
1
100
AcDbSymbolTableRecord
100
AcDbBlockTableRecord
  2
*Paper_Space
340
1E
  0
BLOCK_RECORD
  5
23
330
1
100
AcDbSymbolTableRecord
100
AcDbBlockTableRecord
  2
*Paper_Space0
340
26
  0
BLOCK_RECORD
  5
21F
330
1
100
AcDbSymbolTableRecord
100
AcDbBlockTableRecord
  2
SW_CENTERMARKSYMBOL_0
340
0
102
{BLKREFS
331
22A
102
}
  0
ENDTAB
  0
ENDSEC
  0
SECTION
  2
BLOCKS
  0
BLOCK
  5
20
330
1F
100
AcDbEntity
  8
0
100
AcDbBlockBegin
  2
*Model_Space
 70
     0
 10
0.0
 20
0.0
 30
0.0
  3
*Model_Space
  1

  0
ENDBLK
  5
21
330
1F
100
AcDbEntity
  8
0
100
AcDbBlockEnd
  0
BLOCK
  5
1C
330
1B
100
AcDbEntity
 67
     1
  8
0
100
AcDbBlockBegin
  2
*Paper_Space
 70
     0
 10
0.0
 20
0.0
 30
0.0
  3
*Paper_Space
  1

  0
ENDBLK
  5
1D
330
1B
100
AcDbEntity
 67
     1
  8
0
100
AcDbBlockEnd
  0
BLOCK
  5
24
330
23
100
AcDbEntity
  8
0
100
AcDbBlockBegin
  2
*Paper_Space0
 70
     0
 10
0.0
 20
0.0
 30
0.0
  3
*Paper_Space0
  1

  0
ENDBLK
  5
25
330
23
100
AcDbEntity
  8
0
100
AcDbBlockEnd
  0
BLOCK
  5
220
330
21F
100
AcDbEntity
  8
0
100
AcDbBlockBegin
  2
SW_CENTERMARKSYMBOL_0
 70
     0
 10
0.0
 20
0.0
 30
0.0
  3
SW_CENTERMARKSYMBOL_0
  1

  0
LINE
  5
222
330
21F
100
AcDbEntity
  8
FORMAT
 62
     0
100
AcDbLine
 10
0.0
 20
0.0
 30
0.0
 11
0.0
 21
2.5
 31
0.0
  0
LINE
  5
223
330
21F
100
AcDbEntity
  8
FORMAT
 62
     0
100
AcDbLine
 10
0.0
 20
0.0
 30
0.0
 11
-2.5
 21
0.0
 31
0.0
  0
LINE
  5
224
330
21F
100
AcDbEntity
  8
FORMAT
 62
     0
100
AcDbLine
 10
0.0
 20
0.0
 30
0.0
 11
0.0
 21
-2.5
 31
0.0
  0
LINE
  5
225
330
21F
100
AcDbEntity
  8
FORMAT
 62
     0
100
AcDbLine
 10
0.0
 20
0.0
 30
0.0
 11
2.5
 21
0.0
 31
0.0
  0
LINE
  5
226
330
21F
100
AcDbEntity
  8
FORMAT
 62
     0
100
AcDbLine
 10
0.0
 20
5.0
 30
0.0
 11
0.0
 21
85.0
 31
0.0
  0
LINE
  5
227
330
21F
100
AcDbEntity
  8
FORMAT
 62
     0
100
AcDbLine
 10
-5.0
 20
0.0
 30
0.0
 11
-85.0
 21
0.0
 31
0.0
  0
LINE
  5
228
330
21F
100
AcDbEntity
  8
FORMAT
 62
     0
100
AcDbLine
 10
0.0
 20
-5.0
 30
0.0
 11
0.0
 21
-85.0
 31
0.0
  0
LINE
  5
229
330
21F
100
AcDbEntity
  8
FORMAT
 62
     0
100
AcDbLine
 10
5.0
 20
0.0
 30
0.0
 11
85.0
 21
0.0
 31
0.0
  0
ENDBLK
  5
221
330
21F
100
AcDbEntity
  8
0
100
AcDbBlockEnd
  0
ENDSEC
  0
SECTION
  2
ENTITIES
  0
LINE
  5
46
330
1F
100
AcDbEntity
  8
0
  6
Continuous
 62
     7
370
    15
100
AcDbLine
 10
572.5138975938
 20
405.1083794967
 30
0.0
 11
590.5138984488
 21
405.1083794967
 31
0.0
  0
LINE
  5
47
330
1F
100
AcDbEntity
  8
0
  6
Continuous
 62
     7
370
    15
100
AcDbLine
 10
590.5138984488
 20
570.1083823279
 30
0.0
 11
572.5138975938
 21
570.1083823279
 31
0.0
  0
LINE
  5
48
330
1F
100
AcDbEntity
  8
0
  6
Continuous
 62
     7
370
    15
100
AcDbLine
 10
677.233532693
 20
570.1083823279
 30
0.0
 11
658.2335314413
 21
570.1083823279
 31
0.0
  0
LINE
  5
49
330
1F
100
AcDbEntity
  8
0
  6
Continuous
 62
     7
370
    15
100
AcDbLine
 10
658.2335314413
 20
405.1083794967
 30
0.0
 11
677.233532693
 21
405.1083794967
 31
0.0
  0
LINE
  5
4A
330
1F
100
AcDbEntity
  8
0
  6
Continuous
 62
     7
370
    15
100
AcDbLine
 10
477.2335297128
 20
405.1083794967
 30
0.0
 11
496.2335309644
 21
405.1083794967
 31
0.0
  0
LINE
  5
4B
330
1F
100
AcDbEntity
  8
0
  6
Continuous
 62
     7
370
    15
100
AcDbLine
 10
496.2335309644
 20
570.1083823279
 30
0.0
 11
477.2335297128
 21
570.1083823279
 31
0.0
  0
LINE
  5
4C
330
1F
100
AcDbEntity
  8
0
  6
Continuous
 62
     7
370
    15
100
AcDbLine
 10
677.233532693
 20
514.5525544122
 30
0.0
 11
679.2335292955
 21
514.5525544122
 31
0.0
  0
LINE
  5
4D
330
1F
100
AcDbEntity
  8
0
  6
Continuous
 62
     7
370
    15
100
AcDbLine
 10
679.2335292955
 20
549.0525572732
 30
0.0
 11
677.233532693
 21
549.0525572732
 31
0.0
  0
LINE
  5
4E
330
1F
100
AcDbEntity
  8
0
  6
Continuous
 62
     7
370
    15
100
AcDbLine
 10
496.2335309644
 20
514.5525544122
 30
0.0
 11
498.233527567
 21
514.5525544122
 31
0.0
  0
LINE
  5
4F
330
1F
100
AcDbEntity
  8
0
  6
Continuous
 62
     7
370
    15
100
AcDbLine
 10
498.233527567
 20
549.0525572732
 30
0.0
 11
496.2335309644
 21
549.0525572732
 31
0.0
  0
LINE
  5
50
330
1F
100
AcDbEntity
  8
0
  6
Continuous
 62
     7
370
    15
100
AcDbLine
 10
590.5138984488
 20
514.5525544122
 30
0.0
 11
592.5138985438
 21
514.5525544122
 31
0.0
  0
LINE
  5
51
330
1F
100
AcDbEntity
  8
0
  6
Continuous
 62
     7
370
    15
100
AcDbLine
 10
592.5138985438
 20
549.0525572732
 30
0.0
 11
590.5138984488
 21
549.0525572732
 31
0.0
  0
LINE
  5
52
330
1F
100
AcDbEntity
  8
0
  6
Continuous
 62
     7
370
    15
100
AcDbLine
 10
477.2335297128
 20
549.0525572732
 30
0.0
 11
475.2335256596
 21
549.0525572732
 31
0.0
  0
LINE
  5
53
330
1F
100
AcDbEntity
  8
0
  6
Continuous
 62
     7
370
    15
100
AcDbLine
 10
475.2335256596
 20
514.5525544122
 30
0.0
 11
477.2335297128
 21
514.5525544122
 31
0.0
  0
LINE
  5
54
330
1F
100
AcDbEntity
  8
0
  6
Continuous
 62
     7
370
    15
100
AcDbLine
 10
658.2335314413
 20
549.0525572732
 30
0.0
 11
656.2335273882
 21
549.0525572732
 31
0.0
  0
LINE
  5
55
330
1F
100
AcDbEntity
  8
0
  6
Continuous
 62
     7
370
    15
100
AcDbLine
 10
656.2335273882
 20
514.5525544122
 30
0.0
 11
658.2335314413
 21
514.5525544122
 31
0.0
  0
LINE
  5
56
330
1F
100
AcDbEntity
  8
0
  6
Continuous
 62
     7
370
    15
100
AcDbLine
 10
496.2335309644
 20
426.1642082766
 30
0.0
 11
498.233527567
 21
426.1642082766
 31
0.0
  0
LINE
  5
57
330
1F
100
AcDbEntity
  8
0
  6
Continuous
 62
     7
370
    15
100
AcDbLine
 10
498.233527567
 20
460.664206481
 30
0.0
 11
496.2335309644
 21
460.664206481
 31
0.0
  0
LINE
  5
58
330
1F
100
AcDbEntity
  8
0
  6
Continuous
 62
     7
370
    15
100
AcDbLine
 10
477.2335297128
 20
460.664206481
 30
0.0
 11
475.2335256596
 21
460.664206481
 31
0.0
  0
LINE
  5
59
330
1F
100
AcDbEntity
  8
0
  6
Continuous
 62
     7
370
    15
100
AcDbLine
 10
475.2335256596
 20
426.1642082766
 30
0.0
 11
477.2335297128
 21
426.1642082766
 31
0.0
  0
LINE
  5
5A
330
1F
100
AcDbEntity
  8
0
  6
Continuous
 62
     7
370
    15
100
AcDbLine
 10
677.233532693
 20
426.1642082766
 30
0.0
 11
679.2335292955
 21
426.1642082766
 31
0.0
  0
LINE
  5
5B
330
1F
100
AcDbEntity
  8
0
  6
Continuous
 62
     7
370
    15
100
AcDbLine
 10
679.2335292955
 20
460.664206481
 30
0.0
 11
677.233532693
 21
460.664206481
 31
0.0
  0
LINE
  5
5C
330
1F
100
AcDbEntity
  8
0
  6
Continuous
 62
     7
370
    15
100
AcDbLine
 10
590.5138984488
 20
426.1642082766
 30
0.0
 11
592.5138985438
 21
426.1642082766
 31
0.0
  0
LINE
  5
5D
330
1F
100
AcDbEntity
  8
0
  6
Continuous
 62
     7
370
    15
100
AcDbLine
 10
592.5138985438
 20
460.664206481
 30
0.0
 11
590.5138984488
 21
460.664206481
 31
0.0
  0
LINE
  5
5E
330
1F
100
AcDbEntity
  8
0
  6
Continuous
 62
     7
370
    15
100
AcDbLine
 10
658.2335314413
 20
460.664206481
 30
0.0
 11
656.2335273882
 21
460.664206481
 31
0.0
  0
LINE
  5
5F
330
1F
100
AcDbEntity
  8
0
  6
Continuous
 62
     7
370
    15
100
AcDbLine
 10
656.2335273882
 20
426.1642082766
 30
0.0
 11
658.2335314413
 21
426.1642082766
 31
0.0
  0
LINE
  5
60
330
1F
100
AcDbEntity
  8
0
  6
Continuous
 62
     7
370
    15
100
AcDbLine
 10
512.2335261365
 20
455.4142060861
 30
0.0
 11
512.1626562138
 21
455.5369590581
 31
0.0
  0
LINE
  5
61
330
1F
100
AcDbEntity
  8
0
  6
Continuous
 62
     7
370
    15
100
AcDbLine
 10
606.5138994416
 20
455.4142060861
 30
0.0
 11
606.4430276563
 21
455.5369590581
 31
0.0
  0
LINE
  5
62
330
1F
100
AcDbEntity
  8
0
  6
Continuous
 62
     7
370
    15
100
AcDbLine
 10
693.233527865
 20
455.4142060861
 30
0.0
 11
693.1626579424
 21
455.5369590581
 31
0.0
  0
LINE
  5
63
330
1F
100
AcDbEntity
  8
0
  6
Continuous
 62
     7
370
    15
100
AcDbLine
 10
461.4606356879
 20
455.8075776495
 30
0.0
 11
461.2335270901
 21
455.4142060861
 31
0.0
  0
LINE
  5
64
330
1F
100
AcDbEntity
  8
0
  6
Continuous
 62
     7
370
    15
100
AcDbLine
 10
642.4606411417
 20
455.8075776495
 30
0.0
 11
642.2335288187
 21
455.4142060861
 31
0.0
  0
LINE
  5
65
330
1F
100
AcDbEntity
  8
0
  6
Continuous
 62
     7
370
    15
100
AcDbLine
 10
461.2335270901
 20
519.8025538758
 30
0.0
 11
461.4992743989
 21
519.3422607318
 31
0.0
  0
LINE
  5
66
330
1F
100
AcDbEntity
  8
0
  6
Continuous
 62
     7
370
    15
100
AcDbLine
 10
642.2335288187
 20
519.8025538758
 30
0.0
 11
642.4992798527
 21
519.3422607318
 31
0.0
  0
LINE
  5
67
330
1F
100
AcDbEntity
  8
0
  6
Continuous
 62
     7
370
    15
100
AcDbLine
 10
572.5138975938
 20
539.802557154
 30
0.0
 11
512.2335261365
 21
539.802557154
 31
0.0
  0
LINE
  5
68
330
1F
100
AcDbEntity
  8
0
  6
Continuous
 62
     7
370
    15
100
AcDbLine
 10
512.2335261365
 20
523.8025545314
 30
0.0
 11
572.5138975938
 21
523.8025545314
 31
0.0
  0
LINE
  5
69
330
1F
100
AcDbEntity
  8
0
  6
Continuous
 62
     7
370
    15
100
AcDbLine
 10
461.2335270901
 20
539.802557154
 30
0.0
 11
412.2335320969
 21
539.802557154
 31
0.0
  0
LINE
  5
6A
330
1F
100
AcDbEntity
  8
0
  6
Continuous
 62
     7
370
    15
100
AcDbLine
 10
412.2335320969
 20
523.8025545314
 30
0.0
 11
461.2335270901
 21
523.8025545314
 31
0.0
  0
LINE
  5
6B
330
1F
100
AcDbEntity
  8
0
  6
Continuous
 62
     7
370
    15
100
AcDbLine
 10
642.2335288187
 20
539.802557154
 30
0.0
 11
606.5138994416
 21
539.802557154
 31
0.0
  0
LINE
  5
6C
330
1F
100
AcDbEntity
  8
0
  6
Continuous
 62
     7
370
    15
100
AcDbLine
 10
606.5138994416
 20
523.8025545314
 30
0.0
 11
642.2335288187
 21
523.8025545314
 31
0.0
  0
LINE
  5
6D
330
1F
100
AcDbEntity
  8
0
  6
Continuous
 62
     7
370
    15
100
AcDbLine
 10
742.2335303088
 20
539.802557154
 30
0.0
 11
693.233527865
 21
539.802557154
 31
0.0
  0
LINE
  5
6E
330
1F
100
AcDbEntity
  8
0
  6
Continuous
 62
     7
370
    15
100
AcDbLine
 10
693.233527865
 20
523.8025545314
 30
0.0
 11
742.2335303088
 21
523.8025545314
 31
0.0
  0
LINE
  5
6F
330
1F
100
AcDbEntity
  8
0
  6
Continuous
 62
     7
370
    15
100
AcDbLine
 10
461.2335270901
 20
451.4142063618
 30
0.0
 11
412.2335320969
 21
451.4142063618
 31
0.0
  0
LINE
  5
70
330
1F
100
AcDbEntity
  8
0
  6
Continuous
 62
     7
370
    15
100
AcDbLine
 10
412.2335320969
 20
435.4142065332
 30
0.0
 11
461.2335270901
 21
435.4142065332
 31
0.0
  0
LINE
  5
71
330
1F
100
AcDbEntity
  8
0
  6
Continuous
 62
     7
370
    15
100
AcDbLine
 10
572.5138975938
 20
451.4142063618
 30
0.0
 11
512.2335261365
 21
451.4142063618
 31
0.0
  0
LINE
  5
72
330
1F
100
AcDbEntity
  8
0
  6
Continuous
 62
     7
370
    15
100
AcDbLine
 10
512.2335261365
 20
435.4142065332
 30
0.0
 11
572.5138975938
 21
435.4142065332
 31
0.0
  0
LINE
  5
73
330
1F
100
AcDbEntity
  8
0
  6
Continuous
 62
     7
370
    15
100
AcDbLine
 10
642.2335288187
 20
451.4142063618
 30
0.0
 11
606.5138994416
 21
451.4142063618
 31
0.0
  0
LINE
  5
74
330
1F
100
AcDbEntity
  8
0
  6
Continuous
 62
     7
370
    15
100
AcDbLine
 10
606.5138994416
 20
435.4142065332
 30
0.0
 11
642.2335288187
 21
435.4142065332
 31
0.0
  0
LINE
  5
75
330
1F
100
AcDbEntity
  8
0
  6
Continuous
 62
     7
370
    15
100
AcDbLine
 10
742.2335303088
 20
451.4142063618
 30
0.0
 11
693.233527865
 21
451.4142063618
 31
0.0
  0
LINE
  5
76
330
1F
100
AcDbEntity
  8
0
  6
Continuous
 62
     7
370
    15
100
AcDbLine
 10
693.233527865
 20
435.4142065332
 30
0.0
 11
742.2335303088
 21
435.4142065332
 31
0.0
  0
LINE
  5
77
330
1F
100
AcDbEntity
  8
0
  6
Continuous
 62
     7
370
    15
100
AcDbLine
 10
511.6953632494
 20
518.8704266384
 30
0.0
 11
512.2335261365
 21
519.8025538758
 31
0.0
  0
LINE
  5
78
330
1F
100
AcDbEntity
  8
0
  6
Continuous
 62
     7
370
    15
100
AcDbLine
 10
692.6953649779
 20
518.8704266384
 30
0.0
 11
693.233527865
 21
519.8025538758
 31
0.0
  0
LINE
  5
79
330
1F
100
AcDbEntity
  8
0
  6
Continuous
 62
     7
370
    15
100
AcDbLine
 10
605.9757346918
 20
518.8704266384
 30
0.0
 11
606.5138994416
 21
519.8025538758
 31
0.0
  0
LINE
  5
7A
330
1F
100
AcDbEntity
  8
0
  6
Continuous
 62
     7
370
    15
100
AcDbLine
 10
606.5138994416
 20
543.8025578097
 30
0.0
 11
605.9757346918
 21
544.7346775964
 31
0.0
  0
LINE
  5
7B
330
1F
100
AcDbEntity
  8
0
  6
Continuous
 62
     7
370
    15
100
AcDbLine
 10
512.2335261365
 20
543.8025578097
 30
0.0
 11
511.6953632494
 21
544.7346775964
 31
0.0
  0
LINE
  5
7C
330
1F
100
AcDbEntity
  8
0
  6
Continuous
 62
     7
370
    15
100
AcDbLine
 10
693.233527865
 20
543.8025578097
 30
0.0
 11
692.6953649779
 21
544.7346775964
 31
0.0
  0
LINE
  5
7D
330
1F
100
AcDbEntity
  8
0
  6
Continuous
 62
     7
370
    15
100
AcDbLine
 10
461.4992743989
 20
544.2628472284
 30
0.0
 11
461.2335270901
 21
543.8025578097
 31
0.0
  0
LINE
  5
7E
330
1F
100
AcDbEntity
  8
0
  6
Continuous
 62
     7
370
    15
100
AcDbLine
 10
642.4992798527
 20
544.2628472284
 30
0.0
 11
642.2335288187
 21
543.8025578097
 31
0.0
  0
LINE
  5
7F
330
1F
100
AcDbEntity
  8
0
  6
Continuous
 62
     7
370
    15
100
AcDbLine
 10
461.2335270901
 20
431.4142077402
 30
0.0
 11
461.4589965602
 21
431.0236743823
 31
0.0
  0
LINE
  5
80
330
1F
100
AcDbEntity
  8
0
  6
Continuous
 62
     7
370
    15
100
AcDbLine
 10
642.2335288187
 20
431.4142077402
 30
0.0
 11
642.459002014
 21
431.0236743823
 31
0.0
  0
LINE
  5
81
330
1F
100
AcDbEntity
  8
0
  6
Continuous
 62
     7
370
    15
100
AcDbLine
 10
567.2335295637
 20
451.4142063618
 30
0.0
 11
567.2335295637
 21
523.8025545314
 31
0.0
  0
LINE
  5
82
330
1F
100
AcDbEntity
  8
0
  6
Continuous
 62
     7
370
    15
100
AcDbLine
 10
512.1632150074
 20
431.2924168244
 30
0.0
 11
512.2335261365
 21
431.4142077402
 31
0.0
  0
LINE
  5
83
330
1F
100
AcDbEntity
  8
0
  6
Continuous
 62
     7
370
    15
100
AcDbLine
 10
606.4435845872
 20
431.2924168244
 30
0.0
 11
606.5138994416
 21
431.4142077402
 31
0.0
  0
LINE
  5
84
330
1F
100
AcDbEntity
  8
0
  6
Continuous
 62
     7
370
    15
100
AcDbLine
 10
693.1632167359
 20
431.2924168244
 30
0.0
 11
693.233527865
 21
431.4142077402
 31
0.0
  0
LINE
  5
85
330
1F
100
AcDbEntity
  8
0
  6
Continuous
 62
     7
370
    15
100
AcDbLine
 10
656.2335273882
 20
517.6083802417
 30
0.0
 11
592.5138985438
 21
517.6083802417
 31
0.0
  0
LINE
  5
86
330
1F
100
AcDbEntity
  8
0
  6
Continuous
 62
     7
370
    15
100
AcDbLine
 10
592.5138985438
 20
457.6083801858
 30
0.0
 11
656.2335273882
 21
457.6083801858
 31
0.0
  0
LINE
  5
87
330
1F
100
AcDbEntity
  8
0
  6
Continuous
 62
     7
370
    15
100
AcDbLine
 10
692.6953649779
 20
430.4820805028
 30
0.0
 11
693.1617191692
 21
431.2898240224
 31
0.0
  0
LINE
  5
88
330
1F
100
AcDbEntity
  8
0
  6
Continuous
 62
     7
370
    15
100
AcDbLine
 10
605.9757346918
 20
430.4820805028
 30
0.0
 11
606.4420851578
 21
431.2898240224
 31
0.0
  0
LINE
  5
89
330
1F
100
AcDbEntity
  8
0
  6
Continuous
 62
     7
370
    15
100
AcDbLine
 10
511.6953632494
 20
430.4820805028
 30
0.0
 11
512.1617174407
 21
431.2898240224
 31
0.0
  0
LINE
  5
8A
330
1F
100
AcDbEntity
  8
0
  6
Continuous
 62
     7
370
    15
100
AcDbLine
 10
606.4430276563
 20
455.5369590581
 30
0.0
 11
605.9757346918
 21
456.3463323921
 31
0.0
  0
LINE
  5
8B
330
1F
100
AcDbEntity
  8
0
  6
Continuous
 62
     7
370
    15
100
AcDbLine
 10
693.1626579424
 20
455.5369590581
 30
0.0
 11
692.6953649779
 21
456.3463323921
 31
0.0
  0
LINE
  5
8C
330
1F
100
AcDbEntity
  8
0
  6
Continuous
 62
     7
370
    15
100
AcDbLine
 10
461.4992743989
 20
455.8744996958
 30
0.0
 11
461.4606356879
 21
455.8075776495
 31
0.0
  0
LINE
  5
8D
330
1F
100
AcDbEntity
  8
0
  6
Continuous
 62
     7
370
    15
100
AcDbLine
 10
642.4992798527
 20
455.8744996958
 30
0.0
 11
642.4606411417
 21
455.8075776495
 31
0.0
  0
LINE
  5
8E
330
1F
100
AcDbEntity
  8
0
  6
Continuous
 62
     7
370
    15
100
AcDbLine
 10
590.5138984488
 20
487.6083809123
 30
0.0
 11
590.5138984488
 21
570.1083823279
 31
0.0
  0
LINE
  5
8F
330
1F
100
AcDbEntity
  8
0
  6
Continuous
 62
     7
370
    15
100
AcDbLine
 10
590.5138984488
 20
405.1083794967
 30
0.0
 11
590.5138984488
 21
487.6083809123
 31
0.0
  0
LINE
  5
90
330
1F
100
AcDbEntity
  8
0
  6
Continuous
 62
     7
370
    15
100
AcDbLine
 10
572.5138975938
 20
487.6083809123
 30
0.0
 11
572.5138975938
 21
570.1083823279
 31
0.0
  0
LINE
  5
91
330
1F
100
AcDbEntity
  8
0
  6
Continuous
 62
     7
370
    15
100
AcDbLine
 10
572.5138975938
 20
405.1083794967
 30
0.0
 11
572.5138975938
 21
487.6083809123
 31
0.0
  0
LINE
  5
92
330
1F
100
AcDbEntity
  8
0
  6
Continuous
 62
     7
370
    15
100
AcDbLine
 10
677.233532693
 20
487.6083809123
 30
0.0
 11
677.233532693
 21
570.1083823279
 31
0.0
  0
LINE
  5
93
330
1F
100
AcDbEntity
  8
0
  6
Continuous
 62
     7
370
    15
100
AcDbLine
 10
677.233532693
 20
405.1083794967
 30
0.0
 11
677.233532693
 21
487.6083809123
 31
0.0
  0
LINE
  5
94
330
1F
100
AcDbEntity
  8
0
  6
Continuous
 62
     7
370
    15
100
AcDbLine
 10
658.2335314413
 20
487.6083809123
 30
0.0
 11
658.2335314413
 21
570.1083823279
 31
0.0
  0
LINE
  5
95
330
1F
100
AcDbEntity
  8
0
  6
Continuous
 62
     7
370
    15
100
AcDbLine
 10
658.2335314413
 20
405.1083794967
 30
0.0
 11
658.2335314413
 21
487.6083809123
 31
0.0
  0
LINE
  5
96
330
1F
100
AcDbEntity
  8
0
  6
Continuous
 62
     7
370
    15
100
AcDbLine
 10
477.2335297128
 20
487.6083809123
 30
0.0
 11
477.2335297128
 21
405.1083794967
 31
0.0
  0
LINE
  5
97
330
1F
100
AcDbEntity
  8
0
  6
Continuous
 62
     7
370
    15
100
AcDbLine
 10
477.2335297128
 20
570.1083823279
 30
0.0
 11
477.2335297128
 21
487.6083809123
 31
0.0
  0
LINE
  5
98
330
1F
100
AcDbEntity
  8
0
  6
Continuous
 62
     7
370
    15
100
AcDbLine
 10
496.2335309644
 20
487.6083809123
 30
0.0
 11
496.2335309644
 21
405.1083794967
 31
0.0
  0
LINE
  5
99
330
1F
100
AcDbEntity
  8
0
  6
Continuous
 62
     7
370
    15
100
AcDbLine
 10
496.2335309644
 20
570.1083823279
 30
0.0
 11
496.2335309644
 21
487.6083809123
 31
0.0
  0
LINE
  5
9A
330
1F
100
AcDbEntity
  8
0
  6
Continuous
 62
     7
370
    15
100
AcDbLine
 10
668.8049590846
 20
506.6083803013
 30
0.0
 11
668.8049590846
 21
508.5134900347
 31
0.0
  0
SPLINE
  5
9B
330
1F
100
AcDbEntity
  8
0
  6
Continuous
 62
     7
370
    15
100
AcDbSpline
210
0.0
220
0.0
230
1.0
 70
     8
 71
     3
 72
     9
 73
     5
 74
     0
 42
0.00000001
 43
0.00000001
 12
1.0
 22
0.0
 32
0.0
 13
1.0
 23
0.0
 33
0.0
 40
0.0
 40
0.0
 40
0.0
 40
0.0
 40
0.4958962958875135
 40
1.0
 40
1.0
 40
1.0
 40
1.0
 10
664.4121006840084
 20
508.2946402135033
 30
0.0
 10
665.138041868706
 20
508.0159777125937
 30
0.0
 10
666.6019390397836
 20
507.4540406640198
 30
0.0
 10
668.0666111771224
 20
506.8918052833106
 30
0.0
 10
668.8049578268653
 20
506.6083803453121
 30
0.0
  0
LINE
  5
9C
330
1F
100
AcDbEntity
  8
0
  6
Continuous
 62
     7
370
    15
100
AcDbLine
 10
664.4121042152
 20
506.6083803013
 30
0.0
 11
664.4121042152
 21
508.2946404055
 31
0.0
  0
LINE
  5
9D
330
1F
100
AcDbEntity
  8
0
  6
Continuous
 62
     7
370
    15
100
AcDbLine
 10
662.6978150268
 20
506.6083803013
 30
0.0
 11
664.4121042152
 21
506.6083803013
 31
0.0
  0
LINE
  5
9E
330
1F
100
AcDbEntity
  8
0
  6
Continuous
 62
     7
370
    15
100
AcDbLine
 10
662.6978150268
 20
511.4849976436
 30
0.0
 11
662.6978150268
 21
506.6083803013
 31
0.0
  0
SPLINE
  5
9F
330
1F
100
AcDbEntity
  8
0
  6
Continuous
 62
     7
370
    15
100
AcDbSpline
210
0.0
220
0.0
230
1.0
 70
     8
 71
     3
 72
    10
 73
     6
 74
     0
 42
0.00000001
 43
0.00000001
 12
1.0
 22
0.0
 32
0.0
 13
1.0
 23
0.0
 33
0.0
 40
0.0
 40
0.0
 40
0.0
 40
0.0
 40
0.3287181779302979
 40
0.6620513463538372
 40
1.0
 40
1.0
 40
1.0
 40
1.0
 10
668.8049578268656
 20
513.971478193324
 30
0.0
 10
668.1362062689137
 20
513.6992012325366
 30
0.0
 10
666.7893143139086
 20
513.1508247186321
 30
0.0
 10
664.7535843093107
 20
512.3219917750347
 30
0.0
 10
663.3862052801995
 20
511.7652722584146
 30
0.0
 10
662.6978149697227
 20
511.4849986014873
 30
0.0
  0
LINE
  5
A0
330
1F
100
AcDbEntity
  8
0
  6
Continuous
 62
     7
370
    15
100
AcDbLine
 10
668.8049590846
 20
512.0511449114
 30
0.0
 11
668.8049590846
 21
513.9714799062
 31
0.0
  0
LINE
  5
A1
330
1F
100
AcDbEntity
  8
0
  6
Continuous
 62
     7
370
    15
100
AcDbLine
 10
667.8621030112
 20
511.667264922
 30
0.0
 11
668.8049590846
 21
512.0511449114
 31
0.0
  0
LINE
  5
A2
330
1F
100
AcDbEntity
  8
0
  6
Continuous
 62
     7
370
    15
100
AcDbLine
 10
667.8621030112
 20
508.8754168883
 30
0.0
 11
667.8621030112
 21
511.667264922
 31
0.0
  0
LINE
  5
A3
330
1F
100
AcDbEntity
  8
0
  6
Continuous
 62
     7
370
    15
100
AcDbLine
 10
668.8049590846
 20
508.5134900347
 30
0.0
 11
667.8621030112
 21
508.8754168883
 31
0.0
  0
SPLINE
  5
A4
330
1F
100
AcDbEntity
  8
0
  6
Continuous
 62
     7
370
    15
100
AcDbSpline
210
0.0
220
0.0
230
1.0
 70
    24
 71
     3
 72
     9
 73
     5
 74
     0
 42
0.00000001
 43
0.00000001
 12
1.0
 22
0.0
 32
0.0
 13
1.0
 23
0.0
 33
0.0
 40
0.0
 40
0.0
 40
0.0
 40
0.0
 40
0.5003089744148218
 40
1.0
 40
1.0
 40
1.0
 40
1.0
 10
666.2335292554369
 20
509.3169423180341
 30
0.0
 10
665.877747760262
 20
509.4535140383629
 30
0.0
 10
665.1666242078791
 20
509.7264887945893
 30
0.0
 10
664.4557099258903
 20
509.9993832194378
 30
0.0
 10
664.1004724392202
 20
510.1357461144669
 30
0.0
  0
LINE
  5
A5
330
1F
100
AcDbEntity
  8
0
  6
Continuous
 62
     7
370
    15
100
AcDbLine
 10
666.2335327526
 20
509.3169420198
 30
0.0
 11
666.2335327526
 21
511.0042042271
 31
0.0
  0
SPLINE
  5
A6
330
1F
100
AcDbEntity
  8
0
  6
Continuous
 62
     7
370
    15
100
AcDbSpline
210
0.0
220
0.0
230
1.0
 70
    24
 71
     3
 72
     9
 73
     5
 74
     0
 42
0.00000001
 43
0.00000001
 12
1.0
 22
0.0
 32
0.0
 13
1.0
 23
0.0
 33
0.0
 40
0.0
 40
0.0
 40
0.0
 40
0.0
 40
0.5003362059467525
 40
1.0
 40
1.0
 40
1.0
 40
1.0
 10
664.1004724392203
 20
510.1357461144669
 30
0.0
 10
664.4562854169212
 20
510.2806128268165
 30
0.0
 10
665.1674331881038
 20
510.5701515622265
 30
0.0
 10
665.8783232366337
 20
510.8595853676994
 30
0.0
 10
666.2335292554369
 20
511.0042049610693
 30
0.0
  0
SPLINE
  5
A7
330
1F
100
AcDbEntity
  8
0
  6
Continuous
 62
     7
370
    15
100
AcDbSpline
210
0.0
220
0.0
230
1.0
 70
     8
 71
     3
 72
     9
 73
     5
 74
     0
 42
0.00000001
 43
0.00000001
 12
1.0
 22
0.0
 32
0.0
 13
1.0
 23
0.0
 33
0.0
 40
0.0
 40
0.0
 40
0.0
 40
0.0
 40
0.4958962958867262
 40
1.0
 40
1.0
 40
1.0
 40
1.0
 10
490.0549578268656
 20
466.9221204771207
 30
0.0
 10
489.3290166421692
 20
467.20078297803
 30
0.0
 10
487.8651194710915
 20
467.762720026604
 30
0.0
 10
486.4004473337525
 20
468.324955407313
 30
0.0
 10
485.6621006840085
 20
468.6083803453121
 30
0.0
  0
LINE
  5
A8
330
1F
100
AcDbEntity
  8
0
  6
Continuous
 62
     7
370
    15
100
AcDbLine
 10
490.0549581905
 20
468.6083801262
 30
0.0
 11
490.0549581905
 21
466.9221204877
 31
0.0
  0
LINE
  5
A9
330
1F
100
AcDbEntity
  8
0
  6
Continuous
 62
     7
370
    15
100
AcDbLine
 10
491.7692399283
 20
468.6083801262
 30
0.0
 11
490.0549581905
 21
468.6083801262
 31
0.0
  0
LINE
  5
AA
330
1F
100
AcDbEntity
  8
0
  6
Continuous
 62
     7
370
    15
100
AcDbLine
 10
491.7692399283
 20
463.7317620855
 30
0.0
 11
491.7692399283
 21
468.6083801262
 31
0.0
  0
SPLINE
  5
AB
330
1F
100
AcDbEntity
  8
0
  6
Continuous
 62
     7
370
    15
100
AcDbSpline
210
0.0
220
0.0
230
1.0
 70
     8
 71
     3
 72
    10
 73
     6
 74
     0
 42
0.00000001
 43
0.00000001
 12
1.0
 22
0.0
 32
0.0
 13
1.0
 23
0.0
 33
0.0
 40
0.0
 40
0.0
 40
0.0
 40
0.0
 40
0.3287181779307537
 40
0.662051346354291
 40
1.0
 40
1.0
 40
1.0
 40
1.0
 10
485.6621006840084
 20
461.2452824973001
 30
0.0
 10
486.3308522419612
 20
461.517559458088
 30
0.0
 10
487.6777441969672
 20
462.0659359719929
 30
0.0
 10
489.7134742015651
 20
462.8947689155902
 30
0.0
 10
491.0808532306752
 20
463.4514884322099
 30
0.0
 10
491.7692435411512
 20
463.7317620891368
 30
0.0
  0
LINE
  5
AC
330
1F
100
AcDbEntity
  8
0
  6
Continuous
 62
     7
370
    15
100
AcDbLine
 10
485.6621033212
 20
463.1656169423
 30
0.0
 11
485.6621033212
 21
461.245282384
 31
0.0
  0
LINE
  5
AD
330
1F
100
AcDbEntity
  8
0
  6
Continuous
 62
     7
370
    15
100
AcDbLine
 10
486.6049593945
 20
463.5494945015
 30
0.0
 11
485.6621033212
 21
463.1656169423
 31
0.0
  0
LINE
  5
AE
330
1F
100
AcDbEntity
  8
0
  6
Continuous
 62
     7
370
    15
100
AcDbLine
 10
486.6049593945
 20
466.3413435392
 30
0.0
 11
486.6049593945
 21
463.5494945015
 31
0.0
  0
LINE
  5
AF
330
1F
100
AcDbEntity
  8
0
  6
Continuous
 62
     7
370
    15
100
AcDbLine
 10
485.6621033212
 20
466.7032724884
 30
0.0
 11
486.6049593945
 21
466.3413435392
 31
0.0
  0
SPLINE
  5
B0
330
1F
100
AcDbEntity
  8
0
  6
Continuous
 62
     7
370
    15
100
AcDbSpline
210
0.0
220
0.0
230
1.0
 70
    24
 71
     3
 72
     9
 73
     5
 74
     0
 42
0.00000001
 43
0.00000001
 12
1.0
 22
0.0
 32
0.0
 13
1.0
 23
0.0
 33
0.0
 40
0.0
 40
0.0
 40
0.0
 40
0.0
 40
0.5003089744149033
 40
0.9999999999999999
 40
0.9999999999999999
 40
0.9999999999999999
 40
0.9999999999999999
 10
488.233529255437
 20
465.8998183725901
 30
0.0
 10
488.589310750612
 20
465.7632466522612
 30
0.0
 10
489.3004343029949
 20
465.4902718960348
 30
0.0
 10
490.0113485849836
 20
465.2173774711862
 30
0.0
 10
490.3665860716536
 20
465.0810145761573
 30
0.0
  0
LINE
  5
B1
330
1F
100
AcDbEntity
  8
0
  6
Continuous
 62
     7
370
    15
100
AcDbLine
 10
488.2335296531
 20
465.8998184078
 30
0.0
 11
488.2335296531
 21
464.2125557348
 31
0.0
  0
SPLINE
  5
B2
330
1F
100
AcDbEntity
  8
0
  6
Continuous
 62
     7
370
    15
100
AcDbSpline
210
0.0
220
0.0
230
1.0
 70
    24
 71
     3
 72
     9
 73
     5
 74
     0
 42
0.00000001
 43
0.00000001
 12
1.0
 22
0.0
 32
0.0
 13
1.0
 23
0.0
 33
0.0
 40
0.0
 40
0.0
 40
0.0
 40
0.0
 40
0.5003362059452594
 40
1.0
 40
1.0
 40
1.0
 40
1.0
 10
490.3665860716535
 20
465.0810145761573
 30
0.0
 10
490.0107730939536
 20
464.9361478638081
 30
0.0
 10
489.2996253227711
 20
464.646609128398
 30
0.0
 10
488.5887352742412
 20
464.3571753229251
 30
0.0
 10
488.233529255437
 20
464.2125557295548
 30
0.0
  0
LINE
  5
B3
330
1F
100
AcDbEntity
  8
0
  6
Continuous
 62
     7
370
    15
100
AcDbLine
 10
485.6621033212
 20
468.6083801262
 30
0.0
 11
485.6621033212
 21
466.7032724884
 31
0.0
  0
LINE
  5
B4
330
1F
100
AcDbEntity
  8
0
  6
Continuous
 62
     7
370
    15
100
AcDbLine
 10
662.0121008416
 20
519.2705749706
 30
0.0
 11
662.0121008416
 21
524.6083795265
 31
0.0
  0
SPLINE
  5
B5
330
1F
100
AcDbEntity
  8
0
  6
Continuous
 62
     7
370
    15
100
AcDbSpline
210
0.0
220
0.0
230
1.0
 70
     8
 71
     3
 72
    11
 73
     7
 74
     0
 42
0.00000001
 43
0.00000001
 12
1.0
 22
0.0
 32
0.0
 13
1.0
 23
0.0
 33
0.0
 40
0.0
 40
0.0
 40
0.0
 40
0.0
 40
0.2539724644391233
 40
0.505296337288055
 40
0.7539720381055897
 40
1.0
 40
1.0
 40
1.0
 40
1.0
 10
668.8049578268656
 20
516.5049125862662
 30
0.0
 10
668.2293379509581
 20
516.7392724966959
 30
0.0
 10
667.084101141099
 20
517.2055482585539
 30
0.0
 10
665.3764682728653
 20
517.9007999606923
 30
0.0
 10
663.6876556022455
 20
518.5883868160912
 30
0.0
 10
662.5686225711293
 20
519.0439923327233
 30
0.0
 10
662.0121006840085
 20
519.2705758515723
 30
0.0
  0
LINE
  5
B6
330
1F
100
AcDbEntity
  8
0
  6
Continuous
 62
     7
370
    15
100
AcDbLine
 10
668.8049590846
 20
514.7118478254
 30
0.0
 11
668.8049590846
 21
516.5049120024
 31
0.0
  0
SPLINE
  5
B7
330
1F
100
AcDbEntity
  8
0
  6
Continuous
 62
     7
370
    15
100
AcDbSpline
210
0.0
220
0.0
230
1.0
 70
     8
 71
     3
 72
    11
 73
     7
 74
     0
 42
0.00000001
 43
0.00000001
 12
1.0
 22
0.0
 32
0.0
 13
1.0
 23
0.0
 33
0.0
 40
0.0
 40
0.0
 40
0.0
 40
0.0
 40
0.2542762999917549
 40
0.5057015519368917
 40
0.7542760255660566
 40
1.0
 40
1.0
 40
1.0
 40
1.0
 10
662.0121006840083
 20
511.9461848390519
 30
0.0
 10
662.5882898396479
 20
512.1807765348786
 30
0.0
 10
663.7342076865946
 20
512.6473295901768
 30
0.0
 10
665.4424378306248
 20
513.342824559431
 30
0.0
 10
667.1306499232795
 20
514.0301668015303
 30
0.0
 10
668.2490049530228
 20
514.4854962615815
 30
0.0
 10
668.8049578268656
 20
514.711848104358
 30
0.0
  0
LINE
  5
B8
330
1F
100
AcDbEntity
  8
0
  6
Continuous
 62
     7
370
    15
100
AcDbLine
 10
662.0121008416
 20
506.6083803013
 30
0.0
 11
662.0121008416
 21
511.9461848572
 31
0.0
  0
LINE
  5
B9
330
1F
100
AcDbEntity
  8
0
  6
Continuous
 62
     7
370
    15
100
AcDbLine
 10
660.2335280438
 20
513.165524526
 30
0.0
 11
660.2335280438
 21
506.6083803013
 31
0.0
  0
SPLINE
  5
BA
330
1F
100
AcDbEntity
  8
0
  6
Continuous
 62
     7
370
    15
100
AcDbSpline
210
0.0
220
0.0
230
1.0
 70
     8
 71
     3
 72
    10
 73
     6
 74
     0
 42
0.00000001
 43
0.00000001
 12
1.0
 22
0.0
 32
0.0
 13
1.0
 23
0.0
 33
0.0
 40
0.0
 40
0.0
 40
0.0
 40
0.0
 40
0.3289486691596323
 40
0.6622818146171882
 40
0.9999999999999999
 40
0.9999999999999999
 40
0.9999999999999999
 40
0.9999999999999999
 10
666.2335292554371
 20
515.6083803453121
 30
0.0
 10
665.5760804357041
 20
515.3407051820604
 30
0.0
 10
664.2524198218366
 20
514.8017870788221
 30
0.0
 10
662.2524038184594
 20
513.987494835554
 30
0.0
 10
660.9094127382092
 20
513.4407047616735
 30
0.0
 10
660.233529255437
 20
513.165523202455
 30
0.0
  0
SPLINE
  5
BB
330
1F
100
AcDbEntity
  8
0
  6
Continuous
 62
     7
370
    15
100
AcDbSpline
210
0.0
220
0.0
230
1.0
 70
     8
 71
     3
 72
    10
 73
     6
 74
     0
 42
0.00000001
 43
0.00000001
 12
1.0
 22
0.0
 32
0.0
 13
1.0
 23
0.0
 33
0.0
 40
0.0
 40
0.0
 40
0.0
 40
0.0
 40
0.3291179424233719
 40
0.6624510379315337
 40
0.9999999999999999
 40
0.9999999999999999
 40
0.9999999999999999
 40
0.9999999999999999
 10
660.233529255437
 20
518.0512374881692
 30
0.0
 10
660.8912547215187
 20
517.7834496869712
 30
0.0
 10
662.2151294227023
 20
517.244444412622
 30
0.0
 10
664.2151473177361
 20
516.430151398355
 30
0.0
 10
665.5579225804574
 20
515.8834492004036
 30
0.0
 10
666.233529255437
 20
515.6083803453121
 30
0.0
  0
LINE
  5
BC
330
1F
100
AcDbEntity
  8
0
  6
Continuous
 62
     7
370
    15
100
AcDbLine
 10
660.2335280438
 20
524.6083795265
 30
0.0
 11
660.2335280438
 21
518.0512390271
 31
0.0
  0
LINE
  5
BD
330
1F
100
AcDbEntity
  8
0
  6
Continuous
 62
     7
370
    15
100
AcDbLine
 10
660.2335280438
 20
524.6083795265
 30
0.0
 11
662.0121008416
 21
524.6083795265
 31
0.0
  0
LINE
  5
BE
330
1F
100
AcDbEntity
  8
0
  6
Continuous
 62
     7
370
    15
100
AcDbLine
 10
660.2335280438
 20
506.6083803013
 30
0.0
 11
662.0121008416
 21
506.6083803013
 31
0.0
  0
LINE
  5
BF
330
1F
100
AcDbEntity
  8
0
  6
Continuous
 62
     7
370
    15
100
AcDbLine
 10
492.4549541136
 20
455.9461849913
 30
0.0
 11
492.4549541136
 21
450.6083804354
 31
0.0
  0
SPLINE
  5
C0
330
1F
100
AcDbEntity
  8
0
  6
Continuous
 62
     7
370
    15
100
AcDbSpline
210
0.0
220
0.0
230
1.0
 70
     8
 71
     3
 72
    11
 73
     7
 74
     0
 42
0.00000001
 43
0.00000001
 12
1.0
 22
0.0
 32
0.0
 13
1.0
 23
0.0
 33
0.0
 40
0.0
 40
0.0
 40
0.0
 40
0.0
 40
0.2539724644390624
 40
0.5052963372879755
 40
0.7539720381055297
 40
1.0
 40
1.0
 40
1.0
 40
1.0
 10
485.6621006840083
 20
458.711848104358
 30
0.0
 10
486.2377205599157
 20
458.4774881939283
 30
0.0
 10
487.3829573697744
 20
458.0112124320703
 30
0.0
 10
489.0905902380082
 20
457.315960729932
 30
0.0
 10
490.7794029086281
 20
456.6283738745329
 30
0.0
 10
491.8984359397444
 20
456.1727683579009
 30
0.0
 10
492.4549578268654
 20
455.9461848390517
 30
0.0
  0
LINE
  5
C1
330
1F
100
AcDbEntity
  8
0
  6
Continuous
 62
     7
370
    15
100
AcDbLine
 10
485.6621033212
 20
460.5049126022
 30
0.0
 11
485.6621033212
 21
458.7118479595
 31
0.0
  0
SPLINE
  5
C2
330
1F
100
AcDbEntity
  8
0
  6
Continuous
 62
     7
370
    15
100
AcDbSpline
210
0.0
220
0.0
230
1.0
 70
     8
 71
     3
 72
    11
 73
     7
 74
     0
 42
0.00000001
 43
0.00000001
 12
1.0
 22
0.0
 32
0.0
 13
1.0
 23
0.0
 33
0.0
 40
0.0
 40
0.0
 40
0.0
 40
0.0
 40
0.2542762999917931
 40
0.5057015519369413
 40
0.7542760255660913
 40
0.9999999999999999
 40
0.9999999999999999
 40
0.9999999999999999
 40
0.9999999999999999
 10
492.4549578268656
 20
463.2705758515723
 30
0.0
 10
491.878768671226
 20
463.0359841557455
 30
0.0
 10
490.7328508242791
 20
462.5694311004472
 30
0.0
 10
489.0246206802487
 20
461.873936131193
 30
0.0
 10
487.3364085875941
 20
461.1865938890938
 30
0.0
 10
486.218053557851
 20
460.7312644290426
 30
0.0
 10
485.6621006840084
 20
460.5049125862661
 30
0.0
  0
LINE
  5
C3
330
1F
100
AcDbEntity
  8
0
  6
Continuous
 62
     7
370
    15
100
AcDbLine
 10
492.4549541136
 20
468.6083801262
 30
0.0
 11
492.4549541136
 21
463.2705758468
 31
0.0
  0
LINE
  5
C4
330
1F
100
AcDbEntity
  8
0
  6
Continuous
 62
     7
370
    15
100
AcDbLine
 10
494.2335269113
 20
468.6083801262
 30
0.0
 11
492.4549541136
 21
468.6083801262
 31
0.0
  0
LINE
  5
C5
330
1F
100
AcDbEntity
  8
0
  6
Continuous
 62
     7
370
    15
100
AcDbLine
 10
494.2335269113
 20
462.0512375314
 30
0.0
 11
494.2335269113
 21
468.6083801262
 31
0.0
  0
SPLINE
  5
C6
330
1F
100
AcDbEntity
  8
0
  6
Continuous
 62
     7
370
    15
100
AcDbSpline
210
0.0
220
0.0
230
1.0
 70
     8
 71
     3
 72
    10
 73
     6
 74
     0
 42
0.00000001
 43
0.00000001
 12
1.0
 22
0.0
 32
0.0
 13
1.0
 23
0.0
 33
0.0
 40
0.0
 40
0.0
 40
0.0
 40
0.0
 40
0.3289486691597058
 40
0.6622818146172624
 40
0.9999999999999999
 40
0.9999999999999999
 40
0.9999999999999999
 40
0.9999999999999999
 10
488.2335292554368
 20
459.608380345312
 30
0.0
 10
488.89097807517
 20
459.8760555085637
 30
0.0
 10
490.2146386890377
 20
460.4149736118019
 30
0.0
 10
492.2146546924147
 20
461.2292658550702
 30
0.0
 10
493.5576457726647
 20
461.7760559289507
 30
0.0
 10
494.2335292554369
 20
462.0512374881691
 30
0.0
  0
SPLINE
  5
C7
330
1F
100
AcDbEntity
  8
0
  6
Continuous
 62
     7
370
    15
100
AcDbSpline
210
0.0
220
0.0
230
1.0
 70
     8
 71
     3
 72
    10
 73
     6
 74
     0
 42
0.00000001
 43
0.00000001
 12
1.0
 22
0.0
 32
0.0
 13
1.0
 23
0.0
 33
0.0
 40
0.0
 40
0.0
 40
0.0
 40
0.0
 40
0.3291179424234935
 40
0.6624510379316549
 40
1.0
 40
1.0
 40
1.0
 40
1.0
 10
494.2335292554368
 20
457.1655232024548
 30
0.0
 10
493.5758037893549
 20
457.4333110036531
 30
0.0
 10
492.2519290881713
 20
457.9723162780023
 30
0.0
 10
490.2519111931374
 20
458.7866092922693
 30
0.0
 10
488.9091359304163
 20
459.3333114902206
 30
0.0
 10
488.233529255437
 20
459.608380345312
 30
0.0
  0
LINE
  5
C8
330
1F
100
AcDbEntity
  8
0
  6
Continuous
 62
     7
370
    15
100
AcDbLine
 10
494.2335269113
 20
450.6083804354
 30
0.0
 11
494.2335269113
 21
457.1655232631
 31
0.0
  0
LINE
  5
C9
330
1F
100
AcDbEntity
  8
0
  6
Continuous
 62
     7
370
    15
100
AcDbLine
 10
494.2335269113
 20
450.6083804354
 30
0.0
 11
492.4549541136
 21
450.6083804354
 31
0.0
  0
LINE
  5
CA
330
1F
100
AcDbEntity
  8
0
  6
Continuous
 62
     7
370
    15
100
AcDbLine
 10
664.4121042152
 20
524.0940957502
 30
0.0
 11
664.4121042152
 21
524.6083795265
 31
0.0
  0
SPLINE
  5
CB
330
1F
100
AcDbEntity
  8
0
  6
Continuous
 62
     7
370
    15
100
AcDbSpline
210
0.0
220
0.0
230
1.0
 70
     8
 71
     3
 72
    19
 73
    15
 74
     0
 42
0.00000001
 43
0.00000001
 12
1.0
 22
0.0
 32
0.0
 13
1.0
 23
0.0
 33
0.0
 40
0.0
 40
0.0
 40
0.0
 40
0.0
 40
0.0629416811617891
 40
0.1259766327469443
 40
0.1888389222642737
 40
0.2516526731379735
 40
0.3768748109031941
 40
0.5016259715529131
 40
0.6259468883983348
 40
0.7500583327580456
 40
0.812483197014399
 40
0.8745012084762195
 40
0.9373601541652434
 40
1.0
 40
1.0
 40
1.0
 40
1.0
 10
666.0889003886352
 20
522.1331128338503
 30
0.0
 10
666.0765944607448
 20
522.1863311528842
 30
0.0
 10
666.0519643693672
 20
522.2928466527661
 30
0.0
 10
666.0024882119284
 20
522.4495824426061
 30
0.0
 10
665.9441326877139
 20
522.6034679131722
 30
0.0
 10
665.8536980649352
 20
522.8035005800759
 30
0.0
 10
665.7179271127629
 20
523.043508518415
 30
0.0
 10
665.5200368504387
 20
523.31143546977
 30
0.0
 10
665.2890354777331
 20
523.5552501994473
 30
0.0
 10
665.0700509278773
 20
523.7351282705483
 30
0.0
 10
664.8806812452416
 20
523.8625807232197
 30
0.0
 10
664.7310572511785
 20
523.9496288624152
 30
0.0
 10
664.5753437750842
 20
524.0281287892819
 30
0.0
 10
664.4664516785843
 20
524.072131624303
 30
0.0
 10
664.4121006840085
 20
524.0940946310265
 30
0.0
  0
SPLINE
  5
CC
330
1F
100
AcDbEntity
  8
0
  6
Continuous
 62
     7
370
    15
100
AcDbSpline
210
0.0
220
0.0
230
1.0
 70
     8
 71
     3
 72
    10
 73
     6
 74
     0
 42
0.00000001
 43
0.00000001
 12
1.0
 22
0.0
 32
0.0
 13
1.0
 23
0.0
 33
0.0
 40
0.0
 40
0.0
 40
0.0
 40
0.0
 40
0.3303425198001783
 40
0.6636753382379657
 40
1.0
 40
1.0
 40
1.0
 40
1.0
 10
668.8049578268657
 20
524.1798089167405
 30
0.0
 10
668.5065332092844
 20
523.9549301118543
 30
0.0
 10
667.9069826000213
 20
523.5031368731708
 30
0.0
 10
667.0016136912872
 20
522.8208924539234
 30
0.0
 10
666.3940429751641
 20
522.363054538021
 30
0.0
 10
666.0889003886352
 20
522.1331128338503
 30
0.0
  0
LINE
  5
CD
330
1F
100
AcDbEntity
  8
0
  6
Continuous
 62
     7
370
    15
100
AcDbLine
 10
668.8049590846
 20
521.9527951613
 30
0.0
 11
668.8049590846
 21
524.1798072294
 31
0.0
  0
SPLINE
  5
CE
330
1F
100
AcDbEntity
  8
0
  6
Continuous
 62
     7
370
    15
100
AcDbSpline
210
0.0
220
0.0
230
1.0
 70
     8
 71
     3
 72
     9
 73
     5
 74
     0
 42
0.00000001
 43
0.00000001
 12
1.0
 22
0.0
 32
0.0
 13
1.0
 23
0.0
 33
0.0
 40
0.0
 40
0.0
 40
0.0
 40
0.0
 40
0.5030456887059661
 40
1.0
 40
1.0
 40
1.0
 40
1.0
 10
666.4036597455104
 20
520.1432883157391
 30
0.0
 10
666.8069625205275
 20
520.4471990473145
 30
0.0
 10
667.60868447953
 20
521.0513404571276
 30
0.0
 10
668.4078226618448
 20
521.6535336880897
 30
0.0
 10
668.8049578268657
 20
521.9527962104485
 30
0.0
  0
SPLINE
  5
CF
330
1F
100
AcDbEntity
  8
0
  6
Continuous
 62
     7
370
    15
100
AcDbSpline
210
0.0
220
0.0
230
1.0
 70
     8
 71
     3
 72
     9
 73
     5
 74
     0
 42
0.00000001
 43
0.00000001
 12
1.0
 22
0.0
 32
0.0
 13
1.0
 23
0.0
 33
0.0
 40
0.0
 40
0.0
 40
0.0
 40
0.0
 40
0.5018374211781257
 40
0.9999999999999999
 40
0.9999999999999999
 40
0.9999999999999999
 40
0.9999999999999999
 10
668.8049578268656
 20
519.1656169540446
 30
0.0
 10
668.4031375556306
 20
519.3292152949241
 30
0.0
 10
667.6024394524645
 20
519.6552139828965
 30
0.0
 10
666.802272819083
 20
519.9809959372333
 30
0.0
 10
666.4036597455104
 20
520.1432883157391
 30
0.0
  0
SPLINE
  5
D0
330
1F
100
AcDbEntity
  8
0
  6
Continuous
 62
     7
370
    15
100
AcDbSpline
210
0.0
220
0.0
230
1.0
 70
     8
 71
     3
 72
    11
 73
     7
 74
     0
 42
0.00000001
 43
0.00000001
 12
1.0
 22
0.0
 32
0.0
 13
1.0
 23
0.0
 33
0.0
 40
0.0
 40
0.0
 40
0.0
 40
0.0
 40
0.2464534789113373
 40
0.495271060525977
 40
0.7464531144630142
 40
0.9999999999999999
 40
0.9999999999999999
 40
0.9999999999999999
 40
0.9999999999999999
 10
662.6978149697228
 20
519.731762089137
 30
0.0
 10
663.1990605355521
 20
519.527683822825
 30
0.0
 10
664.2063598606372
 20
519.1175696713304
 30
0.0
 10
665.725585119263
 20
518.4990287319067
 30
0.0
 10
667.2599440026574
 20
517.8743246856268
 30
0.0
 10
668.2883470761088
 20
517.455617157144
 30
0.0
 10
668.8049578268655
 20
517.2452824973002
 30
0.0
  0
LINE
  5
D1
330
1F
100
AcDbEntity
  8
0
  6
Continuous
 62
     7
370
    15
100
AcDbLine
 10
662.6978150268
 20
521.652097179
 30
0.0
 11
662.6978150268
 21
519.7317621842
 31
0.0
  0
SPLINE
  5
D2
330
1F
100
AcDbEntity
  8
0
  6
Continuous
 62
     7
370
    15
100
AcDbSpline
210
0.0
220
0.0
230
1.0
 70
     8
 71
     3
 72
     9
 73
     5
 74
     0
 42
0.00000001
 43
0.00000001
 12
1.0
 22
0.0
 32
0.0
 13
1.0
 23
0.0
 33
0.0
 40
0.0
 40
0.0
 40
0.0
 40
0.0
 40
0.5016837083834368
 40
1.0
 40
1.0
 40
1.0
 40
1.0
 10
664.9249569117544
 20
520.7453316123399
 30
0.0
 10
664.5523925946551
 20
520.8970185713698
 30
0.0
 10
663.8097646980868
 20
521.1993743315733
 30
0.0
 10
663.0676318556518
 20
521.5015283005591
 30
0.0
 10
662.6978149697228
 20
521.6520965458814
 30
0.0
  0
SPLINE
  5
D3
330
1F
100
AcDbEntity
  8
0
  6
Continuous
 62
     7
370
    15
100
AcDbSpline
210
0.0
220
0.0
230
1.0
 70
     8
 71
     3
 72
    26
 73
    22
 74
     0
 42
0.00000001
 43
0.00000001
 12
1.0
 22
0.0
 32
0.0
 13
1.0
 23
0.0
 33
0.0
 40
0.0
 40
0.0
 40
0.0
 40
0.0
 40
0.0180133443430221
 40
0.0359833574844258
 40
0.0718172060179174
 40
0.125391525458904
 40
0.1877748199923218
 40
0.2501409486980118
 40
0.312531229290121
 40
0.3749378189281941
 40
0.4373245907314494
 40
0.4996479275842428
 40
0.5618973677075254
 40
0.6241543300920063
 40
0.6864936495997208
 40
0.7489522671669875
 40
0.811539822927963
 40
0.8742492814451721
 40
0.9370674706779197
 40
0.9685526570771199
 40
1.0
 40
1.0
 40
1.0
 40
1.0
 10
662.6978149697228
 20
522.8940946310264
 30
0.0
 10
662.7193348625442
 20
522.8939051350796
 30
0.0
 10
662.762322881963
 20
522.8935265990195
 30
0.0
 10
662.8480219574137
 20
522.8895053122708
 30
0.0
 10
662.975753089879
 20
522.878048341591
 30
0.0
 10
663.1544253911237
 20
522.8486000730329
 30
0.0
 10
663.3594668320832
 20
522.7950004966801
 30
0.0
 10
663.5668862911
 20
522.7185922147817
 30
0.0
 10
663.7646323913157
 20
522.6234126501181
 30
0.0
 10
663.9508998334809
 20
522.5107575411638
 30
0.0
 10
664.1239316419691
 20
522.3819593722627
 30
0.0
 10
664.2817928610024
 20
522.2381506250177
 30
0.0
 10
664.4232800047287
 20
522.0810214575301
 30
0.0
 10
664.5483615975721
 20
521.9126521857029
 30
0.0
 10
664.6564508557825
 20
521.7343884798034
 30
0.0
 10
664.7471905999731
 20
521.5476995919267
 30
0.0
 10
664.8201375185594
 20
521.3540079930291
 30
0.0
 10
664.8749628513239
 20
521.1547674470226
 30
0.0
 10
664.9049304832423
 20
520.9852958012485
 30
0.0
 10
664.91985239916
 20
520.8484768906145
 30
0.0
 10
664.9232560898081
 20
520.7796995857184
 30
0.0
 10
664.9249569117544
 20
520.7453316123399
 30
0.0
  0
LINE
  5
D4
330
1F
100
AcDbEntity
  8
0
  6
Continuous
 62
     7
370
    15
100
AcDbLine
 10
662.6978150268
 20
524.6083795265
 30
0.0
 11
662.6978150268
 21
522.8940940634
 31
0.0
  0
LINE
  5
D5
330
1F
100
AcDbEntity
  8
0
  6
Continuous
 62
     7
370
    15
100
AcDbLine
 10
662.6978150268
 20
524.6083795265
 30
0.0
 11
664.4121042152
 21
524.6083795265
 31
0.0
  0
LINE
  5
D6
330
1F
100
AcDbEntity
  8
0
  6
Continuous
 62
     7
370
    15
100
AcDbLine
 10
668.8049590846
 20
517.2452836469
 30
0.0
 11
668.8049590846
 21
519.1656186417
 31
0.0
  0
LINE
  5
D7
330
1F
100
AcDbEntity
  8
0
  6
Continuous
 62
     7
370
    15
100
AcDbLine
 10
490.0549581905
 20
451.1226660744
 30
0.0
 11
490.0549581905
 21
450.6083804354
 31
0.0
  0
SPLINE
  5
D8
330
1F
100
AcDbEntity
  8
0
  6
Continuous
 62
     7
370
    15
100
AcDbSpline
210
0.0
220
0.0
230
1.0
 70
     8
 71
     3
 72
    19
 73
    15
 74
     0
 42
0.00000001
 43
0.00000001
 12
1.0
 22
0.0
 32
0.0
 13
1.0
 23
0.0
 33
0.0
 40
0.0
 40
0.0
 40
0.0
 40
0.0
 40
0.0629416811719118
 40
0.1259766327469769
 40
0.1888389222387207
 40
0.2516526731378891
 40
0.3768748109031244
 40
0.5016259715528444
 40
0.6259468883982822
 40
0.7500583327580066
 40
0.8124831970132675
 40
0.874501208476199
 40
0.9373601541641072
 40
1.0
 40
1.0
 40
1.0
 40
1.0
 10
488.3781581222386
 20
453.0836478567737
 30
0.0
 10
488.3904640501306
 20
453.0304295377311
 30
0.0
 10
488.4150941415073
 20
452.923914037849
 30
0.0
 10
488.4645702989395
 20
452.7671782480301
 30
0.0
 10
488.5229258231628
 20
452.6132927774764
 30
0.0
 10
488.6133604459211
 20
452.4132601105651
 30
0.0
 10
488.7491313981132
 20
452.1732521722098
 30
0.0
 10
488.9470216604346
 20
451.9053252208537
 30
0.0
 10
489.1780230331409
 20
451.6615104911768
 30
0.0
 10
489.3970075829957
 20
451.4816324200762
 30
0.0
 10
489.5863772656316
 20
451.3541799674051
 30
0.0
 10
489.7360012596936
 20
451.2671318282098
 30
0.0
 10
489.8917147357885
 20
451.1886319013422
 30
0.0
 10
490.0006068322885
 20
451.1446290663213
 30
0.0
 10
490.0549578268653
 20
451.1226660595976
 30
0.0
  0
SPLINE
  5
D9
330
1F
100
AcDbEntity
  8
0
  6
Continuous
 62
     7
370
    15
100
AcDbSpline
210
0.0
220
0.0
230
1.0
 70
     8
 71
     3
 72
    10
 73
     6
 74
     0
 42
0.00000001
 43
0.00000001
 12
1.0
 22
0.0
 32
0.0
 13
1.0
 23
0.0
 33
0.0
 40
0.0
 40
0.0
 40
0.0
 40
0.0
 40
0.3303425198003363
 40
0.6636753382381205
 40
1.0
 40
1.0
 40
1.0
 40
1.0
 10
485.6621006840082
 20
451.0369517738834
 30
0.0
 10
485.9605253015896
 20
451.2618305787698
 30
0.0
 10
486.5600759108529
 20
451.7136238174535
 30
0.0
 10
487.465444819587
 20
452.3958682367008
 30
0.0
 10
488.0730155357099
 20
452.8537061526033
 30
0.0
 10
488.3781581222386
 20
453.0836478567737
 30
0.0
  0
LINE
  5
DA
330
1F
100
AcDbEntity
  8
0
  6
Continuous
 62
     7
370
    15
100
AcDbLine
 10
485.6621033212
 20
453.2639648006
 30
0.0
 11
485.6621033212
 21
451.0369518012
 31
0.0
  0
SPLINE
  5
DB
330
1F
100
AcDbEntity
  8
0
  6
Continuous
 62
     7
370
    15
100
AcDbSpline
210
0.0
220
0.0
230
1.0
 70
     8
 71
     3
 72
     9
 73
     5
 74
     0
 42
0.00000001
 43
0.00000001
 12
1.0
 22
0.0
 32
0.0
 13
1.0
 23
0.0
 33
0.0
 40
0.0
 40
0.0
 40
0.0
 40
0.0
 40
0.5030456887060777
 40
0.9999999999999999
 40
0.9999999999999999
 40
0.9999999999999999
 40
0.9999999999999999
 10
488.0633987653635
 20
455.0734723748848
 30
0.0
 10
487.6600959903463
 20
454.7695616433095
 30
0.0
 10
486.8583740313438
 20
454.1654202334963
 30
0.0
 10
486.0592358490291
 20
453.5632270025342
 30
0.0
 10
485.6621006840082
 20
453.2639644801755
 30
0.0
  0
SPLINE
  5
DC
330
1F
100
AcDbEntity
  8
0
  6
Continuous
 62
     7
370
    15
100
AcDbSpline
210
0.0
220
0.0
230
1.0
 70
     8
 71
     3
 72
     9
 73
     5
 74
     0
 42
0.00000001
 43
0.00000001
 12
1.0
 22
0.0
 32
0.0
 13
1.0
 23
0.0
 33
0.0
 40
0.0
 40
0.0
 40
0.0
 40
0.0
 40
0.5018374211766844
 40
1.0
 40
1.0
 40
1.0
 40
1.0
 10
485.6621006840083
 20
456.0511437365794
 30
0.0
 10
486.0639209552422
 20
455.8875453957004
 30
0.0
 10
486.8646190584082
 20
455.561546707728
 30
0.0
 10
487.6647856917897
 20
455.2357647533912
 30
0.0
 10
488.0633987653634
 20
455.0734723748848
 30
0.0
  0
LINE
  5
DD
330
1F
100
AcDbEntity
  8
0
  6
Continuous
 62
     7
370
    15
100
AcDbLine
 10
485.6621033212
 20
457.9714781776
 30
0.0
 11
485.6621033212
 21
456.0511436485
 31
0.0
  0
SPLINE
  5
DE
330
1F
100
AcDbEntity
  8
0
  6
Continuous
 62
     7
370
    15
100
AcDbSpline
210
0.0
220
0.0
230
1.0
 70
     8
 71
     3
 72
    11
 73
     7
 74
     0
 42
0.00000001
 43
0.00000001
 12
1.0
 22
0.0
 32
0.0
 13
1.0
 23
0.0
 33
0.0
 40
0.0
 40
0.0
 40
0.0
 40
0.0
 40
0.2464534789113222
 40
0.4952710605259616
 40
0.7464531144630013
 40
1.0
 40
1.0
 40
1.0
 40
1.0
 10
491.7692435411511
 20
455.4849986014871
 30
0.0
 10
491.2679979753217
 20
455.689076867799
 30
0.0
 10
490.2606986502366
 20
456.0991910192935
 30
0.0
 10
488.7414733916111
 20
456.7177319587175
 30
0.0
 10
487.2071145082164
 20
457.3424360049972
 30
0.0
 10
486.178711434765
 20
457.76114353348
 30
0.0
 10
485.6621006840084
 20
457.9714781933239
 30
0.0
  0
LINE
  5
DF
330
1F
100
AcDbEntity
  8
0
  6
Continuous
 62
     7
370
    15
100
AcDbLine
 10
491.7692399283
 20
453.5646637142
 30
0.0
 11
491.7692399283
 21
455.484998709
 31
0.0
  0
SPLINE
  5
E0
330
1F
100
AcDbEntity
  8
0
  6
Continuous
 62
     7
370
    15
100
AcDbSpline
210
0.0
220
0.0
230
1.0
 70
     8
 71
     3
 72
     9
 73
     5
 74
     0
 42
0.00000001
 43
0.00000001
 12
1.0
 22
0.0
 32
0.0
 13
1.0
 23
0.0
 33
0.0
 40
0.0
 40
0.0
 40
0.0
 40
0.0
 40
0.5016837083825254
 40
1.0
 40
1.0
 40
1.0
 40
1.0
 10
489.5421015991195
 20
454.4714290782841
 30
0.0
 10
489.9146659162182
 20
454.3197421192544
 30
0.0
 10
490.6572938127864
 20
454.0173863590511
 30
0.0
 10
491.3994266552214
 20
453.7152323900652
 30
0.0
 10
491.7692435411511
 20
453.5646641447426
 30
0.0
  0
SPLINE
  5
E1
330
1F
100
AcDbEntity
  8
0
  6
Continuous
 62
     7
370
    15
100
AcDbSpline
210
0.0
220
0.0
230
1.0
 70
     8
 71
     3
 72
    26
 73
    22
 74
     0
 42
0.00000001
 43
0.00000001
 12
1.0
 22
0.0
 32
0.0
 13
1.0
 23
0.0
 33
0.0
 40
0.0
 40
0.0
 40
0.0
 40
0.0
 40
0.0180133443430222
 40
0.0359833574844265
 40
0.0718172060179187
 40
0.1253915254589061
 40
0.1877748199923242
 40
0.2501409486980186
 40
0.3125312292901195
 40
0.3749378189281953
 40
0.4373245907314569
 40
0.4996479275842513
 40
0.5618973677075253
 40
0.6241543300920085
 40
0.6864936495997238
 40
0.7489522671669914
 40
0.8115398229279774
 40
0.8742492814451783
 40
0.9370674706779365
 40
0.9685526570856905
 40
1.0
 40
1.0
 40
1.0
 40
1.0
 10
491.7692435411511
 20
452.3226660595976
 30
0.0
 10
491.7477236483297
 20
452.3228555555444
 30
0.0
 10
491.7047356289108
 20
452.3232340916044
 30
0.0
 10
491.6190365534601
 20
452.3272553783534
 30
0.0
 10
491.4913054209948
 20
452.338712349033
 30
0.0
 10
491.3126331197502
 20
452.3681606175911
 30
0.0
 10
491.1075916787908
 20
452.4217601939438
 30
0.0
 10
490.9001722197739
 20
452.4981684758424
 30
0.0
 10
490.7024261195581
 20
452.5933480405059
 30
0.0
 10
490.516158677393
 20
452.7060031494602
 30
0.0
 10
490.3431268689048
 20
452.8348013183612
 30
0.0
 10
490.1852656498716
 20
452.9786100656062
 30
0.0
 10
490.0437785061451
 20
453.1357392330938
 30
0.0
 10
489.9186969133017
 20
453.304108504921
 30
0.0
 10
489.8106076550914
 20
453.4823722108205
 30
0.0
 10
489.7198679109008
 20
453.6690610986973
 30
0.0
 10
489.6469209923143
 20
453.8627526975949
 30
0.0
 10
489.5920956595504
 20
454.0619932436015
 30
0.0
 10
489.5621280276288
 20
454.2314648893847
 30
0.0
 10
489.5472061117151
 20
454.368283800019
 30
0.0
 10
489.5438024210659
 20
454.4370611049151
 30
0.0
 10
489.5421015991195
 20
454.4714290782841
 30
0.0
  0
LINE
  5
E2
330
1F
100
AcDbEntity
  8
0
  6
Continuous
 62
     7
370
    15
100
AcDbLine
 10
491.7692399283
 20
450.6083804354
 30
0.0
 11
491.7692399283
 21
452.3226658985
 31
0.0
  0
LINE
  5
E3
330
1F
100
AcDbEntity
  8
0
  6
Continuous
 62
     7
370
    15
100
AcDbLine
 10
491.7692399283
 20
450.6083804354
 30
0.0
 11
490.0549581905
 21
450.6083804354
 31
0.0
  0
LINE
  5
E4
330
1F
100
AcDbEntity
  8
0
  6
Continuous
 62
     7
370
    15
100
AcDbLine
 10
679.2335292955
 20
549.0525572732
 30
0.0
 11
679.2335292955
 21
514.5525544122
 31
0.0
  0
LINE
  5
E5
330
1F
100
AcDbEntity
  8
0
  6
Continuous
 62
     7
370
    15
100
AcDbLine
 10
498.233527567
 20
549.0525572732
 30
0.0
 11
498.233527567
 21
514.5525544122
 31
0.0
  0
LINE
  5
E6
330
1F
100
AcDbEntity
  8
0
  6
Continuous
 62
     7
370
    15
100
AcDbLine
 10
592.5138985438
 20
549.0525572732
 30
0.0
 11
592.5138985438
 21
514.5525544122
 31
0.0
  0
LINE
  5
E7
330
1F
100
AcDbEntity
  8
0
  6
Continuous
 62
     7
370
    15
100
AcDbLine
 10
475.2335256596
 20
514.5525544122
 30
0.0
 11
475.2335256596
 21
549.0525572732
 31
0.0
  0
LINE
  5
E8
330
1F
100
AcDbEntity
  8
0
  6
Continuous
 62
     7
370
    15
100
AcDbLine
 10
656.2335273882
 20
514.5525544122
 30
0.0
 11
656.2335273882
 21
549.0525572732
 31
0.0
  0
LINE
  5
E9
330
1F
100
AcDbEntity
  8
0
  6
Continuous
 62
     7
370
    15
100
AcDbLine
 10
498.233527567
 20
460.664206481
 30
0.0
 11
498.233527567
 21
426.1642082766
 31
0.0
  0
LINE
  5
EA
330
1F
100
AcDbEntity
  8
0
  6
Continuous
 62
     7
370
    15
100
AcDbLine
 10
475.2335256596
 20
426.1642082766
 30
0.0
 11
475.2335256596
 21
460.664206481
 31
0.0
  0
LINE
  5
EB
330
1F
100
AcDbEntity
  8
0
  6
Continuous
 62
     7
370
    15
100
AcDbLine
 10
679.2335292955
 20
460.664206481
 30
0.0
 11
679.2335292955
 21
426.1642082766
 31
0.0
  0
LINE
  5
EC
330
1F
100
AcDbEntity
  8
0
  6
Continuous
 62
     7
370
    15
100
AcDbLine
 10
592.5138985438
 20
460.664206481
 30
0.0
 11
592.5138985438
 21
426.1642082766
 31
0.0
  0
LINE
  5
ED
330
1F
100
AcDbEntity
  8
0
  6
Continuous
 62
     7
370
    15
100
AcDbLine
 10
656.2335273882
 20
426.1642082766
 30
0.0
 11
656.2335273882
 21
460.664206481
 31
0.0
  0
SPLINE
  5
EE
330
1F
100
AcDbEntity
  8
0
  6
Continuous
 62
     7
370
    15
100
AcDbSpline
210
0.0
220
0.0
230
1.0
 70
     8
 71
     3
 72
    10
 73
     6
 74
     0
 42
0.00000001
 43
0.00000001
 12
1.0
 22
0.0
 32
0.0
 13
1.0
 23
0.0
 33
0.0
 40
0.0
 40
0.0
 40
0.0
 40
0.0
 40
0.5
 40
0.5
 40
1.0
 40
1.0
 40
1.0
 40
1.0
 10
462.3053260251613
 20
446.8618321692121
 30
0.0
 10
461.9781522640498
 20
445.7701811176681
 30
0.0
 10
461.7086097201315
 20
444.6705562269804
 30
0.0
 10
461.3356772118732
 20
442.4483176210168
 30
0.0
 10
461.2335292554371
 20
441.3255320618735
 30
0.0
 10
461.2335292554371
 20
440.1886133399559
 30
0.0
  0
LINE
  5
EF
330
1F
100
AcDbEntity
  8
0
  6
Continuous
 62
     7
370
    15
100
AcDbLine
 10
461.2335270901
 20
451.8112384886
 30
0.0
 11
461.2335270901
 21
440.1886130855
 31
0.0
  0
SPLINE
  5
F0
330
1F
100
AcDbEntity
  8
0
  6
Continuous
 62
     7
370
    15
100
AcDbSpline
210
0.0
220
0.0
230
1.0
 70
     8
 71
     3
 72
    12
 73
     8
 74
     0
 42
0.00000001
 43
0.00000001
 12
1.0
 22
0.0
 32
0.0
 13
1.0
 23
0.0
 33
0.0
 40
0.0
 40
0.0
 40
0.0
 40
0.0
 40
0.2499999999999995
 40
0.2499999999999995
 40
0.499999999999999
 40
0.499999999999999
 40
1.0
 40
1.0
 40
1.0
 40
1.0
 10
461.2335292554371
 20
451.8112381744385
 30
0.0
 10
461.2335292554371
 20
451.391198621921
 30
0.0
 10
461.2588625087303
 20
450.9692745649338
 30
0.0
 10
461.356899395807
 20
450.1346208937606
 30
0.0
 10
461.4295087647359
 20
449.7200856341427
 30
0.0
 10
461.7095554636699
 20
448.4838423442021
 30
0.0
 10
461.9789692925756
 20
447.6694681552651
 30
0.0
 10
462.3053260251615
 20
446.8618321692121
 30
0.0
  0
SPLINE
  5
F1
330
1F
100
AcDbEntity
  8
0
  6
Continuous
 62
     7
370
    15
100
AcDbSpline
210
0.0
220
0.0
230
1.0
 70
     8
 71
     3
 72
    12
 73
     8
 74
     0
 42
0.00000001
 43
0.00000001
 12
1.0
 22
0.0
 32
0.0
 13
1.0
 23
0.0
 33
0.0
 40
0.0
 40
0.0
 40
0.0
 40
0.0
 40
0.2500000000000002
 40
0.2500000000000002
 40
0.5000000000000004
 40
0.5000000000000004
 40
1.0
 40
1.0
 40
1.0
 40
1.0
 10
461.2335292554371
 20
440.1886133399559
 30
0.0
 10
461.2335292554371
 20
439.6222795520362
 30
0.0
 10
461.2588625087303
 20
439.0534049115986
 30
0.0
 10
461.356899395807
 20
437.9280523766683
 30
0.0
 10
461.4295087647359
 20
437.369139954258
 30
0.0
 10
461.7095554636699
 20
435.7023294337105
 30
0.0
 10
461.9789692925756
 20
434.6043194571728
 30
0.0
 10
462.3053260251615
 20
433.5153945106997
 30
0.0
  0
LINE
  5
F2
330
1F
100
AcDbEntity
  8
0
  6
Continuous
 62
     7
370
    15
100
AcDbLine
 10
462.3053229113
 20
446.8618317679
 30
0.0
 11
475.2335256596
 21
446.8618317679
 31
0.0
  0
LINE
  5
F3
330
1F
100
AcDbEntity
  8
0
  6
Continuous
 62
     7
370
    15
100
AcDbLine
 10
462.3053229113
 20
433.5153944031
 30
0.0
 11
475.2335256596
 21
433.5153944031
 31
0.0
  0
SPLINE
  5
F4
330
1F
100
AcDbEntity
  8
0
  6
Continuous
 62
     7
370
    15
100
AcDbSpline
210
0.0
220
0.0
230
1.0
 70
     8
 71
     3
 72
    10
 73
     6
 74
     0
 42
0.00000001
 43
0.00000001
 12
1.0
 22
0.0
 32
0.0
 13
1.0
 23
0.0
 33
0.0
 40
0.0
 40
0.0
 40
0.0
 40
0.0
 40
0.5
 40
0.5
 40
1.0
 40
1.0
 40
1.0
 40
1.0
 10
643.3053260251613
 20
446.8618321692121
 30
0.0
 10
642.9781522640498
 20
445.7701811176681
 30
0.0
 10
642.7086097201316
 20
444.6705562269804
 30
0.0
 10
642.3356772118731
 20
442.4483176210168
 30
0.0
 10
642.2335292554371
 20
441.3255320618735
 30
0.0
 10
642.2335292554371
 20
440.1886133399559
 30
0.0
  0
LINE
  5
F5
330
1F
100
AcDbEntity
  8
0
  6
Continuous
 62
     7
370
    15
100
AcDbLine
 10
642.2335288187
 20
451.8112384886
 30
0.0
 11
642.2335288187
 21
440.1886130855
 31
0.0
  0
SPLINE
  5
F6
330
1F
100
AcDbEntity
  8
0
  6
Continuous
 62
     7
370
    15
100
AcDbSpline
210
0.0
220
0.0
230
1.0
 70
     8
 71
     3
 72
    12
 73
     8
 74
     0
 42
0.00000001
 43
0.00000001
 12
1.0
 22
0.0
 32
0.0
 13
1.0
 23
0.0
 33
0.0
 40
0.0
 40
0.0
 40
0.0
 40
0.0
 40
0.2500000000000005
 40
0.2500000000000005
 40
0.500000000000001
 40
0.500000000000001
 40
1.0
 40
1.0
 40
1.0
 40
1.0
 10
642.2335292554371
 20
451.8112381744385
 30
0.0
 10
642.2335292554371
 20
451.391198621921
 30
0.0
 10
642.2588625087302
 20
450.9692745649338
 30
0.0
 10
642.356899395807
 20
450.1346208937606
 30
0.0
 10
642.4295087647358
 20
449.7200856341427
 30
0.0
 10
642.7095554636699
 20
448.4838423442021
 30
0.0
 10
642.9789692925756
 20
447.6694681552652
 30
0.0
 10
643.3053260251614
 20
446.8618321692121
 30
0.0
  0
SPLINE
  5
F7
330
1F
100
AcDbEntity
  8
0
  6
Continuous
 62
     7
370
    15
100
AcDbSpline
210
0.0
220
0.0
230
1.0
 70
     8
 71
     3
 72
    12
 73
     8
 74
     0
 42
0.00000001
 43
0.00000001
 12
1.0
 22
0.0
 32
0.0
 13
1.0
 23
0.0
 33
0.0
 40
0.0
 40
0.0
 40
0.0
 40
0.0
 40
0.2500000000000002
 40
0.2500000000000002
 40
0.5000000000000004
 40
0.5000000000000004
 40
1.0
 40
1.0
 40
1.0
 40
1.0
 10
642.2335292554371
 20
440.1886133399559
 30
0.0
 10
642.2335292554371
 20
439.6222795520362
 30
0.0
 10
642.2588625087302
 20
439.0534049115986
 30
0.0
 10
642.356899395807
 20
437.9280523766683
 30
0.0
 10
642.4295087647358
 20
437.369139954258
 30
0.0
 10
642.7095554636699
 20
435.7023294337105
 30
0.0
 10
642.9789692925756
 20
434.6043194571728
 30
0.0
 10
643.3053260251614
 20
433.5153945106997
 30
0.0
  0
LINE
  5
F8
330
1F
100
AcDbEntity
  8
0
  6
Continuous
 62
     7
370
    15
100
AcDbLine
 10
643.3053246399
 20
446.8618317679
 30
0.0
 11
656.2335273882
 21
446.8618317679
 31
0.0
  0
LINE
  5
F9
330
1F
100
AcDbEntity
  8
0
  6
Continuous
 62
     7
370
    15
100
AcDbLine
 10
643.3053246399
 20
433.5153944031
 30
0.0
 11
656.2335273882
 21
433.5153944031
 31
0.0
  0
SPLINE
  5
FA
330
1F
100
AcDbEntity
  8
0
  6
Continuous
 62
     7
370
    15
100
AcDbSpline
210
0.0
220
0.0
230
1.0
 70
     8
 71
     3
 72
    12
 73
     8
 74
     0
 42
0.00000001
 43
0.00000001
 12
1.0
 22
0.0
 32
0.0
 13
1.0
 23
0.0
 33
0.0
 40
0.0
 40
0.0
 40
0.0
 40
0.0
 40
0.2500000000000005
 40
0.2500000000000005
 40
0.500000000000001
 40
0.500000000000001
 40
1.0
 40
1.0
 40
1.0
 40
1.0
 10
461.2335292554371
 20
534.7882855634296
 30
0.0
 10
461.2335292554371
 20
534.2209813748099
 30
0.0
 10
461.2584206628972
 20
533.6518600390763
 30
0.0
 10
461.3573437871809
 20
532.5100299782064
 30
0.0
 10
461.430864304371
 20
531.9432902009152
 30
0.0
 10
461.7126189525243
 20
530.262236877043
 30
0.0
 10
461.9819371752858
 20
529.1629822218505
 30
0.0
 10
462.3053260251616
 20
528.0779599865509
 30
0.0
  0
SPLINE
  5
FB
330
1F
100
AcDbEntity
  8
0
  6
Continuous
 62
     7
370
    15
100
AcDbSpline
210
0.0
220
0.0
230
1.0
 70
     8
 71
     3
 72
    10
 73
     6
 74
     0
 42
0.00000001
 43
0.00000001
 12
1.0
 22
0.0
 32
0.0
 13
1.0
 23
0.0
 33
0.0
 40
0.0
 40
0.0
 40
0.0
 40
0.0
 40
0.5
 40
0.5
 40
1.0
 40
1.0
 40
1.0
 40
1.0
 10
462.3053260251616
 20
541.4986111403082
 30
0.0
 10
461.9800422284241
 20
540.4072310498119
 30
0.0
 10
461.7072152712249
 20
539.2894437356783
 30
0.0
 10
461.3341623086822
 20
537.0488083832049
 30
0.0
 10
461.2335292554371
 20
535.9222202300939
 30
0.0
 10
461.2335292554371
 20
534.7882855634296
 30
0.0
  0
LINE
  5
FC
330
1F
100
AcDbEntity
  8
0
  6
Continuous
 62
     7
370
    15
100
AcDbLine
 10
462.3053229113
 20
541.4986147717
 30
0.0
 11
475.2335256596
 21
541.4986147717
 31
0.0
  0
LINE
  5
FD
330
1F
100
AcDbEntity
  8
0
  6
Continuous
 62
     7
370
    15
100
AcDbLine
 10
462.3053229113
 20
528.0779584483
 30
0.0
 11
475.2335256596
 21
528.0779584483
 31
0.0
  0
SPLINE
  5
FE
330
1F
100
AcDbEntity
  8
0
  6
Continuous
 62
     7
370
    15
100
AcDbSpline
210
0.0
220
0.0
230
1.0
 70
     8
 71
     3
 72
    10
 73
     6
 74
     0
 42
0.00000001
 43
0.00000001
 12
1.0
 22
0.0
 32
0.0
 13
1.0
 23
0.0
 33
0.0
 40
0.0
 40
0.0
 40
0.0
 40
0.0
 40
0.499999999999999
 40
0.499999999999999
 40
1.0
 40
1.0
 40
1.0
 40
1.0
 10
462.3053260251613
 20
528.077959986551
 30
0.0
 10
461.9781522640498
 20
527.2848861297759
 30
0.0
 10
461.7086097201315
 20
526.4860193565244
 30
0.0
 10
461.3356772118732
 20
524.8715846528585
 30
0.0
 10
461.2335292554371
 20
524.0558918795482
 30
0.0
 10
461.2335292554371
 20
523.2299315011325
 30
0.0
  0
LINE
  5
FF
330
1F
100
AcDbEntity
  8
0
  6
Continuous
 62
     7
370
    15
100
AcDbLine
 10
461.2335270901
 20
534.78828661
 30
0.0
 11
461.2335270901
 21
523.2299327091
 31
0.0
  0
SPLINE
  5
100
330
1F
100
AcDbEntity
  8
0
  6
Continuous
 62
     7
370
    15
100
AcDbSpline
210
0.0
220
0.0
230
1.0
 70
     8
 71
     3
 72
    12
 73
     8
 74
     0
 42
0.00000001
 43
0.00000001
 12
1.0
 22
0.0
 32
0.0
 13
1.0
 23
0.0
 33
0.0
 40
0.0
 40
0.0
 40
0.0
 40
0.0
 40
0.25
 40
0.25
 40
0.5
 40
0.5
 40
1.0
 40
1.0
 40
1.0
 40
1.0
 10
642.2335292554371
 20
534.7882855634296
 30
0.0
 10
642.2335292554371
 20
534.2209813748098
 30
0.0
 10
642.2584206628972
 20
533.6518600390763
 30
0.0
 10
642.3573437871808
 20
532.5100299782064
 30
0.0
 10
642.4308643043709
 20
531.9432902009152
 30
0.0
 10
642.7126189525243
 20
530.262236877043
 30
0.0
 10
642.9819371752857
 20
529.1629822218505
 30
0.0
 10
643.3053260251615
 20
528.0779599865509
 30
0.0
  0
SPLINE
  5
101
330
1F
100
AcDbEntity
  8
0
  6
Continuous
 62
     7
370
    15
100
AcDbSpline
210
0.0
220
0.0
230
1.0
 70
     8
 71
     3
 72
    10
 73
     6
 74
     0
 42
0.00000001
 43
0.00000001
 12
1.0
 22
0.0
 32
0.0
 13
1.0
 23
0.0
 33
0.0
 40
0.0
 40
0.0
 40
0.0
 40
0.0
 40
0.5
 40
0.5
 40
1.0
 40
1.0
 40
1.0
 40
1.0
 10
643.3053260251613
 20
528.0779599865509
 30
0.0
 10
642.9781522640498
 20
527.2848861297758
 30
0.0
 10
642.7086097201316
 20
526.4860193565244
 30
0.0
 10
642.3356772118731
 20
524.8715846528585
 30
0.0
 10
642.2335292554371
 20
524.0558918795481
 30
0.0
 10
642.2335292554371
 20
523.2299315011325
 30
0.0
  0
LINE
  5
102
330
1F
100
AcDbEntity
  8
0
  6
Continuous
 62
     7
370
    15
100
AcDbLine
 10
642.2335288187
 20
534.78828661
 30
0.0
 11
642.2335288187
 21
523.2299327091
 31
0.0
  0
SPLINE
  5
103
330
1F
100
AcDbEntity
  8
0
  6
Continuous
 62
     7
370
    15
100
AcDbSpline
210
0.0
220
0.0
230
1.0
 70
     8
 71
     3
 72
    10
 73
     6
 74
     0
 42
0.00000001
 43
0.00000001
 12
1.0
 22
0.0
 32
0.0
 13
1.0
 23
0.0
 33
0.0
 40
0.0
 40
0.0
 40
0.0
 40
0.0
 40
0.5
 40
0.5
 40
1.0
 40
1.0
 40
1.0
 40
1.0
 10
643.3053260251615
 20
541.4986111403081
 30
0.0
 10
642.9800422284239
 20
540.4072310498119
 30
0.0
 10
642.7072152712249
 20
539.2894437356783
 30
0.0
 10
642.3341623086822
 20
537.0488083832049
 30
0.0
 10
642.2335292554371
 20
535.9222202300939
 30
0.0
 10
642.2335292554371
 20
534.7882855634296
 30
0.0
  0
LINE
  5
104
330
1F
100
AcDbEntity
  8
0
  6
Continuous
 62
     7
370
    15
100
AcDbLine
 10
643.3053246399
 20
541.4986147717
 30
0.0
 11
656.2335273882
 21
541.4986147717
 31
0.0
  0
LINE
  5
105
330
1F
100
AcDbEntity
  8
0
  6
Continuous
 62
     7
370
    15
100
AcDbLine
 10
643.3053246399
 20
528.0779584483
 30
0.0
 11
656.2335273882
 21
528.0779584483
 31
0.0
  0
SPLINE
  5
106
330
1F
100
AcDbEntity
  8
0
  6
Continuous
 62
     7
370
    15
100
AcDbSpline
210
0.0
220
0.0
230
1.0
 70
     8
 71
     3
 72
    12
 73
     8
 74
     0
 42
0.00000001
 43
0.00000001
 12
1.0
 22
0.0
 32
0.0
 13
1.0
 23
0.0
 33
0.0
 40
0.0
 40
0.0
 40
0.0
 40
0.0
 40
0.2499999999999995
 40
0.2499999999999995
 40
0.499999999999999
 40
0.499999999999999
 40
1.0
 40
1.0
 40
1.0
 40
1.0
 10
512.2335292554372
 20
438.9413676964817
 30
0.0
 10
512.2335292554372
 20
439.4869701456569
 30
0.0
 10
512.208196002144
 20
440.035020436346
 30
0.0
 10
512.1101591150672
 20
441.1191780697779
 30
0.0
 10
512.0375497461383
 20
441.6576308215758
 30
0.0
 10
511.7575030472044
 20
443.2634257109508
 30
0.0
 10
511.4880892182986
 20
444.3212416936744
 30
0.0
 10
511.1617324857127
 20
445.3703052149347
 30
0.0
  0
SPLINE
  5
107
330
1F
100
AcDbEntity
  8
0
  6
Continuous
 62
     7
370
    15
100
AcDbSpline
210
0.0
220
0.0
230
1.0
 70
     8
 71
     3
 72
    10
 73
     6
 74
     0
 42
0.00000001
 43
0.00000001
 12
1.0
 22
0.0
 32
0.0
 13
1.0
 23
0.0
 33
0.0
 40
0.0
 40
0.0
 40
0.0
 40
0.0
 40
0.5
 40
0.5
 40
1.0
 40
1.0
 40
1.0
 40
1.0
 10
511.1617324857129
 20
432.5124301780286
 30
0.0
 10
511.4889062468244
 20
433.5641200119603
 30
0.0
 10
511.7584487907427
 20
434.6234917929325
 30
0.0
 10
512.1313812990011
 20
436.7643826455148
 30
0.0
 10
512.2335292554372
 20
437.8460672704379
 30
0.0
 10
512.2335292554372
 20
438.9413676964817
 30
0.0
  0
LINE
  5
108
330
1F
100
AcDbEntity
  8
0
  6
Continuous
 62
     7
370
    15
100
AcDbLine
 10
511.1617303153
 20
432.5124307707
 30
0.0
 11
498.233527567
 21
432.5124307707
 31
0.0
  0
LINE
  5
109
330
1F
100
AcDbEntity
  8
0
  6
Continuous
 62
     7
370
    15
100
AcDbLine
 10
511.1617303153
 20
445.3703056261
 30
0.0
 11
498.233527567
 21
445.3703056261
 31
0.0
  0
SPLINE
  5
10A
330
1F
100
AcDbEntity
  8
0
  6
Continuous
 62
     7
370
    15
100
AcDbSpline
210
0.0
220
0.0
230
1.0
 70
     8
 71
     3
 72
    10
 73
     6
 74
     0
 42
0.00000001
 43
0.00000001
 12
1.0
 22
0.0
 32
0.0
 13
1.0
 23
0.0
 33
0.0
 40
0.0
 40
0.0
 40
0.0
 40
0.0
 40
0.5
 40
0.5
 40
1.0
 40
1.0
 40
1.0
 40
1.0
 10
511.1617324857129
 20
445.3703052149346
 30
0.0
 10
511.4889062468244
 20
446.2619990071787
 30
0.0
 10
511.7584487907427
 20
447.1602060738384
 30
0.0
 10
512.1313812990011
 20
448.9753981785136
 30
0.0
 10
512.2335292554371
 20
449.8925235838282
 30
0.0
 10
512.2335292554371
 20
450.8211933864966
 30
0.0
  0
LINE
  5
10B
330
1F
100
AcDbEntity
  8
0
  6
Continuous
 62
     7
370
    15
100
AcDbLine
 10
512.2335261365
 20
438.9413672671
 30
0.0
 11
512.2335261365
 21
450.8211932317
 31
0.0
  0
SPLINE
  5
10C
330
1F
100
AcDbEntity
  8
0
  6
Continuous
 62
     7
370
    15
100
AcDbSpline
210
0.0
220
0.0
230
1.0
 70
     8
 71
     3
 72
    12
 73
     8
 74
     0
 42
0.00000001
 43
0.00000001
 12
1.0
 22
0.0
 32
0.0
 13
1.0
 23
0.0
 33
0.0
 40
0.0
 40
0.0
 40
0.0
 40
0.0
 40
0.2499999999999999
 40
0.2499999999999999
 40
0.4999999999999998
 40
0.4999999999999998
 40
1.0
 40
1.0
 40
1.0
 40
1.0
 10
512.2335292554371
 20
450.8211933864966
 30
0.0
 10
512.2335292554371
 20
451.2837920551021
 30
0.0
 10
512.208196002144
 20
451.7484661693494
 30
0.0
 10
512.1101591150672
 20
452.6676883585867
 30
0.0
 10
512.0375497461383
 20
453.1242250300501
 30
0.0
 10
511.7575030472044
 20
454.4857265757293
 30
0.0
 10
511.4880892182986
 20
455.3826145313777
 30
0.0
 10
511.1617324857127
 20
456.2720815580585
 30
0.0
  0
LINE
  5
10D
330
1F
100
AcDbEntity
  8
0
  6
Continuous
 62
     7
370
    15
100
AcDbLine
 10
511.1617303153
 20
456.2720817685
 30
0.0
 11
498.233527567
 21
456.2720817685
 31
0.0
  0
SPLINE
  5
10E
330
1F
100
AcDbEntity
  8
0
  6
Continuous
 62
     7
370
    15
100
AcDbSpline
210
0.0
220
0.0
230
1.0
 70
     8
 71
     3
 72
    12
 73
     8
 74
     0
 42
0.00000001
 43
0.00000001
 12
1.0
 22
0.0
 32
0.0
 13
1.0
 23
0.0
 33
0.0
 40
0.0
 40
0.0
 40
0.0
 40
0.0
 40
0.2500000000000003
 40
0.2500000000000003
 40
0.5000000000000006
 40
0.5000000000000006
 40
1.0
 40
1.0
 40
1.0
 40
1.0
 10
606.5138985137303
 20
438.9413676964817
 30
0.0
 10
606.5138985137303
 20
439.4869701456569
 30
0.0
 10
606.4885652604371
 20
440.035020436346
 30
0.0
 10
606.3905283733603
 20
441.1191780697778
 30
0.0
 10
606.3179190044315
 20
441.6576308215758
 30
0.0
 10
606.0378723054974
 20
443.2634257109508
 30
0.0
 10
605.7684584765917
 20
444.3212416936744
 30
0.0
 10
605.4421017440059
 20
445.3703052149347
 30
0.0
  0
SPLINE
  5
10F
330
1F
100
AcDbEntity
  8
0
  6
Continuous
 62
     7
370
    15
100
AcDbSpline
210
0.0
220
0.0
230
1.0
 70
     8
 71
     3
 72
    10
 73
     6
 74
     0
 42
0.00000001
 43
0.00000001
 12
1.0
 22
0.0
 32
0.0
 13
1.0
 23
0.0
 33
0.0
 40
0.0
 40
0.0
 40
0.0
 40
0.0
 40
0.5
 40
0.5
 40
1.0
 40
1.0
 40
1.0
 40
1.0
 10
605.442101744006
 20
445.3703052149346
 30
0.0
 10
605.7692755051177
 20
446.2619990071787
 30
0.0
 10
606.0388180490359
 20
447.1602060738384
 30
0.0
 10
606.4117505572941
 20
448.9753981785136
 30
0.0
 10
606.5138985137303
 20
449.8925235838282
 30
0.0
 10
606.5138985137303
 20
450.8211933864966
 30
0.0
  0
LINE
  5
110
330
1F
100
AcDbEntity
  8
0
  6
Continuous
 62
     7
370
    15
100
AcDbLine
 10
606.5138994416
 20
438.9413672671
 30
0.0
 11
606.5138994416
 21
450.8211932317
 31
0.0
  0
SPLINE
  5
111
330
1F
100
AcDbEntity
  8
0
  6
Continuous
 62
     7
370
    15
100
AcDbSpline
210
0.0
220
0.0
230
1.0
 70
     8
 71
     3
 72
    12
 73
     8
 74
     0
 42
0.00000001
 43
0.00000001
 12
1.0
 22
0.0
 32
0.0
 13
1.0
 23
0.0
 33
0.0
 40
0.0
 40
0.0
 40
0.0
 40
0.0
 40
0.2499999999999999
 40
0.2499999999999999
 40
0.4999999999999998
 40
0.4999999999999998
 40
1.0
 40
1.0
 40
1.0
 40
1.0
 10
606.5138985137303
 20
450.8211933864966
 30
0.0
 10
606.5138985137303
 20
451.2837920551021
 30
0.0
 10
606.4885652604371
 20
451.7484661693494
 30
0.0
 10
606.3905283733603
 20
452.6676883585867
 30
0.0
 10
606.3179190044315
 20
453.1242250300501
 30
0.0
 10
606.0378723054976
 20
454.4857265757293
 30
0.0
 10
605.7684584765917
 20
455.3826145313777
 30
0.0
 10
605.4421017440059
 20
456.2720815580585
 30
0.0
  0
LINE
  5
112
330
1F
100
AcDbEntity
  8
0
  6
Continuous
 62
     7
370
    15
100
AcDbLine
 10
605.4421017577
 20
445.3703056261
 30
0.0
 11
592.5138985438
 21
445.3703056261
 31
0.0
  0
LINE
  5
113
330
1F
100
AcDbEntity
  8
0
  6
Continuous
 62
     7
370
    15
100
AcDbLine
 10
605.4421017577
 20
456.2720817685
 30
0.0
 11
592.5138985438
 21
456.2720817685
 31
0.0
  0
SPLINE
  5
114
330
1F
100
AcDbEntity
  8
0
  6
Continuous
 62
     7
370
    15
100
AcDbSpline
210
0.0
220
0.0
230
1.0
 70
     8
 71
     3
 72
    10
 73
     6
 74
     0
 42
0.00000001
 43
0.00000001
 12
1.0
 22
0.0
 32
0.0
 13
1.0
 23
0.0
 33
0.0
 40
0.0
 40
0.0
 40
0.0
 40
0.0
 40
0.5
 40
0.5
 40
1.0
 40
1.0
 40
1.0
 40
1.0
 10
605.442101744006
 20
432.5124301780286
 30
0.0
 10
605.7692755051177
 20
433.5641200119603
 30
0.0
 10
606.0388180490359
 20
434.6234917929325
 30
0.0
 10
606.4117505572941
 20
436.7643826455148
 30
0.0
 10
606.5138985137303
 20
437.8460672704379
 30
0.0
 10
606.5138985137303
 20
438.9413676964817
 30
0.0
  0
LINE
  5
115
330
1F
100
AcDbEntity
  8
0
  6
Continuous
 62
     7
370
    15
100
AcDbLine
 10
605.4421017577
 20
432.5124307707
 30
0.0
 11
592.5138985438
 21
432.5124307707
 31
0.0
  0
SPLINE
  5
116
330
1F
100
AcDbEntity
  8
0
  6
Continuous
 62
     7
370
    15
100
AcDbSpline
210
0.0
220
0.0
230
1.0
 70
     8
 71
     3
 72
    12
 73
     8
 74
     0
 42
0.00000001
 43
0.00000001
 12
1.0
 22
0.0
 32
0.0
 13
1.0
 23
0.0
 33
0.0
 40
0.0
 40
0.0
 40
0.0
 40
0.0
 40
0.2499999999999996
 40
0.2499999999999996
 40
0.4999999999999992
 40
0.4999999999999992
 40
1.0
 40
1.0
 40
1.0
 40
1.0
 10
693.233529255437
 20
450.8211933864966
 30
0.0
 10
693.2335292554371
 20
451.2837920551021
 30
0.0
 10
693.208196002144
 20
451.7484661693494
 30
0.0
 10
693.1101591150672
 20
452.6676883585867
 30
0.0
 10
693.0375497461383
 20
453.1242250300501
 30
0.0
 10
692.7575030472043
 20
454.4857265757293
 30
0.0
 10
692.4880892182986
 20
455.3826145313777
 30
0.0
 10
692.1617324857128
 20
456.2720815580585
 30
0.0
  0
SPLINE
  5
117
330
1F
100
AcDbEntity
  8
0
  6
Continuous
 62
     7
370
    15
100
AcDbSpline
210
0.0
220
0.0
230
1.0
 70
     8
 71
     3
 72
    10
 73
     6
 74
     0
 42
0.00000001
 43
0.00000001
 12
1.0
 22
0.0
 32
0.0
 13
1.0
 23
0.0
 33
0.0
 40
0.0
 40
0.0
 40
0.0
 40
0.0
 40
0.4999999999999998
 40
0.4999999999999998
 40
1.0
 40
1.0
 40
1.0
 40
1.0
 10
692.1617324857128
 20
445.3703052149346
 30
0.0
 10
692.4889062468245
 20
446.2619990071787
 30
0.0
 10
692.7584487907427
 20
447.1602060738384
 30
0.0
 10
693.1313812990009
 20
448.9753981785136
 30
0.0
 10
693.2335292554371
 20
449.8925235838282
 30
0.0
 10
693.233529255437
 20
450.8211933864966
 30
0.0
  0
LINE
  5
118
330
1F
100
AcDbEntity
  8
0
  6
Continuous
 62
     7
370
    15
100
AcDbLine
 10
692.1617320438
 20
445.3703056261
 30
0.0
 11
679.2335292955
 21
445.3703056261
 31
0.0
  0
LINE
  5
119
330
1F
100
AcDbEntity
  8
0
  6
Continuous
 62
     7
370
    15
100
AcDbLine
 10
692.1617320438
 20
456.2720817685
 30
0.0
 11
679.2335292955
 21
456.2720817685
 31
0.0
  0
SPLINE
  5
11A
330
1F
100
AcDbEntity
  8
0
  6
Continuous
 62
     7
370
    15
100
AcDbSpline
210
0.0
220
0.0
230
1.0
 70
     8
 71
     3
 72
    12
 73
     8
 74
     0
 42
0.00000001
 43
0.00000001
 12
1.0
 22
0.0
 32
0.0
 13
1.0
 23
0.0
 33
0.0
 40
0.0
 40
0.0
 40
0.0
 40
0.0
 40
0.2499999999999995
 40
0.2499999999999995
 40
0.499999999999999
 40
0.499999999999999
 40
1.0
 40
1.0
 40
1.0
 40
1.0
 10
693.233529255437
 20
438.9413676964817
 30
0.0
 10
693.233529255437
 20
439.4869701456569
 30
0.0
 10
693.208196002144
 20
440.035020436346
 30
0.0
 10
693.1101591150672
 20
441.1191780697778
 30
0.0
 10
693.0375497461383
 20
441.6576308215758
 30
0.0
 10
692.7575030472043
 20
443.2634257109508
 30
0.0
 10
692.4880892182986
 20
444.3212416936744
 30
0.0
 10
692.1617324857128
 20
445.3703052149347
 30
0.0
  0
LINE
  5
11B
330
1F
100
AcDbEntity
  8
0
  6
Continuous
 62
     7
370
    15
100
AcDbLine
 10
693.233527865
 20
438.9413672671
 30
0.0
 11
693.233527865
 21
450.8211932317
 31
0.0
  0
SPLINE
  5
11C
330
1F
100
AcDbEntity
  8
0
  6
Continuous
 62
     7
370
    15
100
AcDbSpline
210
0.0
220
0.0
230
1.0
 70
     8
 71
     3
 72
    10
 73
     6
 74
     0
 42
0.00000001
 43
0.00000001
 12
1.0
 22
0.0
 32
0.0
 13
1.0
 23
0.0
 33
0.0
 40
0.0
 40
0.0
 40
0.0
 40
0.0
 40
0.5
 40
0.5
 40
1.0
 40
1.0
 40
1.0
 40
1.0
 10
692.1617324857128
 20
432.5124301780286
 30
0.0
 10
692.4889062468244
 20
433.5641200119603
 30
0.0
 10
692.7584487907427
 20
434.6234917929325
 30
0.0
 10
693.131381299001
 20
436.7643826455148
 30
0.0
 10
693.2335292554371
 20
437.8460672704379
 30
0.0
 10
693.233529255437
 20
438.9413676964817
 30
0.0
  0
LINE
  5
11D
330
1F
100
AcDbEntity
  8
0
  6
Continuous
 62
     7
370
    15
100
AcDbLine
 10
692.1617320438
 20
432.5124307707
 30
0.0
 11
679.2335292955
 21
432.5124307707
 31
0.0
  0
SPLINE
  5
11E
330
1F
100
AcDbEntity
  8
0
  6
Continuous
 62
     7
370
    15
100
AcDbSpline
210
0.0
220
0.0
230
1.0
 70
     8
 71
     3
 72
    12
 73
     8
 74
     0
 42
0.00000001
 43
0.00000001
 12
1.0
 22
0.0
 32
0.0
 13
1.0
 23
0.0
 33
0.0
 40
0.0
 40
0.0
 40
0.0
 40
0.0
 40
0.2500000000000002
 40
0.2500000000000002
 40
0.5000000000000003
 40
0.5000000000000003
 40
1.0
 40
1.0
 40
1.0
 40
1.0
 10
512.2335292554371
 20
533.4965853305961
 30
0.0
 10
512.2335292554371
 20
534.0764435786245
 30
0.0
 10
512.2086378479771
 20
534.6581591860082
 30
0.0
 10
512.1097147236935
 20
535.8252571766883
 30
0.0
 10
512.0361942065033
 20
536.4045385233462
 30
0.0
 10
511.7544395583499
 20
538.1227924244763
 30
0.0
 10
511.4851213355884
 20
539.2463728444415
 30
0.0
 10
511.1617324857126
 20
540.355405890652
 30
0.0
  0
SPLINE
  5
11F
330
1F
100
AcDbEntity
  8
0
  6
Continuous
 62
     7
370
    15
100
AcDbSpline
210
0.0
220
0.0
230
1.0
 70
     8
 71
     3
 72
    10
 73
     6
 74
     0
 42
0.00000001
 43
0.00000001
 12
1.0
 22
0.0
 32
0.0
 13
1.0
 23
0.0
 33
0.0
 40
0.0
 40
0.0
 40
0.0
 40
0.0
 40
0.5
 40
0.5
 40
1.0
 40
1.0
 40
1.0
 40
1.0
 10
511.1617324857127
 20
526.63776477054
 30
0.0
 10
511.4870162824503
 20
527.7532963669984
 30
0.0
 10
511.7598432396493
 20
528.8958195611585
 30
0.0
 10
512.1328962021921
 20
531.1860386641013
 30
0.0
 10
512.2335292554371
 20
532.3375574538746
 30
0.0
 10
512.2335292554371
 20
533.4965853305961
 30
0.0
  0
LINE
  5
120
330
1F
100
AcDbEntity
  8
0
  6
Continuous
 62
     7
370
    15
100
AcDbLine
 10
511.1617303153
 20
526.6377612189
 30
0.0
 11
498.233527567
 21
526.6377612189
 31
0.0
  0
LINE
  5
121
330
1F
100
AcDbEntity
  8
0
  6
Continuous
 62
     7
370
    15
100
AcDbLine
 10
511.1617303153
 20
540.3554051355
 30
0.0
 11
498.233527567
 21
540.3554051355
 31
0.0
  0
LINE
  5
122
330
1F
100
AcDbEntity
  8
0
  6
Continuous
 62
     7
370
    15
100
AcDbLine
 10
512.2335261365
 20
522.3613402978
 30
0.0
 11
512.2335261365
 21
533.4965869025
 31
0.0
  0
SPLINE
  5
123
330
1F
100
AcDbEntity
  8
0
  6
Continuous
 62
     7
370
    15
100
AcDbSpline
210
0.0
220
0.0
230
1.0
 70
     8
 71
     3
 72
    12
 73
     8
 74
     0
 42
0.00000001
 43
0.00000001
 12
1.0
 22
0.0
 32
0.0
 13
1.0
 23
0.0
 33
0.0
 40
0.0
 40
0.0
 40
0.0
 40
0.0
 40
0.2499999999999992
 40
0.2499999999999992
 40
0.4999999999999984
 40
0.4999999999999984
 40
1.0
 40
1.0
 40
1.0
 40
1.0
 10
512.2335292554371
 20
522.3613389099497
 30
0.0
 10
512.2335292554371
 20
522.7242648859072
 30
0.0
 10
512.208196002144
 20
523.0888191266787
 30
0.0
 10
512.1101591150672
 20
523.8099833512892
 30
0.0
 10
512.0375497461383
 20
524.1681534635179
 30
0.0
 10
511.7575030472044
 20
525.2363024029057
 30
0.0
 10
511.4880892182986
 20
525.9399445850362
 30
0.0
 10
511.1617324857127
 20
526.6377647705401
 30
0.0
  0
SPLINE
  5
124
330
1F
100
AcDbEntity
  8
0
  6
Continuous
 62
     7
370
    15
100
AcDbSpline
210
0.0
220
0.0
230
1.0
 70
     8
 71
     3
 72
    12
 73
     8
 74
     0
 42
0.00000001
 43
0.00000001
 12
1.0
 22
0.0
 32
0.0
 13
1.0
 23
0.0
 33
0.0
 40
0.0
 40
0.0
 40
0.0
 40
0.0
 40
0.2499999999999997
 40
0.2499999999999997
 40
0.4999999999999993
 40
0.4999999999999993
 40
1.0
 40
1.0
 40
1.0
 40
1.0
 10
693.233529255437
 20
533.496585330596
 30
0.0
 10
693.2335292554371
 20
534.0764435786245
 30
0.0
 10
693.208637847977
 20
534.6581591860082
 30
0.0
 10
693.1097147236933
 20
535.8252571766883
 30
0.0
 10
693.0361942065032
 20
536.4045385233462
 30
0.0
 10
692.7544395583498
 20
538.1227924244763
 30
0.0
 10
692.4851213355884
 20
539.2463728444415
 30
0.0
 10
692.1617324857126
 20
540.3554058906519
 30
0.0
  0
SPLINE
  5
125
330
1F
100
AcDbEntity
  8
0
  6
Continuous
 62
     7
370
    15
100
AcDbSpline
210
0.0
220
0.0
230
1.0
 70
     8
 71
     3
 72
    10
 73
     6
 74
     0
 42
0.00000001
 43
0.00000001
 12
1.0
 22
0.0
 32
0.0
 13
1.0
 23
0.0
 33
0.0
 40
0.0
 40
0.0
 40
0.0
 40
0.0
 40
0.5
 40
0.5
 40
1.0
 40
1.0
 40
1.0
 40
1.0
 10
692.1617324857127
 20
526.63776477054
 30
0.0
 10
692.4870162824501
 20
527.7532963669984
 30
0.0
 10
692.7598432396494
 20
528.8958195611585
 30
0.0
 10
693.132896202192
 20
531.1860386641013
 30
0.0
 10
693.2335292554371
 20
532.3375574538746
 30
0.0
 10
693.233529255437
 20
533.496585330596
 30
0.0
  0
LINE
  5
126
330
1F
100
AcDbEntity
  8
0
  6
Continuous
 62
     7
370
    15
100
AcDbLine
 10
692.1617320438
 20
526.6377612189
 30
0.0
 11
679.2335292955
 21
526.6377612189
 31
0.0
  0
LINE
  5
127
330
1F
100
AcDbEntity
  8
0
  6
Continuous
 62
     7
370
    15
100
AcDbLine
 10
692.1617320438
 20
540.3554051355
 30
0.0
 11
679.2335292955
 21
540.3554051355
 31
0.0
  0
SPLINE
  5
128
330
1F
100
AcDbEntity
  8
0
  6
Continuous
 62
     7
370
    15
100
AcDbSpline
210
0.0
220
0.0
230
1.0
 70
     8
 71
     3
 72
    12
 73
     8
 74
     0
 42
0.00000001
 43
0.00000001
 12
1.0
 22
0.0
 32
0.0
 13
1.0
 23
0.0
 33
0.0
 40
0.0
 40
0.0
 40
0.0
 40
0.0
 40
0.2499999999999999
 40
0.2499999999999999
 40
0.4999999999999999
 40
0.4999999999999999
 40
1.0
 40
1.0
 40
1.0
 40
1.0
 10
606.5138985137303
 20
533.496585330596
 30
0.0
 10
606.5138985137303
 20
534.0764435786245
 30
0.0
 10
606.4890071062702
 20
534.6581591860082
 30
0.0
 10
606.3900839819865
 20
535.8252571766883
 30
0.0
 10
606.3165634647964
 20
536.4045385233462
 30
0.0
 10
606.0348088166429
 20
538.1227924244762
 30
0.0
 10
605.7654905938815
 20
539.2463728444415
 30
0.0
 10
605.4421017440059
 20
540.3554058906519
 30
0.0
  0
SPLINE
  5
129
330
1F
100
AcDbEntity
  8
0
  6
Continuous
 62
     7
370
    15
100
AcDbSpline
210
0.0
220
0.0
230
1.0
 70
     8
 71
     3
 72
    10
 73
     6
 74
     0
 42
0.00000001
 43
0.00000001
 12
1.0
 22
0.0
 32
0.0
 13
1.0
 23
0.0
 33
0.0
 40
0.0
 40
0.0
 40
0.0
 40
0.0
 40
0.5
 40
0.5
 40
1.0
 40
1.0
 40
1.0
 40
1.0
 10
605.4421017440059
 20
526.63776477054
 30
0.0
 10
605.7673855407434
 20
527.7532963669984
 30
0.0
 10
606.0402124979424
 20
528.8958195611585
 30
0.0
 10
606.4132654604853
 20
531.1860386641013
 30
0.0
 10
606.5138985137303
 20
532.3375574538746
 30
0.0
 10
606.5138985137303
 20
533.496585330596
 30
0.0
  0
LINE
  5
12A
330
1F
100
AcDbEntity
  8
0
  6
Continuous
 62
     7
370
    15
100
AcDbLine
 10
605.4421017577
 20
526.6377612189
 30
0.0
 11
592.5138985438
 21
526.6377612189
 31
0.0
  0
LINE
  5
12B
330
1F
100
AcDbEntity
  8
0
  6
Continuous
 62
     7
370
    15
100
AcDbLine
 10
605.4421017577
 20
540.3554051355
 30
0.0
 11
592.5138985438
 21
540.3554051355
 31
0.0
  0
LINE
  5
12C
330
1F
100
AcDbEntity
  8
0
  6
Continuous
 62
     7
370
    15
100
AcDbLine
 10
606.5138994416
 20
522.3613402978
 30
0.0
 11
606.5138994416
 21
533.4965869025
 31
0.0
  0
SPLINE
  5
12D
330
1F
100
AcDbEntity
  8
0
  6
Continuous
 62
     7
370
    15
100
AcDbSpline
210
0.0
220
0.0
230
1.0
 70
     8
 71
     3
 72
    12
 73
     8
 74
     0
 42
0.00000001
 43
0.00000001
 12
1.0
 22
0.0
 32
0.0
 13
1.0
 23
0.0
 33
0.0
 40
0.0
 40
0.0
 40
0.0
 40
0.0
 40
0.2500000000000001
 40
0.2500000000000001
 40
0.5000000000000002
 40
0.5000000000000002
 40
1.0
 40
1.0
 40
1.0
 40
1.0
 10
606.5138985137303
 20
522.3613389099497
 30
0.0
 10
606.5138985137303
 20
522.7242648859071
 30
0.0
 10
606.4885652604371
 20
523.0888191266787
 30
0.0
 10
606.3905283733603
 20
523.8099833512892
 30
0.0
 10
606.3179190044315
 20
524.1681534635178
 30
0.0
 10
606.0378723054974
 20
525.2363024029057
 30
0.0
 10
605.7684584765917
 20
525.9399445850362
 30
0.0
 10
605.4421017440059
 20
526.6377647705401
 30
0.0
  0
LINE
  5
12E
330
1F
100
AcDbEntity
  8
0
  6
Continuous
 62
     7
370
    15
100
AcDbLine
 10
693.233527865
 20
522.3613402978
 30
0.0
 11
693.233527865
 21
533.4965869025
 31
0.0
  0
SPLINE
  5
12F
330
1F
100
AcDbEntity
  8
0
  6
Continuous
 62
     7
370
    15
100
AcDbSpline
210
0.0
220
0.0
230
1.0
 70
     8
 71
     3
 72
    12
 73
     8
 74
     0
 42
0.00000001
 43
0.00000001
 12
1.0
 22
0.0
 32
0.0
 13
1.0
 23
0.0
 33
0.0
 40
0.0
 40
0.0
 40
0.0
 40
0.0
 40
0.2499999999999999
 40
0.2499999999999999
 40
0.4999999999999998
 40
0.4999999999999998
 40
1.0
 40
1.0
 40
1.0
 40
1.0
 10
693.233529255437
 20
522.3613389099497
 30
0.0
 10
693.233529255437
 20
522.7242648859071
 30
0.0
 10
693.208196002144
 20
523.0888191266787
 30
0.0
 10
693.1101591150672
 20
523.8099833512892
 30
0.0
 10
693.0375497461383
 20
524.1681534635178
 30
0.0
 10
692.7575030472043
 20
525.2363024029057
 30
0.0
 10
692.4880892182987
 20
525.9399445850362
 30
0.0
 10
692.1617324857128
 20
526.6377647705401
 30
0.0
  0
SPLINE
  5
130
330
1F
100
AcDbEntity
  8
0
  6
Continuous
 62
     7
370
    15
100
AcDbSpline
210
0.0
220
0.0
230
1.0
 70
     8
 71
     3
 72
    10
 73
     6
 74
     0
 42
0.00000001
 43
0.00000001
 12
1.0
 22
0.0
 32
0.0
 13
1.0
 23
0.0
 33
0.0
 40
0.0
 40
0.0
 40
0.0
 40
0.0
 40
0.5
 40
0.5
 40
1.0
 40
1.0
 40
1.0
 40
1.0
 10
462.3053260251613
 20
456.760644179665
 30
0.0
 10
461.9781522640498
 20
455.950986290666
 30
0.0
 10
461.7086097201315
 20
455.1354143490408
 30
0.0
 10
461.3356772118732
 20
453.4872200693654
 30
0.0
 10
461.2335292554371
 20
452.6544702778193
 30
0.0
 10
461.2335292554371
 20
451.8112381744385
 30
0.0
  0
LINE
  5
131
330
1F
100
AcDbEntity
  8
0
  6
Continuous
 62
     7
370
    15
100
AcDbLine
 10
462.3053229113
 20
456.760644278
 30
0.0
 11
475.2335256596
 21
456.760644278
 31
0.0
  0
SPLINE
  5
132
330
1F
100
AcDbEntity
  8
0
  6
Continuous
 62
     7
370
    15
100
AcDbSpline
210
0.0
220
0.0
230
1.0
 70
     8
 71
     3
 72
    10
 73
     6
 74
     0
 42
0.00000001
 43
0.00000001
 12
1.0
 22
0.0
 32
0.0
 13
1.0
 23
0.0
 33
0.0
 40
0.0
 40
0.0
 40
0.0
 40
0.0
 40
0.5
 40
0.5
 40
1.0
 40
1.0
 40
1.0
 40
1.0
 10
643.3053260251613
 20
456.760644179665
 30
0.0
 10
642.9781522640498
 20
455.950986290666
 30
0.0
 10
642.7086097201316
 20
455.1354143490408
 30
0.0
 10
642.3356772118731
 20
453.4872200693654
 30
0.0
 10
642.2335292554371
 20
452.6544702778193
 30
0.0
 10
642.2335292554371
 20
451.8112381744385
 30
0.0
  0
LINE
  5
133
330
1F
100
AcDbEntity
  8
0
  6
Continuous
 62
     7
370
    15
100
AcDbLine
 10
643.3053246399
 20
456.760644278
 30
0.0
 11
656.2335273882
 21
456.760644278
 31
0.0
  0
SPLINE
  5
134
330
1F
100
AcDbEntity
  8
0
  6
Continuous
 62
     7
370
    15
100
AcDbSpline
210
0.0
220
0.0
230
1.0
 70
     8
 71
     3
 72
    12
 73
     8
 74
     0
 42
0.00000001
 43
0.00000001
 12
1.0
 22
0.0
 32
0.0
 13
1.0
 23
0.0
 33
0.0
 40
0.0
 40
0.0
 40
0.0
 40
0.0
 40
0.249999999999999
 40
0.249999999999999
 40
0.499999999999998
 40
0.499999999999998
 40
1.0
 40
1.0
 40
1.0
 40
1.0
 10
642.2335292554371
 20
523.2299315011325
 30
0.0
 10
642.2335292554371
 20
522.8184955200355
 30
0.0
 10
642.2588625087302
 20
522.4052136343312
 30
0.0
 10
642.356899395807
 20
521.5876559781125
 30
0.0
 10
642.4295087647358
 20
521.1816115467775
 30
0.0
 10
642.7095554636699
 20
519.9706899375561
 30
0.0
 10
642.9789692925756
 20
519.172996383706
 30
0.0
 10
643.3053260251614
 20
518.3819030157141
 30
0.0
  0
LINE
  5
135
330
1F
100
AcDbEntity
  8
0
  6
Continuous
 62
     7
370
    15
100
AcDbLine
 10
643.3053246399
 20
518.3819032446
 30
0.0
 11
656.2335273882
 21
518.3819032446
 31
0.0
  0
SPLINE
  5
136
330
1F
100
AcDbEntity
  8
0
  6
Continuous
 62
     7
370
    15
100
AcDbSpline
210
0.0
220
0.0
230
1.0
 70
     8
 71
     3
 72
    12
 73
     8
 74
     0
 42
0.00000001
 43
0.00000001
 12
1.0
 22
0.0
 32
0.0
 13
1.0
 23
0.0
 33
0.0
 40
0.0
 40
0.0
 40
0.0
 40
0.0
 40
0.2500000000000011
 40
0.2500000000000011
 40
0.5000000000000021
 40
0.5000000000000021
 40
1.0
 40
1.0
 40
1.0
 40
1.0
 10
461.2335292554371
 20
523.2299315011325
 30
0.0
 10
461.2335292554371
 20
522.8184955200355
 30
0.0
 10
461.2588625087303
 20
522.4052136343312
 30
0.0
 10
461.356899395807
 20
521.5876559781126
 30
0.0
 10
461.4295087647359
 20
521.1816115467776
 30
0.0
 10
461.7095554636699
 20
519.9706899375562
 30
0.0
 10
461.9789692925756
 20
519.172996383706
 30
0.0
 10
462.3053260251615
 20
518.3819030157141
 30
0.0
  0
LINE
  5
137
330
1F
100
AcDbEntity
  8
0
  6
Continuous
 62
     7
370
    15
100
AcDbLine
 10
462.3053229113
 20
518.3819032446
 30
0.0
 11
475.2335256596
 21
518.3819032446
 31
0.0
  0
SPLINE
  5
138
330
1F
100
AcDbEntity
  8
0
  6
Continuous
 62
     7
370
    15
100
AcDbSpline
210
0.0
220
0.0
230
1.0
 70
     8
 71
     3
 72
    10
 73
     6
 74
     0
 42
0.00000001
 43
0.00000001
 12
1.0
 22
0.0
 32
0.0
 13
1.0
 23
0.0
 33
0.0
 40
0.0
 40
0.0
 40
0.0
 40
0.0
 40
0.5
 40
0.5
 40
1.0
 40
1.0
 40
1.0
 40
1.0
 10
692.1617324857128
 20
518.0849130493593
 30
0.0
 10
692.4889062468244
 20
518.7844802158212
 30
0.0
 10
692.7584487907427
 20
519.4891572899297
 30
0.0
 10
693.131381299001
 20
520.9132434597525
 30
0.0
 10
693.2335292554371
 20
521.6327626788687
 30
0.0
 10
693.233529255437
 20
522.3613389099497
 30
0.0
  0
LINE
  5
139
330
1F
100
AcDbEntity
  8
0
  6
Continuous
 62
     7
370
    15
100
AcDbLine
 10
692.1617320438
 20
518.0849119261
 30
0.0
 11
679.2335292955
 21
518.0849119261
 31
0.0
  0
SPLINE
  5
13A
330
1F
100
AcDbEntity
  8
0
  6
Continuous
 62
     7
370
    15
100
AcDbSpline
210
0.0
220
0.0
230
1.0
 70
     8
 71
     3
 72
    10
 73
     6
 74
     0
 42
0.00000001
 43
0.00000001
 12
1.0
 22
0.0
 32
0.0
 13
1.0
 23
0.0
 33
0.0
 40
0.0
 40
0.0
 40
0.0
 40
0.0
 40
0.5
 40
0.5
 40
1.0
 40
1.0
 40
1.0
 40
1.0
 10
511.1617324857129
 20
518.0849130493593
 30
0.0
 10
511.4889062468244
 20
518.7844802158212
 30
0.0
 10
511.7584487907427
 20
519.4891572899297
 30
0.0
 10
512.1313812990011
 20
520.9132434597525
 30
0.0
 10
512.2335292554371
 20
521.6327626788687
 30
0.0
 10
512.2335292554371
 20
522.3613389099497
 30
0.0
  0
LINE
  5
13B
330
1F
100
AcDbEntity
  8
0
  6
Continuous
 62
     7
370
    15
100
AcDbLine
 10
511.1617303153
 20
518.0849119261
 30
0.0
 11
498.233527567
 21
518.0849119261
 31
0.0
  0
SPLINE
  5
13C
330
1F
100
AcDbEntity
  8
0
  6
Continuous
 62
     7
370
    15
100
AcDbSpline
210
0.0
220
0.0
230
1.0
 70
     8
 71
     3
 72
    10
 73
     6
 74
     0
 42
0.00000001
 43
0.00000001
 12
1.0
 22
0.0
 32
0.0
 13
1.0
 23
0.0
 33
0.0
 40
0.0
 40
0.0
 40
0.0
 40
0.0
 40
0.5
 40
0.5
 40
1.0
 40
1.0
 40
1.0
 40
1.0
 10
605.442101744006
 20
518.0849130493593
 30
0.0
 10
605.7692755051177
 20
518.7844802158212
 30
0.0
 10
606.0388180490359
 20
519.4891572899297
 30
0.0
 10
606.4117505572941
 20
520.9132434597525
 30
0.0
 10
606.5138985137303
 20
521.6327626788687
 30
0.0
 10
606.5138985137303
 20
522.3613389099497
 30
0.0
  0
LINE
  5
13D
330
1F
100
AcDbEntity
  8
0
  6
Continuous
 62
     7
370
    15
100
AcDbLine
 10
605.4421017577
 20
518.0849119261
 30
0.0
 11
592.5138985438
 21
518.0849119261
 31
0.0
  0
SPLINE
  5
13E
330
1F
100
AcDbEntity
  8
0
  6
Continuous
 62
     7
370
    15
100
AcDbSpline
210
0.0
220
0.0
230
1.0
 70
     8
 71
     3
 72
    10
 73
     6
 74
     0
 42
0.00000001
 43
0.00000001
 12
1.0
 22
0.0
 32
0.0
 13
1.0
 23
0.0
 33
0.0
 40
0.0
 40
0.0
 40
0.0
 40
0.0
 40
0.5
 40
0.5
 40
1.0
 40
1.0
 40
1.0
 40
1.0
 10
462.3053260251616
 20
433.5153945106997
 30
0.0
 10
461.9800422284241
 20
433.2350303205671
 30
0.0
 10
461.7072152712249
 20
432.9478823894323
 30
0.0
 10
461.3341623086822
 20
432.3722864797679
 30
0.0
 10
461.2335292554371
 20
432.0828777046669
 30
0.0
 10
461.2335292554371
 20
431.79158168667
 30
0.0
  0
LINE
  5
13F
330
1F
100
AcDbEntity
  8
0
  6
Continuous
 62
     7
370
    15
100
AcDbLine
 10
461.2335270901
 20
440.1886130855
 30
0.0
 11
461.2335270901
 21
431.7915833727
 31
0.0
  0
SPLINE
  5
140
330
1F
100
AcDbEntity
  8
0
  6
Continuous
 62
     7
370
    15
100
AcDbSpline
210
0.0
220
0.0
230
1.0
 70
     8
 71
     3
 72
    10
 73
     6
 74
     0
 42
0.00000001
 43
0.00000001
 12
1.0
 22
0.0
 32
0.0
 13
1.0
 23
0.0
 33
0.0
 40
0.0
 40
0.0
 40
0.0
 40
0.0
 40
0.5
 40
0.5
 40
1.0
 40
1.0
 40
1.0
 40
1.0
 10
643.3053260251615
 20
433.5153945106997
 30
0.0
 10
642.9800422284239
 20
433.2350303205671
 30
0.0
 10
642.7072152712249
 20
432.9478823894323
 30
0.0
 10
642.3341623086822
 20
432.3722864797679
 30
0.0
 10
642.2335292554371
 20
432.0828777046669
 30
0.0
 10
642.2335292554371
 20
431.79158168667
 30
0.0
  0
LINE
  5
141
330
1F
100
AcDbEntity
  8
0
  6
Continuous
 62
     7
370
    15
100
AcDbLine
 10
642.2335288187
 20
440.1886130855
 30
0.0
 11
642.2335288187
 21
431.7915833727
 31
0.0
  0
SPLINE
  5
142
330
1F
100
AcDbEntity
  8
0
  6
Continuous
 62
     7
370
    15
100
AcDbSpline
210
0.0
220
0.0
230
1.0
 70
     8
 71
     3
 72
    10
 73
     6
 74
     0
 42
0.00000001
 43
0.00000001
 12
1.0
 22
0.0
 32
0.0
 13
1.0
 23
0.0
 33
0.0
 40
0.0
 40
0.0
 40
0.0
 40
0.0
 40
0.5
 40
0.5
 40
1.0
 40
1.0
 40
1.0
 40
1.0
 10
511.1617324857129
 20
540.355405890652
 30
0.0
 10
511.4889062468244
 20
540.7778517839013
 30
0.0
 10
511.7584487907427
 20
541.2033833844331
 30
0.0
 10
512.1313812990011
 20
542.0633427749193
 30
0.0
 10
512.2335292554371
 20
542.4978370648197
 30
0.0
 10
512.2335292554371
 20
542.9378005901175
 30
0.0
  0
LINE
  5
143
330
1F
100
AcDbEntity
  8
0
  6
Continuous
 62
     7
370
    15
100
AcDbLine
 10
512.2335261365
 20
533.4965869025
 30
0.0
 11
512.2335261365
 21
542.9377987221
 31
0.0
  0
SPLINE
  5
144
330
1F
100
AcDbEntity
  8
0
  6
Continuous
 62
     7
370
    15
100
AcDbSpline
210
0.0
220
0.0
230
1.0
 70
     8
 71
     3
 72
    10
 73
     6
 74
     0
 42
0.00000001
 43
0.00000001
 12
1.0
 22
0.0
 32
0.0
 13
1.0
 23
0.0
 33
0.0
 40
0.0
 40
0.0
 40
0.0
 40
0.0
 40
0.5
 40
0.5
 40
1.0
 40
1.0
 40
1.0
 40
1.0
 10
605.442101744006
 20
540.3554058906519
 30
0.0
 10
605.7692755051177
 20
540.7778517839013
 30
0.0
 10
606.0388180490359
 20
541.2033833844331
 30
0.0
 10
606.4117505572941
 20
542.0633427749192
 30
0.0
 10
606.5138985137303
 20
542.4978370648197
 30
0.0
 10
606.5138985137303
 20
542.9378005901175
 30
0.0
  0
LINE
  5
145
330
1F
100
AcDbEntity
  8
0
  6
Continuous
 62
     7
370
    15
100
AcDbLine
 10
606.5138994416
 20
533.4965869025
 30
0.0
 11
606.5138994416
 21
542.9377987221
 31
0.0
  0
SPLINE
  5
146
330
1F
100
AcDbEntity
  8
0
  6
Continuous
 62
     7
370
    15
100
AcDbSpline
210
0.0
220
0.0
230
1.0
 70
     8
 71
     3
 72
    10
 73
     6
 74
     0
 42
0.00000001
 43
0.00000001
 12
1.0
 22
0.0
 32
0.0
 13
1.0
 23
0.0
 33
0.0
 40
0.0
 40
0.0
 40
0.0
 40
0.0
 40
0.5
 40
0.5
 40
1.0
 40
1.0
 40
1.0
 40
1.0
 10
692.1617324857128
 20
540.3554058906519
 30
0.0
 10
692.4889062468244
 20
540.7778517839013
 30
0.0
 10
692.7584487907427
 20
541.2033833844331
 30
0.0
 10
693.131381299001
 20
542.0633427749192
 30
0.0
 10
693.2335292554371
 20
542.4978370648197
 30
0.0
 10
693.233529255437
 20
542.9378005901175
 30
0.0
  0
LINE
  5
147
330
1F
100
AcDbEntity
  8
0
  6
Continuous
 62
     7
370
    15
100
AcDbLine
 10
693.233527865
 20
533.4965869025
 30
0.0
 11
693.233527865
 21
542.9377987221
 31
0.0
  0
LINE
  5
148
330
1F
100
AcDbEntity
  8
0
  6
Continuous
 62
     7
370
    15
100
AcDbLine
 10
461.2335270901
 20
543.3609097436
 30
0.0
 11
461.2335270901
 21
534.78828661
 31
0.0
  0
SPLINE
  5
149
330
1F
100
AcDbEntity
  8
0
  6
Continuous
 62
     7
370
    15
100
AcDbSpline
210
0.0
220
0.0
230
1.0
 70
     8
 71
     3
 72
    12
 73
     8
 74
     0
 42
0.00000001
 43
0.00000001
 12
1.0
 22
0.0
 32
0.0
 13
1.0
 23
0.0
 33
0.0
 40
0.0
 40
0.0
 40
0.0
 40
0.0
 40
0.2500000000000011
 40
0.2500000000000011
 40
0.5000000000000022
 40
0.5000000000000022
 40
1.0
 40
1.0
 40
1.0
 40
1.0
 10
461.2335292554371
 20
543.3609082317682
 30
0.0
 10
461.2335292554371
 20
543.2028612992423
 30
0.0
 10
461.2588625087303
 20
543.0441052902758
 30
0.0
 10
461.356899395807
 20
542.7300528357871
 30
0.0
 10
461.4295087647359
 20
542.5740769858611
 30
0.0
 10
461.7095554636699
 20
542.1089196961253
 30
0.0
 10
461.9789692925757
 20
541.8024977372445
 30
0.0
 10
462.3053260251615
 20
541.4986111403081
 30
0.0
  0
LINE
  5
14A
330
1F
100
AcDbEntity
  8
0
  6
Continuous
 62
     7
370
    15
100
AcDbLine
 10
642.2335288187
 20
543.3609097436
 30
0.0
 11
642.2335288187
 21
534.78828661
 31
0.0
  0
SPLINE
  5
14B
330
1F
100
AcDbEntity
  8
0
  6
Continuous
 62
     7
370
    15
100
AcDbSpline
210
0.0
220
0.0
230
1.0
 70
     8
 71
     3
 72
    12
 73
     8
 74
     0
 42
0.00000001
 43
0.00000001
 12
1.0
 22
0.0
 32
0.0
 13
1.0
 23
0.0
 33
0.0
 40
0.0
 40
0.0
 40
0.0
 40
0.0
 40
0.2500000000000011
 40
0.2500000000000011
 40
0.5000000000000022
 40
0.5000000000000022
 40
1.0
 40
1.0
 40
1.0
 40
1.0
 10
642.2335292554371
 20
543.3609082317682
 30
0.0
 10
642.2335292554371
 20
543.2028612992423
 30
0.0
 10
642.2588625087302
 20
543.0441052902758
 30
0.0
 10
642.356899395807
 20
542.7300528357871
 30
0.0
 10
642.4295087647358
 20
542.5740769858611
 30
0.0
 10
642.7095554636699
 20
542.1089196961253
 30
0.0
 10
642.9789692925756
 20
541.8024977372445
 30
0.0
 10
643.3053260251614
 20
541.4986111403081
 30
0.0
  0
SPLINE
  5
14C
330
1F
100
AcDbEntity
  8
0
  6
Continuous
 62
     7
370
    15
100
AcDbSpline
210
0.0
220
0.0
230
1.0
 70
     8
 71
     3
 72
    12
 73
     8
 74
     0
 42
0.00000001
 43
0.00000001
 12
1.0
 22
0.0
 32
0.0
 13
1.0
 23
0.0
 33
0.0
 40
0.0
 40
0.0
 40
0.0
 40
0.0
 40
0.2499999999999997
 40
0.2499999999999997
 40
0.4999999999999993
 40
0.4999999999999993
 40
1.0
 40
1.0
 40
1.0
 40
1.0
 10
512.2335292554371
 20
431.5343808311377
 30
0.0
 10
512.2335292554372
 20
431.6170670562412
 30
0.0
 10
512.2086378479771
 20
431.7000181357886
 30
0.0
 10
512.1097147236935
 20
431.8664431672568
 30
0.0
 10
512.0361942065033
 20
431.949047127778
 30
0.0
 10
511.7544395583499
 20
432.1940655082821
 30
0.0
 10
511.4851213355884
 20
432.3542850513223
 30
0.0
 10
511.1617324857126
 20
432.5124301780287
 30
0.0
  0
LINE
  5
14D
330
1F
100
AcDbEntity
  8
0
  6
Continuous
 62
     7
370
    15
100
AcDbLine
 10
512.2335261365
 20
431.5343818799
 30
0.0
 11
512.2335261365
 21
438.9413672671
 31
0.0
  0
SPLINE
  5
14E
330
1F
100
AcDbEntity
  8
0
  6
Continuous
 62
     7
370
    15
100
AcDbSpline
210
0.0
220
0.0
230
1.0
 70
     8
 71
     3
 72
    12
 73
     8
 74
     0
 42
0.00000001
 43
0.00000001
 12
1.0
 22
0.0
 32
0.0
 13
1.0
 23
0.0
 33
0.0
 40
0.0
 40
0.0
 40
0.0
 40
0.0
 40
0.2499999999999998
 40
0.2499999999999998
 40
0.4999999999999997
 40
0.4999999999999997
 40
1.0
 40
1.0
 40
1.0
 40
1.0
 10
606.5138985137303
 20
431.5343808311377
 30
0.0
 10
606.5138985137303
 20
431.6170670562412
 30
0.0
 10
606.4890071062702
 20
431.7000181357886
 30
0.0
 10
606.3900839819865
 20
431.8664431672568
 30
0.0
 10
606.3165634647964
 20
431.949047127778
 30
0.0
 10
606.0348088166429
 20
432.1940655082821
 30
0.0
 10
605.7654905938816
 20
432.3542850513223
 30
0.0
 10
605.4421017440059
 20
432.5124301780287
 30
0.0
  0
LINE
  5
14F
330
1F
100
AcDbEntity
  8
0
  6
Continuous
 62
     7
370
    15
100
AcDbLine
 10
606.5138994416
 20
431.5343818799
 30
0.0
 11
606.5138994416
 21
438.9413672671
 31
0.0
  0
SPLINE
  5
150
330
1F
100
AcDbEntity
  8
0
  6
Continuous
 62
     7
370
    15
100
AcDbSpline
210
0.0
220
0.0
230
1.0
 70
     8
 71
     3
 72
    12
 73
     8
 74
     0
 42
0.00000001
 43
0.00000001
 12
1.0
 22
0.0
 32
0.0
 13
1.0
 23
0.0
 33
0.0
 40
0.0
 40
0.0
 40
0.0
 40
0.0
 40
0.2499999999999999
 40
0.2499999999999999
 40
0.4999999999999998
 40
0.4999999999999998
 40
1.0
 40
1.0
 40
1.0
 40
1.0
 10
693.233529255437
 20
431.5343808311376
 30
0.0
 10
693.2335292554371
 20
431.6170670562412
 30
0.0
 10
693.208637847977
 20
431.7000181357886
 30
0.0
 10
693.1097147236933
 20
431.8664431672568
 30
0.0
 10
693.0361942065032
 20
431.949047127778
 30
0.0
 10
692.7544395583498
 20
432.1940655082821
 30
0.0
 10
692.4851213355885
 20
432.3542850513222
 30
0.0
 10
692.1617324857126
 20
432.5124301780287
 30
0.0
  0
LINE
  5
151
330
1F
100
AcDbEntity
  8
0
  6
Continuous
 62
     7
370
    15
100
AcDbLine
 10
693.233527865
 20
431.5343818799
 30
0.0
 11
693.233527865
 21
438.9413672671
 31
0.0
  0
SPLINE
  5
152
330
1F
100
AcDbEntity
  8
0
  6
Continuous
 62
     7
370
    15
100
AcDbSpline
210
0.0
220
0.0
230
1.0
 70
     8
 71
     3
 72
    12
 73
     8
 74
     0
 42
0.00000001
 43
0.00000001
 12
1.0
 22
0.0
 32
0.0
 13
1.0
 23
0.0
 33
0.0
 40
0.0
 40
0.0
 40
0.0
 40
0.0
 40
0.2499999999999991
 40
0.2499999999999991
 40
0.4999999999999982
 40
0.4999999999999982
 40
1.0
 40
1.0
 40
1.0
 40
1.0
 10
693.233529255437
 20
542.9378005901175
 30
0.0
 10
693.2335292554371
 20
543.1569598009081
 30
0.0
 10
693.208196002144
 20
543.3771022679415
 30
0.0
 10
693.1101591150672
 20
543.8125899232381
 30
0.0
 10
693.0375497461383
 20
544.0288772223703
 30
0.0
 10
692.7575030472043
 20
544.6738976785261
 30
0.0
 10
692.4880892182986
 20
545.0988043414008
 30
0.0
 10
692.1617324857128
 20
545.5201952895831
 30
0.0
  0
LINE
  5
153
330
1F
100
AcDbEntity
  8
0
  6
Continuous
 62
     7
370
    15
100
AcDbLine
 10
692.1617320438
 20
545.5201923087
 30
0.0
 11
679.2335292955
 21
545.5201923087
 31
0.0
  0
SPLINE
  5
154
330
1F
100
AcDbEntity
  8
0
  6
Continuous
 62
     7
370
    15
100
AcDbSpline
210
0.0
220
0.0
230
1.0
 70
     8
 71
     3
 72
    12
 73
     8
 74
     0
 42
0.00000001
 43
0.00000001
 12
1.0
 22
0.0
 32
0.0
 13
1.0
 23
0.0
 33
0.0
 40
0.0
 40
0.0
 40
0.0
 40
0.0
 40
0.2500000000000007
 40
0.2500000000000007
 40
0.5000000000000013
 40
0.5000000000000013
 40
1.0
 40
1.0
 40
1.0
 40
1.0
 10
606.5138985137303
 20
542.9378005901175
 30
0.0
 10
606.5138985137303
 20
543.1569598009081
 30
0.0
 10
606.4885652604371
 20
543.3771022679415
 30
0.0
 10
606.3905283733603
 20
543.812589923238
 30
0.0
 10
606.3179190044315
 20
544.0288772223703
 30
0.0
 10
606.0378723054976
 20
544.6738976785261
 30
0.0
 10
605.7684584765917
 20
545.0988043414008
 30
0.0
 10
605.4421017440059
 20
545.5201952895831
 30
0.0
  0
LINE
  5
155
330
1F
100
AcDbEntity
  8
0
  6
Continuous
 62
     7
370
    15
100
AcDbLine
 10
605.4421017577
 20
545.5201923087
 30
0.0
 11
592.5138985438
 21
545.5201923087
 31
0.0
  0
SPLINE
  5
156
330
1F
100
AcDbEntity
  8
0
  6
Continuous
 62
     7
370
    15
100
AcDbSpline
210
0.0
220
0.0
230
1.0
 70
     8
 71
     3
 72
    12
 73
     8
 74
     0
 42
0.00000001
 43
0.00000001
 12
1.0
 22
0.0
 32
0.0
 13
1.0
 23
0.0
 33
0.0
 40
0.0
 40
0.0
 40
0.0
 40
0.0
 40
0.2499999999999996
 40
0.2499999999999996
 40
0.4999999999999991
 40
0.4999999999999991
 40
1.0
 40
1.0
 40
1.0
 40
1.0
 10
512.2335292554371
 20
542.9378005901175
 30
0.0
 10
512.2335292554372
 20
543.1569598009081
 30
0.0
 10
512.208196002144
 20
543.3771022679415
 30
0.0
 10
512.1101591150672
 20
543.8125899232381
 30
0.0
 10
512.0375497461383
 20
544.0288772223703
 30
0.0
 10
511.7575030472044
 20
544.6738976785263
 30
0.0
 10
511.4880892182986
 20
545.0988043414009
 30
0.0
 10
511.1617324857127
 20
545.5201952895831
 30
0.0
  0
LINE
  5
157
330
1F
100
AcDbEntity
  8
0
  6
Continuous
 62
     7
370
    15
100
AcDbLine
 10
511.1617303153
 20
545.5201923087
 30
0.0
 11
498.233527567
 21
545.5201923087
 31
0.0
  0
SPLINE
  5
158
330
1F
100
AcDbEntity
  8
0
  6
Continuous
 62
     7
370
    15
100
AcDbSpline
210
0.0
220
0.0
230
1.0
 70
     8
 71
     3
 72
    10
 73
     6
 74
     0
 42
0.00000001
 43
0.00000001
 12
1.0
 22
0.0
 32
0.0
 13
1.0
 23
0.0
 33
0.0
 40
0.0
 40
0.0
 40
0.0
 40
0.0
 40
0.5
 40
0.5
 40
1.0
 40
1.0
 40
1.0
 40
1.0
 10
462.3053260251613
 20
545.2232053232283
 30
0.0
 10
461.9781522640498
 20
544.9185579513684
 30
0.0
 10
461.7086097201315
 20
544.6116853179329
 30
0.0
 10
461.3356772118732
 20
543.9915245531947
 30
0.0
 10
461.2335292554371
 20
543.6781884653748
 30
0.0
 10
461.2335292554371
 20
543.3609082317682
 30
0.0
  0
LINE
  5
159
330
1F
100
AcDbEntity
  8
0
  6
Continuous
 62
     7
370
    15
100
AcDbLine
 10
462.3053229113
 20
545.2232047156
 30
0.0
 11
475.2335256596
 21
545.2232047156
 31
0.0
  0
SPLINE
  5
15A
330
1F
100
AcDbEntity
  8
0
  6
Continuous
 62
     7
370
    15
100
AcDbSpline
210
0.0
220
0.0
230
1.0
 70
     8
 71
     3
 72
    10
 73
     6
 74
     0
 42
0.00000001
 43
0.00000001
 12
1.0
 22
0.0
 32
0.0
 13
1.0
 23
0.0
 33
0.0
 40
0.0
 40
0.0
 40
0.0
 40
0.0
 40
0.5
 40
0.5
 40
1.0
 40
1.0
 40
1.0
 40
1.0
 10
643.3053260251613
 20
545.2232053232283
 30
0.0
 10
642.9781522640498
 20
544.9185579513683
 30
0.0
 10
642.7086097201316
 20
544.6116853179328
 30
0.0
 10
642.3356772118731
 20
543.9915245531946
 30
0.0
 10
642.2335292554371
 20
543.6781884653748
 30
0.0
 10
642.2335292554371
 20
543.3609082317682
 30
0.0
  0
LINE
  5
15B
330
1F
100
AcDbEntity
  8
0
  6
Continuous
 62
     7
370
    15
100
AcDbLine
 10
643.3053246399
 20
545.2232047156
 30
0.0
 11
656.2335273882
 21
545.2232047156
 31
0.0
  0
SPLINE
  5
15C
330
1F
100
AcDbEntity
  8
0
  6
Continuous
 62
     7
370
    15
100
AcDbSpline
210
0.0
220
0.0
230
1.0
 70
     8
 71
     3
 72
    12
 73
     8
 74
     0
 42
0.00000001
 43
0.00000001
 12
1.0
 22
0.0
 32
0.0
 13
1.0
 23
0.0
 33
0.0
 40
0.0
 40
0.0
 40
0.0
 40
0.0
 40
0.2500000000000014
 40
0.2500000000000014
 40
0.5000000000000028
 40
0.5000000000000028
 40
1.0
 40
1.0
 40
1.0
 40
1.0
 10
461.2335292554371
 20
431.79158168667
 30
0.0
 10
461.2335292554371
 20
431.6458471430529
 30
0.0
 10
461.2584206628972
 20
431.4996457932485
 30
0.0
 10
461.3573437871809
 20
431.2063215306268
 30
0.0
 10
461.430864304371
 20
431.0607319784075
 30
0.0
 10
461.7126189525243
 20
430.6288868697957
 30
0.0
 10
461.9819371752858
 20
430.3464997859223
 30
0.0
 10
462.3053260251616
 20
430.0677688626403
 30
0.0
  0
LINE
  5
15D
330
1F
100
AcDbEntity
  8
0
  6
Continuous
 62
     7
370
    15
100
AcDbLine
 10
462.3053229113
 20
430.067768617
 30
0.0
 11
475.2335256596
 21
430.067768617
 31
0.0
  0
SPLINE
  5
15E
330
1F
100
AcDbEntity
  8
0
  6
Continuous
 62
     7
370
    15
100
AcDbSpline
210
0.0
220
0.0
230
1.0
 70
     8
 71
     3
 72
    12
 73
     8
 74
     0
 42
0.00000001
 43
0.00000001
 12
1.0
 22
0.0
 32
0.0
 13
1.0
 23
0.0
 33
0.0
 40
0.0
 40
0.0
 40
0.0
 40
0.0
 40
0.2499999999999994
 40
0.2499999999999994
 40
0.4999999999999989
 40
0.4999999999999989
 40
1.0
 40
1.0
 40
1.0
 40
1.0
 10
642.2335292554371
 20
431.79158168667
 30
0.0
 10
642.2335292554371
 20
431.6458471430529
 30
0.0
 10
642.258420662897
 20
431.4996457932485
 30
0.0
 10
642.3573437871808
 20
431.2063215306267
 30
0.0
 10
642.4308643043709
 20
431.0607319784075
 30
0.0
 10
642.7126189525243
 20
430.6288868697957
 30
0.0
 10
642.9819371752857
 20
430.3464997859223
 30
0.0
 10
643.3053260251615
 20
430.0677688626403
 30
0.0
  0
LINE
  5
15F
330
1F
100
AcDbEntity
  8
0
  6
Continuous
 62
     7
370
    15
100
AcDbLine
 10
643.3053246399
 20
430.067768617
 30
0.0
 11
656.2335273882
 21
430.067768617
 31
0.0
  0
SPLINE
  5
160
330
1F
100
AcDbEntity
  8
0
  6
Continuous
 62
     7
370
    15
100
AcDbSpline
210
0.0
220
0.0
230
1.0
 70
     8
 71
     3
 72
    13
 73
     9
 74
     0
 42
0.00000001
 43
0.00000001
 12
1.0
 22
0.0
 32
0.0
 13
1.0
 23
0.0
 33
0.0
 40
0.0
 40
0.0
 40
0.0
 40
0.0
 40
0.2407576423322317
 40
0.4814945653633018
 40
0.6433792750316303
 40
0.8053090545742025
 40
0.9671780432131697
 40
1.0
 40
1.0
 40
1.0
 40
1.0
 10
511.1617303152833
 20
456.2720817685367
 30
0.0
 10
511.2759956560963
 20
456.2139932972144
 30
0.0
 10
511.5045165041898
 20
456.0978213535909
 30
0.0
 10
511.7529956662892
 20
455.9405281008488
 30
0.0
 10
511.9349803239982
 20
455.8015036122346
 30
0.0
 10
512.0581455750242
 20
455.6811493139742
 30
0.0
 10
512.1343781210904
 20
455.5924494437919
 30
0.0
 10
512.156561968331
 20
455.5438023551375
 30
0.0
 10
512.1603018303666
 20
455.5356011897566
 30
0.0
  0
LINE
  5
161
330
1F
100
AcDbEntity
  8
0
  6
Continuous
 62
     7
370
    15
100
AcDbLine
 10
512.2335261365
 20
450.8211932317
 30
0.0
 11
512.2335261365
 21
455.4142060861
 31
0.0
  0
SPLINE
  5
162
330
1F
100
AcDbEntity
  8
0
  6
Continuous
 62
     7
370
    15
100
AcDbSpline
210
0.0
220
0.0
230
1.0
 70
     8
 71
     3
 72
    13
 73
     9
 74
     0
 42
0.00000001
 43
0.00000001
 12
1.0
 22
0.0
 32
0.0
 13
1.0
 23
0.0
 33
0.0
 40
0.0
 40
0.0
 40
0.0
 40
0.0
 40
0.2407575461713206
 40
0.4814944638153863
 40
0.6433792959750314
 40
0.8053090208865271
 40
0.9671780439476313
 40
1.0
 40
1.0
 40
1.0
 40
1.0
 10
605.4421017577205
 20
456.2720817685367
 30
0.0
 10
605.5563665482983
 20
456.2139932969046
 30
0.0
 10
605.7848863390473
 20
456.097821330762
 30
0.0
 10
606.0333629946673
 20
455.940528013826
 30
0.0
 10
606.2153556865607
 20
455.8015037047421
 30
0.0
 10
606.3385152153966
 20
455.6811492564962
 30
0.0
 10
606.4147515662029
 20
455.5924494558124
 30
0.0
 10
606.4369352942399
 20
455.5438023555003
 30
0.0
 10
606.4406751354489
 20
455.5356011897566
 30
0.0
  0
LINE
  5
163
330
1F
100
AcDbEntity
  8
0
  6
Continuous
 62
     7
370
    15
100
AcDbLine
 10
606.5138994416
 20
450.8211932317
 30
0.0
 11
606.5138994416
 21
455.4142060861
 31
0.0
  0
SPLINE
  5
164
330
1F
100
AcDbEntity
  8
0
  6
Continuous
 62
     7
370
    15
100
AcDbSpline
210
0.0
220
0.0
230
1.0
 70
     8
 71
     3
 72
    13
 73
     9
 74
     0
 42
0.00000001
 43
0.00000001
 12
1.0
 22
0.0
 32
0.0
 13
1.0
 23
0.0
 33
0.0
 40
0.0
 40
0.0
 40
0.0
 40
0.0
 40
0.2407576423322317
 40
0.4814945653633018
 40
0.6433792750316303
 40
0.8053090545742025
 40
0.9671780432131697
 40
1.0
 40
1.0
 40
1.0
 40
1.0
 10
692.161732043818
 20
456.2720817685367
 30
0.0
 10
692.2759973846308
 20
456.2139932972144
 30
0.0
 10
692.5045182327245
 20
456.0978213535909
 30
0.0
 10
692.7529973948239
 20
455.9405281008488
 30
0.0
 10
692.9349820525329
 20
455.8015036122346
 30
0.0
 10
693.0581473035589
 20
455.6811493139742
 30
0.0
 10
693.1343798496252
 20
455.5924494437919
 30
0.0
 10
693.1565636968656
 20
455.5438023551375
 30
0.0
 10
693.1603035589013
 20
455.5356011897566
 30
0.0
  0
LINE
  5
165
330
1F
100
AcDbEntity
  8
0
  6
Continuous
 62
     7
370
    15
100
AcDbLine
 10
693.233527865
 20
450.8211932317
 30
0.0
 11
693.233527865
 21
455.4142060861
 31
0.0
  0
SPLINE
  5
166
330
1F
100
AcDbEntity
  8
0
  6
Continuous
 62
     7
370
    15
100
AcDbSpline
210
0.0
220
0.0
230
1.0
 70
     8
 71
     3
 72
    11
 73
     7
 74
     0
 42
0.00000001
 43
0.00000001
 12
1.0
 22
0.0
 32
0.0
 13
1.0
 23
0.0
 33
0.0
 40
0.0
 40
0.0
 40
0.0
 40
0.0
 40
0.2069878595550497
 40
0.5407981235361345
 40
0.7703048481518996
 40
1.0
 40
1.0
 40
1.0
 40
1.0
 10
461.4671474953446
 20
455.8038230225684
 30
0.0
 10
461.5051675398203
 20
455.8707972583617
 30
0.0
 10
461.6045026832114
 20
456.0457811493015
 30
0.0
 10
461.8153302490693
 20
456.2921313762965
 30
0.0
 10
462.0604544431489
 20
456.5439510466298
 30
0.0
 10
462.2236777631196
 20
456.6883934441896
 30
0.0
 10
462.3053229113374
 20
456.7606442779543
 30
0.0
  0
LINE
  5
167
330
1F
100
AcDbEntity
  8
0
  6
Continuous
 62
     7
370
    15
100
AcDbLine
 10
461.2335270901
 20
455.4142060861
 30
0.0
 11
461.2335270901
 21
451.8112384886
 31
0.0
  0
SPLINE
  5
168
330
1F
100
AcDbEntity
  8
0
  6
Continuous
 62
     7
370
    15
100
AcDbSpline
210
0.0
220
0.0
230
1.0
 70
     8
 71
     3
 72
    11
 73
     7
 74
     0
 42
0.00000001
 43
0.00000001
 12
1.0
 22
0.0
 32
0.0
 13
1.0
 23
0.0
 33
0.0
 40
0.0
 40
0.0
 40
0.0
 40
0.0
 40
0.2069879689083604
 40
0.540797993758592
 40
0.7703051332012089
 40
1.0
 40
1.0
 40
1.0
 40
1.0
 10
642.467145498589
 20
455.8038230225684
 30
0.0
 10
642.5051674354954
 20
455.8707972266924
 30
0.0
 10
642.6045074469281
 20
456.0457809004533
 30
0.0
 10
642.8153229891873
 20
456.2921318966017
 30
0.0
 10
643.0604631266073
 20
456.5439506115733
 30
0.0
 10
643.2236818935125
 20
456.688393372509
 30
0.0
 10
643.3053246398721
 20
456.7606442779543
 30
0.0
  0
LINE
  5
169
330
1F
100
AcDbEntity
  8
0
  6
Continuous
 62
     7
370
    15
100
AcDbLine
 10
642.2335288187
 20
455.4142060861
 30
0.0
 11
642.2335288187
 21
451.8112384886
 31
0.0
  0
SPLINE
  5
16A
330
1F
100
AcDbEntity
  8
0
  6
Continuous
 62
     7
370
    15
100
AcDbSpline
210
0.0
220
0.0
230
1.0
 70
     8
 71
     3
 72
    10
 73
     6
 74
     0
 42
0.00000001
 43
0.00000001
 12
1.0
 22
0.0
 32
0.0
 13
1.0
 23
0.0
 33
0.0
 40
0.0
 40
0.0
 40
0.0
 40
0.0
 40
0.5
 40
0.5
 40
1.0
 40
1.0
 40
1.0
 40
1.0
 10
511.1617324857127
 20
430.5563314842466
 30
0.0
 10
511.4870162824503
 20
430.7154032867234
 30
0.0
 10
511.7598432396493
 20
430.8783240183669
 30
0.0
 10
512.1328962021921
 20
431.2049030968334
 30
0.0
 10
512.2335292554371
 20
431.369106576194
 30
0.0
 10
512.2335292554371
 20
431.5343808311377
 30
0.0
  0
LINE
  5
16B
330
1F
100
AcDbEntity
  8
0
  6
Continuous
 62
     7
370
    15
100
AcDbLine
 10
511.1617303153
 20
430.5563329891
 30
0.0
 11
498.233527567
 21
430.5563329891
 31
0.0
  0
SPLINE
  5
16C
330
1F
100
AcDbEntity
  8
0
  6
Continuous
 62
     7
370
    15
100
AcDbSpline
210
0.0
220
0.0
230
1.0
 70
     8
 71
     3
 72
    10
 73
     6
 74
     0
 42
0.00000001
 43
0.00000001
 12
1.0
 22
0.0
 32
0.0
 13
1.0
 23
0.0
 33
0.0
 40
0.0
 40
0.0
 40
0.0
 40
0.0
 40
0.5
 40
0.5
 40
1.0
 40
1.0
 40
1.0
 40
1.0
 10
605.4421017440059
 20
430.5563314842466
 30
0.0
 10
605.7673855407434
 20
430.7154032867234
 30
0.0
 10
606.0402124979424
 20
430.8783240183669
 30
0.0
 10
606.4132654604853
 20
431.2049030968334
 30
0.0
 10
606.5138985137303
 20
431.369106576194
 30
0.0
 10
606.5138985137303
 20
431.5343808311377
 30
0.0
  0
LINE
  5
16D
330
1F
100
AcDbEntity
  8
0
  6
Continuous
 62
     7
370
    15
100
AcDbLine
 10
605.4421017577
 20
430.5563329891
 30
0.0
 11
592.5138985438
 21
430.5563329891
 31
0.0
  0
SPLINE
  5
16E
330
1F
100
AcDbEntity
  8
0
  6
Continuous
 62
     7
370
    15
100
AcDbSpline
210
0.0
220
0.0
230
1.0
 70
     8
 71
     3
 72
    10
 73
     6
 74
     0
 42
0.00000001
 43
0.00000001
 12
1.0
 22
0.0
 32
0.0
 13
1.0
 23
0.0
 33
0.0
 40
0.0
 40
0.0
 40
0.0
 40
0.0
 40
0.5
 40
0.5
 40
1.0
 40
1.0
 40
1.0
 40
1.0
 10
692.1617324857127
 20
430.5563314842466
 30
0.0
 10
692.4870162824501
 20
430.7154032867234
 30
0.0
 10
692.7598432396494
 20
430.8783240183669
 30
0.0
 10
693.132896202192
 20
431.2049030968334
 30
0.0
 10
693.2335292554371
 20
431.369106576194
 30
0.0
 10
693.233529255437
 20
431.5343808311376
 30
0.0
  0
LINE
  5
16F
330
1F
100
AcDbEntity
  8
0
  6
Continuous
 62
     7
370
    15
100
AcDbLine
 10
692.1617320438
 20
430.5563329891
 30
0.0
 11
679.2335292955
 21
430.5563329891
 31
0.0
  0
SPLINE
  5
170
330
1F
100
AcDbEntity
  8
0
  6
Continuous
 62
     7
370
    15
100
AcDbSpline
210
0.0
220
0.0
230
1.0
 70
     8
 71
     3
 72
    11
 73
     7
 74
     0
 42
0.00000001
 43
0.00000001
 12
1.0
 22
0.0
 32
0.0
 13
1.0
 23
0.0
 33
0.0
 40
0.0
 40
0.0
 40
0.0
 40
0.0
 40
0.3163739454509814
 40
0.6328378411647105
 40
0.9491360424767429
 40
0.9999999999999999
 40
0.9999999999999999
 40
0.9999999999999999
 40
0.9999999999999999
 10
462.3053229113374
 20
518.381903244579
 30
0.0
 10
462.2011263219143
 20
518.4821412046638
 30
0.0
 10
461.9927035182816
 20
518.6826456241172
 30
0.0
 10
461.7366718201512
 20
518.9871584168789
 30
0.0
 10
461.5703174856442
 20
519.207738779069
 30
0.0
 10
461.510588633648
 20
519.3274336872129
 30
0.0
 10
461.5023142357621
 20
519.3440153435113
 30
0.0
  0
LINE
  5
171
330
1F
100
AcDbEntity
  8
0
  6
Continuous
 62
     7
370
    15
100
AcDbLine
 10
461.2335270901
 20
523.2299327091
 30
0.0
 11
461.2335270901
 21
519.8025538758
 31
0.0
  0
SPLINE
  5
172
330
1F
100
AcDbEntity
  8
0
  6
Continuous
 62
     7
370
    15
100
AcDbSpline
210
0.0
220
0.0
230
1.0
 70
     8
 71
     3
 72
    11
 73
     7
 74
     0
 42
0.00000001
 43
0.00000001
 12
1.0
 22
0.0
 32
0.0
 13
1.0
 23
0.0
 33
0.0
 40
0.0
 40
0.0
 40
0.0
 40
0.0
 40
0.3163740024148763
 40
0.6328377267936082
 40
0.949136171320464
 40
1.0
 40
1.0
 40
1.0
 40
1.0
 10
643.3053246398721
 20
518.381903244579
 30
0.0
 10
643.2011272680343
 20
518.4821411638293
 30
0.0
 10
642.9927029745447
 20
518.6826454292643
 30
0.0
 10
642.7366830057455
 20
518.9871588197959
 30
0.0
 10
642.5703119309547
 20
519.2077383996174
 30
0.0
 10
642.5105927273254
 20
519.3274336824716
 30
0.0
 10
642.5023196895871
 20
519.3440153435113
 30
0.0
  0
LINE
  5
173
330
1F
100
AcDbEntity
  8
0
  6
Continuous
 62
     7
370
    15
100
AcDbLine
 10
642.2335288187
 20
523.2299327091
 30
0.0
 11
642.2335288187
 21
519.8025538758
 31
0.0
  0
LINE
  5
174
330
1F
100
AcDbEntity
  8
0
  6
Continuous
 62
     7
370
    15
100
AcDbLine
 10
412.2335320969
 20
539.802557154
 30
0.0
 11
412.2335320969
 21
523.8025545314
 31
0.0
  0
LINE
  5
175
330
1F
100
AcDbEntity
  8
0
  6
Continuous
 62
     7
370
    15
100
AcDbLine
 10
742.2335303088
 20
539.802557154
 30
0.0
 11
742.2335303088
 21
523.8025545314
 31
0.0
  0
LINE
  5
176
330
1F
100
AcDbEntity
  8
0
  6
Continuous
 62
     7
370
    15
100
AcDbLine
 10
412.2335320969
 20
451.4142063618
 30
0.0
 11
412.2335320969
 21
435.4142065332
 31
0.0
  0
LINE
  5
177
330
1F
100
AcDbEntity
  8
0
  6
Continuous
 62
     7
370
    15
100
AcDbLine
 10
742.2335303088
 20
451.4142063618
 30
0.0
 11
742.2335303088
 21
435.4142065332
 31
0.0
  0
SPLINE
  5
178
330
1F
100
AcDbEntity
  8
0
  6
Continuous
 62
     7
370
    15
100
AcDbSpline
210
0.0
220
0.0
230
1.0
 70
     8
 71
     3
 72
     9
 73
     5
 74
     0
 42
0.00000001
 43
0.00000001
 12
1.0
 22
0.0
 32
0.0
 13
1.0
 23
0.0
 33
0.0
 40
0.0
 40
0.0
 40
0.0
 40
0.0
 40
0.4942097342108293
 40
1.0
 40
1.0
 40
1.0
 40
1.0
 10
511.6949832697663
 20
518.870646430576
 30
0.0
 10
511.6162814759132
 20
518.7403462609658
 30
0.0
 10
511.4570337144768
 20
518.4766926730447
 30
0.0
 10
511.2609218083883
 20
518.2165098601848
 30
0.0
 10
511.1617303152833
 20
518.0849119261147
 30
0.0
  0
LINE
  5
179
330
1F
100
AcDbEntity
  8
0
  6
Continuous
 62
     7
370
    15
100
AcDbLine
 10
512.2335261365
 20
519.8025538758
 30
0.0
 11
512.2335261365
 21
522.3613402978
 31
0.0
  0
SPLINE
  5
17A
330
1F
100
AcDbEntity
  8
0
  6
Continuous
 62
     7
370
    15
100
AcDbSpline
210
0.0
220
0.0
230
1.0
 70
     8
 71
     3
 72
     9
 73
     5
 74
     0
 42
0.00000001
 43
0.00000001
 12
1.0
 22
0.0
 32
0.0
 13
1.0
 23
0.0
 33
0.0
 40
0.0
 40
0.0
 40
0.0
 40
0.0
 40
0.4942097342108293
 40
1.0
 40
1.0
 40
1.0
 40
1.0
 10
692.694984998301
 20
518.870646430576
 30
0.0
 10
692.616283204448
 20
518.7403462609658
 30
0.0
 10
692.4570354430115
 20
518.4766926730447
 30
0.0
 10
692.2609235369231
 20
518.2165098601848
 30
0.0
 10
692.161732043818
 20
518.0849119261147
 30
0.0
  0
LINE
  5
17B
330
1F
100
AcDbEntity
  8
0
  6
Continuous
 62
     7
370
    15
100
AcDbLine
 10
693.233527865
 20
519.8025538758
 30
0.0
 11
693.233527865
 21
522.3613402978
 31
0.0
  0
SPLINE
  5
17C
330
1F
100
AcDbEntity
  8
0
  6
Continuous
 62
     7
370
    15
100
AcDbSpline
210
0.0
220
0.0
230
1.0
 70
     8
 71
     3
 72
     9
 73
     5
 74
     0
 42
0.00000001
 43
0.00000001
 12
1.0
 22
0.0
 32
0.0
 13
1.0
 23
0.0
 33
0.0
 40
0.0
 40
0.0
 40
0.0
 40
0.0
 40
0.4942097342108293
 40
1.0
 40
1.0
 40
1.0
 40
1.0
 10
605.9753547122035
 20
518.870646430576
 30
0.0
 10
605.8966529183504
 20
518.7403462609658
 30
0.0
 10
605.737405156914
 20
518.4766926730447
 30
0.0
 10
605.5412932508256
 20
518.2165098601848
 30
0.0
 10
605.4421017577205
 20
518.0849119261147
 30
0.0
  0
LINE
  5
17D
330
1F
100
AcDbEntity
  8
0
  6
Continuous
 62
     7
370
    15
100
AcDbLine
 10
606.5138994416
 20
519.8025538758
 30
0.0
 11
606.5138994416
 21
522.3613402978
 31
0.0
  0
LINE
  5
17E
330
1F
100
AcDbEntity
  8
0
  6
Continuous
 62
     7
370
    15
100
AcDbLine
 10
606.5138994416
 20
542.9377987221
 30
0.0
 11
606.5138994416
 21
543.8025578097
 31
0.0
  0
LINE
  5
17F
330
1F
100
AcDbEntity
  8
0
  6
Continuous
 62
     7
370
    15
100
AcDbLine
 10
512.2335261365
 20
542.9377987221
 30
0.0
 11
512.2335261365
 21
543.8025578097
 31
0.0
  0
LINE
  5
180
330
1F
100
AcDbEntity
  8
0
  6
Continuous
 62
     7
370
    15
100
AcDbLine
 10
693.233527865
 20
542.9377987221
 30
0.0
 11
693.233527865
 21
543.8025578097
 31
0.0
  0
LINE
  5
181
330
1F
100
AcDbEntity
  8
0
  6
Continuous
 62
     7
370
    15
100
AcDbLine
 10
461.2335270901
 20
543.8025578097
 30
0.0
 11
461.2335270901
 21
543.3609097436
 31
0.0
  0
LINE
  5
182
330
1F
100
AcDbEntity
  8
0
  6
Continuous
 62
     7
370
    15
100
AcDbLine
 10
642.2335288187
 20
543.8025578097
 30
0.0
 11
642.2335288187
 21
543.3609097436
 31
0.0
  0
LINE
  5
183
330
1F
100
AcDbEntity
  8
0
  6
Continuous
 62
     7
370
    15
100
AcDbLine
 10
461.2335270901
 20
431.7915833727
 30
0.0
 11
461.2335270901
 21
431.4142077402
 31
0.0
  0
LINE
  5
184
330
1F
100
AcDbEntity
  8
0
  6
Continuous
 62
     7
370
    15
100
AcDbLine
 10
642.2335288187
 20
431.7915833727
 30
0.0
 11
642.2335288187
 21
431.4142077402
 31
0.0
  0
LINE
  5
185
330
1F
100
AcDbEntity
  8
0
  6
Continuous
 62
     7
370
    15
100
AcDbLine
 10
555.6322826703
 20
451.4142063618
 30
0.0
 11
555.6322826703
 21
523.8025545314
 31
0.0
  0
LINE
  5
186
330
1F
100
AcDbEntity
  8
0
  6
Continuous
 62
     7
370
    15
100
AcDbLine
 10
512.2335261365
 20
431.4142077402
 30
0.0
 11
512.2335261365
 21
431.5343818799
 31
0.0
  0
LINE
  5
187
330
1F
100
AcDbEntity
  8
0
  6
Continuous
 62
     7
370
    15
100
AcDbLine
 10
606.5138994416
 20
431.4142077402
 30
0.0
 11
606.5138994416
 21
431.5343818799
 31
0.0
  0
LINE
  5
188
330
1F
100
AcDbEntity
  8
0
  6
Continuous
 62
     7
370
    15
100
AcDbLine
 10
693.233527865
 20
431.4142077402
 30
0.0
 11
693.233527865
 21
431.5343818799
 31
0.0
  0
LINE
  5
189
330
1F
100
AcDbEntity
  8
0
  6
Continuous
 62
     7
370
    15
100
AcDbLine
 10
462.260366108
 20
430.1094695166
 30
0.0
 11
462.3053229113
 21
429.993557109
 31
0.0
  0
LINE
  5
18A
330
1F
100
AcDbEntity
  8
0
  6
Continuous
 62
     7
370
    15
100
AcDbLine
 10
462.3053229113
 20
429.993557109
 30
0.0
 11
475.2335256596
 21
429.993557109
 31
0.0
  0
LINE
  5
18B
330
1F
100
AcDbEntity
  8
0
  6
Continuous
 62
     7
370
    15
100
AcDbLine
 10
643.2603641113
 20
430.1094695166
 30
0.0
 11
643.3053246399
 21
429.993557109
 31
0.0
  0
LINE
  5
18C
330
1F
100
AcDbEntity
  8
0
  6
Continuous
 62
     7
370
    15
100
AcDbLine
 10
643.3053246399
 20
429.993557109
 30
0.0
 11
656.2335273882
 21
429.993557109
 31
0.0
  0
SPLINE
  5
18D
330
1F
100
AcDbEntity
  8
0
  6
Continuous
 62
     7
370
    15
100
AcDbSpline
210
0.0
220
0.0
230
1.0
 70
     8
 71
     3
 72
     9
 73
     5
 74
     0
 42
0.00000001
 43
0.00000001
 12
1.0
 22
0.0
 32
0.0
 13
1.0
 23
0.0
 33
0.0
 40
0.0
 40
0.0
 40
0.0
 40
0.0
 40
0.625267469770706
 40
1.0
 40
1.0
 40
1.0
 40
1.0
 10
692.161732043818
 20
429.6965657904984
 30
0.0
 10
692.2671516043462
 20
429.9265518827963
 30
0.0
 10
692.4357507489117
 20
430.2943722211585
 30
0.0
 10
692.5708565005518
 20
430.6673735882185
 30
0.0
 10
692.6214850207124
 20
430.8071493342759
 30
0.0
  0
LINE
  5
18E
330
1F
100
AcDbEntity
  8
0
  6
Continuous
 62
     7
370
    15
100
AcDbLine
 10
692.1617320438
 20
429.6965657905
 30
0.0
 11
679.2335292955
 21
429.6965657905
 31
0.0
  0
SPLINE
  5
18F
330
1F
100
AcDbEntity
  8
0
  6
Continuous
 62
     7
370
    15
100
AcDbSpline
210
0.0
220
0.0
230
1.0
 70
     8
 71
     3
 72
     9
 73
     5
 74
     0
 42
0.00000001
 43
0.00000001
 12
1.0
 22
0.0
 32
0.0
 13
1.0
 23
0.0
 33
0.0
 40
0.0
 40
0.0
 40
0.0
 40
0.0
 40
0.625267469770706
 40
1.0
 40
1.0
 40
1.0
 40
1.0
 10
511.1617303152833
 20
429.6965657904984
 30
0.0
 10
511.2671498758115
 20
429.9265518827963
 30
0.0
 10
511.435749020377
 20
430.2943722211585
 30
0.0
 10
511.5708547720171
 20
430.6673735882185
 30
0.0
 10
511.6214832921777
 20
430.8071493342759
 30
0.0
  0
LINE
  5
190
330
1F
100
AcDbEntity
  8
0
  6
Continuous
 62
     7
370
    15
100
AcDbLine
 10
511.1617303153
 20
429.6965657905
 30
0.0
 11
498.233527567
 21
429.6965657905
 31
0.0
  0
SPLINE
  5
191
330
1F
100
AcDbEntity
  8
0
  6
Continuous
 62
     7
370
    15
100
AcDbSpline
210
0.0
220
0.0
230
1.0
 70
     8
 71
     3
 72
     9
 73
     5
 74
     0
 42
0.00000001
 43
0.00000001
 12
1.0
 22
0.0
 32
0.0
 13
1.0
 23
0.0
 33
0.0
 40
0.0
 40
0.0
 40
0.0
 40
0.0
 40
0.625267850013994
 40
1.0
 40
1.0
 40
1.0
 40
1.0
 10
605.4421017577205
 20
429.6965657904984
 30
0.0
 10
605.5475227394753
 20
429.9265517642631
 30
0.0
 10
605.7161240544995
 20
430.2943716893714
 30
0.0
 10
605.8512258759504
 20
430.6673735464311
 30
0.0
 10
605.9018528719697
 20
430.8071493342759
 30
0.0
  0
LINE
  5
192
330
1F
100
AcDbEntity
  8
0
  6
Continuous
 62
     7
370
    15
100
AcDbLine
 10
605.4421017577
 20
429.6965657905
 30
0.0
 11
592.5138985438
 21
429.6965657905
 31
0.0
  0
SPLINE
  5
193
330
1F
100
AcDbEntity
  8
0
  6
Continuous
 62
     7
370
    15
100
AcDbSpline
210
0.0
220
0.0
230
1.0
 70
     8
 71
     3
 72
    11
 73
     7
 74
     0
 42
0.00000001
 43
0.00000001
 12
1.0
 22
0.0
 32
0.0
 13
1.0
 23
0.0
 33
0.0
 40
0.0
 40
0.0
 40
0.0
 40
0.0
 40
0.1306248434427972
 40
0.4203539009650075
 40
0.7102134241828849
 40
1.0
 40
1.0
 40
1.0
 40
1.0
 10
692.9814076681886
 20
455.7515413671972
 30
0.0
 10
692.9582785802199
 20
455.8125460342438
 30
0.0
 10
692.883848616538
 20
456.0088605261447
 30
0.0
 10
692.7056902975503
 20
456.3373635785297
 30
0.0
 10
692.4579887541778
 20
456.7369054594737
 30
0.0
 10
692.2604759950649
 20
457.0002112454187
 30
0.0
 10
692.161732043818
 20
457.1318475701155
 30
0.0
  0
LINE
  5
194
330
1F
100
AcDbEntity
  8
0
  6
Continuous
 62
     7
370
    15
100
AcDbLine
 10
692.1617320438
 20
457.1318475701
 30
0.0
 11
679.2335292955
 21
457.1318475701
 31
0.0
  0
SPLINE
  5
195
330
1F
100
AcDbEntity
  8
0
  6
Continuous
 62
     7
370
    15
100
AcDbSpline
210
0.0
220
0.0
230
1.0
 70
     8
 71
     3
 72
    11
 73
     7
 74
     0
 42
0.00000001
 43
0.00000001
 12
1.0
 22
0.0
 32
0.0
 13
1.0
 23
0.0
 33
0.0
 40
0.0
 40
0.0
 40
0.0
 40
0.0
 40
0.130624840961822
 40
0.4203538000651373
 40
0.7102134296868402
 40
1.0
 40
1.0
 40
1.0
 40
1.0
 10
606.261777382091
 20
455.7515413671972
 30
0.0
 10
606.2386482207726
 20
455.8125460287368
 30
0.0
 10
606.164218037501
 20
456.0088604595223
 30
0.0
 10
605.9860631766345
 20
456.3373637805134
 30
0.0
 10
605.7383577235441
 20
456.7369053430355
 30
0.0
 10
605.5408454480997
 20
457.0002112235528
 30
0.0
 10
605.4421017577205
 20
457.1318475701155
 30
0.0
  0
LINE
  5
196
330
1F
100
AcDbEntity
  8
0
  6
Continuous
 62
     7
370
    15
100
AcDbLine
 10
605.4421017577
 20
457.1318475701
 30
0.0
 11
592.5138985438
 21
457.1318475701
 31
0.0
  0
SPLINE
  5
197
330
1F
100
AcDbEntity
  8
0
  6
Continuous
 62
     7
370
    15
100
AcDbSpline
210
0.0
220
0.0
230
1.0
 70
     8
 71
     3
 72
    11
 73
     7
 74
     0
 42
0.00000001
 43
0.00000001
 12
1.0
 22
0.0
 32
0.0
 13
1.0
 23
0.0
 33
0.0
 40
0.0
 40
0.0
 40
0.0
 40
0.0
 40
0.3163738700289372
 40
0.6328377896735498
 40
0.9491360155287043
 40
1.0
 40
1.0
 40
1.0
 40
1.0
 10
462.3053229113374
 20
456.8348576486351
 30
0.0
 10
462.201126314101
 20
456.7346199800803
 30
0.0
 10
461.9927034621109
 20
456.5341161122846
 30
0.0
 10
461.7366718363166
 20
456.2296016756236
 30
0.0
 10
461.5703174583887
 20
456.0090215464983
 30
0.0
 10
461.510588633163
 20
455.8893255066006
 30
0.0
 10
461.5023142357621
 20
455.8727436870577
 30
0.0
  0
LINE
  5
198
330
1F
100
AcDbEntity
  8
0
  6
Continuous
 62
     7
370
    15
100
AcDbLine
 10
462.3053229113
 20
456.8348576486
 30
0.0
 11
475.2335256596
 21
456.8348576486
 31
0.0
  0
SPLINE
  5
199
330
1F
100
AcDbEntity
  8
0
  6
Continuous
 62
     7
370
    15
100
AcDbSpline
210
0.0
220
0.0
230
1.0
 70
     8
 71
     3
 72
    11
 73
     7
 74
     0
 42
0.00000001
 43
0.00000001
 12
1.0
 22
0.0
 32
0.0
 13
1.0
 23
0.0
 33
0.0
 40
0.0
 40
0.0
 40
0.0
 40
0.0
 40
0.3163739269927793
 40
0.632837675302438
 40
0.9491361443723166
 40
1.0
 40
1.0
 40
1.0
 40
1.0
 10
643.3053246398721
 20
456.8348576486351
 30
0.0
 10
643.2011272602214
 20
456.7346200209149
 30
0.0
 10
642.992702918375
 20
456.5341163071378
 30
0.0
 10
642.7366830219097
 20
456.2296012727049
 30
0.0
 10
642.5703119037024
 20
456.0090219259525
 30
0.0
 10
642.5105927268402
 20
455.8893255113418
 30
0.0
 10
642.5023196895871
 20
455.8727436870577
 30
0.0
  0
LINE
  5
19A
330
1F
100
AcDbEntity
  8
0
  6
Continuous
 62
     7
370
    15
100
AcDbLine
 10
643.3053246399
 20
456.8348576486
 30
0.0
 11
656.2335273882
 21
456.8348576486
 31
0.0
  0
SPLINE
  5
19B
330
1F
100
AcDbEntity
  8
0
  6
Continuous
 62
     7
370
    15
100
AcDbSpline
210
0.0
220
0.0
230
1.0
 70
     8
 71
     3
 72
    11
 73
     7
 74
     0
 42
0.00000001
 43
0.00000001
 12
1.0
 22
0.0
 32
0.0
 13
1.0
 23
0.0
 33
0.0
 40
0.0
 40
0.0
 40
0.0
 40
0.0
 40
0.316374039630197
 40
0.632837378001501
 40
0.9491361230014964
 40
1.0
 40
1.0
 40
1.0
 40
1.0
 10
643.3053246398721
 20
429.9935571089627
 30
0.0
 10
643.201127310768
 20
430.0937929722543
 30
0.0
 10
642.9927032421497
 20
430.294292991097
 30
0.0
 10
642.7366826375363
 20
430.5988148176008
 30
0.0
 10
642.5703119370899
 20
430.8193922056758
 30
0.0
 10
642.5105927280719
 20
430.9390875397585
 30
0.0
 10
642.5023196895871
 20
430.955669207895
 30
0.0
  0
SPLINE
  5
19C
330
1F
100
AcDbEntity
  8
0
  6
Continuous
 62
     7
370
    15
100
AcDbSpline
210
0.0
220
0.0
230
1.0
 70
     8
 71
     3
 72
    11
 73
     7
 74
     0
 42
0.00000001
 43
0.00000001
 12
1.0
 22
0.0
 32
0.0
 13
1.0
 23
0.0
 33
0.0
 40
0.0
 40
0.0
 40
0.0
 40
0.0
 40
0.3163739826660845
 40
0.6328374923729566
 40
0.9491359941576868
 40
0.9999999999999999
 40
0.9999999999999999
 40
0.9999999999999999
 40
0.9999999999999999
 10
462.3053229113374
 20
429.9935571089627
 30
0.0
 10
462.2011263646483
 20
430.0937930130893
 30
0.0
 10
461.9927037858857
 20
430.2942931859504
 30
0.0
 10
461.7366714519503
 20
430.5988144146812
 30
0.0
 10
461.5703174917796
 20
430.8193925851273
 30
0.0
 10
461.5105886343947
 20
430.9390875444997
 30
0.0
 10
461.5023142357621
 20
430.955669207895
 30
0.0
  0
SPLINE
  5
19D
330
1F
100
AcDbEntity
  8
0
  6
Continuous
 62
     7
370
    15
100
AcDbSpline
210
0.0
220
0.0
230
1.0
 70
     8
 71
     3
 72
     9
 73
     5
 74
     0
 42
0.00000001
 43
0.00000001
 12
1.0
 22
0.0
 32
0.0
 13
1.0
 23
0.0
 33
0.0
 40
0.0
 40
0.0
 40
0.0
 40
0.0
 40
0.4942111359525029
 40
1.0
 40
1.0
 40
1.0
 40
1.0
 10
692.694984998301
 20
430.4823002949597
 30
0.0
 10
692.616283343007
 20
430.3519984546962
 30
0.0
 10
692.4570363136128
 20
430.088342234137
 30
0.0
 10
692.2609236467938
 20
429.8281620369044
 30
0.0
 10
692.161732043818
 20
429.6965657904984
 30
0.0
  0
SPLINE
  5
19E
330
1F
100
AcDbEntity
  8
0
  6
Continuous
 62
     7
370
    15
100
AcDbSpline
210
0.0
220
0.0
230
1.0
 70
     8
 71
     3
 72
     9
 73
     5
 74
     0
 42
0.00000001
 43
0.00000001
 12
1.0
 22
0.0
 32
0.0
 13
1.0
 23
0.0
 33
0.0
 40
0.0
 40
0.0
 40
0.0
 40
0.0
 40
0.4942111359525029
 40
1.0
 40
1.0
 40
1.0
 40
1.0
 10
605.9753547122035
 20
430.4823002949597
 30
0.0
 10
605.8966530569095
 20
430.3519984546962
 30
0.0
 10
605.7374060275152
 20
430.088342234137
 30
0.0
 10
605.5412933606963
 20
429.8281620369044
 30
0.0
 10
605.4421017577205
 20
429.6965657904984
 30
0.0
  0
SPLINE
  5
19F
330
1F
100
AcDbEntity
  8
0
  6
Continuous
 62
     7
370
    15
100
AcDbSpline
210
0.0
220
0.0
230
1.0
 70
     8
 71
     3
 72
     9
 73
     5
 74
     0
 42
0.00000001
 43
0.00000001
 12
1.0
 22
0.0
 32
0.0
 13
1.0
 23
0.0
 33
0.0
 40
0.0
 40
0.0
 40
0.0
 40
0.0
 40
0.4942111359525029
 40
1.0
 40
1.0
 40
1.0
 40
1.0
 10
511.6949832697663
 20
430.4823002949597
 30
0.0
 10
511.6162816144724
 20
430.3519984546962
 30
0.0
 10
511.4570345850781
 20
430.088342234137
 30
0.0
 10
511.260921918259
 20
429.8281620369044
 30
0.0
 10
511.1617303152833
 20
429.6965657904984
 30
0.0
  0
LINE
  5
1A0
330
1F
100
AcDbEntity
  8
0
  6
Continuous
 62
     8
370
    15
100
AcDbLine
 10
562.9353957881
 20
451.4142063618
 30
0.0
 11
562.9353957881
 21
523.8025545314
 31
0.0
  0
LINE
  5
1A1
330
1F
100
AcDbEntity
  8
0
  6
Continuous
 62
     8
370
    15
100
AcDbLine
 10
565.7530600836
 20
451.4142063618
 30
0.0
 11
565.7530600836
 21
523.8025545314
 31
0.0
  0
LINE
  5
1A2
330
1F
100
AcDbEntity
  8
0
  6
Continuous
 62
     8
370
    15
100
AcDbLine
 10
566.5191045662
 20
451.4142063618
 30
0.0
 11
566.5191045662
 21
523.8025545314
 31
0.0
  0
LINE
  5
1A3
330
1F
100
AcDbEntity
  8
FORMAT
  6
CENTERX2
370
     0
100
AcDbLine
 10
465.4553411124
 20
487.6083803453
 30
0.0
 11
690.4727075403
 21
487.6083803453
 31
0.0
  0
CIRCLE
  5
1A4
330
1F
100
AcDbEntity
  8
0
  6
Continuous
 62
     7
370
    15
100
AcDbCircle
 10
185.5123038926
 20
443.4142065212
 30
0.0
 40
8.00000000000004
  0
CIRCLE
  5
1A5
330
1F
100
AcDbEntity
  8
0
  6
Continuous
 62
     7
370
    15
100
AcDbCircle
 10
185.5123038926
 20
531.8025541695
 30
0.0
 40
8.0
  0
CIRCLE
  5
1A6
330
1F
100
AcDbEntity
  8
0
  6
Continuous
 62
     7
370
    15
100
AcDbCircle
 10
97.1239562443
 20
443.4142065212
 30
0.0
 40
8.0
  0
CIRCLE
  5
1A7
330
1F
100
AcDbEntity
  8
0
  6
Continuous
 62
     7
370
    15
100
AcDbCircle
 10
97.1239562443
 20
531.8025541695
 30
0.0
 40
8.000000000000055
  0
SPLINE
  5
1A8
330
1F
100
AcDbEntity
  8
0
  6
Continuous
 62
     7
370
    15
100
AcDbSpline
210
0.0
220
0.0
230
1.0
 70
    24
 71
     3
 72
    10
 73
     6
 74
     0
 42
0.00000001
 43
0.00000001
 12
1.0
 22
0.0
 32
0.0
 13
1.0
 23
0.0
 33
0.0
 40
0.0
 40
0.0
 40
0.0
 40
0.0
 40
0.5
 40
0.5
 40
1.0
 40
1.0
 40
1.0
 40
1.0
 10
198.3701789295483
 20
448.5789959200837
 30
0.0
 10
198.2111071270716
 20
447.4634643236253
 30
0.0
 10
198.048186395428
 20
446.3209411294652
 30
0.0
 10
197.7216073169614
 20
444.0307220265224
 30
0.0
 10
197.5574038376009
 20
442.879203236749
 30
0.0
 10
197.3921295826572
 20
441.7201753600277
 30
0.0
  0
ARC
  5
1A9
330
1F
100
AcDbEntity
  8
0
  6
Continuous
 62
     7
370
    15
100
AcDbCircle
 10
185.5123038926
 20
443.4142065212
 30
0.0
 40
12.00000000000004
100
AcDbArc
 50
351.8844878766
 51
51.8844878766
  0
SPLINE
  5
1AA
330
1F
100
AcDbEntity
  8
0
  6
Continuous
 62
     7
370
    15
100
AcDbSpline
210
0.0
220
0.0
230
1.0
 70
    24
 71
     3
 72
    12
 73
     8
 74
     0
 42
0.00000001
 43
0.00000001
 12
1.0
 22
0.0
 32
0.0
 13
1.0
 23
0.0
 33
0.0
 40
0.0
 40
0.0
 40
0.0
 40
0.0
 40
0.2499999999999998
 40
0.2499999999999998
 40
0.4999999999999996
 40
0.4999999999999996
 40
1.0
 40
1.0
 40
1.0
 40
1.0
 10
192.9192907579864
 20
452.8554217806741
 30
0.0
 10
193.3818894265919
 20
452.4924958047165
 30
0.0
 10
193.8465635408392
 20
452.1279415639451
 30
0.0
 10
194.7657857300765
 20
451.4067773393346
 30
0.0
 10
195.2223224015399
 20
451.0486072271059
 30
0.0
 10
196.583823947219
 20
449.980458287718
 30
0.0
 10
197.4807119028675
 20
449.2768161055874
 30
0.0
 10
198.3701789295483
 20
448.5789959200836
 30
0.0
  0
SPLINE
  5
1AB
330
1F
100
AcDbEntity
  8
0
  6
Continuous
 62
     7
370
    15
100
AcDbSpline
210
0.0
220
0.0
230
1.0
 70
    24
 71
     3
 72
    12
 73
     8
 74
     0
 42
0.00000001
 43
0.00000001
 12
1.0
 22
0.0
 32
0.0
 13
1.0
 23
0.0
 33
0.0
 40
0.0
 40
0.0
 40
0.0
 40
0.0
 40
0.2500000000000011
 40
0.2500000000000011
 40
0.5000000000000022
 40
0.5000000000000022
 40
1.0
 40
1.0
 40
1.0
 40
1.0
 10
196.6475503132889
 20
536.2753929941421
 30
0.0
 10
196.8667095240795
 20
535.7297905449668
 30
0.0
 10
197.0868519911128
 20
535.1817402542778
 30
0.0
 10
197.5223396464095
 20
534.0975826208459
 30
0.0
 10
197.7386269455417
 20
533.5591298690479
 30
0.0
 10
198.3836474016976
 20
531.953334979673
 30
0.0
 10
198.8085540645722
 20
530.8955189969494
 30
0.0
 10
199.2299450127544
 20
529.8464554756891
 30
0.0
  0
SPLINE
  5
1AC
330
1F
100
AcDbEntity
  8
0
  6
Continuous
 62
     7
370
    15
100
AcDbSpline
210
0.0
220
0.0
230
1.0
 70
    24
 71
     3
 72
    10
 73
     6
 74
     0
 42
0.00000001
 43
0.00000001
 12
1.0
 22
0.0
 32
0.0
 13
1.0
 23
0.0
 33
0.0
 40
0.0
 40
0.0
 40
0.0
 40
0.0
 40
0.5
 40
0.5
 40
1.0
 40
1.0
 40
1.0
 40
1.0
 10
199.2299450127545
 20
529.8464554756891
 30
0.0
 10
198.5303778462925
 20
528.954761683445
 30
0.0
 10
197.825700772184
 20
528.0565546167853
 30
0.0
 10
196.4016146023611
 20
526.2413625121102
 30
0.0
 10
195.682095383245
 20
525.3242371067955
 30
0.0
 10
194.9535191521641
 20
524.3955673041272
 30
0.0
  0
ARC
  5
1AD
330
1F
100
AcDbEntity
  8
0
  6
Continuous
 62
     7
370
    15
100
AcDbCircle
 10
185.5123038926
 20
531.8025541695
 30
0.0
 40
11.99999999999998
100
AcDbArc
 50
321.8844878766
 51
21.8844878766
  0
SPLINE
  5
1AE
330
1F
100
AcDbEntity
  8
0
  6
Continuous
 62
     7
370
    15
100
AcDbSpline
210
0.0
220
0.0
230
1.0
 70
    24
 71
     3
 72
    12
 73
     8
 74
     0
 42
0.00000001
 43
0.00000001
 12
1.0
 22
0.0
 32
0.0
 13
1.0
 23
0.0
 33
0.0
 40
0.0
 40
0.0
 40
0.0
 40
0.0
 40
0.2500000000000002
 40
0.2500000000000002
 40
0.5000000000000004
 40
0.5000000000000004
 40
1.0
 40
1.0
 40
1.0
 40
1.0
 10
187.2063350537675
 20
543.6823798594861
 30
0.0
 10
187.7861933017961
 20
543.5996936343826
 30
0.0
 10
188.3679089091797
 20
543.5167425548352
 30
0.0
 10
189.5350068998598
 20
543.3503175233669
 30
0.0
 10
190.1142882465177
 20
543.2677135628458
 30
0.0
 10
191.8325421476476
 20
543.0226951823416
 30
0.0
 10
192.9561225676129
 20
542.8624756393015
 30
0.0
 10
194.0651556138234
 20
542.704330512595
 30
0.0
  0
SPLINE
  5
1AF
330
1F
100
AcDbEntity
  8
0
  6
Continuous
 62
     7
370
    15
100
AcDbSpline
210
0.0
220
0.0
230
1.0
 70
    24
 71
     3
 72
    10
 73
     6
 74
     0
 42
0.00000001
 43
0.00000001
 12
1.0
 22
0.0
 32
0.0
 13
1.0
 23
0.0
 33
0.0
 40
0.0
 40
0.0
 40
0.0
 40
0.0
 40
0.5
 40
0.5
 40
1.0
 40
1.0
 40
1.0
 40
1.0
 10
194.0651556138234
 20
542.7043305125951
 30
0.0
 10
194.4876015070727
 20
541.6526406786635
 30
0.0
 10
194.9131331076044
 20
540.5932688976912
 30
0.0
 10
195.7730924980906
 20
538.452378045109
 30
0.0
 10
196.2075867879911
 20
537.3706934201858
 30
0.0
 10
196.6475503132889
 20
536.2753929941421
 30
0.0
  0
ARC
  5
1B0
330
1F
100
AcDbEntity
  8
0
  6
Continuous
 62
     7
370
    15
100
AcDbCircle
 10
185.5123038926
 20
531.8025541695
 30
0.0
 40
11.99999999999996
100
AcDbArc
 50
21.8844878766
 51
81.8844878766
  0
ARC
  5
1B1
330
1F
100
AcDbEntity
  8
0
  6
Continuous
 62
     7
370
    15
100
AcDbCircle
 10
185.5123038926
 20
443.4142065212
 30
0.0
 40
12.00000000000006
100
AcDbArc
 50
51.8844878766
 51
111.8844878766
  0
ARC
  5
1B2
330
1F
100
AcDbEntity
  8
0
  6
Continuous
 62
     7
370
    15
100
AcDbCircle
 10
185.5123038926
 20
443.4142065212
 30
0.0
 40
12.0
100
AcDbArc
 50
291.8844878766
 51
351.8844878766
  0
ARC
  5
1B3
330
1F
100
AcDbEntity
  8
0
  6
Continuous
 62
     7
370
    15
100
AcDbCircle
 10
185.5123038926
 20
443.4142065212
 30
0.0
 40
12.0
100
AcDbArc
 50
231.8844878766
 51
291.8844878766
  0
ARC
  5
1B4
330
1F
100
AcDbEntity
  8
0
  6
Continuous
 62
     7
370
    15
100
AcDbCircle
 10
185.5123038926
 20
443.4142065212
 30
0.0
 40
11.99999999999998
100
AcDbArc
 50
171.8844878766
 51
231.8844878766
  0
ARC
  5
1B5
330
1F
100
AcDbEntity
  8
0
  6
Continuous
 62
     7
370
    15
100
AcDbCircle
 10
185.5123038926
 20
443.4142065212
 30
0.0
 40
12.00000000000006
100
AcDbArc
 50
111.8844878766
 51
171.8844878766
  0
SPLINE
  5
1B6
330
1F
100
AcDbEntity
  8
0
  6
Continuous
 62
     7
370
    15
100
AcDbSpline
210
0.0
220
0.0
230
1.0
 70
    24
 71
     3
 72
    12
 73
     8
 74
     0
 42
0.00000001
 43
0.00000001
 12
1.0
 22
0.0
 32
0.0
 13
1.0
 23
0.0
 33
0.0
 40
0.0
 40
0.0
 40
0.0
 40
0.0
 40
0.2500000000000002
 40
0.2500000000000002
 40
0.5000000000000004
 40
0.5000000000000004
 40
1.0
 40
1.0
 40
1.0
 40
1.0
 10
183.8182727315177
 20
519.9227284794563
 30
0.0
 10
184.3981309795463
 20
519.8400422543527
 30
0.0
 10
184.97984658693
 20
519.7570911748054
 30
0.0
 10
186.14694457761
 20
519.5906661433371
 30
0.0
 10
186.726225924268
 20
519.5080621828159
 30
0.0
 10
188.4444798253979
 20
519.2630438023119
 30
0.0
 10
189.5680602453631
 20
519.1028242592716
 30
0.0
 10
190.6770932915736
 20
518.9446791325653
 30
0.0
  0
ARC
  5
1B7
330
1F
100
AcDbEntity
  8
0
  6
Continuous
 62
     7
370
    15
100
AcDbCircle
 10
185.5123038926
 20
531.8025541695
 30
0.0
 40
12.00000000000007
100
AcDbArc
 50
261.8844878766
 51
321.8844878766
  0
SPLINE
  5
1B8
330
1F
100
AcDbEntity
  8
0
  6
Continuous
 62
     7
370
    15
100
AcDbSpline
210
0.0
220
0.0
230
1.0
 70
    24
 71
     3
 72
    12
 73
     8
 74
     0
 42
0.00000001
 43
0.00000001
 12
1.0
 22
0.0
 32
0.0
 13
1.0
 23
0.0
 33
0.0
 40
0.0
 40
0.0
 40
0.0
 40
0.0
 40
0.2499999999999987
 40
0.2499999999999987
 40
0.4999999999999974
 40
0.4999999999999974
 40
1.0
 40
1.0
 40
1.0
 40
1.0
 10
194.9535191521641
 20
524.3955673041272
 30
0.0
 10
194.5905931762065
 20
523.9329686355217
 30
0.0
 10
194.226038935435
 20
523.4682945212744
 30
0.0
 10
193.5048747108245
 20
522.549072332037
 30
0.0
 10
193.146704598596
 20
522.0925356605737
 30
0.0
 10
192.078555659208
 20
520.7310341148946
 30
0.0
 10
191.3749134770775
 20
519.834146159246
 30
0.0
 10
190.6770932915736
 20
518.9446791325653
 30
0.0
  0
SPLINE
  5
1B9
330
1F
100
AcDbEntity
  8
0
  6
Continuous
 62
     7
370
    15
100
AcDbSpline
210
0.0
220
0.0
230
1.0
 70
    24
 71
     3
 72
    10
 73
     6
 74
     0
 42
0.00000001
 43
0.00000001
 12
1.0
 22
0.0
 32
0.0
 13
1.0
 23
0.0
 33
0.0
 40
0.0
 40
0.0
 40
0.0
 40
0.0
 40
0.5
 40
0.5
 40
1.0
 40
1.0
 40
1.0
 40
1.0
 10
196.4140802357661
 20
434.8613547999718
 30
0.0
 10
195.3623904018345
 20
434.4389089067225
 30
0.0
 10
194.3030186208623
 20
434.0133773061907
 30
0.0
 10
192.16212776828
 20
433.1534179157045
 30
0.0
 10
191.0804431433569
 20
432.7189236258041
 30
0.0
 10
189.9851427173131
 20
432.2789601005063
 30
0.0
  0
SPLINE
  5
1BA
330
1F
100
AcDbEntity
  8
0
  6
Continuous
 62
     7
370
    15
100
AcDbSpline
210
0.0
220
0.0
230
1.0
 70
    24
 71
     3
 72
    12
 73
     8
 74
     0
 42
0.00000001
 43
0.00000001
 12
1.0
 22
0.0
 32
0.0
 13
1.0
 23
0.0
 33
0.0
 40
0.0
 40
0.0
 40
0.0
 40
0.0
 40
0.2500000000000002
 40
0.2500000000000002
 40
0.5000000000000004
 40
0.5000000000000004
 40
1.0
 40
1.0
 40
1.0
 40
1.0
 10
197.3921295826572
 20
441.7201753600277
 30
0.0
 10
197.3094433575537
 20
441.1403171119991
 30
0.0
 10
197.2264922780063
 20
440.5586015046154
 30
0.0
 10
197.060067246538
 20
439.3915035139354
 30
0.0
 10
196.9774632860168
 20
438.8122221672775
 30
0.0
 10
196.7324449055128
 20
437.0939682661476
 30
0.0
 10
196.5722253624726
 20
435.9703878461823
 30
0.0
 10
196.4140802357661
 20
434.8613547999718
 30
0.0
  0
ARC
  5
1BB
330
1F
100
AcDbEntity
  8
0
  6
Continuous
 62
     7
370
    15
100
AcDbCircle
 10
185.5123038926
 20
531.8025541695
 30
0.0
 40
12.00000000000007
100
AcDbArc
 50
141.8844878766
 51
201.8844878766
  0
ARC
  5
1BC
330
1F
100
AcDbEntity
  8
0
  6
Continuous
 62
     7
370
    15
100
AcDbCircle
 10
185.5123038926
 20
531.8025541695
 30
0.0
 40
11.99999999999996
100
AcDbArc
 50
81.8844878766
 51
141.8844878766
  0
ARC
  5
1BD
330
1F
100
AcDbEntity
  8
0
  6
Continuous
 62
     7
370
    15
100
AcDbCircle
 10
185.5123038926
 20
531.8025541695
 30
0.0
 40
12.00000000000007
100
AcDbArc
 50
201.8844878766
 51
261.8844878766
  0
SPLINE
  5
1BE
330
1F
100
AcDbEntity
  8
0
  6
Continuous
 62
     7
370
    15
100
AcDbSpline
210
0.0
220
0.0
230
1.0
 70
    24
 71
     3
 72
    10
 73
     6
 74
     0
 42
0.00000001
 43
0.00000001
 12
1.0
 22
0.0
 32
0.0
 13
1.0
 23
0.0
 33
0.0
 40
0.0
 40
0.0
 40
0.0
 40
0.0
 40
0.5000000000000001
 40
0.5000000000000001
 40
1.0
 40
1.0
 40
1.0
 40
1.0
 10
187.4684025864244
 20
457.1318476412645
 30
0.0
 10
188.3600963786686
 20
456.4322804748026
 30
0.0
 10
189.2583034453283
 20
455.7276034006941
 30
0.0
 10
191.0734955500034
 20
454.3035172308712
 30
0.0
 10
191.990620955318
 20
453.5839980117551
 30
0.0
 10
192.9192907579864
 20
452.8554217806741
 30
0.0
  0
SPLINE
  5
1BF
330
1F
100
AcDbEntity
  8
0
  6
Continuous
 62
     7
370
    15
100
AcDbSpline
210
0.0
220
0.0
230
1.0
 70
    24
 71
     3
 72
    12
 73
     8
 74
     0
 42
0.00000001
 43
0.00000001
 12
1.0
 22
0.0
 32
0.0
 13
1.0
 23
0.0
 33
0.0
 40
0.0
 40
0.0
 40
0.0
 40
0.0
 40
0.2499999999999998
 40
0.2499999999999998
 40
0.4999999999999996
 40
0.4999999999999996
 40
1.0
 40
1.0
 40
1.0
 40
1.0
 10
181.0394650679715
 20
454.549452941799
 30
0.0
 10
181.5850675171468
 20
454.7686121525895
 30
0.0
 10
182.1331178078358
 20
454.9887546196229
 30
0.0
 10
183.2172754412677
 20
455.4242422749195
 30
0.0
 10
183.7557281930657
 20
455.6405295740516
 30
0.0
 10
185.3615230824406
 20
456.2855500302077
 30
0.0
 10
186.4193390651642
 20
456.7104566930822
 30
0.0
 10
187.4684025864245
 20
457.1318476412645
 30
0.0
  0
SPLINE
  5
1C0
330
1F
100
AcDbEntity
  8
0
  6
Continuous
 62
     7
370
    15
100
AcDbSpline
210
0.0
220
0.0
230
1.0
 70
    24
 71
     3
 72
    12
 73
     8
 74
     0
 42
0.00000001
 43
0.00000001
 12
1.0
 22
0.0
 32
0.0
 13
1.0
 23
0.0
 33
0.0
 40
0.0
 40
0.0
 40
0.0
 40
0.0
 40
0.2500000000000018
 40
0.2500000000000018
 40
0.5000000000000037
 40
0.5000000000000037
 40
1.0
 40
1.0
 40
1.0
 40
1.0
 10
176.0710886331211
 20
539.2095410348152
 30
0.0
 10
176.4340146090786
 20
539.6721397034207
 30
0.0
 10
176.7985688498501
 20
540.1368138176681
 30
0.0
 10
177.5197330744606
 20
541.0560360069054
 30
0.0
 10
177.8779031866892
 20
541.5125726783689
 30
0.0
 10
178.9460521260772
 20
542.8740742240478
 30
0.0
 10
179.6496943082077
 20
543.7709621796964
 30
0.0
 10
180.3475144937116
 20
544.6604292063771
 30
0.0
  0
SPLINE
  5
1C1
330
1F
100
AcDbEntity
  8
0
  6
Continuous
 62
     7
370
    15
100
AcDbSpline
210
0.0
220
0.0
230
1.0
 70
    24
 71
     3
 72
    10
 73
     6
 74
     0
 42
0.00000001
 43
0.00000001
 12
1.0
 22
0.0
 32
0.0
 13
1.0
 23
0.0
 33
0.0
 40
0.0
 40
0.0
 40
0.0
 40
0.0
 40
0.5
 40
0.5
 40
1.0
 40
1.0
 40
1.0
 40
1.0
 10
180.3475144937115
 20
544.6604292063771
 30
0.0
 10
181.4630460901699
 20
544.5013574039004
 30
0.0
 10
182.6055692843299
 20
544.3384366722569
 30
0.0
 10
184.8957883872727
 20
544.0118575937903
 30
0.0
 10
186.0473071770462
 20
543.8476541144298
 30
0.0
 10
187.2063350537675
 20
543.6823798594861
 30
0.0
  0
SPLINE
  5
1C2
330
1F
100
AcDbEntity
  8
0
  6
Continuous
 62
     7
370
    15
100
AcDbSpline
210
0.0
220
0.0
230
1.0
 70
    24
 71
     3
 72
    10
 73
     6
 74
     0
 42
0.00000001
 43
0.00000001
 12
1.0
 22
0.0
 32
0.0
 13
1.0
 23
0.0
 33
0.0
 40
0.0
 40
0.0
 40
0.0
 40
0.0
 40
0.5
 40
0.5
 40
1.0
 40
1.0
 40
1.0
 40
1.0
 10
183.5562051988602
 20
429.6965654010407
 30
0.0
 10
182.664511406616
 20
430.3961325675027
 30
0.0
 10
181.7663043399564
 20
431.1008096416111
 30
0.0
 10
179.9511122352812
 20
432.5248958114341
 30
0.0
 10
179.0339868299666
 20
433.2444150305502
 30
0.0
 10
178.1053170272982
 20
433.9729912616312
 30
0.0
  0
SPLINE
  5
1C3
330
1F
100
AcDbEntity
  8
0
  6
Continuous
 62
     7
370
    15
100
AcDbSpline
210
0.0
220
0.0
230
1.0
 70
    24
 71
     3
 72
    12
 73
     8
 74
     0
 42
0.00000001
 43
0.00000001
 12
1.0
 22
0.0
 32
0.0
 13
1.0
 23
0.0
 33
0.0
 40
0.0
 40
0.0
 40
0.0
 40
0.0
 40
0.2500000000000001
 40
0.2500000000000001
 40
0.5000000000000001
 40
0.5000000000000001
 40
1.0
 40
1.0
 40
1.0
 40
1.0
 10
189.9851427173131
 20
432.2789601005063
 30
0.0
 10
189.4395402681379
 20
432.0598008897158
 30
0.0
 10
188.8914899774488
 20
431.8396584226824
 30
0.0
 10
187.8073323440169
 20
431.4041707673857
 30
0.0
 10
187.268879592219
 20
431.1878834682535
 30
0.0
 10
185.663084702844
 20
430.5428630120976
 30
0.0
 10
184.6052687201204
 20
430.1179563492229
 30
0.0
 10
183.5562051988601
 20
429.6965654010407
 30
0.0
  0
SPLINE
  5
1C4
330
1F
100
AcDbEntity
  8
0
  6
Continuous
 62
     7
370
    15
100
AcDbSpline
210
0.0
220
0.0
230
1.0
 70
    24
 71
     3
 72
    10
 73
     6
 74
     0
 42
0.00000001
 43
0.00000001
 12
1.0
 22
0.0
 32
0.0
 13
1.0
 23
0.0
 33
0.0
 40
0.0
 40
0.0
 40
0.0
 40
0.0
 40
0.5
 40
0.5
 40
1.0
 40
1.0
 40
1.0
 40
1.0
 10
176.9594521714618
 20
520.9007778263474
 30
0.0
 10
176.5370062782125
 20
521.9524676602789
 30
0.0
 10
176.1114746776807
 20
523.0118394412513
 30
0.0
 10
175.2515152871945
 20
525.1527302938334
 30
0.0
 10
174.817020997294
 20
526.2344149187566
 30
0.0
 10
174.3770574719962
 20
527.3297153448003
 30
0.0
  0
SPLINE
  5
1C5
330
1F
100
AcDbEntity
  8
0
  6
Continuous
 62
     7
370
    15
100
AcDbSpline
210
0.0
220
0.0
230
1.0
 70
    24
 71
     3
 72
    10
 73
     6
 74
     0
 42
0.00000001
 43
0.00000001
 12
1.0
 22
0.0
 32
0.0
 13
1.0
 23
0.0
 33
0.0
 40
0.0
 40
0.0
 40
0.0
 40
0.0
 40
0.5
 40
0.5
 40
1.0
 40
1.0
 40
1.0
 40
1.0
 10
176.9594521714617
 20
520.9007778263474
 30
0.0
 10
178.0749837679201
 20
520.7417060238707
 30
0.0
 10
179.2175069620802
 20
520.5787852922272
 30
0.0
 10
181.507726065023
 20
520.2522062137606
 30
0.0
 10
182.6592448547964
 20
520.0880027344
 30
0.0
 10
183.8182727315177
 20
519.9227284794563
 30
0.0
  0
SPLINE
  5
1C6
330
1F
100
AcDbEntity
  8
0
  6
Continuous
 62
     7
370
    15
100
AcDbSpline
210
0.0
220
0.0
230
1.0
 70
    24
 71
     3
 72
    10
 73
     6
 74
     0
 42
0.00000001
 43
0.00000001
 12
1.0
 22
0.0
 32
0.0
 13
1.0
 23
0.0
 33
0.0
 40
0.0
 40
0.0
 40
0.0
 40
0.0
 40
0.5
 40
0.5
 40
1.0
 40
1.0
 40
1.0
 40
1.0
 10
174.6105275495185
 20
451.9670582423335
 30
0.0
 10
174.4514557470418
 20
450.8515266458751
 30
0.0
 10
174.2885350153983
 20
449.709003451715
 30
0.0
 10
173.9619559369316
 20
447.4187843487722
 30
0.0
 10
173.7977524575711
 20
446.2672655589989
 30
0.0
 10
173.6324782026275
 20
445.1082376822775
 30
0.0
  0
SPLINE
  5
1C7
330
1F
100
AcDbEntity
  8
0
  6
Continuous
 62
     7
370
    15
100
AcDbSpline
210
0.0
220
0.0
230
1.0
 70
    24
 71
     3
 72
    10
 73
     6
 74
     0
 42
0.00000001
 43
0.00000001
 12
1.0
 22
0.0
 32
0.0
 13
1.0
 23
0.0
 33
0.0
 40
0.0
 40
0.0
 40
0.0
 40
0.0
 40
0.5
 40
0.5
 40
1.0
 40
1.0
 40
1.0
 40
1.0
 10
174.6105275495185
 20
451.9670582423335
 30
0.0
 10
175.6622173834501
 20
452.3895041355827
 30
0.0
 10
176.7215891644224
 20
452.8150357361145
 30
0.0
 10
178.8624800170046
 20
453.6749951266007
 30
0.0
 10
179.9441646419277
 20
454.1094894165012
 30
0.0
 10
181.0394650679715
 20
454.549452941799
 30
0.0
  0
SPLINE
  5
1C8
330
1F
100
AcDbEntity
  8
0
  6
Continuous
 62
     7
370
    15
100
AcDbSpline
210
0.0
220
0.0
230
1.0
 70
    24
 71
     3
 72
    12
 73
     8
 74
     0
 42
0.00000001
 43
0.00000001
 12
1.0
 22
0.0
 32
0.0
 13
1.0
 23
0.0
 33
0.0
 40
0.0
 40
0.0
 40
0.0
 40
0.0
 40
0.2500000000000001
 40
0.2500000000000001
 40
0.5000000000000002
 40
0.5000000000000002
 40
1.0
 40
1.0
 40
1.0
 40
1.0
 10
173.6324782026275
 20
445.1082376822775
 30
0.0
 10
173.5497919775239
 20
444.528379434249
 30
0.0
 10
173.4668408979765
 20
443.9466638268653
 30
0.0
 10
173.3004158665083
 20
442.7795658361852
 30
0.0
 10
173.217811905987
 20
442.2002844895273
 30
0.0
 10
172.972793525483
 20
440.4820305883974
 30
0.0
 10
172.8125739824428
 20
439.3584501684321
 30
0.0
 10
172.6544288557363
 20
438.2494171222216
 30
0.0
  0
SPLINE
  5
1C9
330
1F
100
AcDbEntity
  8
0
  6
Continuous
 62
     7
370
    15
100
AcDbSpline
210
0.0
220
0.0
230
1.0
 70
    24
 71
     3
 72
    12
 73
     8
 74
     0
 42
0.00000001
 43
0.00000001
 12
1.0
 22
0.0
 32
0.0
 13
1.0
 23
0.0
 33
0.0
 40
0.0
 40
0.0
 40
0.0
 40
0.0
 40
0.2499999999999996
 40
0.2499999999999996
 40
0.4999999999999991
 40
0.4999999999999991
 40
1.0
 40
1.0
 40
1.0
 40
1.0
 10
178.1053170272982
 20
433.9729912616312
 30
0.0
 10
177.6427183586927
 20
434.3359172375887
 30
0.0
 10
177.1780442444454
 20
434.7004714783602
 30
0.0
 10
176.2588220552081
 20
435.4216357029707
 30
0.0
 10
175.8022853837447
 20
435.7798058151993
 30
0.0
 10
174.4407838380656
 20
436.8479547545872
 30
0.0
 10
173.5438958824171
 20
437.5515969367178
 30
0.0
 10
172.6544288557363
 20
438.2494171222216
 30
0.0
  0
SPLINE
  5
1CA
330
1F
100
AcDbEntity
  8
0
  6
Continuous
 62
     7
370
    15
100
AcDbSpline
210
0.0
220
0.0
230
1.0
 70
    24
 71
     3
 72
    12
 73
     8
 74
     0
 42
0.00000001
 43
0.00000001
 12
1.0
 22
0.0
 32
0.0
 13
1.0
 23
0.0
 33
0.0
 40
0.0
 40
0.0
 40
0.0
 40
0.0
 40
0.2500000000000011
 40
0.2500000000000011
 40
0.5000000000000022
 40
0.5000000000000022
 40
1.0
 40
1.0
 40
1.0
 40
1.0
 10
174.3770574719962
 20
527.3297153448003
 30
0.0
 10
174.1578982612058
 20
527.8753177939757
 30
0.0
 10
173.9377557941723
 20
528.4233680846646
 30
0.0
 10
173.5022681388756
 20
529.5075257180965
 30
0.0
 10
173.2859808397435
 20
530.0459784698945
 30
0.0
 10
172.6409603835876
 20
531.6517733592694
 30
0.0
 10
172.2160537207129
 20
532.7095893419931
 30
0.0
 10
171.7946627725307
 20
533.7586528632532
 30
0.0
  0
SPLINE
  5
1CB
330
1F
100
AcDbEntity
  8
0
  6
Continuous
 62
     7
370
    15
100
AcDbSpline
210
0.0
220
0.0
230
1.0
 70
    24
 71
     3
 72
    10
 73
     6
 74
     0
 42
0.00000001
 43
0.00000001
 12
1.0
 22
0.0
 32
0.0
 13
1.0
 23
0.0
 33
0.0
 40
0.0
 40
0.0
 40
0.0
 40
0.0
 40
0.5
 40
0.5
 40
1.0
 40
1.0
 40
1.0
 40
1.0
 10
171.7946627725307
 20
533.7586528632532
 30
0.0
 10
172.4942299389926
 20
534.6503466554974
 30
0.0
 10
173.1989070131011
 20
535.5485537221572
 30
0.0
 10
174.6229931829239
 20
537.3637458268322
 30
0.0
 10
175.3425124020402
 20
538.2808712321469
 30
0.0
 10
176.0710886331211
 20
539.2095410348152
 30
0.0
  0
ARC
  5
1CC
330
1F
100
AcDbEntity
  8
0
  6
Continuous
 62
     7
370
    15
100
AcDbCircle
 10
97.1239562443
 20
443.4142065212
 30
0.0
 40
12.00000000000001
100
AcDbArc
 50
321.8844878766
 51
21.8844878766
  0
ARC
  5
1CD
330
1F
100
AcDbEntity
  8
0
  6
Continuous
 62
     7
370
    15
100
AcDbCircle
 10
97.1239562443
 20
443.4142065212
 30
0.0
 40
12.00000000000001
100
AcDbArc
 50
261.8844878766
 51
321.8844878766
  0
ARC
  5
1CE
330
1F
100
AcDbEntity
  8
0
  6
Continuous
 62
     7
370
    15
100
AcDbCircle
 10
97.1239562443
 20
443.4142065212
 30
0.0
 40
12.00000000000001
100
AcDbArc
 50
201.8844878766
 51
261.8844878766
  0
ARC
  5
1CF
330
1F
100
AcDbEntity
  8
0
  6
Continuous
 62
     7
370
    15
100
AcDbCircle
 10
97.1239562443
 20
443.4142065212
 30
0.0
 40
12.00000000000001
100
AcDbArc
 50
141.8844878766
 51
201.8844878766
  0
ARC
  5
1D0
330
1F
100
AcDbEntity
  8
0
  6
Continuous
 62
     7
370
    15
100
AcDbCircle
 10
97.1239562443
 20
443.4142065212
 30
0.0
 40
12.00000000000001
100
AcDbArc
 50
81.8844878766
 51
141.8844878766
  0
ARC
  5
1D1
330
1F
100
AcDbEntity
  8
0
  6
Continuous
 62
     7
370
    15
100
AcDbCircle
 10
97.1239562443
 20
443.4142065212
 30
0.0
 40
12.00000000000001
100
AcDbArc
 50
21.8844878766
 51
81.8844878766
  0
ARC
  5
1D2
330
1F
100
AcDbEntity
  8
0
  6
Continuous
 62
     7
370
    15
100
AcDbCircle
 10
97.1239562443
 20
531.8025541695
 30
0.0
 40
12.00000000000003
100
AcDbArc
 50
231.8844878766
 51
291.8844878766
  0
ARC
  5
1D3
330
1F
100
AcDbEntity
  8
0
  6
Continuous
 62
     7
370
    15
100
AcDbCircle
 10
97.1239562443
 20
531.8025541695
 30
0.0
 40
12.00000000000002
100
AcDbArc
 50
171.8844878766
 51
231.8844878766
  0
ARC
  5
1D4
330
1F
100
AcDbEntity
  8
0
  6
Continuous
 62
     7
370
    15
100
AcDbCircle
 10
97.1239562443
 20
531.8025541695
 30
0.0
 40
11.99999999999998
100
AcDbArc
 50
111.8844878766
 51
171.8844878766
  0
ARC
  5
1D5
330
1F
100
AcDbEntity
  8
0
  6
Continuous
 62
     7
370
    15
100
AcDbCircle
 10
97.1239562443
 20
531.8025541695
 30
0.0
 40
11.99999999999994
100
AcDbArc
 50
51.8844878766
 51
111.8844878766
  0
ARC
  5
1D6
330
1F
100
AcDbEntity
  8
0
  6
Continuous
 62
     7
370
    15
100
AcDbCircle
 10
97.1239562443
 20
531.8025541695
 30
0.0
 40
11.99999999999999
100
AcDbArc
 50
351.8844878766
 51
51.8844878766
  0
ARC
  5
1D7
330
1F
100
AcDbEntity
  8
0
  6
Continuous
 62
     7
370
    15
100
AcDbCircle
 10
97.1239562443
 20
531.8025541695
 30
0.0
 40
12.00000000000003
100
AcDbArc
 50
291.8844878766
 51
351.8844878766
  0
SPLINE
  5
1D8
330
1F
100
AcDbEntity
  8
0
  6
Continuous
 62
     7
370
    15
100
AcDbSpline
210
0.0
220
0.0
230
1.0
 70
    24
 71
     3
 72
    10
 73
     6
 74
     0
 42
0.00000001
 43
0.00000001
 12
1.0
 22
0.0
 32
0.0
 13
1.0
 23
0.0
 33
0.0
 40
0.0
 40
0.0
 40
0.0
 40
0.0
 40
0.5
 40
0.5
 40
1.0
 40
1.0
 40
1.0
 40
1.0
 10
108.0257325874478
 20
523.2497024482903
 30
0.0
 10
108.1848043899246
 20
524.3652340447487
 30
0.0
 10
108.3477251215681
 20
525.5077572389089
 30
0.0
 10
108.6743042000347
 20
527.7979763418516
 30
0.0
 10
108.8385076793952
 20
528.949495131625
 30
0.0
 10
109.0037819343389
 20
530.1085230083463
 30
0.0
  0
SPLINE
  5
1D9
330
1F
100
AcDbEntity
  8
0
  6
Continuous
 62
     7
370
    15
100
AcDbSpline
210
0.0
220
0.0
230
1.0
 70
    24
 71
     3
 72
    10
 73
     6
 74
     0
 42
0.00000001
 43
0.00000001
 12
1.0
 22
0.0
 32
0.0
 13
1.0
 23
0.0
 33
0.0
 40
0.0
 40
0.0
 40
0.0
 40
0.0
 40
0.5
 40
0.5
 40
1.0
 40
1.0
 40
1.0
 40
1.0
 10
108.0257325874479
 20
523.2497024482903
 30
0.0
 10
106.9740427535163
 20
522.8272565550411
 30
0.0
 10
105.914670972544
 20
522.4017249545093
 30
0.0
 10
103.7737801199618
 20
521.5417655640231
 30
0.0
 10
102.6920954950387
 20
521.1072712741227
 30
0.0
 10
101.5967950689949
 20
520.6673077488249
 30
0.0
  0
SPLINE
  5
1DA
330
1F
100
AcDbEntity
  8
0
  6
Continuous
 62
     7
370
    15
100
AcDbSpline
210
0.0
220
0.0
230
1.0
 70
    24
 71
     3
 72
    10
 73
     6
 74
     0
 42
0.00000001
 43
0.00000001
 12
1.0
 22
0.0
 32
0.0
 13
1.0
 23
0.0
 33
0.0
 40
0.0
 40
0.0
 40
0.0
 40
0.0
 40
0.5
 40
0.5
 40
1.0
 40
1.0
 40
1.0
 40
1.0
 10
105.6768079655051
 20
454.3159828642765
 30
0.0
 10
106.0992538587544
 20
453.2642930303449
 30
0.0
 10
106.5247854592862
 20
452.2049212493726
 30
0.0
 10
107.3847448497724
 20
450.0640303967904
 30
0.0
 10
107.8192391396728
 20
448.9823457718674
 30
0.0
 10
108.2592026649706
 20
447.8870453458235
 30
0.0
  0
SPLINE
  5
1DB
330
1F
100
AcDbEntity
  8
0
  6
Continuous
 62
     7
370
    15
100
AcDbSpline
210
0.0
220
0.0
230
1.0
 70
    24
 71
     3
 72
    10
 73
     6
 74
     0
 42
0.00000001
 43
0.00000001
 12
1.0
 22
0.0
 32
0.0
 13
1.0
 23
0.0
 33
0.0
 40
0.0
 40
0.0
 40
0.0
 40
0.0
 40
0.5
 40
0.5
 40
1.0
 40
1.0
 40
1.0
 40
1.0
 10
105.6768079655051
 20
454.3159828642764
 30
0.0
 10
104.5612763690467
 20
454.4750546667532
 30
0.0
 10
103.4187531748867
 20
454.6379753983967
 30
0.0
 10
101.1285340719439
 20
454.9645544768632
 30
0.0
 10
99.97701528217046
 20
455.1287579562238
 30
0.0
 10
98.81798740544913
 20
455.2940322111675
 30
0.0
  0
SPLINE
  5
1DC
330
1F
100
AcDbEntity
  8
0
  6
Continuous
 62
     7
370
    15
100
AcDbSpline
210
0.0
220
0.0
230
1.0
 70
    24
 71
     3
 72
    10
 73
     6
 74
     0
 42
0.00000001
 43
0.00000001
 12
1.0
 22
0.0
 32
0.0
 13
1.0
 23
0.0
 33
0.0
 40
0.0
 40
0.0
 40
0.0
 40
0.0
 40
0.5
 40
0.5
 40
1.0
 40
1.0
 40
1.0
 40
1.0
 10
110.8415973644362
 20
441.4581078273706
 30
0.0
 10
110.1420301979743
 20
440.5664140351265
 30
0.0
 10
109.4373531238658
 20
439.6682069684667
 30
0.0
 10
108.013266954043
 20
437.8530148637916
 30
0.0
 10
107.2937477349268
 20
436.935889458477
 30
0.0
 10
106.5651715038458
 20
436.0072196558086
 30
0.0
  0
SPLINE
  5
1DD
330
1F
100
AcDbEntity
  8
0
  6
Continuous
 62
     7
370
    15
100
AcDbSpline
210
0.0
220
0.0
230
1.0
 70
    24
 71
     3
 72
    12
 73
     8
 74
     0
 42
0.00000001
 43
0.00000001
 12
1.0
 22
0.0
 32
0.0
 13
1.0
 23
0.0
 33
0.0
 40
0.0
 40
0.0
 40
0.0
 40
0.0
 40
0.2499999999999998
 40
0.2499999999999998
 40
0.4999999999999996
 40
0.4999999999999996
 40
1.0
 40
1.0
 40
1.0
 40
1.0
 10
108.2592026649706
 20
447.8870453458235
 30
0.0
 10
108.4783618757611
 20
447.3414428966483
 30
0.0
 10
108.6985043427946
 20
446.7933926059592
 30
0.0
 10
109.1339919980912
 20
445.7092349725273
 30
0.0
 10
109.3502792972234
 20
445.1707822207294
 30
0.0
 10
109.9952997533794
 20
443.5649873313544
 30
0.0
 10
110.420206416254
 20
442.5071713486308
 30
0.0
 10
110.8415973644362
 20
441.4581078273706
 30
0.0
  0
SPLINE
  5
1DE
330
1F
100
AcDbEntity
  8
0
  6
Continuous
 62
     7
370
    15
100
AcDbSpline
210
0.0
220
0.0
230
1.0
 70
    24
 71
     3
 72
    12
 73
     8
 74
     0
 42
0.00000001
 43
0.00000001
 12
1.0
 22
0.0
 32
0.0
 13
1.0
 23
0.0
 33
0.0
 40
0.0
 40
0.0
 40
0.0
 40
0.0
 40
0.2500000000000003
 40
0.2500000000000003
 40
0.5000000000000006
 40
0.5000000000000006
 40
1.0
 40
1.0
 40
1.0
 40
1.0
 10
109.0037819343389
 20
530.1085230083463
 30
0.0
 10
109.0864681594424
 20
530.688381256375
 30
0.0
 10
109.1694192389897
 20
531.2700968637586
 30
0.0
 10
109.335844270458
 20
532.4371948544386
 30
0.0
 10
109.4184482309792
 20
533.0164762010966
 30
0.0
 10
109.6634666114833
 20
534.7347301022265
 30
0.0
 10
109.8236861545235
 20
535.8583105221918
 30
0.0
 10
109.9818312812299
 20
536.9673435684023
 30
0.0
  0
SPLINE
  5
1DF
330
1F
100
AcDbEntity
  8
0
  6
Continuous
 62
     7
370
    15
100
AcDbSpline
210
0.0
220
0.0
230
1.0
 70
    24
 71
     3
 72
    12
 73
     8
 74
     0
 42
0.00000001
 43
0.00000001
 12
1.0
 22
0.0
 32
0.0
 13
1.0
 23
0.0
 33
0.0
 40
0.0
 40
0.0
 40
0.0
 40
0.0
 40
0.2500000000000002
 40
0.2500000000000002
 40
0.5000000000000004
 40
0.5000000000000004
 40
1.0
 40
1.0
 40
1.0
 40
1.0
 10
104.530943109668
 20
541.2437694289927
 30
0.0
 10
104.9935417782735
 20
540.8808434530353
 30
0.0
 10
105.4582158925208
 20
540.5162892122637
 30
0.0
 10
106.3774380817582
 20
539.7951249876531
 30
0.0
 10
106.8339747532215
 20
539.4369548754246
 30
0.0
 10
108.1954762989007
 20
538.3688059360367
 30
0.0
 10
109.0923642545492
 20
537.6651637539062
 30
0.0
 10
109.9818312812299
 20
536.9673435684023
 30
0.0
  0
SPLINE
  5
1E0
330
1F
100
AcDbEntity
  8
0
  6
Continuous
 62
     7
370
    15
100
AcDbSpline
210
0.0
220
0.0
230
1.0
 70
    24
 71
     3
 72
    10
 73
     6
 74
     0
 42
0.00000001
 43
0.00000001
 12
1.0
 22
0.0
 32
0.0
 13
1.0
 23
0.0
 33
0.0
 40
0.0
 40
0.0
 40
0.0
 40
0.0
 40
0.5
 40
0.5
 40
1.0
 40
1.0
 40
1.0
 40
1.0
 10
102.2887456432555
 20
430.5563314842466
 30
0.0
 10
101.1732140467971
 20
430.7154032867234
 30
0.0
 10
100.0306908526371
 20
430.8783240183669
 30
0.0
 10
97.74047174969427
 20
431.2049030968334
 30
0.0
 10
96.58895295992086
 20
431.369106576194
 30
0.0
 10
95.42992508319954
 20
431.5343808311376
 30
0.0
  0
SPLINE
  5
1E1
330
1F
100
AcDbEntity
  8
0
  6
Continuous
 62
     7
370
    15
100
AcDbSpline
210
0.0
220
0.0
230
1.0
 70
    24
 71
     3
 72
    12
 73
     8
 74
     0
 42
0.00000001
 43
0.00000001
 12
1.0
 22
0.0
 32
0.0
 13
1.0
 23
0.0
 33
0.0
 40
0.0
 40
0.0
 40
0.0
 40
0.0
 40
0.2499999999999994
 40
0.2499999999999994
 40
0.4999999999999989
 40
0.4999999999999989
 40
1.0
 40
1.0
 40
1.0
 40
1.0
 10
106.5651715038458
 20
436.0072196558086
 30
0.0
 10
106.2022455278883
 20
435.5446209872031
 30
0.0
 10
105.8376912871169
 20
435.0799468729558
 30
0.0
 10
105.1165270625063
 20
434.1607246837185
 30
0.0
 10
104.7583569502778
 20
433.7041880122551
 30
0.0
 10
103.6902080108898
 20
432.3426864665759
 30
0.0
 10
102.9865658287593
 20
431.4457985109274
 30
0.0
 10
102.2887456432555
 20
430.5563314842466
 30
0.0
  0
SPLINE
  5
1E2
330
1F
100
AcDbEntity
  8
0
  6
Continuous
 62
     7
370
    15
100
AcDbSpline
210
0.0
220
0.0
230
1.0
 70
    24
 71
     3
 72
    12
 73
     8
 74
     0
 42
0.00000001
 43
0.00000001
 12
1.0
 22
0.0
 32
0.0
 13
1.0
 23
0.0
 33
0.0
 40
0.0
 40
0.0
 40
0.0
 40
0.0
 40
0.2499999999999991
 40
0.2499999999999991
 40
0.4999999999999982
 40
0.4999999999999982
 40
1.0
 40
1.0
 40
1.0
 40
1.0
 10
92.6511174196531
 20
542.9378005901175
 30
0.0
 10
93.19671986882835
 20
543.1569598009081
 30
0.0
 10
93.7447701595174
 20
543.3771022679415
 30
0.0
 10
94.82892779294934
 20
543.8125899232381
 30
0.0
 10
95.36738054474726
 20
544.0288772223703
 30
0.0
 10
96.97317543412223
 20
544.6738976785261
 30
0.0
 10
98.03099141684582
 20
545.0988043414008
 30
0.0
 10
99.08005493810609
 20
545.5201952895831
 30
0.0
  0
SPLINE
  5
1E3
330
1F
100
AcDbEntity
  8
0
  6
Continuous
 62
     7
370
    15
100
AcDbSpline
210
0.0
220
0.0
230
1.0
 70
    24
 71
     3
 72
    10
 73
     6
 74
     0
 42
0.00000001
 43
0.00000001
 12
1.0
 22
0.0
 32
0.0
 13
1.0
 23
0.0
 33
0.0
 40
0.0
 40
0.0
 40
0.0
 40
0.0
 40
0.4999999999999994
 40
0.4999999999999994
 40
1.0
 40
1.0
 40
1.0
 40
1.0
 10
99.08005493810604
 20
545.5201952895831
 30
0.0
 10
99.97174873035016
 20
544.8206281231212
 30
0.0
 10
100.8699557970099
 20
544.1159510490127
 30
0.0
 10
102.685147901685
 20
542.6918648791899
 30
0.0
 10
103.6022733069996
 20
541.9723456600735
 30
0.0
 10
104.530943109668
 20
541.2437694289927
 30
0.0
  0
SPLINE
  5
1E4
330
1F
100
AcDbEntity
  8
0
  6
Continuous
 62
     7
370
    15
100
AcDbSpline
210
0.0
220
0.0
230
1.0
 70
    24
 71
     3
 72
    10
 73
     6
 74
     0
 42
0.00000001
 43
0.00000001
 12
1.0
 22
0.0
 32
0.0
 13
1.0
 23
0.0
 33
0.0
 40
0.0
 40
0.0
 40
0.0
 40
0.0
 40
0.5
 40
0.5
 40
1.0
 40
1.0
 40
1.0
 40
1.0
 10
95.16785755054195
 20
518.0849130493593
 30
0.0
 10
94.27616375829784
 20
518.7844802158212
 30
0.0
 10
93.37795669163813
 20
519.4891572899297
 30
0.0
 10
91.56276458696297
 20
520.9132434597525
 30
0.0
 10
90.64563918164838
 20
521.6327626788687
 30
0.0
 10
89.71696937898
 20
522.3613389099497
 30
0.0
  0
SPLINE
  5
1E5
330
1F
100
AcDbEntity
  8
0
  6
Continuous
 62
     7
370
    15
100
AcDbSpline
210
0.0
220
0.0
230
1.0
 70
    24
 71
     3
 72
    12
 73
     8
 74
     0
 42
0.00000001
 43
0.00000001
 12
1.0
 22
0.0
 32
0.0
 13
1.0
 23
0.0
 33
0.0
 40
0.0
 40
0.0
 40
0.0
 40
0.0
 40
0.2499999999999991
 40
0.2499999999999991
 40
0.4999999999999982
 40
0.4999999999999982
 40
1.0
 40
1.0
 40
1.0
 40
1.0
 10
101.5967950689949
 20
520.6673077488249
 30
0.0
 10
101.0511926198196
 20
520.4481485380344
 30
0.0
 10
100.5031423291306
 20
520.2280060710009
 30
0.0
 10
99.41898469569867
 20
519.7925184157043
 30
0.0
 10
98.88053194390072
 20
519.5762311165721
 30
0.0
 10
97.27473705452579
 20
518.9312106604161
 30
0.0
 10
96.2169210718022
 20
518.5063039975415
 30
0.0
 10
95.16785755054191
 20
518.0849130493593
 30
0.0
  0
SPLINE
  5
1E6
330
1F
100
AcDbEntity
  8
0
  6
Continuous
 62
     7
370
    15
100
AcDbSpline
210
0.0
220
0.0
230
1.0
 70
    24
 71
     3
 72
    12
 73
     8
 74
     0
 42
0.00000001
 43
0.00000001
 12
1.0
 22
0.0
 32
0.0
 13
1.0
 23
0.0
 33
0.0
 40
0.0
 40
0.0
 40
0.0
 40
0.0
 40
0.2499999999999999
 40
0.2499999999999999
 40
0.4999999999999998
 40
0.4999999999999998
 40
1.0
 40
1.0
 40
1.0
 40
1.0
 10
95.42992508319954
 20
431.5343808311376
 30
0.0
 10
94.85006683517094
 20
431.6170670562412
 30
0.0
 10
94.26835122778728
 20
431.7000181357886
 30
0.0
 10
93.10125323710724
 20
431.8664431672568
 30
0.0
 10
92.52197189044928
 20
431.949047127778
 30
0.0
 10
90.80371798931937
 20
432.1940655082821
 30
0.0
 10
89.6801375693541
 20
432.3542850513222
 30
0.0
 10
88.57110452314359
 20
432.5124301780287
 30
0.0
  0
SPLINE
  5
1E7
330
1F
100
AcDbEntity
  8
0
  6
Continuous
 62
     7
370
    15
100
AcDbSpline
210
0.0
220
0.0
230
1.0
 70
    24
 71
     3
 72
    10
 73
     6
 74
     0
 42
0.00000001
 43
0.00000001
 12
1.0
 22
0.0
 32
0.0
 13
1.0
 23
0.0
 33
0.0
 40
0.0
 40
0.0
 40
0.0
 40
0.0
 40
0.5
 40
0.5
 40
1.0
 40
1.0
 40
1.0
 40
1.0
 10
88.5711045231436
 20
432.5124301780286
 30
0.0
 10
88.1486586298943
 20
433.5641200119603
 30
0.0
 10
87.72312702936253
 20
434.6234917929325
 30
0.0
 10
86.86316763887632
 20
436.7643826455148
 30
0.0
 10
86.42867334897583
 20
437.8460672704379
 30
0.0
 10
85.98870982367802
 20
438.9413676964817
 30
0.0
  0
SPLINE
  5
1E8
330
1F
100
AcDbEntity
  8
0
  6
Continuous
 62
     7
370
    15
100
AcDbSpline
210
0.0
220
0.0
230
1.0
 70
    24
 71
     3
 72
    12
 73
     8
 74
     0
 42
0.00000001
 43
0.00000001
 12
1.0
 22
0.0
 32
0.0
 13
1.0
 23
0.0
 33
0.0
 40
0.0
 40
0.0
 40
0.0
 40
0.0
 40
0.2499999999999996
 40
0.2499999999999996
 40
0.4999999999999992
 40
0.4999999999999992
 40
1.0
 40
1.0
 40
1.0
 40
1.0
 10
87.68274098480283
 20
450.8211933864966
 30
0.0
 10
88.04566696076034
 20
451.2837920551021
 30
0.0
 10
88.4102212015318
 20
451.7484661693494
 30
0.0
 10
89.13138542614233
 20
452.6676883585867
 30
0.0
 10
89.48955553837092
 20
453.1242250300501
 30
0.0
 10
90.55770447775885
 20
454.4857265757293
 30
0.0
 10
91.26134665988934
 20
455.3826145313777
 30
0.0
 10
91.9591668453932
 20
456.2720815580585
 30
0.0
  0
SPLINE
  5
1E9
330
1F
100
AcDbEntity
  8
0
  6
Continuous
 62
     7
370
    15
100
AcDbSpline
210
0.0
220
0.0
230
1.0
 70
    24
 71
     3
 72
    12
 73
     8
 74
     0
 42
0.00000001
 43
0.00000001
 12
1.0
 22
0.0
 32
0.0
 13
1.0
 23
0.0
 33
0.0
 40
0.0
 40
0.0
 40
0.0
 40
0.0
 40
0.2500000000000002
 40
0.2500000000000002
 40
0.5000000000000004
 40
0.5000000000000004
 40
1.0
 40
1.0
 40
1.0
 40
1.0
 10
98.81798740544913
 20
455.2940322111675
 30
0.0
 10
98.23812915742052
 20
455.376718436271
 30
0.0
 10
97.65641355003686
 20
455.4596695158183
 30
0.0
 10
96.48931555935683
 20
455.6260945472866
 30
0.0
 10
95.91003421269886
 20
455.7086985078078
 30
0.0
 10
94.19178031156893
 20
455.9537168883119
 30
0.0
 10
93.0681998916037
 20
456.113936431352
 30
0.0
 10
91.95916684539318
 20
456.2720815580585
 30
0.0
  0
SPLINE
  5
1EA
330
1F
100
AcDbEntity
  8
0
  6
Continuous
 62
     7
370
    15
100
AcDbSpline
210
0.0
220
0.0
230
1.0
 70
    24
 71
     3
 72
    12
 73
     8
 74
     0
 42
0.00000001
 43
0.00000001
 12
1.0
 22
0.0
 32
0.0
 13
1.0
 23
0.0
 33
0.0
 40
0.0
 40
0.0
 40
0.0
 40
0.0
 40
0.2499999999999997
 40
0.2499999999999997
 40
0.4999999999999993
 40
0.4999999999999993
 40
1.0
 40
1.0
 40
1.0
 40
1.0
 10
85.24413055430908
 20
533.496585330596
 30
0.0
 10
85.32681677941265
 20
534.0764435786245
 30
0.0
 10
85.40976785895997
 20
534.6581591860082
 30
0.0
 10
85.57619289042823
 20
535.8252571766883
 30
0.0
 10
85.65879685094944
 20
536.4045385233462
 30
0.0
 10
85.90381523145354
 20
538.1227924244763
 30
0.0
 10
86.06403477449369
 20
539.2463728444415
 30
0.0
 10
86.22217990120014
 20
540.3554058906519
 30
0.0
  0
SPLINE
  5
1EB
330
1F
100
AcDbEntity
  8
0
  6
Continuous
 62
     7
370
    15
100
AcDbSpline
210
0.0
220
0.0
230
1.0
 70
    24
 71
     3
 72
    10
 73
     6
 74
     0
 42
0.00000001
 43
0.00000001
 12
1.0
 22
0.0
 32
0.0
 13
1.0
 23
0.0
 33
0.0
 40
0.0
 40
0.0
 40
0.0
 40
0.0
 40
0.5
 40
0.5
 40
1.0
 40
1.0
 40
1.0
 40
1.0
 10
86.2221799012001
 20
540.3554058906519
 30
0.0
 10
87.27386973513171
 20
540.7778517839013
 30
0.0
 10
88.33324151610395
 20
541.2033833844331
 30
0.0
 10
90.47413236868621
 20
542.0633427749192
 30
0.0
 10
91.55581699360927
 20
542.4978370648197
 30
0.0
 10
92.6511174196531
 20
542.9378005901175
 30
0.0
  0
SPLINE
  5
1EC
330
1F
100
AcDbEntity
  8
0
  6
Continuous
 62
     7
370
    15
100
AcDbSpline
210
0.0
220
0.0
230
1.0
 70
    24
 71
     3
 72
    10
 73
     6
 74
     0
 42
0.00000001
 43
0.00000001
 12
1.0
 22
0.0
 32
0.0
 13
1.0
 23
0.0
 33
0.0
 40
0.0
 40
0.0
 40
0.0
 40
0.0
 40
0.5
 40
0.5
 40
1.0
 40
1.0
 40
1.0
 40
1.0
 10
84.26608120741805
 20
526.63776477054
 30
0.0
 10
84.42515300989476
 20
527.7532963669984
 30
0.0
 10
84.58807374153831
 20
528.8958195611585
 30
0.0
 10
84.91465282000486
 20
531.1860386641013
 30
0.0
 10
85.07885629936538
 20
532.3375574538746
 30
0.0
 10
85.24413055430908
 20
533.496585330596
 30
0.0
  0
SPLINE
  5
1ED
330
1F
100
AcDbEntity
  8
0
  6
Continuous
 62
     7
370
    15
100
AcDbSpline
210
0.0
220
0.0
230
1.0
 70
    24
 71
     3
 72
    12
 73
     8
 74
     0
 42
0.00000001
 43
0.00000001
 12
1.0
 22
0.0
 32
0.0
 13
1.0
 23
0.0
 33
0.0
 40
0.0
 40
0.0
 40
0.0
 40
0.0
 40
0.2499999999999999
 40
0.2499999999999999
 40
0.4999999999999998
 40
0.4999999999999998
 40
1.0
 40
1.0
 40
1.0
 40
1.0
 10
89.71696937898
 20
522.3613389099497
 30
0.0
 10
89.25437071037445
 20
522.7242648859071
 30
0.0
 10
88.78969659612719
 20
523.0888191266787
 30
0.0
 10
87.87047440688984
 20
523.8099833512892
 30
0.0
 10
87.41393773542649
 20
524.1681534635178
 30
0.0
 10
86.05243618974731
 20
525.2363024029057
 30
0.0
 10
85.15554823409879
 20
525.9399445850362
 30
0.0
 10
84.26608120741804
 20
526.6377647705401
 30
0.0
  0
SPLINE
  5
1EE
330
1F
100
AcDbEntity
  8
0
  6
Continuous
 62
     7
370
    15
100
AcDbSpline
210
0.0
220
0.0
230
1.0
 70
    24
 71
     3
 72
    12
 73
     8
 74
     0
 42
0.00000001
 43
0.00000001
 12
1.0
 22
0.0
 32
0.0
 13
1.0
 23
0.0
 33
0.0
 40
0.0
 40
0.0
 40
0.0
 40
0.0
 40
0.2499999999999995
 40
0.2499999999999995
 40
0.499999999999999
 40
0.499999999999999
 40
1.0
 40
1.0
 40
1.0
 40
1.0
 10
85.98870982367802
 20
438.9413676964817
 30
0.0
 10
85.76955061288751
 20
439.4869701456569
 30
0.0
 10
85.54940814585409
 20
440.035020436346
 30
0.0
 10
85.11392049055748
 20
441.1191780697778
 30
0.0
 10
84.89763319142529
 20
441.6576308215758
 30
0.0
 10
84.25261273526932
 20
443.2634257109508
 30
0.0
 10
83.82770607239469
 20
444.3212416936744
 30
0.0
 10
83.40631512421245
 20
445.3703052149347
 30
0.0
  0
SPLINE
  5
1EF
330
1F
100
AcDbEntity
  8
0
  6
Continuous
 62
     7
370
    15
100
AcDbSpline
210
0.0
220
0.0
230
1.0
 70
    24
 71
     3
 72
    10
 73
     6
 74
     0
 42
0.00000001
 43
0.00000001
 12
1.0
 22
0.0
 32
0.0
 13
1.0
 23
0.0
 33
0.0
 40
0.0
 40
0.0
 40
0.0
 40
0.0
 40
0.4999999999999998
 40
0.4999999999999998
 40
1.0
 40
1.0
 40
1.0
 40
1.0
 10
83.40631512421244
 20
445.3703052149346
 30
0.0
 10
84.1058822906744
 20
446.2619990071787
 30
0.0
 10
84.81055936478285
 20
447.1602060738384
 30
0.0
 10
86.2346455346057
 20
448.9753981785136
 30
0.0
 10
86.95416475372187
 20
449.8925235838282
 30
0.0
 10
87.68274098480283
 20
450.8211933864966
 30
0.0
  0
CIRCLE
  5
1F0
330
1F
100
AcDbEntity
  8
0
  6
Continuous
 62
     7
370
    15
100
AcDbCircle
 10
185.5123038926
 20
531.8025541695
 30
0.0
 40
17.24999999999996
  0
CIRCLE
  5
1F1
330
1F
100
AcDbEntity
  8
0
  6
Continuous
 62
     7
370
    15
100
AcDbCircle
 10
185.5123038926
 20
443.4142065212
 30
0.0
 40
17.24999999999999
  0
CIRCLE
  5
1F2
330
1F
100
AcDbEntity
  8
0
  6
Continuous
 62
     7
370
    15
100
AcDbCircle
 10
97.1239562443
 20
443.4142065212
 30
0.0
 40
17.25
  0
CIRCLE
  5
1F3
330
1F
100
AcDbEntity
  8
0
  6
Continuous
 62
     7
370
    15
100
AcDbCircle
 10
97.1239562443
 20
531.8025541695
 30
0.0
 40
17.25
  0
CIRCLE
  5
1F4
330
1F
100
AcDbEntity
  8
0
  6
Continuous
 62
     7
370
    15
100
AcDbCircle
 10
141.3181300685
 20
487.6083803453
 30
0.0
 40
25.00000000000001
  0
CIRCLE
  5
1F5
330
1F
100
AcDbEntity
  8
0
  6
Continuous
 62
     7
370
    15
100
AcDbCircle
 10
141.3181300685
 20
487.6083803453
 30
0.0
 40
82.50000000000003
  0
LINE
  5
1F6
330
1F
100
AcDbEntity
  8
0
  6
Continuous
 62
     7
370
    15
100
AcDbLine
 10
67.3669286764
 20
524.1798072294
 30
0.0
 11
65.8669256366
 21
524.1798072294
 31
0.0
  0
LINE
  5
1F7
330
1F
100
AcDbEntity
  8
0
  6
Continuous
 62
     7
370
    15
100
AcDbLine
 10
66.3067259587
 20
521.9527951613
 30
0.0
 11
64.8067229188
 21
521.9527951613
 31
0.0
  0
ARC
  5
1F8
330
1F
100
AcDbEntity
  8
0
  6
Continuous
 62
     7
370
    15
100
AcDbCircle
 10
139.8181300685
 20
487.6083803453
 30
0.0
 40
82.50000000000006
100
AcDbArc
 50
153.6860119698
 51
155.3990448345
  0
LINE
  5
1F9
330
1F
100
AcDbEntity
  8
0
  6
Continuous
 62
     7
370
    15
100
AcDbLine
 10
65.5043431318
 20
520.1432875529
 30
0.0
 11
64.0043475426
 21
520.1432875529
 31
0.0
  0
SPLINE
  5
1FA
330
1F
100
AcDbEntity
  8
0
  6
Continuous
 62
     7
370
    15
100
AcDbSpline
210
0.0
220
0.0
230
1.0
 70
     8
 71
     3
 72
     9
 73
     5
 74
     0
 42
0.00000001
 43
0.00000001
 12
1.0
 22
0.0
 32
0.0
 13
1.0
 23
0.0
 33
0.0
 40
0.0
 40
0.0
 40
0.0
 40
0.0
 40
0.5030456887059661
 40
1.0
 40
1.0
 40
1.0
 40
1.0
 10
64.00434660296935
 20
520.1432883157391
 30
0.0
 10
64.1358472155875
 20
520.4471990473145
 30
0.0
 10
64.3972561006461
 20
521.0513404571276
 30
0.0
 10
64.67078983928201
 20
521.6535336880897
 30
0.0
 10
64.8067236099815
 20
521.9527962104485
 30
0.0
  0
LINE
  5
1FB
330
1F
100
AcDbEntity
  8
0
  6
Continuous
 62
     7
370
    15
100
AcDbLine
 10
65.0922068155
 20
519.1656186417
 30
0.0
 11
63.5922112263
 21
519.1656186417
 31
0.0
  0
LINE
  5
1FC
330
1F
100
AcDbEntity
  8
0
  6
Continuous
 62
     7
370
    15
100
AcDbLine
 10
64.3252440489
 20
517.2452836469
 30
0.0
 11
62.8252484596
 21
517.2452836469
 31
0.0
  0
ARC
  5
1FD
330
1F
100
AcDbEntity
  8
0
  6
Continuous
 62
     7
370
    15
100
AcDbCircle
 10
139.8181300685
 20
487.6083803453
 30
0.0
 40
82.50000000000004
100
AcDbArc
 50
157.5106337767
 51
158.9467669037
  0
SPLINE
  5
1FE
330
1F
100
AcDbEntity
  8
0
  6
Continuous
 62
     7
370
    15
100
AcDbSpline
210
0.0
220
0.0
230
1.0
 70
     8
 71
     3
 72
     9
 73
     5
 74
     0
 42
0.00000001
 43
0.00000001
 12
1.0
 22
0.0
 32
0.0
 13
1.0
 23
0.0
 33
0.0
 40
0.0
 40
0.0
 40
0.0
 40
0.0
 40
0.5018374211781257
 40
0.9999999999999999
 40
0.9999999999999999
 40
0.9999999999999999
 40
0.9999999999999999
 10
63.5922104766511
 20
519.1656169540446
 30
0.0
 10
63.66024739392502
 20
519.3292152949241
 30
0.0
 10
63.79582300945842
 20
519.6552139828965
 30
0.0
 10
63.93500923427718
 20
519.9809959372333
 30
0.0
 10
64.00434660296938
 20
520.1432883157391
 30
0.0
  0
LINE
  5
1FF
330
1F
100
AcDbEntity
  8
0
  6
Continuous
 62
     7
370
    15
100
AcDbLine
 10
64.0443273581
 20
516.5049120024
 30
0.0
 11
62.5443317688
 21
516.5049120024
 31
0.0
  0
LINE
  5
200
330
1F
100
AcDbEntity
  8
0
  6
Continuous
 62
     7
370
    15
100
AcDbLine
 10
62.5443317688
 20
516.5049120024
 30
0.0
 11
62.8263213433
 21
517.2452836469
 31
0.0
  0
LINE
  5
201
330
1F
100
AcDbEntity
  8
0
  6
Continuous
 62
     7
370
    15
100
AcDbLine
 10
63.6133112705
 20
519.2156641916
 30
0.0
 11
63.6357449687
 21
519.2705749706
 31
0.0
  0
LINE
  5
202
330
1F
100
AcDbEntity
  8
0
  6
Continuous
 62
     7
370
    15
100
AcDbLine
 10
63.3973263896
 20
514.7118478254
 30
0.0
 11
61.8973233498
 21
514.7118478254
 31
0.0
  0
ARC
  5
203
330
1F
100
AcDbEntity
  8
0
  6
Continuous
 62
     7
370
    15
100
AcDbCircle
 10
139.8181300685
 20
487.6083803453
 30
0.0
 40
82.50000000000003
100
AcDbArc
 50
159.4967203248
 51
160.8206124077
  0
LINE
  5
204
330
1F
100
AcDbEntity
  8
0
  6
Continuous
 62
     7
370
    15
100
AcDbLine
 10
60.989701072
 20
511.9461848572
 30
0.0
 11
60.9979861177
 21
511.9724556044
 31
0.0
  0
LINE
  5
205
330
1F
100
AcDbEntity
  8
0
  6
Continuous
 62
     7
370
    15
100
AcDbLine
 10
61.6446145571
 20
513.9714799062
 30
0.0
 11
61.8973233498
 21
514.7118478254
 31
0.0
  0
LINE
  5
206
330
1F
100
AcDbEntity
  8
0
  6
Continuous
 62
     7
370
    15
100
AcDbLine
 10
62.5221811927
 20
512.0511449114
 30
0.0
 11
61.0221856034
 21
512.0511449114
 31
0.0
  0
LINE
  5
207
330
1F
100
AcDbEntity
  8
0
  6
Continuous
 62
     7
370
    15
100
AcDbLine
 10
63.1437309778
 20
513.9714799062
 30
0.0
 11
61.643727938
 21
513.9714799062
 31
0.0
  0
ARC
  5
208
330
1F
100
AcDbEntity
  8
0
  6
Continuous
 62
     7
370
    15
100
AcDbCircle
 10
139.8181300685
 20
487.6083803453
 30
0.0
 40
82.50000000000003
100
AcDbArc
 50
161.3641236874
 51
162.76593711
  0
LINE
  5
209
330
1F
100
AcDbEntity
  8
0
  6
Continuous
 62
     7
370
    15
100
AcDbLine
 10
62.4041267431
 20
511.667264922
 30
0.0
 11
60.9041237033
 21
511.667264922
 31
0.0
  0
LINE
  5
20A
330
1F
100
AcDbEntity
  8
0
  6
Continuous
 62
     7
370
    15
100
AcDbLine
 10
60.9041237033
 20
511.667264922
 30
0.0
 11
61.0221856034
 21
512.0511449114
 31
0.0
  0
LINE
  5
20B
330
1F
100
AcDbEntity
  8
0
  6
Continuous
 62
     7
370
    15
100
AcDbLine
 10
61.5106978214
 20
508.5134900347
 30
0.0
 11
60.0106947816
 21
508.5134900347
 31
0.0
  0
LINE
  5
20C
330
1F
100
AcDbEntity
  8
0
  6
Continuous
 62
     7
370
    15
100
AcDbLine
 10
61.0358127154
 20
506.6083803013
 30
0.0
 11
59.5358171261
 21
506.6083803013
 31
0.0
  0
ARC
  5
20D
330
1F
100
AcDbEntity
  8
0
  6
Continuous
 62
     7
370
    15
100
AcDbCircle
 10
139.8181300685
 20
487.6083803453
 30
0.0
 40
82.50000000000003
100
AcDbArc
 50
165.3214832102
 51
166.6850869419
  0
LINE
  5
20E
330
1F
100
AcDbEntity
  8
0
  6
Continuous
 62
     7
370
    15
100
AcDbLine
 10
61.6063781775
 20
508.8754168883
 30
0.0
 11
60.1063825882
 21
508.8754168883
 31
0.0
  0
LINE
  5
20F
330
1F
100
AcDbEntity
  8
0
  6
Continuous
 62
     7
370
    15
100
AcDbLine
 10
60.0106947816
 20
508.5134900347
 30
0.0
 11
60.1063825882
 21
508.8754168883
 31
0.0
  0
ARC
  5
210
330
1F
100
AcDbEntity
  8
0
  6
Continuous
 62
     7
370
    15
100
AcDbCircle
 10
139.8181300685
 20
487.6083803453
 30
0.0
 40
82.50000000000003
100
AcDbArc
 50
163.0448607912
 51
165.0614898344
  0
SPLINE
  5
211
330
1F
100
AcDbEntity
  8
0
  6
Continuous
 62
     7
370
    15
100
AcDbSpline
210
0.0
220
0.0
230
1.0
 70
     8
 71
     3
 72
     9
 73
     5
 74
     0
 42
0.00000001
 43
0.00000001
 12
1.0
 22
0.0
 32
0.0
 13
1.0
 23
0.0
 33
0.0
 40
0.0
 40
0.0
 40
0.0
 40
0.0
 40
0.5016837083834368
 40
1.0
 40
1.0
 40
1.0
 40
1.0
 10
64.2655493003413
 20
520.7453316123399
 30
0.0
 10
64.33235016469379
 20
520.8970185713698
 30
0.0
 10
64.46550351058929
 20
521.1993743315733
 30
0.0
 10
64.60183701177445
 20
521.5015283005591
 30
0.0
 10
64.66977421650813
 20
521.6520965458814
 30
0.0
  0
LINE
  5
212
330
1F
100
AcDbEntity
  8
0
  6
Continuous
 62
     7
370
    15
100
AcDbLine
 10
67.5804176129
 20
524.6083795265
 30
0.0
 11
66.0804220236
 21
524.6083795265
 31
0.0
  0
ARC
  5
213
330
1F
100
AcDbEntity
  8
0
  6
Continuous
 62
     7
370
    15
100
AcDbCircle
 10
139.8181300685
 20
487.6083803453
 30
0.0
 40
82.50000000000003
100
AcDbArc
 50
153.3534851158
 51
153.6860119698
  0
LINE
  5
214
330
1F
100
AcDbEntity
  8
0
  6
Continuous
 62
     7
370
    15
100
AcDbLine
 10
62.8765457071
 20
462.0512375314
 30
0.0
 11
61.3765426672
 21
462.0512375314
 31
0.0
  0
LINE
  5
215
330
1F
100
AcDbEntity
  8
0
  6
Continuous
 62
     7
370
    15
100
AcDbLine
 10
63.7149744428
 20
459.6083802808
 30
0.0
 11
62.214971403
 21
459.6083802808
 31
0.0
  0
SPLINE
  5
216
330
1F
100
AcDbEntity
  8
0
  6
Continuous
 62
     7
370
    15
100
AcDbSpline
210
0.0
220
0.0
230
1.0
 70
     8
 71
     3
 72
    10
 73
     6
 74
     0
 42
0.00000001
 43
0.00000001
 12
1.0
 22
0.0
 32
0.0
 13
1.0
 23
0.0
 33
0.0
 40
0.0
 40
0.0
 40
0.0
 40
0.0
 40
0.3289486691597058
 40
0.6622818146172624
 40
0.9999999999999999
 40
0.9999999999999999
 40
0.9999999999999999
 40
0.9999999999999999
 10
62.21497291621403
 20
459.608380345312
 30
0.0
 10
62.11933222928483
 20
459.8760555085637
 30
0.0
 10
61.92677608411937
 20
460.4149736118019
 30
0.0
 10
61.64722159753862
 20
461.2292658550702
 30
0.0
 10
61.4671619684907
 20
461.7760559289507
 30
0.0
 10
61.37654384676429
 20
462.0512374881691
 30
0.0
  0
LINE
  5
217
330
1F
100
AcDbEntity
  8
0
  6
Continuous
 62
     7
370
    15
100
AcDbLine
 10
61.0358127154
 20
468.6083801262
 30
0.0
 11
59.5358171261
 21
468.6083801262
 31
0.0
  0
ARC
  5
218
330
1F
100
AcDbEntity
  8
0
  6
Continuous
 62
     7
370
    15
100
AcDbCircle
 10
139.8181300685
 20
487.6083803453
 30
0.0
 40
82.49999999999999
100
AcDbArc
 50
193.3149130581
 51
198.0461866842
  0
LINE
  5
219
330
1F
100
AcDbEntity
  8
0
  6
Continuous
 62
     7
370
    15
100
AcDbLine
 10
64.6403440035
 20
457.1655232631
 30
0.0
 11
63.1403484143
 21
457.1655232631
 31
0.0
  0
LINE
  5
21A
330
1F
100
AcDbEntity
  8
0
  6
Continuous
 62
     7
370
    15
100
AcDbLine
 10
67.5804176129
 20
450.6083804354
 30
0.0
 11
66.0804220236
 21
450.6083804354
 31
0.0
  0
ARC
  5
21B
330
1F
100
AcDbEntity
  8
0
  6
Continuous
 62
     7
370
    15
100
AcDbCircle
 10
139.8181300685
 20
487.6083803453
 30
0.0
 40
82.50000000000003
100
AcDbArc
 50
201.6542247778
 51
206.6465148842
  0
SPLINE
  5
21C
330
1F
100
AcDbEntity
  8
0
  6
Continuous
 62
     7
370
    15
100
AcDbSpline
210
0.0
220
0.0
230
1.0
 70
     8
 71
     3
 72
    10
 73
     6
 74
     0
 42
0.00000001
 43
0.00000001
 12
1.0
 22
0.0
 32
0.0
 13
1.0
 23
0.0
 33
0.0
 40
0.0
 40
0.0
 40
0.0
 40
0.0
 40
0.3291179424234935
 40
0.6624510379316549
 40
1.0
 40
1.0
 40
1.0
 40
1.0
 10
63.14034678688731
 20
457.1655232024548
 30
0.0
 10
63.03500305071822
 20
457.4333110036531
 30
0.0
 10
62.82296639646913
 20
457.9723162780023
 30
0.0
 10
62.51443914786891
 20
458.7866092922693
 30
0.0
 10
62.31521231157223
 20
459.3333114902206
 30
0.0
 10
62.21497291621406
 20
459.608380345312
 30
0.0
  0
LINE
  5
21D
330
1F
100
AcDbEntity
  8
0
  6
Continuous
 62
     7
370
    15
100
AcDbLine
 10
61.643727938
 20
461.245282384
 30
0.0
 11
61.5102358854
 21
461.651637399
 31
0.0
  0
LINE
  5
21E
330
1F
100
AcDbEntity
  8
0
  6
Continuous
 62
     7
370
    15
100
AcDbLine
 10
62.9748486675
 20
457.592117431
 30
0.0
 11
62.8252484596
 21
457.9714781776
 31
0.0
  0
INSERT
  5
22A
330
1F
100
AcDbEntity
  8
FORMAT
100
AcDbBlockReference
  2
SW_CENTERMARKSYMBOL_0
 10
141.3181300685
 20
487.6083803453
 30
0.0
  0
LINE
  5
22B
330
1F
100
AcDbEntity
  8
0
  6
Continuous
 62
     7
370
    15
100
AcDbLine
 10
223.8181316055
 20
63.4975003063
 30
0.0
 11
223.8181316055
 21
82.497501558
 31
0.0
  0
LINE
  5
22C
330
1F
100
AcDbEntity
  8
0
  6
Continuous
 62
     7
370
    15
100
AcDbLine
 10
58.8181324995
 20
82.497501558
 30
0.0
 11
58.8181324995
 21
63.4975003063
 31
0.0
  0
LINE
  5
22D
330
1F
100
AcDbEntity
  8
0
  6
Continuous
 62
     7
370
    15
100
AcDbLine
 10
58.8181324995
 20
263.4975032865
 30
0.0
 11
58.8181324995
 21
244.4975020348
 31
0.0
  0
LINE
  5
22E
330
1F
100
AcDbEntity
  8
0
  6
Continuous
 62
     7
370
    15
100
AcDbLine
 10
223.8181316055
 20
244.4975020348
 30
0.0
 11
223.8181316055
 21
263.4975032865
 31
0.0
  0
LINE
  5
22F
330
1F
100
AcDbEntity
  8
0
  6
Continuous
 62
     7
370
    15
100
AcDbLine
 10
58.8181324995
 20
168.2171354054
 30
0.0
 11
58.8181324995
 21
150.2171345505
 31
0.0
  0
LINE
  5
230
330
1F
100
AcDbEntity
  8
0
  6
Continuous
 62
     7
370
    15
100
AcDbLine
 10
223.8181316055
 20
150.2171345505
 30
0.0
 11
223.8181316055
 21
168.2171354054
 31
0.0
  0
LINE
  5
231
330
1F
100
AcDbEntity
  8
0
  6
Continuous
 62
     7
370
    15
100
AcDbLine
 10
202.7623065508
 20
263.4975032865
 30
0.0
 11
202.7623065508
 21
265.4975073396
 31
0.0
  0
LINE
  5
232
330
1F
100
AcDbEntity
  8
0
  6
Continuous
 62
     7
370
    15
100
AcDbLine
 10
168.2623036898
 20
265.4975073396
 30
0.0
 11
168.2623036898
 21
263.4975032865
 31
0.0
  0
LINE
  5
233
330
1F
100
AcDbEntity
  8
0
  6
Continuous
 62
     7
370
    15
100
AcDbLine
 10
114.3739566899
 20
263.4975032865
 30
0.0
 11
114.3739566899
 21
265.4975073396
 31
0.0
  0
LINE
  5
234
330
1F
100
AcDbEntity
  8
0
  6
Continuous
 62
     7
370
    15
100
AcDbLine
 10
79.8739575542
 20
265.4975073396
 30
0.0
 11
79.8739575542
 21
263.4975032865
 31
0.0
  0
LINE
  5
235
330
1F
100
AcDbEntity
  8
0
  6
Continuous
 62
     7
370
    15
100
AcDbLine
 10
168.2623036898
 20
244.4975020348
 30
0.0
 11
168.2623036898
 21
242.4975054323
 31
0.0
  0
LINE
  5
236
330
1F
100
AcDbEntity
  8
0
  6
Continuous
 62
     7
370
    15
100
AcDbLine
 10
202.7623065508
 20
242.4975054323
 30
0.0
 11
202.7623065508
 21
244.4975020348
 31
0.0
  0
LINE
  5
237
330
1F
100
AcDbEntity
  8
0
  6
Continuous
 62
     7
370
    15
100
AcDbLine
 10
79.8739575542
 20
244.4975020348
 30
0.0
 11
79.8739575542
 21
242.4975054323
 31
0.0
  0
LINE
  5
238
330
1F
100
AcDbEntity
  8
0
  6
Continuous
 62
     7
370
    15
100
AcDbLine
 10
114.3739566899
 20
242.4975054323
 30
0.0
 11
114.3739566899
 21
244.4975020348
 31
0.0
  0
LINE
  5
239
330
1F
100
AcDbEntity
  8
0
  6
Continuous
 62
     7
370
    15
100
AcDbLine
 10
168.2623036898
 20
150.2171345505
 30
0.0
 11
168.2623036898
 21
148.2171344555
 31
0.0
  0
LINE
  5
23A
330
1F
100
AcDbEntity
  8
0
  6
Continuous
 62
     7
370
    15
100
AcDbLine
 10
202.7623065508
 20
148.2171344555
 30
0.0
 11
202.7623065508
 21
150.2171345505
 31
0.0
  0
LINE
  5
23B
330
1F
100
AcDbEntity
  8
0
  6
Continuous
 62
     7
370
    15
100
AcDbLine
 10
79.8739575542
 20
150.2171345505
 30
0.0
 11
79.8739575542
 21
148.2171344555
 31
0.0
  0
LINE
  5
23C
330
1F
100
AcDbEntity
  8
0
  6
Continuous
 62
     7
370
    15
100
AcDbLine
 10
114.3739566899
 20
148.2171344555
 30
0.0
 11
114.3739566899
 21
150.2171345505
 31
0.0
  0
LINE
  5
23D
330
1F
100
AcDbEntity
  8
0
  6
Continuous
 62
     7
370
    15
100
AcDbLine
 10
202.7623065508
 20
82.497501558
 30
0.0
 11
202.7623065508
 21
84.4975056111
 31
0.0
  0
LINE
  5
23E
330
1F
100
AcDbEntity
  8
0
  6
Continuous
 62
     7
370
    15
100
AcDbLine
 10
168.2623036898
 20
84.4975056111
 30
0.0
 11
168.2623036898
 21
82.497501558
 31
0.0
  0
LINE
  5
23F
330
1F
100
AcDbEntity
  8
0
  6
Continuous
 62
     7
370
    15
100
AcDbLine
 10
114.3739566899
 20
82.497501558
 30
0.0
 11
114.3739566899
 21
84.4975056111
 31
0.0
  0
LINE
  5
240
330
1F
100
AcDbEntity
  8
0
  6
Continuous
 62
     7
370
    15
100
AcDbLine
 10
79.8739575542
 20
84.4975056111
 30
0.0
 11
79.8739575542
 21
82.497501558
 31
0.0
  0
LINE
  5
241
330
1F
100
AcDbEntity
  8
0
  6
Continuous
 62
     7
370
    15
100
AcDbLine
 10
168.2623036898
 20
63.4975003063
 30
0.0
 11
168.2623036898
 21
61.4975037037
 31
0.0
  0
LINE
  5
242
330
1F
100
AcDbEntity
  8
0
  6
Continuous
 62
     7
370
    15
100
AcDbLine
 10
202.7623065508
 20
61.4975037037
 30
0.0
 11
202.7623065508
 21
63.4975003063
 31
0.0
  0
LINE
  5
243
330
1F
100
AcDbEntity
  8
0
  6
Continuous
 62
     7
370
    15
100
AcDbLine
 10
79.8739575542
 20
63.4975003063
 30
0.0
 11
79.8739575542
 21
61.4975037037
 31
0.0
  0
LINE
  5
244
330
1F
100
AcDbEntity
  8
0
  6
Continuous
 62
     7
370
    15
100
AcDbLine
 10
114.3739566899
 20
61.4975037037
 30
0.0
 11
114.3739566899
 21
63.4975003063
 31
0.0
  0
LINE
  5
245
330
1F
100
AcDbEntity
  8
0
  6
Continuous
 62
     7
370
    15
100
AcDbLine
 10
109.1239553637
 20
228.4975068628
 30
0.0
 11
109.246709267
 21
228.5683767854
 31
0.0
  0
LINE
  5
246
330
1F
100
AcDbEntity
  8
0
  6
Continuous
 62
     7
370
    15
100
AcDbLine
 10
109.1239553637
 20
134.2171335577
 30
0.0
 11
109.246709267
 21
134.288005343
 31
0.0
  0
LINE
  5
247
330
1F
100
AcDbEntity
  8
0
  6
Continuous
 62
     7
370
    15
100
AcDbLine
 10
109.1239553637
 20
47.4975051342
 30
0.0
 11
109.246709267
 21
47.5683750569
 31
0.0
  0
LINE
  5
248
330
1F
100
AcDbEntity
  8
0
  6
Continuous
 62
     7
370
    15
100
AcDbLine
 10
109.5173273928
 20
279.2703973113
 30
0.0
 11
109.1239553637
 21
279.4975059091
 31
0.0
  0
LINE
  5
249
330
1F
100
AcDbEntity
  8
0
  6
Continuous
 62
     7
370
    15
100
AcDbLine
 10
109.5173273928
 20
98.2703918575
 30
0.0
 11
109.1239553637
 21
98.4975041806
 31
0.0
  0
LINE
  5
24A
330
1F
100
AcDbEntity
  8
0
  6
Continuous
 62
     7
370
    15
100
AcDbLine
 10
173.5123031533
 20
279.4975059091
 30
0.0
 11
173.0520100094
 21
279.2317586004
 31
0.0
  0
LINE
  5
24B
330
1F
100
AcDbEntity
  8
0
  6
Continuous
 62
     7
370
    15
100
AcDbLine
 10
173.5123031533
 20
98.4975041806
 30
0.0
 11
173.0520100094
 21
98.2317531465
 31
0.0
  0
LINE
  5
24C
330
1F
100
AcDbEntity
  8
0
  6
Continuous
 62
     7
370
    15
100
AcDbLine
 10
193.5123027063
 20
279.4975059091
 30
0.0
 11
193.5123027063
 21
328.4975009023
 31
0.0
  0
LINE
  5
24D
330
1F
100
AcDbEntity
  8
0
  6
Continuous
 62
     7
370
    15
100
AcDbLine
 10
177.512303809
 20
328.4975009023
 30
0.0
 11
177.512303809
 21
279.4975059091
 31
0.0
  0
LINE
  5
24E
330
1F
100
AcDbEntity
  8
0
  6
Continuous
 62
     7
370
    15
100
AcDbLine
 10
105.1239565707
 20
279.4975059091
 30
0.0
 11
105.1239565707
 21
328.4975009023
 31
0.0
  0
LINE
  5
24F
330
1F
100
AcDbEntity
  8
0
  6
Continuous
 62
     7
370
    15
100
AcDbLine
 10
89.1239576734
 20
328.4975009023
 30
0.0
 11
89.1239576734
 21
279.4975059091
 31
0.0
  0
LINE
  5
250
330
1F
100
AcDbEntity
  8
0
  6
Continuous
 62
     7
370
    15
100
AcDbLine
 10
193.5123027063
 20
168.2171354054
 30
0.0
 11
193.5123027063
 21
228.4975068628
 31
0.0
  0
LINE
  5
251
330
1F
100
AcDbEntity
  8
0
  6
Continuous
 62
     7
370
    15
100
AcDbLine
 10
177.512303809
 20
228.4975068628
 30
0.0
 11
177.512303809
 21
168.2171354054
 31
0.0
  0
LINE
  5
252
330
1F
100
AcDbEntity
  8
0
  6
Continuous
 62
     7
370
    15
100
AcDbLine
 10
105.1239565707
 20
168.2171354054
 30
0.0
 11
105.1239565707
 21
228.4975068628
 31
0.0
  0
LINE
  5
253
330
1F
100
AcDbEntity
  8
0
  6
Continuous
 62
     7
370
    15
100
AcDbLine
 10
89.1239576734
 20
228.4975068628
 30
0.0
 11
89.1239576734
 21
168.2171354054
 31
0.0
  0
LINE
  5
254
330
1F
100
AcDbEntity
  8
0
  6
Continuous
 62
     7
370
    15
100
AcDbLine
 10
193.5123027063
 20
98.4975041806
 30
0.0
 11
193.5123027063
 21
134.2171335577
 31
0.0
  0
LINE
  5
255
330
1F
100
AcDbEntity
  8
0
  6
Continuous
 62
     7
370
    15
100
AcDbLine
 10
177.512303809
 20
134.2171335577
 30
0.0
 11
177.512303809
 21
98.4975041806
 31
0.0
  0
LINE
  5
256
330
1F
100
AcDbEntity
  8
0
  6
Continuous
 62
     7
370
    15
100
AcDbLine
 10
105.1239565707
 20
98.4975041806
 30
0.0
 11
105.1239565707
 21
134.2171335577
 31
0.0
  0
LINE
  5
257
330
1F
100
AcDbEntity
  8
0
  6
Continuous
 62
     7
370
    15
100
AcDbLine
 10
89.1239576734
 20
134.2171335577
 30
0.0
 11
89.1239576734
 21
98.4975041806
 31
0.0
  0
LINE
  5
258
330
1F
100
AcDbEntity
  8
0
  6
Continuous
 62
     7
370
    15
100
AcDbLine
 10
193.5123027063
 20
-1.5024973095
 30
0.0
 11
193.5123027063
 21
47.4975051342
 31
0.0
  0
LINE
  5
259
330
1F
100
AcDbEntity
  8
0
  6
Continuous
 62
     7
370
    15
100
AcDbLine
 10
177.512303809
 20
47.4975051342
 30
0.0
 11
177.512303809
 21
-1.5024973095
 31
0.0
  0
LINE
  5
25A
330
1F
100
AcDbEntity
  8
0
  6
Continuous
 62
     7
370
    15
100
AcDbLine
 10
105.1239565707
 20
-1.5024973095
 30
0.0
 11
105.1239565707
 21
47.4975051342
 31
0.0
  0
LINE
  5
25B
330
1F
100
AcDbEntity
  8
0
  6
Continuous
 62
     7
370
    15
100
AcDbLine
 10
89.1239576734
 20
47.4975051342
 30
0.0
 11
89.1239576734
 21
-1.5024973095
 31
0.0
  0
LINE
  5
25C
330
1F
100
AcDbEntity
  8
0
  6
Continuous
 62
     7
370
    15
100
AcDbLine
 10
172.5801796413
 20
229.0356697499
 30
0.0
 11
173.5123031533
 21
228.4975068628
 31
0.0
  0
LINE
  5
25D
330
1F
100
AcDbEntity
  8
0
  6
Continuous
 62
     7
370
    15
100
AcDbLine
 10
172.5801796413
 20
134.7552983074
 30
0.0
 11
173.5123031533
 21
134.2171335577
 31
0.0
  0
LINE
  5
25E
330
1F
100
AcDbEntity
  8
0
  6
Continuous
 62
     7
370
    15
100
AcDbLine
 10
172.5801796413
 20
48.0356680213
 30
0.0
 11
173.5123031533
 21
47.4975051342
 31
0.0
  0
LINE
  5
25F
330
1F
100
AcDbEntity
  8
0
  6
Continuous
 62
     7
370
    15
100
AcDbLine
 10
197.5123070873
 20
228.4975068628
 30
0.0
 11
198.444426874
 21
229.0356697499
 31
0.0
  0
LINE
  5
260
330
1F
100
AcDbEntity
  8
0
  6
Continuous
 62
     7
370
    15
100
AcDbLine
 10
197.5123070873
 20
134.2171335577
 30
0.0
 11
198.444426874
 21
134.7552983074
 31
0.0
  0
LINE
  5
261
330
1F
100
AcDbEntity
  8
0
  6
Continuous
 62
     7
370
    15
100
AcDbLine
 10
197.5123070873
 20
47.4975051342
 30
0.0
 11
198.444426874
 21
48.0356680213
 31
0.0
  0
LINE
  5
262
330
1F
100
AcDbEntity
  8
0
  6
Continuous
 62
     7
370
    15
100
AcDbLine
 10
197.9725965059
 20
279.2317586004
 30
0.0
 11
197.5123070873
 21
279.4975059091
 31
0.0
  0
LINE
  5
263
330
1F
100
AcDbEntity
  8
0
  6
Continuous
 62
     7
370
    15
100
AcDbLine
 10
197.9725965059
 20
98.2317531465
 30
0.0
 11
197.5123070873
 21
98.4975041806
 31
0.0
  0
LINE
  5
264
330
1F
100
AcDbEntity
  8
0
  6
Continuous
 62
     7
370
    15
100
AcDbLine
 10
85.1239570177
 20
279.4975059091
 30
0.0
 11
84.7334273852
 21
279.2720364391
 31
0.0
  0
LINE
  5
265
330
1F
100
AcDbEntity
  8
0
  6
Continuous
 62
     7
370
    15
100
AcDbLine
 10
85.1239570177
 20
98.4975041806
 30
0.0
 11
84.7334273852
 21
98.2720309853
 31
0.0
  0
LINE
  5
266
330
1F
100
AcDbEntity
  8
0
  6
Continuous
 62
     7
370
    15
100
AcDbLine
 10
105.1239565707
 20
173.4975034355
 30
0.0
 11
177.512303809
 21
173.4975034355
 31
0.0
  0
LINE
  5
267
330
1F
100
AcDbEntity
  8
0
  6
Continuous
 62
     7
370
    15
100
AcDbLine
 10
85.0021698273
 20
228.5678179919
 30
0.0
 11
85.1239570177
 21
228.4975068628
 31
0.0
  0
LINE
  5
268
330
1F
100
AcDbEntity
  8
0
  6
Continuous
 62
     7
370
    15
100
AcDbLine
 10
85.0021698273
 20
134.2874484121
 30
0.0
 11
85.1239570177
 21
134.2171335577
 31
0.0
  0
LINE
  5
269
330
1F
100
AcDbEntity
  8
0
  6
Continuous
 62
     7
370
    15
100
AcDbLine
 10
85.0021698273
 20
47.5678162633
 30
0.0
 11
85.1239570177
 21
47.4975051342
 31
0.0
  0
LINE
  5
26A
330
1F
100
AcDbEntity
  8
0
  6
Continuous
 62
     7
370
    15
100
AcDbLine
 10
171.3181295193
 20
84.4975056111
 30
0.0
 11
171.3181295193
 21
148.2171344555
 31
0.0
  0
LINE
  5
26B
330
1F
100
AcDbEntity
  8
0
  6
Continuous
 62
     7
370
    15
100
AcDbLine
 10
111.3181308604
 20
148.2171344555
 30
0.0
 11
111.3181308604
 21
84.4975056111
 31
0.0
  0
LINE
  5
26C
330
1F
100
AcDbEntity
  8
0
  6
Continuous
 62
     7
370
    15
100
AcDbLine
 10
84.1918297804
 20
229.0356697499
 30
0.0
 11
84.9995733
 21
228.5693155586
 31
0.0
  0
LINE
  5
26D
330
1F
100
AcDbEntity
  8
0
  6
Continuous
 62
     7
370
    15
100
AcDbLine
 10
84.1918297804
 20
134.7552983074
 30
0.0
 11
84.9995733
 21
134.2889478414
 31
0.0
  0
LINE
  5
26E
330
1F
100
AcDbEntity
  8
0
  6
Continuous
 62
     7
370
    15
100
AcDbLine
 10
84.1918297804
 20
48.0356680213
 30
0.0
 11
84.9995733
 21
47.56931383
 31
0.0
  0
LINE
  5
26F
330
1F
100
AcDbEntity
  8
0
  6
Continuous
 62
     7
370
    15
100
AcDbLine
 10
109.246709267
 20
134.288005343
 30
0.0
 11
110.056082601
 21
134.7552983074
 31
0.0
  0
LINE
  5
270
330
1F
100
AcDbEntity
  8
0
  6
Continuous
 62
     7
370
    15
100
AcDbLine
 10
109.246709267
 20
47.5683750569
 30
0.0
 11
110.056082601
 21
48.0356680213
 31
0.0
  0
LINE
  5
271
330
1F
100
AcDbEntity
  8
0
  6
Continuous
 62
     7
370
    15
100
AcDbLine
 10
109.5842503703
 20
279.2317586004
 30
0.0
 11
109.5173273928
 21
279.2703973113
 31
0.0
  0
LINE
  5
272
330
1F
100
AcDbEntity
  8
0
  6
Continuous
 62
     7
370
    15
100
AcDbLine
 10
109.5842503703
 20
98.2317531465
 30
0.0
 11
109.5173273928
 21
98.2703918575
 31
0.0
  0
LINE
  5
273
330
1F
100
AcDbEntity
  8
0
  6
Continuous
 62
     7
370
    15
100
AcDbLine
 10
58.8181324995
 20
63.4975003063
 30
0.0
 11
223.8181316055
 21
63.4975003063
 31
0.0
  0
LINE
  5
274
330
1F
100
AcDbEntity
  8
0
  6
Continuous
 62
     7
370
    15
100
AcDbLine
 10
62.9986830748
 20
79.6006338655
 30
0.0
 11
62.8765457071
 21
80.4975049554
 31
0.0
  0
LINE
  5
275
330
1F
100
AcDbEntity
  8
0
  6
Continuous
 62
     7
370
    15
100
AcDbLine
 10
65.0226556457
 20
78.0332179724
 30
0.0
 11
65.1357480086
 21
78.7189321577
 31
0.0
  0
LINE
  5
276
330
1F
100
AcDbEntity
  8
0
  6
Continuous
 62
     7
370
    15
100
AcDbLine
 10
67.5804176129
 20
80.4975049554
 30
0.0
 11
67.5804176129
 21
78.7189321577
 31
0.0
  0
SPLINE
  5
277
330
1F
100
AcDbEntity
  8
0
  6
Continuous
 62
     7
370
    15
100
AcDbSpline
210
0.0
220
0.0
230
1.0
 70
     8
 71
     3
 72
    10
 73
     6
 74
     0
 42
0.00000001
 43
0.00000001
 12
1.0
 22
0.0
 32
0.0
 13
1.0
 23
0.0
 33
0.0
 40
0.0
 40
0.0
 40
0.0
 40
0.0
 40
0.3324765629699882
 40
0.6658055523140065
 40
1.0
 40
1.0
 40
1.0
 40
1.0
 10
67.36692580347554
 20
71.9260751723849
 30
0.0
 10
67.25577279983143
 20
72.2264288445186
 30
0.0
 10
67.03318181079585
 20
72.82790625627393
 30
0.0
 10
66.70739679592909
 20
73.73328624574614
 30
0.0
 10
66.4955871984519
 20
74.33892208240859
 30
0.0
 10
66.38954509188794
 20
74.6421326106153
 30
0.0
  0
SPLINE
  5
278
330
1F
100
AcDbEntity
  8
0
  6
Continuous
 62
     7
370
    15
100
AcDbSpline
210
0.0
220
0.0
230
1.0
 70
     8
 71
     3
 72
     8
 73
     4
 74
     0
 42
0.00000001
 43
0.00000001
 12
1.0
 22
0.0
 32
0.0
 13
1.0
 23
0.0
 33
0.0
 40
0.0
 40
0.0
 40
0.0
 40
0.0
 40
1.0
 40
1.0
 40
1.0
 40
1.0
 10
66.38954509188795
 20
74.64213261061529
 30
0.0
 10
66.78391279412381
 20
74.82391937518862
 30
0.0
 10
67.15776123167917
 20
75.43403456028078
 30
0.0
 10
67.32459891162324
 20
76.31893231524204
 30
0.0
  0
LINE
  5
279
330
1F
100
AcDbEntity
  8
0
  6
Continuous
 62
     7
370
    15
100
AcDbLine
 10
67.5804176129
 20
78.0332179724
 30
0.0
 11
67.5804176129
 21
76.318928784
 31
0.0
  0
LINE
  5
27A
330
1F
100
AcDbEntity
  8
0
  6
Continuous
 62
     7
370
    15
100
AcDbLine
 10
58.8181324995
 20
82.497501558
 30
0.0
 11
223.8181316055
 21
82.497501558
 31
0.0
  0
LINE
  5
27B
330
1F
100
AcDbEntity
  8
0
  6
Continuous
 62
     7
370
    15
100
AcDbLine
 10
223.8181316055
 20
263.4975032865
 30
0.0
 11
58.8181324995
 21
263.4975032865
 31
0.0
  0
LINE
  5
27C
330
1F
100
AcDbEntity
  8
0
  6
Continuous
 62
     7
370
    15
100
AcDbLine
 10
223.8181316055
 20
244.4975020348
 30
0.0
 11
58.8181324995
 21
244.4975020348
 31
0.0
  0
LINE
  5
27D
330
1F
100
AcDbEntity
  8
0
  6
Continuous
 62
     7
370
    15
100
AcDbLine
 10
58.8181324995
 20
150.2171345505
 30
0.0
 11
223.8181316055
 21
150.2171345505
 31
0.0
  0
LINE
  5
27E
330
1F
100
AcDbEntity
  8
0
  6
Continuous
 62
     7
370
    15
100
AcDbLine
 10
58.8181324995
 20
168.2171354054
 30
0.0
 11
223.8181316055
 21
168.2171354054
 31
0.0
  0
LINE
  5
27F
330
1F
100
AcDbEntity
  8
0
  6
Continuous
 62
     7
370
    15
100
AcDbLine
 10
168.2623036898
 20
265.4975073396
 30
0.0
 11
202.7623065508
 21
265.4975073396
 31
0.0
  0
LINE
  5
280
330
1F
100
AcDbEntity
  8
0
  6
Continuous
 62
     7
370
    15
100
AcDbLine
 10
79.8739575542
 20
265.4975073396
 30
0.0
 11
114.3739566899
 21
265.4975073396
 31
0.0
  0
LINE
  5
281
330
1F
100
AcDbEntity
  8
0
  6
Continuous
 62
     7
370
    15
100
AcDbLine
 10
202.7623065508
 20
242.4975054323
 30
0.0
 11
168.2623036898
 21
242.4975054323
 31
0.0
  0
LINE
  5
282
330
1F
100
AcDbEntity
  8
0
  6
Continuous
 62
     7
370
    15
100
AcDbLine
 10
114.3739566899
 20
242.4975054323
 30
0.0
 11
79.8739575542
 21
242.4975054323
 31
0.0
  0
LINE
  5
283
330
1F
100
AcDbEntity
  8
0
  6
Continuous
 62
     7
370
    15
100
AcDbLine
 10
202.7623065508
 20
148.2171344555
 30
0.0
 11
168.2623036898
 21
148.2171344555
 31
0.0
  0
LINE
  5
284
330
1F
100
AcDbEntity
  8
0
  6
Continuous
 62
     7
370
    15
100
AcDbLine
 10
114.3739566899
 20
148.2171344555
 30
0.0
 11
79.8739575542
 21
148.2171344555
 31
0.0
  0
LINE
  5
285
330
1F
100
AcDbEntity
  8
0
  6
Continuous
 62
     7
370
    15
100
AcDbLine
 10
168.2623036898
 20
84.4975056111
 30
0.0
 11
202.7623065508
 21
84.4975056111
 31
0.0
  0
LINE
  5
286
330
1F
100
AcDbEntity
  8
0
  6
Continuous
 62
     7
370
    15
100
AcDbLine
 10
79.8739575542
 20
84.4975056111
 30
0.0
 11
114.3739566899
 21
84.4975056111
 31
0.0
  0
LINE
  5
287
330
1F
100
AcDbEntity
  8
0
  6
Continuous
 62
     7
370
    15
100
AcDbLine
 10
202.7623065508
 20
61.4975037037
 30
0.0
 11
168.2623036898
 21
61.4975037037
 31
0.0
  0
LINE
  5
288
330
1F
100
AcDbEntity
  8
0
  6
Continuous
 62
     7
370
    15
100
AcDbLine
 10
114.3739566899
 20
61.4975037037
 30
0.0
 11
79.8739575542
 21
61.4975037037
 31
0.0
  0
SPLINE
  5
289
330
1F
100
AcDbEntity
  8
0
  6
Continuous
 62
     7
370
    15
100
AcDbSpline
210
0.0
220
0.0
230
1.0
 70
     8
 71
     3
 72
    10
 73
     6
 74
     0
 42
0.00000001
 43
0.00000001
 12
1.0
 22
0.0
 32
0.0
 13
1.0
 23
0.0
 33
0.0
 40
0.0
 40
0.0
 40
0.0
 40
0.0
 40
0.5
 40
0.5
 40
1.0
 40
1.0
 40
1.0
 40
1.0
 10
100.5715818923836
 20
278.4257069740892
 30
0.0
 10
99.47993084083957
 20
278.7528807352008
 30
0.0
 10
98.38030595015191
 20
279.022423279119
 30
0.0
 10
96.15806734418828
 20
279.3953557873774
 30
0.0
 10
95.035281785045
 20
279.4975037438134
 30
0.0
 10
93.89836306312735
 20
279.4975037438134
 30
0.0
  0
LINE
  5
28A
330
1F
100
AcDbEntity
  8
0
  6
Continuous
 62
     7
370
    15
100
AcDbLine
 10
105.5209886975
 20
279.4975059091
 30
0.0
 11
93.8983642257
 21
279.4975059091
 31
0.0
  0
SPLINE
  5
28B
330
1F
100
AcDbEntity
  8
0
  6
Continuous
 62
     7
370
    15
100
AcDbSpline
210
0.0
220
0.0
230
1.0
 70
     8
 71
     3
 72
    12
 73
     8
 74
     0
 42
0.00000001
 43
0.00000001
 12
1.0
 22
0.0
 32
0.0
 13
1.0
 23
0.0
 33
0.0
 40
0.0
 40
0.0
 40
0.0
 40
0.0
 40
0.2500000000000003
 40
0.2500000000000003
 40
0.5000000000000006
 40
0.5000000000000006
 40
1.0
 40
1.0
 40
1.0
 40
1.0
 10
105.5209878976099
 20
279.4975037438134
 30
0.0
 10
105.1009483450924
 20
279.4975037438134
 30
0.0
 10
104.6790242881053
 20
279.4721704905203
 30
0.0
 10
103.8443706169321
 20
279.3741336034436
 30
0.0
 10
103.4298353573141
 20
279.3015242345147
 30
0.0
 10
102.1935920673736
 20
279.0214775355806
 30
0.0
 10
101.3792178784366
 20
278.7520637066748
 30
0.0
 10
100.5715818923835
 20
278.4257069740891
 30
0.0
  0
SPLINE
  5
28C
330
1F
100
AcDbEntity
  8
0
  6
Continuous
 62
     7
370
    15
100
AcDbSpline
210
0.0
220
0.0
230
1.0
 70
     8
 71
     3
 72
    12
 73
     8
 74
     0
 42
0.00000001
 43
0.00000001
 12
1.0
 22
0.0
 32
0.0
 13
1.0
 23
0.0
 33
0.0
 40
0.0
 40
0.0
 40
0.0
 40
0.0
 40
0.2500000000000011
 40
0.2500000000000011
 40
0.5000000000000022
 40
0.5000000000000022
 40
1.0
 40
1.0
 40
1.0
 40
1.0
 10
93.89836306312735
 20
279.4975037438134
 30
0.0
 10
93.33202927520765
 20
279.4975037438134
 30
0.0
 10
92.76315463477009
 20
279.4721704905203
 30
0.0
 10
91.63780209983976
 20
279.3741336034435
 30
0.0
 10
91.07888967742949
 20
279.3015242345147
 30
0.0
 10
89.41207915688193
 20
279.0214775355806
 30
0.0
 10
88.31406918034418
 20
278.7520637066748
 30
0.0
 10
87.22514423387115
 20
278.4257069740891
 30
0.0
  0
LINE
  5
28D
330
1F
100
AcDbEntity
  8
0
  6
Continuous
 62
     7
370
    15
100
AcDbLine
 10
100.5715810455
 20
278.4257100879
 30
0.0
 11
100.5715810455
 21
265.4975073396
 31
0.0
  0
LINE
  5
28E
330
1F
100
AcDbEntity
  8
0
  6
Continuous
 62
     7
370
    15
100
AcDbLine
 10
87.2251436806
 20
278.4257100879
 30
0.0
 11
87.2251436806
 21
265.4975073396
 31
0.0
  0
SPLINE
  5
28F
330
1F
100
AcDbEntity
  8
0
  6
Continuous
 62
     7
370
    15
100
AcDbSpline
210
0.0
220
0.0
230
1.0
 70
     8
 71
     3
 72
    10
 73
     6
 74
     0
 42
0.00000001
 43
0.00000001
 12
1.0
 22
0.0
 32
0.0
 13
1.0
 23
0.0
 33
0.0
 40
0.0
 40
0.0
 40
0.0
 40
0.0
 40
0.5
 40
0.5
 40
1.0
 40
1.0
 40
1.0
 40
1.0
 10
100.5715818923836
 20
97.42570697408928
 30
0.0
 10
99.47993084083957
 20
97.75288073520082
 30
0.0
 10
98.38030595015191
 20
98.02242327911907
 30
0.0
 10
96.15806734418827
 20
98.39535578737737
 30
0.0
 10
95.03528178504499
 20
98.4975037438135
 30
0.0
 10
93.89836306312733
 20
98.4975037438135
 30
0.0
  0
LINE
  5
290
330
1F
100
AcDbEntity
  8
0
  6
Continuous
 62
     7
370
    15
100
AcDbLine
 10
105.5209886975
 20
98.4975041806
 30
0.0
 11
93.8983642257
 21
98.4975041806
 31
0.0
  0
SPLINE
  5
291
330
1F
100
AcDbEntity
  8
0
  6
Continuous
 62
     7
370
    15
100
AcDbSpline
210
0.0
220
0.0
230
1.0
 70
     8
 71
     3
 72
    12
 73
     8
 74
     0
 42
0.00000001
 43
0.00000001
 12
1.0
 22
0.0
 32
0.0
 13
1.0
 23
0.0
 33
0.0
 40
0.0
 40
0.0
 40
0.0
 40
0.0
 40
0.2500000000000013
 40
0.2500000000000013
 40
0.5000000000000026
 40
0.5000000000000026
 40
1.0
 40
1.0
 40
1.0
 40
1.0
 10
105.5209878976099
 20
98.4975037438135
 30
0.0
 10
105.1009483450924
 20
98.4975037438135
 30
0.0
 10
104.6790242881053
 20
98.47217049052036
 30
0.0
 10
103.8443706169321
 20
98.37413360344357
 30
0.0
 10
103.4298353573141
 20
98.30152423451472
 30
0.0
 10
102.1935920673736
 20
98.02147753558074
 30
0.0
 10
101.3792178784366
 20
97.75206370667499
 30
0.0
 10
100.5715818923835
 20
97.42570697408914
 30
0.0
  0
SPLINE
  5
292
330
1F
100
AcDbEntity
  8
0
  6
Continuous
 62
     7
370
    15
100
AcDbSpline
210
0.0
220
0.0
230
1.0
 70
     8
 71
     3
 72
    12
 73
     8
 74
     0
 42
0.00000001
 43
0.00000001
 12
1.0
 22
0.0
 32
0.0
 13
1.0
 23
0.0
 33
0.0
 40
0.0
 40
0.0
 40
0.0
 40
0.0
 40
0.2500000000000011
 40
0.2500000000000011
 40
0.5000000000000022
 40
0.5000000000000022
 40
1.0
 40
1.0
 40
1.0
 40
1.0
 10
93.89836306312733
 20
98.4975037438135
 30
0.0
 10
93.33202927520765
 20
98.49750374381348
 30
0.0
 10
92.76315463477007
 20
98.47217049052034
 30
0.0
 10
91.63780209983976
 20
98.37413360344357
 30
0.0
 10
91.07888967742947
 20
98.30152423451472
 30
0.0
 10
89.41207915688193
 20
98.02147753558073
 30
0.0
 10
88.31406918034419
 20
97.75206370667497
 30
0.0
 10
87.22514423387113
 20
97.42570697408914
 30
0.0
  0
LINE
  5
293
330
1F
100
AcDbEntity
  8
0
  6
Continuous
 62
     7
370
    15
100
AcDbLine
 10
100.5715810455
 20
97.4257083594
 30
0.0
 11
100.5715810455
 21
84.4975056111
 31
0.0
  0
LINE
  5
294
330
1F
100
AcDbEntity
  8
0
  6
Continuous
 62
     7
370
    15
100
AcDbLine
 10
87.2251436806
 20
97.4257083594
 30
0.0
 11
87.2251436806
 21
84.4975056111
 31
0.0
  0
SPLINE
  5
295
330
1F
100
AcDbEntity
  8
0
  6
Continuous
 62
     7
370
    15
100
AcDbSpline
210
0.0
220
0.0
230
1.0
 70
     8
 71
     3
 72
    12
 73
     8
 74
     0
 42
0.00000001
 43
0.00000001
 12
1.0
 22
0.0
 32
0.0
 13
1.0
 23
0.0
 33
0.0
 40
0.0
 40
0.0
 40
0.0
 40
0.0
 40
0.2500000000000016
 40
0.2500000000000016
 40
0.5000000000000031
 40
0.5000000000000031
 40
1.0
 40
1.0
 40
1.0
 40
1.0
 10
188.498035286601
 20
279.4975037438134
 30
0.0
 10
187.9307310979814
 20
279.4975037438134
 30
0.0
 10
187.3616097622478
 20
279.4726123363534
 30
0.0
 10
186.2197797013779
 20
279.3736892120697
 30
0.0
 10
185.6530399240866
 20
279.3001686948796
 30
0.0
 10
183.9719866002146
 20
279.0184140467262
 30
0.0
 10
182.8727319450219
 20
278.7490958239648
 30
0.0
 10
181.7877097097224
 20
278.425706974089
 30
0.0
  0
SPLINE
  5
296
330
1F
100
AcDbEntity
  8
0
  6
Continuous
 62
     7
370
    15
100
AcDbSpline
210
0.0
220
0.0
230
1.0
 70
     8
 71
     3
 72
    10
 73
     6
 74
     0
 42
0.00000001
 43
0.00000001
 12
1.0
 22
0.0
 32
0.0
 13
1.0
 23
0.0
 33
0.0
 40
0.0
 40
0.0
 40
0.0
 40
0.0
 40
0.5
 40
0.5
 40
1.0
 40
1.0
 40
1.0
 40
1.0
 10
181.7877097097225
 20
278.4257069740892
 30
0.0
 10
180.9946358529474
 20
278.7528807352008
 30
0.0
 10
180.1957690796959
 20
279.022423279119
 30
0.0
 10
178.5813343760299
 20
279.3953557873774
 30
0.0
 10
177.7656416027195
 20
279.4975037438134
 30
0.0
 10
176.939681224304
 20
279.4975037438134
 30
0.0
  0
LINE
  5
297
330
1F
100
AcDbEntity
  8
0
  6
Continuous
 62
     7
370
    15
100
AcDbLine
 10
188.4980358875
 20
279.4975059091
 30
0.0
 11
176.9396819866
 21
279.4975059091
 31
0.0
  0
SPLINE
  5
298
330
1F
100
AcDbEntity
  8
0
  6
Continuous
 62
     7
370
    15
100
AcDbSpline
210
0.0
220
0.0
230
1.0
 70
     8
 71
     3
 72
    10
 73
     6
 74
     0
 42
0.00000001
 43
0.00000001
 12
1.0
 22
0.0
 32
0.0
 13
1.0
 23
0.0
 33
0.0
 40
0.0
 40
0.0
 40
0.0
 40
0.0
 40
0.5
 40
0.5
 40
1.0
 40
1.0
 40
1.0
 40
1.0
 10
195.2083608634795
 20
278.425706974089
 30
0.0
 10
194.1169807729834
 20
278.7509907708265
 30
0.0
 10
192.9991934588498
 20
279.0238177280256
 30
0.0
 10
190.7585581063764
 20
279.3968706905684
 30
0.0
 10
189.6319699532654
 20
279.4975037438134
 30
0.0
 10
188.498035286601
 20
279.4975037438134
 30
0.0
  0
LINE
  5
299
330
1F
100
AcDbEntity
  8
0
  6
Continuous
 62
     7
370
    15
100
AcDbLine
 10
195.208360324
 20
278.4257100879
 30
0.0
 11
195.208360324
 21
265.4975073396
 31
0.0
  0
LINE
  5
29A
330
1F
100
AcDbEntity
  8
0
  6
Continuous
 62
     7
370
    15
100
AcDbLine
 10
181.7877114511
 20
278.4257100879
 30
0.0
 11
181.7877114511
 21
265.4975073396
 31
0.0
  0
SPLINE
  5
29B
330
1F
100
AcDbEntity
  8
0
  6
Continuous
 62
     7
370
    15
100
AcDbSpline
210
0.0
220
0.0
230
1.0
 70
     8
 71
     3
 72
    12
 73
     8
 74
     0
 42
0.00000001
 43
0.00000001
 12
1.0
 22
0.0
 32
0.0
 13
1.0
 23
0.0
 33
0.0
 40
0.0
 40
0.0
 40
0.0
 40
0.0
 40
0.2499999999999997
 40
0.2499999999999997
 40
0.4999999999999993
 40
0.4999999999999993
 40
1.0
 40
1.0
 40
1.0
 40
1.0
 10
188.498035286601
 20
98.49750374381348
 30
0.0
 10
187.9307310979813
 20
98.4975037438135
 30
0.0
 10
187.3616097622477
 20
98.47261233635345
 30
0.0
 10
186.2197797013779
 20
98.3736892120698
 30
0.0
 10
185.6530399240866
 20
98.30016869487963
 30
0.0
 10
183.9719866002146
 20
98.01841404672622
 30
0.0
 10
182.8727319450219
 20
97.7490958239648
 30
0.0
 10
181.7877097097224
 20
97.425706974089
 30
0.0
  0
SPLINE
  5
29C
330
1F
100
AcDbEntity
  8
0
  6
Continuous
 62
     7
370
    15
100
AcDbSpline
210
0.0
220
0.0
230
1.0
 70
     8
 71
     3
 72
    10
 73
     6
 74
     0
 42
0.00000001
 43
0.00000001
 12
1.0
 22
0.0
 32
0.0
 13
1.0
 23
0.0
 33
0.0
 40
0.0
 40
0.0
 40
0.0
 40
0.0
 40
0.5
 40
0.5
 40
1.0
 40
1.0
 40
1.0
 40
1.0
 10
195.2083608634795
 20
97.42570697408904
 30
0.0
 10
194.1169807729834
 20
97.7509907708266
 30
0.0
 10
192.9991934588498
 20
98.02381772802566
 30
0.0
 10
190.7585581063763
 20
98.39687069056845
 30
0.0
 10
189.6319699532654
 20
98.49750374381348
 30
0.0
 10
188.498035286601
 20
98.49750374381348
 30
0.0
  0
LINE
  5
29D
330
1F
100
AcDbEntity
  8
0
  6
Continuous
 62
     7
370
    15
100
AcDbLine
 10
195.208360324
 20
97.4257083594
 30
0.0
 11
195.208360324
 21
84.4975056111
 31
0.0
  0
LINE
  5
29E
330
1F
100
AcDbEntity
  8
0
  6
Continuous
 62
     7
370
    15
100
AcDbLine
 10
181.7877114511
 20
97.4257083594
 30
0.0
 11
181.7877114511
 21
84.4975056111
 31
0.0
  0
SPLINE
  5
29F
330
1F
100
AcDbEntity
  8
0
  6
Continuous
 62
     7
370
    15
100
AcDbSpline
210
0.0
220
0.0
230
1.0
 70
     8
 71
     3
 72
    10
 73
     6
 74
     0
 42
0.00000001
 43
0.00000001
 12
1.0
 22
0.0
 32
0.0
 13
1.0
 23
0.0
 33
0.0
 40
0.0
 40
0.0
 40
0.0
 40
0.0
 40
0.5
 40
0.5
 40
1.0
 40
1.0
 40
1.0
 40
1.0
 10
181.7877097097224
 20
97.42570697408928
 30
0.0
 10
180.9946358529474
 20
97.75288073520082
 30
0.0
 10
180.1957690796959
 20
98.02242327911907
 30
0.0
 10
178.5813343760299
 20
98.39535578737737
 30
0.0
 10
177.7656416027195
 20
98.4975037438135
 30
0.0
 10
176.9396812243039
 20
98.4975037438135
 30
0.0
  0
LINE
  5
2A0
330
1F
100
AcDbEntity
  8
0
  6
Continuous
 62
     7
370
    15
100
AcDbLine
 10
188.4980358875
 20
98.4975041806
 30
0.0
 11
176.9396819866
 21
98.4975041806
 31
0.0
  0
SPLINE
  5
2A1
330
1F
100
AcDbEntity
  8
0
  6
Continuous
 62
     7
370
    15
100
AcDbSpline
210
0.0
220
0.0
230
1.0
 70
     8
 71
     3
 72
    12
 73
     8
 74
     0
 42
0.00000001
 43
0.00000001
 12
1.0
 22
0.0
 32
0.0
 13
1.0
 23
0.0
 33
0.0
 40
0.0
 40
0.0
 40
0.0
 40
0.0
 40
0.2499999999999998
 40
0.2499999999999998
 40
0.4999999999999996
 40
0.4999999999999996
 40
1.0
 40
1.0
 40
1.0
 40
1.0
 10
104.530943109668
 20
228.4975037438134
 30
0.0
 10
104.9935417782735
 20
228.4975037438134
 30
0.0
 10
105.4582158925208
 20
228.5228369971066
 30
0.0
 10
106.3774380817581
 20
228.6208738841834
 30
0.0
 10
106.8339747532215
 20
228.6934832531122
 30
0.0
 10
108.1954762989007
 20
228.9735299520462
 30
0.0
 10
109.0923642545492
 20
229.2429437809519
 30
0.0
 10
109.9818312812299
 20
229.5693005135378
 30
0.0
  0
SPLINE
  5
2A2
330
1F
100
AcDbEntity
  8
0
  6
Continuous
 62
     7
370
    15
100
AcDbSpline
210
0.0
220
0.0
230
1.0
 70
     8
 71
     3
 72
    10
 73
     6
 74
     0
 42
0.00000001
 43
0.00000001
 12
1.0
 22
0.0
 32
0.0
 13
1.0
 23
0.0
 33
0.0
 40
0.0
 40
0.0
 40
0.0
 40
0.0
 40
0.4999999999999994
 40
0.4999999999999994
 40
1.0
 40
1.0
 40
1.0
 40
1.0
 10
99.08005493810604
 20
229.5693005135376
 30
0.0
 10
99.97174873035016
 20
229.2421267524261
 30
0.0
 10
100.8699557970099
 20
228.9725842085079
 30
0.0
 10
102.685147901685
 20
228.5996517002496
 30
0.0
 10
103.6022733069996
 20
228.4975037438134
 30
0.0
 10
104.530943109668
 20
228.4975037438134
 30
0.0
  0
LINE
  5
2A3
330
1F
100
AcDbEntity
  8
0
  6
Continuous
 62
     7
370
    15
100
AcDbLine
 10
99.0800567663
 20
229.569302684
 30
0.0
 11
99.0800567663
 21
242.4975054323
 31
0.0
  0
LINE
  5
2A4
330
1F
100
AcDbEntity
  8
0
  6
Continuous
 62
     7
370
    15
100
AcDbLine
 10
109.9818319774
 20
229.569302684
 30
0.0
 11
109.9818319774
 21
242.4975054323
 31
0.0
  0
SPLINE
  5
2A5
330
1F
100
AcDbEntity
  8
0
  6
Continuous
 62
     7
370
    15
100
AcDbSpline
210
0.0
220
0.0
230
1.0
 70
     8
 71
     3
 72
    12
 73
     8
 74
     0
 42
0.00000001
 43
0.00000001
 12
1.0
 22
0.0
 32
0.0
 13
1.0
 23
0.0
 33
0.0
 40
0.0
 40
0.0
 40
0.0
 40
0.0
 40
0.2499999999999996
 40
0.2499999999999996
 40
0.4999999999999991
 40
0.4999999999999991
 40
1.0
 40
1.0
 40
1.0
 40
1.0
 10
92.6511174196531
 20
228.4975037438134
 30
0.0
 10
93.19671986882835
 20
228.4975037438134
 30
0.0
 10
93.7447701595174
 20
228.5228369971066
 30
0.0
 10
94.82892779294933
 20
228.6208738841834
 30
0.0
 10
95.36738054474728
 20
228.6934832531122
 30
0.0
 10
96.97317543412221
 20
228.9735299520462
 30
0.0
 10
98.03099141684581
 20
229.242943780952
 30
0.0
 10
99.08005493810609
 20
229.5693005135378
 30
0.0
  0
SPLINE
  5
2A6
330
1F
100
AcDbEntity
  8
0
  6
Continuous
 62
     7
370
    15
100
AcDbSpline
210
0.0
220
0.0
230
1.0
 70
     8
 71
     3
 72
    10
 73
     6
 74
     0
 42
0.00000001
 43
0.00000001
 12
1.0
 22
0.0
 32
0.0
 13
1.0
 23
0.0
 33
0.0
 40
0.0
 40
0.0
 40
0.0
 40
0.0
 40
0.5
 40
0.5
 40
1.0
 40
1.0
 40
1.0
 40
1.0
 10
86.2221799012001
 20
229.5693005135376
 30
0.0
 10
87.27386973513171
 20
229.2421267524261
 30
0.0
 10
88.33324151610398
 20
228.9725842085079
 30
0.0
 10
90.47413236868621
 20
228.5996517002496
 30
0.0
 10
91.55581699360926
 20
228.4975037438134
 30
0.0
 10
92.6511174196531
 20
228.4975037438134
 30
0.0
  0
LINE
  5
2A7
330
1F
100
AcDbEntity
  8
0
  6
Continuous
 62
     7
370
    15
100
AcDbLine
 10
86.2221800483
 20
229.569302684
 30
0.0
 11
86.2221800483
 21
242.4975054323
 31
0.0
  0
LINE
  5
2A8
330
1F
100
AcDbEntity
  8
0
  6
Continuous
 62
     7
370
    15
100
AcDbLine
 10
92.6511184073
 20
228.4975068628
 30
0.0
 11
104.5309425092
 21
228.4975068628
 31
0.0
  0
SPLINE
  5
2A9
330
1F
100
AcDbEntity
  8
0
  6
Continuous
 62
     7
370
    15
100
AcDbSpline
210
0.0
220
0.0
230
1.0
 70
     8
 71
     3
 72
    12
 73
     8
 74
     0
 42
0.00000001
 43
0.00000001
 12
1.0
 22
0.0
 32
0.0
 13
1.0
 23
0.0
 33
0.0
 40
0.0
 40
0.0
 40
0.0
 40
0.0
 40
0.2500000000000007
 40
0.2500000000000007
 40
0.5000000000000013
 40
0.5000000000000013
 40
1.0
 40
1.0
 40
1.0
 40
1.0
 10
92.6511174196531
 20
134.2171344855203
 30
0.0
 10
93.19671986882837
 20
134.2171344855203
 30
0.0
 10
93.74477015951742
 20
134.2424677388134
 30
0.0
 10
94.82892779294934
 20
134.3405046258902
 30
0.0
 10
95.36738054474728
 20
134.4131139948191
 30
0.0
 10
96.97317543412224
 20
134.6931606937531
 30
0.0
 10
98.03099141684581
 20
134.9625745226589
 30
0.0
 10
99.08005493810609
 20
135.2889312552446
 30
0.0
  0
SPLINE
  5
2AA
330
1F
100
AcDbEntity
  8
0
  6
Continuous
 62
     7
370
    15
100
AcDbSpline
210
0.0
220
0.0
230
1.0
 70
     8
 71
     3
 72
    10
 73
     6
 74
     0
 42
0.00000001
 43
0.00000001
 12
1.0
 22
0.0
 32
0.0
 13
1.0
 23
0.0
 33
0.0
 40
0.0
 40
0.0
 40
0.0
 40
0.0
 40
0.5
 40
0.5
 40
1.0
 40
1.0
 40
1.0
 40
1.0
 10
86.2221799012001
 20
135.2889312552445
 30
0.0
 10
87.27386973513171
 20
134.961757494133
 30
0.0
 10
88.33324151610395
 20
134.6922149502147
 30
0.0
 10
90.47413236868621
 20
134.3192824419564
 30
0.0
 10
91.55581699360927
 20
134.2171344855203
 30
0.0
 10
92.6511174196531
 20
134.2171344855203
 30
0.0
  0
LINE
  5
2AB
330
1F
100
AcDbEntity
  8
0
  6
Continuous
 62
     7
370
    15
100
AcDbLine
 10
86.2221800483
 20
135.2889312415
 30
0.0
 11
86.2221800483
 21
148.2171344555
 31
0.0
  0
LINE
  5
2AC
330
1F
100
AcDbEntity
  8
0
  6
Continuous
 62
     7
370
    15
100
AcDbLine
 10
99.0800567663
 20
135.2889312415
 30
0.0
 11
99.0800567663
 21
148.2171344555
 31
0.0
  0
SPLINE
  5
2AD
330
1F
100
AcDbEntity
  8
0
  6
Continuous
 62
     7
370
    15
100
AcDbSpline
210
0.0
220
0.0
230
1.0
 70
     8
 71
     3
 72
    12
 73
     8
 74
     0
 42
0.00000001
 43
0.00000001
 12
1.0
 22
0.0
 32
0.0
 13
1.0
 23
0.0
 33
0.0
 40
0.0
 40
0.0
 40
0.0
 40
0.0
 40
0.2499999999999999
 40
0.2499999999999999
 40
0.4999999999999999
 40
0.4999999999999999
 40
1.0
 40
1.0
 40
1.0
 40
1.0
 10
104.530943109668
 20
134.2171344855203
 30
0.0
 10
104.9935417782735
 20
134.2171344855203
 30
0.0
 10
105.4582158925208
 20
134.2424677388134
 30
0.0
 10
106.3774380817582
 20
134.3405046258902
 30
0.0
 10
106.8339747532215
 20
134.4131139948191
 30
0.0
 10
108.1954762989007
 20
134.6931606937531
 30
0.0
 10
109.0923642545492
 20
134.9625745226588
 30
0.0
 10
109.9818312812299
 20
135.2889312552446
 30
0.0
  0
SPLINE
  5
2AE
330
1F
100
AcDbEntity
  8
0
  6
Continuous
 62
     7
370
    15
100
AcDbSpline
210
0.0
220
0.0
230
1.0
 70
     8
 71
     3
 72
    10
 73
     6
 74
     0
 42
0.00000001
 43
0.00000001
 12
1.0
 22
0.0
 32
0.0
 13
1.0
 23
0.0
 33
0.0
 40
0.0
 40
0.0
 40
0.0
 40
0.0
 40
0.4999999999999994
 40
0.4999999999999994
 40
1.0
 40
1.0
 40
1.0
 40
1.0
 10
99.08005493810604
 20
135.2889312552445
 30
0.0
 10
99.97174873035016
 20
134.961757494133
 30
0.0
 10
100.8699557970099
 20
134.6922149502147
 30
0.0
 10
102.685147901685
 20
134.3192824419564
 30
0.0
 10
103.6022733069996
 20
134.2171344855203
 30
0.0
 10
104.530943109668
 20
134.2171344855203
 30
0.0
  0
LINE
  5
2AF
330
1F
100
AcDbEntity
  8
0
  6
Continuous
 62
     7
370
    15
100
AcDbLine
 10
109.9818319774
 20
135.2889312415
 30
0.0
 11
109.9818319774
 21
148.2171344555
 31
0.0
  0
LINE
  5
2B0
330
1F
100
AcDbEntity
  8
0
  6
Continuous
 62
     7
370
    15
100
AcDbLine
 10
92.6511184073
 20
134.2171335577
 30
0.0
 11
104.5309425092
 21
134.2171335577
 31
0.0
  0
SPLINE
  5
2B1
330
1F
100
AcDbEntity
  8
0
  6
Continuous
 62
     7
370
    15
100
AcDbSpline
210
0.0
220
0.0
230
1.0
 70
     8
 71
     3
 72
    12
 73
     8
 74
     0
 42
0.00000001
 43
0.00000001
 12
1.0
 22
0.0
 32
0.0
 13
1.0
 23
0.0
 33
0.0
 40
0.0
 40
0.0
 40
0.0
 40
0.0
 40
0.2499999999999991
 40
0.2499999999999991
 40
0.4999999999999982
 40
0.4999999999999982
 40
1.0
 40
1.0
 40
1.0
 40
1.0
 10
92.6511174196531
 20
47.49750374381348
 30
0.0
 10
93.19671986882835
 20
47.49750374381344
 30
0.0
 10
93.7447701595174
 20
47.52283699710667
 30
0.0
 10
94.82892779294934
 20
47.62087388418342
 30
0.0
 10
95.36738054474726
 20
47.69348325311225
 30
0.0
 10
96.97317543412223
 20
47.97352995204626
 30
0.0
 10
98.03099141684582
 20
48.24294378095206
 30
0.0
 10
99.08005493810609
 20
48.56930051353783
 30
0.0
  0
SPLINE
  5
2B2
330
1F
100
AcDbEntity
  8
0
  6
Continuous
 62
     7
370
    15
100
AcDbSpline
210
0.0
220
0.0
230
1.0
 70
     8
 71
     3
 72
    10
 73
     6
 74
     0
 42
0.00000001
 43
0.00000001
 12
1.0
 22
0.0
 32
0.0
 13
1.0
 23
0.0
 33
0.0
 40
0.0
 40
0.0
 40
0.0
 40
0.0
 40
0.5
 40
0.5
 40
1.0
 40
1.0
 40
1.0
 40
1.0
 10
86.2221799012001
 20
48.5693005135377
 30
0.0
 10
87.27386973513171
 20
48.24212675242616
 30
0.0
 10
88.33324151610395
 20
47.97258420850789
 30
0.0
 10
90.47413236868621
 20
47.59965170024962
 30
0.0
 10
91.55581699360927
 20
47.49750374381347
 30
0.0
 10
92.6511174196531
 20
47.49750374381348
 30
0.0
  0
LINE
  5
2B3
330
1F
100
AcDbEntity
  8
0
  6
Continuous
 62
     7
370
    15
100
AcDbLine
 10
86.2221800483
 20
48.5693009554
 30
0.0
 11
86.2221800483
 21
61.4975037037
 31
0.0
  0
LINE
  5
2B4
330
1F
100
AcDbEntity
  8
0
  6
Continuous
 62
     7
370
    15
100
AcDbLine
 10
99.0800567663
 20
48.5693009554
 30
0.0
 11
99.0800567663
 21
61.4975037037
 31
0.0
  0
SPLINE
  5
2B5
330
1F
100
AcDbEntity
  8
0
  6
Continuous
 62
     7
370
    15
100
AcDbSpline
210
0.0
220
0.0
230
1.0
 70
     8
 71
     3
 72
    12
 73
     8
 74
     0
 42
0.00000001
 43
0.00000001
 12
1.0
 22
0.0
 32
0.0
 13
1.0
 23
0.0
 33
0.0
 40
0.0
 40
0.0
 40
0.0
 40
0.0
 40
0.2500000000000002
 40
0.2500000000000002
 40
0.5000000000000004
 40
0.5000000000000004
 40
1.0
 40
1.0
 40
1.0
 40
1.0
 10
104.530943109668
 20
47.49750374381347
 30
0.0
 10
104.9935417782735
 20
47.49750374381345
 30
0.0
 10
105.4582158925208
 20
47.52283699710663
 30
0.0
 10
106.3774380817582
 20
47.62087388418342
 30
0.0
 10
106.8339747532215
 20
47.69348325311223
 30
0.0
 10
108.1954762989007
 20
47.97352995204622
 30
0.0
 10
109.0923642545492
 20
48.242943780952
 30
0.0
 10
109.9818312812299
 20
48.56930051353782
 30
0.0
  0
SPLINE
  5
2B6
330
1F
100
AcDbEntity
  8
0
  6
Continuous
 62
     7
370
    15
100
AcDbSpline
210
0.0
220
0.0
230
1.0
 70
     8
 71
     3
 72
    10
 73
     6
 74
     0
 42
0.00000001
 43
0.00000001
 12
1.0
 22
0.0
 32
0.0
 13
1.0
 23
0.0
 33
0.0
 40
0.0
 40
0.0
 40
0.0
 40
0.0
 40
0.4999999999999994
 40
0.4999999999999994
 40
1.0
 40
1.0
 40
1.0
 40
1.0
 10
99.08005493810604
 20
48.56930051353768
 30
0.0
 10
99.97174873035016
 20
48.24212675242616
 30
0.0
 10
100.8699557970099
 20
47.97258420850789
 30
0.0
 10
102.685147901685
 20
47.59965170024959
 30
0.0
 10
103.6022733069996
 20
47.49750374381345
 30
0.0
 10
104.530943109668
 20
47.49750374381347
 30
0.0
  0
LINE
  5
2B7
330
1F
100
AcDbEntity
  8
0
  6
Continuous
 62
     7
370
    15
100
AcDbLine
 10
109.9818319774
 20
48.5693009554
 30
0.0
 11
109.9818319774
 21
61.4975037037
 31
0.0
  0
LINE
  5
2B8
330
1F
100
AcDbEntity
  8
0
  6
Continuous
 62
     7
370
    15
100
AcDbLine
 10
92.6511184073
 20
47.4975051342
 30
0.0
 11
104.5309425092
 21
47.4975051342
 31
0.0
  0
SPLINE
  5
2B9
330
1F
100
AcDbEntity
  8
0
  6
Continuous
 62
     7
370
    15
100
AcDbSpline
210
0.0
220
0.0
230
1.0
 70
     8
 71
     3
 72
    12
 73
     8
 74
     0
 42
0.00000001
 43
0.00000001
 12
1.0
 22
0.0
 32
0.0
 13
1.0
 23
0.0
 33
0.0
 40
0.0
 40
0.0
 40
0.0
 40
0.0
 40
0.2499999999999998
 40
0.2499999999999998
 40
0.4999999999999996
 40
0.4999999999999996
 40
1.0
 40
1.0
 40
1.0
 40
1.0
 10
187.2063350537675
 20
228.4975037438134
 30
0.0
 10
187.7861933017961
 20
228.4975037438134
 30
0.0
 10
188.3679089091798
 20
228.5223951512735
 30
0.0
 10
189.5350068998598
 20
228.6213182755571
 30
0.0
 10
190.1142882465177
 20
228.6948387927473
 30
0.0
 10
191.8325421476476
 20
228.9765934409006
 30
0.0
 10
192.9561225676129
 20
229.2459116636621
 30
0.0
 10
194.0651556138234
 20
229.5693005135379
 30
0.0
  0
SPLINE
  5
2BA
330
1F
100
AcDbEntity
  8
0
  6
Continuous
 62
     7
370
    15
100
AcDbSpline
210
0.0
220
0.0
230
1.0
 70
     8
 71
     3
 72
    10
 73
     6
 74
     0
 42
0.00000001
 43
0.00000001
 12
1.0
 22
0.0
 32
0.0
 13
1.0
 23
0.0
 33
0.0
 40
0.0
 40
0.0
 40
0.0
 40
0.0
 40
0.5
 40
0.5
 40
1.0
 40
1.0
 40
1.0
 40
1.0
 10
180.3475144937115
 20
229.5693005135379
 30
0.0
 10
181.4630460901699
 20
229.2440167168003
 30
0.0
 10
182.60556928433
 20
228.9711897596012
 30
0.0
 10
184.8957883872727
 20
228.5981367970584
 30
0.0
 10
186.0473071770462
 20
228.4975037438134
 30
0.0
 10
187.2063350537675
 20
228.4975037438134
 30
0.0
  0
LINE
  5
2BB
330
1F
100
AcDbEntity
  8
0
  6
Continuous
 62
     7
370
    15
100
AcDbLine
 10
180.3475142217
 20
229.569302684
 30
0.0
 11
180.3475142217
 21
242.4975054323
 31
0.0
  0
LINE
  5
2BC
330
1F
100
AcDbEntity
  8
0
  6
Continuous
 62
     7
370
    15
100
AcDbLine
 10
194.0651544131
 20
229.569302684
 30
0.0
 11
194.0651544131
 21
242.4975054323
 31
0.0
  0
LINE
  5
2BD
330
1F
100
AcDbEntity
  8
0
  6
Continuous
 62
     7
370
    15
100
AcDbLine
 10
176.0710895754
 20
228.4975068628
 30
0.0
 11
187.20633618
 21
228.4975068628
 31
0.0
  0
SPLINE
  5
2BE
330
1F
100
AcDbEntity
  8
0
  6
Continuous
 62
     7
370
    15
100
AcDbSpline
210
0.0
220
0.0
230
1.0
 70
     8
 71
     3
 72
    12
 73
     8
 74
     0
 42
0.00000001
 43
0.00000001
 12
1.0
 22
0.0
 32
0.0
 13
1.0
 23
0.0
 33
0.0
 40
0.0
 40
0.0
 40
0.0
 40
0.0
 40
0.2500000000000004
 40
0.2500000000000004
 40
0.5000000000000009
 40
0.5000000000000009
 40
1.0
 40
1.0
 40
1.0
 40
1.0
 10
176.0710886331211
 20
228.4975037438134
 30
0.0
 10
176.4340146090787
 20
228.4975037438134
 30
0.0
 10
176.7985688498501
 20
228.5228369971066
 30
0.0
 10
177.5197330744606
 20
228.6208738841834
 30
0.0
 10
177.8779031866893
 20
228.6934832531122
 30
0.0
 10
178.9460521260772
 20
228.9735299520462
 30
0.0
 10
179.6496943082077
 20
229.242943780952
 30
0.0
 10
180.3475144937116
 20
229.5693005135378
 30
0.0
  0
SPLINE
  5
2BF
330
1F
100
AcDbEntity
  8
0
  6
Continuous
 62
     7
370
    15
100
AcDbSpline
210
0.0
220
0.0
230
1.0
 70
     8
 71
     3
 72
    12
 73
     8
 74
     0
 42
0.00000001
 43
0.00000001
 12
1.0
 22
0.0
 32
0.0
 13
1.0
 23
0.0
 33
0.0
 40
0.0
 40
0.0
 40
0.0
 40
0.0
 40
0.2499999999999999
 40
0.2499999999999999
 40
0.4999999999999999
 40
0.4999999999999999
 40
1.0
 40
1.0
 40
1.0
 40
1.0
 10
187.2063350537675
 20
134.2171344855203
 30
0.0
 10
187.7861933017961
 20
134.2171344855203
 30
0.0
 10
188.3679089091798
 20
134.2420258929803
 30
0.0
 10
189.5350068998598
 20
134.340949017264
 30
0.0
 10
190.1142882465177
 20
134.4144695344541
 30
0.0
 10
191.8325421476476
 20
134.6962241826076
 30
0.0
 10
192.9561225676129
 20
134.965542405369
 30
0.0
 10
194.0651556138234
 20
135.2889312552448
 30
0.0
  0
SPLINE
  5
2C0
330
1F
100
AcDbEntity
  8
0
  6
Continuous
 62
     7
370
    15
100
AcDbSpline
210
0.0
220
0.0
230
1.0
 70
     8
 71
     3
 72
    10
 73
     6
 74
     0
 42
0.00000001
 43
0.00000001
 12
1.0
 22
0.0
 32
0.0
 13
1.0
 23
0.0
 33
0.0
 40
0.0
 40
0.0
 40
0.0
 40
0.0
 40
0.5
 40
0.5
 40
1.0
 40
1.0
 40
1.0
 40
1.0
 10
180.3475144937115
 20
135.2889312552447
 30
0.0
 10
181.4630460901699
 20
134.9636474585072
 30
0.0
 10
182.6055692843299
 20
134.6908205013081
 30
0.0
 10
184.8957883872727
 20
134.3177675387653
 30
0.0
 10
186.0473071770462
 20
134.2171344855203
 30
0.0
 10
187.2063350537675
 20
134.2171344855203
 30
0.0
  0
LINE
  5
2C1
330
1F
100
AcDbEntity
  8
0
  6
Continuous
 62
     7
370
    15
100
AcDbLine
 10
180.3475142217
 20
135.2889312415
 30
0.0
 11
180.3475142217
 21
148.2171344555
 31
0.0
  0
LINE
  5
2C2
330
1F
100
AcDbEntity
  8
0
  6
Continuous
 62
     7
370
    15
100
AcDbLine
 10
194.0651544131
 20
135.2889312415
 30
0.0
 11
194.0651544131
 21
148.2171344555
 31
0.0
  0
LINE
  5
2C3
330
1F
100
AcDbEntity
  8
0
  6
Continuous
 62
     7
370
    15
100
AcDbLine
 10
176.0710895754
 20
134.2171335577
 30
0.0
 11
187.20633618
 21
134.2171335577
 31
0.0
  0
SPLINE
  5
2C4
330
1F
100
AcDbEntity
  8
0
  6
Continuous
 62
     7
370
    15
100
AcDbSpline
210
0.0
220
0.0
230
1.0
 70
     8
 71
     3
 72
    12
 73
     8
 74
     0
 42
0.00000001
 43
0.00000001
 12
1.0
 22
0.0
 32
0.0
 13
1.0
 23
0.0
 33
0.0
 40
0.0
 40
0.0
 40
0.0
 40
0.0
 40
0.2500000000000007
 40
0.2500000000000007
 40
0.5000000000000013
 40
0.5000000000000013
 40
1.0
 40
1.0
 40
1.0
 40
1.0
 10
176.0710886331211
 20
134.2171344855203
 30
0.0
 10
176.4340146090786
 20
134.2171344855203
 30
0.0
 10
176.7985688498501
 20
134.2424677388134
 30
0.0
 10
177.5197330744606
 20
134.3405046258902
 30
0.0
 10
177.8779031866893
 20
134.4131139948191
 30
0.0
 10
178.9460521260772
 20
134.6931606937531
 30
0.0
 10
179.6496943082077
 20
134.9625745226588
 30
0.0
 10
180.3475144937116
 20
135.2889312552446
 30
0.0
  0
SPLINE
  5
2C5
330
1F
100
AcDbEntity
  8
0
  6
Continuous
 62
     7
370
    15
100
AcDbSpline
210
0.0
220
0.0
230
1.0
 70
     8
 71
     3
 72
    12
 73
     8
 74
     0
 42
0.00000001
 43
0.00000001
 12
1.0
 22
0.0
 32
0.0
 13
1.0
 23
0.0
 33
0.0
 40
0.0
 40
0.0
 40
0.0
 40
0.0
 40
0.2500000000000002
 40
0.2500000000000002
 40
0.5000000000000004
 40
0.5000000000000004
 40
1.0
 40
1.0
 40
1.0
 40
1.0
 10
187.2063350537675
 20
47.49750374381348
 30
0.0
 10
187.7861933017961
 20
47.49750374381345
 30
0.0
 10
188.3679089091797
 20
47.52239515127353
 30
0.0
 10
189.5350068998598
 20
47.62131827555721
 30
0.0
 10
190.1142882465177
 20
47.6948387927473
 30
0.0
 10
191.8325421476476
 20
47.9765934409007
 30
0.0
 10
192.9561225676129
 20
48.24591166366214
 30
0.0
 10
194.0651556138234
 20
48.56930051353797
 30
0.0
  0
SPLINE
  5
2C6
330
1F
100
AcDbEntity
  8
0
  6
Continuous
 62
     7
370
    15
100
AcDbSpline
210
0.0
220
0.0
230
1.0
 70
     8
 71
     3
 72
    10
 73
     6
 74
     0
 42
0.00000001
 43
0.00000001
 12
1.0
 22
0.0
 32
0.0
 13
1.0
 23
0.0
 33
0.0
 40
0.0
 40
0.0
 40
0.0
 40
0.0
 40
0.5
 40
0.5
 40
1.0
 40
1.0
 40
1.0
 40
1.0
 10
180.3475144937115
 20
48.56930051353793
 30
0.0
 10
181.4630460901699
 20
48.24401671680037
 30
0.0
 10
182.6055692843299
 20
47.97118975960127
 30
0.0
 10
184.8957883872727
 20
47.59813679705853
 30
0.0
 10
186.0473071770462
 20
47.49750374381347
 30
0.0
 10
187.2063350537675
 20
47.49750374381348
 30
0.0
  0
LINE
  5
2C7
330
1F
100
AcDbEntity
  8
0
  6
Continuous
 62
     7
370
    15
100
AcDbLine
 10
180.3475142217
 20
48.5693009554
 30
0.0
 11
180.3475142217
 21
61.4975037037
 31
0.0
  0
LINE
  5
2C8
330
1F
100
AcDbEntity
  8
0
  6
Continuous
 62
     7
370
    15
100
AcDbLine
 10
194.0651544131
 20
48.5693009554
 30
0.0
 11
194.0651544131
 21
61.4975037037
 31
0.0
  0
LINE
  5
2C9
330
1F
100
AcDbEntity
  8
0
  6
Continuous
 62
     7
370
    15
100
AcDbLine
 10
176.0710895754
 20
47.4975051342
 30
0.0
 11
187.20633618
 21
47.4975051342
 31
0.0
  0
SPLINE
  5
2CA
330
1F
100
AcDbEntity
  8
0
  6
Continuous
 62
     7
370
    15
100
AcDbSpline
210
0.0
220
0.0
230
1.0
 70
     8
 71
     3
 72
    12
 73
     8
 74
     0
 42
0.00000001
 43
0.00000001
 12
1.0
 22
0.0
 32
0.0
 13
1.0
 23
0.0
 33
0.0
 40
0.0
 40
0.0
 40
0.0
 40
0.0
 40
0.2500000000000018
 40
0.2500000000000018
 40
0.5000000000000037
 40
0.5000000000000037
 40
1.0
 40
1.0
 40
1.0
 40
1.0
 10
176.0710886331211
 20
47.49750374381347
 30
0.0
 10
176.4340146090786
 20
47.49750374381347
 30
0.0
 10
176.7985688498501
 20
47.52283699710663
 30
0.0
 10
177.5197330744606
 20
47.6208738841834
 30
0.0
 10
177.8779031866892
 20
47.69348325311222
 30
0.0
 10
178.9460521260772
 20
47.97352995204626
 30
0.0
 10
179.6496943082077
 20
48.242943780952
 30
0.0
 10
180.3475144937116
 20
48.56930051353782
 30
0.0
  0
SPLINE
  5
2CB
330
1F
100
AcDbEntity
  8
0
  6
Continuous
 62
     7
370
    15
100
AcDbSpline
210
0.0
220
0.0
230
1.0
 70
     8
 71
     3
 72
    10
 73
     6
 74
     0
 42
0.00000001
 43
0.00000001
 12
1.0
 22
0.0
 32
0.0
 13
1.0
 23
0.0
 33
0.0
 40
0.0
 40
0.0
 40
0.0
 40
0.0
 40
0.5
 40
0.5
 40
1.0
 40
1.0
 40
1.0
 40
1.0
 10
110.4703939028364
 20
278.4257069740892
 30
0.0
 10
109.6607360138374
 20
278.7528807352008
 30
0.0
 10
108.8451640722123
 20
279.022423279119
 30
0.0
 10
107.1969697925369
 20
279.3953557873774
 30
0.0
 10
106.3642200009907
 20
279.4975037438134
 30
0.0
 10
105.5209878976099
 20
279.4975037438134
 30
0.0
  0
LINE
  5
2CC
330
1F
100
AcDbEntity
  8
0
  6
Continuous
 62
     7
370
    15
100
AcDbLine
 10
110.4703944869
 20
278.4257100879
 30
0.0
 11
110.4703944869
 21
265.4975073396
 31
0.0
  0
SPLINE
  5
2CD
330
1F
100
AcDbEntity
  8
0
  6
Continuous
 62
     7
370
    15
100
AcDbSpline
210
0.0
220
0.0
230
1.0
 70
     8
 71
     3
 72
    10
 73
     6
 74
     0
 42
0.00000001
 43
0.00000001
 12
1.0
 22
0.0
 32
0.0
 13
1.0
 23
0.0
 33
0.0
 40
0.0
 40
0.0
 40
0.0
 40
0.0
 40
0.5
 40
0.5
 40
1.0
 40
1.0
 40
1.0
 40
1.0
 10
110.4703939028364
 20
97.42570697408928
 30
0.0
 10
109.6607360138374
 20
97.75288073520082
 30
0.0
 10
108.8451640722123
 20
98.02242327911907
 30
0.0
 10
107.1969697925368
 20
98.39535578737737
 30
0.0
 10
106.3642200009906
 20
98.4975037438135
 30
0.0
 10
105.5209878976099
 20
98.4975037438135
 30
0.0
  0
LINE
  5
2CE
330
1F
100
AcDbEntity
  8
0
  6
Continuous
 62
     7
370
    15
100
AcDbLine
 10
110.4703944869
 20
97.4257083594
 30
0.0
 11
110.4703944869
 21
84.4975056111
 31
0.0
  0
SPLINE
  5
2CF
330
1F
100
AcDbEntity
  8
0
  6
Continuous
 62
     7
370
    15
100
AcDbSpline
210
0.0
220
0.0
230
1.0
 70
     8
 71
     3
 72
    12
 73
     8
 74
     0
 42
0.00000001
 43
0.00000001
 12
1.0
 22
0.0
 32
0.0
 13
1.0
 23
0.0
 33
0.0
 40
0.0
 40
0.0
 40
0.0
 40
0.0
 40
0.2500000000000006
 40
0.2500000000000006
 40
0.5000000000000011
 40
0.5000000000000011
 40
1.0
 40
1.0
 40
1.0
 40
1.0
 10
176.939681224304
 20
279.4975037438134
 30
0.0
 10
176.528245243207
 20
279.4975037438134
 30
0.0
 10
176.1149633575026
 20
279.4721704905203
 30
0.0
 10
175.297405701284
 20
279.3741336034436
 30
0.0
 10
174.891361269949
 20
279.3015242345147
 30
0.0
 10
173.6804396607276
 20
279.0214775355807
 30
0.0
 10
172.8827461068775
 20
278.7520637066749
 30
0.0
 10
172.0916527388855
 20
278.4257069740891
 30
0.0
  0
LINE
  5
2D0
330
1F
100
AcDbEntity
  8
0
  6
Continuous
 62
     7
370
    15
100
AcDbLine
 10
172.0916525222
 20
278.4257100879
 30
0.0
 11
172.0916525222
 21
265.4975073396
 31
0.0
  0
SPLINE
  5
2D1
330
1F
100
AcDbEntity
  8
0
  6
Continuous
 62
     7
370
    15
100
AcDbSpline
210
0.0
220
0.0
230
1.0
 70
     8
 71
     3
 72
    12
 73
     8
 74
     0
 42
0.00000001
 43
0.00000001
 12
1.0
 22
0.0
 32
0.0
 13
1.0
 23
0.0
 33
0.0
 40
0.0
 40
0.0
 40
0.0
 40
0.0
 40
0.2500000000000011
 40
0.2500000000000011
 40
0.5000000000000021
 40
0.5000000000000021
 40
1.0
 40
1.0
 40
1.0
 40
1.0
 10
176.9396812243039
 20
98.4975037438135
 30
0.0
 10
176.528245243207
 20
98.49750374381348
 30
0.0
 10
176.1149633575025
 20
98.47217049052033
 30
0.0
 10
175.297405701284
 20
98.37413360344357
 30
0.0
 10
174.891361269949
 20
98.30152423451472
 30
0.0
 10
173.6804396607276
 20
98.02147753558071
 30
0.0
 10
172.8827461068775
 20
97.75206370667496
 30
0.0
 10
172.0916527388855
 20
97.42570697408914
 30
0.0
  0
LINE
  5
2D2
330
1F
100
AcDbEntity
  8
0
  6
Continuous
 62
     7
370
    15
100
AcDbLine
 10
172.0916525222
 20
97.4257083594
 30
0.0
 11
172.0916525222
 21
84.4975056111
 31
0.0
  0
SPLINE
  5
2D3
330
1F
100
AcDbEntity
  8
0
  6
Continuous
 62
     7
370
    15
100
AcDbSpline
210
0.0
220
0.0
230
1.0
 70
     8
 71
     3
 72
    10
 73
     6
 74
     0
 42
0.00000001
 43
0.00000001
 12
1.0
 22
0.0
 32
0.0
 13
1.0
 23
0.0
 33
0.0
 40
0.0
 40
0.0
 40
0.0
 40
0.0
 40
0.5
 40
0.5
 40
1.0
 40
1.0
 40
1.0
 40
1.0
 10
171.7946627725307
 20
229.5693005135376
 30
0.0
 10
172.4942299389927
 20
229.2421267524261
 30
0.0
 10
173.1989070131011
 20
228.9725842085079
 30
0.0
 10
174.622993182924
 20
228.5996517002496
 30
0.0
 10
175.3425124020402
 20
228.4975037438134
 30
0.0
 10
176.0710886331211
 20
228.4975037438134
 30
0.0
  0
LINE
  5
2D4
330
1F
100
AcDbEntity
  8
0
  6
Continuous
 62
     7
370
    15
100
AcDbLine
 10
171.7946612037
 20
229.569302684
 30
0.0
 11
171.7946612037
 21
242.4975054323
 31
0.0
  0
SPLINE
  5
2D5
330
1F
100
AcDbEntity
  8
0
  6
Continuous
 62
     7
370
    15
100
AcDbSpline
210
0.0
220
0.0
230
1.0
 70
     8
 71
     3
 72
    10
 73
     6
 74
     0
 42
0.00000001
 43
0.00000001
 12
1.0
 22
0.0
 32
0.0
 13
1.0
 23
0.0
 33
0.0
 40
0.0
 40
0.0
 40
0.0
 40
0.0
 40
0.5
 40
0.5
 40
1.0
 40
1.0
 40
1.0
 40
1.0
 10
171.7946627725307
 20
135.2889312552445
 30
0.0
 10
172.4942299389927
 20
134.961757494133
 30
0.0
 10
173.1989070131011
 20
134.6922149502147
 30
0.0
 10
174.622993182924
 20
134.3192824419564
 30
0.0
 10
175.3425124020402
 20
134.2171344855203
 30
0.0
 10
176.0710886331211
 20
134.2171344855203
 30
0.0
  0
LINE
  5
2D6
330
1F
100
AcDbEntity
  8
0
  6
Continuous
 62
     7
370
    15
100
AcDbLine
 10
171.7946612037
 20
135.2889312415
 30
0.0
 11
171.7946612037
 21
148.2171344555
 31
0.0
  0
SPLINE
  5
2D7
330
1F
100
AcDbEntity
  8
0
  6
Continuous
 62
     7
370
    15
100
AcDbSpline
210
0.0
220
0.0
230
1.0
 70
     8
 71
     3
 72
    10
 73
     6
 74
     0
 42
0.00000001
 43
0.00000001
 12
1.0
 22
0.0
 32
0.0
 13
1.0
 23
0.0
 33
0.0
 40
0.0
 40
0.0
 40
0.0
 40
0.0
 40
0.5
 40
0.5
 40
1.0
 40
1.0
 40
1.0
 40
1.0
 10
171.7946627725307
 20
48.56930051353768
 30
0.0
 10
172.4942299389926
 20
48.24212675242616
 30
0.0
 10
173.1989070131011
 20
47.97258420850788
 30
0.0
 10
174.6229931829239
 20
47.59965170024962
 30
0.0
 10
175.3425124020402
 20
47.49750374381347
 30
0.0
 10
176.0710886331211
 20
47.49750374381347
 30
0.0
  0
LINE
  5
2D8
330
1F
100
AcDbEntity
  8
0
  6
Continuous
 62
     7
370
    15
100
AcDbLine
 10
171.7946612037
 20
48.5693009554
 30
0.0
 11
171.7946612037
 21
61.4975037037
 31
0.0
  0
SPLINE
  5
2D9
330
1F
100
AcDbEntity
  8
0
  6
Continuous
 62
     7
370
    15
100
AcDbSpline
210
0.0
220
0.0
230
1.0
 70
     8
 71
     3
 72
    10
 73
     6
 74
     0
 42
0.00000001
 43
0.00000001
 12
1.0
 22
0.0
 32
0.0
 13
1.0
 23
0.0
 33
0.0
 40
0.0
 40
0.0
 40
0.0
 40
0.0
 40
0.5
 40
0.5
 40
1.0
 40
1.0
 40
1.0
 40
1.0
 10
87.22514423387116
 20
278.425706974089
 30
0.0
 10
86.94478004373852
 20
278.7509907708265
 30
0.0
 10
86.65763211260375
 20
279.0238177280256
 30
0.0
 10
86.08203620293929
 20
279.3968706905684
 30
0.0
 10
85.79262742783838
 20
279.4975037438134
 30
0.0
 10
85.5013314098414
 20
279.4975037438134
 30
0.0
  0
LINE
  5
2DA
330
1F
100
AcDbEntity
  8
0
  6
Continuous
 62
     7
370
    15
100
AcDbLine
 10
93.8983642257
 20
279.4975059091
 30
0.0
 11
85.5013326503
 21
279.4975059091
 31
0.0
  0
SPLINE
  5
2DB
330
1F
100
AcDbEntity
  8
0
  6
Continuous
 62
     7
370
    15
100
AcDbSpline
210
0.0
220
0.0
230
1.0
 70
     8
 71
     3
 72
    10
 73
     6
 74
     0
 42
0.00000001
 43
0.00000001
 12
1.0
 22
0.0
 32
0.0
 13
1.0
 23
0.0
 33
0.0
 40
0.0
 40
0.0
 40
0.0
 40
0.0
 40
0.5
 40
0.5
 40
1.0
 40
1.0
 40
1.0
 40
1.0
 10
87.22514423387116
 20
97.42570697408904
 30
0.0
 10
86.94478004373852
 20
97.75099077082662
 30
0.0
 10
86.65763211260375
 20
98.02381772802566
 30
0.0
 10
86.08203620293929
 20
98.39687069056846
 30
0.0
 10
85.79262742783838
 20
98.49750374381348
 30
0.0
 10
85.5013314098414
 20
98.49750374381348
 30
0.0
  0
LINE
  5
2DC
330
1F
100
AcDbEntity
  8
0
  6
Continuous
 62
     7
370
    15
100
AcDbLine
 10
93.8983642257
 20
98.4975041806
 30
0.0
 11
85.5013326503
 21
98.4975041806
 31
0.0
  0
SPLINE
  5
2DD
330
1F
100
AcDbEntity
  8
0
  6
Continuous
 62
     7
370
    15
100
AcDbSpline
210
0.0
220
0.0
230
1.0
 70
     8
 71
     3
 72
    10
 73
     6
 74
     0
 42
0.00000001
 43
0.00000001
 12
1.0
 22
0.0
 32
0.0
 13
1.0
 23
0.0
 33
0.0
 40
0.0
 40
0.0
 40
0.0
 40
0.0
 40
0.5000000000000006
 40
0.5000000000000006
 40
1.0
 40
1.0
 40
1.0
 40
1.0
 10
194.0651556138234
 20
229.5693005135376
 30
0.0
 10
194.4876015070727
 20
229.2421267524261
 30
0.0
 10
194.9131331076045
 20
228.9725842085079
 30
0.0
 10
195.7730924980906
 20
228.5996517002496
 30
0.0
 10
196.2075867879911
 20
228.4975037438134
 30
0.0
 10
196.6475503132889
 20
228.4975037438134
 30
0.0
  0
LINE
  5
2DE
330
1F
100
AcDbEntity
  8
0
  6
Continuous
 62
     7
370
    15
100
AcDbLine
 10
187.20633618
 20
228.4975068628
 30
0.0
 11
196.6475479997
 21
228.4975068628
 31
0.0
  0
SPLINE
  5
2DF
330
1F
100
AcDbEntity
  8
0
  6
Continuous
 62
     7
370
    15
100
AcDbSpline
210
0.0
220
0.0
230
1.0
 70
     8
 71
     3
 72
    10
 73
     6
 74
     0
 42
0.00000001
 43
0.00000001
 12
1.0
 22
0.0
 32
0.0
 13
1.0
 23
0.0
 33
0.0
 40
0.0
 40
0.0
 40
0.0
 40
0.0
 40
0.4999999999999994
 40
0.4999999999999994
 40
1.0
 40
1.0
 40
1.0
 40
1.0
 10
194.0651556138234
 20
135.2889312552445
 30
0.0
 10
194.4876015070727
 20
134.961757494133
 30
0.0
 10
194.9131331076044
 20
134.6922149502147
 30
0.0
 10
195.7730924980906
 20
134.3192824419564
 30
0.0
 10
196.2075867879911
 20
134.2171344855203
 30
0.0
 10
196.6475503132889
 20
134.2171344855203
 30
0.0
  0
LINE
  5
2E0
330
1F
100
AcDbEntity
  8
0
  6
Continuous
 62
     7
370
    15
100
AcDbLine
 10
187.20633618
 20
134.2171335577
 30
0.0
 11
196.6475479997
 21
134.2171335577
 31
0.0
  0
SPLINE
  5
2E1
330
1F
100
AcDbEntity
  8
0
  6
Continuous
 62
     7
370
    15
100
AcDbSpline
210
0.0
220
0.0
230
1.0
 70
     8
 71
     3
 72
    10
 73
     6
 74
     0
 42
0.00000001
 43
0.00000001
 12
1.0
 22
0.0
 32
0.0
 13
1.0
 23
0.0
 33
0.0
 40
0.0
 40
0.0
 40
0.0
 40
0.0
 40
0.5
 40
0.5
 40
1.0
 40
1.0
 40
1.0
 40
1.0
 10
194.0651556138234
 20
48.5693005135377
 30
0.0
 10
194.4876015070727
 20
48.24212675242616
 30
0.0
 10
194.9131331076044
 20
47.97258420850788
 30
0.0
 10
195.7730924980906
 20
47.59965170024959
 30
0.0
 10
196.2075867879911
 20
47.49750374381347
 30
0.0
 10
196.6475503132889
 20
47.49750374381348
 30
0.0
  0
LINE
  5
2E2
330
1F
100
AcDbEntity
  8
0
  6
Continuous
 62
     7
370
    15
100
AcDbLine
 10
187.20633618
 20
47.4975051342
 30
0.0
 11
196.6475479997
 21
47.4975051342
 31
0.0
  0
LINE
  5
2E3
330
1F
100
AcDbEntity
  8
0
  6
Continuous
 62
     7
370
    15
100
AcDbLine
 10
197.0706590212
 20
279.4975059091
 30
0.0
 11
188.4980358875
 21
279.4975059091
 31
0.0
  0
SPLINE
  5
2E4
330
1F
100
AcDbEntity
  8
0
  6
Continuous
 62
     7
370
    15
100
AcDbSpline
210
0.0
220
0.0
230
1.0
 70
     8
 71
     3
 72
    12
 73
     8
 74
     0
 42
0.00000001
 43
0.00000001
 12
1.0
 22
0.0
 32
0.0
 13
1.0
 23
0.0
 33
0.0
 40
0.0
 40
0.0
 40
0.0
 40
0.0
 40
0.2500000000000013
 40
0.2500000000000013
 40
0.5000000000000027
 40
0.5000000000000027
 40
1.0
 40
1.0
 40
1.0
 40
1.0
 10
197.0706579549396
 20
279.4975037438134
 30
0.0
 10
196.9126110224136
 20
279.4975037438134
 30
0.0
 10
196.7538550134472
 20
279.4721704905203
 30
0.0
 10
196.4398025589585
 20
279.3741336034436
 30
0.0
 10
196.2838267090326
 20
279.3015242345147
 30
0.0
 10
195.8186694192967
 20
279.0214775355806
 30
0.0
 10
195.512247460416
 20
278.752063706675
 30
0.0
 10
195.2083608634795
 20
278.4257069740891
 30
0.0
  0
LINE
  5
2E5
330
1F
100
AcDbEntity
  8
0
  6
Continuous
 62
     7
370
    15
100
AcDbLine
 10
197.0706590212
 20
98.4975041806
 30
0.0
 11
188.4980358875
 21
98.4975041806
 31
0.0
  0
SPLINE
  5
2E6
330
1F
100
AcDbEntity
  8
0
  6
Continuous
 62
     7
370
    15
100
AcDbSpline
210
0.0
220
0.0
230
1.0
 70
     8
 71
     3
 72
    12
 73
     8
 74
     0
 42
0.00000001
 43
0.00000001
 12
1.0
 22
0.0
 32
0.0
 13
1.0
 23
0.0
 33
0.0
 40
0.0
 40
0.0
 40
0.0
 40
0.0
 40
0.2500000000000011
 40
0.2500000000000011
 40
0.5000000000000021
 40
0.5000000000000021
 40
1.0
 40
1.0
 40
1.0
 40
1.0
 10
197.0706579549396
 20
98.4975037438135
 30
0.0
 10
196.9126110224136
 20
98.49750374381348
 30
0.0
 10
196.7538550134472
 20
98.47217049052033
 30
0.0
 10
196.4398025589585
 20
98.37413360344357
 30
0.0
 10
196.2838267090325
 20
98.30152423451472
 30
0.0
 10
195.8186694192967
 20
98.02147753558071
 30
0.0
 10
195.512247460416
 20
97.75206370667496
 30
0.0
 10
195.2083608634795
 20
97.42570697408914
 30
0.0
  0
SPLINE
  5
2E7
330
1F
100
AcDbEntity
  8
0
  6
Continuous
 62
     7
370
    15
100
AcDbSpline
210
0.0
220
0.0
230
1.0
 70
     8
 71
     3
 72
    12
 73
     8
 74
     0
 42
0.00000001
 43
0.00000001
 12
1.0
 22
0.0
 32
0.0
 13
1.0
 23
0.0
 33
0.0
 40
0.0
 40
0.0
 40
0.0
 40
0.0
 40
0.2500000000000002
 40
0.2500000000000002
 40
0.5000000000000003
 40
0.5000000000000003
 40
1.0
 40
1.0
 40
1.0
 40
1.0
 10
85.24413055430908
 20
228.4975037438134
 30
0.0
 10
85.32681677941265
 20
228.4975037438134
 30
0.0
 10
85.40976785895997
 20
228.5223951512735
 30
0.0
 10
85.57619289042823
 20
228.6213182755571
 30
0.0
 10
85.65879685094946
 20
228.6948387927473
 30
0.0
 10
85.90381523145354
 20
228.9765934409007
 30
0.0
 10
86.06403477449369
 20
229.2459116636621
 30
0.0
 10
86.22217990120014
 20
229.5693005135379
 30
0.0
  0
LINE
  5
2E8
330
1F
100
AcDbEntity
  8
0
  6
Continuous
 62
     7
370
    15
100
AcDbLine
 10
85.2441311575
 20
228.4975068628
 30
0.0
 11
92.6511184073
 21
228.4975068628
 31
0.0
  0
SPLINE
  5
2E9
330
1F
100
AcDbEntity
  8
0
  6
Continuous
 62
     7
370
    15
100
AcDbSpline
210
0.0
220
0.0
230
1.0
 70
     8
 71
     3
 72
    12
 73
     8
 74
     0
 42
0.00000001
 43
0.00000001
 12
1.0
 22
0.0
 32
0.0
 13
1.0
 23
0.0
 33
0.0
 40
0.0
 40
0.0
 40
0.0
 40
0.0
 40
0.2499999999999999
 40
0.2499999999999999
 40
0.4999999999999999
 40
0.4999999999999999
 40
1.0
 40
1.0
 40
1.0
 40
1.0
 10
85.24413055430908
 20
134.2171344855203
 30
0.0
 10
85.32681677941264
 20
134.2171344855203
 30
0.0
 10
85.40976785895997
 20
134.2420258929803
 30
0.0
 10
85.57619289042823
 20
134.340949017264
 30
0.0
 10
85.65879685094944
 20
134.4144695344541
 30
0.0
 10
85.90381523145355
 20
134.6962241826076
 30
0.0
 10
86.06403477449369
 20
134.965542405369
 30
0.0
 10
86.22217990120014
 20
135.2889312552448
 30
0.0
  0
LINE
  5
2EA
330
1F
100
AcDbEntity
  8
0
  6
Continuous
 62
     7
370
    15
100
AcDbLine
 10
85.2441311575
 20
134.2171335577
 30
0.0
 11
92.6511184073
 21
134.2171335577
 31
0.0
  0
SPLINE
  5
2EB
330
1F
100
AcDbEntity
  8
0
  6
Continuous
 62
     7
370
    15
100
AcDbSpline
210
0.0
220
0.0
230
1.0
 70
     8
 71
     3
 72
    12
 73
     8
 74
     0
 42
0.00000001
 43
0.00000001
 12
1.0
 22
0.0
 32
0.0
 13
1.0
 23
0.0
 33
0.0
 40
0.0
 40
0.0
 40
0.0
 40
0.0
 40
0.2499999999999997
 40
0.2499999999999997
 40
0.4999999999999993
 40
0.4999999999999993
 40
1.0
 40
1.0
 40
1.0
 40
1.0
 10
85.24413055430908
 20
47.49750374381348
 30
0.0
 10
85.32681677941265
 20
47.49750374381347
 30
0.0
 10
85.40976785895997
 20
47.52239515127351
 30
0.0
 10
85.57619289042823
 20
47.6213182755572
 30
0.0
 10
85.65879685094944
 20
47.69483879274731
 30
0.0
 10
85.90381523145354
 20
47.97659344090073
 30
0.0
 10
86.06403477449369
 20
48.24591166366214
 30
0.0
 10
86.22217990120014
 20
48.56930051353797
 30
0.0
  0
LINE
  5
2EC
330
1F
100
AcDbEntity
  8
0
  6
Continuous
 62
     7
370
    15
100
AcDbLine
 10
85.2441311575
 20
47.4975051342
 30
0.0
 11
92.6511184073
 21
47.4975051342
 31
0.0
  0
SPLINE
  5
2ED
330
1F
100
AcDbEntity
  8
0
  6
Continuous
 62
     7
370
    15
100
AcDbSpline
210
0.0
220
0.0
230
1.0
 70
     8
 71
     3
 72
    12
 73
     8
 74
     0
 42
0.00000001
 43
0.00000001
 12
1.0
 22
0.0
 32
0.0
 13
1.0
 23
0.0
 33
0.0
 40
0.0
 40
0.0
 40
0.0
 40
0.0
 40
0.2500000000000011
 40
0.2500000000000011
 40
0.5000000000000022
 40
0.5000000000000022
 40
1.0
 40
1.0
 40
1.0
 40
1.0
 10
196.6475503132889
 20
228.4975037438134
 30
0.0
 10
196.8667095240794
 20
228.4975037438134
 30
0.0
 10
197.0868519911129
 20
228.5228369971066
 30
0.0
 10
197.5223396464095
 20
228.6208738841833
 30
0.0
 10
197.7386269455417
 20
228.6934832531122
 30
0.0
 10
198.3836474016976
 20
228.9735299520462
 30
0.0
 10
198.8085540645722
 20
229.2429437809519
 30
0.0
 10
199.2299450127545
 20
229.5693005135378
 30
0.0
  0
LINE
  5
2EE
330
1F
100
AcDbEntity
  8
0
  6
Continuous
 62
     7
370
    15
100
AcDbLine
 10
199.2299415863
 20
229.569302684
 30
0.0
 11
199.2299415863
 21
242.4975054323
 31
0.0
  0
SPLINE
  5
2EF
330
1F
100
AcDbEntity
  8
0
  6
Continuous
 62
     7
370
    15
100
AcDbSpline
210
0.0
220
0.0
230
1.0
 70
     8
 71
     3
 72
    12
 73
     8
 74
     0
 42
0.00000001
 43
0.00000001
 12
1.0
 22
0.0
 32
0.0
 13
1.0
 23
0.0
 33
0.0
 40
0.0
 40
0.0
 40
0.0
 40
0.0
 40
0.2499999999999987
 40
0.2499999999999987
 40
0.4999999999999973
 40
0.4999999999999973
 40
1.0
 40
1.0
 40
1.0
 40
1.0
 10
196.6475503132889
 20
134.2171344855203
 30
0.0
 10
196.8667095240794
 20
134.2171344855203
 30
0.0
 10
197.0868519911128
 20
134.2424677388134
 30
0.0
 10
197.5223396464095
 20
134.3405046258902
 30
0.0
 10
197.7386269455417
 20
134.4131139948191
 30
0.0
 10
198.3836474016976
 20
134.6931606937531
 30
0.0
 10
198.8085540645722
 20
134.9625745226588
 30
0.0
 10
199.2299450127545
 20
135.2889312552446
 30
0.0
  0
LINE
  5
2F0
330
1F
100
AcDbEntity
  8
0
  6
Continuous
 62
     7
370
    15
100
AcDbLine
 10
199.2299415863
 20
135.2889312415
 30
0.0
 11
199.2299415863
 21
148.2171344555
 31
0.0
  0
SPLINE
  5
2F1
330
1F
100
AcDbEntity
  8
0
  6
Continuous
 62
     7
370
    15
100
AcDbSpline
210
0.0
220
0.0
230
1.0
 70
     8
 71
     3
 72
    12
 73
     8
 74
     0
 42
0.00000001
 43
0.00000001
 12
1.0
 22
0.0
 32
0.0
 13
1.0
 23
0.0
 33
0.0
 40
0.0
 40
0.0
 40
0.0
 40
0.0
 40
0.2500000000000011
 40
0.2500000000000011
 40
0.5000000000000022
 40
0.5000000000000022
 40
1.0
 40
1.0
 40
1.0
 40
1.0
 10
196.6475503132889
 20
47.49750374381348
 30
0.0
 10
196.8667095240795
 20
47.49750374381344
 30
0.0
 10
197.0868519911128
 20
47.52283699710667
 30
0.0
 10
197.5223396464095
 20
47.62087388418345
 30
0.0
 10
197.7386269455417
 20
47.69348325311226
 30
0.0
 10
198.3836474016976
 20
47.97352995204625
 30
0.0
 10
198.8085540645722
 20
48.24294378095203
 30
0.0
 10
199.2299450127544
 20
48.56930051353782
 30
0.0
  0
LINE
  5
2F2
330
1F
100
AcDbEntity
  8
0
  6
Continuous
 62
     7
370
    15
100
AcDbLine
 10
199.2299415863
 20
48.5693009554
 30
0.0
 11
199.2299415863
 21
61.4975037037
 31
0.0
  0
SPLINE
  5
2F3
330
1F
100
AcDbEntity
  8
0
  6
Continuous
 62
     7
370
    15
100
AcDbSpline
210
0.0
220
0.0
230
1.0
 70
     8
 71
     3
 72
    10
 73
     6
 74
     0
 42
0.00000001
 43
0.00000001
 12
1.0
 22
0.0
 32
0.0
 13
1.0
 23
0.0
 33
0.0
 40
0.0
 40
0.0
 40
0.0
 40
0.0
 40
0.5
 40
0.5
 40
1.0
 40
1.0
 40
1.0
 40
1.0
 10
198.9329550463997
 20
278.4257069740892
 30
0.0
 10
198.6283076745397
 20
278.7528807352008
 30
0.0
 10
198.3214350411043
 20
279.022423279119
 30
0.0
 10
197.7012742763661
 20
279.3953557873773
 30
0.0
 10
197.3879381885461
 20
279.4975037438134
 30
0.0
 10
197.0706579549396
 20
279.4975037438134
 30
0.0
  0
LINE
  5
2F4
330
1F
100
AcDbEntity
  8
0
  6
Continuous
 62
     7
370
    15
100
AcDbLine
 10
198.9329539931
 20
278.4257100879
 30
0.0
 11
198.9329539931
 21
265.4975073396
 31
0.0
  0
SPLINE
  5
2F5
330
1F
100
AcDbEntity
  8
0
  6
Continuous
 62
     7
370
    15
100
AcDbSpline
210
0.0
220
0.0
230
1.0
 70
     8
 71
     3
 72
    10
 73
     6
 74
     0
 42
0.00000001
 43
0.00000001
 12
1.0
 22
0.0
 32
0.0
 13
1.0
 23
0.0
 33
0.0
 40
0.0
 40
0.0
 40
0.0
 40
0.0
 40
0.5
 40
0.5
 40
1.0
 40
1.0
 40
1.0
 40
1.0
 10
198.9329550463997
 20
97.42570697408928
 30
0.0
 10
198.6283076745397
 20
97.75288073520082
 30
0.0
 10
198.3214350411043
 20
98.02242327911907
 30
0.0
 10
197.7012742763661
 20
98.39535578737737
 30
0.0
 10
197.3879381885461
 20
98.4975037438135
 30
0.0
 10
197.0706579549396
 20
98.4975037438135
 30
0.0
  0
LINE
  5
2F6
330
1F
100
AcDbEntity
  8
0
  6
Continuous
 62
     7
370
    15
100
AcDbLine
 10
198.9329539931
 20
97.4257083594
 30
0.0
 11
198.9329539931
 21
84.4975056111
 31
0.0
  0
SPLINE
  5
2F7
330
1F
100
AcDbEntity
  8
0
  6
Continuous
 62
     7
370
    15
100
AcDbSpline
210
0.0
220
0.0
230
1.0
 70
     8
 71
     3
 72
    12
 73
     8
 74
     0
 42
0.00000001
 43
0.00000001
 12
1.0
 22
0.0
 32
0.0
 13
1.0
 23
0.0
 33
0.0
 40
0.0
 40
0.0
 40
0.0
 40
0.0
 40
0.2500000000000005
 40
0.2500000000000005
 40
0.500000000000001
 40
0.500000000000001
 40
1.0
 40
1.0
 40
1.0
 40
1.0
 10
85.5013314098414
 20
279.4975037438134
 30
0.0
 10
85.35559686622432
 20
279.4975037438134
 30
0.0
 10
85.20939551641996
 20
279.4726123363534
 30
0.0
 10
84.91607125379815
 20
279.3736892120697
 30
0.0
 10
84.77048170157897
 20
279.3001686948796
 30
0.0
 10
84.33863659296708
 20
279.0184140467262
 30
0.0
 10
84.05624950909372
 20
278.7490958239648
 30
0.0
 10
83.77751858581165
 20
278.425706974089
 30
0.0
  0
LINE
  5
2F8
330
1F
100
AcDbEntity
  8
0
  6
Continuous
 62
     7
370
    15
100
AcDbLine
 10
83.7775178946
 20
278.4257100879
 30
0.0
 11
83.7775178946
 21
265.4975073396
 31
0.0
  0
SPLINE
  5
2F9
330
1F
100
AcDbEntity
  8
0
  6
Continuous
 62
     7
370
    15
100
AcDbSpline
210
0.0
220
0.0
230
1.0
 70
     8
 71
     3
 72
    12
 73
     8
 74
     0
 42
0.00000001
 43
0.00000001
 12
1.0
 22
0.0
 32
0.0
 13
1.0
 23
0.0
 33
0.0
 40
0.0
 40
0.0
 40
0.0
 40
0.0
 40
0.25
 40
0.25
 40
0.5
 40
0.5
 40
1.0
 40
1.0
 40
1.0
 40
1.0
 10
85.5013314098414
 20
98.49750374381348
 30
0.0
 10
85.35559686622432
 20
98.4975037438135
 30
0.0
 10
85.20939551641995
 20
98.47261233635345
 30
0.0
 10
84.91607125379815
 20
98.37368921206979
 30
0.0
 10
84.77048170157899
 20
98.30016869487966
 30
0.0
 10
84.33863659296708
 20
98.01841404672622
 30
0.0
 10
84.05624950909372
 20
97.7490958239648
 30
0.0
 10
83.77751858581165
 20
97.425706974089
 30
0.0
  0
LINE
  5
2FA
330
1F
100
AcDbEntity
  8
0
  6
Continuous
 62
     7
370
    15
100
AcDbLine
 10
83.7775178946
 20
97.4257083594
 30
0.0
 11
83.7775178946
 21
84.4975056111
 31
0.0
  0
SPLINE
  5
2FB
330
1F
100
AcDbEntity
  8
0
  6
Continuous
 62
     7
370
    15
100
AcDbSpline
210
0.0
220
0.0
230
1.0
 70
     8
 71
     3
 72
    13
 73
     9
 74
     0
 42
0.00000001
 43
0.00000001
 12
1.0
 22
0.0
 32
0.0
 13
1.0
 23
0.0
 33
0.0
 40
0.0
 40
0.0
 40
0.0
 40
0.0
 40
0.2407575139252965
 40
0.481494937045564
 40
0.6433788301896672
 40
0.8053092094844718
 40
0.9671773986842982
 40
1.0
 40
1.0
 40
1.0
 40
1.0
 10
109.981831977435
 20
229.5693026839672
 30
0.0
 10
109.9237428190555
 20
229.4550372147261
 30
0.0
 10
109.807569349738
 20
229.226515811503
 30
0.0
 10
109.6502778328198
 20
228.9780384788307
 30
0.0
 10
109.5112534052813
 20
228.7960517095671
 30
0.0
 10
109.3908998669823
 20
228.6728883472863
 30
0.0
 10
109.3021961717928
 20
228.5966542864714
 30
0.0
 10
109.253552205256
 20
228.5744710109502
 30
0.0
 10
109.2453513986548
 20
228.5707311688839
 30
0.0
  0
LINE
  5
2FC
330
1F
100
AcDbEntity
  8
0
  6
Continuous
 62
     7
370
    15
100
AcDbLine
 10
104.5309425092
 20
228.4975068628
 30
0.0
 11
109.1239553637
 21
228.4975068628
 31
0.0
  0
SPLINE
  5
2FD
330
1F
100
AcDbEntity
  8
0
  6
Continuous
 62
     7
370
    15
100
AcDbSpline
210
0.0
220
0.0
230
1.0
 70
     8
 71
     3
 72
    13
 73
     9
 74
     0
 42
0.00000001
 43
0.00000001
 12
1.0
 22
0.0
 32
0.0
 13
1.0
 23
0.0
 33
0.0
 40
0.0
 40
0.0
 40
0.0
 40
0.0
 40
0.2407574177642388
 40
0.4814948354972659
 40
0.643378851133017
 40
0.8053091757968387
 40
0.9671773994188049
 40
1.0
 40
1.0
 40
1.0
 40
1.0
 10
109.981831977435
 20
135.28893124153
 30
0.0
 10
109.9237428187458
 20
135.1746663225231
 30
0.0
 10
109.8075693269092
 20
134.9461459766443
 30
0.0
 10
109.6502777457967
 20
134.6976711504652
 30
0.0
 10
109.5112534977888
 20
134.5156763469993
 30
0.0
 10
109.3908998095038
 20
134.392518706915
 30
0.0
 10
109.3021961838128
 20
134.3162808413556
 30
0.0
 10
109.2535522056188
 20
134.2940976850404
 30
0.0
 10
109.2453513986548
 20
134.2903578638015
 30
0.0
  0
LINE
  5
2FE
330
1F
100
AcDbEntity
  8
0
  6
Continuous
 62
     7
370
    15
100
AcDbLine
 10
104.5309425092
 20
134.2171335577
 30
0.0
 11
109.1239553637
 21
134.2171335577
 31
0.0
  0
SPLINE
  5
2FF
330
1F
100
AcDbEntity
  8
0
  6
Continuous
 62
     7
370
    15
100
AcDbSpline
210
0.0
220
0.0
230
1.0
 70
     8
 71
     3
 72
    13
 73
     9
 74
     0
 42
0.00000001
 43
0.00000001
 12
1.0
 22
0.0
 32
0.0
 13
1.0
 23
0.0
 33
0.0
 40
0.0
 40
0.0
 40
0.0
 40
0.0
 40
0.2407575139252965
 40
0.481494937045564
 40
0.6433788301896672
 40
0.8053092094844718
 40
0.9671773986842982
 40
1.0
 40
1.0
 40
1.0
 40
1.0
 10
109.981831977435
 20
48.5693009554325
 30
0.0
 10
109.9237428190555
 20
48.45503548619143
 30
0.0
 10
109.807569349738
 20
48.22651408296836
 30
0.0
 10
109.6502778328198
 20
47.97803675029599
 30
0.0
 10
109.5112534052813
 20
47.79604998103233
 30
0.0
 10
109.3908998669823
 20
47.67288661875163
 30
0.0
 10
109.3021961717928
 20
47.59665255793683
 30
0.0
 10
109.253552205256
 20
47.57446928241557
 30
0.0
 10
109.2453513986548
 20
47.57072944034918
 30
0.0
  0
LINE
  5
300
330
1F
100
AcDbEntity
  8
0
  6
Continuous
 62
     7
370
    15
100
AcDbLine
 10
104.5309425092
 20
47.4975051342
 30
0.0
 11
109.1239553637
 21
47.4975051342
 31
0.0
  0
SPLINE
  5
301
330
1F
100
AcDbEntity
  8
0
  6
Continuous
 62
     7
370
    15
100
AcDbSpline
210
0.0
220
0.0
230
1.0
 70
     8
 71
     3
 72
    11
 73
     7
 74
     0
 42
0.00000001
 43
0.00000001
 12
1.0
 22
0.0
 32
0.0
 13
1.0
 23
0.0
 33
0.0
 40
0.0
 40
0.0
 40
0.0
 40
0.0
 40
0.2069889649640914
 40
0.54079857770212
 40
0.7703046588767559
 40
1.0
 40
1.0
 40
1.0
 40
1.0
 10
109.5135723001441
 20
279.2638855039059
 30
0.0
 10
109.5805466793875
 20
279.2258655409921
 30
0.0
 10
109.7555301575822
 20
279.1265310577665
 30
0.0
 10
110.0018798986324
 20
278.9157029061124
 30
0.0
 10
110.2537020457885
 20
278.6705780647243
 30
0.0
 10
110.3981438292622
 20
278.5073551709651
 30
0.0
 10
110.4703944868525
 20
278.4257100879132
 30
0.0
  0
LINE
  5
302
330
1F
100
AcDbEntity
  8
0
  6
Continuous
 62
     7
370
    15
100
AcDbLine
 10
109.1239553637
 20
279.4975059091
 30
0.0
 11
105.5209886975
 21
279.4975059091
 31
0.0
  0
SPLINE
  5
303
330
1F
100
AcDbEntity
  8
0
  6
Continuous
 62
     7
370
    15
100
AcDbSpline
210
0.0
220
0.0
230
1.0
 70
     8
 71
     3
 72
    11
 73
     7
 74
     0
 42
0.00000001
 43
0.00000001
 12
1.0
 22
0.0
 32
0.0
 13
1.0
 23
0.0
 33
0.0
 40
0.0
 40
0.0
 40
0.0
 40
0.0
 40
0.2069890743165931
 40
0.5407984479229883
 40
0.7703049439264369
 40
1.0
 40
1.0
 40
1.0
 40
1.0
 10
109.5135723001441
 20
98.26388750066145
 30
0.0
 10
109.5805466477179
 20
98.22586564531125
 30
0.0
 10
109.7555299087337
 20
98.12652629405109
 30
0.0
 10
110.0018804189414
 20
97.91571016598438
 30
0.0
 10
110.2537016107289
 20
97.67056938126281
 30
0.0
 10
110.3981437575804
 20
97.50735104056821
 30
0.0
 10
110.4703944868525
 20
97.42570835937842
 30
0.0
  0
LINE
  5
304
330
1F
100
AcDbEntity
  8
0
  6
Continuous
 62
     7
370
    15
100
AcDbLine
 10
109.1239553637
 20
98.4975041806
 30
0.0
 11
105.5209886975
 21
98.4975041806
 31
0.0
  0
SPLINE
  5
305
330
1F
100
AcDbEntity
  8
0
  6
Continuous
 62
     7
370
    15
100
AcDbSpline
210
0.0
220
0.0
230
1.0
 70
     8
 71
     3
 72
    10
 73
     6
 74
     0
 42
0.00000001
 43
0.00000001
 12
1.0
 22
0.0
 32
0.0
 13
1.0
 23
0.0
 33
0.0
 40
0.0
 40
0.0
 40
0.0
 40
0.0
 40
0.5
 40
0.5
 40
1.0
 40
1.0
 40
1.0
 40
1.0
 10
84.26608120741805
 20
229.5693005135379
 30
0.0
 10
84.42515300989476
 20
229.2440167168003
 30
0.0
 10
84.58807374153831
 20
228.9711897596012
 30
0.0
 10
84.91465282000486
 20
228.5981367970584
 30
0.0
 10
85.07885629936538
 20
228.4975037438134
 30
0.0
 10
85.24413055430908
 20
228.4975037438134
 30
0.0
  0
LINE
  5
306
330
1F
100
AcDbEntity
  8
0
  6
Continuous
 62
     7
370
    15
100
AcDbLine
 10
84.2660822666
 20
229.569302684
 30
0.0
 11
84.2660822666
 21
242.4975054323
 31
0.0
  0
SPLINE
  5
307
330
1F
100
AcDbEntity
  8
0
  6
Continuous
 62
     7
370
    15
100
AcDbSpline
210
0.0
220
0.0
230
1.0
 70
     8
 71
     3
 72
    10
 73
     6
 74
     0
 42
0.00000001
 43
0.00000001
 12
1.0
 22
0.0
 32
0.0
 13
1.0
 23
0.0
 33
0.0
 40
0.0
 40
0.0
 40
0.0
 40
0.0
 40
0.5
 40
0.5
 40
1.0
 40
1.0
 40
1.0
 40
1.0
 10
84.26608120741805
 20
135.2889312552447
 30
0.0
 10
84.42515300989476
 20
134.9636474585072
 30
0.0
 10
84.58807374153831
 20
134.6908205013081
 30
0.0
 10
84.91465282000486
 20
134.3177675387653
 30
0.0
 10
85.07885629936538
 20
134.2171344855203
 30
0.0
 10
85.24413055430908
 20
134.2171344855203
 30
0.0
  0
LINE
  5
308
330
1F
100
AcDbEntity
  8
0
  6
Continuous
 62
     7
370
    15
100
AcDbLine
 10
84.2660822666
 20
135.2889312415
 30
0.0
 11
84.2660822666
 21
148.2171344555
 31
0.0
  0
SPLINE
  5
309
330
1F
100
AcDbEntity
  8
0
  6
Continuous
 62
     7
370
    15
100
AcDbSpline
210
0.0
220
0.0
230
1.0
 70
     8
 71
     3
 72
    10
 73
     6
 74
     0
 42
0.00000001
 43
0.00000001
 12
1.0
 22
0.0
 32
0.0
 13
1.0
 23
0.0
 33
0.0
 40
0.0
 40
0.0
 40
0.0
 40
0.0
 40
0.5
 40
0.5
 40
1.0
 40
1.0
 40
1.0
 40
1.0
 10
84.26608120741805
 20
48.56930051353793
 30
0.0
 10
84.42515300989476
 20
48.24401671680037
 30
0.0
 10
84.58807374153831
 20
47.97118975960127
 30
0.0
 10
84.91465282000486
 20
47.59813679705853
 30
0.0
 10
85.07885629936538
 20
47.49750374381347
 30
0.0
 10
85.24413055430908
 20
47.49750374381348
 30
0.0
  0
LINE
  5
30A
330
1F
100
AcDbEntity
  8
0
  6
Continuous
 62
     7
370
    15
100
AcDbLine
 10
84.2660822666
 20
48.5693009554
 30
0.0
 11
84.2660822666
 21
61.4975037037
 31
0.0
  0
SPLINE
  5
30B
330
1F
100
AcDbEntity
  8
0
  6
Continuous
 62
     7
370
    15
100
AcDbSpline
210
0.0
220
0.0
230
1.0
 70
     8
 71
     3
 72
    11
 73
     7
 74
     0
 42
0.00000001
 43
0.00000001
 12
1.0
 22
0.0
 32
0.0
 13
1.0
 23
0.0
 33
0.0
 40
0.0
 40
0.0
 40
0.0
 40
0.0
 40
0.3163738548933175
 40
0.6328367075908754
 40
0.9491348183669247
 40
1.0
 40
1.0
 40
1.0
 40
1.0
 10
172.0916525221547
 20
278.4257100879131
 30
0.0
 10
172.1918902078383
 20
278.5299066317369
 30
0.0
 10
172.392393776649
 20
278.738329030478
 30
0.0
 10
172.6969103748997
 20
278.9943612409294
 30
0.0
 10
172.9174835352727
 20
279.1607169597217
 30
0.0
 10
173.0371853810983
 20
279.2204443890982
 30
0.0
 10
173.0537683463773
 20
279.2287187634884
 30
0.0
  0
LINE
  5
30C
330
1F
100
AcDbEntity
  8
0
  6
Continuous
 62
     7
370
    15
100
AcDbLine
 10
176.9396819866
 20
279.4975059091
 30
0.0
 11
173.5123031533
 21
279.4975059091
 31
0.0
  0
SPLINE
  5
30D
330
1F
100
AcDbEntity
  8
0
  6
Continuous
 62
     7
370
    15
100
AcDbSpline
210
0.0
220
0.0
230
1.0
 70
     8
 71
     3
 72
    11
 73
     7
 74
     0
 42
0.00000001
 43
0.00000001
 12
1.0
 22
0.0
 32
0.0
 13
1.0
 23
0.0
 33
0.0
 40
0.0
 40
0.0
 40
0.0
 40
0.0
 40
0.3163739118563341
 40
0.6328365932172226
 40
0.9491349472071638
 40
0.9999999999999999
 40
0.9999999999999999
 40
0.9999999999999999
 40
0.9999999999999999
 10
172.0916525221547
 20
97.42570835937842
 30
0.0
 10
172.1918901670035
 20
97.52990568561161
 30
0.0
 10
172.3923935817955
 20
97.73832957419602
 30
0.0
 10
172.6969107778164
 20
97.99435005543047
 30
0.0
 10
172.917483155818
 20
98.16072251424212
 30
0.0
 10
173.0371853763572
 20
98.22044029542401
 30
0.0
 10
173.0537683463773
 20
98.22871330966338
 30
0.0
  0
LINE
  5
30E
330
1F
100
AcDbEntity
  8
0
  6
Continuous
 62
     7
370
    15
100
AcDbLine
 10
176.9396819866
 20
98.4975041806
 30
0.0
 11
173.5123031533
 21
98.4975041806
 31
0.0
  0
LINE
  5
30F
330
1F
100
AcDbEntity
  8
0
  6
Continuous
 62
     7
370
    15
100
AcDbLine
 10
193.5123027063
 20
328.4975009023
 30
0.0
 11
177.512303809
 21
328.4975009023
 31
0.0
  0
LINE
  5
310
330
1F
100
AcDbEntity
  8
0
  6
Continuous
 62
     7
370
    15
100
AcDbLine
 10
105.1239565707
 20
328.4975009023
 30
0.0
 11
89.1239576734
 21
328.4975009023
 31
0.0
  0
LINE
  5
311
330
1F
100
AcDbEntity
  8
0
  6
Continuous
 62
     7
370
    15
100
AcDbLine
 10
193.5123027063
 20
-1.5024973095
 30
0.0
 11
177.512303809
 21
-1.5024973095
 31
0.0
  0
LINE
  5
312
330
1F
100
AcDbEntity
  8
0
  6
Continuous
 62
     7
370
    15
100
AcDbLine
 10
105.1239565707
 20
-1.5024973095
 30
0.0
 11
89.1239576734
 21
-1.5024973095
 31
0.0
  0
SPLINE
  5
313
330
1F
100
AcDbEntity
  8
0
  6
Continuous
 62
     7
370
    15
100
AcDbSpline
210
0.0
220
0.0
230
1.0
 70
     8
 71
     3
 72
     9
 73
     5
 74
     0
 42
0.00000001
 43
0.00000001
 12
1.0
 22
0.0
 32
0.0
 13
1.0
 23
0.0
 33
0.0
 40
0.0
 40
0.0
 40
0.0
 40
0.0
 40
0.4942097342108293
 40
1.0
 40
1.0
 40
1.0
 40
1.0
 10
172.5803957081517
 20
229.0360497294841
 30
0.0
 10
172.4500955385415
 20
229.1147515233373
 30
0.0
 10
172.1864419506203
 20
229.2739992847737
 30
0.0
 10
171.9262591377606
 20
229.4701111908622
 30
0.0
 10
171.7946612036904
 20
229.5693026839672
 30
0.0
  0
LINE
  5
314
330
1F
100
AcDbEntity
  8
0
  6
Continuous
 62
     7
370
    15
100
AcDbLine
 10
173.5123031533
 20
228.4975068628
 30
0.0
 11
176.0710895754
 21
228.4975068628
 31
0.0
  0
SPLINE
  5
315
330
1F
100
AcDbEntity
  8
0
  6
Continuous
 62
     7
370
    15
100
AcDbSpline
210
0.0
220
0.0
230
1.0
 70
     8
 71
     3
 72
     9
 73
     5
 74
     0
 42
0.00000001
 43
0.00000001
 12
1.0
 22
0.0
 32
0.0
 13
1.0
 23
0.0
 33
0.0
 40
0.0
 40
0.0
 40
0.0
 40
0.0
 40
0.4942097342108293
 40
1.0
 40
1.0
 40
1.0
 40
1.0
 10
172.5803957081517
 20
134.755678287047
 30
0.0
 10
172.4500955385415
 20
134.8343800809002
 30
0.0
 10
172.1864419506203
 20
134.9936278423365
 30
0.0
 10
171.9262591377606
 20
135.1897397484251
 30
0.0
 10
171.7946612036904
 20
135.28893124153
 30
0.0
  0
LINE
  5
316
330
1F
100
AcDbEntity
  8
0
  6
Continuous
 62
     7
370
    15
100
AcDbLine
 10
173.5123031533
 20
134.2171335577
 30
0.0
 11
176.0710895754
 21
134.2171335577
 31
0.0
  0
SPLINE
  5
317
330
1F
100
AcDbEntity
  8
0
  6
Continuous
 62
     7
370
    15
100
AcDbSpline
210
0.0
220
0.0
230
1.0
 70
     8
 71
     3
 72
     9
 73
     5
 74
     0
 42
0.00000001
 43
0.00000001
 12
1.0
 22
0.0
 32
0.0
 13
1.0
 23
0.0
 33
0.0
 40
0.0
 40
0.0
 40
0.0
 40
0.0
 40
0.4942097342108293
 40
1.0
 40
1.0
 40
1.0
 40
1.0
 10
172.5803957081517
 20
48.03604800094946
 30
0.0
 10
172.4500955385415
 20
48.1147497948026
 30
0.0
 10
172.1864419506203
 20
48.273997556239
 30
0.0
 10
171.9262591377606
 20
48.47010946232756
 30
0.0
 10
171.7946612036904
 20
48.5693009554325
 30
0.0
  0
LINE
  5
318
330
1F
100
AcDbEntity
  8
0
  6
Continuous
 62
     7
370
    15
100
AcDbLine
 10
173.5123031533
 20
47.4975051342
 30
0.0
 11
176.0710895754
 21
47.4975051342
 31
0.0
  0
LINE
  5
319
330
1F
100
AcDbEntity
  8
0
  6
Continuous
 62
     7
370
    15
100
AcDbLine
 10
196.6475479997
 20
228.4975068628
 30
0.0
 11
197.5123070873
 21
228.4975068628
 31
0.0
  0
LINE
  5
31A
330
1F
100
AcDbEntity
  8
0
  6
Continuous
 62
     7
370
    15
100
AcDbLine
 10
196.6475479997
 20
134.2171335577
 30
0.0
 11
197.5123070873
 21
134.2171335577
 31
0.0
  0
LINE
  5
31B
330
1F
100
AcDbEntity
  8
0
  6
Continuous
 62
     7
370
    15
100
AcDbLine
 10
196.6475479997
 20
47.4975051342
 30
0.0
 11
197.5123070873
 21
47.4975051342
 31
0.0
  0
LINE
  5
31C
330
1F
100
AcDbEntity
  8
0
  6
Continuous
 62
     7
370
    15
100
AcDbLine
 10
197.5123070873
 20
279.4975059091
 30
0.0
 11
197.0706590212
 21
279.4975059091
 31
0.0
  0
LINE
  5
31D
330
1F
100
AcDbEntity
  8
0
  6
Continuous
 62
     7
370
    15
100
AcDbLine
 10
197.5123070873
 20
98.4975041806
 30
0.0
 11
197.0706590212
 21
98.4975041806
 31
0.0
  0
LINE
  5
31E
330
1F
100
AcDbEntity
  8
0
  6
Continuous
 62
     7
370
    15
100
AcDbLine
 10
85.5013326503
 20
279.4975059091
 30
0.0
 11
85.1239570177
 21
279.4975059091
 31
0.0
  0
LINE
  5
31F
330
1F
100
AcDbEntity
  8
0
  6
Continuous
 62
     7
370
    15
100
AcDbLine
 10
85.5013326503
 20
98.4975041806
 30
0.0
 11
85.1239570177
 21
98.4975041806
 31
0.0
  0
LINE
  5
320
330
1F
100
AcDbEntity
  8
0
  6
Continuous
 62
     7
370
    15
100
AcDbLine
 10
105.1239565707
 20
185.0987503289
 30
0.0
 11
177.512303809
 21
185.0987503289
 31
0.0
  0
LINE
  5
321
330
1F
100
AcDbEntity
  8
0
  6
Continuous
 62
     7
370
    15
100
AcDbLine
 10
85.1239570177
 20
228.4975068628
 30
0.0
 11
85.2441311575
 21
228.4975068628
 31
0.0
  0
LINE
  5
322
330
1F
100
AcDbEntity
  8
0
  6
Continuous
 62
     7
370
    15
100
AcDbLine
 10
85.1239570177
 20
134.2171335577
 30
0.0
 11
85.2441311575
 21
134.2171335577
 31
0.0
  0
LINE
  5
323
330
1F
100
AcDbEntity
  8
0
  6
Continuous
 62
     7
370
    15
100
AcDbLine
 10
85.1239570177
 20
47.4975051342
 30
0.0
 11
85.2441311575
 21
47.4975051342
 31
0.0
  0
LINE
  5
324
330
1F
100
AcDbEntity
  8
0
  6
Continuous
 62
     7
370
    15
100
AcDbLine
 10
67.5804176129
 20
78.0332179724
 30
0.0
 11
66.0804220236
 21
78.0332179724
 31
0.0
  0
LINE
  5
325
330
1F
100
AcDbEntity
  8
0
  6
Continuous
 62
     7
370
    15
100
AcDbLine
 10
67.5804176129
 20
76.318928784
 30
0.0
 11
66.0804220236
 21
76.318928784
 31
0.0
  0
LINE
  5
326
330
1F
100
AcDbEntity
  8
0
  6
Continuous
 62
     7
370
    15
100
AcDbLine
 10
66.0804220236
 20
78.0332179724
 30
0.0
 11
66.0804220236
 21
76.318928784
 31
0.0
  0
LINE
  5
327
330
1F
100
AcDbEntity
  8
0
  6
Continuous
 62
     7
370
    15
100
AcDbLine
 10
65.8245988882
 20
76.318928784
 30
0.0
 11
66.0804220236
 21
76.318928784
 31
0.0
  0
SPLINE
  5
328
330
1F
100
AcDbEntity
  8
0
  6
Continuous
 62
     7
370
    15
100
AcDbSpline
210
0.0
220
0.0
230
1.0
 70
     8
 71
     3
 72
    19
 73
    15
 74
     0
 42
0.00000001
 43
0.00000001
 12
1.0
 22
0.0
 32
0.0
 13
1.0
 23
0.0
 33
0.0
 40
0.0
 40
0.0
 40
0.0
 40
0.0
 40
0.0629416811617891
 40
0.1259766327469443
 40
0.1888389222642737
 40
0.2516526731379735
 40
0.3768748109031941
 40
0.5016259715529131
 40
0.6259468883983348
 40
0.7500583327580456
 40
0.812483197014399
 40
0.8745012084762195
 40
0.9373601541652434
 40
1.0
 40
1.0
 40
1.0
 40
1.0
 10
64.88954509188794
 20
74.6421326106153
 30
0.0
 10
64.9141064241508
 20
74.65443853850581
 30
0.0
 10
64.96326548500116
 20
74.67906862988339
 30
0.0
 10
65.03611561205268
 20
74.72854478732219
 30
0.0
 10
65.10800062922745
 20
74.78690031153663
 30
0.0
 10
65.20194950210055
 20
74.87733493431537
 30
0.0
 10
65.3155564300823
 20
75.01310588648768
 30
0.0
 10
65.44361304874529
 20
75.21099614881187
 30
0.0
 10
65.56118202933928
 20
75.44199752151748
 30
0.0
 10
65.64861171008728
 20
75.66098207137328
 30
0.0
 10
65.71086721396344
 20
75.85035175400895
 30
0.0
 10
65.75352040092132
 20
75.99997574807206
 30
0.0
 10
65.79209071953136
 20
76.15568922416632
 30
0.0
 10
65.813775466904
 20
76.26458132066625
 30
0.0
 10
65.82459891162323
 20
76.31893231524205
 30
0.0
  0
SPLINE
  5
329
330
1F
100
AcDbEntity
  8
0
  6
Continuous
 62
     7
370
    15
100
AcDbSpline
210
0.0
220
0.0
230
1.0
 70
     8
 71
     3
 72
    10
 73
     6
 74
     0
 42
0.00000001
 43
0.00000001
 12
1.0
 22
0.0
 32
0.0
 13
1.0
 23
0.0
 33
0.0
 40
0.0
 40
0.0
 40
0.0
 40
0.0
 40
0.3303425198001783
 40
0.6636753382379657
 40
1.0
 40
1.0
 40
1.0
 40
1.0
 10
65.86692580347554
 20
71.9260751723849
 30
0.0
 10
65.7564806622173
 20
72.22449978996612
 30
0.0
 10
65.5345906175278
 20
72.82405039922936
 30
0.0
 10
65.20875722382199
 20
73.72941930796341
 30
0.0
 10
64.99626558703876
 20
74.33699002408642
 30
0.0
 10
64.88954509188794
 20
74.6421326106153
 30
0.0
  0
LINE
  5
32A
330
1F
100
AcDbEntity
  8
0
  6
Continuous
 62
     7
370
    15
100
AcDbLine
 10
64.8067229188
 20
71.9260739147
 30
0.0
 11
65.8669256366
 21
71.9260739147
 31
0.0
  0
SPLINE
  5
32B
330
1F
100
AcDbEntity
  8
0
  6
Continuous
 62
     7
370
    15
100
AcDbSpline
210
0.0
220
0.0
230
1.0
 70
     8
 71
     3
 72
     9
 73
     5
 74
     0
 42
0.00000001
 43
0.00000001
 12
1.0
 22
0.0
 32
0.0
 13
1.0
 23
0.0
 33
0.0
 40
0.0
 40
0.0
 40
0.0
 40
0.0
 40
0.5030456887059661
 40
1.0
 40
1.0
 40
1.0
 40
1.0
 10
64.00434660296935
 20
74.32737325374016
 30
0.0
 10
64.1358472155875
 20
73.92407047872301
 30
0.0
 10
64.3972561006461
 20
73.12234851972049
 30
0.0
 10
64.67078983928201
 20
72.32321033740584
 30
0.0
 10
64.8067236099815
 20
71.92607517238487
 30
0.0
  0
SPLINE
  5
32C
330
1F
100
AcDbEntity
  8
0
  6
Continuous
 62
     7
370
    15
100
AcDbSpline
210
0.0
220
0.0
230
1.0
 70
     8
 71
     3
 72
     9
 73
     5
 74
     0
 42
0.00000001
 43
0.00000001
 12
1.0
 22
0.0
 32
0.0
 13
1.0
 23
0.0
 33
0.0
 40
0.0
 40
0.0
 40
0.0
 40
0.0
 40
0.5018374211781257
 40
0.9999999999999999
 40
0.9999999999999999
 40
0.9999999999999999
 40
0.9999999999999999
 10
63.5922104766511
 20
71.92607517238497
 30
0.0
 10
63.66024739392502
 20
72.32789544362
 30
0.0
 10
63.79582300945842
 20
73.12859354678595
 30
0.0
 10
63.93500923427718
 20
73.92876018016752
 30
0.0
 10
64.00434660296938
 20
74.3273732537401
 30
0.0
  0
LINE
  5
32D
330
1F
100
AcDbEntity
  8
0
  6
Continuous
 62
     7
370
    15
100
AcDbLine
 10
62.8252484596
 20
71.9260739147
 30
0.0
 11
63.5922112263
 21
71.9260739147
 31
0.0
  0
SPLINE
  5
32E
330
1F
100
AcDbEntity
  8
0
  6
Continuous
 62
     7
370
    15
100
AcDbSpline
210
0.0
220
0.0
230
1.0
 70
     8
 71
     3
 72
    11
 73
     7
 74
     0
 42
0.00000001
 43
0.00000001
 12
1.0
 22
0.0
 32
0.0
 13
1.0
 23
0.0
 33
0.0
 40
0.0
 40
0.0
 40
0.0
 40
0.0
 40
0.2464534789113373
 40
0.495271060525977
 40
0.7464531144630142
 40
0.9999999999999999
 40
0.9999999999999999
 40
0.9999999999999999
 40
0.9999999999999999
 10
63.82906279337787
 20
78.0332180295278
 30
0.0
 10
63.74334544891136
 20
77.53197246369842
 30
0.0
 10
63.57108851714914
 20
76.52467313861334
 30
0.0
 10
63.31880820580089
 20
75.00544787998757
 30
0.0
 10
63.0690746464964
 20
73.47108899659311
 30
0.0
 10
62.90677641035835
 20
72.44268592314171
 30
0.0
 10
62.82524708029093
 20
71.92607517238507
 30
0.0
  0
LINE
  5
32F
330
1F
100
AcDbEntity
  8
0
  6
Continuous
 62
     7
370
    15
100
AcDbLine
 10
64.6697737969
 20
78.0332179724
 30
0.0
 11
63.8290651835
 21
78.0332179724
 31
0.0
  0
SPLINE
  5
330
330
1F
100
AcDbEntity
  8
0
  6
Continuous
 62
     7
370
    15
100
AcDbSpline
210
0.0
220
0.0
230
1.0
 70
     8
 71
     3
 72
     9
 73
     5
 74
     0
 42
0.00000001
 43
0.00000001
 12
1.0
 22
0.0
 32
0.0
 13
1.0
 23
0.0
 33
0.0
 40
0.0
 40
0.0
 40
0.0
 40
0.0
 40
0.5016837083834368
 40
1.0
 40
1.0
 40
1.0
 40
1.0
 10
64.2655493003413
 20
75.80607608749614
 30
0.0
 10
64.33235016469379
 20
76.1786404045955
 30
0.0
 10
64.46550351058929
 20
76.92126830116376
 30
0.0
 10
64.60183701177445
 20
77.66340114359873
 30
0.0
 10
64.66977421650813
 20
78.03321802952779
 30
0.0
  0
SPLINE
  5
331
330
1F
100
AcDbEntity
  8
0
  6
Continuous
 62
     7
370
    15
100
AcDbSpline
210
0.0
220
0.0
230
1.0
 70
     8
 71
     3
 72
    26
 73
    22
 74
     0
 42
0.00000001
 43
0.00000001
 12
1.0
 22
0.0
 32
0.0
 13
1.0
 23
0.0
 33
0.0
 40
0.0
 40
0.0
 40
0.0
 40
0.0
 40
0.0180133443430221
 40
0.0359833574844258
 40
0.0718172060179174
 40
0.125391525458904
 40
0.1877748199923218
 40
0.2501409486980118
 40
0.312531229290121
 40
0.3749378189281941
 40
0.4373245907314494
 40
0.4996479275842428
 40
0.5618973677075254
 40
0.6241543300920063
 40
0.6864936495997208
 40
0.7489522671669875
 40
0.811539822927963
 40
0.8742492814451721
 40
0.9370674706779197
 40
0.9685526570771199
 40
1.0
 40
1.0
 40
1.0
 40
1.0
 10
65.2448884375408
 20
78.03321802952777
 30
0.0
 10
65.24479877225379
 20
78.01169813670641
 30
0.0
 10
65.24461965737014
 20
77.96871011728749
 30
0.0
 10
65.24271700848061
 20
77.88301104183674
 30
0.0
 10
65.23729708367121
 20
77.75527990937147
 30
0.0
 10
65.22337415102795
 20
77.57660760812685
 30
0.0
 10
65.19806883315468
 20
77.37156616716737
 30
0.0
 10
65.16207867082896
 20
77.16414670815065
 30
0.0
 10
65.1173810588425
 20
76.96640060793489
 30
0.0
 10
65.06466869772576
 20
76.78013316576963
 30
0.0
 10
65.00465705861708
 20
76.60710135728152
 30
0.0
 10
64.93797114165758
 20
76.44924013824816
 30
0.0
 10
64.86549345398767
 20
76.30775299452182
 30
0.0
 10
64.78827559836739
 20
76.18267140167843
 30
0.0
 10
64.70701913652344
 20
76.07458214346808
 30
0.0
 10
64.62247080246756
 20
75.98384239927746
 30
0.0
 10
64.53534290288157
 20
75.91089548069111
 30
0.0
 10
64.446342511498
 20
75.85607014792673
 30
0.0
 10
64.37119088557037
 20
75.82610251600829
 30
0.0
 10
64.31083697854326
 20
75.81118060009051
 30
0.0
 10
64.28063914007855
 20
75.80777690944248
 30
0.0
 10
64.2655493003413
 20
75.80607608749614
 30
0.0
  0
LINE
  5
332
330
1F
100
AcDbEntity
  8
0
  6
Continuous
 62
     7
370
    15
100
AcDbLine
 10
66.0804220236
 20
78.0332179724
 30
0.0
 11
65.2448915637
 21
78.0332179724
 31
0.0
  0
LINE
  5
333
330
1F
100
AcDbEntity
  8
0
  6
Continuous
 62
     7
370
    15
100
AcDbLine
 10
67.5804176129
 20
80.4975049554
 30
0.0
 11
66.0804220236
 21
80.4975049554
 31
0.0
  0
LINE
  5
334
330
1F
100
AcDbEntity
  8
0
  6
Continuous
 62
     7
370
    15
100
AcDbLine
 10
67.5804176129
 20
78.7189321577
 30
0.0
 11
66.0804220236
 21
78.7189321577
 31
0.0
  0
LINE
  5
335
330
1F
100
AcDbEntity
  8
0
  6
Continuous
 62
     7
370
    15
100
AcDbLine
 10
66.0804220236
 20
80.4975049554
 30
0.0
 11
66.0804220236
 21
78.7189321577
 31
0.0
  0
LINE
  5
336
330
1F
100
AcDbEntity
  8
0
  6
Continuous
 62
     7
370
    15
100
AcDbLine
 10
63.6357449687
 20
78.7189321577
 30
0.0
 11
66.0804220236
 21
78.7189321577
 31
0.0
  0
SPLINE
  5
337
330
1F
100
AcDbEntity
  8
0
  6
Continuous
 62
     7
370
    15
100
AcDbSpline
210
0.0
220
0.0
230
1.0
 70
     8
 71
     3
 72
    11
 73
     7
 74
     0
 42
0.00000001
 43
0.00000001
 12
1.0
 22
0.0
 32
0.0
 13
1.0
 23
0.0
 33
0.0
 40
0.0
 40
0.0
 40
0.0
 40
0.0
 40
0.2539724644391233
 40
0.505296337288055
 40
0.7539720381055897
 40
1.0
 40
1.0
 40
1.0
 40
1.0
 10
62.54432839904618
 20
71.92607517238496
 30
0.0
 10
62.63266118562078
 20
72.50169504829248
 30
0.0
 10
62.80840556648176
 20
73.64693185815145
 30
0.0
 10
63.07976168339236
 20
75.35456472638536
 30
0.0
 10
63.35426374640706
 20
77.04337739700509
 30
0.0
 10
63.54225513618189
 20
78.16241042812126
 30
0.0
 10
63.63574774997509
 20
78.7189323152421
 30
0.0
  0
LINE
  5
338
330
1F
100
AcDbEntity
  8
0
  6
Continuous
 62
     7
370
    15
100
AcDbLine
 10
61.8973233498
 20
71.9260739147
 30
0.0
 11
62.5443317688
 21
71.9260739147
 31
0.0
  0
SPLINE
  5
339
330
1F
100
AcDbEntity
  8
0
  6
Continuous
 62
     7
370
    15
100
AcDbSpline
210
0.0
220
0.0
230
1.0
 70
     8
 71
     3
 72
    11
 73
     7
 74
     0
 42
0.00000001
 43
0.00000001
 12
1.0
 22
0.0
 32
0.0
 13
1.0
 23
0.0
 33
0.0
 40
0.0
 40
0.0
 40
0.0
 40
0.0
 40
0.2542762999917549
 40
0.5057015519368917
 40
0.7542760255660566
 40
1.0
 40
1.0
 40
1.0
 40
1.0
 10
60.98970072713147
 20
78.71893231524224
 30
0.0
 10
61.06278443500742
 20
78.14274315960269
 30
0.0
 10
61.20813240686076
 20
76.99682531265601
 30
0.0
 10
61.43356723904317
 20
75.2885951686257
 30
0.0
 10
61.66211636793062
 20
73.60038307597098
 30
0.0
 10
61.81922338228656
 20
72.48202804622775
 30
0.0
 10
61.89732389045174
 20
71.926075172385
 30
0.0
  0
LINE
  5
33A
330
1F
100
AcDbEntity
  8
0
  6
Continuous
 62
     7
370
    15
100
AcDbLine
 10
59.5358171261
 20
78.7189321577
 30
0.0
 11
60.989701072
 21
78.7189321577
 31
0.0
  0
LINE
  5
33B
330
1F
100
AcDbEntity
  8
0
  6
Continuous
 62
     7
370
    15
100
AcDbLine
 10
59.5358171261
 20
80.4975049554
 30
0.0
 11
59.5358171261
 21
78.7189321577
 31
0.0
  0
LINE
  5
33C
330
1F
100
AcDbEntity
  8
0
  6
Continuous
 62
     7
370
    15
100
AcDbLine
 10
61.3765426672
 20
80.4975049554
 30
0.0
 11
59.5358171261
 21
80.4975049554
 31
0.0
  0
SPLINE
  5
33D
330
1F
100
AcDbEntity
  8
0
  6
Continuous
 62
     7
370
    15
100
AcDbSpline
210
0.0
220
0.0
230
1.0
 70
     8
 71
     3
 72
    10
 73
     6
 74
     0
 42
0.00000001
 43
0.00000001
 12
1.0
 22
0.0
 32
0.0
 13
1.0
 23
0.0
 33
0.0
 40
0.0
 40
0.0
 40
0.0
 40
0.0
 40
0.3289486691596323
 40
0.6622818146171882
 40
0.9999999999999999
 40
0.9999999999999999
 40
0.9999999999999999
 40
0.9999999999999999
 10
62.21497291621272
 20
74.49750374381351
 30
0.0
 10
62.11933222928355
 20
75.15495256354654
 30
0.0
 10
61.92677608411807
 20
76.47861317741402
 30
0.0
 10
61.64722159753734
 20
78.47862918079113
 30
0.0
 10
61.46716196848938
 20
79.82162026104126
 30
0.0
 10
61.37654384676294
 20
80.49750374381358
 30
0.0
  0
SPLINE
  5
33E
330
1F
100
AcDbEntity
  8
0
  6
Continuous
 62
     7
370
    15
100
AcDbSpline
210
0.0
220
0.0
230
1.0
 70
     8
 71
     3
 72
    10
 73
     6
 74
     0
 42
0.00000001
 43
0.00000001
 12
1.0
 22
0.0
 32
0.0
 13
1.0
 23
0.0
 33
0.0
 40
0.0
 40
0.0
 40
0.0
 40
0.0
 40
0.3291179424233719
 40
0.6624510379315337
 40
0.9999999999999999
 40
0.9999999999999999
 40
0.9999999999999999
 40
0.9999999999999999
 10
63.14034678688608
 20
80.49750374381355
 30
0.0
 10
63.03500305071702
 20
79.83977827773181
 30
0.0
 10
62.82296639646798
 20
78.51590357654838
 30
0.0
 10
62.51443914786773
 20
76.51588568151442
 30
0.0
 10
62.31521231157095
 20
75.17311041879313
 30
0.0
 10
62.21497291621274
 20
74.49750374381355
 30
0.0
  0
LINE
  5
33F
330
1F
100
AcDbEntity
  8
0
  6
Continuous
 62
     7
370
    15
100
AcDbLine
 10
66.0804220236
 20
80.4975049554
 30
0.0
 11
63.1403484143
 21
80.4975049554
 31
0.0
  0
LINE
  5
340
330
1F
100
AcDbEntity
  8
0
  6
Continuous
 62
     7
370
    15
100
AcDbLine
 10
66.3895466126
 20
74.6421309172
 30
0.0
 11
64.8895435727
 21
74.6421309172
 31
0.0
  0
LINE
  5
341
330
1F
100
AcDbEntity
  8
0
  6
Continuous
 62
     7
370
    15
100
AcDbLine
 10
67.3669286764
 20
71.9260739147
 30
0.0
 11
65.8669256366
 21
71.9260739147
 31
0.0
  0
LINE
  5
342
330
1F
100
AcDbEntity
  8
0
  6
Continuous
 62
     7
370
    15
100
AcDbLine
 10
65.2448915637
 20
78.0332179724
 30
0.0
 11
64.6697737969
 21
78.0332179724
 31
0.0
  0
LINE
  5
343
330
1F
100
AcDbEntity
  8
0
  6
Continuous
 62
     7
370
    15
100
AcDbLine
 10
64.8067229188
 20
71.9260739147
 30
0.0
 11
63.5922112263
 21
71.9260739147
 31
0.0
  0
LINE
  5
344
330
1F
100
AcDbEntity
  8
0
  6
Continuous
 62
     7
370
    15
100
AcDbLine
 10
62.8252484596
 20
71.9260739147
 30
0.0
 11
62.5443317688
 21
71.9260739147
 31
0.0
  0
LINE
  5
345
330
1F
100
AcDbEntity
  8
0
  6
Continuous
 62
     7
370
    15
100
AcDbLine
 10
62.8765457071
 20
80.4975049554
 30
0.0
 11
61.3765426672
 21
80.4975049554
 31
0.0
  0
LINE
  5
346
330
1F
100
AcDbEntity
  8
0
  6
Continuous
 62
     7
370
    15
100
AcDbLine
 10
59.5358171261
 20
71.9260739147
 30
0.0
 11
60.0106947816
 21
71.9260739147
 31
0.0
  0
SPLINE
  5
347
330
1F
100
AcDbEntity
  8
0
  6
Continuous
 62
     7
370
    15
100
AcDbSpline
210
0.0
220
0.0
230
1.0
 70
     8
 71
     3
 72
     9
 73
     5
 74
     0
 42
0.00000001
 43
0.00000001
 12
1.0
 22
0.0
 32
0.0
 13
1.0
 23
0.0
 33
0.0
 40
0.0
 40
0.0
 40
0.0
 40
0.0
 40
0.4958962958875135
 40
1.0
 40
1.0
 40
1.0
 40
1.0
 10
59.9536908438468
 20
76.31893231524218
 30
0.0
 10
59.88229222326816
 20
75.59299113054458
 30
0.0
 10
59.73831328821507
 20
74.12909395946693
 30
0.0
 10
59.60368321887914
 20
72.6644218221281
 30
0.0
 10
59.53581570224196
 20
71.92607517238521
 30
0.0
  0
LINE
  5
348
330
1F
100
AcDbEntity
  8
0
  6
Continuous
 62
     7
370
    15
100
AcDbLine
 10
59.5358171261
 20
76.318928784
 30
0.0
 11
59.9536903895
 21
76.318928784
 31
0.0
  0
LINE
  5
349
330
1F
100
AcDbEntity
  8
0
  6
Continuous
 62
     7
370
    15
100
AcDbLine
 10
59.5358171261
 20
78.0332179724
 30
0.0
 11
59.5358171261
 21
76.318928784
 31
0.0
  0
LINE
  5
34A
330
1F
100
AcDbEntity
  8
0
  6
Continuous
 62
     7
370
    15
100
AcDbLine
 10
60.8487882412
 20
78.0332179724
 30
0.0
 11
59.5358171261
 21
78.0332179724
 31
0.0
  0
SPLINE
  5
34B
330
1F
100
AcDbEntity
  8
0
  6
Continuous
 62
     7
370
    15
100
AcDbSpline
210
0.0
220
0.0
230
1.0
 70
     8
 71
     3
 72
    10
 73
     6
 74
     0
 42
0.00000001
 43
0.00000001
 12
1.0
 22
0.0
 32
0.0
 13
1.0
 23
0.0
 33
0.0
 40
0.0
 40
0.0
 40
0.0
 40
0.0
 40
0.3287181779302979
 40
0.6620513463538372
 40
1.0
 40
1.0
 40
1.0
 40
1.0
 10
61.64372842794528
 20
71.92607517238501
 30
0.0
 10
61.55285804721385
 20
72.5948267303369
 30
0.0
 10
61.36984152441089
 20
73.94171868534204
 30
0.0
 10
61.10477171080716
 20
75.97744868993993
 30
0.0
 10
60.93450565153219
 20
77.34482771905097
 30
0.0
 10
60.84878727870899
 20
78.03321802952789
 30
0.0
  0
LINE
  5
34C
330
1F
100
AcDbEntity
  8
0
  6
Continuous
 62
     7
370
    15
100
AcDbLine
 10
61.0221856034
 20
71.9260739147
 30
0.0
 11
61.643727938
 21
71.9260739147
 31
0.0
  0
LINE
  5
34D
330
1F
100
AcDbEntity
  8
0
  6
Continuous
 62
     7
370
    15
100
AcDbLine
 10
60.9041237033
 20
72.868929988
 30
0.0
 11
61.0221856034
 21
71.9260739147
 31
0.0
  0
LINE
  5
34E
330
1F
100
AcDbEntity
  8
0
  6
Continuous
 62
     7
370
    15
100
AcDbLine
 10
60.1063825882
 20
72.868929988
 30
0.0
 11
60.9041237033
 21
72.868929988
 31
0.0
  0
LINE
  5
34F
330
1F
100
AcDbEntity
  8
0
  6
Continuous
 62
     7
370
    15
100
AcDbLine
 10
60.0106947816
 20
71.9260739147
 30
0.0
 11
60.1063825882
 21
72.868929988
 31
0.0
  0
SPLINE
  5
350
330
1F
100
AcDbEntity
  8
0
  6
Continuous
 62
     7
370
    15
100
AcDbSpline
210
0.0
220
0.0
230
1.0
 70
     8
 71
     3
 72
     9
 73
     5
 74
     0
 42
0.00000001
 43
0.00000001
 12
1.0
 22
0.0
 32
0.0
 13
1.0
 23
0.0
 33
0.0
 40
0.0
 40
0.0
 40
0.0
 40
0.0
 40
0.5003089744148218
 40
1.0
 40
1.0
 40
1.0
 40
1.0
 10
60.22549010047818
 20
74.49750374381368
 30
0.0
 10
60.26292862291483
 20
74.8532852389886
 30
0.0
 10
60.33775942618089
 20
75.5644087913715
 30
0.0
 10
60.41483788561049
 20
76.27532307336025
 30
0.0
 10
60.45335330005339
 20
76.63056056003037
 30
0.0
  0
LINE
  5
351
330
1F
100
AcDbEntity
  8
0
  6
Continuous
 62
     7
370
    15
100
AcDbLine
 10
60.2254875696
 20
74.4975002467
 30
0.0
 11
60.7050143874
 21
74.4975002467
 31
0.0
  0
SPLINE
  5
352
330
1F
100
AcDbEntity
  8
0
  6
Continuous
 62
     7
370
    15
100
AcDbSpline
210
0.0
220
0.0
230
1.0
 70
     8
 71
     3
 72
     9
 73
     5
 74
     0
 42
0.00000001
 43
0.00000001
 12
1.0
 22
0.0
 32
0.0
 13
1.0
 23
0.0
 33
0.0
 40
0.0
 40
0.0
 40
0.0
 40
0.0
 40
0.5003362059467525
 40
1.0
 40
1.0
 40
1.0
 40
1.0
 10
60.45335330005337
 20
76.63056056003025
 30
0.0
 10
60.49468776261165
 20
76.27474758232927
 30
0.0
 10
60.57730113751236
 20
75.56359981114673
 30
0.0
 10
60.66246105268955
 20
74.85270976261678
 30
0.0
 10
60.70501237900826
 20
74.49750374381361
 30
0.0
  0
LINE
  5
353
330
1F
100
AcDbEntity
  8
0
  6
Continuous
 62
     7
370
    15
100
AcDbLine
 10
61.0777222312
 20
78.0332179724
 30
0.0
 11
60.8487882412
 21
78.0332179724
 31
0.0
  0
LINE
  5
354
330
1F
100
AcDbEntity
  8
0
  6
Continuous
 62
     7
370
    15
100
AcDbLine
 10
61.8973233498
 20
71.9260739147
 30
0.0
 11
61.643727938
 21
71.9260739147
 31
0.0
  0
LINE
  5
355
330
1F
100
AcDbEntity
  8
0
  6
Continuous
 62
     7
370
    15
100
AcDbLine
 10
61.0221856034
 20
71.9260739147
 30
0.0
 11
60.0106947816
 21
71.9260739147
 31
0.0
  0
LINE
  5
356
330
1F
100
AcDbEntity
  8
0
  6
Continuous
 62
     7
370
    15
100
AcDbLine
 10
83.8192187942
 20
278.4706668912
 30
0.0
 11
83.7033063865
 21
278.4257100879
 31
0.0
  0
LINE
  5
357
330
1F
100
AcDbEntity
  8
0
  6
Continuous
 62
     7
370
    15
100
AcDbLine
 10
83.7033063865
 20
278.4257100879
 30
0.0
 11
83.7033063865
 21
265.4975073396
 31
0.0
  0
LINE
  5
358
330
1F
100
AcDbEntity
  8
0
  6
Continuous
 62
     7
370
    15
100
AcDbLine
 10
83.8192187942
 20
97.470668888
 30
0.0
 11
83.7033063865
 21
97.4257083594
 31
0.0
  0
LINE
  5
359
330
1F
100
AcDbEntity
  8
0
  6
Continuous
 62
     7
370
    15
100
AcDbLine
 10
83.7033063865
 20
97.4257083594
 30
0.0
 11
83.7033063865
 21
84.4975056111
 31
0.0
  0
SPLINE
  5
35A
330
1F
100
AcDbEntity
  8
0
  6
Continuous
 62
     7
370
    15
100
AcDbSpline
210
0.0
220
0.0
230
1.0
 70
     8
 71
     3
 72
     9
 73
     5
 74
     0
 42
0.00000001
 43
0.00000001
 12
1.0
 22
0.0
 32
0.0
 13
1.0
 23
0.0
 33
0.0
 40
0.0
 40
0.0
 40
0.0
 40
0.0
 40
0.6252667155263956
 40
1.0
 40
1.0
 40
1.0
 40
1.0
 10
83.4063150680741
 20
229.5693026839672
 30
0.0
 10
83.63630074772675
 20
229.4638830410561
 30
0.0
 10
84.004120869831
 20
229.2952835613568
 30
0.0
 10
84.37712519954518
 20
229.1601781875496
 30
0.0
 10
84.51690233714186
 20
229.1095497070728
 30
0.0
  0
LINE
  5
35B
330
1F
100
AcDbEntity
  8
0
  6
Continuous
 62
     7
370
    15
100
AcDbLine
 10
83.4063150681
 20
229.569302684
 30
0.0
 11
83.4063150681
 21
242.4975054323
 31
0.0
  0
SPLINE
  5
35C
330
1F
100
AcDbEntity
  8
0
  6
Continuous
 62
     7
370
    15
100
AcDbSpline
210
0.0
220
0.0
230
1.0
 70
     8
 71
     3
 72
     9
 73
     5
 74
     0
 42
0.00000001
 43
0.00000001
 12
1.0
 22
0.0
 32
0.0
 13
1.0
 23
0.0
 33
0.0
 40
0.0
 40
0.0
 40
0.0
 40
0.0
 40
0.6252670957681736
 40
0.9999999999999999
 40
0.9999999999999999
 40
0.9999999999999999
 40
0.9999999999999999
 10
83.4063150680741
 20
135.28893124153
 30
0.0
 10
83.63630062919336
 20
135.1835101773949
 30
0.0
 10
84.00412033804386
 20
135.0149085272383
 30
0.0
 10
84.37712515775793
 20
134.8798070836155
 30
0.0
 10
84.51690233714186
 20
134.8291801272808
 30
0.0
  0
LINE
  5
35D
330
1F
100
AcDbEntity
  8
0
  6
Continuous
 62
     7
370
    15
100
AcDbLine
 10
83.4063150681
 20
135.2889312415
 30
0.0
 11
83.4063150681
 21
148.2171344555
 31
0.0
  0
SPLINE
  5
35E
330
1F
100
AcDbEntity
  8
0
  6
Continuous
 62
     7
370
    15
100
AcDbSpline
210
0.0
220
0.0
230
1.0
 70
     8
 71
     3
 72
     9
 73
     5
 74
     0
 42
0.00000001
 43
0.00000001
 12
1.0
 22
0.0
 32
0.0
 13
1.0
 23
0.0
 33
0.0
 40
0.0
 40
0.0
 40
0.0
 40
0.0
 40
0.6252667155263956
 40
1.0
 40
1.0
 40
1.0
 40
1.0
 10
83.4063150680741
 20
48.56930095543248
 30
0.0
 10
83.63630074772675
 20
48.46388131252139
 30
0.0
 10
84.004120869831
 20
48.295281832822
 30
0.0
 10
84.37712519954518
 20
48.16017645901488
 30
0.0
 10
84.51690233714186
 20
48.10954797853812
 30
0.0
  0
LINE
  5
35F
330
1F
100
AcDbEntity
  8
0
  6
Continuous
 62
     7
370
    15
100
AcDbLine
 10
83.4063150681
 20
48.5693009554
 30
0.0
 11
83.4063150681
 21
61.4975037037
 31
0.0
  0
SPLINE
  5
360
330
1F
100
AcDbEntity
  8
0
  6
Continuous
 62
     7
370
    15
100
AcDbSpline
210
0.0
220
0.0
230
1.0
 70
     8
 71
     3
 72
    11
 73
     7
 74
     0
 42
0.00000001
 43
0.00000001
 12
1.0
 22
0.0
 32
0.0
 13
1.0
 23
0.0
 33
0.0
 40
0.0
 40
0.0
 40
0.0
 40
0.0
 40
0.1306252517680787
 40
0.4203536863090029
 40
0.710213417332266
 40
0.9999999999999999
 40
0.9999999999999999
 40
0.9999999999999999
 40
0.9999999999999999
 10
109.4612915760954
 20
134.4692556171594
 30
0.0
 10
109.5222960368719
 20
134.4923847459555
 30
0.0
 10
109.7186091510789
 20
134.5668145703496
 30
0.0
 10
110.0471127430579
 20
134.7449702191177
 30
0.0
 10
110.4466552821398
 20
134.992675172428
 30
0.0
 10
110.709961045555
 20
135.1901875268406
 30
0.0
 10
110.8415973133525
 20
135.28893124153
 30
0.0
  0
LINE
  5
361
330
1F
100
AcDbEntity
  8
0
  6
Continuous
 62
     7
370
    15
100
AcDbLine
 10
110.8415973134
 20
135.2889312415
 30
0.0
 11
110.8415973134
 21
148.2171344555
 31
0.0
  0
SPLINE
  5
362
330
1F
100
AcDbEntity
  8
0
  6
Continuous
 62
     7
370
    15
100
AcDbSpline
210
0.0
220
0.0
230
1.0
 70
     8
 71
     3
 72
    11
 73
     7
 74
     0
 42
0.00000001
 43
0.00000001
 12
1.0
 22
0.0
 32
0.0
 13
1.0
 23
0.0
 33
0.0
 40
0.0
 40
0.0
 40
0.0
 40
0.0
 40
0.1306252542490348
 40
0.4203537872089607
 40
0.7102134118283703
 40
1.0
 40
1.0
 40
1.0
 40
1.0
 10
109.4612915760954
 20
47.74962533106192
 30
0.0
 10
109.5222960423789
 20
47.77275438650755
 30
0.0
 10
109.7186092177013
 20
47.84718399131131
 30
0.0
 10
110.0471125410739
 20
48.02534309820139
 30
0.0
 10
110.4466553985781
 20
48.27304414179404
 30
0.0
 10
110.709961067421
 20
48.47055697987529
 30
0.0
 10
110.8415973133525
 20
48.5693009554325
 30
0.0
  0
LINE
  5
363
330
1F
100
AcDbEntity
  8
0
  6
Continuous
 62
     7
370
    15
100
AcDbLine
 10
110.8415973134
 20
48.5693009554
 30
0.0
 11
110.8415973134
 21
61.4975037037
 31
0.0
  0
SPLINE
  5
364
330
1F
100
AcDbEntity
  8
0
  6
Continuous
 62
     7
370
    15
100
AcDbSpline
210
0.0
220
0.0
230
1.0
 70
     8
 71
     3
 72
    11
 73
     7
 74
     0
 42
0.00000001
 43
0.00000001
 12
1.0
 22
0.0
 32
0.0
 13
1.0
 23
0.0
 33
0.0
 40
0.0
 40
0.0
 40
0.0
 40
0.0
 40
0.3163739008779928
 40
0.6328374086873282
 40
0.9491355654370436
 40
1.0
 40
1.0
 40
1.0
 40
1.0
 10
110.5446078575333
 20
278.4257100879131
 30
0.0
 10
110.4443701171475
 20
278.5299066621092
 30
0.0
 10
110.2438662459293
 20
278.7383293222128
 30
0.0
 10
109.9393502692807
 20
278.9943611868647
 30
0.0
 10
109.71876940364
 20
279.1607160791971
 30
0.0
 10
109.5990755431081
 20
279.2204443748217
 30
0.0
 10
109.5824938959559
 20
279.2287187634884
 30
0.0
  0
LINE
  5
365
330
1F
100
AcDbEntity
  8
0
  6
Continuous
 62
     7
370
    15
100
AcDbLine
 10
110.5446078575
 20
278.4257100879
 30
0.0
 11
110.5446078575
 21
265.4975073396
 31
0.0
  0
SPLINE
  5
366
330
1F
100
AcDbEntity
  8
0
  6
Continuous
 62
     7
370
    15
100
AcDbSpline
210
0.0
220
0.0
230
1.0
 70
     8
 71
     3
 72
    11
 73
     7
 74
     0
 42
0.00000001
 43
0.00000001
 12
1.0
 22
0.0
 32
0.0
 13
1.0
 23
0.0
 33
0.0
 40
0.0
 40
0.0
 40
0.0
 40
0.0
 40
0.3163739578415344
 40
0.6328372943152418
 40
0.949135694279401
 40
0.9999999999999999
 40
0.9999999999999999
 40
0.9999999999999999
 40
0.9999999999999999
 10
110.5446078575333
 20
97.42570835937842
 30
0.0
 10
110.444370157982
 20
97.52990571598718
 30
0.0
 10
110.2438664407821
 20
97.73832986594242
 30
0.0
 10
109.9393498663656
 20
97.99435000130737
 30
0.0
 10
109.7187697830828
 20
98.16072163382034
 30
0.0
 10
109.5990755478493
 20
98.22044028114567
 30
0.0
 10
109.5824938959559
 20
98.22871330966338
 30
0.0
  0
LINE
  5
367
330
1F
100
AcDbEntity
  8
0
  6
Continuous
 62
     7
370
    15
100
AcDbLine
 10
110.5446078575
 20
97.4257083594
 30
0.0
 11
110.5446078575
 21
84.4975056111
 31
0.0
  0
SPLINE
  5
368
330
1F
100
AcDbEntity
  8
0
  6
Continuous
 62
     7
370
    15
100
AcDbSpline
210
0.0
220
0.0
230
1.0
 70
     8
 71
     3
 72
    11
 73
     7
 74
     0
 42
0.00000001
 43
0.00000001
 12
1.0
 22
0.0
 32
0.0
 13
1.0
 23
0.0
 33
0.0
 40
0.0
 40
0.0
 40
0.0
 40
0.0
 40
0.3163733588064243
 40
0.6328376688432648
 40
0.9491360186045914
 40
1.0
 40
1.0
 40
1.0
 40
1.0
 10
83.70330638653837
 20
278.4257100879131
 30
0.0
 10
83.80354243672694
 20
278.5299067535905
 30
0.0
 10
84.0040433530326
 20
278.7383300394744
 30
0.0
 10
84.30856300732599
 20
278.9943609724066
 30
0.0
 10
84.52914187422303
 20
279.1607155179386
 30
0.0
 10
84.64883682347714
 20
279.2204443661296
 30
0.0
 10
84.66541848547064
 20
279.2287187634884
 30
0.0
  0
SPLINE
  5
369
330
1F
100
AcDbEntity
  8
0
  6
Continuous
 62
     7
370
    15
100
AcDbSpline
210
0.0
220
0.0
230
1.0
 70
     8
 71
     3
 72
    11
 73
     7
 74
     0
 42
0.00000001
 43
0.00000001
 12
1.0
 22
0.0
 32
0.0
 13
1.0
 23
0.0
 33
0.0
 40
0.0
 40
0.0
 40
0.0
 40
0.0
 40
0.3163734157701797
 40
0.6328375544721481
 40
0.9491361474483784
 40
1.0
 40
1.0
 40
1.0
 40
1.0
 10
83.70330638653837
 20
97.42570835937842
 30
0.0
 10
83.80354239589225
 20
97.52990580746764
 30
0.0
 10
84.00404315818012
 20
97.73833058320459
 30
0.0
 10
84.308563410245
 20
97.99434978680799
 30
0.0
 10
84.52914149477154
 20
98.16072107262815
 30
0.0
 10
84.64883681873593
 20
98.22044027245231
 30
0.0
 10
84.66541848547064
 20
98.22871330966338
 30
0.0
  0
SPLINE
  5
36A
330
1F
100
AcDbEntity
  8
0
  6
Continuous
 62
     7
370
    15
100
AcDbSpline
210
0.0
220
0.0
230
1.0
 70
     8
 71
     3
 72
     9
 73
     5
 74
     0
 42
0.00000001
 43
0.00000001
 12
1.0
 22
0.0
 32
0.0
 13
1.0
 23
0.0
 33
0.0
 40
0.0
 40
0.0
 40
0.0
 40
0.0
 40
0.4942101256030296
 40
1.0
 40
1.0
 40
1.0
 40
1.0
 10
84.19204957253538
 20
229.0360497294841
 30
0.0
 10
84.06174945256433
 20
229.1147514846492
 30
0.0
 10
83.7980961738864
 20
229.2739990416858
 30
0.0
 10
83.53791305506367
 20
229.4701111601842
 30
0.0
 10
83.4063150680741
 20
229.5693026839672
 30
0.0
  0
SPLINE
  5
36B
330
1F
100
AcDbEntity
  8
0
  6
Continuous
 62
     7
370
    15
100
AcDbSpline
210
0.0
220
0.0
230
1.0
 70
     8
 71
     3
 72
     9
 73
     5
 74
     0
 42
0.00000001
 43
0.00000001
 12
1.0
 22
0.0
 32
0.0
 13
1.0
 23
0.0
 33
0.0
 40
0.0
 40
0.0
 40
0.0
 40
0.0
 40
0.4942101256030296
 40
1.0
 40
1.0
 40
1.0
 40
1.0
 10
84.19204957253538
 20
134.755678287047
 30
0.0
 10
84.06174945256433
 20
134.834380042212
 30
0.0
 10
83.7980961738864
 20
134.9936275992486
 30
0.0
 10
83.53791305506367
 20
135.189739717747
 30
0.0
 10
83.4063150680741
 20
135.28893124153
 30
0.0
  0
SPLINE
  5
36C
330
1F
100
AcDbEntity
  8
0
  6
Continuous
 62
     7
370
    15
100
AcDbSpline
210
0.0
220
0.0
230
1.0
 70
     8
 71
     3
 72
     9
 73
     5
 74
     0
 42
0.00000001
 43
0.00000001
 12
1.0
 22
0.0
 32
0.0
 13
1.0
 23
0.0
 33
0.0
 40
0.0
 40
0.0
 40
0.0
 40
0.0
 40
0.4942101256030296
 40
1.0
 40
1.0
 40
1.0
 40
1.0
 10
84.19204957253538
 20
48.03604800094946
 30
0.0
 10
84.06174945256433
 20
48.11474975611449
 30
0.0
 10
83.7980961738864
 20
48.27399731315107
 30
0.0
 10
83.53791305506367
 20
48.47010943164945
 30
0.0
 10
83.4063150680741
 20
48.5693009554325
 30
0.0
  0
LINE
  5
36D
330
1F
100
AcDbEntity
  8
0
  6
Continuous
 62
     8
370
    15
100
AcDbLine
 10
105.1239565707
 20
177.7956372111
 30
0.0
 11
177.512303809
 21
177.7956372111
 31
0.0
  0
LINE
  5
36E
330
1F
100
AcDbEntity
  8
0
  6
Continuous
 62
     8
370
    15
100
AcDbLine
 10
105.1239565707
 20
174.9779729157
 30
0.0
 11
177.512303809
 21
174.9779729157
 31
0.0
  0
LINE
  5
36F
330
1F
100
AcDbEntity
  8
0
  6
Continuous
 62
     8
370
    15
100
AcDbLine
 10
105.1239565707
 20
174.2119284331
 30
0.0
 11
177.512303809
 21
174.2119284331
 31
0.0
  0
LINE
  5
370
330
1F
100
AcDbEntity
  8
FORMAT
  6
CENTERX2
370
     0
100
AcDbLine
 10
141.3181300685
 20
46.0539055823
 30
0.0
 11
141.3181300685
 21
292.3581894033
 31
0.0
  0
ENDSEC
  0
SECTION
  2
OBJECTS
  0
DICTIONARY
  5
C
330
0
100
AcDbDictionary
281
     1
  3
ACAD_GROUP
350
D
  3
ACAD_LAYOUT
350
1A
  3
ACAD_MLINESTYLE
350
17
  3
ACAD_PLOTSETTINGS
350
19
  3
ACAD_PLOTSTYLENAME
350
E
  0
DICTIONARY
  5
D
102
{ACAD_REACTORS
330
C
102
}
330
C
100
AcDbDictionary
281
     1
  0
DICTIONARY
  5
1A
102
{ACAD_REACTORS
330
C
102
}
330
C
100
AcDbDictionary
281
     1
  3
Layout1
350
1E
  3
Layout2
350
26
  3
Model
350
22
  0
DICTIONARY
  5
17
102
{ACAD_REACTORS
330
C
102
}
330
C
100
AcDbDictionary
281
     1
  3
Standard
350
18
  0
DICTIONARY
  5
19
102
{ACAD_REACTORS
330
C
102
}
330
C
100
AcDbDictionary
281
     1
  0
ACDBDICTIONARYWDFLT
  5
E
102
{ACAD_REACTORS
330
C
102
}
330
C
100
AcDbDictionary
281
     1
  3
Normal
350
F
100
AcDbDictionaryWithDefault
340
F
  0
LAYOUT
  5
1E
102
{ACAD_REACTORS
330
1A
102
}
330
1A
100
AcDbPlotSettings
  1

  2
none_device
  4

  6

 40
0.0
 41
0.0
 42
0.0
 43
0.0
 44
0.0
 45
0.0
 46
0.0
 47
0.0
 48
0.0
 49
0.0
140
0.0
141
0.0
142
1.0
143
1.0
 70
   688
 72
     0
 73
     0
 74
     5
  7

 75
    16
147
1.0
148
0.0
149
0.0
100
AcDbLayout
  1
Layout1
 70
     1
 71
     1
 10
0.0
 20
0.0
 11
420.0
 21
297.0
 12
0.0
 22
0.0
 32
0.0
 14
1.0000000000E+20
 24
1.0000000000E+20
 34
1.0000000000E+20
 15
-1.0000000000E+20
 25
-1.0000000000E+20
 35
-1.0000000000E+20
146
0.0
 13
0.0
 23
0.0
 33
0.0
 16
1.0
 26
0.0
 36
0.0
 17
0.0
 27
1.0
 37
0.0
 76
     0
330
1B
  0
LAYOUT
  5
26
102
{ACAD_REACTORS
330
1A
102
}
330
1A
100
AcDbPlotSettings
  1

  2
none_device
  4

  6

 40
0.0
 41
0.0
 42
0.0
 43
0.0
 44
0.0
 45
0.0
 46
0.0
 47
0.0
 48
0.0
 49
0.0
140
0.0
141
0.0
142
1.0
143
1.0
 70
   688
 72
     0
 73
     0
 74
     5
  7

 75
    16
147
1.0
148
0.0
149
0.0
100
AcDbLayout
  1
Layout2
 70
     1
 71
     2
 10
0.0
 20
0.0
 11
0.0
 21
0.0
 12
0.0
 22
0.0
 32
0.0
 14
0.0
 24
0.0
 34
0.0
 15
0.0
 25
0.0
 35
0.0
146
0.0
 13
0.0
 23
0.0
 33
0.0
 16
1.0
 26
0.0
 36
0.0
 17
0.0
 27
1.0
 37
0.0
 76
     0
330
23
  0
LAYOUT
  5
22
102
{ACAD_REACTORS
330
1A
102
}
330
1A
100
AcDbPlotSettings
  1

  2
none_device
  4

  6

 40
0.0
 41
0.0
 42
0.0
 43
0.0
 44
0.0
 45
0.0
 46
0.0
 47
0.0
 48
0.0
 49
0.0
140
0.0
141
0.0
142
1.0
143
1.0
 70
  1712
 72
     0
 73
     0
 74
     0
  7

 75
     0
147
1.0
148
0.0
149
0.0
100
AcDbLayout
  1
Model
 70
     1
 71
     0
 10
0.0
 20
0.0
 11
841.0
 21
594.0
 12
0.0
 22
0.0
 32
0.0
 14
0.0
 24
0.0
 34
0.0
 15
841.0
 25
594.0
 35
0.0
146
0.0
 13
0.0
 23
0.0
 33
0.0
 16
1.0
 26
0.0
 36
0.0
 17
0.0
 27
1.0
 37
0.0
 76
     0
330
1F
331
29
  0
MLINESTYLE
  5
18
102
{ACAD_REACTORS
330
17
102
}
330
17
100
AcDbMlineStyle
  2
Standard
 70
     0
  3

 62
   256
 51
90.0
 52
90.0
 71
     2
 49
0.5
 62
   256
  6
BYLAYER
 49
-0.5
 62
   256
  6
BYLAYER
  0
ACDBPLACEHOLDER
  5
F
102
{ACAD_REACTORS
330
E
102
}
330
E
  0
ENDSEC
  0
EOF
