  0
SECTION
  2
HEADER
  9
$ACADVER
  1
AC1009
  9
$DWGCODEPAGE
  3
ansi_1252
  9
$INSBASE
 10
0.0
 20
0.0
 30
0.0
  9
$EXTMIN
 10
0.0
 20
0.0
 30
0.0
  9
$EXTMAX
 10
6000.0
 20
4000.0
 30
0.0
  9
$LIMMIN
 10
0.0
 20
0.0
  9
$LIMMAX
 10
6000.0
 20
4000.0
  9
$ORTHOMODE
 70
     0
  9
$REGENMODE
 70
     1
  9
$FILLMODE
 70
     1
  9
$QTEXTMODE
 70
     0
  9
$MIRRTEXT
 70
     1
  9
$DRAGMODE
 70
     2
  9
$LTSCALE
 40
1.0
  9
$OSMODE
 70
    37
  9
$ATTMODE
 70
     1
  9
$TEXTSIZE
 40
3.5
  9
$TRACEWID
 40
1.0
  9
$TEXTSTYLE
  7
STANDARD
  9
$CLAYER
  8
0
  9
$CELTYPE
  6
BYLAYER
  9
$CECOLOR
 62
   256
  9
$DIMSCALE
 40
1.0
  9
$DIMASZ
 40
3.302
  9
$DIMEXO
 40
1.0
  9
$DIMDLI
 40
3.75
  9
$DIMRND
 40
0.0
  9
$DIMDLE
 40
0.0
  9
$DIMEXE
 40
1.0
  9
$DIMTP
 40
0.0
  9
$DIMTM
 40
0.0
  9
$DIMTXT
 40
3.5
  9
$DIMCEN
 40
2.5
  9
$DIMTSZ
 40
0.0
  9
$DIMTOL
 70
     0
  9
$DIMLIM
 70
     0
  9
$DIMTIH
 70
     1
  9
$DIMTOH
 70
     1
  9
$DIMSE1
 70
     0
  9
$DIMSE2
 70
     0
  9
$DIMTAD
 70
     1
  9
$DIMZIN
 70
     0
  9
$DIMBLK
  1

  9
$DIMASO
 70
     1
  9
$DIMSHO
 70
     1
  9
$DIMPOST
  1

  9
$DIMAPOST
  1

  9
$DIMALT
 70
     0
  9
$DIMALTD
 70
     3
  9
$DIMALTF
 40
0.0393700787
  9
$DIMLFAC
 40
1.0
  9
$DIMTOFL
 70
     1
  9
$DIMTVP
 40
0.0
  9
$DIMTIX
 70
     0
  9
$DIMSOXD
 70
     0
  9
$DIMSAH
 70
     0
  9
$DIMBLK1
  1

  9
$DIMBLK2
  1

  9
$DIMSTYLE
  2
ISO-25
  9
$DIMCLRD
 70
     0
  9
$DIMCLRE
 70
     0
  9
$DIMCLRT
 70
     0
  9
$DIMTFAC
 40
1.0
  9
$DIMGAP
 40
1.524
  9
$LUNITS
 70
     2
  9
$LUPREC
 70
     2
  9
$SKETCHINC
 40
1.0
  9
$FILLETRAD
 40
10.0
  9
$AUNITS
 70
     0
  9
$AUPREC
 70
     2
  9
$MENU
  1
.
  9
$ELEVATION
 40
0.0
  9
$PELEVATION
 40
0.0
  9
$THICKNESS
 40
0.0
  9
$LIMCHECK
 70
     0
  9
$CHAMFERA
 40
10.0
  9
$CHAMFERB
 40
10.0
  9
$SKPOLY
 70
     0
  9
$TDCREATE
 40
2458222.327827211
  9
$TDUPDATE
 40
2458222.32782794
  9
$TDINDWG
 40
0.0000000116
  9
$TDUSRTIMER
 40
0.0000000116
  9
$USRTIMER
 70
     1
  9
$ANGBASE
 50
0.0
  9
$ANGDIR
 70
     0
  9
$PDMODE
 70
     0
  9
$PDSIZE
 40
-1.0
  9
$PLINEWID
 40
0.0
  9
$COORDS
 70
     1
  9
$SPLFRAME
 70
     0
  9
$SPLINETYPE
 70
     6
  9
$SPLINESEGS
 70
     8
  9
$ATTDIA
 70
     0
  9
$ATTREQ
 70
     1
  9
$HANDLING
 70
     1
  9
$HANDSEED
  5
552
  9
$SURFTAB1
 70
     6
  9
$SURFTAB2
 70
     6
  9
$SURFTYPE
 70
     6
  9
$SURFU
 70
     6
  9
$SURFV
 70
     6
  9
$UCSNAME
  2

  9
$UCSORG
 10
0.0
 20
0.0
 30
0.0
  9
$UCSXDIR
 10
1.0
 20
0.0
 30
0.0
  9
$UCSYDIR
 10
0.0
 20
1.0
 30
0.0
  9
$PUCSNAME
  2

  9
$PUCSORG
 10
0.0
 20
0.0
 30
0.0
  9
$PUCSXDIR
 10
1.0
 20
0.0
 30
0.0
  9
$PUCSYDIR
 10
0.0
 20
1.0
 30
0.0
  9
$USERI1
 70
     0
  9
$USERI2
 70
     0
  9
$USERI3
 70
     0
  9
$USERI4
 70
     0
  9
$USERI5
 70
     0
  9
$USERR1
 40
0.0
  9
$USERR2
 40
0.0
  9
$USERR3
 40
0.0
  9
$USERR4
 40
0.0
  9
$USERR5
 40
0.0
  9
$WORLDVIEW
 70
     1
  9
$SHADEDGE
 70
     3
  9
$SHADEDIF
 70
    70
  9
$TILEMODE
 70
     1
  9
$MAXACTVP
 70
    64
  9
$PLIMCHECK
 70
     0
  9
$PEXTMIN
 10
1.0000000000E+20
 20
1.0000000000E+20
 30
1.0000000000E+20
  9
$PEXTMAX
 10
-1.0000000000E+20
 20
-1.0000000000E+20
 30
-1.0000000000E+20
  9
$PLIMMIN
 10
0.0
 20
0.0
  9
$PLIMMAX
 10
420.0
 20
297.0
  9
$UNITMODE
 70
     0
  9
$VISRETAIN
 70
     1
  9
$PLINEGEN
 70
     0
  9
$PSLTSCALE
 70
     1
  0
ENDSEC
  0
SECTION
  2
TABLES
  0
TABLE
  2
VPORT
 70
     1
  0
VPORT
  2
*ACTIVE
 70
     0
 10
0.0
 20
0.0
 11
1.0
 21
1.0
 12
3000.0
 22
2000.0
 13
0.0
 23
0.0
 14
10.0
 24
10.0
 15
10.0
 25
10.0
 16
0.0
 26
0.0
 36
1.0
 17
0.0
 27
0.0
 37
0.0
 40
4000.0
 41
1.5
 42
50.0
 43
0.0
 44
0.0
 50
0.0
 51
0.0
 71
     0
 72
  2000
 73
     1
 74
     3
 75
     0
 76
     0
 77
     0
 78
     0
  0
ENDTAB
  0
TABLE
  2
LTYPE
 70
     6
  0
LTYPE
  2
CONTINUOUS
 70
     0
  3
Solid line
 72
    65
 73
     0
 40
0.0
  0
LTYPE
  2
HIDDEN
 70
     0
  3
Hidden __ __ __ __ __ __ __ __ __ __ __ __ __ __
 72
    65
 73
     2
 40
1.905
 49
1.27
 49
-0.635
  0
LTYPE
  2
PHANTOM
 70
     0
  3
Phantom ______  __  __  ______  __  __  ______
 72
    65
 73
     6
 40
12.7
 49
6.35
 49
-1.27
 49
1.27
 49
-1.27
 49
1.27
 49
-1.27
  0
LTYPE
  2
CENTER
 70
     0
  3
Center ____ _ ____ _ ____ _ ____ _ ____ _ ____
 72
    65
 73
     4
 40
10.16
 49
6.35
 49
-1.27
 49
1.27
 49
-1.27
  0
LTYPE
  2
CENTERX2
 70
     0
  3
Center (2x) ________  __  ________  __  _____
 72
    65
 73
     4
 40
20.32
 49
12.7
 49
-2.54
 49
2.54
 49
-2.54
  0
LTYPE
  2
DOT2
 70
     0
  3
Dot (.5x) ........................................
 72
    65
 73
     2
 40
0.635
 49
0.0
 49
-0.635
  0
ENDTAB
  0
TABLE
  2
LAYER
 70
     3
  0
LAYER
  2
0
 70
     0
 62
     7
  6
CONTINUOUS
  0
LAYER
  2
FORMAT
 70
     0
 62
     7
  6
CONTINUOUS
  0
LAYER
  2
PROTOTYPE
 70
     0
 62
    -7
  6
CONTINUOUS
  0
ENDTAB
  0
TABLE
  2
STYLE
 70
     1
  0
STYLE
  2
STANDARD
 70
     0
 40
0.0
 41
1.0
 50
0.0
 71
     0
 42
3.5
  3
txt
  4

  0
ENDTAB
  0
TABLE
  2
VIEW
 70
     0
  0
ENDTAB
  0
TABLE
  2
UCS
 70
     0
  0
ENDTAB
  0
TABLE
  2
APPID
 70
     1
  0
APPID
  2
ACAD
 70
     0
  0
ENDTAB
  0
TABLE
  2
DIMSTYLE
 70
     1
  0
DIMSTYLE
  2
ISO-25
 70
     0
  3

  4

  5

  6

  7

 40
1.0
 41
2.5
 42
0.625
 43
3.75
 44
1.25
 45
0.0
 46
0.0
 47
0.0
 48
0.0
140
2.5
141
2.5
142
0.0
143
0.0393700787
144
1.0
145
0.0
146
1.0
147
0.625
 71
     0
 72
     0
 73
     0
 74
     0
 75
     0
 76
     0
 77
     1
 78
     8
170
     0
171
     3
172
     1
173
     0
174
     0
175
     0
176
     0
177
     0
178
     0
  0
ENDTAB
  0
ENDSEC
  0
SECTION
  2
BLOCKS
  0
BLOCK
  8
0
  2
$MODEL_SPACE
 70
     0
 10
0.0
 20
0.0
 30
0.0
  3
$MODEL_SPACE
  1

  0
ENDBLK
  5
21
  8
0
  0
BLOCK
 67
     1
  8
0
  2
$PAPER_SPACE
 70
     0
 10
0.0
 20
0.0
 30
0.0
  3
$PAPER_SPACE
  1

  0
ENDBLK
  5
1D
 67
     1
  8
0
  0
BLOCK
  8
0
  2
SW_CENTERMARKSYMBOL_0
 70
     0
 10
0.0
 20
0.0
 30
0.0
  3
SW_CENTERMARKSYMBOL_0
  1

  0
LINE
  5
F2
  8
FORMAT
 62
     0
 10
0.0
 20
0.0
 30
0.0
 11
0.0
 21
2.5
 31
0.0
  0
LINE
  5
F3
  8
FORMAT
 62
     0
 10
0.0
 20
0.0
 30
0.0
 11
-2.5
 21
0.0
 31
0.0
  0
LINE
  5
F4
  8
FORMAT
 62
     0
 10
0.0
 20
0.0
 30
0.0
 11
0.0
 21
-2.5
 31
0.0
  0
LINE
  5
F5
  8
FORMAT
 62
     0
 10
0.0
 20
0.0
 30
0.0
 11
2.5
 21
0.0
 31
0.0
  0
LINE
  5
F6
  8
FORMAT
 62
     0
 10
0.0
 20
5.0
 30
0.0
 11
0.0
 21
666.5
 31
0.0
  0
LINE
  5
F7
  8
FORMAT
 62
     0
 10
-5.0
 20
0.0
 30
0.0
 11
-666.5
 21
0.0
 31
0.0
  0
LINE
  5
F8
  8
FORMAT
 62
     0
 10
0.0
 20
-5.0
 30
0.0
 11
0.0
 21
-666.5
 31
0.0
  0
LINE
  5
F9
  8
FORMAT
 62
     0
 10
5.0
 20
0.0
 30
0.0
 11
666.5
 21
0.0
 31
0.0
  0
ENDBLK
  5
F1
  8
0
  0
BLOCK
  8
0
  2
SW_CENTERMARKSYMBOL_1
 70
     0
 10
0.0
 20
0.0
 30
0.0
  3
SW_CENTERMARKSYMBOL_1
  1

  0
LINE
  5
FE
  8
FORMAT
 62
     0
 10
0.0
 20
0.0
 30
0.0
 11
0.0
 21
2.5
 31
0.0
  0
LINE
  5
FF
  8
FORMAT
 62
     0
 10
0.0
 20
0.0
 30
0.0
 11
-2.5
 21
0.0
 31
0.0
  0
LINE
  5
100
  8
FORMAT
 62
     0
 10
0.0
 20
0.0
 30
0.0
 11
0.0
 21
-2.5
 31
0.0
  0
LINE
  5
101
  8
FORMAT
 62
     0
 10
0.0
 20
0.0
 30
0.0
 11
2.5
 21
0.0
 31
0.0
  0
LINE
  5
102
  8
FORMAT
 62
     0
 10
0.0
 20
5.0
 30
0.0
 11
0.0
 21
23.0
 31
0.0
  0
LINE
  5
103
  8
FORMAT
 62
     0
 10
-5.0
 20
0.0
 30
0.0
 11
-23.0
 21
0.0
 31
0.0
  0
LINE
  5
104
  8
FORMAT
 62
     0
 10
0.0
 20
-5.0
 30
0.0
 11
0.0
 21
-23.0
 31
0.0
  0
LINE
  5
105
  8
FORMAT
 62
     0
 10
5.0
 20
0.0
 30
0.0
 11
23.0
 21
0.0
 31
0.0
  0
ENDBLK
  5
FD
  8
0
  0
BLOCK
  8
0
  2
SW_CENTERMARKSYMBOL_2
 70
     0
 10
0.0
 20
0.0
 30
0.0
  3
SW_CENTERMARKSYMBOL_2
  1

  0
LINE
  5
10A
  8
FORMAT
 62
     0
 10
0.0
 20
0.0
 30
0.0
 11
0.0
 21
2.5
 31
0.0
  0
LINE
  5
10B
  8
FORMAT
 62
     0
 10
0.0
 20
0.0
 30
0.0
 11
-2.5
 21
0.0
 31
0.0
  0
LINE
  5
10C
  8
FORMAT
 62
     0
 10
0.0
 20
0.0
 30
0.0
 11
0.0
 21
-2.5
 31
0.0
  0
LINE
  5
10D
  8
FORMAT
 62
     0
 10
0.0
 20
0.0
 30
0.0
 11
2.5
 21
0.0
 31
0.0
  0
LINE
  5
10E
  8
FORMAT
 62
     0
 10
0.0
 20
5.0
 30
0.0
 11
0.0
 21
23.0
 31
0.0
  0
LINE
  5
10F
  8
FORMAT
 62
     0
 10
-5.0
 20
0.0
 30
0.0
 11
-23.0
 21
0.0
 31
0.0
  0
LINE
  5
110
  8
FORMAT
 62
     0
 10
0.0
 20
-5.0
 30
0.0
 11
0.0
 21
-23.0
 31
0.0
  0
LINE
  5
111
  8
FORMAT
 62
     0
 10
5.0
 20
0.0
 30
0.0
 11
23.0
 21
0.0
 31
0.0
  0
ENDBLK
  5
109
  8
0
  0
BLOCK
  8
0
  2
SW_CENTERMARKSYMBOL_3
 70
     0
 10
0.0
 20
0.0
 30
0.0
  3
SW_CENTERMARKSYMBOL_3
  1

  0
LINE
  5
116
  8
FORMAT
 62
     0
 10
0.0
 20
0.0
 30
0.0
 11
0.0
 21
2.5
 31
0.0
  0
LINE
  5
117
  8
FORMAT
 62
     0
 10
0.0
 20
0.0
 30
0.0
 11
-2.5
 21
0.0
 31
0.0
  0
LINE
  5
118
  8
FORMAT
 62
     0
 10
0.0
 20
0.0
 30
0.0
 11
0.0
 21
-2.5
 31
0.0
  0
LINE
  5
119
  8
FORMAT
 62
     0
 10
0.0
 20
0.0
 30
0.0
 11
2.5
 21
0.0
 31
0.0
  0
LINE
  5
11A
  8
FORMAT
 62
     0
 10
0.0
 20
5.0
 30
0.0
 11
0.0
 21
23.0
 31
0.0
  0
LINE
  5
11B
  8
FORMAT
 62
     0
 10
-5.0
 20
0.0
 30
0.0
 11
-23.0
 21
0.0
 31
0.0
  0
LINE
  5
11C
  8
FORMAT
 62
     0
 10
0.0
 20
-5.0
 30
0.0
 11
0.0
 21
-23.0
 31
0.0
  0
LINE
  5
11D
  8
FORMAT
 62
     0
 10
5.0
 20
0.0
 30
0.0
 11
23.0
 21
0.0
 31
0.0
  0
ENDBLK
  5
115
  8
0
  0
BLOCK
  8
0
  2
SW_CENTERMARKSYMBOL_4
 70
     0
 10
0.0
 20
0.0
 30
0.0
  3
SW_CENTERMARKSYMBOL_4
  1

  0
LINE
  5
122
  8
FORMAT
 62
     0
 10
0.0
 20
0.0
 30
0.0
 11
0.0
 21
2.5
 31
0.0
  0
LINE
  5
123
  8
FORMAT
 62
     0
 10
0.0
 20
0.0
 30
0.0
 11
-2.5
 21
0.0
 31
0.0
  0
LINE
  5
124
  8
FORMAT
 62
     0
 10
0.0
 20
0.0
 30
0.0
 11
0.0
 21
-2.5
 31
0.0
  0
LINE
  5
125
  8
FORMAT
 62
     0
 10
0.0
 20
0.0
 30
0.0
 11
2.5
 21
0.0
 31
0.0
  0
LINE
  5
126
  8
FORMAT
 62
     0
 10
0.0
 20
5.0
 30
0.0
 11
0.0
 21
23.0
 31
0.0
  0
LINE
  5
127
  8
FORMAT
 62
     0
 10
-5.0
 20
0.0
 30
0.0
 11
-23.0
 21
0.0
 31
0.0
  0
LINE
  5
128
  8
FORMAT
 62
     0
 10
0.0
 20
-5.0
 30
0.0
 11
0.0
 21
-23.0
 31
0.0
  0
LINE
  5
129
  8
FORMAT
 62
     0
 10
5.0
 20
0.0
 30
0.0
 11
23.0
 21
0.0
 31
0.0
  0
ENDBLK
  5
121
  8
0
  0
BLOCK
  8
0
  2
SW_CENTERMARKSYMBOL_5
 70
     0
 10
0.0
 20
0.0
 30
0.0
  3
SW_CENTERMARKSYMBOL_5
  1

  0
LINE
  5
12E
  8
FORMAT
 62
     0
 10
0.0
 20
0.0
 30
0.0
 11
0.0
 21
2.5
 31
0.0
  0
LINE
  5
12F
  8
FORMAT
 62
     0
 10
0.0
 20
0.0
 30
0.0
 11
-2.5
 21
0.0
 31
0.0
  0
LINE
  5
130
  8
FORMAT
 62
     0
 10
0.0
 20
0.0
 30
0.0
 11
0.0
 21
-2.5
 31
0.0
  0
LINE
  5
131
  8
FORMAT
 62
     0
 10
0.0
 20
0.0
 30
0.0
 11
2.5
 21
0.0
 31
0.0
  0
LINE
  5
132
  8
FORMAT
 62
     0
 10
0.0
 20
5.0
 30
0.0
 11
0.0
 21
23.0
 31
0.0
  0
LINE
  5
133
  8
FORMAT
 62
     0
 10
-5.0
 20
0.0
 30
0.0
 11
-23.0
 21
0.0
 31
0.0
  0
LINE
  5
134
  8
FORMAT
 62
     0
 10
0.0
 20
-5.0
 30
0.0
 11
0.0
 21
-23.0
 31
0.0
  0
LINE
  5
135
  8
FORMAT
 62
     0
 10
5.0
 20
0.0
 30
0.0
 11
23.0
 21
0.0
 31
0.0
  0
ENDBLK
  5
12D
  8
0
  0
BLOCK
  8
0
  2
SW_CENTERMARKSYMBOL_6
 70
     0
 10
0.0
 20
0.0
 30
0.0
  3
SW_CENTERMARKSYMBOL_6
  1

  0
LINE
  5
13A
  8
FORMAT
 62
     0
 10
0.0
 20
0.0
 30
0.0
 11
0.0
 21
2.5
 31
0.0
  0
LINE
  5
13B
  8
FORMAT
 62
     0
 10
0.0
 20
0.0
 30
0.0
 11
-2.5
 21
0.0
 31
0.0
  0
LINE
  5
13C
  8
FORMAT
 62
     0
 10
0.0
 20
0.0
 30
0.0
 11
0.0
 21
-2.5
 31
0.0
  0
LINE
  5
13D
  8
FORMAT
 62
     0
 10
0.0
 20
0.0
 30
0.0
 11
2.5
 21
0.0
 31
0.0
  0
LINE
  5
13E
  8
FORMAT
 62
     0
 10
0.0
 20
5.0
 30
0.0
 11
0.0
 21
23.0
 31
0.0
  0
LINE
  5
13F
  8
FORMAT
 62
     0
 10
-5.0
 20
0.0
 30
0.0
 11
-23.0
 21
0.0
 31
0.0
  0
LINE
  5
140
  8
FORMAT
 62
     0
 10
0.0
 20
-5.0
 30
0.0
 11
0.0
 21
-23.0
 31
0.0
  0
LINE
  5
141
  8
FORMAT
 62
     0
 10
5.0
 20
0.0
 30
0.0
 11
23.0
 21
0.0
 31
0.0
  0
ENDBLK
  5
139
  8
0
  0
BLOCK
  8
0
  2
SW_CENTERMARKSYMBOL_7
 70
     0
 10
0.0
 20
0.0
 30
0.0
  3
SW_CENTERMARKSYMBOL_7
  1

  0
LINE
  5
146
  8
FORMAT
 62
     0
 10
0.0
 20
0.0
 30
0.0
 11
0.0
 21
2.5
 31
0.0
  0
LINE
  5
147
  8
FORMAT
 62
     0
 10
0.0
 20
0.0
 30
0.0
 11
-2.5
 21
0.0
 31
0.0
  0
LINE
  5
148
  8
FORMAT
 62
     0
 10
0.0
 20
0.0
 30
0.0
 11
0.0
 21
-2.5
 31
0.0
  0
LINE
  5
149
  8
FORMAT
 62
     0
 10
0.0
 20
0.0
 30
0.0
 11
2.5
 21
0.0
 31
0.0
  0
LINE
  5
14A
  8
FORMAT
 62
     0
 10
0.0
 20
5.0
 30
0.0
 11
0.0
 21
23.0
 31
0.0
  0
LINE
  5
14B
  8
FORMAT
 62
     0
 10
-5.0
 20
0.0
 30
0.0
 11
-23.0
 21
0.0
 31
0.0
  0
LINE
  5
14C
  8
FORMAT
 62
     0
 10
0.0
 20
-5.0
 30
0.0
 11
0.0
 21
-23.0
 31
0.0
  0
LINE
  5
14D
  8
FORMAT
 62
     0
 10
5.0
 20
0.0
 30
0.0
 11
23.0
 21
0.0
 31
0.0
  0
ENDBLK
  5
145
  8
0
  0
BLOCK
  8
0
  2
SW_CENTERMARKSYMBOL_8
 70
     0
 10
0.0
 20
0.0
 30
0.0
  3
SW_CENTERMARKSYMBOL_8
  1

  0
LINE
  5
152
  8
FORMAT
 62
     0
 10
0.0
 20
0.0
 30
0.0
 11
0.0
 21
2.5
 31
0.0
  0
LINE
  5
153
  8
FORMAT
 62
     0
 10
0.0
 20
0.0
 30
0.0
 11
-2.5
 21
0.0
 31
0.0
  0
LINE
  5
154
  8
FORMAT
 62
     0
 10
0.0
 20
0.0
 30
0.0
 11
0.0
 21
-2.5
 31
0.0
  0
LINE
  5
155
  8
FORMAT
 62
     0
 10
0.0
 20
0.0
 30
0.0
 11
2.5
 21
0.0
 31
0.0
  0
LINE
  5
156
  8
FORMAT
 62
     0
 10
0.0
 20
5.0
 30
0.0
 11
0.0
 21
23.0
 31
0.0
  0
LINE
  5
157
  8
FORMAT
 62
     0
 10
-5.0
 20
0.0
 30
0.0
 11
-23.0
 21
0.0
 31
0.0
  0
LINE
  5
158
  8
FORMAT
 62
     0
 10
0.0
 20
-5.0
 30
0.0
 11
0.0
 21
-23.0
 31
0.0
  0
LINE
  5
159
  8
FORMAT
 62
     0
 10
5.0
 20
0.0
 30
0.0
 11
23.0
 21
0.0
 31
0.0
  0
ENDBLK
  5
151
  8
0
  0
BLOCK
  8
0
  2
SW_CENTERMARKSYMBOL_9
 70
     0
 10
0.0
 20
0.0
 30
0.0
  3
SW_CENTERMARKSYMBOL_9
  1

  0
LINE
  5
15E
  8
FORMAT
 62
     0
 10
0.0
 20
0.0
 30
0.0
 11
0.0
 21
2.5
 31
0.0
  0
LINE
  5
15F
  8
FORMAT
 62
     0
 10
0.0
 20
0.0
 30
0.0
 11
-2.5
 21
0.0
 31
0.0
  0
LINE
  5
160
  8
FORMAT
 62
     0
 10
0.0
 20
0.0
 30
0.0
 11
0.0
 21
-2.5
 31
0.0
  0
LINE
  5
161
  8
FORMAT
 62
     0
 10
0.0
 20
0.0
 30
0.0
 11
2.5
 21
0.0
 31
0.0
  0
LINE
  5
162
  8
FORMAT
 62
     0
 10
0.0
 20
5.0
 30
0.0
 11
0.0
 21
23.0
 31
0.0
  0
LINE
  5
163
  8
FORMAT
 62
     0
 10
-5.0
 20
0.0
 30
0.0
 11
-23.0
 21
0.0
 31
0.0
  0
LINE
  5
164
  8
FORMAT
 62
     0
 10
0.0
 20
-5.0
 30
0.0
 11
0.0
 21
-23.0
 31
0.0
  0
LINE
  5
165
  8
FORMAT
 62
     0
 10
5.0
 20
0.0
 30
0.0
 11
23.0
 21
0.0
 31
0.0
  0
ENDBLK
  5
15D
  8
0
  0
BLOCK
  8
0
  2
SW_CENTERMARKSYMBOL_10
 70
     0
 10
0.0
 20
0.0
 30
0.0
  3
SW_CENTERMARKSYMBOL_10
  1

  0
LINE
  5
16A
  8
FORMAT
 62
     0
 10
0.0
 20
0.0
 30
0.0
 11
0.0
 21
2.5
 31
0.0
  0
LINE
  5
16B
  8
FORMAT
 62
     0
 10
0.0
 20
0.0
 30
0.0
 11
-2.5
 21
0.0
 31
0.0
  0
LINE
  5
16C
  8
FORMAT
 62
     0
 10
0.0
 20
0.0
 30
0.0
 11
0.0
 21
-2.5
 31
0.0
  0
LINE
  5
16D
  8
FORMAT
 62
     0
 10
0.0
 20
0.0
 30
0.0
 11
2.5
 21
0.0
 31
0.0
  0
LINE
  5
16E
  8
FORMAT
 62
     0
 10
0.0
 20
5.0
 30
0.0
 11
0.0
 21
23.0
 31
0.0
  0
LINE
  5
16F
  8
FORMAT
 62
     0
 10
-5.0
 20
0.0
 30
0.0
 11
-23.0
 21
0.0
 31
0.0
  0
LINE
  5
170
  8
FORMAT
 62
     0
 10
0.0
 20
-5.0
 30
0.0
 11
0.0
 21
-23.0
 31
0.0
  0
LINE
  5
171
  8
FORMAT
 62
     0
 10
5.0
 20
0.0
 30
0.0
 11
23.0
 21
0.0
 31
0.0
  0
ENDBLK
  5
169
  8
0
  0
BLOCK
  8
0
  2
SW_CENTERMARKSYMBOL_11
 70
     0
 10
0.0
 20
0.0
 30
0.0
  3
SW_CENTERMARKSYMBOL_11
  1

  0
LINE
  5
176
  8
FORMAT
 62
     0
 10
0.0
 20
0.0
 30
0.0
 11
0.0
 21
2.5
 31
0.0
  0
LINE
  5
177
  8
FORMAT
 62
     0
 10
0.0
 20
0.0
 30
0.0
 11
-2.5
 21
0.0
 31
0.0
  0
LINE
  5
178
  8
FORMAT
 62
     0
 10
0.0
 20
0.0
 30
0.0
 11
0.0
 21
-2.5
 31
0.0
  0
LINE
  5
179
  8
FORMAT
 62
     0
 10
0.0
 20
0.0
 30
0.0
 11
2.5
 21
0.0
 31
0.0
  0
LINE
  5
17A
  8
FORMAT
 62
     0
 10
0.0
 20
5.0
 30
0.0
 11
0.0
 21
23.0
 31
0.0
  0
LINE
  5
17B
  8
FORMAT
 62
     0
 10
-5.0
 20
0.0
 30
0.0
 11
-23.0
 21
0.0
 31
0.0
  0
LINE
  5
17C
  8
FORMAT
 62
     0
 10
0.0
 20
-5.0
 30
0.0
 11
0.0
 21
-23.0
 31
0.0
  0
LINE
  5
17D
  8
FORMAT
 62
     0
 10
5.0
 20
0.0
 30
0.0
 11
23.0
 21
0.0
 31
0.0
  0
ENDBLK
  5
175
  8
0
  0
BLOCK
  8
0
  2
SW_CENTERMARKSYMBOL_12
 70
     0
 10
0.0
 20
0.0
 30
0.0
  3
SW_CENTERMARKSYMBOL_12
  1

  0
LINE
  5
182
  8
FORMAT
 62
     0
 10
0.0
 20
0.0
 30
0.0
 11
0.0
 21
2.5
 31
0.0
  0
LINE
  5
183
  8
FORMAT
 62
     0
 10
0.0
 20
0.0
 30
0.0
 11
-2.5
 21
0.0
 31
0.0
  0
LINE
  5
184
  8
FORMAT
 62
     0
 10
0.0
 20
0.0
 30
0.0
 11
0.0
 21
-2.5
 31
0.0
  0
LINE
  5
185
  8
FORMAT
 62
     0
 10
0.0
 20
0.0
 30
0.0
 11
2.5
 21
0.0
 31
0.0
  0
LINE
  5
186
  8
FORMAT
 62
     0
 10
0.0
 20
5.0
 30
0.0
 11
0.0
 21
23.0
 31
0.0
  0
LINE
  5
187
  8
FORMAT
 62
     0
 10
-5.0
 20
0.0
 30
0.0
 11
-23.0
 21
0.0
 31
0.0
  0
LINE
  5
188
  8
FORMAT
 62
     0
 10
0.0
 20
-5.0
 30
0.0
 11
0.0
 21
-23.0
 31
0.0
  0
LINE
  5
189
  8
FORMAT
 62
     0
 10
5.0
 20
0.0
 30
0.0
 11
23.0
 21
0.0
 31
0.0
  0
ENDBLK
  5
181
  8
0
  0
BLOCK
  8
0
  2
SW_CENTERMARKSYMBOL_13
 70
     0
 10
0.0
 20
0.0
 30
0.0
  3
SW_CENTERMARKSYMBOL_13
  1

  0
LINE
  5
18E
  8
FORMAT
 62
     0
 10
0.0
 20
0.0
 30
0.0
 11
0.0
 21
2.5
 31
0.0
  0
LINE
  5
18F
  8
FORMAT
 62
     0
 10
0.0
 20
0.0
 30
0.0
 11
-2.5
 21
0.0
 31
0.0
  0
LINE
  5
190
  8
FORMAT
 62
     0
 10
0.0
 20
0.0
 30
0.0
 11
0.0
 21
-2.5
 31
0.0
  0
LINE
  5
191
  8
FORMAT
 62
     0
 10
0.0
 20
0.0
 30
0.0
 11
2.5
 21
0.0
 31
0.0
  0
LINE
  5
192
  8
FORMAT
 62
     0
 10
0.0
 20
5.0
 30
0.0
 11
0.0
 21
23.0
 31
0.0
  0
LINE
  5
193
  8
FORMAT
 62
     0
 10
-5.0
 20
0.0
 30
0.0
 11
-23.0
 21
0.0
 31
0.0
  0
LINE
  5
194
  8
FORMAT
 62
     0
 10
0.0
 20
-5.0
 30
0.0
 11
0.0
 21
-23.0
 31
0.0
  0
LINE
  5
195
  8
FORMAT
 62
     0
 10
5.0
 20
0.0
 30
0.0
 11
23.0
 21
0.0
 31
0.0
  0
ENDBLK
  5
18D
  8
0
  0
BLOCK
  8
0
  2
SW_CENTERMARKSYMBOL_14
 70
     0
 10
0.0
 20
0.0
 30
0.0
  3
SW_CENTERMARKSYMBOL_14
  1

  0
LINE
  5
19A
  8
FORMAT
 62
     0
 10
0.0
 20
0.0
 30
0.0
 11
0.0
 21
2.5
 31
0.0
  0
LINE
  5
19B
  8
FORMAT
 62
     0
 10
0.0
 20
0.0
 30
0.0
 11
-2.5
 21
0.0
 31
0.0
  0
LINE
  5
19C
  8
FORMAT
 62
     0
 10
0.0
 20
0.0
 30
0.0
 11
0.0
 21
-2.5
 31
0.0
  0
LINE
  5
19D
  8
FORMAT
 62
     0
 10
0.0
 20
0.0
 30
0.0
 11
2.5
 21
0.0
 31
0.0
  0
LINE
  5
19E
  8
FORMAT
 62
     0
 10
0.0
 20
5.0
 30
0.0
 11
0.0
 21
23.0
 31
0.0
  0
LINE
  5
19F
  8
FORMAT
 62
     0
 10
-5.0
 20
0.0
 30
0.0
 11
-23.0
 21
0.0
 31
0.0
  0
LINE
  5
1A0
  8
FORMAT
 62
     0
 10
0.0
 20
-5.0
 30
0.0
 11
0.0
 21
-23.0
 31
0.0
  0
LINE
  5
1A1
  8
FORMAT
 62
     0
 10
5.0
 20
0.0
 30
0.0
 11
23.0
 21
0.0
 31
0.0
  0
ENDBLK
  5
199
  8
0
  0
BLOCK
  8
0
  2
SW_CENTERMARKSYMBOL_15
 70
     0
 10
0.0
 20
0.0
 30
0.0
  3
SW_CENTERMARKSYMBOL_15
  1

  0
LINE
  5
1A6
  8
FORMAT
 62
     0
 10
0.0
 20
0.0
 30
0.0
 11
0.0
 21
2.5
 31
0.0
  0
LINE
  5
1A7
  8
FORMAT
 62
     0
 10
0.0
 20
0.0
 30
0.0
 11
-2.5
 21
0.0
 31
0.0
  0
LINE
  5
1A8
  8
FORMAT
 62
     0
 10
0.0
 20
0.0
 30
0.0
 11
0.0
 21
-2.5
 31
0.0
  0
LINE
  5
1A9
  8
FORMAT
 62
     0
 10
0.0
 20
0.0
 30
0.0
 11
2.5
 21
0.0
 31
0.0
  0
LINE
  5
1AA
  8
FORMAT
 62
     0
 10
0.0
 20
5.0
 30
0.0
 11
0.0
 21
23.0
 31
0.0
  0
LINE
  5
1AB
  8
FORMAT
 62
     0
 10
-5.0
 20
0.0
 30
0.0
 11
-23.0
 21
0.0
 31
0.0
  0
LINE
  5
1AC
  8
FORMAT
 62
     0
 10
0.0
 20
-5.0
 30
0.0
 11
0.0
 21
-23.0
 31
0.0
  0
LINE
  5
1AD
  8
FORMAT
 62
     0
 10
5.0
 20
0.0
 30
0.0
 11
23.0
 21
0.0
 31
0.0
  0
ENDBLK
  5
1A5
  8
0
  0
BLOCK
  8
0
  2
SW_CENTERMARKSYMBOL_16
 70
     0
 10
0.0
 20
0.0
 30
0.0
  3
SW_CENTERMARKSYMBOL_16
  1

  0
LINE
  5
1B2
  8
FORMAT
 62
     0
 10
0.0
 20
0.0
 30
0.0
 11
0.0
 21
2.5
 31
0.0
  0
LINE
  5
1B3
  8
FORMAT
 62
     0
 10
0.0
 20
0.0
 30
0.0
 11
-2.5
 21
0.0
 31
0.0
  0
LINE
  5
1B4
  8
FORMAT
 62
     0
 10
0.0
 20
0.0
 30
0.0
 11
0.0
 21
-2.5
 31
0.0
  0
LINE
  5
1B5
  8
FORMAT
 62
     0
 10
0.0
 20
0.0
 30
0.0
 11
2.5
 21
0.0
 31
0.0
  0
LINE
  5
1B6
  8
FORMAT
 62
     0
 10
0.0
 20
5.0
 30
0.0
 11
0.0
 21
23.0
 31
0.0
  0
LINE
  5
1B7
  8
FORMAT
 62
     0
 10
-5.0
 20
0.0
 30
0.0
 11
-23.0
 21
0.0
 31
0.0
  0
LINE
  5
1B8
  8
FORMAT
 62
     0
 10
0.0
 20
-5.0
 30
0.0
 11
0.0
 21
-23.0
 31
0.0
  0
LINE
  5
1B9
  8
FORMAT
 62
     0
 10
5.0
 20
0.0
 30
0.0
 11
23.0
 21
0.0
 31
0.0
  0
ENDBLK
  5
1B1
  8
0
  0
BLOCK
  8
0
  2
SW_CENTERMARKSYMBOL_17
 70
     0
 10
0.0
 20
0.0
 30
0.0
  3
SW_CENTERMARKSYMBOL_17
  1

  0
LINE
  5
1BE
  8
FORMAT
 62
     0
 10
0.0
 20
0.0
 30
0.0
 11
0.0
 21
2.5
 31
0.0
  0
LINE
  5
1BF
  8
FORMAT
 62
     0
 10
0.0
 20
0.0
 30
0.0
 11
-2.5
 21
0.0
 31
0.0
  0
LINE
  5
1C0
  8
FORMAT
 62
     0
 10
0.0
 20
0.0
 30
0.0
 11
0.0
 21
-2.5
 31
0.0
  0
LINE
  5
1C1
  8
FORMAT
 62
     0
 10
0.0
 20
0.0
 30
0.0
 11
2.5
 21
0.0
 31
0.0
  0
LINE
  5
1C2
  8
FORMAT
 62
     0
 10
0.0
 20
5.0
 30
0.0
 11
0.0
 21
23.0
 31
0.0
  0
LINE
  5
1C3
  8
FORMAT
 62
     0
 10
-5.0
 20
0.0
 30
0.0
 11
-23.0
 21
0.0
 31
0.0
  0
LINE
  5
1C4
  8
FORMAT
 62
     0
 10
0.0
 20
-5.0
 30
0.0
 11
0.0
 21
-23.0
 31
0.0
  0
LINE
  5
1C5
  8
FORMAT
 62
     0
 10
5.0
 20
0.0
 30
0.0
 11
23.0
 21
0.0
 31
0.0
  0
ENDBLK
  5
1BD
  8
0
  0
BLOCK
  8
0
  2
SW_CENTERMARKSYMBOL_18
 70
     0
 10
0.0
 20
0.0
 30
0.0
  3
SW_CENTERMARKSYMBOL_18
  1

  0
LINE
  5
1CA
  8
FORMAT
 62
     0
 10
0.0
 20
0.0
 30
0.0
 11
0.0
 21
2.5
 31
0.0
  0
LINE
  5
1CB
  8
FORMAT
 62
     0
 10
0.0
 20
0.0
 30
0.0
 11
-2.5
 21
0.0
 31
0.0
  0
LINE
  5
1CC
  8
FORMAT
 62
     0
 10
0.0
 20
0.0
 30
0.0
 11
0.0
 21
-2.5
 31
0.0
  0
LINE
  5
1CD
  8
FORMAT
 62
     0
 10
0.0
 20
0.0
 30
0.0
 11
2.5
 21
0.0
 31
0.0
  0
LINE
  5
1CE
  8
FORMAT
 62
     0
 10
0.0
 20
5.0
 30
0.0
 11
0.0
 21
23.0
 31
0.0
  0
LINE
  5
1CF
  8
FORMAT
 62
     0
 10
-5.0
 20
0.0
 30
0.0
 11
-23.0
 21
0.0
 31
0.0
  0
LINE
  5
1D0
  8
FORMAT
 62
     0
 10
0.0
 20
-5.0
 30
0.0
 11
0.0
 21
-23.0
 31
0.0
  0
LINE
  5
1D1
  8
FORMAT
 62
     0
 10
5.0
 20
0.0
 30
0.0
 11
23.0
 21
0.0
 31
0.0
  0
ENDBLK
  5
1C9
  8
0
  0
BLOCK
  8
0
  2
SW_CENTERMARKSYMBOL_19
 70
     0
 10
0.0
 20
0.0
 30
0.0
  3
SW_CENTERMARKSYMBOL_19
  1

  0
LINE
  5
1D6
  8
FORMAT
 62
     0
 10
0.0
 20
0.0
 30
0.0
 11
0.0
 21
2.5
 31
0.0
  0
LINE
  5
1D7
  8
FORMAT
 62
     0
 10
0.0
 20
0.0
 30
0.0
 11
-2.5
 21
0.0
 31
0.0
  0
LINE
  5
1D8
  8
FORMAT
 62
     0
 10
0.0
 20
0.0
 30
0.0
 11
0.0
 21
-2.5
 31
0.0
  0
LINE
  5
1D9
  8
FORMAT
 62
     0
 10
0.0
 20
0.0
 30
0.0
 11
2.5
 21
0.0
 31
0.0
  0
LINE
  5
1DA
  8
FORMAT
 62
     0
 10
0.0
 20
5.0
 30
0.0
 11
0.0
 21
23.0
 31
0.0
  0
LINE
  5
1DB
  8
FORMAT
 62
     0
 10
-5.0
 20
0.0
 30
0.0
 11
-23.0
 21
0.0
 31
0.0
  0
LINE
  5
1DC
  8
FORMAT
 62
     0
 10
0.0
 20
-5.0
 30
0.0
 11
0.0
 21
-23.0
 31
0.0
  0
LINE
  5
1DD
  8
FORMAT
 62
     0
 10
5.0
 20
0.0
 30
0.0
 11
23.0
 21
0.0
 31
0.0
  0
ENDBLK
  5
1D5
  8
0
  0
BLOCK
  8
0
  2
SW_CENTERMARKSYMBOL_20
 70
     0
 10
0.0
 20
0.0
 30
0.0
  3
SW_CENTERMARKSYMBOL_20
  1

  0
LINE
  5
1E2
  8
FORMAT
 62
     0
 10
0.0
 20
0.0
 30
0.0
 11
0.0
 21
2.5
 31
0.0
  0
LINE
  5
1E3
  8
FORMAT
 62
     0
 10
0.0
 20
0.0
 30
0.0
 11
-2.5
 21
0.0
 31
0.0
  0
LINE
  5
1E4
  8
FORMAT
 62
     0
 10
0.0
 20
0.0
 30
0.0
 11
0.0
 21
-2.5
 31
0.0
  0
LINE
  5
1E5
  8
FORMAT
 62
     0
 10
0.0
 20
0.0
 30
0.0
 11
2.5
 21
0.0
 31
0.0
  0
LINE
  5
1E6
  8
FORMAT
 62
     0
 10
0.0
 20
5.0
 30
0.0
 11
0.0
 21
23.0
 31
0.0
  0
LINE
  5
1E7
  8
FORMAT
 62
     0
 10
-5.0
 20
0.0
 30
0.0
 11
-23.0
 21
0.0
 31
0.0
  0
LINE
  5
1E8
  8
FORMAT
 62
     0
 10
0.0
 20
-5.0
 30
0.0
 11
0.0
 21
-23.0
 31
0.0
  0
LINE
  5
1E9
  8
FORMAT
 62
     0
 10
5.0
 20
0.0
 30
0.0
 11
23.0
 21
0.0
 31
0.0
  0
ENDBLK
  5
1E1
  8
0
  0
BLOCK
  8
0
  2
SW_CENTERMARKSYMBOL_21
 70
     0
 10
0.0
 20
0.0
 30
0.0
  3
SW_CENTERMARKSYMBOL_21
  1

  0
LINE
  5
1EE
  8
FORMAT
 62
     0
 10
0.0
 20
0.0
 30
0.0
 11
0.0
 21
2.5
 31
0.0
  0
LINE
  5
1EF
  8
FORMAT
 62
     0
 10
0.0
 20
0.0
 30
0.0
 11
-2.5
 21
0.0
 31
0.0
  0
LINE
  5
1F0
  8
FORMAT
 62
     0
 10
0.0
 20
0.0
 30
0.0
 11
0.0
 21
-2.5
 31
0.0
  0
LINE
  5
1F1
  8
FORMAT
 62
     0
 10
0.0
 20
0.0
 30
0.0
 11
2.5
 21
0.0
 31
0.0
  0
LINE
  5
1F2
  8
FORMAT
 62
     0
 10
0.0
 20
5.0
 30
0.0
 11
0.0
 21
23.0
 31
0.0
  0
LINE
  5
1F3
  8
FORMAT
 62
     0
 10
-5.0
 20
0.0
 30
0.0
 11
-23.0
 21
0.0
 31
0.0
  0
LINE
  5
1F4
  8
FORMAT
 62
     0
 10
0.0
 20
-5.0
 30
0.0
 11
0.0
 21
-23.0
 31
0.0
  0
LINE
  5
1F5
  8
FORMAT
 62
     0
 10
5.0
 20
0.0
 30
0.0
 11
23.0
 21
0.0
 31
0.0
  0
ENDBLK
  5
1ED
  8
0
  0
BLOCK
  8
0
  2
SW_CENTERMARKSYMBOL_22
 70
     0
 10
0.0
 20
0.0
 30
0.0
  3
SW_CENTERMARKSYMBOL_22
  1

  0
LINE
  5
1FA
  8
FORMAT
 62
     0
 10
0.0
 20
0.0
 30
0.0
 11
0.0
 21
2.5
 31
0.0
  0
LINE
  5
1FB
  8
FORMAT
 62
     0
 10
0.0
 20
0.0
 30
0.0
 11
-2.5
 21
0.0
 31
0.0
  0
LINE
  5
1FC
  8
FORMAT
 62
     0
 10
0.0
 20
0.0
 30
0.0
 11
0.0
 21
-2.5
 31
0.0
  0
LINE
  5
1FD
  8
FORMAT
 62
     0
 10
0.0
 20
0.0
 30
0.0
 11
2.5
 21
0.0
 31
0.0
  0
LINE
  5
1FE
  8
FORMAT
 62
     0
 10
0.0
 20
5.0
 30
0.0
 11
0.0
 21
23.0
 31
0.0
  0
LINE
  5
1FF
  8
FORMAT
 62
     0
 10
-5.0
 20
0.0
 30
0.0
 11
-23.0
 21
0.0
 31
0.0
  0
LINE
  5
200
  8
FORMAT
 62
     0
 10
0.0
 20
-5.0
 30
0.0
 11
0.0
 21
-23.0
 31
0.0
  0
LINE
  5
201
  8
FORMAT
 62
     0
 10
5.0
 20
0.0
 30
0.0
 11
23.0
 21
0.0
 31
0.0
  0
ENDBLK
  5
1F9
  8
0
  0
BLOCK
  8
0
  2
SW_CENTERMARKSYMBOL_23
 70
     0
 10
0.0
 20
0.0
 30
0.0
  3
SW_CENTERMARKSYMBOL_23
  1

  0
LINE
  5
206
  8
FORMAT
 62
     0
 10
0.0
 20
0.0
 30
0.0
 11
0.0
 21
2.5
 31
0.0
  0
LINE
  5
207
  8
FORMAT
 62
     0
 10
0.0
 20
0.0
 30
0.0
 11
-2.5
 21
0.0
 31
0.0
  0
LINE
  5
208
  8
FORMAT
 62
     0
 10
0.0
 20
0.0
 30
0.0
 11
0.0
 21
-2.5
 31
0.0
  0
LINE
  5
209
  8
FORMAT
 62
     0
 10
0.0
 20
0.0
 30
0.0
 11
2.5
 21
0.0
 31
0.0
  0
LINE
  5
20A
  8
FORMAT
 62
     0
 10
0.0
 20
5.0
 30
0.0
 11
0.0
 21
23.0
 31
0.0
  0
LINE
  5
20B
  8
FORMAT
 62
     0
 10
-5.0
 20
0.0
 30
0.0
 11
-23.0
 21
0.0
 31
0.0
  0
LINE
  5
20C
  8
FORMAT
 62
     0
 10
0.0
 20
-5.0
 30
0.0
 11
0.0
 21
-23.0
 31
0.0
  0
LINE
  5
20D
  8
FORMAT
 62
     0
 10
5.0
 20
0.0
 30
0.0
 11
23.0
 21
0.0
 31
0.0
  0
ENDBLK
  5
205
  8
0
  0
BLOCK
  8
0
  2
SW_CENTERMARKSYMBOL_24
 70
     0
 10
0.0
 20
0.0
 30
0.0
  3
SW_CENTERMARKSYMBOL_24
  1

  0
LINE
  5
212
  8
FORMAT
 62
     0
 10
0.0
 20
0.0
 30
0.0
 11
0.0
 21
2.5
 31
0.0
  0
LINE
  5
213
  8
FORMAT
 62
     0
 10
0.0
 20
0.0
 30
0.0
 11
-2.5
 21
0.0
 31
0.0
  0
LINE
  5
214
  8
FORMAT
 62
     0
 10
0.0
 20
0.0
 30
0.0
 11
0.0
 21
-2.5
 31
0.0
  0
LINE
  5
215
  8
FORMAT
 62
     0
 10
0.0
 20
0.0
 30
0.0
 11
2.5
 21
0.0
 31
0.0
  0
LINE
  5
216
  8
FORMAT
 62
     0
 10
0.0
 20
5.0
 30
0.0
 11
0.0
 21
23.0
 31
0.0
  0
LINE
  5
217
  8
FORMAT
 62
     0
 10
-5.0
 20
0.0
 30
0.0
 11
-23.0
 21
0.0
 31
0.0
  0
LINE
  5
218
  8
FORMAT
 62
     0
 10
0.0
 20
-5.0
 30
0.0
 11
0.0
 21
-23.0
 31
0.0
  0
LINE
  5
219
  8
FORMAT
 62
     0
 10
5.0
 20
0.0
 30
0.0
 11
23.0
 21
0.0
 31
0.0
  0
ENDBLK
  5
211
  8
0
  0
BLOCK
  8
0
  2
SW_CENTERMARKSYMBOL_25
 70
     0
 10
0.0
 20
0.0
 30
0.0
  3
SW_CENTERMARKSYMBOL_25
  1

  0
LINE
  5
21E
  8
FORMAT
 62
     0
 10
0.0
 20
0.0
 30
0.0
 11
0.0
 21
2.5
 31
0.0
  0
LINE
  5
21F
  8
FORMAT
 62
     0
 10
0.0
 20
0.0
 30
0.0
 11
-2.5
 21
0.0
 31
0.0
  0
LINE
  5
220
  8
FORMAT
 62
     0
 10
0.0
 20
0.0
 30
0.0
 11
0.0
 21
-2.5
 31
0.0
  0
LINE
  5
221
  8
FORMAT
 62
     0
 10
0.0
 20
0.0
 30
0.0
 11
2.5
 21
0.0
 31
0.0
  0
LINE
  5
222
  8
FORMAT
 62
     0
 10
0.0
 20
5.0
 30
0.0
 11
0.0
 21
23.0
 31
0.0
  0
LINE
  5
223
  8
FORMAT
 62
     0
 10
-5.0
 20
0.0
 30
0.0
 11
-23.0
 21
0.0
 31
0.0
  0
LINE
  5
224
  8
FORMAT
 62
     0
 10
0.0
 20
-5.0
 30
0.0
 11
0.0
 21
-23.0
 31
0.0
  0
LINE
  5
225
  8
FORMAT
 62
     0
 10
5.0
 20
0.0
 30
0.0
 11
23.0
 21
0.0
 31
0.0
  0
ENDBLK
  5
21D
  8
0
  0
BLOCK
  8
0
  2
SW_CENTERMARKSYMBOL_26
 70
     0
 10
0.0
 20
0.0
 30
0.0
  3
SW_CENTERMARKSYMBOL_26
  1

  0
LINE
  5
22A
  8
FORMAT
 62
     0
 10
0.0
 20
0.0
 30
0.0
 11
0.0
 21
2.5
 31
0.0
  0
LINE
  5
22B
  8
FORMAT
 62
     0
 10
0.0
 20
0.0
 30
0.0
 11
-2.5
 21
0.0
 31
0.0
  0
LINE
  5
22C
  8
FORMAT
 62
     0
 10
0.0
 20
0.0
 30
0.0
 11
0.0
 21
-2.5
 31
0.0
  0
LINE
  5
22D
  8
FORMAT
 62
     0
 10
0.0
 20
0.0
 30
0.0
 11
2.5
 21
0.0
 31
0.0
  0
LINE
  5
22E
  8
FORMAT
 62
     0
 10
0.0
 20
5.0
 30
0.0
 11
0.0
 21
23.0
 31
0.0
  0
LINE
  5
22F
  8
FORMAT
 62
     0
 10
-5.0
 20
0.0
 30
0.0
 11
-23.0
 21
0.0
 31
0.0
  0
LINE
  5
230
  8
FORMAT
 62
     0
 10
0.0
 20
-5.0
 30
0.0
 11
0.0
 21
-23.0
 31
0.0
  0
LINE
  5
231
  8
FORMAT
 62
     0
 10
5.0
 20
0.0
 30
0.0
 11
23.0
 21
0.0
 31
0.0
  0
ENDBLK
  5
229
  8
0
  0
BLOCK
  8
0
  2
SW_CENTERMARKSYMBOL_27
 70
     0
 10
0.0
 20
0.0
 30
0.0
  3
SW_CENTERMARKSYMBOL_27
  1

  0
LINE
  5
236
  8
FORMAT
 62
     0
 10
0.0
 20
0.0
 30
0.0
 11
0.0
 21
2.5
 31
0.0
  0
LINE
  5
237
  8
FORMAT
 62
     0
 10
0.0
 20
0.0
 30
0.0
 11
-2.5
 21
0.0
 31
0.0
  0
LINE
  5
238
  8
FORMAT
 62
     0
 10
0.0
 20
0.0
 30
0.0
 11
0.0
 21
-2.5
 31
0.0
  0
LINE
  5
239
  8
FORMAT
 62
     0
 10
0.0
 20
0.0
 30
0.0
 11
2.5
 21
0.0
 31
0.0
  0
LINE
  5
23A
  8
FORMAT
 62
     0
 10
0.0
 20
5.0
 30
0.0
 11
0.0
 21
23.0
 31
0.0
  0
LINE
  5
23B
  8
FORMAT
 62
     0
 10
-5.0
 20
0.0
 30
0.0
 11
-23.0
 21
0.0
 31
0.0
  0
LINE
  5
23C
  8
FORMAT
 62
     0
 10
0.0
 20
-5.0
 30
0.0
 11
0.0
 21
-23.0
 31
0.0
  0
LINE
  5
23D
  8
FORMAT
 62
     0
 10
5.0
 20
0.0
 30
0.0
 11
23.0
 21
0.0
 31
0.0
  0
ENDBLK
  5
235
  8
0
  0
BLOCK
  8
0
  2
SW_CENTERMARKSYMBOL_28
 70
     0
 10
0.0
 20
0.0
 30
0.0
  3
SW_CENTERMARKSYMBOL_28
  1

  0
LINE
  5
242
  8
FORMAT
 62
     0
 10
0.0
 20
0.0
 30
0.0
 11
0.0
 21
2.5
 31
0.0
  0
LINE
  5
243
  8
FORMAT
 62
     0
 10
0.0
 20
0.0
 30
0.0
 11
-2.5
 21
0.0
 31
0.0
  0
LINE
  5
244
  8
FORMAT
 62
     0
 10
0.0
 20
0.0
 30
0.0
 11
0.0
 21
-2.5
 31
0.0
  0
LINE
  5
245
  8
FORMAT
 62
     0
 10
0.0
 20
0.0
 30
0.0
 11
2.5
 21
0.0
 31
0.0
  0
LINE
  5
246
  8
FORMAT
 62
     0
 10
0.0
 20
5.0
 30
0.0
 11
0.0
 21
23.0
 31
0.0
  0
LINE
  5
247
  8
FORMAT
 62
     0
 10
-5.0
 20
0.0
 30
0.0
 11
-23.0
 21
0.0
 31
0.0
  0
LINE
  5
248
  8
FORMAT
 62
     0
 10
0.0
 20
-5.0
 30
0.0
 11
0.0
 21
-23.0
 31
0.0
  0
LINE
  5
249
  8
FORMAT
 62
     0
 10
5.0
 20
0.0
 30
0.0
 11
23.0
 21
0.0
 31
0.0
  0
ENDBLK
  5
241
  8
0
  0
BLOCK
  8
0
  2
SW_CENTERMARKSYMBOL_29
 70
     0
 10
0.0
 20
0.0
 30
0.0
  3
SW_CENTERMARKSYMBOL_29
  1

  0
LINE
  5
24E
  8
FORMAT
 62
     0
 10
0.0
 20
0.0
 30
0.0
 11
0.0
 21
2.5
 31
0.0
  0
LINE
  5
24F
  8
FORMAT
 62
     0
 10
0.0
 20
0.0
 30
0.0
 11
-2.5
 21
0.0
 31
0.0
  0
LINE
  5
250
  8
FORMAT
 62
     0
 10
0.0
 20
0.0
 30
0.0
 11
0.0
 21
-2.5
 31
0.0
  0
LINE
  5
251
  8
FORMAT
 62
     0
 10
0.0
 20
0.0
 30
0.0
 11
2.5
 21
0.0
 31
0.0
  0
LINE
  5
252
  8
FORMAT
 62
     0
 10
0.0
 20
5.0
 30
0.0
 11
0.0
 21
23.0
 31
0.0
  0
LINE
  5
253
  8
FORMAT
 62
     0
 10
-5.0
 20
0.0
 30
0.0
 11
-23.0
 21
0.0
 31
0.0
  0
LINE
  5
254
  8
FORMAT
 62
     0
 10
0.0
 20
-5.0
 30
0.0
 11
0.0
 21
-23.0
 31
0.0
  0
LINE
  5
255
  8
FORMAT
 62
     0
 10
5.0
 20
0.0
 30
0.0
 11
23.0
 21
0.0
 31
0.0
  0
ENDBLK
  5
24D
  8
0
  0
BLOCK
  8
0
  2
SW_CENTERMARKSYMBOL_30
 70
     0
 10
0.0
 20
0.0
 30
0.0
  3
SW_CENTERMARKSYMBOL_30
  1

  0
LINE
  5
25A
  8
FORMAT
 62
     0
 10
0.0
 20
0.0
 30
0.0
 11
0.0
 21
2.5
 31
0.0
  0
LINE
  5
25B
  8
FORMAT
 62
     0
 10
0.0
 20
0.0
 30
0.0
 11
-2.5
 21
0.0
 31
0.0
  0
LINE
  5
25C
  8
FORMAT
 62
     0
 10
0.0
 20
0.0
 30
0.0
 11
0.0
 21
-2.5
 31
0.0
  0
LINE
  5
25D
  8
FORMAT
 62
     0
 10
0.0
 20
0.0
 30
0.0
 11
2.5
 21
0.0
 31
0.0
  0
LINE
  5
25E
  8
FORMAT
 62
     0
 10
0.0
 20
5.0
 30
0.0
 11
0.0
 21
23.0
 31
0.0
  0
LINE
  5
25F
  8
FORMAT
 62
     0
 10
-5.0
 20
0.0
 30
0.0
 11
-23.0
 21
0.0
 31
0.0
  0
LINE
  5
260
  8
FORMAT
 62
     0
 10
0.0
 20
-5.0
 30
0.0
 11
0.0
 21
-23.0
 31
0.0
  0
LINE
  5
261
  8
FORMAT
 62
     0
 10
5.0
 20
0.0
 30
0.0
 11
23.0
 21
0.0
 31
0.0
  0
ENDBLK
  5
259
  8
0
  0
BLOCK
  8
0
  2
SW_CENTERMARKSYMBOL_31
 70
     0
 10
0.0
 20
0.0
 30
0.0
  3
SW_CENTERMARKSYMBOL_31
  1

  0
LINE
  5
266
  8
FORMAT
 62
     0
 10
0.0
 20
0.0
 30
0.0
 11
0.0
 21
2.5
 31
0.0
  0
LINE
  5
267
  8
FORMAT
 62
     0
 10
0.0
 20
0.0
 30
0.0
 11
-2.5
 21
0.0
 31
0.0
  0
LINE
  5
268
  8
FORMAT
 62
     0
 10
0.0
 20
0.0
 30
0.0
 11
0.0
 21
-2.5
 31
0.0
  0
LINE
  5
269
  8
FORMAT
 62
     0
 10
0.0
 20
0.0
 30
0.0
 11
2.5
 21
0.0
 31
0.0
  0
LINE
  5
26A
  8
FORMAT
 62
     0
 10
0.0
 20
5.0
 30
0.0
 11
0.0
 21
23.0
 31
0.0
  0
LINE
  5
26B
  8
FORMAT
 62
     0
 10
-5.0
 20
0.0
 30
0.0
 11
-23.0
 21
0.0
 31
0.0
  0
LINE
  5
26C
  8
FORMAT
 62
     0
 10
0.0
 20
-5.0
 30
0.0
 11
0.0
 21
-23.0
 31
0.0
  0
LINE
  5
26D
  8
FORMAT
 62
     0
 10
5.0
 20
0.0
 30
0.0
 11
23.0
 21
0.0
 31
0.0
  0
ENDBLK
  5
265
  8
0
  0
BLOCK
  8
0
  2
SW_CENTERMARKSYMBOL_32
 70
     0
 10
0.0
 20
0.0
 30
0.0
  3
SW_CENTERMARKSYMBOL_32
  1

  0
LINE
  5
272
  8
FORMAT
 62
     0
 10
0.0
 20
0.0
 30
0.0
 11
0.0
 21
2.5
 31
0.0
  0
LINE
  5
273
  8
FORMAT
 62
     0
 10
0.0
 20
0.0
 30
0.0
 11
-2.5
 21
0.0
 31
0.0
  0
LINE
  5
274
  8
FORMAT
 62
     0
 10
0.0
 20
0.0
 30
0.0
 11
0.0
 21
-2.5
 31
0.0
  0
LINE
  5
275
  8
FORMAT
 62
     0
 10
0.0
 20
0.0
 30
0.0
 11
2.5
 21
0.0
 31
0.0
  0
LINE
  5
276
  8
FORMAT
 62
     0
 10
0.0
 20
5.0
 30
0.0
 11
0.0
 21
23.0
 31
0.0
  0
LINE
  5
277
  8
FORMAT
 62
     0
 10
-5.0
 20
0.0
 30
0.0
 11
-23.0
 21
0.0
 31
0.0
  0
LINE
  5
278
  8
FORMAT
 62
     0
 10
0.0
 20
-5.0
 30
0.0
 11
0.0
 21
-23.0
 31
0.0
  0
LINE
  5
279
  8
FORMAT
 62
     0
 10
5.0
 20
0.0
 30
0.0
 11
23.0
 21
0.0
 31
0.0
  0
ENDBLK
  5
271
  8
0
  0
BLOCK
  8
0
  2
SW_CENTERMARKSYMBOL_33
 70
     0
 10
0.0
 20
0.0
 30
0.0
  3
SW_CENTERMARKSYMBOL_33
  1

  0
LINE
  5
3D0
  8
FORMAT
 62
     0
 10
0.0
 20
0.0
 30
0.0
 11
0.0
 21
2.5
 31
0.0
  0
LINE
  5
3D1
  8
FORMAT
 62
     0
 10
0.0
 20
0.0
 30
0.0
 11
-2.5
 21
0.0
 31
0.0
  0
LINE
  5
3D2
  8
FORMAT
 62
     0
 10
0.0
 20
0.0
 30
0.0
 11
0.0
 21
-2.5
 31
0.0
  0
LINE
  5
3D3
  8
FORMAT
 62
     0
 10
0.0
 20
0.0
 30
0.0
 11
2.5
 21
0.0
 31
0.0
  0
LINE
  5
3D4
  8
FORMAT
 62
     0
 10
0.0
 20
5.0
 30
0.0
 11
0.0
 21
24.52
 31
0.0
  0
LINE
  5
3D5
  8
FORMAT
 62
     0
 10
-5.0
 20
0.0
 30
0.0
 11
-24.52
 21
0.0
 31
0.0
  0
LINE
  5
3D6
  8
FORMAT
 62
     0
 10
0.0
 20
-5.0
 30
0.0
 11
0.0
 21
-24.52
 31
0.0
  0
LINE
  5
3D7
  8
FORMAT
 62
     0
 10
5.0
 20
0.0
 30
0.0
 11
24.52
 21
0.0
 31
0.0
  0
ENDBLK
  5
3CF
  8
0
  0
BLOCK
  8
0
  2
SW_CENTERMARKSYMBOL_34
 70
     0
 10
0.0
 20
0.0
 30
0.0
  3
SW_CENTERMARKSYMBOL_34
  1

  0
LINE
  5
48E
  8
FORMAT
 62
     0
 10
0.0
 20
0.0
 30
0.0
 11
0.0
 21
2.5
 31
0.0
  0
LINE
  5
48F
  8
FORMAT
 62
     0
 10
0.0
 20
0.0
 30
0.0
 11
-2.5
 21
0.0
 31
0.0
  0
LINE
  5
490
  8
FORMAT
 62
     0
 10
0.0
 20
0.0
 30
0.0
 11
0.0
 21
-2.5
 31
0.0
  0
LINE
  5
491
  8
FORMAT
 62
     0
 10
0.0
 20
0.0
 30
0.0
 11
2.5
 21
0.0
 31
0.0
  0
LINE
  5
492
  8
FORMAT
 62
     0
 10
0.0
 20
5.0
 30
0.0
 11
0.0
 21
177.5
 31
0.0
  0
LINE
  5
493
  8
FORMAT
 62
     0
 10
-5.0
 20
0.0
 30
0.0
 11
-177.5
 21
0.0
 31
0.0
  0
LINE
  5
494
  8
FORMAT
 62
     0
 10
0.0
 20
-5.0
 30
0.0
 11
0.0
 21
-177.5
 31
0.0
  0
LINE
  5
495
  8
FORMAT
 62
     0
 10
5.0
 20
0.0
 30
0.0
 11
177.5
 21
0.0
 31
0.0
  0
ENDBLK
  5
48D
  8
0
  0
BLOCK
  8
0
  2
SW_CENTERMARKSYMBOL_35
 70
     0
 10
0.0
 20
0.0
 30
0.0
  3
SW_CENTERMARKSYMBOL_35
  1

  0
LINE
  5
49A
  8
FORMAT
 62
     0
 10
0.0
 20
0.0
 30
0.0
 11
0.0
 21
2.5
 31
0.0
  0
LINE
  5
49B
  8
FORMAT
 62
     0
 10
0.0
 20
0.0
 30
0.0
 11
-2.5
 21
0.0
 31
0.0
  0
LINE
  5
49C
  8
FORMAT
 62
     0
 10
0.0
 20
0.0
 30
0.0
 11
0.0
 21
-2.5
 31
0.0
  0
LINE
  5
49D
  8
FORMAT
 62
     0
 10
0.0
 20
0.0
 30
0.0
 11
2.5
 21
0.0
 31
0.0
  0
LINE
  5
49E
  8
FORMAT
 62
     0
 10
0.0
 20
5.0
 30
0.0
 11
0.0
 21
20.0
 31
0.0
  0
LINE
  5
49F
  8
FORMAT
 62
     0
 10
-5.0
 20
0.0
 30
0.0
 11
-20.0
 21
0.0
 31
0.0
  0
LINE
  5
4A0
  8
FORMAT
 62
     0
 10
0.0
 20
-5.0
 30
0.0
 11
0.0
 21
-20.0
 31
0.0
  0
LINE
  5
4A1
  8
FORMAT
 62
     0
 10
5.0
 20
0.0
 30
0.0
 11
20.0
 21
0.0
 31
0.0
  0
ENDBLK
  5
499
  8
0
  0
BLOCK
  8
0
  2
SW_CENTERMARKSYMBOL_36
 70
     0
 10
0.0
 20
0.0
 30
0.0
  3
SW_CENTERMARKSYMBOL_36
  1

  0
LINE
  5
4A6
  8
FORMAT
 62
     0
 10
0.0
 20
0.0
 30
0.0
 11
0.0
 21
2.5
 31
0.0
  0
LINE
  5
4A7
  8
FORMAT
 62
     0
 10
0.0
 20
0.0
 30
0.0
 11
-2.5
 21
0.0
 31
0.0
  0
LINE
  5
4A8
  8
FORMAT
 62
     0
 10
0.0
 20
0.0
 30
0.0
 11
0.0
 21
-2.5
 31
0.0
  0
LINE
  5
4A9
  8
FORMAT
 62
     0
 10
0.0
 20
0.0
 30
0.0
 11
2.5
 21
0.0
 31
0.0
  0
LINE
  5
4AA
  8
FORMAT
 62
     0
 10
0.0
 20
5.0
 30
0.0
 11
0.0
 21
20.0
 31
0.0
  0
LINE
  5
4AB
  8
FORMAT
 62
     0
 10
-5.0
 20
0.0
 30
0.0
 11
-20.0
 21
0.0
 31
0.0
  0
LINE
  5
4AC
  8
FORMAT
 62
     0
 10
0.0
 20
-5.0
 30
0.0
 11
0.0
 21
-20.0
 31
0.0
  0
LINE
  5
4AD
  8
FORMAT
 62
     0
 10
5.0
 20
0.0
 30
0.0
 11
20.0
 21
0.0
 31
0.0
  0
ENDBLK
  5
4A5
  8
0
  0
ENDSEC
  0
SECTION
  2
ENTITIES
  0
ARC
  5
46
  8
0
  6
CONTINUOUS
 62
     7
 10
308.4220665083
 20
3132.6881950698
 30
0.0
 40
12.50000000000045
 50
90.0
 51
270.0
  0
ARC
  5
47
  8
0
  6
CONTINUOUS
 62
     7
 10
883.4220665083
 20
3132.6881950698
 30
0.0
 40
12.50000000000045
 50
270.0
 51
90.0
  0
LINE
  5
48
  8
0
  6
CONTINUOUS
 62
     7
 10
308.4220979796
 20
3120.1882141433
 30
0.0
 11
883.4220860586
 21
3120.1882141433
 31
0.0
  0
LINE
  5
49
  8
0
  6
CONTINUOUS
 62
     7
 10
883.4220860586
 20
3145.1881903015
 30
0.0
 11
308.4220979796
 21
3145.1881903015
 31
0.0
  0
LINE
  5
4A
  8
0
  6
CONTINUOUS
 62
     7
 10
603.9220784293
 20
3046.9385164581
 30
0.0
 11
603.9220784293
 21
3120.1882141433
 31
0.0
  0
LINE
  5
4B
  8
0
  6
CONTINUOUS
 62
     7
 10
587.9220460043
 20
3120.1882141433
 30
0.0
 11
587.9220460043
 21
3046.9384568534
 31
0.0
  0
LINE
  5
4C
  8
0
  6
CONTINUOUS
 62
     7
 10
658.9220855818
 20
2822.4675136409
 30
0.0
 11
658.7240789519
 21
2828.1373160682
 31
0.0
  0
LINE
  5
4D
  8
0
  6
CONTINUOUS
 62
     7
 10
533.1200454817
 20
2828.1373160682
 30
0.0
 11
532.9220388518
 21
2822.4675136409
 31
0.0
  0
LINE
  5
4E
  8
0
  6
CONTINUOUS
 62
     7
 10
532.9220388518
 20
2822.4675136409
 30
0.0
 11
534.9596832381
 21
2764.1183960043
 31
0.0
  0
LINE
  5
4F
  8
0
  6
CONTINUOUS
 62
     7
 10
656.8844411955
 20
2764.1183960043
 30
0.0
 11
658.9220855818
 21
2822.4675136409
 31
0.0
  0
ARC
  5
50
  8
0
  6
CONTINUOUS
 62
     7
 10
656.7252911106
 20
2828.0675082304
 30
0.0
 40
2.000000000000038
 50
2.0
 51
90.0
  0
ARC
  5
51
  8
0
  6
CONTINUOUS
 62
     7
 10
535.1188419061
 20
2828.0675082304
 30
0.0
 40
2.000000000000038
 50
90.0
 51
178.0
  0
ARC
  5
52
  8
0
  6
CONTINUOUS
 62
     7
 10
654.8856889587
 20
2764.1881950698
 30
0.0
 40
2.000000000000455
 50
270.0
 51
358.0
  0
ARC
  5
53
  8
0
  6
CONTINUOUS
 62
     7
 10
536.9584440579
 20
2764.1881950698
 30
0.0
 40
2.000000000000455
 50
182.0
 51
270.0
  0
LINE
  5
54
  8
0
  6
CONTINUOUS
 62
     7
 10
642.8220961676
 20
2830.0675230823
 30
0.0
 11
619.1776488409
 21
2839.8467677436
 31
0.0
  0
LINE
  5
55
  8
0
  6
CONTINUOUS
 62
     7
 10
572.6664755926
 20
2839.8467677436
 30
0.0
 11
549.0220878706
 21
2830.0675230823
 31
0.0
  0
LINE
  5
56
  8
0
  6
CONTINUOUS
 62
     7
 10
640.9220789061
 20
3055.680699905
 30
0.0
 11
640.9220789061
 21
3062.1881860099
 31
0.0
  0
LINE
  5
57
  8
0
  6
CONTINUOUS
 62
     7
 10
640.9220789061
 20
2988.8481872879
 30
0.0
 11
640.9220789061
 21
3038.8014095626
 31
0.0
  0
LINE
  5
58
  8
0
  6
CONTINUOUS
 62
     7
 10
550.9220455275
 20
3038.8014095626
 30
0.0
 11
550.9220455275
 21
2988.8481872879
 31
0.0
  0
LINE
  5
59
  8
0
  6
CONTINUOUS
 62
     7
 10
550.9220455275
 20
3062.1881860099
 30
0.0
 11
550.9220455275
 21
3055.680699905
 31
0.0
  0
ARC
  5
5A
  8
0
  6
CONTINUOUS
 62
     7
 10
571.9020665083
 20
2841.6949377426
 30
0.0
 40
2.0
 50
292.4698763391
 51
0.0
  0
ARC
  5
5B
  8
0
  6
CONTINUOUS
 62
     7
 10
619.9420665083
 20
2841.6949377426
 30
0.0
 40
2.0
 50
180.0
 51
247.5301236609
  0
LINE
  5
5C
  8
0
  6
CONTINUOUS
 62
     7
 10
573.9020798788
 20
2844.0575080715
 30
0.0
 11
573.9020798788
 21
2841.6949289642
 31
0.0
  0
LINE
  5
5D
  8
0
  6
CONTINUOUS
 62
     7
 10
617.9420445547
 20
2841.6949289642
 30
0.0
 11
617.9420445547
 21
2844.0575080715
 31
0.0
  0
LINE
  5
5E
  8
0
  6
CONTINUOUS
 62
     7
 10
617.9420445547
 20
2844.0575080715
 30
0.0
 11
617.4669955359
 21
2854.8806088768
 31
0.0
  0
LINE
  5
5F
  8
0
  6
CONTINUOUS
 62
     7
 10
574.3771288977
 20
2854.8806088768
 30
0.0
 11
573.9020798788
 21
2844.0575080715
 31
0.0
  0
ARC
  5
60
  8
0
  6
CONTINUOUS
 62
     7
 10
580.3713717749
 20
2854.6175082304
 30
0.0
 40
6.000000000000024
 50
90.0
 51
177.4866334755
  0
ARC
  5
61
  8
0
  6
CONTINUOUS
 62
     7
 10
611.4727612417
 20
2854.6175082304
 30
0.0
 40
5.99999999999991
 50
2.5133665245
 51
90.0
  0
LINE
  5
62
  8
0
  6
CONTINUOUS
 62
     7
 10
585.9220717535
 20
2988.8481872879
 30
0.0
 11
585.9220717535
 21
2860.6174963317
 31
0.0
  0
LINE
  5
63
  8
0
  6
CONTINUOUS
 62
     7
 10
605.92205268
 20
2860.6174963317
 30
0.0
 11
605.92205268
 21
2988.8481872879
 31
0.0
  0
LINE
  5
64
  8
0
  6
CONTINUOUS
 62
     7
 10
640.9388874159
 20
3038.7016909919
 30
0.0
 11
869.672963439
 21
3120.1882141433
 31
0.0
  0
LINE
  5
65
  8
0
  6
CONTINUOUS
 62
     7
 10
821.995744525
 20
3120.1882141433
 30
0.0
 11
640.9220789061
 21
3055.680699905
 31
0.0
  0
LINE
  5
66
  8
0
  6
CONTINUOUS
 62
     7
 10
550.9220455275
 20
3055.680699905
 30
0.0
 11
369.8483799086
 21
3120.1882141433
 31
0.0
  0
LINE
  5
67
  8
0
  6
CONTINUOUS
 62
     7
 10
322.1712205992
 20
3120.1882141433
 30
0.0
 11
550.9052370177
 21
3038.7016909919
 31
0.0
  0
LINE
  5
68
  8
0
  6
CONTINUOUS
 62
     7
 10
2326.4220450507
 20
2405.6881892286
 30
0.0
 11
2346.4220855818
 21
2405.6881892286
 31
0.0
  0
LINE
  5
69
  8
0
  6
CONTINUOUS
 62
     7
 10
2346.4220855818
 20
2755.6881981693
 30
0.0
 11
2326.4220450507
 21
2755.6881981693
 31
0.0
  0
LINE
  5
6A
  8
0
  6
CONTINUOUS
 62
     7
 10
658.4220622168
 20
2405.6881892286
 30
0.0
 11
696.422049819
 21
2405.6881892286
 31
0.0
  0
LINE
  5
6B
  8
0
  6
CONTINUOUS
 62
     7
 10
696.422049819
 20
2755.6881981693
 30
0.0
 11
658.4220622168
 21
2755.6881981693
 31
0.0
  0
LINE
  5
6C
  8
0
  6
CONTINUOUS
 62
     7
 10
2326.4220450507
 20
2755.6881981693
 30
0.0
 11
2286.4220831976
 21
2755.6881981693
 31
0.0
  0
LINE
  5
6D
  8
0
  6
CONTINUOUS
 62
     7
 10
2286.4220831976
 20
2405.6881892286
 30
0.0
 11
2326.4220450507
 21
2405.6881892286
 31
0.0
  0
ARC
  5
6E
  8
0
  6
CONTINUOUS
 62
     7
 10
658.4220665083
 20
2407.6881950698
 30
0.0
 40
2.000000000000455
 50
180.0
 51
270.0
  0
ARC
  5
6F
  8
0
  6
CONTINUOUS
 62
     7
 10
658.4220665083
 20
2753.6881950698
 30
0.0
 40
2.0
 50
90.0
 51
180.0
  0
LINE
  5
70
  8
0
  6
CONTINUOUS
 62
     7
 10
535.4220960722
 20
2395.6881987653
 30
0.0
 11
656.422087966
 21
2395.6881987653
 31
0.0
  0
LINE
  5
71
  8
0
  6
CONTINUOUS
 62
     7
 10
535.4220960722
 20
2665.688194593
 30
0.0
 11
530.422041236
 21
2665.688194593
 31
0.0
  0
LINE
  5
72
  8
0
  6
CONTINUOUS
 62
     7
 10
530.422041236
 20
2495.6881928049
 30
0.0
 11
535.4220960722
 21
2495.6881928049
 31
0.0
  0
ARC
  5
73
  8
0
  6
CONTINUOUS
 62
     7
 10
595.9655560135
 20
3046.5837243322
 30
0.0
 40
7.888143516464476
 50
269.6840798333
 51
2.6242858818
  0
ARC
  5
74
  8
0
  6
CONTINUOUS
 62
     7
 10
595.8956928587
 20
3046.6044265039
 30
0.0
 40
7.90876973915898
 50
177.5173459919
 51
270.191035493
  0
CIRCLE
  5
75
  8
0
  6
CONTINUOUS
 62
     7
 10
1491.4220665083
 20
2577.6881950698
 30
0.0
 40
664.0
  0
CIRCLE
  5
76
  8
0
  6
CONTINUOUS
 62
     7
 10
1491.4220665083
 20
2577.6881950698
 30
0.0
 40
579.0
  0
CIRCLE
  5
77
  8
0
  6
CONTINUOUS
 62
     7
 10
1491.4220665083
 20
2577.6881950698
 30
0.0
 40
666.0
  0
LINE
  5
78
  8
0
  6
CONTINUOUS
 62
     7
 10
1714.4220713959
 20
3298.7202781044
 30
0.0
 11
1714.4220713959
 21
3305.1882165275
 31
0.0
  0
ARC
  5
79
  8
0
  6
CONTINUOUS
 62
     7
 10
1754.4220665083
 20
1856.6561222742
 30
0.0
 40
40.0
 50
110.0396902182
 51
180.0
  0
LINE
  5
7A
  8
0
  6
CONTINUOUS
 62
     7
 10
1714.4220713959
 20
1856.6561120353
 30
0.0
 11
1714.4220713959
 21
1850.1881736122
 31
0.0
  0
LINE
  5
7B
  8
0
  6
CONTINUOUS
 62
     7
 10
1714.4220713959
 20
1850.1881736122
 30
0.0
 11
1268.4220616207
 21
1850.1881736122
 31
0.0
  0
LINE
  5
7C
  8
0
  6
CONTINUOUS
 62
     7
 10
1268.4220616207
 20
1856.6561120353
 30
0.0
 11
1268.4220616207
 21
1850.1881736122
 31
0.0
  0
ARC
  5
7D
  8
0
  6
CONTINUOUS
 62
     7
 10
1228.4220665083
 20
1856.6561222742
 30
0.0
 40
40.0
 50
0.0
 51
69.9603097818
  0
ARC
  5
7E
  8
0
  6
CONTINUOUS
 62
     7
 10
1491.4220665083
 20
2577.6881950698
 30
0.0
 40
727.5000000000001
 50
110.0396902182
 51
249.9603097818
  0
LINE
  5
7F
  8
0
  6
CONTINUOUS
 62
     7
 10
1268.4220616207
 20
3298.7202781044
 30
0.0
 11
1268.4220616207
 21
3305.1882165275
 31
0.0
  0
LINE
  5
80
  8
0
  6
CONTINUOUS
 62
     7
 10
1268.4220616207
 20
3305.1882165275
 30
0.0
 11
1486.4220666201
 21
3305.1882165275
 31
0.0
  0
LINE
  5
81
  8
0
  6
CONTINUOUS
 62
     7
 10
1491.4220665083
 20
3300.1882212959
 30
0.0
 11
1486.4220666201
 21
3305.1882165275
 31
0.0
  0
LINE
  5
82
  8
0
  6
CONTINUOUS
 62
     7
 10
1496.4220663966
 20
3305.1882165275
 30
0.0
 11
1491.4220665083
 21
3300.1882212959
 31
0.0
  0
CIRCLE
  5
83
  8
0
  6
CONTINUOUS
 62
     7
 10
1423.7902396809
 20
3264.3656564737
 30
0.0
 40
20.50000000000032
  0
CIRCLE
  5
84
  8
0
  6
CONTINUOUS
 62
     7
 10
1291.1256392027
 20
3237.9770267251
 30
0.0
 40
20.50000000000008
  0
CIRCLE
  5
85
  8
0
  6
CONTINUOUS
 62
     7
 10
1053.6907004354
 20
3111.0654078901
 30
0.0
 40
20.49999999999993
  0
CIRCLE
  5
86
  8
0
  6
CONTINUOUS
 62
     7
 10
882.896394108
 20
2902.9519434798
 30
0.0
 40
20.50000000000037
  0
CIRCLE
  5
87
  8
0
  6
CONTINUOUS
 62
     7
 10
831.1332348531
 20
2777.9846223754
 30
0.0
 40
20.50000000000054
  0
CIRCLE
  5
88
  8
0
  6
CONTINUOUS
 62
     7
 10
804.7446051045
 20
2510.0563682424
 30
0.0
 40
20.50000000000014
  0
CIRCLE
  5
89
  8
0
  6
CONTINUOUS
 62
     7
 10
831.1332348531
 20
2377.3917677643
 30
0.0
 40
20.49999999999999
  0
CIRCLE
  5
8A
  8
0
  6
CONTINUOUS
 62
     7
 10
882.896394108
 20
2252.4244466599
 30
0.0
 40
20.50000000000002
  0
CIRCLE
  5
8B
  8
0
  6
CONTINUOUS
 62
     7
 10
958.044853688
 20
2139.9568289969
 30
0.0
 40
20.49999999999984
  0
CIRCLE
  5
8C
  8
0
  6
CONTINUOUS
 62
     7
 10
1166.1583180984
 20
1969.1625226695
 30
0.0
 40
20.50000000000012
  0
CIRCLE
  5
8D
  8
0
  6
CONTINUOUS
 62
     7
 10
1291.1256392028
 20
1917.3993634146
 30
0.0
 40
20.50000000000005
  0
CIRCLE
  5
8E
  8
0
  6
CONTINUOUS
 62
     7
 10
1559.0538933357
 20
1891.010733666
 30
0.0
 40
20.50000000000009
  0
CIRCLE
  5
8F
  8
0
  6
CONTINUOUS
 62
     7
 10
2024.7992793286
 20
2139.9568289969
 30
0.0
 40
20.4999999999999
  0
CIRCLE
  5
90
  8
0
  6
CONTINUOUS
 62
     7
 10
2099.9477389087
 20
2252.4244466599
 30
0.0
 40
20.49999999999991
  0
CIRCLE
  5
91
  8
0
  6
CONTINUOUS
 62
     7
 10
2151.7108981636
 20
2377.3917677643
 30
0.0
 40
20.50000000000009
  0
CIRCLE
  5
92
  8
0
  6
CONTINUOUS
 62
     7
 10
2178.0995279121
 20
2510.0563682425
 30
0.0
 40
20.50000000000045
  0
CIRCLE
  5
93
  8
0
  6
CONTINUOUS
 62
     7
 10
2178.0995279121
 20
2645.3200218972
 30
0.0
 40
20.50000000000009
  0
CIRCLE
  5
94
  8
0
  6
CONTINUOUS
 62
     7
 10
2151.7108981635
 20
2777.9846223754
 30
0.0
 40
20.49999999999984
  0
CIRCLE
  5
95
  8
0
  6
CONTINUOUS
 62
     7
 10
2099.9477389087
 20
2902.9519434798
 30
0.0
 40
20.50000000000015
  0
CIRCLE
  5
96
  8
0
  6
CONTINUOUS
 62
     7
 10
2024.7992793286
 20
3015.4195611428
 30
0.0
 40
20.50000000000009
  0
CIRCLE
  5
97
  8
0
  6
CONTINUOUS
 62
     7
 10
1929.1534325812
 20
3111.0654078901
 30
0.0
 40
20.4999999999999
  0
CIRCLE
  5
98
  8
0
  6
CONTINUOUS
 62
     7
 10
1816.6858149183
 20
3186.2138674702
 30
0.0
 40
20.49999999999973
  0
CIRCLE
  5
99
  8
0
  6
CONTINUOUS
 62
     7
 10
1691.7184938139
 20
3237.9770267251
 30
0.0
 40
20.50000000000009
  0
CIRCLE
  5
9A
  8
0
  6
CONTINUOUS
 62
     7
 10
1559.0538933357
 20
3264.3656564737
 30
0.0
 40
20.5
  0
CIRCLE
  5
9B
  8
0
  6
CONTINUOUS
 62
     7
 10
1929.1534325812
 20
2044.3109822496
 30
0.0
 40
20.49999999999993
  0
ARC
  5
9C
  8
0
  6
CONTINUOUS
 62
     7
 10
1491.4220665083
 20
2577.6881950698
 30
0.0
 40
727.4999999999999
 50
290.0396902182
 51
69.9603097818
  0
CIRCLE
  5
9D
  8
0
  6
CONTINUOUS
 62
     7
 10
1816.6858149183
 20
1969.1625226695
 30
0.0
 40
20.50000000000015
  0
CIRCLE
  5
9E
  8
0
  6
CONTINUOUS
 62
     7
 10
804.7446051045
 20
2645.3200218972
 30
0.0
 40
20.5
  0
CIRCLE
  5
9F
  8
0
  6
CONTINUOUS
 62
     7
 10
1691.7184938139
 20
1917.3993634146
 30
0.0
 40
20.50000000000008
  0
ARC
  5
A0
  8
0
  6
CONTINUOUS
 62
     7
 10
1754.4220665083
 20
3298.7202678655
 30
0.0
 40
40.0000000000003
 50
180.0
 51
249.9603097818
  0
ARC
  5
A1
  8
0
  6
CONTINUOUS
 62
     7
 10
1228.4220665083
 20
3298.7202678655
 30
0.0
 40
40.00000000000023
 50
290.0396902182
 51
360.0
  0
LINE
  5
A2
  8
0
  6
CONTINUOUS
 62
     7
 10
1496.4220663966
 20
3305.1882165275
 30
0.0
 11
1714.4220713959
 21
3305.1882165275
 31
0.0
  0
CIRCLE
  5
A3
  8
0
  6
CONTINUOUS
 62
     7
 10
1423.7902396809
 20
1891.010733666
 30
0.0
 40
20.5
  0
CIRCLE
  5
A4
  8
0
  6
CONTINUOUS
 62
     7
 10
958.044853688
 20
3015.4195611428
 30
0.0
 40
20.49999999999996
  0
CIRCLE
  5
A5
  8
0
  6
CONTINUOUS
 62
     7
 10
1053.6907004354
 20
2044.3109822495
 30
0.0
 40
20.49999999999996
  0
CIRCLE
  5
A6
  8
0
  6
CONTINUOUS
 62
     7
 10
1166.1583180984
 20
3186.2138674702
 30
0.0
 40
20.50000000000009
  0
LINE
  5
A7
  8
0
  6
CONTINUOUS
 62
     7
 10
658.9220855818
 20
2822.4675136409
 30
0.0
 11
532.9220388518
 21
2822.4675136409
 31
0.0
  0
LINE
  5
A8
  8
0
  6
CONTINUOUS
 62
     7
 10
656.725296794
 20
2830.0675230823
 30
0.0
 11
535.1188276396
 21
2830.0675230823
 31
0.0
  0
LINE
  5
A9
  8
0
  6
CONTINUOUS
 62
     7
 10
654.8857186423
 20
2762.1881889902
 30
0.0
 11
536.958465396
 21
2762.1881889902
 31
0.0
  0
LINE
  5
AA
  8
0
  6
CONTINUOUS
 62
     7
 10
555.4220769987
 20
2456.3620540104
 30
0.0
 11
535.4220960722
 21
2456.3620540104
 31
0.0
  0
LINE
  5
AB
  8
0
  6
CONTINUOUS
 62
     7
 10
535.4220960722
 20
2456.3620540104
 30
0.0
 11
535.4220960722
 21
2705.014340838
 31
0.0
  0
LINE
  5
AC
  8
0
  6
CONTINUOUS
 62
     7
 10
555.4220769987
 20
2705.014340838
 30
0.0
 11
535.4220960722
 21
2705.014340838
 31
0.0
  0
LINE
  5
AD
  8
0
  6
CONTINUOUS
 62
     7
 10
602.4220679388
 20
2705.014340838
 30
0.0
 11
555.4220769987
 21
2705.014340838
 31
0.0
  0
LINE
  5
AE
  8
0
  6
CONTINUOUS
 62
     7
 10
602.4220679388
 20
2705.014340838
 30
0.0
 11
602.4220679388
 21
2456.3620540104
 31
0.0
  0
LINE
  5
AF
  8
0
  6
CONTINUOUS
 62
     7
 10
602.4220679388
 20
2456.3620540104
 30
0.0
 11
555.4220769987
 21
2456.3620540104
 31
0.0
  0
LINE
  5
B0
  8
0
  6
CONTINUOUS
 62
     7
 10
631.2717292891
 20
2431.1881887517
 30
0.0
 11
555.4220769987
 21
2431.1881887517
 31
0.0
  0
LINE
  5
B1
  8
0
  6
CONTINUOUS
 62
     7
 10
555.4220769987
 20
2431.1881887517
 30
0.0
 11
555.4220769987
 21
2456.3620540104
 31
0.0
  0
POLYLINE
  5
B2
  8
0
  6
CONTINUOUS
 62
     7
 66
     1
 10
0.0
 20
0.0
 30
0.0
  0
VERTEX
  5
4AF
  8
0
  6
CONTINUOUS
 62
     7
 10
602.4220679388
 20
2456.3620540104
 30
0.0
  0
VERTEX
  5
4B0
  8
0
  6
CONTINUOUS
 62
     7
 10
604.9836371527
 20
2456.181660553
 30
0.0
  0
VERTEX
  5
4B1
  8
0
  6
CONTINUOUS
 62
     7
 10
607.5384710417
 20
2455.6409495674
 30
0.0
  0
VERTEX
  5
4B2
  8
0
  6
CONTINUOUS
 62
     7
 10
610.079834281
 20
2454.7413366638
 30
0.0
  0
VERTEX
  5
4B3
  8
0
  6
CONTINUOUS
 62
     7
 10
612.601110755
 20
2453.4851911269
 30
0.0
  0
VERTEX
  5
4B4
  8
0
  6
CONTINUOUS
 62
     7
 10
615.0956247435
 20
2451.8758135639
 30
0.0
  0
VERTEX
  5
4B5
  8
0
  6
CONTINUOUS
 62
     7
 10
617.5568793402
 20
2449.9174135528
 30
0.0
  0
VERTEX
  5
4B6
  8
0
  6
CONTINUOUS
 62
     7
 10
619.9784372435
 20
2447.6151692472
 30
0.0
  0
VERTEX
  5
4B7
  8
0
  6
CONTINUOUS
 62
     7
 10
622.3538015471
 20
2444.975085815
 30
0.0
  0
VERTEX
  5
4B8
  8
0
  6
CONTINUOUS
 62
     7
 10
624.6768925772
 20
2442.0041369997
 30
0.0
  0
VERTEX
  5
4B9
  8
0
  6
CONTINUOUS
 62
     7
 10
626.9414518462
 20
2438.7100863061
 30
0.0
  0
VERTEX
  5
4BA
  8
0
  6
CONTINUOUS
 62
     7
 10
629.1416977034
 20
2435.1016211114
 30
0.0
  0
VERTEX
  5
4BB
  8
0
  6
CONTINUOUS
 62
     7
 10
631.2717292891
 20
2431.1881887517
 30
0.0
  0
SEQEND
  5
551
  8
0
  6
CONTINUOUS
 62
     7
  0
POLYLINE
  5
B3
  8
0
  6
CONTINUOUS
 62
     7
 66
     1
 10
0.0
 20
0.0
 30
0.0
  0
VERTEX
  5
4BC
  8
0
  6
CONTINUOUS
 62
     7
 10
631.2717292891
 20
2730.1881986461
 30
0.0
  0
VERTEX
  5
4BD
  8
0
  6
CONTINUOUS
 62
     7
 10
629.1416977034
 20
2726.2747662864
 30
0.0
  0
VERTEX
  5
4BE
  8
0
  6
CONTINUOUS
 62
     7
 10
626.9414518462
 20
2722.6663010917
 30
0.0
  0
VERTEX
  5
4BF
  8
0
  6
CONTINUOUS
 62
     7
 10
624.6768925772
 20
2719.3722503982
 30
0.0
  0
VERTEX
  5
4C0
  8
0
  6
CONTINUOUS
 62
     7
 10
622.3538015471
 20
2716.4013015829
 30
0.0
  0
VERTEX
  5
4C1
  8
0
  6
CONTINUOUS
 62
     7
 10
619.9784372435
 20
2713.7612181507
 30
0.0
  0
VERTEX
  5
4C2
  8
0
  6
CONTINUOUS
 62
     7
 10
617.5568793402
 20
2711.4589738451
 30
0.0
  0
VERTEX
  5
4C3
  8
0
  6
CONTINUOUS
 62
     7
 10
615.0956247435
 20
2709.500573834
 30
0.0
  0
VERTEX
  5
4C4
  8
0
  6
CONTINUOUS
 62
     7
 10
612.601110755
 20
2707.8912037216
 30
0.0
  0
VERTEX
  5
4C5
  8
0
  6
CONTINUOUS
 62
     7
 10
610.079834281
 20
2706.6350507341
 30
0.0
  0
VERTEX
  5
4C6
  8
0
  6
CONTINUOUS
 62
     7
 10
607.5384710417
 20
2705.7354378305
 30
0.0
  0
VERTEX
  5
4C7
  8
0
  6
CONTINUOUS
 62
     7
 10
604.9836371527
 20
2705.1947342954
 30
0.0
  0
VERTEX
  5
4C8
  8
0
  6
CONTINUOUS
 62
     7
 10
602.4220679388
 20
2705.014340838
 30
0.0
  0
SEQEND
  5
550
  8
0
  6
CONTINUOUS
 62
     7
  0
LINE
  5
B4
  8
0
  6
CONTINUOUS
 62
     7
 10
631.2717292891
 20
2730.1881986461
 30
0.0
 11
652.4220798598
 21
2730.1881986461
 31
0.0
  0
LINE
  5
B5
  8
0
  6
CONTINUOUS
 62
     7
 10
652.4220798598
 20
2730.1881986461
 30
0.0
 11
652.4220798598
 21
2431.1881887517
 31
0.0
  0
LINE
  5
B6
  8
0
  6
CONTINUOUS
 62
     7
 10
631.2717292891
 20
2431.1881887517
 30
0.0
 11
652.4220798598
 21
2431.1881887517
 31
0.0
  0
LINE
  5
B7
  8
0
  6
CONTINUOUS
 62
     7
 10
555.4220769987
 20
2705.014340838
 30
0.0
 11
555.4220769987
 21
2730.1881986461
 31
0.0
  0
LINE
  5
B8
  8
0
  6
CONTINUOUS
 62
     7
 10
631.2717292891
 20
2730.1881986461
 30
0.0
 11
555.4220769987
 21
2730.1881986461
 31
0.0
  0
LINE
  5
B9
  8
0
  6
CONTINUOUS
 62
     7
 10
640.9220789061
 20
2988.8481872879
 30
0.0
 11
550.9220455275
 21
2988.8481872879
 31
0.0
  0
LINE
  5
BA
  8
0
  6
CONTINUOUS
 62
     7
 10
550.9220455275
 20
3062.1881860099
 30
0.0
 11
587.9220460043
 21
3062.1881860099
 31
0.0
  0
LINE
  5
BB
  8
0
  6
CONTINUOUS
 62
     7
 10
603.9220784293
 20
3062.1881860099
 30
0.0
 11
640.9220789061
 21
3062.1881860099
 31
0.0
  0
POLYLINE
  5
BC
  8
0
  6
CONTINUOUS
 62
     7
 66
     1
 10
0.0
 20
0.0
 30
0.0
  0
VERTEX
  5
4C9
  8
0
  6
CONTINUOUS
 62
     7
 10
550.9220455275
 20
3055.680699905
 30
0.0
  0
VERTEX
  5
4CA
  8
0
  6
CONTINUOUS
 62
     7
 10
550.9875510321
 20
3055.2570598922
 30
0.0
  0
VERTEX
  5
4CB
  8
0
  6
CONTINUOUS
 62
     7
 10
551.1552785025
 20
3054.0716129146
 30
0.0
  0
VERTEX
  5
4CC
  8
0
  6
CONTINUOUS
 62
     7
 10
551.3730142699
 20
3052.1866160236
 30
0.0
  0
VERTEX
  5
4CD
  8
0
  6
CONTINUOUS
 62
     7
 10
551.5698288069
 20
3049.5839196048
 30
0.0
  0
VERTEX
  5
4CE
  8
0
  6
CONTINUOUS
 62
     7
 10
551.6371820555
 20
3046.5204494796
 30
0.0
  0
VERTEX
  5
4CF
  8
0
  6
CONTINUOUS
 62
     7
 10
551.5216682539
 20
3043.5521977745
 30
0.0
  0
VERTEX
  5
4D0
  8
0
  6
CONTINUOUS
 62
     7
 10
551.2926076041
 20
3041.1660748325
 30
0.0
  0
VERTEX
  5
4D1
  8
0
  6
CONTINUOUS
 62
     7
 10
551.065752326
 20
3039.5493286453
 30
0.0
  0
VERTEX
  5
4D2
  8
0
  6
CONTINUOUS
 62
     7
 10
550.9344432936
 20
3038.7654083572
 30
0.0
  0
VERTEX
  5
4D3
  8
0
  6
CONTINUOUS
 62
     7
 10
550.9407613859
 20
3038.8014095626
 30
0.0
  0
SEQEND
  5
54F
  8
0
  6
CONTINUOUS
 62
     7
  0
ARC
  5
BD
  8
0
  6
CONTINUOUS
 62
     7
 10
691.8646036261
 20
3047.1845589805
 30
0.0
 40
51.64615412070321
 50
170.5314182648
 51
189.3415219787
  0
LINE
  5
BE
  8
0
  6
CONTINUOUS
 62
     7
 10
558.1070874319
 20
2762.1881889902
 30
0.0
 11
558.1070874319
 21
2730.1881986461
 31
0.0
  0
LINE
  5
BF
  8
0
  6
CONTINUOUS
 62
     7
 10
573.4170768843
 20
2762.1881889902
 30
0.0
 11
573.4170768843
 21
2730.1881986461
 31
0.0
  0
LINE
  5
C0
  8
0
  6
CONTINUOUS
 62
     7
 10
618.4270475493
 20
2762.1881889902
 30
0.0
 11
618.4270475493
 21
2730.1881986461
 31
0.0
  0
LINE
  5
C1
  8
0
  6
CONTINUOUS
 62
     7
 10
633.7370370016
 20
2762.1881889902
 30
0.0
 11
633.7370370016
 21
2730.1881986461
 31
0.0
  0
LINE
  5
C2
  8
0
  6
CONTINUOUS
 62
     7
 10
641.9220660315
 20
2418.1881922088
 30
0.0
 11
641.9220660315
 21
2431.1881887517
 31
0.0
  0
LINE
  5
C3
  8
0
  6
CONTINUOUS
 62
     7
 10
641.9220660315
 20
2418.1881922088
 30
0.0
 11
629.9220417128
 21
2418.1881922088
 31
0.0
  0
LINE
  5
C4
  8
0
  6
CONTINUOUS
 62
     7
 10
629.9220417128
 20
2418.1881922088
 30
0.0
 11
629.9220417128
 21
2431.1881887517
 31
0.0
  0
LINE
  5
C5
  8
0
  6
CONTINUOUS
 62
     7
 10
568.9220522032
 20
2418.1881922088
 30
0.0
 11
568.9220522032
 21
2431.1881887517
 31
0.0
  0
LINE
  5
C6
  8
0
  6
CONTINUOUS
 62
     7
 10
568.9220522032
 20
2418.1881922088
 30
0.0
 11
565.922090827
 21
2418.1881922088
 31
0.0
  0
LINE
  5
C7
  8
0
  6
CONTINUOUS
 62
     7
 10
565.922090827
 20
2418.1881922088
 30
0.0
 11
565.922090827
 21
2431.1881887517
 31
0.0
  0
LINE
  5
C8
  8
0
  6
CONTINUOUS
 62
     7
 10
629.9220417128
 20
2418.1881922088
 30
0.0
 11
568.9220522032
 21
2418.1881922088
 31
0.0
  0
LINE
  5
C9
  8
0
  6
CONTINUOUS
 62
     7
 10
573.9020798788
 20
2844.0575080715
 30
0.0
 11
617.9420445547
 21
2844.0575080715
 31
0.0
  0
LINE
  5
CA
  8
0
  6
CONTINUOUS
 62
     7
 10
580.3713892088
 20
2860.6174963317
 30
0.0
 11
611.4727352248
 21
2860.6174963317
 31
0.0
  0
LINE
  5
CB
  8
0
  6
CONTINUOUS
 62
     7
 10
2346.4220855818
 20
2755.6881981693
 30
0.0
 11
2346.4220855818
 21
2405.6881892286
 31
0.0
  0
LINE
  5
CC
  8
0
  6
CONTINUOUS
 62
     7
 10
696.422049819
 20
2755.6881981693
 30
0.0
 11
696.422049819
 21
2593.1881948165
 31
0.0
  0
LINE
  5
CD
  8
0
  6
CONTINUOUS
 62
     7
 10
696.422049819
 20
2568.1881953753
 30
0.0
 11
696.422049819
 21
2405.6881892286
 31
0.0
  0
LINE
  5
CE
  8
0
  6
CONTINUOUS
 62
     7
 10
763.9840934859
 20
2568.1881953753
 30
0.0
 11
696.422049819
 21
2568.1881953753
 31
0.0
  0
LINE
  5
CF
  8
0
  6
CONTINUOUS
 62
     7
 10
764.0872095213
 20
2593.1881948165
 30
0.0
 11
696.422049819
 21
2593.1881948165
 31
0.0
  0
LINE
  5
D0
  8
0
  6
CONTINUOUS
 62
     7
 10
2286.4220831976
 20
2568.1881953753
 30
0.0
 11
2286.4220831976
 21
2405.6881892286
 31
0.0
  0
LINE
  5
D1
  8
0
  6
CONTINUOUS
 62
     7
 10
2286.4220831976
 20
2755.6881981693
 30
0.0
 11
2286.4220831976
 21
2593.1881948165
 31
0.0
  0
LINE
  5
D2
  8
0
  6
CONTINUOUS
 62
     7
 10
2218.8600395308
 20
2568.1881953753
 30
0.0
 11
2286.4220831976
 21
2568.1881953753
 31
0.0
  0
LINE
  5
D3
  8
0
  6
CONTINUOUS
 62
     7
 10
2218.7569234953
 20
2593.1881948165
 30
0.0
 11
2286.4220831976
 21
2593.1881948165
 31
0.0
  0
LINE
  5
D4
  8
0
  6
CONTINUOUS
 62
     7
 10
656.422087966
 20
2475.042611619
 30
0.0
 11
656.422087966
 21
2686.3337757788
 31
0.0
  0
LINE
  5
D5
  8
0
  6
CONTINUOUS
 62
     7
 10
656.422087966
 20
2456.3620540104
 30
0.0
 11
652.4220798598
 21
2456.3620540104
 31
0.0
  0
LINE
  5
D6
  8
0
  6
CONTINUOUS
 62
     7
 10
656.422087966
 20
2456.3620540104
 30
0.0
 11
656.422087966
 21
2395.6881987653
 31
0.0
  0
LINE
  5
D7
  8
0
  6
CONTINUOUS
 62
     7
 10
656.422087966
 20
2762.9077511631
 30
0.0
 11
656.422087966
 21
2705.014340838
 31
0.0
  0
LINE
  5
D8
  8
0
  6
CONTINUOUS
 62
     7
 10
656.422087966
 20
2705.014340838
 30
0.0
 11
652.4220798598
 21
2705.014340838
 31
0.0
  0
LINE
  5
D9
  8
0
  6
CONTINUOUS
 62
     7
 10
535.4220960722
 20
2456.3620540104
 30
0.0
 11
535.4220960722
 21
2395.6881987653
 31
0.0
  0
LINE
  5
DA
  8
0
  6
CONTINUOUS
 62
     7
 10
535.4220960722
 20
2762.9077511631
 30
0.0
 11
535.4220960722
 21
2705.014340838
 31
0.0
  0
LINE
  5
DB
  8
0
  6
CONTINUOUS
 62
     7
 10
656.422087966
 20
2686.3337757788
 30
0.0
 11
656.422087966
 21
2705.014340838
 31
0.0
  0
LINE
  5
DC
  8
0
  6
CONTINUOUS
 62
     7
 10
656.422087966
 20
2456.3620540104
 30
0.0
 11
656.422087966
 21
2475.042611619
 31
0.0
  0
LINE
  5
DD
  8
0
  6
CONTINUOUS
 62
     7
 10
2210.2041934119
 20
2689.9756568275
 30
0.0
 11
2286.4220831976
 21
2689.9756568275
 31
0.0
  0
LINE
  5
DE
  8
0
  6
CONTINUOUS
 62
     7
 10
772.6399396048
 20
2689.9756568275
 30
0.0
 11
696.422049819
 21
2689.9756568275
 31
0.0
  0
LINE
  5
DF
  8
0
  6
CONTINUOUS
 62
     7
 10
771.7282269583
 20
2471.4007305704
 30
0.0
 11
696.422049819
 21
2471.4007305704
 31
0.0
  0
LINE
  5
E0
  8
0
  6
CONTINUOUS
 62
     7
 10
2211.1159060583
 20
2471.4007305704
 30
0.0
 11
2286.4220831976
 21
2471.4007305704
 31
0.0
  0
LINE
  5
E1
  8
0
  6
CONTINUOUS
 62
     7
 10
530.422041236
 20
2495.6881928049
 30
0.0
 11
530.422041236
 21
2665.688194593
 31
0.0
  0
LINE
  5
E2
  8
0
  6
CONTINUOUS
 62
     7
 10
783.3491657362
 20
2410.6881993614
 30
0.0
 11
696.422049819
 21
2410.6881993614
 31
0.0
  0
LINE
  5
E3
  8
0
  6
CONTINUOUS
 62
     7
 10
2198.0529521094
 20
2750.6881880365
 30
0.0
 11
2286.4220831976
 21
2750.6881880365
 31
0.0
  0
LINE
  5
E4
  8
0
  6
CONTINUOUS
 62
     7
 10
784.7911809073
 20
2750.6881880365
 30
0.0
 11
696.422049819
 21
2750.6881880365
 31
0.0
  0
LINE
  5
E5
  8
0
  6
CONTINUOUS
 62
     7
 10
2199.4949672804
 20
2410.6881993614
 30
0.0
 11
2286.4220831976
 21
2410.6881993614
 31
0.0
  0
LINE
  5
E6
  8
0
  6
CONTINUOUS
 62
     7
 10
658.7240789519
 20
2828.1373160682
 30
0.0
 11
533.1200454817
 21
2828.1373160682
 31
0.0
  0
LINE
  5
E7
  8
0
  6
CONTINUOUS
 62
     7
 10
656.8844411955
 20
2764.1183960043
 30
0.0
 11
534.9596832381
 21
2764.1183960043
 31
0.0
  0
LINE
  5
E8
  8
0
  6
CONTINUOUS
 62
     7
 10
572.6664755926
 20
2839.8467677436
 30
0.0
 11
619.1776488409
 21
2839.8467677436
 31
0.0
  0
LINE
  5
E9
  8
0
  6
CONTINUOUS
 62
     7
 10
573.9020798788
 20
2841.6949289642
 30
0.0
 11
617.9420445547
 21
2841.6949289642
 31
0.0
  0
LINE
  5
EA
  8
0
  6
CONTINUOUS
 62
     7
 10
574.3771288977
 20
2854.8806088768
 30
0.0
 11
617.4669955359
 21
2854.8806088768
 31
0.0
  0
LINE
  5
EB
  8
0
  6
CONTINUOUS
 62
     7
 10
2326.4220450507
 20
2755.6881981693
 30
0.0
 11
2326.4220450507
 21
2405.6881892286
 31
0.0
  0
LINE
  5
EC
  8
0
  6
CONTINUOUS
 62
     7
 10
658.4220622168
 20
2580.6881950959
 30
0.0
 11
658.4220622168
 21
2405.6881892286
 31
0.0
  0
LINE
  5
ED
  8
0
  6
CONTINUOUS
 62
     7
 10
658.4220622168
 20
2755.6881981693
 30
0.0
 11
658.4220622168
 21
2580.6881950959
 31
0.0
  0
LINE
  5
EE
  8
0
  6
CONTINUOUS
 62
     7
 10
2286.4220831976
 20
2553.1881957106
 30
0.0
 11
2218.5093854056
 21
2553.1881957106
 31
0.0
  0
INSERT
  5
FA
  8
FORMAT
  2
SW_CENTERMARKSYMBOL_0
 10
1491.4220665083
 20
2577.6881950698
 30
0.0
  0
INSERT
  5
106
  8
FORMAT
  2
SW_CENTERMARKSYMBOL_1
 10
1559.0538933357
 20
3264.3656564737
 30
0.0
  0
INSERT
  5
112
  8
FORMAT
  2
SW_CENTERMARKSYMBOL_2
 10
1423.7902396809
 20
3264.3656564737
 30
0.0
  0
INSERT
  5
11E
  8
FORMAT
  2
SW_CENTERMARKSYMBOL_3
 10
1291.1256392027
 20
3237.9770267251
 30
0.0
  0
INSERT
  5
12A
  8
FORMAT
  2
SW_CENTERMARKSYMBOL_4
 10
1166.1583180984
 20
3186.2138674702
 30
0.0
  0
INSERT
  5
136
  8
FORMAT
  2
SW_CENTERMARKSYMBOL_5
 10
1053.6907004354
 20
3111.0654078901
 30
0.0
  0
INSERT
  5
142
  8
FORMAT
  2
SW_CENTERMARKSYMBOL_6
 10
958.044853688
 20
3015.4195611428
 30
0.0
  0
INSERT
  5
14E
  8
FORMAT
  2
SW_CENTERMARKSYMBOL_7
 10
882.896394108
 20
2902.9519434798
 30
0.0
  0
INSERT
  5
15A
  8
FORMAT
  2
SW_CENTERMARKSYMBOL_8
 10
831.1332348531
 20
2777.9846223754
 30
0.0
  0
INSERT
  5
166
  8
FORMAT
  2
SW_CENTERMARKSYMBOL_9
 10
804.7446051045
 20
2645.3200218972
 30
0.0
  0
INSERT
  5
172
  8
FORMAT
  2
SW_CENTERMARKSYMBOL_10
 10
804.7446051045
 20
2510.0563682424
 30
0.0
  0
INSERT
  5
17E
  8
FORMAT
  2
SW_CENTERMARKSYMBOL_11
 10
831.1332348531
 20
2377.3917677643
 30
0.0
  0
INSERT
  5
18A
  8
FORMAT
  2
SW_CENTERMARKSYMBOL_12
 10
882.896394108
 20
2252.4244466599
 30
0.0
  0
INSERT
  5
196
  8
FORMAT
  2
SW_CENTERMARKSYMBOL_13
 10
958.044853688
 20
2139.9568289969
 30
0.0
  0
INSERT
  5
1A2
  8
FORMAT
  2
SW_CENTERMARKSYMBOL_14
 10
1053.6907004354
 20
2044.3109822495
 30
0.0
  0
INSERT
  5
1AE
  8
FORMAT
  2
SW_CENTERMARKSYMBOL_15
 10
1166.1583180984
 20
1969.1625226695
 30
0.0
  0
INSERT
  5
1BA
  8
FORMAT
  2
SW_CENTERMARKSYMBOL_16
 10
1291.1256392028
 20
1917.3993634146
 30
0.0
  0
INSERT
  5
1C6
  8
FORMAT
  2
SW_CENTERMARKSYMBOL_17
 10
1423.7902396809
 20
1891.010733666
 30
0.0
  0
INSERT
  5
1D2
  8
FORMAT
  2
SW_CENTERMARKSYMBOL_18
 10
1559.0538933357
 20
1891.010733666
 30
0.0
  0
INSERT
  5
1DE
  8
FORMAT
  2
SW_CENTERMARKSYMBOL_19
 10
1691.7184938139
 20
1917.3993634146
 30
0.0
  0
INSERT
  5
1EA
  8
FORMAT
  2
SW_CENTERMARKSYMBOL_20
 10
1816.6858149183
 20
1969.1625226695
 30
0.0
  0
INSERT
  5
1F6
  8
FORMAT
  2
SW_CENTERMARKSYMBOL_21
 10
1929.1534325812
 20
2044.3109822496
 30
0.0
  0
INSERT
  5
202
  8
FORMAT
  2
SW_CENTERMARKSYMBOL_22
 10
2024.7992793286
 20
2139.9568289969
 30
0.0
  0
INSERT
  5
20E
  8
FORMAT
  2
SW_CENTERMARKSYMBOL_23
 10
2099.9477389087
 20
2252.4244466599
 30
0.0
  0
INSERT
  5
21A
  8
FORMAT
  2
SW_CENTERMARKSYMBOL_24
 10
2151.7108981636
 20
2377.3917677643
 30
0.0
  0
INSERT
  5
226
  8
FORMAT
  2
SW_CENTERMARKSYMBOL_25
 10
2178.0995279121
 20
2510.0563682425
 30
0.0
  0
INSERT
  5
232
  8
FORMAT
  2
SW_CENTERMARKSYMBOL_26
 10
2178.0995279121
 20
2645.3200218972
 30
0.0
  0
INSERT
  5
23E
  8
FORMAT
  2
SW_CENTERMARKSYMBOL_27
 10
2151.7108981635
 20
2777.9846223754
 30
0.0
  0
INSERT
  5
24A
  8
FORMAT
  2
SW_CENTERMARKSYMBOL_28
 10
2099.9477389087
 20
2902.9519434798
 30
0.0
  0
INSERT
  5
256
  8
FORMAT
  2
SW_CENTERMARKSYMBOL_29
 10
2024.7992793286
 20
3015.4195611428
 30
0.0
  0
INSERT
  5
262
  8
FORMAT
  2
SW_CENTERMARKSYMBOL_30
 10
1929.1534325812
 20
3111.0654078901
 30
0.0
  0
INSERT
  5
26E
  8
FORMAT
  2
SW_CENTERMARKSYMBOL_31
 10
1816.6858149183
 20
3186.2138674702
 30
0.0
  0
INSERT
  5
27A
  8
FORMAT
  2
SW_CENTERMARKSYMBOL_32
 10
1691.7184938139
 20
3237.9770267251
 30
0.0
  0
LINE
  5
27B
  8
0
  6
CONTINUOUS
 62
     7
 10
2218.922087966
 20
1153.23671911
 30
0.0
 11
2218.922087966
 21
1288.2367244744
 31
0.0
  0
LINE
  5
27C
  8
0
  6
CONTINUOUS
 62
     7
 10
763.9220450507
 20
1288.2367244744
 30
0.0
 11
763.9220450507
 21
1153.23671911
 31
0.0
  0
LINE
  5
27D
  8
0
  6
CONTINUOUS
 62
     7
 10
2218.922087966
 20
668.2367197061
 30
0.0
 11
2218.922087966
 21
803.2367250705
 31
0.0
  0
LINE
  5
27E
  8
0
  6
CONTINUOUS
 62
     7
 10
763.9220450507
 20
788.2367244744
 30
0.0
 11
763.9220450507
 21
668.2367197061
 31
0.0
  0
ARC
  5
27F
  8
0
  6
CONTINUOUS
 62
     7
 10
825.4220665083
 20
1290.2367220903
 30
0.0
 40
2.0
 50
270.0
 51
0.0
  0
ARC
  5
280
  8
0
  6
CONTINUOUS
 62
     7
 10
2157.4220665083
 20
1290.2367220903
 30
0.0
 40
2.0
 50
180.0
 51
270.0
  0
ARC
  5
281
  8
0
  6
CONTINUOUS
 62
     7
 10
2157.4220665083
 20
666.2367220903
 30
0.0
 40
2.0
 50
90.0
 51
180.0
  0
ARC
  5
282
  8
0
  6
CONTINUOUS
 62
     7
 10
825.4220665083
 20
666.2367220903
 30
0.0
 40
2.0
 50
0.0
 51
90.0
  0
LINE
  5
283
  8
0
  6
CONTINUOUS
 62
     7
 10
827.4220917807
 20
1293.2367197061
 30
0.0
 11
827.4220917807
 21
1290.2367285276
 31
0.0
  0
LINE
  5
284
  8
0
  6
CONTINUOUS
 62
     7
 10
2155.422041236
 20
1290.2367285276
 30
0.0
 11
2155.422041236
 21
1293.2367197061
 31
0.0
  0
LINE
  5
285
  8
0
  6
CONTINUOUS
 62
     7
 10
2155.422041236
 20
663.2367244744
 30
0.0
 11
2155.422041236
 21
666.236715653
 31
0.0
  0
LINE
  5
286
  8
0
  6
CONTINUOUS
 62
     7
 10
827.4220917807
 20
666.236715653
 30
0.0
 11
827.4220917807
 21
663.2367244744
 31
0.0
  0
LINE
  5
287
  8
0
  6
CONTINUOUS
 62
     7
 10
1562.0389823304
 20
1007.9992583776
 30
0.0
 11
1561.7616270171
 21
1007.9992583776
 31
0.0
  0
ARC
  5
288
  8
0
  6
CONTINUOUS
 62
     7
 10
595.9220665083
 20
796.2367220903
 30
0.0
 40
275.0
 50
91.5082870256
 51
178.4960818689
  0
ARC
  5
289
  8
0
  6
CONTINUOUS
 62
     7
 10
595.9220665083
 20
796.2367220903
 30
0.0
 40
275.0
 50
181.5070865897
 51
268.5103456374
  0
ARC
  5
28A
  8
0
  6
CONTINUOUS
 62
     7
 10
595.9220665083
 20
796.2367220903
 30
0.0
 40
275.0
 50
271.4991650301
 51
358.4975481163
  0
ARC
  5
28B
  8
0
  6
CONTINUOUS
 62
     7
 10
595.9220665083
 20
796.2367220903
 30
0.0
 40
275.0
 50
1.5051418895
 51
88.4981495505
  0
CIRCLE
  5
28C
  8
0
  6
CONTINUOUS
 62
     7
 10
595.9220665083
 20
796.2367220903
 30
0.0
 40
300.0
  0
LINE
  5
28D
  8
0
  6
CONTINUOUS
 62
     7
 10
551.6302679167
 20
804.2367270971
 30
0.0
 11
321.0384939299
 21
804.2367270971
 31
0.0
  0
LINE
  5
28E
  8
0
  6
CONTINUOUS
 62
     7
 10
321.0384939299
 20
788.2367244744
 30
0.0
 11
551.6309235678
 21
788.2367244744
 31
0.0
  0
LINE
  5
28F
  8
0
  6
CONTINUOUS
 62
     7
 10
640.2138565169
 20
788.2367244744
 30
0.0
 11
870.8056901083
 21
788.2367244744
 31
0.0
  0
LINE
  5
290
  8
0
  6
CONTINUOUS
 62
     7
 10
870.8056901083
 20
804.2367270971
 30
0.0
 11
640.2132008658
 21
804.2367270971
 31
0.0
  0
LINE
  5
291
  8
0
  6
CONTINUOUS
 62
     7
 10
603.9220784293
 20
840.5285051847
 30
0.0
 11
603.9220784293
 21
1071.1203313255
 31
0.0
  0
LINE
  5
292
  8
0
  6
CONTINUOUS
 62
     7
 10
587.9220460043
 20
1071.1203313255
 30
0.0
 11
587.9220460043
 21
840.5278644347
 31
0.0
  0
LINE
  5
293
  8
0
  6
CONTINUOUS
 62
     7
 10
587.9220460043
 20
751.9377044225
 30
0.0
 11
587.9220460043
 21
521.3531127954
 31
0.0
  0
LINE
  5
294
  8
0
  6
CONTINUOUS
 62
     7
 10
603.9220784293
 20
521.3531127954
 30
0.0
 11
603.9220784293
 21
751.9376001144
 31
0.0
  0
LINE
  5
295
  8
0
  6
CONTINUOUS
 62
     7
 10
656.422087966
 20
1163.2367244744
 30
0.0
 11
641.4220426665
 21
1163.2367244744
 31
0.0
  0
LINE
  5
296
  8
0
  6
CONTINUOUS
 62
     7
 10
2326.4220450507
 20
803.2367250705
 30
0.0
 11
2346.4220855818
 21
803.2367250705
 31
0.0
  0
LINE
  5
297
  8
0
  6
CONTINUOUS
 62
     7
 10
2346.4220855818
 20
1153.23671911
 30
0.0
 11
2326.4220450507
 21
1153.23671911
 31
0.0
  0
ARC
  5
298
  8
0
  6
CONTINUOUS
 62
     7
 10
658.4220665083
 20
1151.2367220903
 30
0.0
 40
2.0
 50
90.0
 51
180.0
  0
LINE
  5
299
  8
0
  6
CONTINUOUS
 62
     7
 10
2326.4220450507
 20
1153.23671911
 30
0.0
 11
2218.9155910597
 21
1153.23671911
 31
0.0
  0
LINE
  5
29A
  8
0
  6
CONTINUOUS
 62
     7
 10
2218.9155910597
 20
803.2367250705
 30
0.0
 11
2326.4220450507
 21
803.2367250705
 31
0.0
  0
LINE
  5
29B
  8
0
  6
CONTINUOUS
 62
     7
 10
763.9285419569
 20
1153.23671911
 30
0.0
 11
658.4220622168
 21
1153.23671911
 31
0.0
  0
LINE
  5
29C
  8
0
  6
CONTINUOUS
 62
     7
 10
641.4220426665
 20
1118.2367226863
 30
0.0
 11
535.4220960722
 21
1118.2367226863
 31
0.0
  0
LINE
  5
29D
  8
0
  6
CONTINUOUS
 62
     7
 10
535.4220960722
 20
1063.2367229843
 30
0.0
 11
530.422041236
 21
1063.2367229843
 31
0.0
  0
LINE
  5
29E
  8
0
  6
CONTINUOUS
 62
     7
 10
530.422041236
 20
893.2367211962
 30
0.0
 11
535.4220960722
 21
893.2367211962
 31
0.0
  0
ARC
  5
29F
  8
0
  6
CONTINUOUS
 62
     7
 10
1515.4222997796
 20
1236.2364962613
 30
0.0
 40
12.00023656004049
 50
90.0011127703
 51
179.1975673569
  0
LINE
  5
2A0
  8
0
  6
CONTINUOUS
 62
     7
 10
1503.4232400791
 20
1236.4045551801
 30
0.0
 11
1503.4220666126
 21
1236.4045551801
 31
0.0
  0
LINE
  5
2A1
  8
0
  6
CONTINUOUS
 62
     7
 10
1503.4220666126
 20
1236.4045551801
 30
0.0
 11
1479.422066404
 21
1236.4045551801
 31
0.0
  0
LINE
  5
2A2
  8
0
  6
CONTINUOUS
 62
     7
 10
1479.422066404
 20
1236.4045551801
 30
0.0
 11
1479.4208929376
 21
1236.4045551801
 31
0.0
  0
ARC
  5
2A3
  8
0
  6
CONTINUOUS
 62
     7
 10
1467.4235029364
 20
1236.2381894773
 30
0.0
 40
11.99854342778034
 50
0.7944596054
 51
90.0068602674
  0
LINE
  5
2A4
  8
0
  6
CONTINUOUS
 62
     7
 10
1467.4220662997
 20
1248.2367328191
 30
0.0
 11
1486.4220666201
 21
1248.2367328191
 31
0.0
  0
ARC
  5
2A5
  8
0
  6
CONTINUOUS
 62
     7
 10
1484.4219502456
 20
1236.4043996976
 30
0.0
 40
12.00019052385532
 50
54.314635168
 51
80.4055220151
  0
ARC
  5
2A6
  8
0
  6
CONTINUOUS
 62
     7
 10
1498.422182771
 20
1236.4043996976
 30
0.0
 40
12.00019052385532
 50
99.5944779849
 51
125.685364832
  0
LINE
  5
2A7
  8
0
  6
CONTINUOUS
 62
     7
 10
1496.4220663966
 20
1248.2367328191
 30
0.0
 11
1515.4220667169
 21
1248.2367328191
 31
0.0
  0
LINE
  5
2A8
  8
0
  6
CONTINUOUS
 62
     7
 10
1486.4220666201
 20
708.2367113614
 30
0.0
 11
1467.4220662997
 21
708.2367113614
 31
0.0
  0
ARC
  5
2A9
  8
0
  6
CONTINUOUS
 62
     7
 10
1467.4235029364
 20
720.2352547032
 30
0.0
 40
11.99854342778025
 50
269.9931397326
 51
359.2055403947
  0
LINE
  5
2AA
  8
0
  6
CONTINUOUS
 62
     7
 10
1479.4208929376
 20
720.0688890004
 30
0.0
 11
1479.422066404
 21
720.0688890004
 31
0.0
  0
LINE
  5
2AB
  8
0
  6
CONTINUOUS
 62
     7
 10
1479.422066404
 20
720.0688890004
 30
0.0
 11
1503.4220666126
 21
720.0688890004
 31
0.0
  0
LINE
  5
2AC
  8
0
  6
CONTINUOUS
 62
     7
 10
1503.4220666126
 20
720.0688890004
 30
0.0
 11
1503.4232400791
 21
720.0688890004
 31
0.0
  0
ARC
  5
2AD
  8
0
  6
CONTINUOUS
 62
     7
 10
1515.4220799061
 20
720.2367249489
 30
0.0
 40
12.00001358748495
 50
180.8013828463
 51
269.9999370265
  0
LINE
  5
2AE
  8
0
  6
CONTINUOUS
 62
     7
 10
1515.4220667169
 20
708.2367113614
 30
0.0
 11
1496.4220663966
 21
708.2367113614
 31
0.0
  0
ARC
  5
2AF
  8
0
  6
CONTINUOUS
 62
     7
 10
1498.422182771
 20
720.0690444829
 30
0.0
 40
12.00019052385532
 50
234.314635168
 51
260.4055220151
  0
ARC
  5
2B0
  8
0
  6
CONTINUOUS
 62
     7
 10
1484.4219502456
 20
720.0690444829
 30
0.0
 40
12.00019052385532
 50
279.5944779849
 51
305.685364832
  0
LINE
  5
2B1
  8
0
  6
CONTINUOUS
 62
     7
 10
1714.4220713959
 20
1288.2367244744
 30
0.0
 11
1496.4220663966
 21
1288.2367244744
 31
0.0
  0
LINE
  5
2B2
  8
0
  6
CONTINUOUS
 62
     7
 10
1714.4220713959
 20
1248.2367328191
 30
0.0
 11
1714.4220713959
 21
1288.2367244744
 31
0.0
  0
LINE
  5
2B3
  8
0
  6
CONTINUOUS
 62
     7
 10
1515.4220667169
 20
1248.2367328191
 30
0.0
 11
1714.4220713959
 21
1248.2367328191
 31
0.0
  0
LINE
  5
2B4
  8
0
  6
CONTINUOUS
 62
     7
 10
1496.4220663966
 20
1248.2367328191
 30
0.0
 11
1496.4220663966
 21
1288.2367244744
 31
0.0
  0
LINE
  5
2B5
  8
0
  6
CONTINUOUS
 62
     7
 10
1486.4220666201
 20
1288.2367244744
 30
0.0
 11
1491.4220665083
 21
1288.2367244744
 31
0.0
  0
LINE
  5
2B6
  8
0
  6
CONTINUOUS
 62
     7
 10
1491.4220665083
 20
1246.1513451123
 30
0.0
 11
1491.4220665083
 21
1288.2367244744
 31
0.0
  0
LINE
  5
2B7
  8
0
  6
CONTINUOUS
 62
     7
 10
1486.4220666201
 20
1248.2367328191
 30
0.0
 11
1486.4220666201
 21
1288.2367244744
 31
0.0
  0
LINE
  5
2B8
  8
0
  6
CONTINUOUS
 62
     7
 10
1268.4220616207
 20
1248.2367328191
 30
0.0
 11
1467.4220662997
 21
1248.2367328191
 31
0.0
  0
LINE
  5
2B9
  8
0
  6
CONTINUOUS
 62
     7
 10
1486.4220666201
 20
1288.2367244744
 30
0.0
 11
1268.4220616207
 21
1288.2367244744
 31
0.0
  0
LINE
  5
2BA
  8
0
  6
CONTINUOUS
 62
     7
 10
1268.4220616207
 20
1288.2367244744
 30
0.0
 11
1268.4220616207
 21
1248.2367328191
 31
0.0
  0
LINE
  5
2BB
  8
0
  6
CONTINUOUS
 62
     7
 10
1491.4220665083
 20
1288.2367244744
 30
0.0
 11
1496.4220663966
 21
1288.2367244744
 31
0.0
  0
LINE
  5
2BC
  8
0
  6
CONTINUOUS
 62
     7
 10
1496.4220663966
 20
668.2367197061
 30
0.0
 11
1491.4220665083
 21
668.2367197061
 31
0.0
  0
LINE
  5
2BD
  8
0
  6
CONTINUOUS
 62
     7
 10
1491.4220665083
 20
668.2367197061
 30
0.0
 11
1491.4220665083
 21
710.3220990682
 31
0.0
  0
LINE
  5
2BE
  8
0
  6
CONTINUOUS
 62
     7
 10
1496.4220663966
 20
668.2367197061
 30
0.0
 11
1496.4220663966
 21
708.2367113614
 31
0.0
  0
LINE
  5
2BF
  8
0
  6
CONTINUOUS
 62
     7
 10
1491.4220665083
 20
668.2367197061
 30
0.0
 11
1486.4220666201
 21
668.2367197061
 31
0.0
  0
LINE
  5
2C0
  8
0
  6
CONTINUOUS
 62
     7
 10
1486.4220666201
 20
668.2367197061
 30
0.0
 11
1486.4220666201
 21
708.2367113614
 31
0.0
  0
LINE
  5
2C1
  8
0
  6
CONTINUOUS
 62
     7
 10
1714.4220713959
 20
708.2367113614
 30
0.0
 11
1515.4220667169
 21
708.2367113614
 31
0.0
  0
LINE
  5
2C2
  8
0
  6
CONTINUOUS
 62
     7
 10
1714.4220713959
 20
668.2367197061
 30
0.0
 11
1714.4220713959
 21
708.2367113614
 31
0.0
  0
LINE
  5
2C3
  8
0
  6
CONTINUOUS
 62
     7
 10
1496.4220663966
 20
668.2367197061
 30
0.0
 11
1714.4220713959
 21
668.2367197061
 31
0.0
  0
LINE
  5
2C4
  8
0
  6
CONTINUOUS
 62
     7
 10
1268.4220616207
 20
668.2367197061
 30
0.0
 11
1486.4220666201
 21
668.2367197061
 31
0.0
  0
LINE
  5
2C5
  8
0
  6
CONTINUOUS
 62
     7
 10
1268.4220616207
 20
708.2367113614
 30
0.0
 11
1268.4220616207
 21
668.2367197061
 31
0.0
  0
LINE
  5
2C6
  8
0
  6
CONTINUOUS
 62
     7
 10
1467.4220662997
 20
708.2367113614
 30
0.0
 11
1268.4220616207
 21
708.2367113614
 31
0.0
  0
LINE
  5
2C7
  8
0
  6
CONTINUOUS
 62
     7
 10
1740.7152299271
 20
1288.2367244744
 30
0.0
 11
1740.7152299271
 21
1248.2367328191
 31
0.0
  0
LINE
  5
2C8
  8
0
  6
CONTINUOUS
 62
     7
 10
1740.7152299271
 20
1248.2367328191
 30
0.0
 11
1714.4220713959
 21
1248.2367328191
 31
0.0
  0
LINE
  5
2C9
  8
0
  6
CONTINUOUS
 62
     7
 10
1714.4220713959
 20
1288.2367244744
 30
0.0
 11
1740.7152299271
 21
1288.2367244744
 31
0.0
  0
LINE
  5
2CA
  8
0
  6
CONTINUOUS
 62
     7
 10
1242.1289030896
 20
1248.2367328191
 30
0.0
 11
1242.1289030896
 21
1288.2367244744
 31
0.0
  0
LINE
  5
2CB
  8
0
  6
CONTINUOUS
 62
     7
 10
1268.4220616207
 20
1248.2367328191
 30
0.0
 11
1242.1289030896
 21
1248.2367328191
 31
0.0
  0
LINE
  5
2CC
  8
0
  6
CONTINUOUS
 62
     7
 10
1242.1289030896
 20
1288.2367244744
 30
0.0
 11
1268.4220616207
 21
1288.2367244744
 31
0.0
  0
LINE
  5
2CD
  8
0
  6
CONTINUOUS
 62
     7
 10
1740.7152299271
 20
708.2367113614
 30
0.0
 11
1740.7152299271
 21
668.2367197061
 31
0.0
  0
LINE
  5
2CE
  8
0
  6
CONTINUOUS
 62
     7
 10
1740.7152299271
 20
668.2367197061
 30
0.0
 11
1714.4220713959
 21
668.2367197061
 31
0.0
  0
LINE
  5
2CF
  8
0
  6
CONTINUOUS
 62
     7
 10
1714.4220713959
 20
708.2367113614
 30
0.0
 11
1740.7152299271
 21
708.2367113614
 31
0.0
  0
LINE
  5
2D0
  8
0
  6
CONTINUOUS
 62
     7
 10
1242.1289030896
 20
668.2367197061
 30
0.0
 11
1242.1289030896
 21
708.2367113614
 31
0.0
  0
LINE
  5
2D1
  8
0
  6
CONTINUOUS
 62
     7
 10
1268.4220616207
 20
668.2367197061
 30
0.0
 11
1242.1289030896
 21
668.2367197061
 31
0.0
  0
LINE
  5
2D2
  8
0
  6
CONTINUOUS
 62
     7
 10
1242.1289030896
 20
708.2367113614
 30
0.0
 11
1268.4220616207
 21
708.2367113614
 31
0.0
  0
LINE
  5
2D3
  8
0
  6
CONTINUOUS
 62
     7
 10
1503.4220666126
 20
1236.2367085004
 30
0.0
 11
1503.4220666126
 21
720.2367356801
 31
0.0
  0
LINE
  5
2D4
  8
0
  6
CONTINUOUS
 62
     7
 10
1479.422066404
 20
1236.2367085004
 30
0.0
 11
1479.422066404
 21
720.2367356801
 31
0.0
  0
ARC
  5
2D5
  8
0
  6
CONTINUOUS
 62
     7
 10
1467.4220665083
 20
720.2367220903
 30
0.0
 40
12.00000000000006
 50
359.1985948283
 51
0.0
  0
ARC
  5
2D6
  8
0
  6
CONTINUOUS
 62
     7
 10
1467.4220665083
 20
1236.2367220903
 30
0.0
 40
12.00000000000005
 50
0.0
 51
0.8014051717
  0
ARC
  5
2D7
  8
0
  6
CONTINUOUS
 62
     7
 10
1515.4220665083
 20
720.2367220903
 30
0.0
 40
12.00000000000006
 50
180.0
 51
180.8014051717
  0
ARC
  5
2D8
  8
0
  6
CONTINUOUS
 62
     7
 10
1515.4220665083
 20
1236.2367220903
 30
0.0
 40
12.00000000000005
 50
179.1985948283
 51
180.0
  0
LINE
  5
2D9
  8
0
  6
CONTINUOUS
 62
     7
 10
2218.9155910597
 20
1153.2355270171
 30
0.0
 11
2218.7569234953
 21
1152.7897289777
 31
0.0
  0
LINE
  5
2DA
  8
0
  6
CONTINUOUS
 62
     7
 10
2218.7569234953
 20
1152.7897289777
 30
0.0
 11
2218.7569234953
 21
1248.2367328191
 31
0.0
  0
LINE
  5
2DB
  8
0
  6
CONTINUOUS
 62
     7
 10
2218.7569234953
 20
1248.2367328191
 30
0.0
 11
1740.7152299271
 21
1248.2367328191
 31
0.0
  0
LINE
  5
2DC
  8
0
  6
CONTINUOUS
 62
     7
 10
2218.922087966
 20
1288.2367244744
 30
0.0
 11
1740.7152299271
 21
1288.2367244744
 31
0.0
  0
LINE
  5
2DD
  8
0
  6
CONTINUOUS
 62
     7
 10
764.0872095213
 20
1152.7897289777
 30
0.0
 11
764.0872095213
 21
1248.2367328191
 31
0.0
  0
POLYLINE
  5
2DE
  8
0
  6
CONTINUOUS
 62
     7
 66
     1
 10
0.0
 20
0.0
 30
0.0
  0
VERTEX
  5
4D4
  8
0
  6
CONTINUOUS
 62
     7
 10
764.0872095213
 20
1152.7897289777
 30
0.0
  0
VERTEX
  5
4D5
  8
0
  6
CONTINUOUS
 62
     7
 10
763.9284227476
 20
1153.23671911
 30
0.0
  0
VERTEX
  5
4D6
  8
0
  6
CONTINUOUS
 62
     7
 10
763.9285419569
 20
1153.2354972148
 30
0.0
  0
SEQEND
  5
54E
  8
0
  6
CONTINUOUS
 62
     7
  0
LINE
  5
2DF
  8
0
  6
CONTINUOUS
 62
     7
 10
1242.1289030896
 20
1248.2367328191
 30
0.0
 11
764.0872095213
 21
1248.2367328191
 31
0.0
  0
LINE
  5
2E0
  8
0
  6
CONTINUOUS
 62
     7
 10
1242.1289030896
 20
1288.2367244744
 30
0.0
 11
763.9220450507
 21
1288.2367244744
 31
0.0
  0
LINE
  5
2E1
  8
0
  6
CONTINUOUS
 62
     7
 10
2218.7569234953
 20
803.6837152028
 30
0.0
 11
2218.7569234953
 21
708.2367113614
 31
0.0
  0
LINE
  5
2E2
  8
0
  6
CONTINUOUS
 62
     7
 10
2218.9155910597
 20
803.2379171634
 30
0.0
 11
2218.7569234953
 21
803.6837152028
 31
0.0
  0
LINE
  5
2E3
  8
0
  6
CONTINUOUS
 62
     7
 10
2218.922087966
 20
668.2367197061
 30
0.0
 11
1740.7152299271
 21
668.2367197061
 31
0.0
  0
LINE
  5
2E4
  8
0
  6
CONTINUOUS
 62
     7
 10
2218.7569234953
 20
708.2367113614
 30
0.0
 11
1740.7152299271
 21
708.2367113614
 31
0.0
  0
LINE
  5
2E5
  8
0
  6
CONTINUOUS
 62
     7
 10
764.0872095213
 20
788.2367244744
 30
0.0
 11
764.0872095213
 21
708.2367113614
 31
0.0
  0
LINE
  5
2E6
  8
0
  6
CONTINUOUS
 62
     7
 10
1242.1289030896
 20
668.2367197061
 30
0.0
 11
867.2447298155
 21
668.2367197061
 31
0.0
  0
LINE
  5
2E7
  8
0
  6
CONTINUOUS
 62
     7
 10
839.3167946921
 20
668.2367197061
 30
0.0
 11
763.9220450507
 21
668.2367197061
 31
0.0
  0
LINE
  5
2E8
  8
0
  6
CONTINUOUS
 62
     7
 10
1242.1289030896
 20
708.2367113614
 30
0.0
 11
882.7251289473
 21
708.2367113614
 31
0.0
  0
LINE
  5
2E9
  8
0
  6
CONTINUOUS
 62
     7
 10
856.4618919478
 20
708.2367113614
 30
0.0
 11
764.0872095213
 21
708.2367113614
 31
0.0
  0
LINE
  5
2EA
  8
0
  6
CONTINUOUS
 62
     7
 10
2155.422041236
 20
1293.2367197061
 30
0.0
 11
827.4220917807
 21
1293.2367197061
 31
0.0
  0
LINE
  5
2EB
  8
0
  6
CONTINUOUS
 62
     7
 10
2155.422041236
 20
663.2367244744
 30
0.0
 11
864.8291323767
 21
663.2367244744
 31
0.0
  0
LINE
  5
2EC
  8
0
  6
CONTINUOUS
 62
     7
 10
836.6210554228
 20
663.2367244744
 30
0.0
 11
827.4220917807
 21
663.2367244744
 31
0.0
  0
ARC
  5
2ED
  8
0
  6
CONTINUOUS
 62
     7
 10
1390.0967147512
 20
1239.3556767995
 30
0.0
 40
77.83368903068707
 50
357.7034163054
 51
6.5518891409
  0
LINE
  5
2EE
  8
0
  6
CONTINUOUS
 62
     7
 10
1467.8678866909
 20
1236.2367085004
 30
0.0
 11
857.6115463362
 21
1236.2367085004
 31
0.0
  0
ARC
  5
2EF
  8
0
  6
CONTINUOUS
 62
     7
 10
845.6098432402
 20
1236.2350297375
 30
0.0
 40
12.00170321337681
 50
0.0080143651
 51
90.0084895145
  0
ARC
  5
2F0
  8
0
  6
CONTINUOUS
 62
     7
 10
1599.3737397369
 20
1239.1094981959
 30
0.0
 40
84.44637241896137
 50
173.7951674735
 51
181.9495270802
  0
ARC
  5
2F1
  8
0
  6
CONTINUOUS
 62
     7
 10
2137.2342570229
 20
1236.2350625004
 30
0.0
 40
12.00167045536542
 50
89.9913540977
 51
179.9921420226
  0
LINE
  5
2F2
  8
0
  6
CONTINUOUS
 62
     7
 10
2125.2325866804
 20
1236.2367085004
 30
0.0
 11
1514.9762463258
 21
1236.2367085004
 31
0.0
  0
LINE
  5
2F3
  8
0
  6
CONTINUOUS
 62
     7
 10
1479.422066404
 20
720.2367356801
 30
0.0
 11
1467.8678866909
 21
720.2367356801
 31
0.0
  0
LINE
  5
2F4
  8
0
  6
CONTINUOUS
 62
     7
 10
1467.8678866909
 20
720.2367356801
 30
0.0
 11
1467.8678866909
 21
1236.2367085004
 31
0.0
  0
LINE
  5
2F5
  8
0
  6
CONTINUOUS
 62
     7
 10
1479.422066404
 20
1236.2367085004
 30
0.0
 11
1467.8678866909
 21
1236.2367085004
 31
0.0
  0
LINE
  5
2F6
  8
0
  6
CONTINUOUS
 62
     7
 10
1514.9762463258
 20
1236.2367085004
 30
0.0
 11
1514.9762463258
 21
720.2367356801
 31
0.0
  0
LINE
  5
2F7
  8
0
  6
CONTINUOUS
 62
     7
 10
1514.9762463258
 20
720.2367356801
 30
0.0
 11
1503.4220666126
 21
720.2367356801
 31
0.0
  0
LINE
  5
2F8
  8
0
  6
CONTINUOUS
 62
     7
 10
1514.9762463258
 20
1236.2367085004
 30
0.0
 11
1503.4220666126
 21
1236.2367085004
 31
0.0
  0
ARC
  5
2F9
  8
0
  6
CONTINUOUS
 62
     7
 10
1592.7474182655
 20
717.117767381
 30
0.0
 40
77.83368903068707
 50
177.7034163054
 51
186.5518891409
  0
LINE
  5
2FA
  8
0
  6
CONTINUOUS
 62
     7
 10
2125.2325866804
 20
720.2367356801
 30
0.0
 11
1514.9762463258
 21
720.2367356801
 31
0.0
  0
ARC
  5
2FB
  8
0
  6
CONTINUOUS
 62
     7
 10
2137.2346300141
 20
720.2387547787
 30
0.0
 40
12.00204350344502
 50
180.0096388443
 51
270.0068650353
  0
ARC
  5
2FC
  8
0
  6
CONTINUOUS
 62
     7
 10
1383.4703932797
 20
717.3639459846
 30
0.0
 40
84.44637241896115
 50
353.7951674735
 51
1.9495270802
  0
ARC
  5
2FD
  8
0
  6
CONTINUOUS
 62
     7
 10
845.6098432402
 20
720.2384144431
 30
0.0
 40
12.0017032133767
 50
269.9915104855
 51
359.9919856349
  0
LINE
  5
2FE
  8
0
  6
CONTINUOUS
 62
     7
 10
1531.1665479527
 20
969.1470640534
 30
0.0
 11
1531.1665479527
 21
946.9392209137
 31
0.0
  0
ARC
  5
2FF
  8
0
  6
CONTINUOUS
 62
     7
 10
1531.4910453782
 20
969.1472370073
 30
0.0
 40
0.3244974716096962
 50
112.3650433951
 51
180.0305380684
  0
LINE
  5
300
  8
0
  6
CONTINUOUS
 62
     7
 10
1551.8779699192
 20
977.9364612475
 30
0.0
 11
1531.3675720678
 21
969.4473252455
 31
0.0
  0
ARC
  5
301
  8
0
  6
CONTINUOUS
 62
     7
 10
1551.7534226506
 20
978.2367220903
 30
0.0
 40
0.3250670635835869
 50
292.5285225465
 51
67.4714774535
  0
LINE
  5
302
  8
0
  6
CONTINUOUS
 62
     7
 10
1531.3675720678
 20
987.0261189351
 30
0.0
 11
1551.8779699192
 21
978.536982933
 31
0.0
  0
ARC
  5
303
  8
0
  6
CONTINUOUS
 62
     7
 10
1531.4910450736
 20
987.3262069693
 30
0.0
 40
0.3244971670920513
 50
179.9694258926
 51
247.634992644
  0
LINE
  5
304
  8
0
  6
CONTINUOUS
 62
     7
 10
1531.1665479527
 20
1011.2892224276
 30
0.0
 11
1531.1665479527
 21
987.3263801271
 31
0.0
  0
ARC
  5
305
  8
0
  6
CONTINUOUS
 62
     7
 10
1531.4918642652
 20
1011.2889041702
 30
0.0
 40
0.3253164681783349
 50
89.9432023072
 51
179.9439474759
  0
LINE
  5
306
  8
0
  6
CONTINUOUS
 62
     7
 10
1537.3518150733
 20
1011.6142204786
 30
0.0
 11
1531.4921867535
 21
1011.6142204786
 31
0.0
  0
ARC
  5
307
  8
0
  6
CONTINUOUS
 62
     7
 10
1537.3520322033
 20
1011.2890111531
 30
0.0
 40
0.3252093979415505
 50
0.037222601
 51
90.038254225
  0
LINE
  5
308
  8
0
  6
CONTINUOUS
 62
     7
 10
1537.6772415326
 20
991.6695414865
 30
0.0
 11
1537.6772415326
 21
1011.2892224276
 31
0.0
  0
ARC
  5
309
  8
0
  6
CONTINUOUS
 62
     7
 10
1538.0017410231
 20
991.6693116681
 30
0.0
 40
0.3244995718463254
 50
179.9594217484
 51
247.6076842163
  0
LINE
  5
30A
  8
0
  6
CONTINUOUS
 62
     7
 10
1562.1675495491
 20
981.3044111067
 30
0.0
 11
1537.8781240866
 21
991.3692802945
 31
0.0
  0
ARC
  5
30B
  8
0
  6
CONTINUOUS
 62
     7
 10
1562.0432274368
 20
981.0046817745
 30
0.0
 40
0.3244898461094864
 50
359.9061295968
 51
67.4722419583
  0
LINE
  5
30C
  8
0
  6
CONTINUOUS
 62
     7
 10
1562.3677168475
 20
975.469294033
 30
0.0
 11
1562.3677168475
 21
981.0041501475
 31
0.0
  0
ARC
  5
30D
  8
0
  6
CONTINUOUS
 62
     7
 10
1562.0432233922
 20
975.4687651024
 30
0.0
 40
0.3244938863733697
 50
292.5282353067
 51
0.0933931383
  0
LINE
  5
30E
  8
0
  6
CONTINUOUS
 62
     7
 10
1537.8781240866
 20
965.104163886
 30
0.0
 11
1562.1675495491
 21
975.1690330738
 31
0.0
  0
ARC
  5
30F
  8
0
  6
CONTINUOUS
 62
     7
 10
1538.0017345211
 20
964.8041368624
 30
0.0
 40
0.3244930730242654
 50
112.3915468973
 51
180.0413471379
  0
LINE
  5
310
  8
0
  6
CONTINUOUS
 62
     7
 10
1537.6772415326
 20
946.9392209137
 30
0.0
 11
1537.6772415326
 21
964.803902694
 31
0.0
  0
ARC
  5
311
  8
0
  6
CONTINUOUS
 62
     7
 10
1537.352028462
 20
946.9394359344
 30
0.0
 40
0.3252131417098605
 50
269.9624053571
 51
359.962117817
  0
LINE
  5
312
  8
0
  6
CONTINUOUS
 62
     7
 10
1537.3518150733
 20
946.6142228627
 30
0.0
 11
1531.4921867535
 21
946.6142228627
 31
0.0
  0
ARC
  5
313
  8
0
  6
CONTINUOUS
 62
     7
 10
1531.4918680063
 20
946.9395429195
 30
0.0
 40
0.3253202129386513
 50
180.0567120604
 51
270.0561381564
  0
LINE
  5
314
  8
0
  6
CONTINUOUS
 62
     7
 10
1531.0104396627
 20
1011.2892224276
 30
0.0
 11
1531.1665479527
 21
1011.2892224276
 31
0.0
  0
ARC
  5
315
  8
0
  6
CONTINUOUS
 62
     7
 10
1531.3351521217
 20
1011.2895080841
 30
0.0
 40
0.3247125846228908
 50
90.0620105737
 51
180.0504043072
  0
LINE
  5
316
  8
0
  6
CONTINUOUS
 62
     7
 10
1531.334800689
 20
1011.6142204786
 30
0.0
 11
1531.4921867535
 21
1011.6142204786
 31
0.0
  0
LINE
  5
317
  8
0
  6
CONTINUOUS
 62
     7
 10
1531.0104396627
 20
987.3263801271
 30
0.0
 11
1531.1665479527
 21
987.3263801271
 31
0.0
  0
LINE
  5
318
  8
0
  6
CONTINUOUS
 62
     7
 10
1531.0104396627
 20
1011.2892224276
 30
0.0
 11
1531.0104396627
 21
987.3263801271
 31
0.0
  0
LINE
  5
319
  8
0
  6
CONTINUOUS
 62
     7
 10
1531.2106740163
 20
987.0261189351
 30
0.0
 11
1531.3675720678
 21
987.0261189351
 31
0.0
  0
ARC
  5
31A
  8
0
  6
CONTINUOUS
 62
     7
 10
1531.3370767335
 20
987.3273082285
 30
0.0
 40
0.3266383893216911
 50
180.1627988768
 51
247.2332470104
  0
LINE
  5
31B
  8
0
  6
CONTINUOUS
 62
     7
 10
1531.0104396627
 20
946.9392209137
 30
0.0
 11
1531.1665479527
 21
946.9392209137
 31
0.0
  0
LINE
  5
31C
  8
0
  6
CONTINUOUS
 62
     7
 10
1531.0104396627
 20
969.1470640534
 30
0.0
 11
1531.0104396627
 21
946.9392209137
 31
0.0
  0
LINE
  5
31D
  8
0
  6
CONTINUOUS
 62
     7
 10
1531.0104396627
 20
969.1470640534
 30
0.0
 11
1531.1665479527
 21
969.1470640534
 31
0.0
  0
ARC
  5
31E
  8
0
  6
CONTINUOUS
 62
     7
 10
1531.3370853517
 20
969.1461302049
 30
0.0
 40
0.3266470238491589
 50
112.7677567795
 51
179.8361973332
  0
LINE
  5
31F
  8
0
  6
CONTINUOUS
 62
     7
 10
1531.2106740163
 20
969.4473252455
 30
0.0
 11
1531.3675720678
 21
969.4473252455
 31
0.0
  0
LINE
  5
320
  8
0
  6
CONTINUOUS
 62
     7
 10
1531.334800689
 20
946.6142228627
 30
0.0
 11
1531.4921867535
 21
946.6142228627
 31
0.0
  0
ARC
  5
321
  8
0
  6
CONTINUOUS
 62
     7
 10
1531.3351501834
 20
946.9389333227
 30
0.0
 40
0.3247106480070526
 50
179.9492540416
 51
269.9383310774
  0
LINE
  5
322
  8
0
  6
CONTINUOUS
 62
     7
 10
1551.6405161903
 20
978.536982933
 30
0.0
 11
1551.8779699192
 21
978.536982933
 31
0.0
  0
LINE
  5
323
  8
0
  6
CONTINUOUS
 62
     7
 10
1531.2106740163
 20
987.0261189351
 30
0.0
 11
1551.6405161903
 21
978.536982933
 31
0.0
  0
LINE
  5
324
  8
0
  6
CONTINUOUS
 62
     7
 10
1551.6405161903
 20
977.9364612475
 30
0.0
 11
1531.2106740163
 21
969.4473252455
 31
0.0
  0
LINE
  5
325
  8
0
  6
CONTINUOUS
 62
     7
 10
1551.6405161903
 20
977.9364612475
 30
0.0
 11
1551.8779699192
 21
977.9364612475
 31
0.0
  0
ARC
  5
326
  8
0
  6
CONTINUOUS
 62
     7
 10
1540.6985125982
 20
997.6528326143
 30
0.0
 40
12.98254771477975
 50
22.2230133403
 51
62.1885611932
  0
ARC
  5
327
  8
0
  6
CONTINUOUS
 62
     7
 10
1553.0172507282
 20
1002.685764943
 30
0.0
 40
0.3246577379173341
 50
202.2190139299
 51
302.5126017093
  0
LINE
  5
328
  8
0
  6
CONTINUOUS
 62
     7
 10
1561.869228302
 20
1007.9484267914
 30
0.0
 11
1553.1917494223
 21
1002.4119897568
 31
0.0
  0
ARC
  5
329
  8
0
  6
CONTINUOUS
 62
     7
 10
1562.0434593638
 20
1007.6749549482
 30
0.0
 40
0.3242580945812036
 50
359.888781037
 51
122.5015324704
  0
LINE
  5
32A
  8
0
  6
CONTINUOUS
 62
     7
 10
1562.3677168475
 20
1001.3423303896
 30
0.0
 11
1562.3677168475
 21
1007.6743255192
 31
0.0
  0
ARC
  5
32B
  8
0
  6
CONTINUOUS
 62
     7
 10
1562.0424729057
 20
1001.342244672
 30
0.0
 40
0.3252439530931318
 50
302.5957469516
 51
0.0151002372
  0
LINE
  5
32C
  8
0
  6
CONTINUOUS
 62
     7
 10
1553.1004202054
 20
995.2510691071
 30
0.0
 11
1562.217684506
 21
1001.0682291174
 31
0.0
  0
ARC
  5
32D
  8
0
  6
CONTINUOUS
 62
     7
 10
1553.275247642
 20
994.9769766153
 30
0.0
 40
0.3251020249754221
 50
122.5314016397
 51
247.4612531139
  0
LINE
  5
32E
  8
0
  6
CONTINUOUS
 62
     7
 10
1562.1675495491
 20
990.9361035386
 30
0.0
 11
1553.1506333933
 21
994.6767057115
 31
0.0
  0
ARC
  5
32F
  8
0
  6
CONTINUOUS
 62
     7
 10
1562.0432298791
 20
990.6363758357
 30
0.0
 40
0.324487405332099
 50
359.9059645188
 51
67.4725300683
  0
LINE
  5
330
  8
0
  6
CONTINUOUS
 62
     7
 10
1562.3677168475
 20
984.303848614
 30
0.0
 11
1562.3677168475
 21
990.6358432779
 31
0.0
  0
ARC
  5
331
  8
0
  6
CONTINUOUS
 62
     7
 10
1562.0433749624
 20
984.3032892664
 30
0.0
 40
0.3243423673210271
 50
247.5222159622
 51
0.0988099965
  0
LINE
  5
332
  8
0
  6
CONTINUOUS
 62
     7
 10
1540.2793456302
 20
992.9719225326
 30
0.0
 11
1561.9193707095
 21
984.0035878876
 31
0.0
  0
ARC
  5
333
  8
0
  6
CONTINUOUS
 62
     7
 10
1540.4030170514
 20
993.2719299629
 30
0.0
 40
0.3244981951206988
 50
179.9551939599
 51
247.5971788813
  0
LINE
  5
334
  8
0
  6
CONTINUOUS
 62
     7
 10
1540.0785189555
 20
999.6041788542
 30
0.0
 11
1540.0785189555
 21
993.2721837247
 31
0.0
  0
ARC
  5
335
  8
0
  6
CONTINUOUS
 62
     7
 10
1540.4038025689
 20
999.6039351658
 30
0.0
 40
0.3252837046572968
 50
67.4912527045
 51
179.9570764846
  0
LINE
  5
336
  8
0
  6
CONTINUOUS
 62
     7
 10
1547.3821778283
 20
997.0669376487
 30
0.0
 11
1540.5283291326
 21
999.9044391149
 31
0.0
  0
ARC
  5
337
  8
0
  6
CONTINUOUS
 62
     7
 10
1547.5065542665
 20
997.3672040045
 30
0.0
 40
0.3250067427239268
 50
247.4996675438
 51
357.7148509492
  0
ARC
  5
338
  8
0
  6
CONTINUOUS
 62
     7
 10
1540.6861008978
 20
997.6384734498
 30
0.0
 40
7.15085227182753
 50
357.7220966772
 51
92.1646488424
  0
ARC
  5
339
  8
0
  6
CONTINUOUS
 62
     7
 10
1540.4036898501
 20
1005.1091607741
 30
0.0
 40
0.3251709365198454
 50
180.0290996459
 51
272.1696719616
  0
LINE
  5
33A
  8
0
  6
CONTINUOUS
 62
     7
 10
1540.0785189555
 20
1011.2892224276
 30
0.0
 11
1540.0785189555
 21
1005.1089956248
 31
0.0
  0
ARC
  5
33B
  8
0
  6
CONTINUOUS
 62
     7
 10
1540.4036736865
 20
1011.289065751
 30
0.0
 40
0.3251547687564406
 50
89.9711551933
 51
179.972391887
  0
LINE
  5
33C
  8
0
  6
CONTINUOUS
 62
     7
 10
1546.2573226974
 20
1011.6142204786
 30
0.0
 11
1540.4038373814
 21
1011.6142204786
 31
0.0
  0
ARC
  5
33D
  8
0
  6
CONTINUOUS
 62
     7
 10
1546.257360855
 20
1011.2891972565
 30
0.0
 40
0.3250232243125726
 50
0.0044372225
 51
90.0067264891
  0
LINE
  5
33E
  8
0
  6
CONTINUOUS
 62
     7
 10
1546.5823840783
 20
1009.423151874
 30
0.0
 11
1546.5823840783
 21
1011.2892224276
 31
0.0
  0
ARC
  5
33F
  8
0
  6
CONTINUOUS
 62
     7
 10
1546.9071146658
 20
1009.4230032468
 30
0.0
 40
0.3247306214773407
 50
179.9737760891
 51
242.2054634199
  0
LINE
  5
340
  8
0
  6
CONTINUOUS
 62
     7
 10
1539.8874078379
 20
1011.2892224276
 30
0.0
 11
1540.0785189555
 21
1011.2892224276
 31
0.0
  0
ARC
  5
341
  8
0
  6
CONTINUOUS
 62
     7
 10
1540.2119609809
 20
1011.2896674293
 30
0.0
 40
0.3245534480597203
 50
90.089816263
 51
180.0785593985
  0
LINE
  5
342
  8
0
  6
CONTINUOUS
 62
     7
 10
1540.2114522145
 20
1011.6142204786
 30
0.0
 11
1540.4038373814
 21
1011.6142204786
 31
0.0
  0
LINE
  5
343
  8
0
  6
CONTINUOUS
 62
     7
 10
1539.8874078379
 20
1005.1089956248
 30
0.0
 11
1540.0785189555
 21
1005.1089956248
 31
0.0
  0
LINE
  5
344
  8
0
  6
CONTINUOUS
 62
     7
 10
1539.8874078379
 20
1011.2892224276
 30
0.0
 11
1539.8874078379
 21
1005.1089956248
 31
0.0
  0
LINE
  5
345
  8
0
  6
CONTINUOUS
 62
     7
 10
1539.8874078379
 20
993.2721837247
 30
0.0
 11
1540.0785189555
 21
993.2721837247
 31
0.0
  0
LINE
  5
346
  8
0
  6
CONTINUOUS
 62
     7
 10
1539.8874078379
 20
999.6041788542
 30
0.0
 11
1539.8874078379
 21
993.2721837247
 31
0.0
  0
LINE
  5
347
  8
0
  6
CONTINUOUS
 62
     7
 10
1539.8874078379
 20
999.6041788542
 30
0.0
 11
1540.0785189555
 21
999.6041788542
 31
0.0
  0
LINE
  5
348
  8
0
  6
CONTINUOUS
 62
     7
 10
1540.2235668586
 20
1004.7842229539
 30
0.0
 11
1540.4160041795
 21
1004.7842229539
 31
0.0
  0
ARC
  5
349
  8
0
  6
CONTINUOUS
 62
     7
 10
1540.2118514871
 20
1005.1084554682
 30
0.0
 40
0.32444409879683
 50
179.9046100478
 51
272.0693466118
  0
ARC
  5
34A
  8
0
  6
CONTINUOUS
 62
     7
 10
1540.2115598035
 20
999.6048966649
 30
0.0
 40
0.3241527604174876
 50
67.529740583
 51
180.1268770701
  0
LINE
  5
34B
  8
0
  6
CONTINUOUS
 62
     7
 10
1540.0874484763
 20
992.9719225326
 30
0.0
 11
1540.2793456302
 21
992.9719225326
 31
0.0
  0
ARC
  5
34C
  8
0
  6
CONTINUOUS
 62
     7
 10
1540.2140522796
 20
993.2730351248
 30
0.0
 40
0.3266455512635508
 50
180.1493413596
 51
247.1955169056
  0
LINE
  5
34D
  8
0
  6
CONTINUOUS
 62
     7
 10
1540.0785189555
 20
963.2012604559
 30
0.0
 11
1540.0785189555
 21
946.9392209137
 31
0.0
  0
LINE
  5
34E
  8
0
  6
CONTINUOUS
 62
     7
 10
1539.8874078379
 20
946.9392209137
 30
0.0
 11
1540.0785189555
 21
946.9392209137
 31
0.0
  0
LINE
  5
34F
  8
0
  6
CONTINUOUS
 62
     7
 10
1539.8874078379
 20
963.2012604559
 30
0.0
 11
1539.8874078379
 21
946.9392209137
 31
0.0
  0
LINE
  5
350
  8
0
  6
CONTINUOUS
 62
     7
 10
1539.8874078379
 20
963.2012604559
 30
0.0
 11
1540.0785189555
 21
963.2012604559
 31
0.0
  0
ARC
  5
351
  8
0
  6
CONTINUOUS
 62
     7
 10
1540.4030199808
 20
963.2015122583
 30
0.0
 40
0.3245011230208542
 50
112.4031674715
 51
180.0444596873
  0
ARC
  5
352
  8
0
  6
CONTINUOUS
 62
     7
 10
1540.2140550717
 20
963.2004071955
 30
0.0
 40
0.3266483482818879
 50
112.8048081067
 51
179.8503336281
  0
LINE
  5
353
  8
0
  6
CONTINUOUS
 62
     7
 10
1540.0874484763
 20
963.5015216479
 30
0.0
 11
1540.2793456302
 21
963.5015216479
 31
0.0
  0
LINE
  5
354
  8
0
  6
CONTINUOUS
 62
     7
 10
1561.9193707095
 20
972.4698562929
 30
0.0
 11
1540.2793456302
 21
963.5015216479
 31
0.0
  0
ARC
  5
355
  8
0
  6
CONTINUOUS
 62
     7
 10
1562.0433750871
 20
972.1701551002
 30
0.0
 40
0.3243422430222428
 50
359.9011570939
 51
112.4778169473
  0
LINE
  5
356
  8
0
  6
CONTINUOUS
 62
     7
 10
1562.3677168475
 20
965.8376009026
 30
0.0
 11
1562.3677168475
 21
972.1695955666
 31
0.0
  0
ARC
  5
357
  8
0
  6
CONTINUOUS
 62
     7
 10
1562.0432245133
 20
965.8370719219
 30
0.0
 40
0.3244927653077058
 50
292.5281030975
 51
0.0934023155
  0
LINE
  5
358
  8
0
  6
CONTINUOUS
 62
     7
 10
1558.0267701731
 20
963.8188744718
 30
0.0
 11
1562.1675495491
 21
965.5373406419
 31
0.0
  0
ARC
  5
359
  8
0
  6
CONTINUOUS
 62
     7
 10
1558.1509447452
 20
963.5190824967
 30
0.0
 40
0.324491221277056
 50
112.4994567966
 51
180.0828501898
  0
LINE
  5
35A
  8
0
  6
CONTINUOUS
 62
     7
 10
1557.8264538632
 20
953.8341018194
 30
0.0
 11
1557.8264538632
 21
963.5186132798
 31
0.0
  0
ARC
  5
35B
  8
0
  6
CONTINUOUS
 62
     7
 10
1558.1509537417
 20
953.8336376745
 30
0.0
 40
0.3245002104486228
 50
179.9180476547
 51
247.49948127
  0
LINE
  5
35C
  8
0
  6
CONTINUOUS
 62
     7
 10
1562.1675495491
 20
951.8153744573
 30
0.0
 11
1558.0267701731
 21
953.5338396961
 31
0.0
  0
ARC
  5
35D
  8
0
  6
CONTINUOUS
 62
     7
 10
1562.0432274622
 20
951.5156451431
 30
0.0
 40
0.324489819613153
 50
359.9062497173
 51
67.4722448698
  0
LINE
  5
35E
  8
0
  6
CONTINUOUS
 62
     7
 10
1562.3677168475
 20
945.183119067
 30
0.0
 11
1562.3677168475
 21
951.5151141966
 31
0.0
  0
ARC
  5
35F
  8
0
  6
CONTINUOUS
 62
     7
 10
1562.0433727616
 20
945.1825616113
 30
0.0
 40
0.3243445648855161
 50
247.5227973257
 51
0.0984751286
  0
LINE
  5
360
  8
0
  6
CONTINUOUS
 62
     7
 10
1547.0318180011
 20
951.0557710016
 30
0.0
 11
1561.9193707095
 21
944.8828569436
 31
0.0
  0
ARC
  5
361
  8
0
  6
CONTINUOUS
 62
     7
 10
1546.9074243751
 20
950.7554754444
 30
0.0
 40
0.3250402987647682
 50
67.4988382874
 51
179.9937781922
  0
LINE
  5
362
  8
0
  6
CONTINUOUS
 62
     7
 10
1546.5823840783
 20
946.9392209137
 30
0.0
 11
1546.5823840783
 21
950.7555107409
 31
0.0
  0
ARC
  5
363
  8
0
  6
CONTINUOUS
 62
     7
 10
1546.257357113
 20
946.9392498274
 30
0.0
 40
0.3250269665318549
 50
269.9939332122
 51
359.9949030763
  0
LINE
  5
364
  8
0
  6
CONTINUOUS
 62
     7
 10
1546.2573226974
 20
946.6142228627
 30
0.0
 11
1540.4038373814
 21
946.6142228627
 31
0.0
  0
ARC
  5
365
  8
0
  6
CONTINUOUS
 62
     7
 10
1540.4036774282
 20
946.9393813357
 30
0.0
 40
0.3251585122792285
 50
180.028267765
 51
270.0281851547
  0
ARC
  5
366
  8
0
  6
CONTINUOUS
 62
     7
 10
1551.4954497101
 20
960.7590550691
 30
0.0
 40
0.3248378441796609
 50
359.9753705542
 51
112.4955800638
  0
LINE
  5
367
  8
0
  6
CONTINUOUS
 62
     7
 10
1551.3711628006
 20
961.0591756934
 30
0.0
 11
1546.3442039178
 21
958.9766173446
 31
0.0
  0
ARC
  5
368
  8
0
  6
CONTINUOUS
 62
     7
 10
1546.4685136759
 20
958.6763570839
 30
0.0
 40
0.3249755992602349
 50
112.4898823975
 51
247.5101176025
  0
LINE
  5
369
  8
0
  6
CONTINUOUS
 62
     7
 10
1546.3442039178
 20
958.3760968232
 30
0.0
 11
1551.3711628006
 21
956.2935384745
 31
0.0
  0
ARC
  5
36A
  8
0
  6
CONTINUOUS
 62
     7
 10
1551.4954497101
 20
956.5936590988
 30
0.0
 40
0.3248378441796611
 50
247.5044199362
 51
0.0246294459
  0
LINE
  5
36B
  8
0
  6
CONTINUOUS
 62
     7
 10
1551.8202875243
 20
956.5937987352
 30
0.0
 11
1551.8202875243
 21
960.7589154327
 31
0.0
  0
LINE
  5
36C
  8
0
  6
CONTINUOUS
 62
     7
 10
1540.2114522145
 20
946.6142228627
 30
0.0
 11
1540.4038373814
 21
946.6142228627
 31
0.0
  0
ARC
  5
36D
  8
0
  6
CONTINUOUS
 62
     7
 10
1540.2119589238
 20
946.938773861
 30
0.0
 40
0.3245513938377347
 50
179.9210780225
 51
269.9105463159
  0
LINE
  5
36E
  8
0
  6
CONTINUOUS
 62
     7
 10
1561.6424698816
 20
984.0035878876
 30
0.0
 11
1561.9193707095
 21
984.0035878876
 31
0.0
  0
LINE
  5
36F
  8
0
  6
CONTINUOUS
 62
     7
 10
1540.0874484763
 20
992.9719225326
 30
0.0
 11
1561.6424698816
 21
984.0035878876
 31
0.0
  0
LINE
  5
370
  8
0
  6
CONTINUOUS
 62
     7
 10
1561.6424698816
 20
972.4698562929
 30
0.0
 11
1540.0874484763
 21
963.5015216479
 31
0.0
  0
LINE
  5
371
  8
0
  6
CONTINUOUS
 62
     7
 10
1561.6424698816
 20
972.4698562929
 30
0.0
 11
1561.9193707095
 21
972.4698562929
 31
0.0
  0
LINE
  5
372
  8
0
  6
CONTINUOUS
 62
     7
 10
1547.6097409115
 20
997.354245075
 30
0.0
 11
1547.831302552
 21
997.354245075
 31
0.0
  0
ARC
  5
373
  8
0
  6
CONTINUOUS
 62
     7
 10
1540.4790353786
 20
997.651882169
 30
0.0
 40
7.136914546034626
 50
357.6098499831
 51
92.0513620436
  0
LINE
  5
374
  8
0
  6
CONTINUOUS
 62
     7
 10
1546.8133967803
 20
951.0557710016
 30
0.0
 11
1547.0318180011
 21
951.0557710016
 31
0.0
  0
LINE
  5
375
  8
0
  6
CONTINUOUS
 62
     7
 10
1561.6424698816
 20
944.8828569436
 30
0.0
 11
1561.9193707095
 21
944.8828569436
 31
0.0
  0
LINE
  5
376
  8
0
  6
CONTINUOUS
 62
     7
 10
1546.8133967803
 20
951.0557710016
 30
0.0
 11
1561.6424698816
 21
944.8828569436
 31
0.0
  0
ARC
  5
377
  8
0
  6
CONTINUOUS
 62
     7
 10
1547.2861419174
 20
997.3661734623
 30
0.0
 40
0.3238187693927899
 50
247.5306652558
 51
357.8889398185
  0
ARC
  5
378
  8
0
  6
CONTINUOUS
 62
     7
 10
1551.2593519724
 20
960.7600126088
 30
0.0
 40
0.3237109249920131
 50
359.8058030408
 51
112.4568606073
  0
LINE
  5
379
  8
0
  6
CONTINUOUS
 62
     7
 10
1551.583061038
 20
960.7589154327
 30
0.0
 11
1551.8202875243
 21
960.7589154327
 31
0.0
  0
ARC
  5
37A
  8
0
  6
CONTINUOUS
 62
     7
 10
1551.2593519724
 20
956.5927015591
 30
0.0
 40
0.3237109249920131
 50
247.5431393927
 51
0.1941969592
  0
LINE
  5
37B
  8
0
  6
CONTINUOUS
 62
     7
 10
1551.583061038
 20
956.5937987352
 30
0.0
 11
1551.8202875243
 21
956.5937987352
 31
0.0
  0
ARC
  5
37C
  8
0
  6
CONTINUOUS
 62
     7
 10
1551.5148296798
 20
978.2367220903
 30
0.0
 40
0.3255052574456502
 50
292.7137507222
 51
67.2862492778
  0
LINE
  5
37D
  8
0
  6
CONTINUOUS
 62
     7
 10
1551.583061038
 20
956.5937987352
 30
0.0
 11
1551.583061038
 21
960.7589154327
 31
0.0
  0
LINE
  5
37E
  8
0
  6
CONTINUOUS
 62
     7
 10
857.6115463362
 20
868.9492589617
 30
0.0
 11
857.6115463362
 21
804.2367270971
 31
0.0
  0
LINE
  5
37F
  8
0
  6
CONTINUOUS
 62
     7
 10
857.6115463362
 20
788.2367244744
 30
0.0
 11
857.6115463362
 21
720.2367356801
 31
0.0
  0
POLYLINE
  5
380
  8
0
  6
CONTINUOUS
 62
     7
 66
     1
 10
0.0
 20
0.0
 30
0.0
  0
VERTEX
  5
4D7
  8
0
  6
CONTINUOUS
 62
     7
 10
867.4448822127
 20
965.736721904
 30
0.0
  0
VERTEX
  5
4D8
  8
0
  6
CONTINUOUS
 62
     7
 10
867.1874497519
 20
956.6371890539
 30
0.0
  0
VERTEX
  5
4D9
  8
0
  6
CONTINUOUS
 62
     7
 10
866.8004367934
 20
947.6616608733
 30
0.0
  0
VERTEX
  5
4DA
  8
0
  6
CONTINUOUS
 62
     7
 10
866.2980292425
 20
938.9040305102
 30
0.0
  0
VERTEX
  5
4DB
  8
0
  6
CONTINUOUS
 62
     7
 10
865.694234191
 20
930.4581901813
 30
0.0
  0
VERTEX
  5
4DC
  8
0
  6
CONTINUOUS
 62
     7
 10
865.4501531706
 20
927.6021889234
 30
0.0
  0
SEQEND
  5
54D
  8
0
  6
CONTINUOUS
 62
     7
  0
ARC
  5
381
  8
0
  6
CONTINUOUS
 62
     7
 10
646.4412123916
 20
911.8368425477
 30
0.0
 40
215.4814487702668
 50
348.5196738506
 51
350.4837373962
  0
LINE
  5
382
  8
0
  6
CONTINUOUS
 62
     7
 10
881.4818952666
 20
990.7367222765
 30
0.0
 11
881.4818952666
 21
965.736721904
 31
0.0
  0
POLYLINE
  5
383
  8
0
  6
CONTINUOUS
 62
     7
 66
     1
 10
0.0
 20
0.0
 30
0.0
  0
VERTEX
  5
4DD
  8
0
  6
CONTINUOUS
 62
     7
 10
857.6115463362
 20
1087.5241852188
 30
0.0
  0
VERTEX
  5
4DE
  8
0
  6
CONTINUOUS
 62
     7
 10
857.901701747
 20
1086.0872662449
 30
0.0
  0
VERTEX
  5
4DF
  8
0
  6
CONTINUOUS
 62
     7
 10
858.3158348189
 20
1083.8859996581
 30
0.0
  0
VERTEX
  5
4E0
  8
0
  6
CONTINUOUS
 62
     7
 10
858.8402960882
 20
1080.9489733362
 30
0.0
  0
VERTEX
  5
4E1
  8
0
  6
CONTINUOUS
 62
     7
 10
859.4611380682
 20
1077.3047528052
 30
0.0
  0
VERTEX
  5
4E2
  8
0
  6
CONTINUOUS
 62
     7
 10
860.1659629927
 20
1072.961548605
 30
0.0
  0
VERTEX
  5
4E3
  8
0
  6
CONTINUOUS
 62
     7
 10
860.9364126311
 20
1067.9421520615
 30
0.0
  0
VERTEX
  5
4E4
  8
0
  6
CONTINUOUS
 62
     7
 10
861.7488239394
 20
1062.3018986368
 30
0.0
  0
VERTEX
  5
4E5
  8
0
  6
CONTINUOUS
 62
     7
 10
862.5795934782
 20
1056.096108892
 30
0.0
  0
VERTEX
  5
4E6
  8
0
  6
CONTINUOUS
 62
     7
 10
863.4168599234
 20
1049.2735377336
 30
0.0
  0
VERTEX
  5
4E7
  8
0
  6
CONTINUOUS
 62
     7
 10
864.2326090918
 20
1041.9189057136
 30
0.0
  0
VERTEX
  5
4E8
  8
0
  6
CONTINUOUS
 62
     7
 10
865.0022838698
 20
1034.1108760619
 30
0.0
  0
VERTEX
  5
4E9
  8
0
  6
CONTINUOUS
 62
     7
 10
865.7010887251
 20
1025.9281194592
 30
0.0
  0
VERTEX
  5
4EA
  8
0
  6
CONTINUOUS
 62
     7
 10
866.3024399863
 20
1017.5015239799
 30
0.0
  0
VERTEX
  5
4EB
  8
0
  6
CONTINUOUS
 62
     7
 10
866.8028209791
 20
1008.7653084481
 30
0.0
  0
VERTEX
  5
4EC
  8
0
  6
CONTINUOUS
 62
     7
 10
867.1883438216
 20
999.8126498246
 30
0.0
  0
VERTEX
  5
4ED
  8
0
  6
CONTINUOUS
 62
     7
 10
867.4448822127
 20
990.7367222765
 30
0.0
  0
SEQEND
  5
54C
  8
0
  6
CONTINUOUS
 62
     7
  0
LINE
  5
384
  8
0
  6
CONTINUOUS
 62
     7
 10
857.6115463362
 20
1236.2367085004
 30
0.0
 11
857.6115463362
 21
1087.5241852188
 31
0.0
  0
POLYLINE
  5
385
  8
0
  6
CONTINUOUS
 62
     7
 66
     1
 10
0.0
 20
0.0
 30
0.0
  0
VERTEX
  5
4EE
  8
0
  6
CONTINUOUS
 62
     7
 10
2125.2325866804
 20
1087.5241852188
 30
0.0
  0
VERTEX
  5
4EF
  8
0
  6
CONTINUOUS
 62
     7
 10
2124.9424312697
 20
1086.0872662449
 30
0.0
  0
VERTEX
  5
4F0
  8
0
  6
CONTINUOUS
 62
     7
 10
2124.5282981978
 20
1083.8859996581
 30
0.0
  0
VERTEX
  5
4F1
  8
0
  6
CONTINUOUS
 62
     7
 10
2124.0038369284
 20
1080.9489733362
 30
0.0
  0
VERTEX
  5
4F2
  8
0
  6
CONTINUOUS
 62
     7
 10
2123.3829949484
 20
1077.3047528052
 30
0.0
  0
VERTEX
  5
4F3
  8
0
  6
CONTINUOUS
 62
     7
 10
2122.6781700239
 20
1072.961548605
 30
0.0
  0
VERTEX
  5
4F4
  8
0
  6
CONTINUOUS
 62
     7
 10
2121.9077203856
 20
1067.9421520615
 30
0.0
  0
VERTEX
  5
4F5
  8
0
  6
CONTINUOUS
 62
     7
 10
2121.0953090773
 20
1062.3018986368
 30
0.0
  0
VERTEX
  5
4F6
  8
0
  6
CONTINUOUS
 62
     7
 10
2120.2645395384
 20
1056.096108892
 30
0.0
  0
VERTEX
  5
4F7
  8
0
  6
CONTINUOUS
 62
     7
 10
2119.4272730933
 20
1049.2735377336
 30
0.0
  0
VERTEX
  5
4F8
  8
0
  6
CONTINUOUS
 62
     7
 10
2118.6115239249
 20
1041.9189057136
 30
0.0
  0
VERTEX
  5
4F9
  8
0
  6
CONTINUOUS
 62
     7
 10
2117.8418491469
 20
1034.1108760619
 30
0.0
  0
VERTEX
  5
4FA
  8
0
  6
CONTINUOUS
 62
     7
 10
2117.1430442915
 20
1025.9281194592
 30
0.0
  0
VERTEX
  5
4FB
  8
0
  6
CONTINUOUS
 62
     7
 10
2116.5416930304
 20
1017.5015239799
 30
0.0
  0
VERTEX
  5
4FC
  8
0
  6
CONTINUOUS
 62
     7
 10
2116.0413120375
 20
1008.7653084481
 30
0.0
  0
VERTEX
  5
4FD
  8
0
  6
CONTINUOUS
 62
     7
 10
2115.6557891951
 20
999.8126498246
 30
0.0
  0
VERTEX
  5
4FE
  8
0
  6
CONTINUOUS
 62
     7
 10
2115.399250804
 20
990.7367222765
 30
0.0
  0
SEQEND
  5
54B
  8
0
  6
CONTINUOUS
 62
     7
  0
LINE
  5
386
  8
0
  6
CONTINUOUS
 62
     7
 10
2101.3622377501
 20
990.7367222765
 30
0.0
 11
2101.3622377501
 21
965.736721904
 31
0.0
  0
POLYLINE
  5
387
  8
0
  6
CONTINUOUS
 62
     7
 66
     1
 10
0.0
 20
0.0
 30
0.0
  0
VERTEX
  5
4FF
  8
0
  6
CONTINUOUS
 62
     7
 10
2115.399250804
 20
965.736721904
 30
0.0
  0
VERTEX
  5
500
  8
0
  6
CONTINUOUS
 62
     7
 10
2115.6566832648
 20
956.6371890539
 30
0.0
  0
VERTEX
  5
501
  8
0
  6
CONTINUOUS
 62
     7
 10
2116.0436962233
 20
947.6616608733
 30
0.0
  0
VERTEX
  5
502
  8
0
  6
CONTINUOUS
 62
     7
 10
2116.5461037741
 20
938.9040305102
 30
0.0
  0
VERTEX
  5
503
  8
0
  6
CONTINUOUS
 62
     7
 10
2117.1498988257
 20
930.4581901813
 30
0.0
  0
VERTEX
  5
504
  8
0
  6
CONTINUOUS
 62
     7
 10
2117.8419087515
 20
922.3613313222
 30
0.0
  0
VERTEX
  5
505
  8
0
  6
CONTINUOUS
 62
     7
 10
2118.6033580885
 20
914.6318233395
 30
0.0
  0
VERTEX
  5
506
  8
0
  6
CONTINUOUS
 62
     7
 10
2119.4101665602
 20
907.345967629
 30
0.0
  0
VERTEX
  5
507
  8
0
  6
CONTINUOUS
 62
     7
 10
2120.2384923086
 20
900.5800879383
 30
0.0
  0
VERTEX
  5
508
  8
0
  6
CONTINUOUS
 62
     7
 10
2121.0768912421
 20
894.3037411952
 30
0.0
  0
VERTEX
  5
509
  8
0
  6
CONTINUOUS
 62
     7
 10
2121.8971703635
 20
888.601960876
 30
0.0
  0
VERTEX
  5
50A
  8
0
  6
CONTINUOUS
 62
     7
 10
2122.6750109778
 20
883.5316396141
 30
0.0
  0
VERTEX
  5
50B
  8
0
  6
CONTINUOUS
 62
     7
 10
2123.3861539946
 20
879.1496849442
 30
0.0
  0
VERTEX
  5
50C
  8
0
  6
CONTINUOUS
 62
     7
 10
2124.005923091
 20
875.5126765752
 30
0.0
  0
VERTEX
  5
50D
  8
0
  6
CONTINUOUS
 62
     7
 10
2124.529430686
 20
872.581305244
 30
0.0
  0
VERTEX
  5
50E
  8
0
  6
CONTINUOUS
 62
     7
 10
2124.9428485022
 20
870.3840098167
 30
0.0
  0
VERTEX
  5
50F
  8
0
  6
CONTINUOUS
 62
     7
 10
2125.2325866804
 20
868.9492589617
 30
0.0
  0
SEQEND
  5
54A
  8
0
  6
CONTINUOUS
 62
     7
  0
LINE
  5
388
  8
0
  6
CONTINUOUS
 62
     7
 10
2125.2325866804
 20
868.9492589617
 30
0.0
 11
2125.2325866804
 21
720.2367356801
 31
0.0
  0
LINE
  5
389
  8
0
  6
CONTINUOUS
 62
     7
 10
2125.2325866804
 20
1236.2367085004
 30
0.0
 11
2125.2325866804
 21
1087.5241852188
 31
0.0
  0
ARC
  5
38A
  8
0
  6
CONTINUOUS
 62
     7
 10
1561.7499827203
 20
1007.7261955905
 30
0.0
 40
0.2723572913240306
 50
86.4839342144
 51
125.3181338717
  0
LINE
  5
38B
  8
0
  6
CONTINUOUS
 62
     7
 10
1561.5925286398
 20
1007.9484267914
 30
0.0
 11
1552.9491361664
 21
1002.4119897568
 31
0.0
  0
LINE
  5
38C
  8
0
  6
CONTINUOUS
 62
     7
 10
1552.9491361664
 20
1002.4119897568
 30
0.0
 11
1553.1917494223
 21
1002.4119897568
 31
0.0
  0
LINE
  5
38D
  8
0
  6
CONTINUOUS
 62
     7
 10
1561.5925286398
 20
1007.9484267914
 30
0.0
 11
1561.869228302
 21
1007.9484267914
 31
0.0
  0
POLYLINE
  5
38E
  8
0
  6
CONTINUOUS
 62
     7
 66
     1
 10
0.0
 20
0.0
 30
0.0
  0
VERTEX
  5
510
  8
0
  6
CONTINUOUS
 62
     7
 10
603.1183693991
 20
521.3026574636
 30
0.0
  0
VERTEX
  5
511
  8
0
  6
CONTINUOUS
 62
     7
 10
602.9736493216
 20
521.3201216245
 30
0.0
  0
VERTEX
  5
512
  8
0
  6
CONTINUOUS
 62
     7
 10
601.5634630308
 20
521.0356882596
 30
0.0
  0
VERTEX
  5
513
  8
0
  6
CONTINUOUS
 62
     7
 10
599.2825124846
 20
520.4475394273
 30
0.0
  0
VERTEX
  5
514
  8
0
  6
CONTINUOUS
 62
     7
 10
597.2549412833
 20
520.0994483018
 30
0.0
  0
VERTEX
  5
515
  8
0
  6
CONTINUOUS
 62
     7
 10
595.0353835211
 20
520.0604668641
 30
0.0
  0
VERTEX
  5
516
  8
0
  6
CONTINUOUS
 62
     7
 10
593.2273362265
 20
520.3059187913
 30
0.0
  0
VERTEX
  5
517
  8
0
  6
CONTINUOUS
 62
     7
 10
590.9445379362
 20
520.8597651506
 30
0.0
  0
VERTEX
  5
518
  8
0
  6
CONTINUOUS
 62
     7
 10
589.1732071028
 20
521.2809017682
 30
0.0
  0
VERTEX
  5
519
  8
0
  6
CONTINUOUS
 62
     7
 10
588.7707565413
 20
521.2741068387
 30
0.0
  0
SEQEND
  5
549
  8
0
  6
CONTINUOUS
 62
     7
  0
POLYLINE
  5
38F
  8
0
  6
CONTINUOUS
 62
     7
 66
     1
 10
0.0
 20
0.0
 30
0.0
  0
VERTEX
  5
51A
  8
0
  6
CONTINUOUS
 62
     7
 10
321.0073803053
 20
789.0030464912
 30
0.0
  0
VERTEX
  5
51B
  8
0
  6
CONTINUOUS
 62
     7
 10
320.8303545103
 20
790.1545039201
 30
0.0
  0
VERTEX
  5
51C
  8
0
  6
CONTINUOUS
 62
     7
 10
320.2997539625
 20
792.1888253474
 30
0.0
  0
VERTEX
  5
51D
  8
0
  6
CONTINUOUS
 62
     7
 10
319.8568914519
 20
794.3274847055
 30
0.0
  0
VERTEX
  5
51E
  8
0
  6
CONTINUOUS
 62
     7
 10
319.7144363509
 20
796.2458750987
 30
0.0
  0
VERTEX
  5
51F
  8
0
  6
CONTINUOUS
 62
     7
 10
319.8598716841
 20
798.166023829
 30
0.0
  0
VERTEX
  5
520
  8
0
  6
CONTINUOUS
 62
     7
 10
320.3178737746
 20
800.3551832223
 30
0.0
  0
VERTEX
  5
521
  8
0
  6
CONTINUOUS
 62
     7
 10
320.8798263655
 20
802.5365940118
 30
0.0
  0
VERTEX
  5
522
  8
0
  6
CONTINUOUS
 62
     7
 10
321.0090492354
 20
803.3290973687
 30
0.0
  0
VERTEX
  5
523
  8
0
  6
CONTINUOUS
 62
     7
 10
321.0011814223
 20
803.4550568843
 30
0.0
  0
SEQEND
  5
548
  8
0
  6
CONTINUOUS
 62
     7
  0
POLYLINE
  5
390
  8
0
  6
CONTINUOUS
 62
     7
 66
     1
 10
0.0
 20
0.0
 30
0.0
  0
VERTEX
  5
524
  8
0
  6
CONTINUOUS
 62
     7
 10
588.6828992949
 20
1071.1427799249
 30
0.0
  0
VERTEX
  5
525
  8
0
  6
CONTINUOUS
 62
     7
 10
588.6877272711
 20
1071.1415803814
 30
0.0
  0
VERTEX
  5
526
  8
0
  6
CONTINUOUS
 62
     7
 10
589.9643395529
 20
1071.3582581663
 30
0.0
  0
VERTEX
  5
527
  8
0
  6
CONTINUOUS
 62
     7
 10
592.0707676993
 20
1071.9084611917
 30
0.0
  0
VERTEX
  5
528
  8
0
  6
CONTINUOUS
 62
     7
 10
594.1741560088
 20
1072.3244271064
 30
0.0
  0
VERTEX
  5
529
  8
0
  6
CONTINUOUS
 62
     7
 10
596.0858557806
 20
1072.4432489658
 30
0.0
  0
VERTEX
  5
52A
  8
0
  6
CONTINUOUS
 62
     7
 10
597.980687438
 20
1072.2793585444
 30
0.0
  0
VERTEX
  5
52B
  8
0
  6
CONTINUOUS
 62
     7
 10
600.1889203177
 20
1071.8025884414
 30
0.0
  0
VERTEX
  5
52C
  8
0
  6
CONTINUOUS
 62
     7
 10
602.0066831694
 20
1071.3278374458
 30
0.0
  0
VERTEX
  5
52D
  8
0
  6
CONTINUOUS
 62
     7
 10
602.849910079
 20
1071.1668602014
 30
0.0
  0
VERTEX
  5
52E
  8
0
  6
CONTINUOUS
 62
     7
 10
603.1308863745
 20
1071.1642972017
 30
0.0
  0
SEQEND
  5
547
  8
0
  6
CONTINUOUS
 62
     7
  0
POLYLINE
  5
391
  8
0
  6
CONTINUOUS
 62
     7
 66
     1
 10
0.0
 20
0.0
 30
0.0
  0
VERTEX
  5
52F
  8
0
  6
CONTINUOUS
 62
     7
 10
870.8377574072
 20
803.4610024476
 30
0.0
  0
VERTEX
  5
530
  8
0
  6
CONTINUOUS
 62
     7
 10
870.8290551291
 20
803.4192791963
 30
0.0
  0
VERTEX
  5
531
  8
0
  6
CONTINUOUS
 62
     7
 10
871.0658643828
 20
802.1040431047
 30
0.0
  0
VERTEX
  5
532
  8
0
  6
CONTINUOUS
 62
     7
 10
871.6286514387
 20
799.9464294696
 30
0.0
  0
VERTEX
  5
533
  8
0
  6
CONTINUOUS
 62
     7
 10
872.0250819311
 20
797.8668383145
 30
0.0
  0
VERTEX
  5
534
  8
0
  6
CONTINUOUS
 62
     7
 10
872.1265886412
 20
795.9594002748
 30
0.0
  0
VERTEX
  5
535
  8
0
  6
CONTINUOUS
 62
     7
 10
871.9494436369
 20
794.0820625806
 30
0.0
  0
VERTEX
  5
536
  8
0
  6
CONTINUOUS
 62
     7
 10
871.4592550383
 20
791.8602249408
 30
0.0
  0
VERTEX
  5
537
  8
0
  6
CONTINUOUS
 62
     7
 10
870.9883187399
 20
790.0446525598
 30
0.0
  0
VERTEX
  5
538
  8
0
  6
CONTINUOUS
 62
     7
 10
870.8425257788
 20
789.2244032407
 30
0.0
  0
VERTEX
  5
539
  8
0
  6
CONTINUOUS
 62
     7
 10
870.8475921736
 20
789.0251300121
 30
0.0
  0
SEQEND
  5
546
  8
0
  6
CONTINUOUS
 62
     7
  0
CIRCLE
  5
392
  8
0
  6
CONTINUOUS
 62
     7
 10
595.9220665083
 20
796.2367220903
 30
0.0
 40
45.00000000000011
  0
ARC
  5
393
  8
0
  6
CONTINUOUS
 62
     7
 10
595.9220665083
 20
796.2367220903
 30
0.0
 40
46.90000000000006
 50
9.8212927388
 51
80.1787072612
  0
ARC
  5
394
  8
0
  6
CONTINUOUS
 62
     7
 10
595.9220665083
 20
796.2367220903
 30
0.0
 40
46.90000000000006
 50
99.8212927388
 51
170.1787072612
  0
ARC
  5
395
  8
0
  6
CONTINUOUS
 62
     7
 10
595.9220665083
 20
796.2367220903
 30
0.0
 40
46.90000000000001
 50
189.8212927388
 51
260.1787072612
  0
ARC
  5
396
  8
0
  6
CONTINUOUS
 62
     7
 10
595.9220665083
 20
796.2367220903
 30
0.0
 40
46.9
 50
279.8212927388
 51
350.1787072612
  0
ARC
  5
397
  8
0
  6
CONTINUOUS
 62
     7
 10
595.9220665083
 20
796.2367220903
 30
0.0
 40
63.00000000000001
 50
97.2953510849
 51
172.7046489151
  0
ARC
  5
398
  8
0
  6
CONTINUOUS
 62
     7
 10
595.9220665083
 20
796.2367220903
 30
0.0
 40
63.00000000000001
 50
7.2233724482
 51
82.7046489151
  0
ARC
  5
399
  8
0
  6
CONTINUOUS
 62
     7
 10
595.9220665083
 20
796.2367220903
 30
0.0
 40
62.99999999999996
 50
277.2953510849
 51
352.7046489151
  0
ARC
  5
39A
  8
0
  6
CONTINUOUS
 62
     7
 10
595.9220665083
 20
796.2367220903
 30
0.0
 40
63.00000000000004
 50
187.2953510849
 51
262.7046489151
  0
LINE
  5
39B
  8
0
  6
CONTINUOUS
 62
     7
 10
656.422087966
 20
1163.2367244744
 30
0.0
 11
656.422087966
 21
1090.0729841376
 31
0.0
  0
LINE
  5
39C
  8
0
  6
CONTINUOUS
 62
     7
 10
656.422087966
 20
1064.4991866136
 30
0.0
 11
656.422087966
 21
841.2403336549
 31
0.0
  0
LINE
  5
39D
  8
0
  6
CONTINUOUS
 62
     7
 10
656.422087966
 20
841.2403336549
 30
0.0
 11
652.4220798598
 21
841.2403336549
 31
0.0
  0
LINE
  5
39E
  8
0
  6
CONTINUOUS
 62
     7
 10
551.8349502669
 20
841.2403336549
 30
0.0
 11
535.4220960722
 21
841.2403336549
 31
0.0
  0
LINE
  5
39F
  8
0
  6
CONTINUOUS
 62
     7
 10
535.4220960722
 20
1064.4991866136
 30
0.0
 11
535.4220960722
 21
841.2403336549
 31
0.0
  0
LINE
  5
3A0
  8
0
  6
CONTINUOUS
 62
     7
 10
641.4220426665
 20
1092.7662349129
 30
0.0
 11
641.4220426665
 21
1163.2367244744
 31
0.0
  0
LINE
  5
3A1
  8
0
  6
CONTINUOUS
 62
     7
 10
2346.4220855818
 20
1153.23671911
 30
0.0
 11
2346.4220855818
 21
803.2367250705
 31
0.0
  0
LINE
  5
3A2
  8
0
  6
CONTINUOUS
 62
     7
 10
656.422087966
 20
813.8080111528
 30
0.0
 11
656.422087966
 21
841.2403336549
 31
0.0
  0
LINE
  5
3A3
  8
0
  6
CONTINUOUS
 62
     7
 10
2218.7569234953
 20
803.6837152028
 30
0.0
 11
2286.4220831976
 21
803.6837152028
 31
0.0
  0
LINE
  5
3A4
  8
0
  6
CONTINUOUS
 62
     7
 10
2218.7569234953
 20
1152.7897289777
 30
0.0
 11
2286.4220831976
 21
1152.7897289777
 31
0.0
  0
LINE
  5
3A5
  8
0
  6
CONTINUOUS
 62
     7
 10
2286.4220831976
 20
1152.7897289777
 30
0.0
 11
2286.4220831976
 21
803.6837152028
 31
0.0
  0
LINE
  5
3A6
  8
0
  6
CONTINUOUS
 62
     7
 10
764.0872095213
 20
1152.7897289777
 30
0.0
 11
696.422049819
 21
1152.7897289777
 31
0.0
  0
LINE
  5
3A7
  8
0
  6
CONTINUOUS
 62
     7
 10
696.422049819
 20
1152.7897289777
 30
0.0
 11
696.422049819
 21
1078.9021572852
 31
0.0
  0
LINE
  5
3A8
  8
0
  6
CONTINUOUS
 62
     7
 10
696.422049819
 20
1052.2147512818
 30
0.0
 11
696.422049819
 21
804.2367270971
 31
0.0
  0
LINE
  5
3A9
  8
0
  6
CONTINUOUS
 62
     7
 10
2101.3622377501
 20
965.736721904
 30
0.0
 11
2286.4220831976
 21
965.736721904
 31
0.0
  0
LINE
  5
3AA
  8
0
  6
CONTINUOUS
 62
     7
 10
2101.3622377501
 20
990.7367222765
 30
0.0
 11
2286.4220831976
 21
990.7367222765
 31
0.0
  0
LINE
  5
3AB
  8
0
  6
CONTINUOUS
 62
     7
 10
881.4818952666
 20
965.736721904
 30
0.0
 11
843.4493635283
 21
965.736721904
 31
0.0
  0
LINE
  5
3AC
  8
0
  6
CONTINUOUS
 62
     7
 10
812.4740217314
 20
965.736721904
 30
0.0
 11
696.422049819
 21
965.736721904
 31
0.0
  0
LINE
  5
3AD
  8
0
  6
CONTINUOUS
 62
     7
 10
881.4818952666
 20
990.7367222765
 30
0.0
 11
824.3290279494
 21
990.7367222765
 31
0.0
  0
LINE
  5
3AE
  8
0
  6
CONTINUOUS
 62
     7
 10
790.3307769881
 20
990.7367222765
 30
0.0
 11
696.422049819
 21
990.7367222765
 31
0.0
  0
LINE
  5
3AF
  8
0
  6
CONTINUOUS
 62
     7
 10
652.4220798598
 20
843.7367251897
 30
0.0
 11
637.307474433
 21
843.7367251897
 31
0.0
  0
LINE
  5
3B0
  8
0
  6
CONTINUOUS
 62
     7
 10
652.4220798598
 20
824.106963613
 30
0.0
 11
652.4220798598
 21
843.7367251897
 31
0.0
  0
LINE
  5
3B1
  8
0
  6
CONTINUOUS
 62
     7
 10
566.1101434813
 20
740.7367250705
 30
0.0
 11
555.4220769987
 21
740.7367250705
 31
0.0
  0
LINE
  5
3B2
  8
0
  6
CONTINUOUS
 62
     7
 10
555.4220769987
 20
740.7367250705
 30
0.0
 11
555.4220769987
 21
747.9795983815
 31
0.0
  0
LINE
  5
3B3
  8
0
  6
CONTINUOUS
 62
     7
 10
555.4220769987
 20
740.7367250705
 30
0.0
 11
535.4220960722
 21
740.7367250705
 31
0.0
  0
LINE
  5
3B4
  8
0
  6
CONTINUOUS
 62
     7
 10
535.4220960722
 20
740.7367250705
 30
0.0
 11
535.4220960722
 21
778.6654404187
 31
0.0
  0
LINE
  5
3B5
  8
0
  6
CONTINUOUS
 62
     7
 10
535.4220960722
 20
813.8080111528
 30
0.0
 11
535.4220960722
 21
841.2403336549
 31
0.0
  0
LINE
  5
3B6
  8
0
  6
CONTINUOUS
 62
     7
 10
857.6115463362
 20
1087.5241852188
 30
0.0
 11
696.422049819
 21
1087.5241852188
 31
0.0
  0
LINE
  5
3B7
  8
0
  6
CONTINUOUS
 62
     7
 10
2125.2325866804
 20
1087.5241852188
 30
0.0
 11
2286.4220831976
 21
1087.5241852188
 31
0.0
  0
LINE
  5
3B8
  8
0
  6
CONTINUOUS
 62
     7
 10
2125.2325866804
 20
868.9492589617
 30
0.0
 11
2286.4220831976
 21
868.9492589617
 31
0.0
  0
LINE
  5
3B9
  8
0
  6
CONTINUOUS
 62
     7
 10
857.6115463362
 20
868.9492589617
 30
0.0
 11
696.422049819
 21
868.9492589617
 31
0.0
  0
LINE
  5
3BA
  8
0
  6
CONTINUOUS
 62
     7
 10
535.4220960722
 20
1118.2367226863
 30
0.0
 11
535.4220960722
 21
1090.0729841376
 31
0.0
  0
LINE
  5
3BB
  8
0
  6
CONTINUOUS
 62
     7
 10
530.422041236
 20
978.2367220903
 30
0.0
 11
530.422041236
 21
1063.2367229843
 31
0.0
  0
LINE
  5
3BC
  8
0
  6
CONTINUOUS
 62
     7
 10
530.422041236
 20
893.2367211962
 30
0.0
 11
530.422041236
 21
978.2367220903
 31
0.0
  0
LINE
  5
3BD
  8
0
  6
CONTINUOUS
 62
     7
 10
2155.422041236
 20
1290.2367285276
 30
0.0
 11
827.4220917807
 21
1290.2367285276
 31
0.0
  0
LINE
  5
3BE
  8
0
  6
CONTINUOUS
 62
     7
 10
2155.422041236
 20
666.236715653
 30
0.0
 11
866.2921879874
 21
666.236715653
 31
0.0
  0
LINE
  5
3BF
  8
0
  6
CONTINUOUS
 62
     7
 10
838.2544611082
 20
666.236715653
 30
0.0
 11
827.4220917807
 21
666.236715653
 31
0.0
  0
LINE
  5
3C0
  8
0
  6
CONTINUOUS
 62
     7
 10
1467.8678866909
 20
720.2367356801
 30
0.0
 11
886.135766326
 21
720.2367356801
 31
0.0
  0
LINE
  5
3C1
  8
0
  6
CONTINUOUS
 62
     7
 10
860.2116797552
 20
720.2367356801
 30
0.0
 11
857.6115463362
 21
720.2367356801
 31
0.0
  0
ARC
  5
3C2
  8
0
  6
CONTINUOUS
 62
     7
 10
595.9220665083
 20
796.2367220903
 30
0.0
 40
60.80322460224863
 50
97.5604398557
 51
172.4395601443
  0
ARC
  5
3C3
  8
0
  6
CONTINUOUS
 62
     7
 10
595.9220665083
 20
796.2367220903
 30
0.0
 40
60.80322460224863
 50
7.5604398557
 51
82.4395601443
  0
ARC
  5
3C4
  8
0
  6
CONTINUOUS
 62
     7
 10
595.9220665083
 20
796.2367220903
 30
0.0
 40
60.80322460224858
 50
277.5604398557
 51
352.4395601443
  0
ARC
  5
3C5
  8
0
  6
CONTINUOUS
 62
     7
 10
595.9220665083
 20
796.2367220903
 30
0.0
 40
60.80322460224865
 50
187.5604398557
 51
262.4395601443
  0
ARC
  5
3C6
  8
0
  6
CONTINUOUS
 62
     7
 10
595.9220665083
 20
796.2367220903
 30
0.0
 40
62.80200625628676
 50
97.3184765929
 51
172.6815234071
  0
ARC
  5
3C7
  8
0
  6
CONTINUOUS
 62
     7
 10
595.9220665083
 20
796.2367220903
 30
0.0
 40
62.80200625628677
 50
7.3184765929
 51
82.6815234071
  0
ARC
  5
3C8
  8
0
  6
CONTINUOUS
 62
     7
 10
595.9220665083
 20
796.2367220903
 30
0.0
 40
62.80200625628679
 50
277.3184765929
 51
352.6815234071
  0
ARC
  5
3C9
  8
0
  6
CONTINUOUS
 62
     7
 10
595.9220665083
 20
796.2367220903
 30
0.0
 40
62.80200625628678
 50
187.3184765929
 51
262.6815234071
  0
LINE
  5
3CA
  8
0
  6
CONTINUOUS
 62
     7
 10
2326.4220450507
 20
1153.23671911
 30
0.0
 11
2326.4220450507
 21
803.2367250705
 31
0.0
  0
LINE
  5
3CB
  8
0
  6
CONTINUOUS
 62
     7
 10
658.4220622168
 20
1153.23671911
 30
0.0
 11
658.4220622168
 21
1089.6540901447
 31
0.0
  0
LINE
  5
3CC
  8
0
  6
CONTINUOUS
 62
     7
 10
658.4220622168
 20
1064.0402904535
 30
0.0
 11
658.4220622168
 21
804.2367270971
 31
0.0
  0
INSERT
  5
3D8
  8
FORMAT
  2
SW_CENTERMARKSYMBOL_33
 10
595.9220665083
 20
796.2367220903
 30
0.0
  0
ARC
  5
3D9
  8
0
  6
CONTINUOUS
 62
     7
 10
3518.5359619953
 20
3132.6881950698
 30
0.0
 40
12.50000000000045
 50
90.0
 51
270.0
  0
ARC
  5
3DA
  8
0
  6
CONTINUOUS
 62
     7
 10
4093.5359619952
 20
3132.6881950698
 30
0.0
 40
12.50000000000045
 50
270.0
 51
90.0
  0
LINE
  5
3DB
  8
0
  6
CONTINUOUS
 62
     7
 10
3518.5359642602
 20
3120.1882141433
 30
0.0
 11
4093.5359672405
 21
3120.1882141433
 31
0.0
  0
LINE
  5
3DC
  8
0
  6
CONTINUOUS
 62
     7
 10
4093.5359672405
 20
3145.1881903015
 30
0.0
 11
3518.5359642602
 21
3145.1881903015
 31
0.0
  0
LINE
  5
3DD
  8
0
  6
CONTINUOUS
 62
     7
 10
3814.0359596111
 20
3046.9356554351
 30
0.0
 11
3814.0359596111
 21
3120.1882141433
 31
0.0
  0
LINE
  5
3DE
  8
0
  6
CONTINUOUS
 62
     7
 10
3798.0359569885
 20
3120.1882141433
 30
0.0
 11
3798.0359569885
 21
3046.9358938537
 31
0.0
  0
LINE
  5
3DF
  8
0
  6
CONTINUOUS
 62
     7
 10
3743.0359647371
 20
2822.4675136409
 30
0.0
 11
3745.0735569693
 21
2764.1183960043
 31
0.0
  0
LINE
  5
3E0
  8
0
  6
CONTINUOUS
 62
     7
 10
3866.9983670808
 20
2764.1183960043
 30
0.0
 11
3869.0359667636
 21
2822.4675136409
 31
0.0
  0
LINE
  5
3E1
  8
0
  6
CONTINUOUS
 62
     7
 10
3869.0359667636
 20
2822.4675136409
 30
0.0
 11
3868.8379750348
 21
2828.1373160682
 31
0.0
  0
LINE
  5
3E2
  8
0
  6
CONTINUOUS
 62
     7
 10
3743.2339564658
 20
2828.1373160682
 30
0.0
 11
3743.0359647371
 21
2822.4675136409
 31
0.0
  0
ARC
  5
3E3
  8
0
  6
CONTINUOUS
 62
     7
 10
3866.8391865975
 20
2828.0675082304
 30
0.0
 40
2.000000000000152
 50
2.0
 51
90.0
  0
ARC
  5
3E4
  8
0
  6
CONTINUOUS
 62
     7
 10
3745.232737393
 20
2828.0675082304
 30
0.0
 40
2.000000000000152
 50
90.0
 51
178.0
  0
ARC
  5
3E5
  8
0
  6
CONTINUOUS
 62
     7
 10
3864.9995844456
 20
2764.1881950698
 30
0.0
 40
2.000000000000455
 50
270.0
 51
358.0
  0
ARC
  5
3E6
  8
0
  6
CONTINUOUS
 62
     7
 10
3747.0723395449
 20
2764.1881950698
 30
0.0
 40
2.000000000000455
 50
182.0
 51
270.0
  0
LINE
  5
3E7
  8
0
  6
CONTINUOUS
 62
     7
 10
3852.9359624482
 20
2830.0675230823
 30
0.0
 11
3829.2915598251
 21
2839.8467677436
 31
0.0
  0
LINE
  5
3E8
  8
0
  6
CONTINUOUS
 62
     7
 10
3782.7803567745
 20
2839.8467677436
 30
0.0
 11
3759.1359690524
 21
2830.0675230823
 31
0.0
  0
LINE
  5
3E9
  8
0
  6
CONTINUOUS
 62
     7
 10
3851.0359600879
 20
3055.6002634368
 30
0.0
 11
3851.0359600879
 21
3062.1881860099
 31
0.0
  0
LINE
  5
3EA
  8
0
  6
CONTINUOUS
 62
     7
 10
3851.0359600879
 20
2988.8481872879
 30
0.0
 11
3851.0359600879
 21
3038.6957007251
 31
0.0
  0
LINE
  5
3EB
  8
0
  6
CONTINUOUS
 62
     7
 10
3761.0359565116
 20
3038.8014095626
 30
0.0
 11
3761.0359565116
 21
2988.8481872879
 31
0.0
  0
LINE
  5
3EC
  8
0
  6
CONTINUOUS
 62
     7
 10
3761.0359565116
 20
3062.1881860099
 30
0.0
 11
3761.0359565116
 21
3055.680699905
 31
0.0
  0
ARC
  5
3ED
  8
0
  6
CONTINUOUS
 62
     7
 10
3782.0159619953
 20
2841.6949377426
 30
0.0
 40
1.99999999999975
 50
292.469876339
 51
0.0
  0
ARC
  5
3EE
  8
0
  6
CONTINUOUS
 62
     7
 10
3830.0559619953
 20
2841.6949377426
 30
0.0
 40
2.0
 50
180.0
 51
247.5301236609
  0
LINE
  5
3EF
  8
0
  6
CONTINUOUS
 62
     7
 10
3828.0559555389
 20
2844.0575080715
 30
0.0
 11
3827.5808916189
 21
2854.8806088768
 31
0.0
  0
LINE
  5
3F0
  8
0
  6
CONTINUOUS
 62
     7
 10
3784.4910398818
 20
2854.8806088768
 30
0.0
 11
3784.0159610606
 21
2844.0575080715
 31
0.0
  0
LINE
  5
3F1
  8
0
  6
CONTINUOUS
 62
     7
 10
3784.0159610606
 20
2844.0575080715
 30
0.0
 11
3784.0159610606
 21
2841.6949289642
 31
0.0
  0
LINE
  5
3F2
  8
0
  6
CONTINUOUS
 62
     7
 10
3828.0559555389
 20
2841.6949289642
 30
0.0
 11
3828.0559555389
 21
2844.0575080715
 31
0.0
  0
ARC
  5
3F3
  8
0
  6
CONTINUOUS
 62
     7
 10
3790.4852672619
 20
2854.6175082304
 30
0.0
 40
6.000000000000024
 50
90.0
 51
177.4866334755
  0
ARC
  5
3F4
  8
0
  6
CONTINUOUS
 62
     7
 10
3821.5866567286
 20
2854.6175082304
 30
0.0
 40
6.000000000000024
 50
2.5133665245
 51
90.0
  0
LINE
  5
3F5
  8
0
  6
CONTINUOUS
 62
     7
 10
3796.0359678365
 20
2988.8481872879
 30
0.0
 11
3796.0359678365
 21
2860.6174963317
 31
0.0
  0
LINE
  5
3F6
  8
0
  6
CONTINUOUS
 62
     7
 10
3816.0359636642
 20
2860.6174963317
 30
0.0
 11
3816.0359636642
 21
2988.8481872879
 31
0.0
  0
LINE
  5
3F7
  8
0
  6
CONTINUOUS
 62
     7
 10
3851.0359600879
 20
3038.6957007251
 30
0.0
 11
4079.7868446208
 21
3120.1882141433
 31
0.0
  0
LINE
  5
3F8
  8
0
  6
CONTINUOUS
 62
     7
 10
4032.1096555091
 20
3120.1882141433
 30
0.0
 11
3851.0359600879
 21
3055.680699905
 31
0.0
  0
LINE
  5
3F9
  8
0
  6
CONTINUOUS
 62
     7
 10
3761.0359565116
 20
3055.680699905
 30
0.0
 11
3579.962268541
 21
3120.1882141433
 31
0.0
  0
LINE
  5
3FA
  8
0
  6
CONTINUOUS
 62
     7
 10
3532.2850943304
 20
3120.1882141433
 30
0.0
 11
3761.0191331006
 21
3038.7016909919
 31
0.0
  0
ARC
  5
3FB
  8
0
  6
CONTINUOUS
 62
     7
 10
3312.0359619953
 20
1911.6881950698
 30
0.0
 40
2.0
 50
0.0
 51
90.0
  0
ARC
  5
3FC
  8
0
  6
CONTINUOUS
 62
     7
 10
3312.0359619953
 20
3243.6881950698
 30
0.0
 40
2.0
 50
270.0
 51
0.0
  0
ARC
  5
3FD
  8
0
  6
CONTINUOUS
 62
     7
 10
3936.0359619953
 20
3243.6881950698
 30
0.0
 40
2.000000000000455
 50
180.0
 51
270.0
  0
ARC
  5
3FE
  8
0
  6
CONTINUOUS
 62
     7
 10
3936.0359619953
 20
1911.6881950698
 30
0.0
 40
2.000000000000455
 50
90.0
 51
180.0
  0
LINE
  5
3FF
  8
0
  6
CONTINUOUS
 62
     7
 10
3309.0359643794
 20
1913.6882203422
 30
0.0
 11
3312.0359555579
 21
1913.6882203422
 31
0.0
  0
LINE
  5
400
  8
0
  6
CONTINUOUS
 62
     7
 10
3312.0359555579
 20
3241.6881697975
 30
0.0
 11
3309.0359643794
 21
3241.6881697975
 31
0.0
  0
LINE
  5
401
  8
0
  6
CONTINUOUS
 62
     7
 10
3939.0359596111
 20
3241.6881697975
 30
0.0
 11
3936.0359684326
 21
3241.6881697975
 31
0.0
  0
LINE
  5
402
  8
0
  6
CONTINUOUS
 62
     7
 10
3936.0359684326
 20
1913.6882203422
 30
0.0
 11
3939.0359596111
 21
1913.6882203422
 31
0.0
  0
ARC
  5
403
  8
0
  6
CONTINUOUS
 62
     7
 10
3806.0365455359
 20
3046.6349080711
 30
0.0
 40
7.944430056199724
 50
177.8760693097
 51
2.1146820984
  0
CIRCLE
  5
404
  8
0
  6
CONTINUOUS
 62
     7
 10
3624.0359619952
 20
2580.6881950698
 30
0.0
 40
85.00000000000045
  0
LINE
  5
405
  8
0
  6
CONTINUOUS
 62
     7
 10
3806.0359582998
 20
2822.4675136409
 30
0.0
 11
3743.0359647371
 21
2822.4675136409
 31
0.0
  0
LINE
  5
406
  8
0
  6
CONTINUOUS
 62
     7
 10
3869.0359667636
 20
2822.4675136409
 30
0.0
 11
3806.0359582998
 21
2822.4675136409
 31
0.0
  0
LINE
  5
407
  8
0
  6
CONTINUOUS
 62
     7
 10
3806.0359582998
 20
2830.0675230823
 30
0.0
 11
3745.2327386237
 21
2830.0675230823
 31
0.0
  0
LINE
  5
408
  8
0
  6
CONTINUOUS
 62
     7
 10
3866.8391928769
 20
2830.0675230823
 30
0.0
 11
3806.0359582998
 21
2830.0675230823
 31
0.0
  0
LINE
  5
409
  8
0
  6
CONTINUOUS
 62
     7
 10
3806.0359582998
 20
2762.1881889902
 30
0.0
 11
3747.0723391272
 21
2762.1881889902
 31
0.0
  0
LINE
  5
40A
  8
0
  6
CONTINUOUS
 62
     7
 10
3864.9995849229
 20
2762.1881889902
 30
0.0
 11
3806.0359582998
 21
2762.1881889902
 31
0.0
  0
LINE
  5
40B
  8
0
  6
CONTINUOUS
 62
     7
 10
3861.535959015
 20
2705.014340838
 30
0.0
 11
3761.0323504306
 21
2705.014340838
 31
0.0
  0
LINE
  5
40C
  8
0
  6
CONTINUOUS
 62
     7
 10
3861.535959015
 20
2456.3620540104
 30
0.0
 11
3861.535959015
 21
2705.014340838
 31
0.0
  0
LINE
  5
40D
  8
0
  6
CONTINUOUS
 62
     7
 10
3761.0323504306
 20
2456.3620540104
 30
0.0
 11
3861.535959015
 21
2456.3620540104
 31
0.0
  0
LINE
  5
40E
  8
0
  6
CONTINUOUS
 62
     7
 10
3514.0359625913
 20
2431.9434541069
 30
0.0
 11
3514.0359625913
 21
2494.0856548749
 31
0.0
  0
ARC
  5
40F
  8
0
  6
CONTINUOUS
 62
     7
 10
3624.0359619952
 20
2580.6881950698
 30
0.0
 40
139.9999999999999
 50
141.7867892983
 51
218.2132107017
  0
LINE
  5
410
  8
0
  6
CONTINUOUS
 62
     7
 10
3514.0359625913
 20
2667.290732523
 30
0.0
 11
3514.0359625913
 21
2729.4329481922
 31
0.0
  0
ARC
  5
411
  8
0
  6
CONTINUOUS
 62
     7
 10
3624.0359619952
 20
2580.6881950698
 30
0.0
 40
185.0000000000003
 50
42.2241820881
 51
126.4837370614
  0
ARC
  5
412
  8
0
  6
CONTINUOUS
 62
     7
 10
3624.0359619952
 20
2580.6881950698
 30
0.0
 40
185.0000000000003
 50
233.5162629386
 51
317.7758179119
  0
LINE
  5
413
  8
0
  6
CONTINUOUS
 62
     7
 10
3851.0359600879
 20
2988.8481872879
 30
0.0
 11
3761.0359565116
 21
2988.8481872879
 31
0.0
  0
ARC
  5
414
  8
0
  6
CONTINUOUS
 62
     7
 10
3900.7049412036
 20
3047.1849830567
 30
0.0
 40
50.38924091088558
 50
170.386242087
 51
189.6991122176
  0
POLYLINE
  5
415
  8
0
  6
CONTINUOUS
 62
     7
 66
     1
 10
0.0
 20
0.0
 30
0.0
  0
VERTEX
  5
53A
  8
0
  6
CONTINUOUS
 62
     7
 10
3761.0359565116
 20
3055.680699905
 30
0.0
  0
VERTEX
  5
53B
  8
0
  6
CONTINUOUS
 62
     7
 10
3761.1014620162
 20
3055.2570598922
 30
0.0
  0
VERTEX
  5
53C
  8
0
  6
CONTINUOUS
 62
     7
 10
3761.2691596843
 20
3054.0716129146
 30
0.0
  0
VERTEX
  5
53D
  8
0
  6
CONTINUOUS
 62
     7
 10
3761.4869103528
 20
3052.1866160236
 30
0.0
  0
VERTEX
  5
53E
  8
0
  6
CONTINUOUS
 62
     7
 10
3761.6837248899
 20
3049.5839196048
 30
0.0
  0
VERTEX
  5
53F
  8
0
  6
CONTINUOUS
 62
     7
 10
3761.7510781385
 20
3046.5204494796
 30
0.0
  0
VERTEX
  5
540
  8
0
  6
CONTINUOUS
 62
     7
 10
3761.6355792381
 20
3043.5521977745
 30
0.0
  0
VERTEX
  5
541
  8
0
  6
CONTINUOUS
 62
     7
 10
3761.4065334894
 20
3041.1660748325
 30
0.0
  0
VERTEX
  5
542
  8
0
  6
CONTINUOUS
 62
     7
 10
3761.179648409
 20
3039.5493286453
 30
0.0
  0
VERTEX
  5
543
  8
0
  6
CONTINUOUS
 62
     7
 10
3761.0483244754
 20
3038.7654083572
 30
0.0
  0
VERTEX
  5
544
  8
0
  6
CONTINUOUS
 62
     7
 10
3761.0546425678
 20
3038.8014095626
 30
0.0
  0
SEQEND
  5
545
  8
0
  6
CONTINUOUS
 62
     7
  0
LINE
  5
416
  8
0
  6
CONTINUOUS
 62
     7
 10
3814.0359596111
 20
3062.1881860099
 30
0.0
 11
3851.0359600879
 21
3062.1881860099
 31
0.0
  0
LINE
  5
417
  8
0
  6
CONTINUOUS
 62
     7
 10
3761.0359565116
 20
3062.1881860099
 30
0.0
 11
3798.0359569885
 21
3062.1881860099
 31
0.0
  0
LINE
  5
418
  8
0
  6
CONTINUOUS
 62
     7
 10
3852.373428712
 20
2431.1881887517
 30
0.0
 11
3861.535959015
 21
2456.3620540104
 31
0.0
  0
LINE
  5
419
  8
0
  6
CONTINUOUS
 62
     7
 10
3758.5359588958
 20
2431.1881887517
 30
0.0
 11
3852.373428712
 21
2431.1881887517
 31
0.0
  0
LINE
  5
41A
  8
0
  6
CONTINUOUS
 62
     7
 10
3758.5359588958
 20
2453.6655622325
 30
0.0
 11
3758.5359588958
 21
2431.1881887517
 31
0.0
  0
LINE
  5
41B
  8
0
  6
CONTINUOUS
 62
     7
 10
3758.5359588958
 20
2730.1881986461
 30
0.0
 11
3758.5359588958
 21
2707.7108251653
 31
0.0
  0
LINE
  5
41C
  8
0
  6
CONTINUOUS
 62
     7
 10
3852.373428712
 20
2730.1881986461
 30
0.0
 11
3758.5359588958
 21
2730.1881986461
 31
0.0
  0
LINE
  5
41D
  8
0
  6
CONTINUOUS
 62
     7
 10
3861.535959015
 20
2705.014340838
 30
0.0
 11
3852.373428712
 21
2730.1881986461
 31
0.0
  0
LINE
  5
41E
  8
0
  6
CONTINUOUS
 62
     7
 10
3768.2209686137
 20
2762.1881889902
 30
0.0
 11
3768.2209686137
 21
2730.1881986461
 31
0.0
  0
LINE
  5
41F
  8
0
  6
CONTINUOUS
 62
     7
 10
3783.5309580661
 20
2762.1881889902
 30
0.0
 11
3783.5309580661
 21
2730.1881986461
 31
0.0
  0
LINE
  5
420
  8
0
  6
CONTINUOUS
 62
     7
 10
3828.5409585334
 20
2762.1881889902
 30
0.0
 11
3828.5409585334
 21
2730.1881986461
 31
0.0
  0
LINE
  5
421
  8
0
  6
CONTINUOUS
 62
     7
 10
3843.8509628869
 20
2762.1881889902
 30
0.0
 11
3843.8509628869
 21
2730.1881986461
 31
0.0
  0
LINE
  5
422
  8
0
  6
CONTINUOUS
 62
     7
 10
3770.4546973802
 20
2418.1881922088
 30
0.0
 11
3770.4546973802
 21
2431.1881887517
 31
0.0
  0
LINE
  5
423
  8
0
  6
CONTINUOUS
 62
     7
 10
3770.4546973802
 20
2418.1881922088
 30
0.0
 11
3767.4546913005
 21
2418.1881922088
 31
0.0
  0
LINE
  5
424
  8
0
  6
CONTINUOUS
 62
     7
 10
3767.4546913005
 20
2418.1881922088
 30
0.0
 11
3767.4546913005
 21
2431.1881887517
 31
0.0
  0
LINE
  5
425
  8
0
  6
CONTINUOUS
 62
     7
 10
3840.4546902276
 20
2418.1881922088
 30
0.0
 11
3840.4546902276
 21
2431.1881887517
 31
0.0
  0
LINE
  5
426
  8
0
  6
CONTINUOUS
 62
     7
 10
3840.4546902276
 20
2418.1881922088
 30
0.0
 11
3770.4546973802
 21
2418.1881922088
 31
0.0
  0
LINE
  5
427
  8
0
  6
CONTINUOUS
 62
     7
 10
3843.4546963073
 20
2418.1881922088
 30
0.0
 11
3843.4546963073
 21
2431.1881887517
 31
0.0
  0
LINE
  5
428
  8
0
  6
CONTINUOUS
 62
     7
 10
3843.4546963073
 20
2418.1881922088
 30
0.0
 11
3840.4546902276
 21
2418.1881922088
 31
0.0
  0
LINE
  5
429
  8
0
  6
CONTINUOUS
 62
     7
 10
3784.0159610606
 20
2844.0575080715
 30
0.0
 11
3828.0559555389
 21
2844.0575080715
 31
0.0
  0
LINE
  5
42A
  8
0
  6
CONTINUOUS
 62
     7
 10
3790.4852703906
 20
2860.6174963317
 30
0.0
 11
3821.58666111
 21
2860.6174963317
 31
0.0
  0
ARC
  5
42B
  8
0
  6
CONTINUOUS
 62
     7
 10
3624.0359619952
 20
2580.6881950698
 30
0.0
 40
184.9999999999996
 50
126.4837370614
 51
233.5162629386
  0
LINE
  5
42C
  8
0
  6
CONTINUOUS
 62
     7
 10
3354.0359512664
 20
3261.1420529686
 30
0.0
 11
3314.0359596111
 21
3261.1420529686
 31
0.0
  0
LINE
  5
42D
  8
0
  6
CONTINUOUS
 62
     7
 10
3354.0359512664
 20
3261.1420529686
 30
0.0
 11
3354.0359512664
 21
2593.1881948165
 31
0.0
  0
LINE
  5
42E
  8
0
  6
CONTINUOUS
 62
     7
 10
3354.0359512664
 20
2568.1881953753
 30
0.0
 11
3354.0359512664
 21
1894.2343371711
 31
0.0
  0
LINE
  5
42F
  8
0
  6
CONTINUOUS
 62
     7
 10
3314.0359596111
 20
1894.2343371711
 30
0.0
 11
3354.0359512664
 21
1894.2343371711
 31
0.0
  0
LINE
  5
430
  8
0
  6
CONTINUOUS
 62
     7
 10
3314.0359596111
 20
3261.1420529686
 30
0.0
 11
3314.0359596111
 21
1894.2343371711
 31
0.0
  0
LINE
  5
431
  8
0
  6
CONTINUOUS
 62
     7
 10
3439.4587353565
 20
2593.1881948165
 30
0.0
 11
3354.0359512664
 21
2593.1881948165
 31
0.0
  0
LINE
  5
432
  8
0
  6
CONTINUOUS
 62
     7
 10
3439.4587353565
 20
2568.1881953753
 30
0.0
 11
3354.0359512664
 21
2568.1881953753
 31
0.0
  0
LINE
  5
433
  8
0
  6
CONTINUOUS
 62
     7
 10
3934.0359643794
 20
3261.1420529686
 30
0.0
 11
3894.0359727241
 21
3261.1420529686
 31
0.0
  0
LINE
  5
434
  8
0
  6
CONTINUOUS
 62
     7
 10
3934.0359643794
 20
3261.1420529686
 30
0.0
 11
3934.0359643794
 21
3145.1881903015
 31
0.0
  0
LINE
  5
435
  8
0
  6
CONTINUOUS
 62
     7
 10
3934.0359643794
 20
3120.1882141433
 30
0.0
 11
3934.0359643794
 21
3085.2494614921
 31
0.0
  0
LINE
  5
436
  8
0
  6
CONTINUOUS
 62
     7
 10
3934.0359643794
 20
3068.2644623123
 30
0.0
 11
3934.0359643794
 21
1894.2343371711
 31
0.0
  0
LINE
  5
437
  8
0
  6
CONTINUOUS
 62
     7
 10
3894.0359727241
 20
1894.2343371711
 30
0.0
 11
3934.0359643794
 21
1894.2343371711
 31
0.0
  0
LINE
  5
438
  8
0
  6
CONTINUOUS
 62
     7
 10
3894.0359727241
 20
2568.1881953753
 30
0.0
 11
3894.0359727241
 21
1894.2343371711
 31
0.0
  0
LINE
  5
439
  8
0
  6
CONTINUOUS
 62
     7
 10
3894.0359727241
 20
3261.1420529686
 30
0.0
 11
3894.0359727241
 21
3145.1881903015
 31
0.0
  0
LINE
  5
43A
  8
0
  6
CONTINUOUS
 62
     7
 10
3894.0359727241
 20
3120.1882141433
 30
0.0
 11
3894.0359727241
 21
3070.9994512401
 31
0.0
  0
LINE
  5
43B
  8
0
  6
CONTINUOUS
 62
     7
 10
3894.0359727241
 20
3054.0144520603
 30
0.0
 11
3894.0359727241
 21
2593.1881948165
 31
0.0
  0
LINE
  5
43C
  8
0
  6
CONTINUOUS
 62
     7
 10
3861.535959015
 20
2568.1881953753
 30
0.0
 11
3894.0359727241
 21
2568.1881953753
 31
0.0
  0
LINE
  5
43D
  8
0
  6
CONTINUOUS
 62
     7
 10
3861.535959015
 20
2593.1881948165
 30
0.0
 11
3894.0359727241
 21
2593.1881948165
 31
0.0
  0
LINE
  5
43E
  8
0
  6
CONTINUOUS
 62
     7
 10
3309.0359643794
 20
3241.6881697975
 30
0.0
 11
3309.0359643794
 21
1913.6882203422
 31
0.0
  0
LINE
  5
43F
  8
0
  6
CONTINUOUS
 62
     7
 10
3939.0359596111
 20
3241.6881697975
 30
0.0
 11
3939.0359596111
 21
3145.1881903015
 31
0.0
  0
LINE
  5
440
  8
0
  6
CONTINUOUS
 62
     7
 10
3939.0359596111
 20
3120.1882141433
 30
0.0
 11
3939.0359596111
 21
3087.0306866966
 31
0.0
  0
LINE
  5
441
  8
0
  6
CONTINUOUS
 62
     7
 10
3939.0359596111
 20
3070.0456875167
 30
0.0
 11
3939.0359596111
 21
1913.6882203422
 31
0.0
  0
LINE
  5
442
  8
0
  6
CONTINUOUS
 62
     7
 10
3366.0359755851
 20
2568.1881953753
 30
0.0
 11
3366.0359755851
 21
1944.1258686386
 31
0.0
  0
ARC
  5
443
  8
0
  6
CONTINUOUS
 62
     7
 10
3366.0319761551
 20
1932.1298436295
 30
0.0
 40
11.99602567572756
 50
89.9808978016
 51
179.9792456527
  0
ARC
  5
444
  8
0
  6
CONTINUOUS
 62
     7
 10
3882.0403153176
 20
1932.1302113675
 30
0.0
 40
11.99565806595029
 50
0.0189985283
 51
90.0208580174
  0
LINE
  5
445
  8
0
  6
CONTINUOUS
 62
     7
 10
3882.0359484054
 20
2568.1881953753
 30
0.0
 11
3882.0359484054
 21
1944.1258686386
 31
0.0
  0
ARC
  5
446
  8
0
  6
CONTINUOUS
 62
     7
 10
3366.0316086729
 20
3223.2461787722
 30
0.0
 40
11.99565806595037
 50
180.0189985283
 51
270.0208580174
  0
LINE
  5
447
  8
0
  6
CONTINUOUS
 62
     7
 10
3366.0359755851
 20
3211.2505215011
 30
0.0
 11
3366.0359755851
 21
2593.1881948165
 31
0.0
  0
ARC
  5
448
  8
0
  6
CONTINUOUS
 62
     7
 10
3882.0399478354
 20
3223.2465465101
 30
0.0
 40
11.99602567572733
 50
269.9808978016
 51
359.9792456527
  0
LINE
  5
449
  8
0
  6
CONTINUOUS
 62
     7
 10
3882.0359484054
 20
3211.2505215011
 30
0.0
 11
3366.0359755851
 21
3211.2505215011
 31
0.0
  0
LINE
  5
44A
  8
0
  6
CONTINUOUS
 62
     7
 10
3366.0359755851
 20
1944.1258686386
 30
0.0
 11
3882.0359484054
 21
1944.1258686386
 31
0.0
  0
LINE
  5
44B
  8
0
  6
CONTINUOUS
 62
     7
 10
3354.0359512664
 20
1856.6561120353
 30
0.0
 11
3314.0359596111
 21
1856.6561120353
 31
0.0
  0
LINE
  5
44C
  8
0
  6
CONTINUOUS
 62
     7
 10
3354.0359512664
 20
1894.2343371711
 30
0.0
 11
3354.0359512664
 21
1856.6561120353
 31
0.0
  0
LINE
  5
44D
  8
0
  6
CONTINUOUS
 62
     7
 10
3314.0359596111
 20
1856.6561120353
 30
0.0
 11
3314.0359596111
 21
1894.2343371711
 31
0.0
  0
LINE
  5
44E
  8
0
  6
CONTINUOUS
 62
     7
 10
3934.0359643794
 20
1856.6561120353
 30
0.0
 11
3894.0359727241
 21
1856.6561120353
 31
0.0
  0
LINE
  5
44F
  8
0
  6
CONTINUOUS
 62
     7
 10
3894.0359727241
 20
1856.6561120353
 30
0.0
 11
3894.0359727241
 21
1894.2343371711
 31
0.0
  0
LINE
  5
450
  8
0
  6
CONTINUOUS
 62
     7
 10
3934.0359643794
 20
1894.2343371711
 30
0.0
 11
3934.0359643794
 21
1856.6561120353
 31
0.0
  0
LINE
  5
451
  8
0
  6
CONTINUOUS
 62
     7
 10
3314.0359596111
 20
3298.7202781044
 30
0.0
 11
3354.0359512664
 21
3298.7202781044
 31
0.0
  0
LINE
  5
452
  8
0
  6
CONTINUOUS
 62
     7
 10
3354.0359512664
 20
3298.7202781044
 30
0.0
 11
3354.0359512664
 21
3261.1420529686
 31
0.0
  0
LINE
  5
453
  8
0
  6
CONTINUOUS
 62
     7
 10
3314.0359596111
 20
3261.1420529686
 30
0.0
 11
3314.0359596111
 21
3298.7202781044
 31
0.0
  0
LINE
  5
454
  8
0
  6
CONTINUOUS
 62
     7
 10
3894.0359727241
 20
3298.7202781044
 30
0.0
 11
3934.0359643794
 21
3298.7202781044
 31
0.0
  0
LINE
  5
455
  8
0
  6
CONTINUOUS
 62
     7
 10
3894.0359727241
 20
3261.1420529686
 30
0.0
 11
3894.0359727241
 21
3298.7202781044
 31
0.0
  0
LINE
  5
456
  8
0
  6
CONTINUOUS
 62
     7
 10
3934.0359643794
 20
3298.7202781044
 30
0.0
 11
3934.0359643794
 21
3261.1420529686
 31
0.0
  0
LINE
  5
457
  8
0
  6
CONTINUOUS
 62
     7
 10
3354.0359512664
 20
1850.1881736122
 30
0.0
 11
3314.0359596111
 21
1850.1881736122
 31
0.0
  0
LINE
  5
458
  8
0
  6
CONTINUOUS
 62
     7
 10
3354.0359512664
 20
1856.6561120353
 30
0.0
 11
3354.0359512664
 21
1850.1881736122
 31
0.0
  0
LINE
  5
459
  8
0
  6
CONTINUOUS
 62
     7
 10
3314.0359596111
 20
1856.6561120353
 30
0.0
 11
3314.0359596111
 21
1850.1881736122
 31
0.0
  0
LINE
  5
45A
  8
0
  6
CONTINUOUS
 62
     7
 10
3934.0359643794
 20
1850.1881736122
 30
0.0
 11
3894.0359727241
 21
1850.1881736122
 31
0.0
  0
LINE
  5
45B
  8
0
  6
CONTINUOUS
 62
     7
 10
3894.0359727241
 20
1856.6561120353
 30
0.0
 11
3894.0359727241
 21
1850.1881736122
 31
0.0
  0
LINE
  5
45C
  8
0
  6
CONTINUOUS
 62
     7
 10
3934.0359643794
 20
1856.6561120353
 30
0.0
 11
3934.0359643794
 21
1850.1881736122
 31
0.0
  0
LINE
  5
45D
  8
0
  6
CONTINUOUS
 62
     7
 10
3314.0359596111
 20
3305.1882165275
 30
0.0
 11
3354.0359512664
 21
3305.1882165275
 31
0.0
  0
LINE
  5
45E
  8
0
  6
CONTINUOUS
 62
     7
 10
3354.0359512664
 20
3298.7202781044
 30
0.0
 11
3354.0359512664
 21
3305.1882165275
 31
0.0
  0
LINE
  5
45F
  8
0
  6
CONTINUOUS
 62
     7
 10
3314.0359596111
 20
3298.7202781044
 30
0.0
 11
3314.0359596111
 21
3305.1882165275
 31
0.0
  0
LINE
  5
460
  8
0
  6
CONTINUOUS
 62
     7
 10
3894.0359727241
 20
3305.1882165275
 30
0.0
 11
3934.0359643794
 21
3305.1882165275
 31
0.0
  0
LINE
  5
461
  8
0
  6
CONTINUOUS
 62
     7
 10
3894.0359727241
 20
3298.7202781044
 30
0.0
 11
3894.0359727241
 21
3305.1882165275
 31
0.0
  0
LINE
  5
462
  8
0
  6
CONTINUOUS
 62
     7
 10
3934.0359643794
 20
3298.7202781044
 30
0.0
 11
3934.0359643794
 21
3305.1882165275
 31
0.0
  0
LINE
  5
463
  8
0
  6
CONTINUOUS
 62
     7
 10
3354.0359512664
 20
1932.1341889701
 30
0.0
 11
3366.0359755851
 21
1932.1341889701
 31
0.0
  0
LINE
  5
464
  8
0
  6
CONTINUOUS
 62
     7
 10
3366.0359755851
 20
1932.1341889701
 30
0.0
 11
3366.0359755851
 21
1860.1882236801
 31
0.0
  0
LINE
  5
465
  8
0
  6
CONTINUOUS
 62
     7
 10
3366.0359755851
 20
1860.1882236801
 30
0.0
 11
3365.8681289054
 21
1860.1882236801
 31
0.0
  0
ARC
  5
466
  8
0
  6
CONTINUOUS
 62
     7
 10
3365.8685426736
 20
1848.1877227341
 30
0.0
 40
12.00050095313708
 50
90.0019755153
 51
170.4041528216
  0
LINE
  5
467
  8
0
  6
CONTINUOUS
 62
     7
 10
3882.2037950851
 20
1860.1882236801
 30
0.0
 11
3882.0359484054
 21
1860.1882236801
 31
0.0
  0
LINE
  5
468
  8
0
  6
CONTINUOUS
 62
     7
 10
3882.0359484054
 20
1860.1882236801
 30
0.0
 11
3882.0359484054
 21
1932.1341889701
 31
0.0
  0
LINE
  5
469
  8
0
  6
CONTINUOUS
 62
     7
 10
3894.0359727241
 20
1932.1341889701
 30
0.0
 11
3882.0359484054
 21
1932.1341889701
 31
0.0
  0
ARC
  5
46A
  8
0
  6
CONTINUOUS
 62
     7
 10
3882.2037554072
 20
1848.1881653623
 30
0.0
 40
12.00005831788566
 50
9.5940611099
 51
89.9998105532
  0
LINE
  5
46B
  8
0
  6
CONTINUOUS
 62
     7
 10
3365.8681289054
 20
3295.1881664596
 30
0.0
 11
3366.0359755851
 21
3295.1881664596
 31
0.0
  0
LINE
  5
46C
  8
0
  6
CONTINUOUS
 62
     7
 10
3366.0359755851
 20
3295.1881664596
 30
0.0
 11
3366.0359755851
 21
3223.2422011695
 31
0.0
  0
LINE
  5
46D
  8
0
  6
CONTINUOUS
 62
     7
 10
3366.0359755851
 20
3223.2422011695
 30
0.0
 11
3354.0359512664
 21
3223.2422011695
 31
0.0
  0
ARC
  5
46E
  8
0
  6
CONTINUOUS
 62
     7
 10
3365.8703474756
 20
3307.1908028686
 30
0.0
 40
12.00263661404226
 50
189.6044622284
 51
269.9894094347
  0
LINE
  5
46F
  8
0
  6
CONTINUOUS
 62
     7
 10
3882.0359484054
 20
3223.2422011695
 30
0.0
 11
3882.0359484054
 21
3295.1881664596
 31
0.0
  0
LINE
  5
470
  8
0
  6
CONTINUOUS
 62
     7
 10
3882.0359484054
 20
3295.1881664596
 30
0.0
 11
3882.2037950851
 21
3295.1881664596
 31
0.0
  0
ARC
  5
471
  8
0
  6
CONTINUOUS
 62
     7
 10
3882.2036909054
 20
3307.1883010967
 30
0.0
 40
12.00013463759135
 50
270.0004974156
 51
350.4056309212
  0
LINE
  5
472
  8
0
  6
CONTINUOUS
 62
     7
 10
3882.0359484054
 20
3223.2422011695
 30
0.0
 11
3894.0359727241
 21
3223.2422011695
 31
0.0
  0
LINE
  5
473
  8
0
  6
CONTINUOUS
 62
     7
 10
3366.0359755851
 20
1944.1258686386
 30
0.0
 11
3366.0359755851
 21
1932.1341889701
 31
0.0
  0
LINE
  5
474
  8
0
  6
CONTINUOUS
 62
     7
 10
3882.0359484054
 20
1944.1258686386
 30
0.0
 11
3882.0359484054
 21
1932.1341889701
 31
0.0
  0
LINE
  5
475
  8
0
  6
CONTINUOUS
 62
     7
 10
3366.0359755851
 20
3223.2422011695
 30
0.0
 11
3366.0359755851
 21
3211.2505215011
 31
0.0
  0
LINE
  5
476
  8
0
  6
CONTINUOUS
 62
     7
 10
3882.0359484054
 20
3223.2422011695
 30
0.0
 11
3882.0359484054
 21
3211.2505215011
 31
0.0
  0
LINE
  5
477
  8
0
  6
CONTINUOUS
 62
     7
 10
3882.0359484054
 20
1932.1341889701
 30
0.0
 11
3366.0359755851
 21
1932.1341889701
 31
0.0
  0
LINE
  5
478
  8
0
  6
CONTINUOUS
 62
     7
 10
3366.0359755851
 20
3223.2422011695
 30
0.0
 11
3882.0359484054
 21
3223.2422011695
 31
0.0
  0
LINE
  5
479
  8
0
  6
CONTINUOUS
 62
     7
 10
3366.0359755851
 20
1860.1882236801
 30
0.0
 11
3882.0359484054
 21
1860.1882236801
 31
0.0
  0
CIRCLE
  5
47A
  8
0
  6
CONTINUOUS
 62
     7
 10
3724.0359619953
 20
3255.1881950698
 30
0.0
 40
17.50000000000045
  0
CIRCLE
  5
47B
  8
0
  6
CONTINUOUS
 62
     7
 10
3524.0359619953
 20
3255.1881950698
 30
0.0
 40
17.5
  0
LINE
  5
47C
  8
0
  6
CONTINUOUS
 62
     7
 10
3366.0359755851
 20
3295.1881664596
 30
0.0
 11
3882.0359484054
 21
3295.1881664596
 31
0.0
  0
LINE
  5
47D
  8
0
  6
CONTINUOUS
 62
     7
 10
3806.0359582998
 20
2764.1183960043
 30
0.0
 11
3745.0735569693
 21
2764.1183960043
 31
0.0
  0
LINE
  5
47E
  8
0
  6
CONTINUOUS
 62
     7
 10
3866.9983670808
 20
2764.1183960043
 30
0.0
 11
3806.0359582998
 21
2764.1183960043
 31
0.0
  0
LINE
  5
47F
  8
0
  6
CONTINUOUS
 62
     7
 10
3806.0359582998
 20
2828.1373160682
 30
0.0
 11
3743.2339564658
 21
2828.1373160682
 31
0.0
  0
LINE
  5
480
  8
0
  6
CONTINUOUS
 62
     7
 10
3868.8379750348
 20
2828.1373160682
 30
0.0
 11
3806.0359582998
 21
2828.1373160682
 31
0.0
  0
LINE
  5
481
  8
0
  6
CONTINUOUS
 62
     7
 10
3782.7803567745
 20
2839.8467677436
 30
0.0
 11
3829.2915598251
 21
2839.8467677436
 31
0.0
  0
LINE
  5
482
  8
0
  6
CONTINUOUS
 62
     7
 10
3784.0159610606
 20
2841.6949289642
 30
0.0
 11
3828.0559555389
 21
2841.6949289642
 31
0.0
  0
LINE
  5
483
  8
0
  6
CONTINUOUS
 62
     7
 10
3784.4910398818
 20
2854.8806088768
 30
0.0
 11
3827.5808916189
 21
2854.8806088768
 31
0.0
  0
LINE
  5
484
  8
0
  6
CONTINUOUS
 62
     7
 10
3312.0359555579
 20
3241.6881697975
 30
0.0
 11
3312.0359555579
 21
1913.6882203422
 31
0.0
  0
LINE
  5
485
  8
0
  6
CONTINUOUS
 62
     7
 10
3936.0359684326
 20
3241.6881697975
 30
0.0
 11
3936.0359684326
 21
3145.1881903015
 31
0.0
  0
LINE
  5
486
  8
0
  6
CONTINUOUS
 62
     7
 10
3936.0359684326
 20
3120.1882141433
 30
0.0
 11
3936.0359684326
 21
3085.9619158111
 31
0.0
  0
LINE
  5
487
  8
0
  6
CONTINUOUS
 62
     7
 10
3936.0359684326
 20
3068.9769464336
 30
0.0
 11
3936.0359684326
 21
1913.6882203422
 31
0.0
  0
LINE
  5
488
  8
0
  6
CONTINUOUS
 62
     7
 10
3882.0359484054
 20
3211.2505215011
 30
0.0
 11
3882.0359484054
 21
3145.1881903015
 31
0.0
  0
LINE
  5
489
  8
0
  6
CONTINUOUS
 62
     7
 10
3882.0359484054
 20
3120.1882141433
 30
0.0
 11
3882.0359484054
 21
3066.7244273029
 31
0.0
  0
LINE
  5
48A
  8
0
  6
CONTINUOUS
 62
     7
 10
3882.0359484054
 20
3049.7394579254
 30
0.0
 11
3882.0359484054
 21
2593.1881948165
 31
0.0
  0
INSERT
  5
496
  8
FORMAT
  2
SW_CENTERMARKSYMBOL_34
 10
3624.0359619952
 20
2580.6881950698
 30
0.0
  0
INSERT
  5
4A2
  8
FORMAT
  2
SW_CENTERMARKSYMBOL_35
 10
3524.0359619953
 20
3255.1881950698
 30
0.0
  0
INSERT
  5
4AE
  8
FORMAT
  2
SW_CENTERMARKSYMBOL_36
 10
3724.0359619953
 20
3255.1881950698
 30
0.0
  0
ENDSEC
  0
EOF
