  0
SECTION
  2
HEADER
  9
$ACADVER
  1
AC1009
  9
$DWGCODEPAGE
  3
ansi_1252
  9
$INSBASE
 10
0.0
 20
0.0
 30
0.0
  9
$EXTMIN
 10
0.0
 20
0.0
 30
0.0
  9
$EXTMAX
 10
594.0
 20
420.0
 30
0.0
  9
$LIMMIN
 10
0.0
 20
0.0
  9
$LIMMAX
 10
594.0
 20
420.0
  9
$ORTHOMODE
 70
     0
  9
$REGENMODE
 70
     1
  9
$FILLMODE
 70
     1
  9
$QTEXTMODE
 70
     0
  9
$MIRRTEXT
 70
     1
  9
$DRAGMODE
 70
     2
  9
$LTSCALE
 40
1.0
  9
$OSMODE
 70
    37
  9
$ATTMODE
 70
     1
  9
$TEXTSIZE
 40
3.5
  9
$TRACEWID
 40
1.0
  9
$TEXTSTYLE
  7
STANDARD
  9
$CLAYER
  8
0
  9
$CELTYPE
  6
BYLAYER
  9
$CECOLOR
 62
   256
  9
$DIMSCALE
 40
1.0
  9
$DIMASZ
 40
3.302
  9
$DIMEXO
 40
1.0
  9
$DIMDLI
 40
3.75
  9
$DIMRND
 40
0.0
  9
$DIMDLE
 40
0.0
  9
$DIMEXE
 40
1.0
  9
$DIMTP
 40
0.0
  9
$DIMTM
 40
0.0
  9
$DIMTXT
 40
3.5
  9
$DIMCEN
 40
2.5
  9
$DIMTSZ
 40
0.0
  9
$DIMTOL
 70
     0
  9
$DIMLIM
 70
     0
  9
$DIMTIH
 70
     1
  9
$DIMTOH
 70
     1
  9
$DIMSE1
 70
     0
  9
$DIMSE2
 70
     0
  9
$DIMTAD
 70
     1
  9
$DIMZIN
 70
     0
  9
$DIMBLK
  1

  9
$DIMASO
 70
     1
  9
$DIMSHO
 70
     1
  9
$DIMPOST
  1

  9
$DIMAPOST
  1

  9
$DIMALT
 70
     0
  9
$DIMALTD
 70
     3
  9
$DIMALTF
 40
0.0393700787
  9
$DIMLFAC
 40
1.0
  9
$DIMTOFL
 70
     1
  9
$DIMTVP
 40
0.0
  9
$DIMTIX
 70
     0
  9
$DIMSOXD
 70
     0
  9
$DIMSAH
 70
     0
  9
$DIMBLK1
  1

  9
$DIMBLK2
  1

  9
$DIMSTYLE
  2
ISO-25
  9
$DIMCLRD
 70
     0
  9
$DIMCLRE
 70
     0
  9
$DIMCLRT
 70
     0
  9
$DIMTFAC
 40
1.0
  9
$DIMGAP
 40
1.524
  9
$LUNITS
 70
     2
  9
$LUPREC
 70
     2
  9
$SKETCHINC
 40
1.0
  9
$FILLETRAD
 40
10.0
  9
$AUNITS
 70
     0
  9
$AUPREC
 70
     2
  9
$MENU
  1
.
  9
$ELEVATION
 40
0.0
  9
$PELEVATION
 40
0.0
  9
$THICKNESS
 40
0.0
  9
$LIMCHECK
 70
     0
  9
$CHAMFERA
 40
10.0
  9
$CHAMFERB
 40
10.0
  9
$SKPOLY
 70
     0
  9
$TDCREATE
 40
2457816.358856933
  9
$TDUPDATE
 40
2457816.358858912
  9
$TDINDWG
 40
0.0000000116
  9
$TDUSRTIMER
 40
0.0000000116
  9
$USRTIMER
 70
     1
  9
$ANGBASE
 50
0.0
  9
$ANGDIR
 70
     0
  9
$PDMODE
 70
     0
  9
$PDSIZE
 40
-1.0
  9
$PLINEWID
 40
0.0
  9
$COORDS
 70
     1
  9
$SPLFRAME
 70
     0
  9
$SPLINETYPE
 70
     6
  9
$SPLINESEGS
 70
     8
  9
$ATTDIA
 70
     0
  9
$ATTREQ
 70
     1
  9
$HANDLING
 70
     1
  9
$HANDSEED
  5
7F1
  9
$SURFTAB1
 70
     6
  9
$SURFTAB2
 70
     6
  9
$SURFTYPE
 70
     6
  9
$SURFU
 70
     6
  9
$SURFV
 70
     6
  9
$UCSNAME
  2

  9
$UCSORG
 10
0.0
 20
0.0
 30
0.0
  9
$UCSXDIR
 10
1.0
 20
0.0
 30
0.0
  9
$UCSYDIR
 10
0.0
 20
1.0
 30
0.0
  9
$PUCSNAME
  2

  9
$PUCSORG
 10
0.0
 20
0.0
 30
0.0
  9
$PUCSXDIR
 10
1.0
 20
0.0
 30
0.0
  9
$PUCSYDIR
 10
0.0
 20
1.0
 30
0.0
  9
$USERI1
 70
     0
  9
$USERI2
 70
     0
  9
$USERI3
 70
     0
  9
$USERI4
 70
     0
  9
$USERI5
 70
     0
  9
$USERR1
 40
0.0
  9
$USERR2
 40
0.0
  9
$USERR3
 40
0.0
  9
$USERR4
 40
0.0
  9
$USERR5
 40
0.0
  9
$WORLDVIEW
 70
     1
  9
$SHADEDGE
 70
     3
  9
$SHADEDIF
 70
    70
  9
$TILEMODE
 70
     1
  9
$MAXACTVP
 70
    64
  9
$PLIMCHECK
 70
     0
  9
$PEXTMIN
 10
1.0000000000E+20
 20
1.0000000000E+20
 30
1.0000000000E+20
  9
$PEXTMAX
 10
-1.0000000000E+20
 20
-1.0000000000E+20
 30
-1.0000000000E+20
  9
$PLIMMIN
 10
0.0
 20
0.0
  9
$PLIMMAX
 10
420.0
 20
297.0
  9
$UNITMODE
 70
     0
  9
$VISRETAIN
 70
     1
  9
$PLINEGEN
 70
     0
  9
$PSLTSCALE
 70
     1
  0
ENDSEC
  0
SECTION
  2
TABLES
  0
TABLE
  2
VPORT
 70
     1
  0
VPORT
  2
*ACTIVE
 70
     0
 10
0.0
 20
0.0
 11
1.0
 21
1.0
 12
297.0
 22
210.0
 13
0.0
 23
0.0
 14
10.0
 24
10.0
 15
10.0
 25
10.0
 16
0.0
 26
0.0
 36
1.0
 17
0.0
 27
0.0
 37
0.0
 40
420.0
 41
1.4142857143
 42
50.0
 43
0.0
 44
0.0
 50
0.0
 51
0.0
 71
     0
 72
  2000
 73
     1
 74
     3
 75
     0
 76
     0
 77
     0
 78
     0
  0
ENDTAB
  0
TABLE
  2
LTYPE
 70
     6
  0
LTYPE
  2
CONTINUOUS
 70
     0
  3
Solid line
 72
    65
 73
     0
 40
0.0
  0
LTYPE
  2
HIDDEN
 70
     0
  3
Hidden __ __ __ __ __ __ __ __ __ __ __ __ __ __
 72
    65
 73
     2
 40
1.905
 49
1.27
 49
-0.635
  0
LTYPE
  2
PHANTOM
 70
     0
  3
Phantom ______  __  __  ______  __  __  ______
 72
    65
 73
     6
 40
12.7
 49
6.35
 49
-1.27
 49
1.27
 49
-1.27
 49
1.27
 49
-1.27
  0
LTYPE
  2
CENTER
 70
     0
  3
Center ____ _ ____ _ ____ _ ____ _ ____ _ ____
 72
    65
 73
     4
 40
10.16
 49
6.35
 49
-1.27
 49
1.27
 49
-1.27
  0
LTYPE
  2
CENTERX2
 70
     0
  3
Center (2x) ________  __  ________  __  _____
 72
    65
 73
     4
 40
20.32
 49
12.7
 49
-2.54
 49
2.54
 49
-2.54
  0
LTYPE
  2
DOT2
 70
     0
  3
Dot (.5x) ........................................
 72
    65
 73
     2
 40
0.635
 49
0.0
 49
-0.635
  0
ENDTAB
  0
TABLE
  2
LAYER
 70
     3
  0
LAYER
  2
0
 70
     0
 62
     7
  6
CONTINUOUS
  0
LAYER
  2
FORMAT
 70
     0
 62
     7
  6
CONTINUOUS
  0
LAYER
  2
PROTOTYPE
 70
     0
 62
    -7
  6
CONTINUOUS
  0
ENDTAB
  0
TABLE
  2
STYLE
 70
     1
  0
STYLE
  2
STANDARD
 70
     0
 40
0.0
 41
1.0
 50
0.0
 71
     0
 42
3.5
  3
txt
  4

  0
ENDTAB
  0
TABLE
  2
VIEW
 70
     0
  0
ENDTAB
  0
TABLE
  2
UCS
 70
     0
  0
ENDTAB
  0
TABLE
  2
APPID
 70
     1
  0
APPID
  2
ACAD
 70
     0
  0
ENDTAB
  0
TABLE
  2
DIMSTYLE
 70
     1
  0
DIMSTYLE
  2
ISO-25
 70
     0
  3

  4

  5

  6

  7

 40
1.0
 41
2.5
 42
0.625
 43
3.75
 44
1.25
 45
0.0
 46
0.0
 47
0.0
 48
0.0
140
2.5
141
2.5
142
0.0
143
0.0393700787
144
1.0
145
0.0
146
1.0
147
0.625
 71
     0
 72
     0
 73
     0
 74
     0
 75
     0
 76
     0
 77
     1
 78
     8
170
     0
171
     3
172
     1
173
     0
174
     0
175
     0
176
     0
177
     0
178
     0
  0
ENDTAB
  0
ENDSEC
  0
SECTION
  2
BLOCKS
  0
BLOCK
  8
0
  2
$MODEL_SPACE
 70
     0
 10
0.0
 20
0.0
 30
0.0
  3
$MODEL_SPACE
  1

  0
ENDBLK
  5
21
  8
0
  0
BLOCK
 67
     1
  8
0
  2
$PAPER_SPACE
 70
     0
 10
0.0
 20
0.0
 30
0.0
  3
$PAPER_SPACE
  1

  0
ENDBLK
  5
1D
 67
     1
  8
0
  0
BLOCK
  8
0
  2
SW_CENTERMARKSYMBOL_0
 70
     0
 10
0.0
 20
0.0
 30
0.0
  3
SW_CENTERMARKSYMBOL_0
  1

  0
LINE
  5
2E6
  8
FORMAT
 62
     0
 10
0.0
 20
0.0
 30
0.0
 11
0.0
 21
2.5
 31
0.0
  0
LINE
  5
2E7
  8
FORMAT
 62
     0
 10
0.0
 20
0.0
 30
0.0
 11
-2.5
 21
0.0
 31
0.0
  0
LINE
  5
2E8
  8
FORMAT
 62
     0
 10
0.0
 20
0.0
 30
0.0
 11
0.0
 21
-2.5
 31
0.0
  0
LINE
  5
2E9
  8
FORMAT
 62
     0
 10
0.0
 20
0.0
 30
0.0
 11
2.5
 21
0.0
 31
0.0
  0
LINE
  5
2EA
  8
FORMAT
 62
     0
 10
0.0
 20
5.0
 30
0.0
 11
0.0
 21
347.1362079933
 31
0.0
  0
LINE
  5
2EB
  8
FORMAT
 62
     0
 10
-5.0
 20
0.0
 30
0.0
 11
-125.3833911079
 21
0.0
 31
0.0
  0
LINE
  5
2EC
  8
FORMAT
 62
     0
 10
0.0
 20
-5.0
 30
0.0
 11
0.0
 21
-116.8
 31
0.0
  0
LINE
  5
2ED
  8
FORMAT
 62
     0
 10
5.0
 20
0.0
 30
0.0
 11
123.0396617016
 21
0.0
 31
0.0
  0
ENDBLK
  5
2E5
  8
0
  0
ENDSEC
  0
SECTION
  2
ENTITIES
  0
ARC
  5
46
  8
0
  6
CONTINUOUS
 62
     7
 10
146.2860086486
 20
549.4299416216
 30
0.0
 40
3.0
 50
0.0
 51
90.0
  0
ARC
  5
47
  8
0
  6
CONTINUOUS
 62
     7
 10
146.2860086486
 20
326.8299416216
 30
0.0
 40
3.0
 50
270.0
 51
0.0
  0
LINE
  5
48
  8
0
  6
CONTINUOUS
 62
     7
 10
-76.7139937951
 20
323.8299439343
 30
0.0
 11
-64.7139918282
 21
323.8299439343
 31
0.0
  0
LINE
  5
49
  8
0
  6
CONTINUOUS
 62
     7
 10
-20.1619040444
 20
552.429939309
 30
0.0
 11
-76.7139937951
 21
552.429939309
 31
0.0
  0
ARC
  5
4A
  8
0
  6
CONTINUOUS
 62
     7
 10
-76.7139913514
 20
326.8299416216
 30
0.0
 40
3.0
 50
180.0
 51
270.0
  0
ARC
  5
4B
  8
0
  6
CONTINUOUS
 62
     7
 10
-76.7139913514
 20
549.4299416216
 30
0.0
 40
3.0
 50
90.0
 51
180.0
  0
LINE
  5
4C
  8
0
  6
CONTINUOUS
 62
     7
 10
146.2860110924
 20
552.429939309
 30
0.0
 11
89.7339213417
 21
552.429939309
 31
0.0
  0
LINE
  5
4D
  8
0
  6
CONTINUOUS
 62
     7
 10
134.2860091255
 20
323.8299439343
 30
0.0
 11
146.2860110924
 21
323.8299439343
 31
0.0
  0
LINE
  5
4E
  8
0
  6
CONTINUOUS
 62
     7
 10
20.7860082165
 20
653.7339339646
 30
0.0
 11
20.7860082165
 21
638.6014620455
 31
0.0
  0
LINE
  5
4F
  8
0
  6
CONTINUOUS
 62
     7
 10
48.7860090808
 20
638.7982914837
 30
0.0
 11
48.7860090808
 21
653.838152686
 31
0.0
  0
LINE
  5
50
  8
0
  6
CONTINUOUS
 62
     7
 10
0.5936104582
 20
609.9525193365
 30
0.0
 11
0.5241822229
 21
613.9299372824
 31
0.0
  0
LINE
  5
51
  8
0
  6
CONTINUOUS
 62
     7
 10
69.0478350744
 20
613.9299372824
 30
0.0
 11
68.9784142897
 21
609.9529365691
 31
0.0
  0
LINE
  5
52
  8
0
  6
CONTINUOUS
 62
     7
 10
-36.8997600152
 20
598.9299366864
 30
0.0
 11
-37.2139882519
 21
586.92994217
 31
0.0
  0
LINE
  5
53
  8
0
  6
CONTINUOUS
 62
     7
 10
106.7860055492
 20
586.92994217
 30
0.0
 11
106.4717773125
 21
598.9299366864
 31
0.0
  0
ARC
  5
54
  8
0
  6
CONTINUOUS
 62
     7
 10
-46.7139913514
 20
363.5352505351
 30
0.0
 40
8.000000000000007
 50
133.5926393536
 51
180.0
  0
ARC
  5
55
  8
0
  6
CONTINUOUS
 62
     7
 10
116.2860086486
 20
363.5352505351
 30
0.0
 40
8.000000000000014
 50
0.0
 51
46.3849579784
  0
LINE
  5
56
  8
0
  6
CONTINUOUS
 62
     7
 10
106.2620807216
 20
574.9299476536
 30
0.0
 11
106.7860055492
 21
586.92994217
 31
0.0
  0
LINE
  5
57
  8
0
  6
CONTINUOUS
 62
     7
 10
-37.2139882519
 20
586.92994217
 30
0.0
 11
-36.6900634243
 21
574.9299476536
 31
0.0
  0
LINE
  5
58
  8
0
  6
CONTINUOUS
 62
     7
 10
-36.6900634243
 20
574.9299476536
 30
0.0
 11
-34.6628573015
 21
573.7595359476
 31
0.0
  0
LINE
  5
59
  8
0
  6
CONTINUOUS
 62
     7
 10
104.2348745988
 20
573.7595359476
 30
0.0
 11
106.2620807216
 21
574.9299476536
 31
0.0
  0
POLYLINE
  5
5A
  8
0
  6
CONTINUOUS
 62
     7
 66
     1
 10
0.0
 20
0.0
 30
0.0
  0
VERTEX
  5
419
  8
0
  6
CONTINUOUS
 62
     7
 10
-0.2139915004
 20
675.9299437197
 30
0.0
  0
VERTEX
  5
41A
  8
0
  6
CONTINUOUS
 62
     7
 10
-0.3982257321
 20
669.642771283
 30
0.0
  0
VERTEX
  5
41B
  8
0
  6
CONTINUOUS
 62
     7
 10
-1.1896971836
 20
664.0461037548
 30
0.0
  0
VERTEX
  5
41C
  8
0
  6
CONTINUOUS
 62
     7
 10
-2.6480104997
 20
659.2197517546
 30
0.0
  0
VERTEX
  5
41D
  8
0
  6
CONTINUOUS
 62
     7
 10
-4.505574353
 20
655.1618079336
 30
0.0
  0
VERTEX
  5
41E
  8
0
  6
CONTINUOUS
 62
     7
 10
-6.5396424606
 20
651.8352727087
 30
0.0
  0
VERTEX
  5
41F
  8
0
  6
CONTINUOUS
 62
     7
 10
-8.5671354308
 20
649.1809586676
 30
0.0
  0
VERTEX
  5
420
  8
0
  6
CONTINUOUS
 62
     7
 10
-10.4076635315
 20
647.1038709076
 30
0.0
  0
VERTEX
  5
421
  8
0
  6
CONTINUOUS
 62
     7
 10
-12.0412554815
 20
645.1346228512
 30
0.0
  0
VERTEX
  5
422
  8
0
  6
CONTINUOUS
 62
     7
 10
-12.2620161846
 20
644.829819599
 30
0.0
  0
SEQEND
  5
7F0
  8
0
  6
CONTINUOUS
 62
     7
  0
POLYLINE
  5
5B
  8
0
  6
CONTINUOUS
 62
     7
 66
     1
 10
0.0
 20
0.0
 30
0.0
  0
VERTEX
  5
423
  8
0
  6
CONTINUOUS
 62
     7
 10
81.842363231
 20
644.836197296
 30
0.0
  0
VERTEX
  5
424
  8
0
  6
CONTINUOUS
 62
     7
 10
79.1355896518
 20
648.0484555157
 30
0.0
  0
VERTEX
  5
425
  8
0
  6
CONTINUOUS
 62
     7
 10
76.0964605734
 20
651.857296625
 30
0.0
  0
VERTEX
  5
426
  8
0
  6
CONTINUOUS
 62
     7
 10
73.373064749
 20
656.545708576
 30
0.0
  0
VERTEX
  5
427
  8
0
  6
CONTINUOUS
 62
     7
 10
71.2444897518
 20
662.1499160918
 30
0.0
  0
VERTEX
  5
428
  8
0
  6
CONTINUOUS
 62
     7
 10
70.3178088889
 20
666.3887600096
 30
0.0
  0
VERTEX
  5
429
  8
0
  6
CONTINUOUS
 62
     7
 10
69.9149522708
 20
671.0057804974
 30
0.0
  0
VERTEX
  5
42A
  8
0
  6
CONTINUOUS
 62
     7
 10
69.7860087977
 20
675.9299437197
 30
0.0
  0
SEQEND
  5
7EF
  8
0
  6
CONTINUOUS
 62
     7
  0
LINE
  5
5C
  8
0
  6
CONTINUOUS
 62
     7
 10
89.7860083506
 20
552.3205275329
 30
0.0
 11
89.7860083506
 21
554.9299443754
 31
0.0
  0
LINE
  5
5D
  8
0
  6
CONTINUOUS
 62
     7
 10
-20.2139910533
 20
554.9299443754
 30
0.0
 11
-20.2139910533
 21
552.3205275329
 31
0.0
  0
LINE
  5
5E
  8
0
  6
CONTINUOUS
 62
     7
 10
22.7860085443
 20
695.9299544485
 30
0.0
 11
22.7860085443
 21
694.4299439581
 31
0.0
  0
LINE
  5
5F
  8
0
  6
CONTINUOUS
 62
     7
 10
46.786008753
 20
694.4299439581
 30
0.0
 11
46.786008753
 21
695.9299544485
 31
0.0
  0
LINE
  5
60
  8
0
  6
CONTINUOUS
 62
     7
 10
80.7860087381
 20
728.5299400481
 30
0.0
 11
60.1075351015
 21
736.0562781485
 31
0.0
  0
LINE
  5
61
  8
0
  6
CONTINUOUS
 62
     7
 10
9.4644821957
 20
736.0562781485
 30
0.0
 11
-11.2139914408
 21
728.5299400481
 31
0.0
  0
LINE
  5
62
  8
0
  6
CONTINUOUS
 62
     7
 10
-11.2139914408
 20
728.5299400481
 30
0.0
 11
-11.2139914408
 21
725.1299420985
 31
0.0
  0
LINE
  5
63
  8
0
  6
CONTINUOUS
 62
     7
 10
80.7860087381
 20
725.1299420985
 30
0.0
 11
80.7860087381
 21
728.5299400481
 31
0.0
  0
LINE
  5
64
  8
0
  6
CONTINUOUS
 62
     7
 10
7.7860079483
 20
714.9299482497
 30
0.0
 11
7.002450876
 21
692.491779724
 31
0.0
  0
LINE
  5
65
  8
0
  6
CONTINUOUS
 62
     7
 10
62.5695664213
 20
692.491779724
 30
0.0
 11
61.786009349
 21
714.9299482497
 31
0.0
  0
LINE
  5
66
  8
0
  6
CONTINUOUS
 62
     7
 10
50.7860094086
 20
714.9299482497
 30
0.0
 11
50.7860094086
 21
724.2890695723
 31
0.0
  0
LINE
  5
67
  8
0
  6
CONTINUOUS
 62
     7
 10
18.7860078887
 20
724.2890695723
 30
0.0
 11
18.7860078887
 21
714.9299482497
 31
0.0
  0
LINE
  5
68
  8
0
  6
CONTINUOUS
 62
     7
 10
-34.6628871038
 20
573.7595359476
 30
0.0
 11
-33.8407751396
 21
554.9299443754
 31
0.0
  0
LINE
  5
69
  8
0
  6
CONTINUOUS
 62
     7
 10
103.4127924369
 20
554.9299443754
 30
0.0
 11
104.2349044011
 21
573.7595359476
 31
0.0
  0
LINE
  5
6A
  8
0
  6
CONTINUOUS
 62
     7
 10
69.7860087977
 20
675.9299437197
 30
0.0
 11
69.7715993748
 21
676.4801392945
 31
0.0
  0
LINE
  5
6B
  8
0
  6
CONTINUOUS
 62
     7
 10
-0.1995820775
 20
676.4801392945
 30
0.0
 11
-0.2139915004
 21
675.9299437197
 31
0.0
  0
LINE
  5
6C
  8
0
  6
CONTINUOUS
 62
     7
 10
-36.6379317119
 20
613.9299372824
 30
0.0
 11
-36.8997600152
 21
598.9299366864
 31
0.0
  0
LINE
  5
6D
  8
0
  6
CONTINUOUS
 62
     7
 10
106.4717773125
 20
598.9299366864
 30
0.0
 11
106.2099490092
 21
613.9299372824
 31
0.0
  0
LINE
  5
6E
  8
0
  6
CONTINUOUS
 62
     7
 10
149.2860097215
 20
549.4299406799
 30
0.0
 11
149.2860097215
 21
326.8299425634
 31
0.0
  0
POLYLINE
  5
6F
  8
0
  6
CONTINUOUS
 62
     7
 66
     1
 10
0.0
 20
0.0
 30
0.0
  0
VERTEX
  5
42B
  8
0
  6
CONTINUOUS
 62
     7
 10
-57.7139925434
 20
340.5208537968
 30
0.0
  0
VERTEX
  5
42C
  8
0
  6
CONTINUOUS
 62
     7
 10
-56.9421347453
 20
340.6622658165
 30
0.0
  0
VERTEX
  5
42D
  8
0
  6
CONTINUOUS
 62
     7
 10
-56.2666278555
 20
341.0427297147
 30
0.0
  0
VERTEX
  5
42E
  8
0
  6
CONTINUOUS
 62
     7
 10
-55.5280816033
 20
341.8499032648
 30
0.0
  0
VERTEX
  5
42F
  8
0
  6
CONTINUOUS
 62
     7
 10
-54.905503638
 20
343.2696561011
 30
0.0
  0
VERTEX
  5
430
  8
0
  6
CONTINUOUS
 62
     7
 10
-54.7139939144
 20
344.7833980115
 30
0.0
  0
SEQEND
  5
7EE
  8
0
  6
CONTINUOUS
 62
     7
  0
ARC
  5
70
  8
0
  6
CONTINUOUS
 62
     7
 10
-57.7153295756
 20
549.3191917359
 30
0.0
 40
3.00133609479934
 50
359.9692026796
 51
89.974475934
  0
LINE
  5
71
  8
0
  6
CONTINUOUS
 62
     7
 10
-54.7139939144
 20
549.3175784739
 30
0.0
 11
-54.7139939144
 21
344.7833980115
 31
0.0
  0
LINE
  5
72
  8
0
  6
CONTINUOUS
 62
     7
 10
-64.7139918282
 20
340.5208537968
 30
0.0
 11
-57.7139925434
 21
340.5208537968
 31
0.0
  0
LINE
  5
73
  8
0
  6
CONTINUOUS
 62
     7
 10
-20.1619040444
 20
552.3205275329
 30
0.0
 11
-57.7139925434
 21
552.3205275329
 31
0.0
  0
LINE
  5
74
  8
0
  6
CONTINUOUS
 62
     7
 10
-79.7139924242
 20
549.4299406799
 30
0.0
 11
-79.7139924242
 21
326.8299425634
 31
0.0
  0
LINE
  5
75
  8
0
  6
CONTINUOUS
 62
     7
 10
134.2860091255
 20
340.5208537968
 30
0.0
 11
127.2860098407
 21
340.5208537968
 31
0.0
  0
LINE
  5
76
  8
0
  6
CONTINUOUS
 62
     7
 10
89.7339213417
 20
552.3205275329
 30
0.0
 11
127.2860098407
 21
552.3205275329
 31
0.0
  0
POLYLINE
  5
77
  8
0
  6
CONTINUOUS
 62
     7
 66
     1
 10
0.0
 20
0.0
 30
0.0
  0
VERTEX
  5
431
  8
0
  6
CONTINUOUS
 62
     7
 10
127.2860098407
 20
340.5208537968
 30
0.0
  0
VERTEX
  5
432
  8
0
  6
CONTINUOUS
 62
     7
 10
126.5141520426
 20
340.6622658165
 30
0.0
  0
VERTEX
  5
433
  8
0
  6
CONTINUOUS
 62
     7
 10
125.8386451528
 20
341.0427297147
 30
0.0
  0
VERTEX
  5
434
  8
0
  6
CONTINUOUS
 62
     7
 10
125.1000989006
 20
341.8499032648
 30
0.0
  0
VERTEX
  5
435
  8
0
  6
CONTINUOUS
 62
     7
 10
124.4775209353
 20
343.2696561011
 30
0.0
  0
VERTEX
  5
436
  8
0
  6
CONTINUOUS
 62
     7
 10
124.2860112116
 20
344.7833980115
 30
0.0
  0
SEQEND
  5
7ED
  8
0
  6
CONTINUOUS
 62
     7
  0
LINE
  5
78
  8
0
  6
CONTINUOUS
 62
     7
 10
124.2860112116
 20
549.3175784739
 30
0.0
 11
124.2860112116
 21
344.7833980115
 31
0.0
  0
ARC
  5
79
  8
0
  6
CONTINUOUS
 62
     7
 10
127.287526444
 20
549.3190123412
 30
0.0
 40
3.001515574801298
 50
90.0289503636
 51
180.0273710228
  0
LINE
  5
7A
  8
0
  6
CONTINUOUS
 62
     7
 10
-14.72736115
 20
598.9299366864
 30
0.0
 11
84.2993784473
 21
598.9299366864
 31
0.0
  0
LINE
  5
7B
  8
0
  6
CONTINUOUS
 62
     7
 10
-14.8015614822
 20
586.92994217
 30
0.0
 11
84.3735787795
 21
586.92994217
 31
0.0
  0
POLYLINE
  5
7C
  8
0
  6
CONTINUOUS
 62
     7
 66
     1
 10
0.0
 20
0.0
 30
0.0
  0
VERTEX
  5
437
  8
0
  6
CONTINUOUS
 62
     7
 10
68.9948577211
 20
609.952653447
 30
0.0
  0
VERTEX
  5
438
  8
0
  6
CONTINUOUS
 62
     7
 10
69.1269192622
 20
608.7096134814
 30
0.0
  0
VERTEX
  5
439
  8
0
  6
CONTINUOUS
 62
     7
 10
69.7519447432
 20
607.2060863169
 30
0.0
  0
VERTEX
  5
43A
  8
0
  6
CONTINUOUS
 62
     7
 10
70.848618053
 20
605.7357291373
 30
0.0
  0
VERTEX
  5
43B
  8
0
  6
CONTINUOUS
 62
     7
 10
72.4456872568
 20
604.310522476
 30
0.0
  0
VERTEX
  5
43C
  8
0
  6
CONTINUOUS
 62
     7
 10
74.4906779156
 20
603.0107984932
 30
0.0
  0
VERTEX
  5
43D
  8
0
  6
CONTINUOUS
 62
     7
 10
76.7327587829
 20
601.9745419415
 30
0.0
  0
VERTEX
  5
43E
  8
0
  6
CONTINUOUS
 62
     7
 10
79.2564939485
 20
601.1338184269
 30
0.0
  0
VERTEX
  5
43F
  8
0
  6
CONTINUOUS
 62
     7
 10
81.317548059
 20
600.6555060538
 30
0.0
  0
VERTEX
  5
440
  8
0
  6
CONTINUOUS
 62
     7
 10
83.4418203459
 20
600.334847966
 30
0.0
  0
VERTEX
  5
441
  8
0
  6
CONTINUOUS
 62
     7
 10
83.7374333069
 20
600.3039280566
 30
0.0
  0
SEQEND
  5
7EC
  8
0
  6
CONTINUOUS
 62
     7
  0
POLYLINE
  5
7D
  8
0
  6
CONTINUOUS
 62
     7
 66
     1
 10
0.0
 20
0.0
 30
0.0
  0
VERTEX
  5
442
  8
0
  6
CONTINUOUS
 62
     7
 10
0.5715381131
 20
609.9521468075
 30
0.0
  0
VERTEX
  5
443
  8
0
  6
CONTINUOUS
 62
     7
 10
0.4732761309
 20
608.8263789805
 30
0.0
  0
VERTEX
  5
444
  8
0
  6
CONTINUOUS
 62
     7
 10
-0.1212690248
 20
607.3096940907
 30
0.0
  0
VERTEX
  5
445
  8
0
  6
CONTINUOUS
 62
     7
 10
-1.1961717381
 20
605.8238844069
 30
0.0
  0
VERTEX
  5
446
  8
0
  6
CONTINUOUS
 62
     7
 10
-2.7674172296
 20
604.39103345
 30
0.0
  0
VERTEX
  5
447
  8
0
  6
CONTINUOUS
 62
     7
 10
-4.7896836176
 20
603.0810425671
 30
0.0
  0
VERTEX
  5
448
  8
0
  6
CONTINUOUS
 62
     7
 10
-7.0205364599
 20
602.0304659994
 30
0.0
  0
VERTEX
  5
449
  8
0
  6
CONTINUOUS
 62
     7
 10
-9.5392871871
 20
601.1741707714
 30
0.0
  0
VERTEX
  5
44A
  8
0
  6
CONTINUOUS
 62
     7
 10
-11.5967836454
 20
600.6843994053
 30
0.0
  0
VERTEX
  5
44B
  8
0
  6
CONTINUOUS
 62
     7
 10
-13.7216408028
 20
600.3516117724
 30
0.0
  0
VERTEX
  5
44C
  8
0
  6
CONTINUOUS
 62
     7
 10
-14.1654160097
 20
600.3039280566
 30
0.0
  0
SEQEND
  5
7EB
  8
0
  6
CONTINUOUS
 62
     7
  0
ARC
  5
7E
  8
0
  6
CONTINUOUS
 62
     7
 10
57.0268431932
 20
888.453172409
 30
0.0
 40
282.8034189314375
 50
258.4843771169
 51
262.8221058224
  0
POLYLINE
  5
7F
  8
0
  6
CONTINUOUS
 62
     7
 66
     1
 10
0.0
 20
0.0
 30
0.0
  0
VERTEX
  5
44D
  8
0
  6
CONTINUOUS
 62
     7
 10
47.8815877587
 20
607.8660885485
 30
0.0
  0
VERTEX
  5
44E
  8
0
  6
CONTINUOUS
 62
     7
 10
47.6223541201
 20
607.467154661
 30
0.0
  0
VERTEX
  5
44F
  8
0
  6
CONTINUOUS
 62
     7
 10
46.4806811661
 20
606.1672667654
 30
0.0
  0
VERTEX
  5
450
  8
0
  6
CONTINUOUS
 62
     7
 10
44.9285138176
 20
604.9826840552
 30
0.0
  0
VERTEX
  5
451
  8
0
  6
CONTINUOUS
 62
     7
 10
43.3304192276
 20
604.1247198971
 30
0.0
  0
VERTEX
  5
452
  8
0
  6
CONTINUOUS
 62
     7
 10
41.4642341212
 20
603.4078101309
 30
0.0
  0
VERTEX
  5
453
  8
0
  6
CONTINUOUS
 62
     7
 10
39.340393968
 20
602.8634558113
 30
0.0
  0
VERTEX
  5
454
  8
0
  6
CONTINUOUS
 62
     7
 10
37.0384670106
 20
602.5258103998
 30
0.0
  0
VERTEX
  5
455
  8
0
  6
CONTINUOUS
 62
     7
 10
34.9653792519
 20
602.4218151959
 30
0.0
  0
VERTEX
  5
456
  8
0
  6
CONTINUOUS
 62
     7
 10
32.8865550701
 20
602.4951587113
 30
0.0
  0
VERTEX
  5
457
  8
0
  6
CONTINUOUS
 62
     7
 10
29.2163997666
 20
603.0918161066
 30
0.0
  0
VERTEX
  5
458
  8
0
  6
CONTINUOUS
 62
     7
 10
25.9756812603
 20
604.2484442385
 30
0.0
  0
VERTEX
  5
459
  8
0
  6
CONTINUOUS
 62
     7
 10
24.489512086
 20
605.0820598992
 30
0.0
  0
VERTEX
  5
45A
  8
0
  6
CONTINUOUS
 62
     7
 10
23.2601178587
 20
606.0131142529
 30
0.0
  0
VERTEX
  5
45B
  8
0
  6
CONTINUOUS
 62
     7
 10
21.6904295386
 20
607.8660885485
 30
0.0
  0
SEQEND
  5
7EA
  8
0
  6
CONTINUOUS
 62
     7
  0
ARC
  5
80
  8
0
  6
CONTINUOUS
 62
     7
 10
11.4921421144
 20
894.8690804061
 30
0.0
 40
289.3007243156123
 50
277.2260416863
 51
281.4662979133
  0
LINE
  5
81
  8
0
  6
CONTINUOUS
 62
     7
 10
-15.5637298002
 20
574.9299476536
 30
0.0
 11
85.1357470975
 21
574.9299476536
 31
0.0
  0
LINE
  5
82
  8
0
  6
CONTINUOUS
 62
     7
 10
66.457629554
 20
569.4589267166
 30
0.0
 11
3.1143877432
 21
569.4589267166
 31
0.0
  0
ARC
  5
83
  8
0
  6
CONTINUOUS
 62
     7
 10
2.9684526331
 20
540.3218640515
 30
0.0
 40
29.13742812617648
 50
89.7130322959
 51
102.30823741
  0
POLYLINE
  5
84
  8
0
  6
CONTINUOUS
 62
     7
 66
     1
 10
0.0
 20
0.0
 30
0.0
  0
VERTEX
  5
45C
  8
0
  6
CONTINUOUS
 62
     7
 10
-15.0591764822
 20
573.7179915102
 30
0.0
  0
VERTEX
  5
45D
  8
0
  6
CONTINUOUS
 62
     7
 10
-12.1506411805
 20
573.373342553
 30
0.0
  0
VERTEX
  5
45E
  8
0
  6
CONTINUOUS
 62
     7
 10
-8.936460711
 20
572.5021759661
 30
0.0
  0
VERTEX
  5
45F
  8
0
  6
CONTINUOUS
 62
     7
 10
-6.0706358626
 20
571.165914336
 30
0.0
  0
VERTEX
  5
460
  8
0
  6
CONTINUOUS
 62
     7
 10
-3.7216056361
 20
569.3406263979
 30
0.0
  0
VERTEX
  5
461
  8
0
  6
CONTINUOUS
 62
     7
 10
-3.2427977993
 20
568.7895665558
 30
0.0
  0
SEQEND
  5
7E9
  8
0
  6
CONTINUOUS
 62
     7
  0
POLYLINE
  5
85
  8
0
  6
CONTINUOUS
 62
     7
 66
     1
 10
0.0
 20
0.0
 30
0.0
  0
VERTEX
  5
462
  8
0
  6
CONTINUOUS
 62
     7
 10
84.6311937795
 20
573.7179915102
 30
0.0
  0
VERTEX
  5
463
  8
0
  6
CONTINUOUS
 62
     7
 10
81.7226584778
 20
573.373342553
 30
0.0
  0
VERTEX
  5
464
  8
0
  6
CONTINUOUS
 62
     7
 10
78.5084780083
 20
572.5021759661
 30
0.0
  0
VERTEX
  5
465
  8
0
  6
CONTINUOUS
 62
     7
 10
75.6426531599
 20
571.165914336
 30
0.0
  0
VERTEX
  5
466
  8
0
  6
CONTINUOUS
 62
     7
 10
73.2936229334
 20
569.3406263979
 30
0.0
  0
VERTEX
  5
467
  8
0
  6
CONTINUOUS
 62
     7
 10
72.8148150966
 20
568.7895665558
 30
0.0
  0
SEQEND
  5
7E8
  8
0
  6
CONTINUOUS
 62
     7
  0
ARC
  5
86
  8
0
  6
CONTINUOUS
 62
     7
 10
66.6035646642
 20
540.3218640515
 30
0.0
 40
29.13742812617648
 50
77.69176259
 51
90.2869677041
  0
POLYLINE
  5
87
  8
0
  6
CONTINUOUS
 62
     7
 66
     1
 10
0.0
 20
0.0
 30
0.0
  0
VERTEX
  5
468
  8
0
  6
CONTINUOUS
 62
     7
 10
47.8815877587
 20
607.8660885485
 30
0.0
  0
VERTEX
  5
469
  8
0
  6
CONTINUOUS
 62
     7
 10
47.8489765675
 20
614.1910354288
 30
0.0
  0
VERTEX
  5
46A
  8
0
  6
CONTINUOUS
 62
     7
 10
48.0053689108
 20
620.42796115
 30
0.0
  0
VERTEX
  5
46B
  8
0
  6
CONTINUOUS
 62
     7
 10
48.3828181178
 20
627.8862009438
 30
0.0
  0
VERTEX
  5
46C
  8
0
  6
CONTINUOUS
 62
     7
 10
48.7271914036
 20
634.8817447813
 30
0.0
  0
VERTEX
  5
46D
  8
0
  6
CONTINUOUS
 62
     7
 10
48.7732872144
 20
638.7793968113
 30
0.0
  0
SEQEND
  5
7E7
  8
0
  6
CONTINUOUS
 62
     7
  0
POLYLINE
  5
88
  8
0
  6
CONTINUOUS
 62
     7
 66
     1
 10
0.0
 20
0.0
 30
0.0
  0
VERTEX
  5
46E
  8
0
  6
CONTINUOUS
 62
     7
 10
48.7832318769
 20
653.774465123
 30
0.0
  0
VERTEX
  5
46F
  8
0
  6
CONTINUOUS
 62
     7
 10
48.7860081495
 20
654.3157647045
 30
0.0
  0
VERTEX
  5
470
  8
0
  6
CONTINUOUS
 62
     7
 10
48.7457228602
 20
657.5812349709
 30
0.0
  0
VERTEX
  5
471
  8
0
  6
CONTINUOUS
 62
     7
 10
48.552207999
 20
660.9542767199
 30
0.0
  0
VERTEX
  5
472
  8
0
  6
CONTINUOUS
 62
     7
 10
48.176753685
 20
663.5868052634
 30
0.0
  0
VERTEX
  5
473
  8
0
  6
CONTINUOUS
 62
     7
 10
47.5892949627
 20
665.5202756317
 30
0.0
  0
VERTEX
  5
474
  8
0
  6
CONTINUOUS
 62
     7
 10
46.6544193924
 20
667.0840183886
 30
0.0
  0
VERTEX
  5
475
  8
0
  6
CONTINUOUS
 62
     7
 10
44.5766312779
 20
668.7727222832
 30
0.0
  0
VERTEX
  5
476
  8
0
  6
CONTINUOUS
 62
     7
 10
42.8133126125
 20
669.5557932051
 30
0.0
  0
VERTEX
  5
477
  8
0
  6
CONTINUOUS
 62
     7
 10
40.7777758092
 20
670.1339433583
 30
0.0
  0
VERTEX
  5
478
  8
0
  6
CONTINUOUS
 62
     7
 10
38.6219144576
 20
670.5081115158
 30
0.0
  0
VERTEX
  5
479
  8
0
  6
CONTINUOUS
 62
     7
 10
36.2928225669
 20
670.7127789648
 30
0.0
  0
VERTEX
  5
47A
  8
0
  6
CONTINUOUS
 62
     7
 10
33.9868112361
 20
670.7386920842
 30
0.0
  0
VERTEX
  5
47B
  8
0
  6
CONTINUOUS
 62
     7
 10
31.6365329792
 20
670.5882201584
 30
0.0
  0
VERTEX
  5
47C
  8
0
  6
CONTINUOUS
 62
     7
 10
29.460875202
 20
670.2716300877
 30
0.0
  0
VERTEX
  5
47D
  8
0
  6
CONTINUOUS
 62
     7
 10
27.3739917912
 20
669.7593877705
 30
0.0
  0
VERTEX
  5
47E
  8
0
  6
CONTINUOUS
 62
     7
 10
25.5157718212
 20
669.0420458706
 30
0.0
  0
VERTEX
  5
47F
  8
0
  6
CONTINUOUS
 62
     7
 10
23.8638086022
 20
668.0174569281
 30
0.0
  0
VERTEX
  5
480
  8
0
  6
CONTINUOUS
 62
     7
 10
22.5118085519
 20
666.5253440531
 30
0.0
  0
VERTEX
  5
481
  8
0
  6
CONTINUOUS
 62
     7
 10
21.7270454169
 20
664.8393819722
 30
0.0
  0
VERTEX
  5
482
  8
0
  6
CONTINUOUS
 62
     7
 10
21.262216732
 20
662.8805498274
 30
0.0
  0
VERTEX
  5
483
  8
0
  6
CONTINUOUS
 62
     7
 10
20.943974495
 20
660.0165764483
 30
0.0
  0
VERTEX
  5
484
  8
0
  6
CONTINUOUS
 62
     7
 10
20.8136712909
 20
657.1042040976
 30
0.0
  0
VERTEX
  5
485
  8
0
  6
CONTINUOUS
 62
     7
 10
20.7845981941
 20
654.0851096304
 30
0.0
  0
VERTEX
  5
486
  8
0
  6
CONTINUOUS
 62
     7
 10
20.7874135823
 20
653.6438266428
 30
0.0
  0
SEQEND
  5
7E6
  8
0
  6
CONTINUOUS
 62
     7
  0
POLYLINE
  5
89
  8
0
  6
CONTINUOUS
 62
     7
 66
     1
 10
0.0
 20
0.0
 30
0.0
  0
VERTEX
  5
487
  8
0
  6
CONTINUOUS
 62
     7
 10
20.7935649679
 20
638.5720322522
 30
0.0
  0
VERTEX
  5
488
  8
0
  6
CONTINUOUS
 62
     7
 10
20.8064870686
 20
636.4376644286
 30
0.0
  0
VERTEX
  5
489
  8
0
  6
CONTINUOUS
 62
     7
 10
20.8933636323
 20
633.5844347866
 30
0.0
  0
VERTEX
  5
48A
  8
0
  6
CONTINUOUS
 62
     7
 10
21.07714431
 20
629.8779795559
 30
0.0
  0
VERTEX
  5
48B
  8
0
  6
CONTINUOUS
 62
     7
 10
21.2966300324
 20
625.9799549969
 30
0.0
  0
VERTEX
  5
48C
  8
0
  6
CONTINUOUS
 62
     7
 10
21.5091932342
 20
621.7805544527
 30
0.0
  0
VERTEX
  5
48D
  8
0
  6
CONTINUOUS
 62
     7
 10
21.6651916281
 20
617.4181352051
 30
0.0
  0
VERTEX
  5
48E
  8
0
  6
CONTINUOUS
 62
     7
 10
21.7322701365
 20
612.7132276686
 30
0.0
  0
VERTEX
  5
48F
  8
0
  6
CONTINUOUS
 62
     7
 10
21.6904295386
 20
607.8660885485
 30
0.0
  0
SEQEND
  5
7E5
  8
0
  6
CONTINUOUS
 62
     7
  0
LINE
  5
8A
  8
0
  6
CONTINUOUS
 62
     7
 10
-25.2805944755
 20
598.9299366864
 30
0.0
 11
-24.5739441588
 21
598.9299366864
 31
0.0
  0
LINE
  5
8B
  8
0
  6
CONTINUOUS
 62
     7
 10
-24.5739441588
 20
598.9299366864
 30
0.0
 11
-14.72736115
 21
598.9299366864
 31
0.0
  0
LINE
  5
8C
  8
0
  6
CONTINUOUS
 62
     7
 10
-25.5805995538
 20
586.92994217
 30
0.0
 11
-14.8015614822
 21
586.92994217
 31
0.0
  0
LINE
  5
8D
  8
0
  6
CONTINUOUS
 62
     7
 10
84.2993784473
 20
598.9299366864
 30
0.0
 11
94.1459614561
 21
598.9299366864
 31
0.0
  0
LINE
  5
8E
  8
0
  6
CONTINUOUS
 62
     7
 10
94.8526117728
 20
598.9299366864
 30
0.0
 11
94.1459614561
 21
598.9299366864
 31
0.0
  0
LINE
  5
8F
  8
0
  6
CONTINUOUS
 62
     7
 10
84.3735787795
 20
586.92994217
 30
0.0
 11
95.1526168511
 21
586.92994217
 31
0.0
  0
ARC
  5
90
  8
0
  6
CONTINUOUS
 62
     7
 10
-2.0469220149
 20
468.3901875061
 30
0.0
 40
132.4692146980058
 50
95.2488474386
 51
99.7910036488
  0
ARC
  5
91
  8
0
  6
CONTINUOUS
 62
     7
 10
71.6189393122
 20
468.3901875061
 30
0.0
 40
132.4692146980058
 50
80.2089963512
 51
84.7511525614
  0
LINE
  5
92
  8
0
  6
CONTINUOUS
 62
     7
 10
-24.3469994738
 20
613.9299372824
 30
0.0
 11
-24.5739441588
 21
598.9299366864
 31
0.0
  0
LINE
  5
93
  8
0
  6
CONTINUOUS
 62
     7
 10
0.5241822229
 20
613.9299372824
 30
0.0
 11
-24.3469994738
 21
613.9299372824
 31
0.0
  0
LINE
  5
94
  8
0
  6
CONTINUOUS
 62
     7
 10
93.9190167711
 20
613.9299372824
 30
0.0
 11
69.0478350744
 21
613.9299372824
 31
0.0
  0
LINE
  5
95
  8
0
  6
CONTINUOUS
 62
     7
 10
93.9190167711
 20
613.9299372824
 30
0.0
 11
94.1459614561
 21
598.9299366864
 31
0.0
  0
LINE
  5
96
  8
0
  6
CONTINUOUS
 62
     7
 10
85.1357470975
 20
574.9299476536
 30
0.0
 11
95.5263975785
 21
574.9299476536
 31
0.0
  0
LINE
  5
97
  8
0
  6
CONTINUOUS
 62
     7
 10
-15.5637298002
 20
574.9299476536
 30
0.0
 11
-25.9543802812
 21
574.9299476536
 31
0.0
  0
ARC
  5
98
  8
0
  6
CONTINUOUS
 62
     7
 10
91.9281530296
 20
455.1019481123
 30
0.0
 40
118.8402766980655
 50
89.0680222787
 51
93.520255359
  0
ARC
  5
99
  8
0
  6
CONTINUOUS
 62
     7
 10
-22.3561357323
 20
455.1019481123
 30
0.0
 40
118.8402766980655
 50
86.479744641
 51
90.9319777213
  0
LINE
  5
9A
  8
0
  6
CONTINUOUS
 62
     7
 10
93.4127907977
 20
554.9299443754
 30
0.0
 11
94.2303914354
 21
573.6560622843
 31
0.0
  0
LINE
  5
9B
  8
0
  6
CONTINUOUS
 62
     7
 10
93.4127907977
 20
554.9299443754
 30
0.0
 11
73.3310360239
 21
554.9299443754
 31
0.0
  0
LINE
  5
9C
  8
0
  6
CONTINUOUS
 62
     7
 10
73.3310360239
 20
554.9299443754
 30
0.0
 11
72.8148150966
 21
568.7895665558
 31
0.0
  0
LINE
  5
9D
  8
0
  6
CONTINUOUS
 62
     7
 10
94.2303914354
 20
573.6560622843
 30
0.0
 11
93.8611332104
 21
573.9265034588
 31
0.0
  0
LINE
  5
9E
  8
0
  6
CONTINUOUS
 62
     7
 10
-3.7590187266
 20
554.9299443754
 30
0.0
 11
-3.2427977993
 21
568.7895665558
 31
0.0
  0
LINE
  5
9F
  8
0
  6
CONTINUOUS
 62
     7
 10
-23.8407735004
 20
554.9299443754
 30
0.0
 11
-3.7590187266
 21
554.9299443754
 31
0.0
  0
LINE
  5
A0
  8
0
  6
CONTINUOUS
 62
     7
 10
-23.8407735004
 20
554.9299443754
 30
0.0
 11
-24.6583741381
 21
573.6560622843
 31
0.0
  0
LINE
  5
A1
  8
0
  6
CONTINUOUS
 62
     7
 10
-24.6583741381
 20
573.6560622843
 30
0.0
 11
-24.2891159131
 21
573.9265034588
 31
0.0
  0
LINE
  5
A2
  8
0
  6
CONTINUOUS
 62
     7
 10
28.2965161615
 20
544.821786383
 30
0.0
 11
34.5642776093
 21
529.6873177083
 31
0.0
  0
LINE
  5
A3
  8
0
  6
CONTINUOUS
 62
     7
 10
34.5626146164
 20
529.6873177083
 30
0.0
 11
34.5642776093
 21
529.6873177083
 31
0.0
  0
LINE
  5
A4
  8
0
  6
CONTINUOUS
 62
     7
 10
28.2478447781
 20
544.821786383
 30
0.0
 11
34.5626146164
 21
529.6873177083
 31
0.0
  0
LINE
  5
A5
  8
0
  6
CONTINUOUS
 62
     7
 10
28.2478447781
 20
544.821786383
 30
0.0
 11
28.2965161615
 21
544.821786383
 31
0.0
  0
LINE
  5
A6
  8
0
  6
CONTINUOUS
 62
     7
 10
35.007739688
 20
529.6873177083
 30
0.0
 11
41.2755011358
 21
544.821786383
 31
0.0
  0
LINE
  5
A7
  8
0
  6
CONTINUOUS
 62
     7
 10
41.3241725192
 20
544.821786383
 30
0.0
 11
41.2755011358
 21
544.821786383
 31
0.0
  0
LINE
  5
A8
  8
0
  6
CONTINUOUS
 62
     7
 10
35.0094026809
 20
529.6873177083
 30
0.0
 11
41.3241725192
 21
544.821786383
 31
0.0
  0
LINE
  5
A9
  8
0
  6
CONTINUOUS
 62
     7
 10
35.0094026809
 20
529.6873177083
 30
0.0
 11
35.007739688
 21
529.6873177083
 31
0.0
  0
ARC
  5
AA
  8
0
  6
CONTINUOUS
 62
     7
 10
34.7860086486
 20
529.7791660595
 30
0.0
 40
0.2400016112946203
 50
202.5009588745
 51
337.4990411255
  0
ARC
  5
AB
  8
0
  6
CONTINUOUS
 62
     7
 10
34.7860086486
 20
529.7814612914
 30
0.0
 40
0.2424209311563477
 50
202.8517202937
 51
337.1482797063
  0
LINE
  5
AC
  8
0
  6
CONTINUOUS
 62
     7
 10
11.5524589793
 20
544.9699411782
 30
0.0
 11
28.0245727637
 21
544.9699411782
 31
0.0
  0
ARC
  5
AD
  8
0
  6
CONTINUOUS
 62
     7
 10
28.0251532851
 20
544.7285011111
 30
0.0
 40
0.2414407649392498
 50
22.7287673512
 51
90.1377624122
  0
ARC
  5
AE
  8
0
  6
CONTINUOUS
 62
     7
 10
41.5468653532
 20
544.7284990901
 30
0.0
 40
0.2414427827246051
 50
89.8625569829
 51
157.2709132537
  0
LINE
  5
AF
  8
0
  6
CONTINUOUS
 62
     7
 10
41.5474445336
 20
544.9699411782
 30
0.0
 11
59.3160711006
 21
544.9699411782
 31
0.0
  0
ARC
  5
B0
  8
0
  6
CONTINUOUS
 62
     7
 10
59.3164038224
 20
544.7302888179
 30
0.0
 40
0.2396525912324505
 50
359.9173405146
 51
90.0795466598
  0
LINE
  5
B1
  8
0
  6
CONTINUOUS
 62
     7
 10
59.5560561643
 20
544.729943076
 30
0.0
 11
59.5560561643
 21
540.4099399837
 31
0.0
  0
ARC
  5
B2
  8
0
  6
CONTINUOUS
 62
     7
 10
59.3163644532
 20
540.4096336089
 30
0.0
 40
0.2396919069070602
 50
269.9298771971
 51
0.0732356285
  0
LINE
  5
B3
  8
0
  6
CONTINUOUS
 62
     7
 10
44.7759287209
 20
540.1699418815
 30
0.0
 11
59.3160711006
 21
540.1699418815
 31
0.0
  0
ARC
  5
B4
  8
0
  6
CONTINUOUS
 62
     7
 10
44.7753899293
 20
539.9286593751
 30
0.0
 40
0.2412831079298087
 50
89.8720569
 51
157.2961126823
  0
LINE
  5
B5
  8
0
  6
CONTINUOUS
 62
     7
 10
44.5528033898
 20
540.0217870863
 30
0.0
 11
37.0683203229
 21
522.0780993493
 31
0.0
  0
ARC
  5
B6
  8
0
  6
CONTINUOUS
 62
     7
 10
36.8455678367
 20
522.1714761169
 30
0.0
 40
0.2415323804221754
 50
269.8509100999
 51
337.2568039644
  0
LINE
  5
B7
  8
0
  6
CONTINUOUS
 62
     7
 10
32.7270779536
 20
521.9299445542
 30
0.0
 11
36.8449393437
 21
521.9299445542
 31
0.0
  0
ARC
  5
B8
  8
0
  6
CONTINUOUS
 62
     7
 10
32.7264516766
 20
522.1714794581
 30
0.0
 40
0.2415357158748609
 50
202.7437237695
 51
270.1485621663
  0
LINE
  5
B9
  8
0
  6
CONTINUOUS
 62
     7
 10
32.5036969744
 20
522.0780993493
 30
0.0
 11
25.0192139075
 21
540.0217870863
 31
0.0
  0
ARC
  5
BA
  8
0
  6
CONTINUOUS
 62
     7
 10
24.7966263088
 20
539.9286577801
 30
0.0
 40
0.2412847006439401
 50
22.7041396654
 51
90.1276907522
  0
LINE
  5
BB
  8
0
  6
CONTINUOUS
 62
     7
 10
11.5524589793
 20
540.1699418815
 30
0.0
 11
24.7960885764
 21
540.1699418815
 31
0.0
  0
ARC
  5
BC
  8
0
  6
CONTINUOUS
 62
     7
 10
11.552033888
 20
540.4096860134
 30
0.0
 40
0.2397445088059201
 50
179.939304445
 51
270.1015912638
  0
LINE
  5
BD
  8
0
  6
CONTINUOUS
 62
     7
 10
11.3122895137
 20
540.4099399837
 30
0.0
 11
11.3122895137
 21
544.729943076
 31
0.0
  0
ARC
  5
BE
  8
0
  6
CONTINUOUS
 62
     7
 10
11.5520732609
 20
544.7301576452
 30
0.0
 40
0.2397838431799409
 50
89.9078334736
 51
180.0512708176
  0
LINE
  5
BF
  8
0
  6
CONTINUOUS
 62
     7
 10
39.0442953222
 20
522.2617859634
 30
0.0
 11
45.662019752
 21
538.2505680116
 31
0.0
  0
LINE
  5
C0
  8
0
  6
CONTINUOUS
 62
     7
 10
45.7435905711
 20
538.2505680116
 30
0.0
 11
45.662019752
 21
538.2505680116
 31
0.0
  0
LINE
  5
C1
  8
0
  6
CONTINUOUS
 62
     7
 10
39.0762327016
 20
522.2617859634
 30
0.0
 11
45.7435905711
 21
538.2505680116
 31
0.0
  0
LINE
  5
C2
  8
0
  6
CONTINUOUS
 62
     7
 10
39.0762327016
 20
522.2617859634
 30
0.0
 11
39.0442953222
 21
522.2617859634
 31
0.0
  0
ARC
  5
C3
  8
0
  6
CONTINUOUS
 62
     7
 10
39.2660128661
 20
522.1699347787
 30
0.0
 40
0.239990227706675
 50
157.4971831188
 51
269.9906837072
  0
ARC
  5
C4
  8
0
  6
CONTINUOUS
 62
     7
 10
39.2982584418
 20
522.1701382389
 30
0.0
 40
0.2401972828915234
 50
157.5701572572
 51
270.3136115858
  0
LINE
  5
C5
  8
0
  6
CONTINUOUS
 62
     7
 10
39.2995731682
 20
521.9299445542
 30
0.0
 11
39.2659738437
 21
521.9299445542
 31
0.0
  0
POLYLINE
  5
C6
  8
0
  6
CONTINUOUS
 62
     7
 66
     1
 10
0.0
 20
0.0
 30
0.0
  0
VERTEX
  5
490
  8
0
  6
CONTINUOUS
 62
     7
 10
57.7250387297
 20
533.4707597884
 30
0.0
  0
VERTEX
  5
491
  8
0
  6
CONTINUOUS
 62
     7
 10
55.6824899987
 20
530.8420086892
 30
0.0
  0
VERTEX
  5
492
  8
0
  6
CONTINUOUS
 62
     7
 10
52.8604317234
 20
529.0675411614
 30
0.0
  0
SEQEND
  5
7E4
  8
0
  6
CONTINUOUS
 62
     7
  0
ARC
  5
C7
  8
0
  6
CONTINUOUS
 62
     7
 10
52.9505354254
 20
528.8454523718
 30
0.0
 40
0.2396708317382013
 50
112.0828996464
 51
212.5588422082
  0
LINE
  5
C8
  8
0
  6
CONTINUOUS
 62
     7
 10
52.7485314534
 20
528.7164698037
 30
0.0
 11
56.8472038732
 21
522.2988898547
 31
0.0
  0
ARC
  5
C9
  8
0
  6
CONTINUOUS
 62
     7
 10
56.6447938414
 20
522.1699399696
 30
0.0
 40
0.2399956121062845
 50
269.9266534129
 51
32.5000953175
  0
LINE
  5
CA
  8
0
  6
CONTINUOUS
 62
     7
 10
51.9557356612
 20
521.9299445542
 30
0.0
 11
56.6444866136
 21
521.9299445542
 31
0.0
  0
ARC
  5
CB
  8
0
  6
CONTINUOUS
 62
     7
 10
51.9556564574
 20
522.1712366509
 30
0.0
 40
0.2412921096979362
 50
212.6697888229
 51
270.0188072462
  0
LINE
  5
CC
  8
0
  6
CONTINUOUS
 62
     7
 10
51.7525378392
 20
522.0409880074
 30
0.0
 11
47.4363578261
 21
528.7839646133
 31
0.0
  0
ARC
  5
CD
  8
0
  6
CONTINUOUS
 62
     7
 10
47.2328648408
 20
528.653209216
 30
0.0
 40
0.2418808983227511
 50
32.7229677332
 51
157.2227546434
  0
LINE
  5
CE
  8
0
  6
CONTINUOUS
 62
     7
 10
47.0098465458
 20
528.7468532713
 30
0.0
 11
44.2308870853
 21
522.0780993493
 31
0.0
  0
ARC
  5
CF
  8
0
  6
CONTINUOUS
 62
     7
 10
44.0082995016
 20
522.1712285254
 30
0.0
 40
0.2412846365367491
 50
269.865449884
 51
337.2958874831
  0
LINE
  5
D0
  8
0
  6
CONTINUOUS
 62
     7
 10
39.2995731682
 20
521.9299445542
 30
0.0
 11
44.0077328832
 21
521.9299445542
 31
0.0
  0
ARC
  5
D1
  8
0
  6
CONTINUOUS
 62
     7
 10
45.9661285445
 20
538.1575131852
 30
0.0
 40
0.2412101787352609
 50
89.8768524726
 51
157.3076312302
  0
LINE
  5
D2
  8
0
  6
CONTINUOUS
 62
     7
 10
45.9666469843
 20
538.3987228068
 30
0.0
 11
50.6669081525
 21
538.3987228068
 31
0.0
  0
ARC
  5
D3
  8
0
  6
CONTINUOUS
 62
     7
 10
50.6676954977
 20
538.158609512
 30
0.0
 40
0.2401145856517143
 50
337.5412563085
 51
90.1878754579
  0
LINE
  5
D4
  8
0
  6
CONTINUOUS
 62
     7
 10
50.8895985559
 20
538.0668813976
 30
0.0
 11
48.7844053433
 21
533.0081755908
 31
0.0
  0
ARC
  5
D5
  8
0
  6
CONTINUOUS
 62
     7
 10
49.0062814063
 20
532.9164525008
 30
0.0
 40
0.2400877184917772
 50
157.5399033494
 51
267.9366640649
  0
ARC
  5
D6
  8
0
  6
CONTINUOUS
 62
     7
 10
49.2193165039
 20
537.96163718
 30
0.0
 40
5.289763365203537
 50
267.5982908471
 51
2.0379281415
  0
ARC
  5
D7
  8
0
  6
CONTINUOUS
 62
     7
 10
54.7454603295
 20
538.1588261252
 30
0.0
 40
0.2398977982921051
 50
89.8251804561
 51
182.1672006751
  0
LINE
  5
D8
  8
0
  6
CONTINUOUS
 62
     7
 10
54.7461922989
 20
538.3987228068
 30
0.0
 11
59.3160711006
 21
538.3987228068
 31
0.0
  0
ARC
  5
D9
  8
0
  6
CONTINUOUS
 62
     7
 10
59.3164038224
 20
538.1590704465
 30
0.0
 40
0.2396525912324505
 50
359.9173405146
 51
90.0795466598
  0
LINE
  5
DA
  8
0
  6
CONTINUOUS
 62
     7
 10
59.5560561643
 20
538.1587247046
 30
0.0
 11
59.5560561643
 21
533.8387216123
 31
0.0
  0
ARC
  5
DB
  8
0
  6
CONTINUOUS
 62
     7
 10
59.3163644532
 20
533.8384152375
 30
0.0
 40
0.2396919069070602
 50
269.9298771971
 51
0.0732356285
  0
LINE
  5
DC
  8
0
  6
CONTINUOUS
 62
     7
 10
57.9374696837
 20
533.5987235101
 30
0.0
 11
59.3160711006
 21
533.5987235101
 31
0.0
  0
ARC
  5
DD
  8
0
  6
CONTINUOUS
 62
     7
 10
57.9374220349
 20
533.358493782
 30
0.0
 40
0.2402297327841271
 50
89.9886355778
 51
152.1390294765
  0
ARC
  5
DE
  8
0
  6
CONTINUOUS
 62
     7
 10
30.3058577471
 20
522.1700327674
 30
0.0
 40
0.2400882850570018
 50
270.0443178586
 51
22.4678153153
  0
LINE
  5
DF
  8
0
  6
CONTINUOUS
 62
     7
 10
30.2724441291
 20
521.9299445542
 30
0.0
 11
30.3060434536
 21
521.9299445542
 31
0.0
  0
ARC
  5
E0
  8
0
  6
CONTINUOUS
 62
     7
 10
30.2737588555
 20
522.1701382389
 30
0.0
 40
0.2401972828915135
 50
269.6863884141
 51
22.4298427428
  0
LINE
  5
E1
  8
0
  6
CONTINUOUS
 62
     7
 10
30.4957845957
 20
522.2617859634
 30
0.0
 11
30.5277219751
 21
522.2617859634
 31
0.0
  0
LINE
  5
E2
  8
0
  6
CONTINUOUS
 62
     7
 10
23.9099975453
 20
538.2505680116
 30
0.0
 11
30.5277219751
 21
522.2617859634
 31
0.0
  0
LINE
  5
E3
  8
0
  6
CONTINUOUS
 62
     7
 10
23.8284267262
 20
538.2505680116
 30
0.0
 11
30.4957845957
 21
522.2617859634
 31
0.0
  0
LINE
  5
E4
  8
0
  6
CONTINUOUS
 62
     7
 10
23.8284267262
 20
538.2505680116
 30
0.0
 11
23.9099975453
 21
538.2505680116
 31
0.0
  0
LINE
  5
E5
  8
0
  6
CONTINUOUS
 62
     7
 10
11.5524589793
 20
538.3987228068
 30
0.0
 11
23.605370313
 21
538.3987228068
 31
0.0
  0
ARC
  5
E6
  8
0
  6
CONTINUOUS
 62
     7
 10
23.6058910842
 20
538.1575166952
 30
0.0
 40
0.2412066737330877
 50
22.6918131886
 51
90.1237031086
  0
LINE
  5
E7
  8
0
  6
CONTINUOUS
 62
     7
 10
25.5642844141
 20
521.9299445542
 30
0.0
 11
30.2724441291
 21
521.9299445542
 31
0.0
  0
ARC
  5
E8
  8
0
  6
CONTINUOUS
 62
     7
 10
25.5637190298
 20
522.1712303843
 30
0.0
 40
0.2412864925229491
 50
202.7044066103
 51
270.1342560225
  0
LINE
  5
E9
  8
0
  6
CONTINUOUS
 62
     7
 10
25.341130212
 20
522.0780993493
 30
0.0
 11
24.0641956926
 21
525.1417855414
 31
0.0
  0
ARC
  5
EA
  8
0
  6
CONTINUOUS
 62
     7
 10
23.8416471186
 20
525.0487148069
 30
0.0
 40
0.2412260959938344
 50
22.6948833933
 51
90.124160874
  0
LINE
  5
EB
  8
0
  6
CONTINUOUS
 62
     7
 10
16.6550151781
 20
525.2899403365
 30
0.0
 11
23.8411243782
 21
525.2899403365
 31
0.0
  0
ARC
  5
EC
  8
0
  6
CONTINUOUS
 62
     7
 10
16.6546474084
 20
525.0493720516
 30
0.0
 40
0.2405685660838718
 50
89.9124089137
 51
157.4092572203
  0
LINE
  5
ED
  8
0
  6
CONTINUOUS
 62
     7
 10
16.4325371162
 20
525.1417855414
 30
0.0
 11
15.1596911029
 21
522.0780993493
 31
0.0
  0
ARC
  5
EE
  8
0
  6
CONTINUOUS
 62
     7
 10
14.9377035219
 20
522.1703290083
 30
0.0
 40
0.2403846835988426
 50
269.9208304499
 51
337.4384758568
  0
LINE
  5
EF
  8
0
  6
CONTINUOUS
 62
     7
 10
10.2551303581
 20
521.9299445542
 30
0.0
 11
14.9373713658
 21
521.9299445542
 31
0.0
  0
ARC
  5
F0
  8
0
  6
CONTINUOUS
 62
     7
 10
10.2551356134
 20
522.1699374211
 30
0.0
 40
0.2399928670266238
 50
157.4981269969
 51
269.9987453453
  0
LINE
  5
F1
  8
0
  6
CONTINUOUS
 62
     7
 10
10.0334141181
 20
522.2617859634
 30
0.0
 11
14.5973119662
 21
533.2668821009
 31
0.0
  0
ARC
  5
F2
  8
0
  6
CONTINUOUS
 62
     7
 10
14.3754817834
 20
533.358658279
 30
0.0
 40
0.2400656094991541
 50
337.5240106957
 51
90.1017258103
  0
LINE
  5
F3
  8
0
  6
CONTINUOUS
 62
     7
 10
11.5524589793
 20
533.5987235101
 30
0.0
 11
14.3750555591
 21
533.5987235101
 31
0.0
  0
ARC
  5
F4
  8
0
  6
CONTINUOUS
 62
     7
 10
11.5520412732
 20
533.8384750325
 30
0.0
 40
0.2397518863108971
 50
179.9410724908
 51
270.099823218
  0
LINE
  5
F5
  8
0
  6
CONTINUOUS
 62
     7
 10
11.3122895137
 20
533.8387216123
 30
0.0
 11
11.3122895137
 21
538.1587247046
 31
0.0
  0
ARC
  5
F6
  8
0
  6
CONTINUOUS
 62
     7
 10
11.5520732609
 20
538.1589392738
 30
0.0
 40
0.2397838431799409
 50
89.9078334736
 51
180.0512708176
  0
LINE
  5
F7
  8
0
  6
CONTINUOUS
 62
     7
 10
20.4685659856
 20
533.7745795639
 30
0.0
 11
22.0144813658
 21
530.0617838891
 31
0.0
  0
ARC
  5
F8
  8
0
  6
CONTINUOUS
 62
     7
 10
20.2457545102
 20
533.6812419435
 30
0.0
 40
0.2415716559485492
 50
22.7292241306
 51
157.2707758694
  0
LINE
  5
F9
  8
0
  6
CONTINUOUS
 62
     7
 10
18.4781349973
 20
530.0617838891
 30
0.0
 11
20.0229430348
 21
533.7745795639
 31
0.0
  0
ARC
  5
FA
  8
0
  6
CONTINUOUS
 62
     7
 10
18.700034869
 20
529.9700536802
 30
0.0
 40
0.2401124410083953
 50
157.5405039473
 51
270.1841928232
  0
LINE
  5
FB
  8
0
  6
CONTINUOUS
 62
     7
 10
18.7008067743
 20
529.7299424799
 30
0.0
 11
21.7915441618
 21
529.7299424799
 31
0.0
  0
ARC
  5
FC
  8
0
  6
CONTINUOUS
 62
     7
 10
21.7923851032
 20
529.9701848956
 30
0.0
 40
0.2402438874383566
 50
269.7994434198
 51
22.4126828646
  0
ARC
  5
FD
  8
0
  6
CONTINUOUS
 62
     7
 10
41.4978443128
 20
544.7290249296
 30
0.0
 40
0.2409173625631005
 50
90.1742396697
 51
157.3541289596
  0
LINE
  5
FE
  8
0
  6
CONTINUOUS
 62
     7
 10
41.5474445336
 20
544.9699411782
 30
0.0
 11
41.4971116707
 21
544.9699411782
 31
0.0
  0
ARC
  5
FF
  8
0
  6
CONTINUOUS
 62
     7
 10
28.0741745951
 20
544.7290273387
 30
0.0
 40
0.2409149485685506
 50
22.6454897469
 51
89.8261416237
  0
LINE
  5
100
  8
0
  6
CONTINUOUS
 62
     7
 10
28.0245727637
 20
544.9699411782
 30
0.0
 11
28.0749056265
 21
544.9699411782
 31
0.0
  0
ARC
  5
101
  8
0
  6
CONTINUOUS
 62
     7
 10
45.8842090509
 20
538.1580377189
 30
0.0
 40
0.2406863926303792
 50
90.1886568121
 51
157.3908104118
  0
LINE
  5
102
  8
0
  6
CONTINUOUS
 62
     7
 10
45.9666469843
 20
538.3987228068
 30
0.0
 11
45.8834165484
 21
538.3987228068
 31
0.0
  0
ARC
  5
103
  8
0
  6
CONTINUOUS
 62
     7
 10
23.6878085804
 20
538.158038218
 30
0.0
 40
0.2406858923788237
 50
22.6091104644
 51
89.8114223117
  0
LINE
  5
104
  8
0
  6
CONTINUOUS
 62
     7
 10
23.605370313
 20
538.3987228068
 30
0.0
 11
23.6886007489
 21
538.3987228068
 31
0.0
  0
LINE
  5
105
  8
0
  6
CONTINUOUS
 62
     7
 10
47.4363578261
 20
528.7839646133
 30
0.0
 11
47.3421862126
 21
528.7839646133
 31
0.0
  0
LINE
  5
106
  8
0
  6
CONTINUOUS
 62
     7
 10
51.6262355969
 20
522.0409880074
 30
0.0
 11
47.3421862126
 21
528.7839646133
 31
0.0
  0
LINE
  5
107
  8
0
  6
CONTINUOUS
 62
     7
 10
51.7525378392
 20
522.0409880074
 30
0.0
 11
51.6262355969
 21
522.0409880074
 31
0.0
  0
LINE
  5
108
  8
0
  6
CONTINUOUS
 62
     7
 10
20.0229430348
 20
533.7745795639
 30
0.0
 11
20.1328418926
 21
533.7745795639
 31
0.0
  0
LINE
  5
109
  8
0
  6
CONTINUOUS
 62
     7
 10
18.5995347575
 20
530.0617838891
 30
0.0
 11
20.1328418926
 21
533.7745795639
 31
0.0
  0
LINE
  5
10A
  8
0
  6
CONTINUOUS
 62
     7
 10
18.4781349973
 20
530.0617838891
 30
0.0
 11
18.5995347575
 21
530.0617838891
 31
0.0
  0
ARC
  5
10B
  8
0
  6
CONTINUOUS
 62
     7
 10
51.8288952705
 20
522.1703938602
 30
0.0
 40
0.2404512800020796
 50
212.5597679242
 51
269.7678342593
  0
LINE
  5
10C
  8
0
  6
CONTINUOUS
 62
     7
 10
51.9557356612
 20
521.9299445542
 30
0.0
 11
51.827920951
 21
521.9299445542
 31
0.0
  0
LINE
  5
10D
  8
0
  6
CONTINUOUS
 62
     7
 10
16.4325371162
 20
525.1417855414
 30
0.0
 11
16.5691640005
 21
525.1417855414
 31
0.0
  0
LINE
  5
10E
  8
0
  6
CONTINUOUS
 62
     7
 10
16.5691640005
 20
525.1417855414
 30
0.0
 11
15.3057932631
 21
522.0780993493
 31
0.0
  0
LINE
  5
10F
  8
0
  6
CONTINUOUS
 62
     7
 10
15.1596911029
 20
522.0780993493
 30
0.0
 11
15.3057932631
 21
522.0780993493
 31
0.0
  0
ARC
  5
110
  8
0
  6
CONTINUOUS
 62
     7
 10
15.0841425724
 20
522.1698217102
 30
0.0
 40
0.2398791782688756
 50
270.2352663542
 51
337.5194987964
  0
LINE
  5
111
  8
0
  6
CONTINUOUS
 62
     7
 10
14.9373713658
 20
521.9299445542
 30
0.0
 11
15.0851275549
 21
521.9299445542
 31
0.0
  0
ARC
  5
112
  8
0
  6
CONTINUOUS
 62
     7
 10
54.5980335417
 20
538.1594308097
 30
0.0
 40
0.2392923801398214
 50
90.1025207744
 51
182.3193677626
  0
LINE
  5
113
  8
0
  6
CONTINUOUS
 62
     7
 10
54.7461922989
 20
538.3987228068
 30
0.0
 11
54.5976053701
 21
538.3987228068
 31
0.0
  0
LINE
  5
114
  8
0
  6
CONTINUOUS
 62
     7
 10
66.4455000088
 20
435.8769677727
 30
0.0
 11
66.457629554
 21
435.9315933341
 31
0.0
  0
ARC
  5
115
  8
0
  6
CONTINUOUS
 62
     7
 10
34.7860086486
 20
270.5242242957
 30
0.0
 40
168.3563279729364
 50
79.1609646824
 51
100.8390353176
  0
LINE
  5
116
  8
0
  6
CONTINUOUS
 62
     7
 10
3.1265172885
 20
435.8769677727
 30
0.0
 11
3.1143877432
 21
435.9315933341
 31
0.0
  0
LINE
  5
117
  8
0
  6
CONTINUOUS
 62
     7
 10
58.5570487902
 20
399.048453817
 30
0.0
 11
66.4455000088
 21
435.8769677727
 31
0.0
  0
LINE
  5
118
  8
0
  6
CONTINUOUS
 62
     7
 10
11.0149685071
 20
399.048453817
 30
0.0
 11
3.1265172885
 21
435.8769677727
 31
0.0
  0
LINE
  5
119
  8
0
  6
CONTINUOUS
 62
     7
 10
-24.3469994738
 20
613.9299372824
 30
0.0
 11
-25.0306200459
 21
613.9299372824
 31
0.0
  0
LINE
  5
11A
  8
0
  6
CONTINUOUS
 62
     7
 10
94.6026373432
 20
613.9299372824
 30
0.0
 11
93.9190167711
 21
613.9299372824
 31
0.0
  0
ARC
  5
11B
  8
0
  6
CONTINUOUS
 62
     7
 10
-8.5267482744
 20
612.530546196
 30
0.0
 40
4.962859359342421
 50
16.3779797594
 51
77.9304250846
  0
POLYLINE
  5
11C
  8
0
  6
CONTINUOUS
 62
     7
 66
     1
 10
0.0
 20
0.0
 30
0.0
  0
VERTEX
  5
493
  8
0
  6
CONTINUOUS
 62
     7
 10
-7.489017792
 20
617.3836986216
 30
0.0
  0
VERTEX
  5
494
  8
0
  6
CONTINUOUS
 62
     7
 10
-5.8760304227
 20
624.2365489395
 30
0.0
  0
VERTEX
  5
495
  8
0
  6
CONTINUOUS
 62
     7
 10
-3.8255412354
 20
630.7922850045
 30
0.0
  0
VERTEX
  5
496
  8
0
  6
CONTINUOUS
 62
     7
 10
-1.3546232357
 20
636.9579980763
 30
0.0
  0
VERTEX
  5
497
  8
0
  6
CONTINUOUS
 62
     7
 10
1.5196580217
 20
642.8734163435
 30
0.0
  0
VERTEX
  5
498
  8
0
  6
CONTINUOUS
 62
     7
 10
4.7438353077
 20
648.8921443613
 30
0.0
  0
VERTEX
  5
499
  8
0
  6
CONTINUOUS
 62
     7
 10
7.595850505
 20
655.229697624
 30
0.0
  0
VERTEX
  5
49A
  8
0
  6
CONTINUOUS
 62
     7
 10
9.8659530059
 20
661.9640092047
 30
0.0
  0
VERTEX
  5
49B
  8
0
  6
CONTINUOUS
 62
     7
 10
11.5171413646
 20
668.9018706473
 30
0.0
  0
VERTEX
  5
49C
  8
0
  6
CONTINUOUS
 62
     7
 10
12.6875847355
 20
675.9299437197
 30
0.0
  0
SEQEND
  5
7E3
  8
0
  6
CONTINUOUS
 62
     7
  0
LINE
  5
11D
  8
0
  6
CONTINUOUS
 62
     7
 10
12.6875847355
 20
675.9299437197
 30
0.0
 11
21.8516954929
 21
675.9299437197
 31
0.0
  0
LINE
  5
11E
  8
0
  6
CONTINUOUS
 62
     7
 10
21.8516954929
 20
675.9299437197
 30
0.0
 11
47.7203218044
 21
675.9299437197
 31
0.0
  0
LINE
  5
11F
  8
0
  6
CONTINUOUS
 62
     7
 10
47.7203218044
 20
675.9299437197
 30
0.0
 11
56.8844325618
 21
675.9299437197
 31
0.0
  0
POLYLINE
  5
120
  8
0
  6
CONTINUOUS
 62
     7
 66
     1
 10
0.0
 20
0.0
 30
0.0
  0
VERTEX
  5
49D
  8
0
  6
CONTINUOUS
 62
     7
 10
77.0610350893
 20
617.3836986216
 30
0.0
  0
VERTEX
  5
49E
  8
0
  6
CONTINUOUS
 62
     7
 10
75.44804772
 20
624.2365489395
 30
0.0
  0
VERTEX
  5
49F
  8
0
  6
CONTINUOUS
 62
     7
 10
73.3975585327
 20
630.7922850045
 30
0.0
  0
VERTEX
  5
4A0
  8
0
  6
CONTINUOUS
 62
     7
 10
70.926640533
 20
636.9579980763
 30
0.0
  0
VERTEX
  5
4A1
  8
0
  6
CONTINUOUS
 62
     7
 10
68.0523592756
 20
642.8734163435
 30
0.0
  0
VERTEX
  5
4A2
  8
0
  6
CONTINUOUS
 62
     7
 10
64.8281819896
 20
648.8921443613
 30
0.0
  0
VERTEX
  5
4A3
  8
0
  6
CONTINUOUS
 62
     7
 10
61.9761667923
 20
655.229697624
 30
0.0
  0
VERTEX
  5
4A4
  8
0
  6
CONTINUOUS
 62
     7
 10
59.7060642914
 20
661.9640092047
 30
0.0
  0
VERTEX
  5
4A5
  8
0
  6
CONTINUOUS
 62
     7
 10
58.0548759327
 20
668.9018706473
 30
0.0
  0
VERTEX
  5
4A6
  8
0
  6
CONTINUOUS
 62
     7
 10
56.8844325618
 20
675.9299437197
 30
0.0
  0
SEQEND
  5
7E2
  8
0
  6
CONTINUOUS
 62
     7
  0
ARC
  5
121
  8
0
  6
CONTINUOUS
 62
     7
 10
78.1568622061
 20
612.4679080439
 30
0.0
 40
5.036450543187673
 50
102.5668901967
 51
163.1247049594
  0
POLYLINE
  5
122
  8
0
  6
CONTINUOUS
 62
     7
 66
     1
 10
0.0
 20
0.0
 30
0.0
  0
VERTEX
  5
4A7
  8
0
  6
CONTINUOUS
 62
     7
 10
66.457629554
 20
435.9315933341
 30
0.0
  0
VERTEX
  5
4A8
  8
0
  6
CONTINUOUS
 62
     7
 10
67.6416236684
 20
441.2629368397
 30
0.0
  0
VERTEX
  5
4A9
  8
0
  6
CONTINUOUS
 62
     7
 10
68.8074979708
 20
446.5093739944
 30
0.0
  0
VERTEX
  5
4AA
  8
0
  6
CONTINUOUS
 62
     7
 10
69.9500184283
 20
451.6473409401
 30
0.0
  0
VERTEX
  5
4AB
  8
0
  6
CONTINUOUS
 62
     7
 10
71.0640478656
 20
456.6537650915
 30
0.0
  0
VERTEX
  5
4AC
  8
0
  6
CONTINUOUS
 62
     7
 10
72.1445943937
 20
461.5061587336
 30
0.0
  0
VERTEX
  5
4AD
  8
0
  6
CONTINUOUS
 62
     7
 10
73.1867927835
 20
466.1827317121
 30
0.0
  0
VERTEX
  5
4AE
  8
0
  6
CONTINUOUS
 62
     7
 10
74.1859715209
 20
470.6624808403
 30
0.0
  0
VERTEX
  5
4AF
  8
0
  6
CONTINUOUS
 62
     7
 10
75.1376379059
 20
474.9252858253
 30
0.0
  0
VERTEX
  5
4B0
  8
0
  6
CONTINUOUS
 62
     7
 10
76.0375190303
 20
478.9520005377
 30
0.0
  0
VERTEX
  5
4B1
  8
0
  6
CONTINUOUS
 62
     7
 10
76.8815766797
 20
482.7245461436
 30
0.0
  0
VERTEX
  5
4B2
  8
0
  6
CONTINUOUS
 62
     7
 10
77.6660147832
 20
486.2259725722
 30
0.0
  0
VERTEX
  5
4B3
  8
0
  6
CONTINUOUS
 62
     7
 10
78.3873166666
 20
489.4405590983
 30
0.0
  0
VERTEX
  5
4B4
  8
0
  6
CONTINUOUS
 62
     7
 10
79.042233877
 20
492.3538702222
 30
0.0
  0
VERTEX
  5
4B5
  8
0
  6
CONTINUOUS
 62
     7
 10
79.6278346107
 20
494.9528152736
 30
0.0
  0
VERTEX
  5
4B6
  8
0
  6
CONTINUOUS
 62
     7
 10
80.1414850876
 20
497.2257266434
 30
0.0
  0
VERTEX
  5
4B7
  8
0
  6
CONTINUOUS
 62
     7
 10
80.5808756278
 20
499.1623970362
 30
0.0
  0
VERTEX
  5
4B8
  8
0
  6
CONTINUOUS
 62
     7
 10
80.9440355525
 20
500.754127899
 30
0.0
  0
SEQEND
  5
7E1
  8
0
  6
CONTINUOUS
 62
     7
  0
POLYLINE
  5
123
  8
0
  6
CONTINUOUS
 62
     7
 66
     1
 10
0.0
 20
0.0
 30
0.0
  0
VERTEX
  5
4B9
  8
0
  6
CONTINUOUS
 62
     7
 10
3.1143877432
 20
435.9315933341
 30
0.0
  0
VERTEX
  5
4BA
  8
0
  6
CONTINUOUS
 62
     7
 10
1.9303936289
 20
441.2629368397
 30
0.0
  0
VERTEX
  5
4BB
  8
0
  6
CONTINUOUS
 62
     7
 10
0.7645193265
 20
446.5093739944
 30
0.0
  0
VERTEX
  5
4BC
  8
0
  6
CONTINUOUS
 62
     7
 10
-0.378001131
 20
451.6473409401
 30
0.0
  0
VERTEX
  5
4BD
  8
0
  6
CONTINUOUS
 62
     7
 10
-1.4920305683
 20
456.6537650915
 30
0.0
  0
VERTEX
  5
4BE
  8
0
  6
CONTINUOUS
 62
     7
 10
-2.5725770964
 20
461.5061587336
 30
0.0
  0
VERTEX
  5
4BF
  8
0
  6
CONTINUOUS
 62
     7
 10
-3.6147754862
 20
466.1827317121
 30
0.0
  0
VERTEX
  5
4C0
  8
0
  6
CONTINUOUS
 62
     7
 10
-4.6139542236
 20
470.6624808403
 30
0.0
  0
VERTEX
  5
4C1
  8
0
  6
CONTINUOUS
 62
     7
 10
-5.5656206086
 20
474.9252858253
 30
0.0
  0
VERTEX
  5
4C2
  8
0
  6
CONTINUOUS
 62
     7
 10
-6.4655017331
 20
478.9520005377
 30
0.0
  0
VERTEX
  5
4C3
  8
0
  6
CONTINUOUS
 62
     7
 10
-7.3095593824
 20
482.7245461436
 30
0.0
  0
VERTEX
  5
4C4
  8
0
  6
CONTINUOUS
 62
     7
 10
-8.0939974859
 20
486.2259725722
 30
0.0
  0
VERTEX
  5
4C5
  8
0
  6
CONTINUOUS
 62
     7
 10
-8.8152993693
 20
489.4405590983
 30
0.0
  0
VERTEX
  5
4C6
  8
0
  6
CONTINUOUS
 62
     7
 10
-9.4702165797
 20
492.3538702222
 30
0.0
  0
VERTEX
  5
4C7
  8
0
  6
CONTINUOUS
 62
     7
 10
-10.0558173134
 20
494.9528152736
 30
0.0
  0
VERTEX
  5
4C8
  8
0
  6
CONTINUOUS
 62
     7
 10
-10.5694677904
 20
497.2257266434
 30
0.0
  0
VERTEX
  5
4C9
  8
0
  6
CONTINUOUS
 62
     7
 10
-11.0088583305
 20
499.1623970362
 30
0.0
  0
VERTEX
  5
4CA
  8
0
  6
CONTINUOUS
 62
     7
 10
-11.3720182552
 20
500.754127899
 30
0.0
  0
SEQEND
  5
7E0
  8
0
  6
CONTINUOUS
 62
     7
  0
POLYLINE
  5
124
  8
0
  6
CONTINUOUS
 62
     7
 66
     1
 10
0.0
 20
0.0
 30
0.0
  0
VERTEX
  5
4CB
  8
0
  6
CONTINUOUS
 62
     7
 10
-11.4542018845
 20
498.7240011485
 30
0.0
  0
VERTEX
  5
4CC
  8
0
  6
CONTINUOUS
 62
     7
 10
-11.2918611839
 20
498.1751951071
 30
0.0
  0
VERTEX
  5
4CD
  8
0
  6
CONTINUOUS
 62
     7
 10
-11.0543627515
 20
497.2851860019
 30
0.0
  0
VERTEX
  5
4CE
  8
0
  6
CONTINUOUS
 62
     7
 10
-10.7430551424
 20
496.0590327772
 30
0.0
  0
VERTEX
  5
4CF
  8
0
  6
CONTINUOUS
 62
     7
 10
-10.3597078695
 20
494.5036980005
 30
0.0
  0
VERTEX
  5
4D0
  8
0
  6
CONTINUOUS
 62
     7
 10
-9.9065002277
 20
492.6280180605
 30
0.0
  0
VERTEX
  5
4D1
  8
0
  6
CONTINUOUS
 62
     7
 10
-9.3860063925
 20
490.4426584633
 30
0.0
  0
VERTEX
  5
4D2
  8
0
  6
CONTINUOUS
 62
     7
 10
-8.8011842444
 20
487.9600356015
 30
0.0
  0
VERTEX
  5
4D3
  8
0
  6
CONTINUOUS
 62
     7
 10
-8.1553567424
 20
485.194253424
 30
0.0
  0
VERTEX
  5
4D4
  8
0
  6
CONTINUOUS
 62
     7
 10
-7.4521932974
 20
482.1610289307
 30
0.0
  0
VERTEX
  5
4D5
  8
0
  6
CONTINUOUS
 62
     7
 10
-6.6956911459
 20
478.8775990399
 30
0.0
  0
VERTEX
  5
4D6
  8
0
  6
CONTINUOUS
 62
     7
 10
-5.8901492729
 20
475.3626274558
 30
0.0
  0
VERTEX
  5
4D7
  8
0
  6
CONTINUOUS
 62
     7
 10
-5.0401460602
 20
471.6360780092
 30
0.0
  0
VERTEX
  5
4D8
  8
0
  6
CONTINUOUS
 62
     7
 10
-4.1505057587
 20
467.7191327008
 30
0.0
  0
VERTEX
  5
4D9
  8
0
  6
CONTINUOUS
 62
     7
 10
-3.226291038
 20
463.6340482773
 30
0.0
  0
VERTEX
  5
4DA
  8
0
  6
CONTINUOUS
 62
     7
 10
-2.2727471068
 20
459.4040370228
 30
0.0
  0
VERTEX
  5
4DB
  8
0
  6
CONTINUOUS
 62
     7
 10
-1.2952979877
 20
455.0531382354
 30
0.0
  0
VERTEX
  5
4DC
  8
0
  6
CONTINUOUS
 62
     7
 10
-0.2994980886
 20
450.6060720103
 30
0.0
  0
VERTEX
  5
4DD
  8
0
  6
CONTINUOUS
 62
     7
 10
0.7090013251
 20
446.0881116482
 30
0.0
  0
VERTEX
  5
4DE
  8
0
  6
CONTINUOUS
 62
     7
 10
1.7244633064
 20
441.5249299871
 30
0.0
  0
VERTEX
  5
4DF
  8
0
  6
CONTINUOUS
 62
     7
 10
2.7411173806
 20
436.9424559789
 30
0.0
  0
VERTEX
  5
4E0
  8
0
  6
CONTINUOUS
 62
     7
 10
3.7531856225
 20
432.3667298684
 30
0.0
  0
VERTEX
  5
4E1
  8
0
  6
CONTINUOUS
 62
     7
 10
4.7549217717
 20
427.8237527849
 30
0.0
  0
VERTEX
  5
4E2
  8
0
  6
CONTINUOUS
 62
     7
 10
5.740631722
 20
423.3393405246
 30
0.0
  0
VERTEX
  5
4E3
  8
0
  6
CONTINUOUS
 62
     7
 10
6.7047126368
 20
418.9389745386
 30
0.0
  0
VERTEX
  5
4E4
  8
0
  6
CONTINUOUS
 62
     7
 10
7.6416864768
 20
414.6476617696
 30
0.0
  0
VERTEX
  5
4E5
  8
0
  6
CONTINUOUS
 62
     7
 10
8.5462298021
 20
410.4897851737
 30
0.0
  0
VERTEX
  5
4E6
  8
0
  6
CONTINUOUS
 62
     7
 10
9.4132017121
 20
406.4889724048
 30
0.0
  0
VERTEX
  5
4E7
  8
0
  6
CONTINUOUS
 62
     7
 10
10.2376755104
 20
402.6679570468
 30
0.0
  0
VERTEX
  5
4E8
  8
0
  6
CONTINUOUS
 62
     7
 10
11.0149685071
 20
399.048453817
 30
0.0
  0
SEQEND
  5
7DF
  8
0
  6
CONTINUOUS
 62
     7
  0
LINE
  5
125
  8
0
  6
CONTINUOUS
 62
     7
 10
-20.1619040444
 20
538.0018974336
 30
0.0
 11
-11.4542018845
 21
498.7240011485
 31
0.0
  0
POLYLINE
  5
126
  8
0
  6
CONTINUOUS
 62
     7
 66
     1
 10
0.0
 20
0.0
 30
0.0
  0
VERTEX
  5
4E9
  8
0
  6
CONTINUOUS
 62
     7
 10
-11.3720182552
 20
500.754127899
 30
0.0
  0
VERTEX
  5
4EA
  8
0
  6
CONTINUOUS
 62
     7
 10
-13.0848769321
 20
508.2189614566
 30
0.0
  0
VERTEX
  5
4EB
  8
0
  6
CONTINUOUS
 62
     7
 10
-14.6159749701
 20
514.8620704802
 30
0.0
  0
VERTEX
  5
4EC
  8
0
  6
CONTINUOUS
 62
     7
 10
-15.9641091003
 20
520.6782768162
 30
0.0
  0
VERTEX
  5
4ED
  8
0
  6
CONTINUOUS
 62
     7
 10
-17.128228791
 20
525.6630430611
 30
0.0
  0
VERTEX
  5
4EE
  8
0
  6
CONTINUOUS
 62
     7
 10
-18.1074287965
 20
529.8124725612
 30
0.0
  0
VERTEX
  5
4EF
  8
0
  6
CONTINUOUS
 62
     7
 10
-18.9009417071
 20
533.1233317645
 30
0.0
  0
VERTEX
  5
4F0
  8
0
  6
CONTINUOUS
 62
     7
 10
-19.5081491246
 20
535.5930278691
 30
0.0
  0
VERTEX
  5
4F1
  8
0
  6
CONTINUOUS
 62
     7
 10
-19.9285816624
 20
537.219638625
 30
0.0
  0
VERTEX
  5
4F2
  8
0
  6
CONTINUOUS
 62
     7
 10
-20.1619040444
 20
538.0018974336
 30
0.0
  0
SEQEND
  5
7DE
  8
0
  6
CONTINUOUS
 62
     7
  0
POLYLINE
  5
127
  8
0
  6
CONTINUOUS
 62
     7
 66
     1
 10
0.0
 20
0.0
 30
0.0
  0
VERTEX
  5
4F3
  8
0
  6
CONTINUOUS
 62
     7
 10
80.9440355525
 20
500.754127899
 30
0.0
  0
VERTEX
  5
4F4
  8
0
  6
CONTINUOUS
 62
     7
 10
82.6568942294
 20
508.2189614566
 30
0.0
  0
VERTEX
  5
4F5
  8
0
  6
CONTINUOUS
 62
     7
 10
84.1879922674
 20
514.8620704802
 30
0.0
  0
VERTEX
  5
4F6
  8
0
  6
CONTINUOUS
 62
     7
 10
85.5361263976
 20
520.6782768162
 30
0.0
  0
VERTEX
  5
4F7
  8
0
  6
CONTINUOUS
 62
     7
 10
86.7002460883
 20
525.6630430611
 30
0.0
  0
VERTEX
  5
4F8
  8
0
  6
CONTINUOUS
 62
     7
 10
87.6794460938
 20
529.8124725612
 30
0.0
  0
VERTEX
  5
4F9
  8
0
  6
CONTINUOUS
 62
     7
 10
88.4729590044
 20
533.1233317645
 30
0.0
  0
VERTEX
  5
4FA
  8
0
  6
CONTINUOUS
 62
     7
 10
89.0801664219
 20
535.5930278691
 30
0.0
  0
VERTEX
  5
4FB
  8
0
  6
CONTINUOUS
 62
     7
 10
89.5005989597
 20
537.219638625
 30
0.0
  0
VERTEX
  5
4FC
  8
0
  6
CONTINUOUS
 62
     7
 10
89.7339213417
 20
538.0018974336
 30
0.0
  0
SEQEND
  5
7DD
  8
0
  6
CONTINUOUS
 62
     7
  0
LINE
  5
128
  8
0
  6
CONTINUOUS
 62
     7
 10
81.0262191818
 20
498.7240011485
 30
0.0
 11
89.7339213417
 21
538.0018974336
 31
0.0
  0
POLYLINE
  5
129
  8
0
  6
CONTINUOUS
 62
     7
 66
     1
 10
0.0
 20
0.0
 30
0.0
  0
VERTEX
  5
4FD
  8
0
  6
CONTINUOUS
 62
     7
 10
81.0262191818
 20
498.7240011485
 30
0.0
  0
VERTEX
  5
4FE
  8
0
  6
CONTINUOUS
 62
     7
 10
80.8638784812
 20
498.1751951071
 30
0.0
  0
VERTEX
  5
4FF
  8
0
  6
CONTINUOUS
 62
     7
 10
80.6263800488
 20
497.2851860019
 30
0.0
  0
VERTEX
  5
500
  8
0
  6
CONTINUOUS
 62
     7
 10
80.3150724397
 20
496.0590327772
 30
0.0
  0
VERTEX
  5
501
  8
0
  6
CONTINUOUS
 62
     7
 10
79.9317251668
 20
494.5036980005
 30
0.0
  0
VERTEX
  5
502
  8
0
  6
CONTINUOUS
 62
     7
 10
79.478517525
 20
492.6280180605
 30
0.0
  0
VERTEX
  5
503
  8
0
  6
CONTINUOUS
 62
     7
 10
78.9580236898
 20
490.4426584633
 30
0.0
  0
VERTEX
  5
504
  8
0
  6
CONTINUOUS
 62
     7
 10
78.3732015417
 20
487.9600356015
 30
0.0
  0
VERTEX
  5
505
  8
0
  6
CONTINUOUS
 62
     7
 10
77.7273740397
 20
485.194253424
 30
0.0
  0
VERTEX
  5
506
  8
0
  6
CONTINUOUS
 62
     7
 10
77.0242105947
 20
482.1610289307
 30
0.0
  0
VERTEX
  5
507
  8
0
  6
CONTINUOUS
 62
     7
 10
76.2677084432
 20
478.8775990399
 30
0.0
  0
VERTEX
  5
508
  8
0
  6
CONTINUOUS
 62
     7
 10
75.4621665702
 20
475.3626274558
 30
0.0
  0
VERTEX
  5
509
  8
0
  6
CONTINUOUS
 62
     7
 10
74.6121633575
 20
471.6360780092
 30
0.0
  0
VERTEX
  5
50A
  8
0
  6
CONTINUOUS
 62
     7
 10
73.722523056
 20
467.7191327008
 30
0.0
  0
VERTEX
  5
50B
  8
0
  6
CONTINUOUS
 62
     7
 10
72.7983083353
 20
463.6340482773
 30
0.0
  0
VERTEX
  5
50C
  8
0
  6
CONTINUOUS
 62
     7
 10
71.8447644041
 20
459.4040370228
 30
0.0
  0
VERTEX
  5
50D
  8
0
  6
CONTINUOUS
 62
     7
 10
70.867315285
 20
455.0531382354
 30
0.0
  0
VERTEX
  5
50E
  8
0
  6
CONTINUOUS
 62
     7
 10
69.8715153859
 20
450.6060720103
 30
0.0
  0
VERTEX
  5
50F
  8
0
  6
CONTINUOUS
 62
     7
 10
68.8630159722
 20
446.0881116482
 30
0.0
  0
VERTEX
  5
510
  8
0
  6
CONTINUOUS
 62
     7
 10
67.8475539909
 20
441.5249299871
 30
0.0
  0
VERTEX
  5
511
  8
0
  6
CONTINUOUS
 62
     7
 10
66.8308999167
 20
436.9424559789
 30
0.0
  0
VERTEX
  5
512
  8
0
  6
CONTINUOUS
 62
     7
 10
65.8188316748
 20
432.3667298684
 30
0.0
  0
VERTEX
  5
513
  8
0
  6
CONTINUOUS
 62
     7
 10
64.8170955256
 20
427.8237527849
 30
0.0
  0
VERTEX
  5
514
  8
0
  6
CONTINUOUS
 62
     7
 10
63.8313855753
 20
423.3393405246
 30
0.0
  0
VERTEX
  5
515
  8
0
  6
CONTINUOUS
 62
     7
 10
62.8673046605
 20
418.9389745386
 30
0.0
  0
VERTEX
  5
516
  8
0
  6
CONTINUOUS
 62
     7
 10
61.9303308205
 20
414.6476617696
 30
0.0
  0
VERTEX
  5
517
  8
0
  6
CONTINUOUS
 62
     7
 10
61.0257874952
 20
410.4897851737
 30
0.0
  0
VERTEX
  5
518
  8
0
  6
CONTINUOUS
 62
     7
 10
60.1588155852
 20
406.4889724048
 30
0.0
  0
VERTEX
  5
519
  8
0
  6
CONTINUOUS
 62
     7
 10
59.3343417869
 20
402.6679570468
 30
0.0
  0
VERTEX
  5
51A
  8
0
  6
CONTINUOUS
 62
     7
 10
58.5570487902
 20
399.048453817
 30
0.0
  0
SEQEND
  5
7DC
  8
0
  6
CONTINUOUS
 62
     7
  0
LINE
  5
12A
  8
0
  6
CONTINUOUS
 62
     7
 10
-36.8818562701
 20
598.9299366864
 30
0.0
 11
-36.8997600152
 21
598.9299366864
 31
0.0
  0
LINE
  5
12B
  8
0
  6
CONTINUOUS
 62
     7
 10
-36.8818562701
 20
598.9299366864
 30
0.0
 11
-27.2131856754
 21
598.9299366864
 31
0.0
  0
LINE
  5
12C
  8
0
  6
CONTINUOUS
 62
     7
 10
-25.2805944755
 20
598.9299366864
 30
0.0
 11
-27.2131856754
 21
598.9299366864
 31
0.0
  0
LINE
  5
12D
  8
0
  6
CONTINUOUS
 62
     7
 10
-26.4563817754
 20
586.92994217
 30
0.0
 11
-37.2139882519
 21
586.92994217
 31
0.0
  0
LINE
  5
12E
  8
0
  6
CONTINUOUS
 62
     7
 10
-26.4563817754
 20
586.92994217
 30
0.0
 11
-25.5805995538
 21
586.92994217
 31
0.0
  0
LINE
  5
12F
  8
0
  6
CONTINUOUS
 62
     7
 10
94.8526117728
 20
598.9299366864
 30
0.0
 11
96.7852029727
 21
598.9299366864
 31
0.0
  0
LINE
  5
130
  8
0
  6
CONTINUOUS
 62
     7
 10
96.7852029727
 20
598.9299366864
 30
0.0
 11
106.4538735674
 21
598.9299366864
 31
0.0
  0
LINE
  5
131
  8
0
  6
CONTINUOUS
 62
     7
 10
106.4717773125
 20
598.9299366864
 30
0.0
 11
106.4538735674
 21
598.9299366864
 31
0.0
  0
LINE
  5
132
  8
0
  6
CONTINUOUS
 62
     7
 10
96.0283990727
 20
586.92994217
 30
0.0
 11
106.7860055492
 21
586.92994217
 31
0.0
  0
LINE
  5
133
  8
0
  6
CONTINUOUS
 62
     7
 10
95.1526168511
 20
586.92994217
 30
0.0
 11
96.0283990727
 21
586.92994217
 31
0.0
  0
LINE
  5
134
  8
0
  6
CONTINUOUS
 62
     7
 10
-26.9509177878
 20
613.9299372824
 30
0.0
 11
-27.2131856754
 21
598.9299366864
 31
0.0
  0
LINE
  5
135
  8
0
  6
CONTINUOUS
 62
     7
 10
-25.0306200459
 20
613.9299372824
 30
0.0
 11
-26.9509177878
 21
613.9299372824
 31
0.0
  0
LINE
  5
136
  8
0
  6
CONTINUOUS
 62
     7
 10
96.5229350851
 20
613.9299372824
 30
0.0
 11
96.7852029727
 21
598.9299366864
 31
0.0
  0
LINE
  5
137
  8
0
  6
CONTINUOUS
 62
     7
 10
96.5229350851
 20
613.9299372824
 30
0.0
 11
94.6026373432
 21
613.9299372824
 31
0.0
  0
ARC
  5
138
  8
0
  6
CONTINUOUS
 62
     7
 10
-46.697957038
 20
512.5502933143
 30
0.0
 40
8.016039572858755
 50
179.9530043947
 51
258.9055403409
  0
ARC
  5
139
  8
0
  6
CONTINUOUS
 62
     7
 10
-46.7085221932
 20
363.727900763
 30
0.0
 40
7.996040852120188
 50
101.0454173703
 51
135.524714544
  0
ARC
  5
13A
  8
0
  6
CONTINUOUS
 62
     7
 10
116.2815697947
 20
363.729815441
 30
0.0
 40
7.993964275347571
 50
44.4706668611
 51
78.9592012247
  0
ARC
  5
13B
  8
0
  6
CONTINUOUS
 62
     7
 10
116.2706453325
 20
512.5497415766
 30
0.0
 40
8.015369047433905
 50
281.0905117729
 51
0.0509434915
  0
LINE
  5
13C
  8
0
  6
CONTINUOUS
 62
     7
 10
106.2620807216
 20
574.9299476536
 30
0.0
 11
95.5263975785
 21
574.9299476536
 31
0.0
  0
LINE
  5
13D
  8
0
  6
CONTINUOUS
 62
     7
 10
-36.6900634243
 20
574.9299476536
 30
0.0
 11
-25.9543802812
 21
574.9299476536
 31
0.0
  0
POLYLINE
  5
13E
  8
0
  6
CONTINUOUS
 62
     7
 66
     1
 10
0.0
 20
0.0
 30
0.0
  0
VERTEX
  5
51B
  8
0
  6
CONTINUOUS
 62
     7
 10
-24.4108546748
 20
567.9869751128
 30
0.0
  0
VERTEX
  5
51C
  8
0
  6
CONTINUOUS
 62
     7
 10
-26.4503915086
 20
569.1540340575
 30
0.0
  0
VERTEX
  5
51D
  8
0
  6
CONTINUOUS
 62
     7
 10
-28.4685787036
 20
570.2995459231
 30
0.0
  0
VERTEX
  5
51E
  8
0
  6
CONTINUOUS
 62
     7
 10
-30.2963998391
 20
571.3291416558
 30
0.0
  0
VERTEX
  5
51F
  8
0
  6
CONTINUOUS
 62
     7
 10
-31.9627147391
 20
572.2614179047
 30
0.0
  0
VERTEX
  5
520
  8
0
  6
CONTINUOUS
 62
     7
 10
-33.128223963
 20
572.9099611433
 30
0.0
  0
VERTEX
  5
521
  8
0
  6
CONTINUOUS
 62
     7
 10
-34.0263542011
 20
573.4077642353
 30
0.0
  0
VERTEX
  5
522
  8
0
  6
CONTINUOUS
 62
     7
 10
-34.4952564909
 20
573.6669848355
 30
0.0
  0
VERTEX
  5
523
  8
0
  6
CONTINUOUS
 62
     7
 10
-34.6628945544
 20
573.7595508488
 30
0.0
  0
VERTEX
  5
524
  8
0
  6
CONTINUOUS
 62
     7
 10
-34.6628573015
 20
573.7595359476
 30
0.0
  0
SEQEND
  5
7DB
  8
0
  6
CONTINUOUS
 62
     7
  0
POLYLINE
  5
13F
  8
0
  6
CONTINUOUS
 62
     7
 66
     1
 10
0.0
 20
0.0
 30
0.0
  0
VERTEX
  5
525
  8
0
  6
CONTINUOUS
 62
     7
 10
93.9828719721
 20
567.9869751128
 30
0.0
  0
VERTEX
  5
526
  8
0
  6
CONTINUOUS
 62
     7
 10
96.0224088059
 20
569.1540340575
 30
0.0
  0
VERTEX
  5
527
  8
0
  6
CONTINUOUS
 62
     7
 10
98.0405960009
 20
570.2995459231
 30
0.0
  0
VERTEX
  5
528
  8
0
  6
CONTINUOUS
 62
     7
 10
99.8684171364
 20
571.3291416558
 30
0.0
  0
VERTEX
  5
529
  8
0
  6
CONTINUOUS
 62
     7
 10
101.5347320364
 20
572.2614179047
 30
0.0
  0
VERTEX
  5
52A
  8
0
  6
CONTINUOUS
 62
     7
 10
102.7002412603
 20
572.9099611433
 30
0.0
  0
VERTEX
  5
52B
  8
0
  6
CONTINUOUS
 62
     7
 10
103.5983714984
 20
573.4077642353
 30
0.0
  0
VERTEX
  5
52C
  8
0
  6
CONTINUOUS
 62
     7
 10
104.0672737882
 20
573.6669848355
 30
0.0
  0
VERTEX
  5
52D
  8
0
  6
CONTINUOUS
 62
     7
 10
104.2349118517
 20
573.7595508488
 30
0.0
  0
VERTEX
  5
52E
  8
0
  6
CONTINUOUS
 62
     7
 10
104.2348745988
 20
573.7595359476
 30
0.0
  0
SEQEND
  5
7DA
  8
0
  6
CONTINUOUS
 62
     7
  0
POLYLINE
  5
140
  8
0
  6
CONTINUOUS
 62
     7
 66
     1
 10
0.0
 20
0.0
 30
0.0
  0
VERTEX
  5
52F
  8
0
  6
CONTINUOUS
 62
     7
 10
106.4538735674
 20
598.9299366864
 30
0.0
  0
VERTEX
  5
530
  8
0
  6
CONTINUOUS
 62
     7
 10
105.7965833471
 20
599.2898146303
 30
0.0
  0
VERTEX
  5
531
  8
0
  6
CONTINUOUS
 62
     7
 10
104.8302653954
 20
599.8205194863
 30
0.0
  0
VERTEX
  5
532
  8
0
  6
CONTINUOUS
 62
     7
 10
103.5993251727
 20
600.4993269833
 30
0.0
  0
VERTEX
  5
533
  8
0
  6
CONTINUOUS
 62
     7
 10
102.1493155286
 20
601.3029764088
 30
0.0
  0
VERTEX
  5
534
  8
0
  6
CONTINUOUS
 62
     7
 10
100.3882664964
 20
602.2850672396
 30
0.0
  0
VERTEX
  5
535
  8
0
  6
CONTINUOUS
 62
     7
 10
98.4770137594
 20
603.3584276827
 30
0.0
  0
VERTEX
  5
536
  8
0
  6
CONTINUOUS
 62
     7
 10
96.6900814102
 20
604.3703506382
 30
0.0
  0
SEQEND
  5
7D9
  8
0
  6
CONTINUOUS
 62
     7
  0
POLYLINE
  5
141
  8
0
  6
CONTINUOUS
 62
     7
 66
     1
 10
0.0
 20
0.0
 30
0.0
  0
VERTEX
  5
537
  8
0
  6
CONTINUOUS
 62
     7
 10
-27.1180678382
 20
604.3700228127
 30
0.0
  0
VERTEX
  5
538
  8
0
  6
CONTINUOUS
 62
     7
 10
-29.407456167
 20
603.0755738409
 30
0.0
  0
VERTEX
  5
539
  8
0
  6
CONTINUOUS
 62
     7
 10
-31.7826416566
 20
601.7452875765
 30
0.0
  0
VERTEX
  5
53A
  8
0
  6
CONTINUOUS
 62
     7
 10
-33.7208058908
 20
600.6688723954
 30
0.0
  0
VERTEX
  5
53B
  8
0
  6
CONTINUOUS
 62
     7
 10
-35.318508394
 20
599.7873644026
 30
0.0
  0
VERTEX
  5
53C
  8
0
  6
CONTINUOUS
 62
     7
 10
-36.2469401433
 20
599.2775509747
 30
0.0
  0
VERTEX
  5
53D
  8
0
  6
CONTINUOUS
 62
     7
 10
-36.8818562701
 20
598.9299366864
 30
0.0
  0
SEQEND
  5
7D8
  8
0
  6
CONTINUOUS
 62
     7
  0
POLYLINE
  5
142
  8
0
  6
CONTINUOUS
 62
     7
 66
     1
 10
0.0
 20
0.0
 30
0.0
  0
VERTEX
  5
53E
  8
0
  6
CONTINUOUS
 62
     7
 10
117.8124774025
 20
504.6840632947
 30
0.0
  0
VERTEX
  5
53F
  8
0
  6
CONTINUOUS
 62
     7
 10
91.1669101343
 20
499.4888591262
 30
0.0
  0
VERTEX
  5
540
  8
0
  6
CONTINUOUS
 62
     7
 10
87.245218806
 20
498.7240011485
 30
0.0
  0
SEQEND
  5
7D7
  8
0
  6
CONTINUOUS
 62
     7
  0
POLYLINE
  5
143
  8
0
  6
CONTINUOUS
 62
     7
 66
     1
 10
0.0
 20
0.0
 30
0.0
  0
VERTEX
  5
541
  8
0
  6
CONTINUOUS
 62
     7
 10
87.245218806
 20
377.5358820947
 30
0.0
  0
VERTEX
  5
542
  8
0
  6
CONTINUOUS
 62
     7
 10
91.4289619551
 20
376.7199168595
 30
0.0
  0
VERTEX
  5
543
  8
0
  6
CONTINUOUS
 62
     7
 10
117.8124774025
 20
371.5758199485
 30
0.0
  0
SEQEND
  5
7D6
  8
0
  6
CONTINUOUS
 62
     7
  0
LINE
  5
144
  8
0
  6
CONTINUOUS
 62
     7
 10
87.245218806
 20
498.7240011485
 30
0.0
 11
87.245218806
 21
377.5358820947
 31
0.0
  0
POLYLINE
  5
145
  8
0
  6
CONTINUOUS
 62
     7
 66
     1
 10
0.0
 20
0.0
 30
0.0
  0
VERTEX
  5
544
  8
0
  6
CONTINUOUS
 62
     7
 10
-17.6732015087
 20
498.7240011485
 30
0.0
  0
VERTEX
  5
545
  8
0
  6
CONTINUOUS
 62
     7
 10
-43.6805483177
 20
503.7951717766
 30
0.0
  0
VERTEX
  5
546
  8
0
  6
CONTINUOUS
 62
     7
 10
-48.2404601052
 20
504.6840632947
 30
0.0
  0
SEQEND
  5
7D5
  8
0
  6
CONTINUOUS
 62
     7
  0
LINE
  5
146
  8
0
  6
CONTINUOUS
 62
     7
 10
-17.6732015087
 20
498.7240011485
 30
0.0
 11
-17.6732015087
 21
377.5358820947
 31
0.0
  0
POLYLINE
  5
147
  8
0
  6
CONTINUOUS
 62
     7
 66
     1
 10
0.0
 20
0.0
 30
0.0
  0
VERTEX
  5
547
  8
0
  6
CONTINUOUS
 62
     7
 10
-48.2404601052
 20
371.5758199485
 30
0.0
  0
VERTEX
  5
548
  8
0
  6
CONTINUOUS
 62
     7
 10
-43.9427193477
 20
372.4136004837
 30
0.0
  0
VERTEX
  5
549
  8
0
  6
CONTINUOUS
 62
     7
 10
-17.6732015087
 20
377.5358820947
 30
0.0
  0
SEQEND
  5
7D4
  8
0
  6
CONTINUOUS
 62
     7
  0
LINE
  5
148
  8
0
  6
CONTINUOUS
 62
     7
 10
-0.2139915004
 20
675.9299437197
 30
0.0
 11
0.2152438984
 21
675.9299437197
 31
0.0
  0
LINE
  5
149
  8
0
  6
CONTINUOUS
 62
     7
 10
5.0801004992
 20
675.9299437197
 30
0.0
 11
10.782953702
 21
675.9299437197
 31
0.0
  0
LINE
  5
14A
  8
0
  6
CONTINUOUS
 62
     7
 10
10.7829592899
 20
675.9299437197
 30
0.0
 11
12.6875847355
 21
675.9299437197
 31
0.0
  0
LINE
  5
14B
  8
0
  6
CONTINUOUS
 62
     7
 10
-7.489017792
 20
617.3836986216
 30
0.0
 11
-9.1299150362
 21
613.9299372824
 31
0.0
  0
POLYLINE
  5
14C
  8
0
  6
CONTINUOUS
 62
     7
 66
     1
 10
0.0
 20
0.0
 30
0.0
  0
VERTEX
  5
54A
  8
0
  6
CONTINUOUS
 62
     7
 10
-22.6715613379
 20
613.9299372824
 30
0.0
  0
VERTEX
  5
54B
  8
0
  6
CONTINUOUS
 62
     7
 10
-22.3553065433
 20
618.2009677084
 30
0.0
  0
VERTEX
  5
54C
  8
0
  6
CONTINUOUS
 62
     7
 10
-21.6974165513
 20
622.4322567375
 30
0.0
  0
VERTEX
  5
54D
  8
0
  6
CONTINUOUS
 62
     7
 10
-20.6767205372
 20
626.7134497555
 30
0.0
  0
VERTEX
  5
54E
  8
0
  6
CONTINUOUS
 62
     7
 10
-19.335530348
 20
630.8878014477
 30
0.0
  0
VERTEX
  5
54F
  8
0
  6
CONTINUOUS
 62
     7
 10
-17.4080651476
 20
635.5848113688
 30
0.0
  0
VERTEX
  5
550
  8
0
  6
CONTINUOUS
 62
     7
 10
-16.3007896616
 20
637.8818551691
 30
0.0
  0
VERTEX
  5
551
  8
0
  6
CONTINUOUS
 62
     7
 10
-15.1601243987
 20
640.0423745306
 30
0.0
  0
VERTEX
  5
552
  8
0
  6
CONTINUOUS
 62
     7
 10
-14.2917592301
 20
641.5737072619
 30
0.0
  0
VERTEX
  5
553
  8
0
  6
CONTINUOUS
 62
     7
 10
-13.4626362696
 20
642.9579357298
 30
0.0
  0
VERTEX
  5
554
  8
0
  6
CONTINUOUS
 62
     7
 10
-12.6248818114
 20
644.2867467793
 30
0.0
  0
VERTEX
  5
555
  8
0
  6
CONTINUOUS
 62
     7
 10
-12.2497115507
 20
644.8604861887
 30
0.0
  0
VERTEX
  5
556
  8
0
  6
CONTINUOUS
 62
     7
 10
-12.2673917785
 20
644.8337088021
 30
0.0
  0
SEQEND
  5
7D3
  8
0
  6
CONTINUOUS
 62
     7
  0
ARC
  5
14D
  8
0
  6
CONTINUOUS
 62
     7
 10
31.2177889525
 20
610.5880233638
 30
0.0
 40
61.11722666353977
 50
3.134519022
 51
34.0784751717
  0
LINE
  5
14E
  8
0
  6
CONTINUOUS
 62
     7
 10
78.7019211576
 20
613.9299372824
 30
0.0
 11
77.0610350893
 21
617.3836986216
 31
0.0
  0
LINE
  5
14F
  8
0
  6
CONTINUOUS
 62
     7
 10
56.8844325618
 20
675.9299437197
 30
0.0
 11
58.7890580074
 21
675.9299437197
 31
0.0
  0
LINE
  5
150
  8
0
  6
CONTINUOUS
 62
     7
 10
58.7890635953
 20
675.9299437197
 30
0.0
 11
64.4919167981
 21
675.9299437197
 31
0.0
  0
LINE
  5
151
  8
0
  6
CONTINUOUS
 62
     7
 10
69.3567733989
 20
675.9299437197
 30
0.0
 11
69.7860087977
 21
675.9299437197
 31
0.0
  0
LINE
  5
152
  8
0
  6
CONTINUOUS
 62
     7
 10
89.7339213417
 20
552.3205275329
 30
0.0
 11
89.7339213417
 21
538.0018974336
 31
0.0
  0
LINE
  5
153
  8
0
  6
CONTINUOUS
 62
     7
 10
-20.1619040444
 20
538.0018974336
 30
0.0
 11
-20.1619040444
 21
552.3205275329
 31
0.0
  0
LINE
  5
154
  8
0
  6
CONTINUOUS
 62
     7
 10
134.2860091255
 20
340.5208537968
 30
0.0
 11
134.2860091255
 21
323.8299439343
 31
0.0
  0
LINE
  5
155
  8
0
  6
CONTINUOUS
 62
     7
 10
134.2860091255
 20
323.8299439343
 30
0.0
 11
124.2860112116
 21
323.8299439343
 31
0.0
  0
LINE
  5
156
  8
0
  6
CONTINUOUS
 62
     7
 10
124.2860112116
 20
344.7833980115
 30
0.0
 11
124.2860112116
 21
323.8299439343
 31
0.0
  0
LINE
  5
157
  8
0
  6
CONTINUOUS
 62
     7
 10
-64.7139918282
 20
323.8299439343
 30
0.0
 11
-54.7139939144
 21
323.8299439343
 31
0.0
  0
LINE
  5
158
  8
0
  6
CONTINUOUS
 62
     7
 10
-64.7139918282
 20
340.5208537968
 30
0.0
 11
-64.7139918282
 21
323.8299439343
 31
0.0
  0
LINE
  5
159
  8
0
  6
CONTINUOUS
 62
     7
 10
-54.7139939144
 20
344.7833980115
 30
0.0
 11
-54.7139939144
 21
323.8299439343
 31
0.0
  0
LINE
  5
15A
  8
0
  6
CONTINUOUS
 62
     7
 10
-11.4542018845
 20
498.7240011485
 30
0.0
 11
-17.6732015087
 21
498.7240011485
 31
0.0
  0
LINE
  5
15B
  8
0
  6
CONTINUOUS
 62
     7
 10
87.245218806
 20
498.7240011485
 30
0.0
 11
81.0262191818
 21
498.7240011485
 31
0.0
  0
LINE
  5
15C
  8
0
  6
CONTINUOUS
 62
     7
 10
-17.6732015087
 20
377.5358820947
 30
0.0
 11
87.245218806
 21
377.5358820947
 31
0.0
  0
LINE
  5
15D
  8
0
  6
CONTINUOUS
 62
     7
 10
22.29925932
 20
694.4299439581
 30
0.0
 11
47.2727579773
 21
694.4299439581
 31
0.0
  0
LINE
  5
15E
  8
0
  6
CONTINUOUS
 62
     7
 10
22.7860085443
 20
695.9299544485
 30
0.0
 11
46.786008753
 21
695.9299544485
 31
0.0
  0
LINE
  5
15F
  8
0
  6
CONTINUOUS
 62
     7
 10
12.3772885428
 20
693.4394935759
 30
0.0
 11
11.9957480357
 21
675.9299437197
 31
0.0
  0
LINE
  5
160
  8
0
  6
CONTINUOUS
 62
     7
 10
17.994316645
 20
694.4299439581
 30
0.0
 11
12.3772885428
 21
693.4394935759
 31
0.0
  0
LINE
  5
161
  8
0
  6
CONTINUOUS
 62
     7
 10
17.994316645
 20
694.4299439581
 30
0.0
 11
22.29925932
 21
694.4299439581
 31
0.0
  0
LINE
  5
162
  8
0
  6
CONTINUOUS
 62
     7
 10
57.1947287545
 20
693.4394935759
 30
0.0
 11
51.5777006523
 21
694.4299439581
 31
0.0
  0
LINE
  5
163
  8
0
  6
CONTINUOUS
 62
     7
 10
57.1947287545
 20
693.4394935759
 30
0.0
 11
57.5762692616
 21
675.9299437197
 31
0.0
  0
LINE
  5
164
  8
0
  6
CONTINUOUS
 62
     7
 10
47.2727579773
 20
694.4299439581
 30
0.0
 11
51.5777006523
 21
694.4299439581
 31
0.0
  0
LINE
  5
165
  8
0
  6
CONTINUOUS
 62
     7
 10
80.7860087381
 20
728.5299400481
 30
0.0
 11
62.6169856415
 21
728.5299400481
 31
0.0
  0
POLYLINE
  5
166
  8
0
  6
CONTINUOUS
 62
     7
 66
     1
 10
0.0
 20
0.0
 30
0.0
  0
VERTEX
  5
557
  8
0
  6
CONTINUOUS
 62
     7
 10
62.6169856415
 20
728.5299400481
 30
0.0
  0
VERTEX
  5
558
  8
0
  6
CONTINUOUS
 62
     7
 10
57.252167143
 20
730.9704820307
 30
0.0
  0
VERTEX
  5
559
  8
0
  6
CONTINUOUS
 62
     7
 10
54.1972800867
 20
732.1606675776
 30
0.0
  0
VERTEX
  5
55A
  8
0
  6
CONTINUOUS
 62
     7
 10
50.9628209994
 20
733.2720259817
 30
0.0
  0
VERTEX
  5
55B
  8
0
  6
CONTINUOUS
 62
     7
 10
45.7469722033
 20
734.723577896
 30
0.0
  0
VERTEX
  5
55C
  8
0
  6
CONTINUOUS
 62
     7
 10
40.0769890995
 20
735.7433239611
 30
0.0
  0
VERTEX
  5
55D
  8
0
  6
CONTINUOUS
 62
     7
 10
34.7860086486
 20
736.0690335425
 30
0.0
  0
SEQEND
  5
7D2
  8
0
  6
CONTINUOUS
 62
     7
  0
ARC
  5
167
  8
0
  6
CONTINUOUS
 62
     7
 10
32.8474766197
 20
637.817728484
 30
0.0
 40
98.27042714937336
 50
73.8754884211
 51
88.8696812285
  0
POLYLINE
  5
168
  8
0
  6
CONTINUOUS
 62
     7
 66
     1
 10
0.0
 20
0.0
 30
0.0
  0
VERTEX
  5
55E
  8
0
  6
CONTINUOUS
 62
     7
 10
34.7860086486
 20
736.0690335425
 30
0.0
  0
VERTEX
  5
55F
  8
0
  6
CONTINUOUS
 62
     7
 10
31.5960227755
 20
735.949645439
 30
0.0
  0
VERTEX
  5
560
  8
0
  6
CONTINUOUS
 62
     7
 10
28.4060369023
 20
735.5981568487
 30
0.0
  0
VERTEX
  5
561
  8
0
  6
CONTINUOUS
 62
     7
 10
22.668283783
 20
734.4406346472
 30
0.0
  0
VERTEX
  5
562
  8
0
  6
CONTINUOUS
 62
     7
 10
17.1423557923
 20
732.7869335802
 30
0.0
  0
VERTEX
  5
563
  8
0
  6
CONTINUOUS
 62
     7
 10
11.8046518192
 20
730.7562927397
 30
0.0
  0
VERTEX
  5
564
  8
0
  6
CONTINUOUS
 62
     7
 10
6.9550316558
 20
728.5299400481
 30
0.0
  0
SEQEND
  5
7D1
  8
0
  6
CONTINUOUS
 62
     7
  0
LINE
  5
169
  8
0
  6
CONTINUOUS
 62
     7
 10
62.569126837
 20
725.1299420985
 30
0.0
 11
62.6169856415
 21
728.5299400481
 31
0.0
  0
LINE
  5
16A
  8
0
  6
CONTINUOUS
 62
     7
 10
7.0028904603
 20
725.1299420985
 30
0.0
 11
62.569126837
 21
725.1299420985
 31
0.0
  0
LINE
  5
16B
  8
0
  6
CONTINUOUS
 62
     7
 10
6.9550316558
 20
728.5299400481
 30
0.0
 11
7.0028904603
 21
725.1299420985
 31
0.0
  0
ARC
  5
16C
  8
0
  6
CONTINUOUS
 62
     7
 10
37.313828793
 20
633.9338124393
 30
0.0
 40
102.1664977597056
 50
91.4177661965
 51
105.8370641539
  0
LINE
  5
16D
  8
0
  6
CONTINUOUS
 62
     7
 10
6.9550316558
 20
728.5299400481
 30
0.0
 11
-11.2139914408
 21
728.5299400481
 31
0.0
  0
LINE
  5
16E
  8
0
  6
CONTINUOUS
 62
     7
 10
7.0028904603
 20
725.1299420985
 30
0.0
 11
-11.2139914408
 21
725.1299420985
 31
0.0
  0
LINE
  5
16F
  8
0
  6
CONTINUOUS
 62
     7
 10
80.7860087381
 20
725.1299420985
 30
0.0
 11
62.569126837
 21
725.1299420985
 31
0.0
  0
LINE
  5
170
  8
0
  6
CONTINUOUS
 62
     7
 10
48.0377919749
 20
694.4299439581
 30
0.0
 11
48.0377919749
 21
714.9299482497
 31
0.0
  0
LINE
  5
171
  8
0
  6
CONTINUOUS
 62
     7
 10
48.0377919749
 20
714.9299482497
 30
0.0
 11
60.7769045756
 21
714.9299482497
 31
0.0
  0
LINE
  5
172
  8
0
  6
CONTINUOUS
 62
     7
 10
60.7769045756
 20
692.8078631552
 30
0.0
 11
60.7769045756
 21
714.9299482497
 31
0.0
  0
LINE
  5
173
  8
0
  6
CONTINUOUS
 62
     7
 10
43.403358549
 20
714.9299482497
 30
0.0
 11
48.0377919749
 21
714.9299482497
 31
0.0
  0
LINE
  5
174
  8
0
  6
CONTINUOUS
 62
     7
 10
43.403358549
 20
714.9299482497
 30
0.0
 11
43.9254347012
 21
695.9299544485
 31
0.0
  0
LINE
  5
175
  8
0
  6
CONTINUOUS
 62
     7
 10
8.7951127217
 20
692.8078631552
 30
0.0
 11
8.7951127217
 21
714.9299482497
 31
0.0
  0
LINE
  5
176
  8
0
  6
CONTINUOUS
 62
     7
 10
21.5342253224
 20
694.4299439581
 30
0.0
 11
21.5342253224
 21
714.9299482497
 31
0.0
  0
LINE
  5
177
  8
0
  6
CONTINUOUS
 62
     7
 10
21.5342253224
 20
714.9299482497
 30
0.0
 11
8.7951127217
 21
714.9299482497
 31
0.0
  0
LINE
  5
178
  8
0
  6
CONTINUOUS
 62
     7
 10
25.6465825961
 20
695.9299544485
 30
0.0
 11
26.1686587483
 21
714.9299482497
 31
0.0
  0
LINE
  5
179
  8
0
  6
CONTINUOUS
 62
     7
 10
26.1686587483
 20
714.9299482497
 30
0.0
 11
21.5342253224
 21
714.9299482497
 31
0.0
  0
LINE
  5
17A
  8
0
  6
CONTINUOUS
 62
     7
 10
9.4323217646
 20
732.2222391756
 30
0.0
 11
10.2860092894
 21
781.1299363764
 31
0.0
  0
LINE
  5
17B
  8
0
  6
CONTINUOUS
 62
     7
 10
10.2860092894
 20
781.1299363764
 30
0.0
 11
59.2860080079
 21
781.1299363764
 31
0.0
  0
LINE
  5
17C
  8
0
  6
CONTINUOUS
 62
     7
 10
60.1396955327
 20
732.2222391756
 30
0.0
 11
59.2860080079
 21
781.1299363764
 31
0.0
  0
LINE
  5
17D
  8
0
  6
CONTINUOUS
 62
     7
 10
26.1686587483
 20
714.9299482497
 30
0.0
 11
43.403358549
 21
714.9299482497
 31
0.0
  0
LINE
  5
17E
  8
0
  6
CONTINUOUS
 62
     7
 10
5.3299538568
 20
692.1968857439
 30
0.0
 11
5.0801004992
 21
675.9299437197
 31
0.0
  0
POLYLINE
  5
17F
  8
0
  6
CONTINUOUS
 62
     7
 66
     1
 10
0.0
 20
0.0
 30
0.0
  0
VERTEX
  5
565
  8
0
  6
CONTINUOUS
 62
     7
 10
12.3772885428
 20
693.4394935759
 30
0.0
  0
VERTEX
  5
566
  8
0
  6
CONTINUOUS
 62
     7
 10
9.7456428931
 20
692.9754714163
 30
0.0
  0
VERTEX
  5
567
  8
0
  6
CONTINUOUS
 62
     7
 10
7.3878805862
 20
692.559729019
 30
0.0
  0
VERTEX
  5
568
  8
0
  6
CONTINUOUS
 62
     7
 10
5.3299538568
 20
692.1968857439
 30
0.0
  0
SEQEND
  5
7D0
  8
0
  6
CONTINUOUS
 62
     7
  0
LINE
  5
180
  8
0
  6
CONTINUOUS
 62
     7
 10
64.2420634405
 20
692.1968857439
 30
0.0
 11
64.4919167981
 21
675.9299437197
 31
0.0
  0
POLYLINE
  5
181
  8
0
  6
CONTINUOUS
 62
     7
 66
     1
 10
0.0
 20
0.0
 30
0.0
  0
VERTEX
  5
569
  8
0
  6
CONTINUOUS
 62
     7
 10
64.2420634405
 20
692.1968857439
 30
0.0
  0
VERTEX
  5
56A
  8
0
  6
CONTINUOUS
 62
     7
 10
62.1841367111
 20
692.559729019
 30
0.0
  0
VERTEX
  5
56B
  8
0
  6
CONTINUOUS
 62
     7
 10
59.8263744042
 20
692.9754714163
 30
0.0
  0
VERTEX
  5
56C
  8
0
  6
CONTINUOUS
 62
     7
 10
57.1947287545
 20
693.4394935759
 30
0.0
  0
SEQEND
  5
7CF
  8
0
  6
CONTINUOUS
 62
     7
  0
ARC
  5
182
  8
0
  6
CONTINUOUS
 62
     7
 10
-17.4828530641
 20
679.0838271911
 30
0.0
 40
3.000002154252531
 50
170.2072951281
 51
317.0727113839
  0
ARC
  5
183
  8
0
  6
CONTINUOUS
 62
     7
 10
-8.6139740639
 20
677.5530533384
 30
0.0
 40
12.00001789357179
 50
100.0000737448
 51
170.2072229808
  0
LINE
  5
184
  8
0
  6
CONTINUOUS
 62
     7
 10
0.2524558232
 20
675.9299437197
 30
0.0
 11
5.0801004992
 21
675.9299437197
 31
0.0
  0
ARC
  5
185
  8
0
  6
CONTINUOUS
 62
     7
 10
-7.963990021
 20
670.2299344202
 30
0.0
 40
10.00000441620324
 50
34.7502730484
 51
137.0728491215
  0
LINE
  5
186
  8
0
  6
CONTINUOUS
 62
     7
 10
5.3299538568
 20
692.1968857439
 30
0.0
 11
-10.6977705135
 21
689.3707613142
 31
0.0
  0
ARC
  5
187
  8
0
  6
CONTINUOUS
 62
     7
 10
78.1859943844
 20
677.5530563506
 30
0.0
 40
12.0000144020986
 50
9.7927653014
 51
79.999937973
  0
ARC
  5
188
  8
0
  6
CONTINUOUS
 62
     7
 10
87.0548703614
 20
679.0838271911
 30
0.0
 40
3.000002154252534
 50
222.9272886161
 51
9.7927048719
  0
ARC
  5
189
  8
0
  6
CONTINUOUS
 62
     7
 10
77.5360073183
 20
670.2299344202
 30
0.0
 40
10.00000441620324
 50
42.9271508785
 51
145.2497269516
  0
LINE
  5
18A
  8
0
  6
CONTINUOUS
 62
     7
 10
69.3195614741
 20
675.9299437197
 30
0.0
 11
64.4919167981
 21
675.9299437197
 31
0.0
  0
LINE
  5
18B
  8
0
  6
CONTINUOUS
 62
     7
 10
80.2697878108
 20
689.3707613142
 30
0.0
 11
64.2420634405
 21
692.1968857439
 31
0.0
  0
LINE
  5
18C
  8
0
  6
CONTINUOUS
 62
     7
 10
7.7860079483
 20
714.9299482497
 30
0.0
 11
8.7951127217
 21
714.9299482497
 31
0.0
  0
LINE
  5
18D
  8
0
  6
CONTINUOUS
 62
     7
 10
60.7769045756
 20
714.9299482497
 30
0.0
 11
61.786009349
 21
714.9299482497
 31
0.0
  0
POLYLINE
  5
18E
  8
0
  6
CONTINUOUS
 62
     7
 66
     1
 10
0.0
 20
0.0
 30
0.0
  0
VERTEX
  5
56D
  8
0
  6
CONTINUOUS
 62
     7
 10
19.6268925221
 20
725.1299420985
 30
0.0
  0
VERTEX
  5
56E
  8
0
  6
CONTINUOUS
 62
     7
 10
19.0904460625
 20
724.5935002955
 30
0.0
  0
VERTEX
  5
56F
  8
0
  6
CONTINUOUS
 62
     7
 10
18.8199303821
 20
724.3229846152
 30
0.0
  0
VERTEX
  5
570
  8
0
  6
CONTINUOUS
 62
     7
 10
18.7860078887
 20
724.2890695723
 30
0.0
  0
SEQEND
  5
7CE
  8
0
  6
CONTINUOUS
 62
     7
  0
ARC
  5
18F
  8
0
  6
CONTINUOUS
 62
     7
 10
34.7860086486
 20
740.2891849836
 30
0.0
 40
16.00012034652005
 50
251.3420911826
 51
288.6579088174
  0
POLYLINE
  5
190
  8
0
  6
CONTINUOUS
 62
     7
 66
     1
 10
0.0
 20
0.0
 30
0.0
  0
VERTEX
  5
571
  8
0
  6
CONTINUOUS
 62
     7
 10
50.7860094086
 20
724.2890695723
 30
0.0
  0
VERTEX
  5
572
  8
0
  6
CONTINUOUS
 62
     7
 10
50.7520869151
 20
724.3229846152
 30
0.0
  0
VERTEX
  5
573
  8
0
  6
CONTINUOUS
 62
     7
 10
50.4815712348
 20
724.5935002955
 30
0.0
  0
VERTEX
  5
574
  8
0
  6
CONTINUOUS
 62
     7
 10
49.9451247752
 20
725.1299420985
 30
0.0
  0
SEQEND
  5
7CD
  8
0
  6
CONTINUOUS
 62
     7
  0
LINE
  5
191
  8
0
  6
CONTINUOUS
 62
     7
 10
-36.6203706934
 20
613.9299372824
 30
0.0
 11
-36.8818562701
 21
598.9299366864
 31
0.0
  0
LINE
  5
192
  8
0
  6
CONTINUOUS
 62
     7
 10
-26.9641015901
 20
613.9299372824
 30
0.0
 11
-36.6203706934
 21
613.9299372824
 31
0.0
  0
LINE
  5
193
  8
0
  6
CONTINUOUS
 62
     7
 10
106.1923879907
 20
613.9299372824
 30
0.0
 11
106.4538735674
 21
598.9299366864
 31
0.0
  0
LINE
  5
194
  8
0
  6
CONTINUOUS
 62
     7
 10
106.1923879907
 20
613.9299372824
 30
0.0
 11
96.5229350851
 21
613.9299372824
 31
0.0
  0
LINE
  5
195
  8
0
  6
CONTINUOUS
 62
     7
 10
-23.8407735004
 20
554.9299443754
 30
0.0
 11
-33.8407751396
 21
554.9299443754
 31
0.0
  0
LINE
  5
196
  8
0
  6
CONTINUOUS
 62
     7
 10
93.4127907977
 20
554.9299443754
 30
0.0
 11
103.4127924369
 21
554.9299443754
 31
0.0
  0
CIRCLE
  5
197
  8
0
  6
CONTINUOUS
 62
     7
 10
-35.2139913514
 20
520.9299416216
 30
0.0
 40
12.5
  0
CIRCLE
  5
198
  8
0
  6
CONTINUOUS
 62
     7
 10
104.7860086486
 20
520.9299416216
 30
0.0
 40
12.5
  0
LINE
  5
199
  8
0
  6
CONTINUOUS
 62
     7
 10
121.9861361907
 20
369.3299392851
 30
0.0
 11
-52.4141188934
 21
369.3299392851
 31
0.0
  0
LINE
  5
19A
  8
0
  6
CONTINUOUS
 62
     7
 10
-36.6203706934
 20
613.9299372824
 30
0.0
 11
-36.6379317119
 21
613.9299372824
 31
0.0
  0
LINE
  5
19B
  8
0
  6
CONTINUOUS
 62
     7
 10
106.2099490092
 20
613.9299372824
 30
0.0
 11
106.1923879907
 21
613.9299372824
 31
0.0
  0
LINE
  5
19C
  8
0
  6
CONTINUOUS
 62
     8
 10
146.2860110924
 20
552.429939309
 30
0.0
 11
146.2860110924
 21
323.8299439343
 31
0.0
  0
LINE
  5
19D
  8
0
  6
CONTINUOUS
 62
     8
 10
-57.7139925434
 20
552.3205275329
 30
0.0
 11
-57.7139925434
 21
340.5208537968
 31
0.0
  0
LINE
  5
19E
  8
0
  6
CONTINUOUS
 62
     8
 10
-76.7139937951
 20
552.429939309
 30
0.0
 11
-76.7139937951
 21
323.8299439343
 31
0.0
  0
LINE
  5
19F
  8
0
  6
CONTINUOUS
 62
     8
 10
127.2860098407
 20
552.3205275329
 30
0.0
 11
127.2860098407
 21
340.5208537968
 31
0.0
  0
LINE
  5
1A0
  8
0
  6
CONTINUOUS
 62
     8
 10
-14.72736115
 20
598.9299366864
 30
0.0
 11
-14.8015614822
 21
586.92994217
 31
0.0
  0
LINE
  5
1A1
  8
0
  6
CONTINUOUS
 62
     8
 10
84.2993784473
 20
598.9299366864
 30
0.0
 11
84.3735787795
 21
586.92994217
 31
0.0
  0
LINE
  5
1A2
  8
0
  6
CONTINUOUS
 62
     8
 10
83.7374333069
 20
600.3039280566
 30
0.0
 11
84.2993784473
 21
598.9299366864
 31
0.0
  0
LINE
  5
1A3
  8
0
  6
CONTINUOUS
 62
     8
 10
-14.1654160097
 20
600.3039280566
 30
0.0
 11
-14.72736115
 21
598.9299366864
 31
0.0
  0
LINE
  5
1A4
  8
0
  6
CONTINUOUS
 62
     8
 10
-15.5637298002
 20
574.9299476536
 30
0.0
 11
-15.6896632387
 21
586.92994217
 31
0.0
  0
LINE
  5
1A5
  8
0
  6
CONTINUOUS
 62
     8
 10
85.1357470975
 20
574.9299476536
 30
0.0
 11
85.261680536
 21
586.92994217
 31
0.0
  0
LINE
  5
1A6
  8
0
  6
CONTINUOUS
 62
     8
 10
-15.0591764822
 20
573.7179915102
 30
0.0
 11
-15.5637298002
 21
574.9299476536
 31
0.0
  0
LINE
  5
1A7
  8
0
  6
CONTINUOUS
 62
     8
 10
84.6311937795
 20
573.7179915102
 30
0.0
 11
85.1357470975
 21
574.9299476536
 31
0.0
  0
LINE
  5
1A8
  8
0
  6
CONTINUOUS
 62
     8
 10
-25.2805944755
 20
598.9299366864
 30
0.0
 11
-25.5805995538
 21
586.92994217
 31
0.0
  0
LINE
  5
1A9
  8
0
  6
CONTINUOUS
 62
     8
 10
94.8526117728
 20
598.9299366864
 30
0.0
 11
95.1526168511
 21
586.92994217
 31
0.0
  0
LINE
  5
1AA
  8
0
  6
CONTINUOUS
 62
     8
 10
95.5263975785
 20
574.9299476536
 30
0.0
 11
96.0283990727
 21
586.92994217
 31
0.0
  0
LINE
  5
1AB
  8
0
  6
CONTINUOUS
 62
     8
 10
-25.9543802812
 20
574.9299476536
 30
0.0
 11
-26.4563817754
 21
586.92994217
 31
0.0
  0
LINE
  5
1AC
  8
0
  6
CONTINUOUS
 62
     8
 10
93.8611332104
 20
573.9265034588
 30
0.0
 11
95.5263975785
 21
574.9299476536
 31
0.0
  0
LINE
  5
1AD
  8
0
  6
CONTINUOUS
 62
     8
 10
-24.2891159131
 20
573.9265034588
 30
0.0
 11
-25.9543802812
 21
574.9299476536
 31
0.0
  0
LINE
  5
1AE
  8
0
  6
CONTINUOUS
 62
     8
 10
66.457629554
 20
435.9315933341
 30
0.0
 11
66.457629554
 21
569.4589267166
 31
0.0
  0
LINE
  5
1AF
  8
0
  6
CONTINUOUS
 62
     8
 10
3.1143877432
 20
435.9315933341
 30
0.0
 11
3.1143877432
 21
569.4589267166
 31
0.0
  0
LINE
  5
1B0
  8
0
  6
CONTINUOUS
 62
     8
 10
58.5570487902
 20
399.048453817
 30
0.0
 11
11.0149685071
 21
399.048453817
 31
0.0
  0
LINE
  5
1B1
  8
0
  6
CONTINUOUS
 62
     8
 10
-25.0306200459
 20
613.9299372824
 30
0.0
 11
-25.2805944755
 21
598.9299366864
 31
0.0
  0
LINE
  5
1B2
  8
0
  6
CONTINUOUS
 62
     8
 10
94.6026373432
 20
613.9299372824
 30
0.0
 11
94.8526117728
 21
598.9299366864
 31
0.0
  0
LINE
  5
1B3
  8
0
  6
CONTINUOUS
 62
     8
 10
80.9440355525
 20
500.754127899
 30
0.0
 11
80.9440355525
 21
554.9299443754
 31
0.0
  0
LINE
  5
1B4
  8
0
  6
CONTINUOUS
 62
     8
 10
-11.3720182552
 20
500.754127899
 30
0.0
 11
-11.3720182552
 21
554.9299443754
 31
0.0
  0
LINE
  5
1B5
  8
0
  6
CONTINUOUS
 62
     8
 10
-48.2404601052
 20
504.6840632947
 30
0.0
 11
-48.2404601052
 21
371.5758199485
 31
0.0
  0
LINE
  5
1B6
  8
0
  6
CONTINUOUS
 62
     8
 10
117.8124774025
 20
504.6840632947
 30
0.0
 11
117.8124774025
 21
371.5758199485
 31
0.0
  0
LINE
  5
1B7
  8
0
  6
CONTINUOUS
 62
     8
 10
22.29925932
 20
694.4299439581
 30
0.0
 11
21.8516954929
 21
675.9299437197
 31
0.0
  0
LINE
  5
1B8
  8
0
  6
CONTINUOUS
 62
     8
 10
47.2727579773
 20
694.4299439581
 30
0.0
 11
47.7203218044
 21
675.9299437197
 31
0.0
  0
LINE
  5
1B9
  8
FORMAT
  6
CENTERX2
 10
34.7860086486
 20
357.2588518457
 30
0.0
 11
34.7860086486
 21
785.2179735369
 31
0.0
  0
LINE
  5
1BA
  8
FORMAT
  6
CENTERX2
 10
-92.7219295347
 20
438.0752347726
 30
0.0
 11
158.2360859642
 21
438.0752347726
 31
0.0
  0
LINE
  5
1BB
  8
0
  6
CONTINUOUS
 62
     7
 10
529.6549167325
 20
606.6057036312
 30
0.0
 11
529.5270712887
 21
613.9299372824
 31
0.0
  0
LINE
  5
1BC
  8
0
  6
CONTINUOUS
 62
     7
 10
502.0507233059
 20
613.9299372824
 30
0.0
 11
501.9228620296
 21
606.6047648581
 31
0.0
  0
LINE
  5
1BD
  8
0
  6
CONTINUOUS
 62
     7
 10
459.6176253473
 20
608.7420384081
 30
0.0
 11
459.5270709907
 21
613.9299372824
 31
0.0
  0
LINE
  5
1BE
  8
0
  6
CONTINUOUS
 62
     7
 10
572.0507236039
 20
613.9299372824
 30
0.0
 11
571.9602065002
 21
608.7441692742
 31
0.0
  0
LINE
  5
1BF
  8
0
  6
CONTINUOUS
 62
     7
 10
434.3515405273
 20
573.4952489527
 30
0.0
 11
435.1621189927
 21
554.9299443754
 31
0.0
  0
LINE
  5
1C0
  8
0
  6
CONTINUOUS
 62
     7
 10
596.4156756019
 20
554.9299443754
 30
0.0
 11
597.2262540673
 21
573.4952489527
 31
0.0
  0
LINE
  5
1C1
  8
0
  6
CONTINUOUS
 62
     7
 10
432.0507267331
 20
613.9299372824
 30
0.0
 11
431.8157279705
 21
600.4669914635
 31
0.0
  0
LINE
  5
1C2
  8
0
  6
CONTINUOUS
 62
     7
 10
599.7626850223
 20
600.4315714033
 30
0.0
 11
599.5270678615
 21
613.9299372824
 31
0.0
  0
LINE
  5
1C3
  8
0
  6
CONTINUOUS
 62
     7
 10
499.2585940128
 20
676.0838280114
 30
0.0
 11
505.8084301492
 21
676.0838280114
 31
0.0
  0
LINE
  5
1C4
  8
0
  6
CONTINUOUS
 62
     7
 10
525.7841175263
 20
676.0838280114
 30
0.0
 11
532.3192005818
 21
676.0838280114
 31
0.0
  0
LINE
  5
1C5
  8
0
  6
CONTINUOUS
 62
     7
 10
425.788893721
 20
586.92994217
 30
0.0
 11
426.3128259992
 21
574.9299476536
 31
0.0
  0
LINE
  5
1C6
  8
0
  6
CONTINUOUS
 62
     7
 10
605.2649685954
 20
574.9299476536
 30
0.0
 11
605.7889008736
 21
586.92994217
 31
0.0
  0
LINE
  5
1C7
  8
0
  6
CONTINUOUS
 62
     7
 10
426.3128259992
 20
574.9299476536
 30
0.0
 11
434.4951579188
 21
570.2058772238
 31
0.0
  0
LINE
  5
1C8
  8
0
  6
CONTINUOUS
 62
     7
 10
597.0826366757
 20
570.2058772238
 30
0.0
 11
605.2649685954
 21
574.9299476536
 31
0.0
  0
LINE
  5
1C9
  8
0
  6
CONTINUOUS
 62
     7
 10
607.9746628021
 20
598.9299366864
 30
0.0
 11
601.9139507627
 21
602.4291018637
 31
0.0
  0
LINE
  5
1CA
  8
0
  6
CONTINUOUS
 62
     7
 10
429.6638438319
 20
602.4291018637
 30
0.0
 11
423.6031317925
 21
598.9299366864
 31
0.0
  0
LINE
  5
1CB
  8
0
  6
CONTINUOUS
 62
     7
 10
423.6031317925
 20
598.9299366864
 30
0.0
 11
423.2888961052
 21
586.92994217
 31
0.0
  0
LINE
  5
1CC
  8
0
  6
CONTINUOUS
 62
     7
 10
608.2888984894
 20
586.92994217
 30
0.0
 11
607.9746628021
 21
598.9299366864
 31
0.0
  0
LINE
  5
1CD
  8
0
  6
CONTINUOUS
 62
     7
 10
456.7888969397
 20
675.9299437197
 30
0.0
 11
456.6527524804
 21
670.7307795676
 31
0.0
  0
LINE
  5
1CE
  8
0
  6
CONTINUOUS
 62
     7
 10
574.9250421142
 20
670.7307795676
 30
0.0
 11
574.7888976549
 21
675.9299437197
 31
0.0
  0
LINE
  5
1CF
  8
0
  6
CONTINUOUS
 62
     7
 10
435.7888990854
 20
554.9299443754
 30
0.0
 11
435.7888990854
 21
519.7662661465
 31
0.0
  0
LINE
  5
1D0
  8
0
  6
CONTINUOUS
 62
     7
 10
435.7888990854
 20
481.5343084427
 30
0.0
 11
435.7888990854
 21
463.6085933687
 31
0.0
  0
LINE
  5
1D1
  8
0
  6
CONTINUOUS
 62
     7
 10
595.7888955092
 20
544.9699411782
 30
0.0
 11
595.7888955092
 21
554.9299443754
 31
0.0
  0
LINE
  5
1D2
  8
0
  6
CONTINUOUS
 62
     7
 10
595.7888955092
 20
463.6085933687
 30
0.0
 11
595.7888955092
 21
481.5343084427
 31
0.0
  0
LINE
  5
1D3
  8
0
  6
CONTINUOUS
 62
     7
 10
595.7888955092
 20
519.7662661465
 30
0.0
 11
595.7888955092
 21
521.9299445542
 31
0.0
  0
LINE
  5
1D4
  8
0
  6
CONTINUOUS
 62
     7
 10
597.288898549
 20
521.9299445542
 30
0.0
 11
597.288898549
 21
529.5807520541
 31
0.0
  0
ARC
  5
1D5
  8
0
  6
CONTINUOUS
 62
     7
 10
462.7888972973
 20
586.9299416216
 30
0.0
 40
139.9999999999999
 50
6.35655749
 51
36.7806833211
  0
ARC
  5
1D6
  8
0
  6
CONTINUOUS
 62
     7
 10
568.7888972973
 20
586.9299416216
 30
0.0
 40
140.0
 50
143.2184377814
 51
173.6429532156
  0
LINE
  5
1D7
  8
0
  6
CONTINUOUS
 62
     7
 10
531.7888980573
 20
714.9299482497
 30
0.0
 11
531.7888980573
 21
724.2890695723
 31
0.0
  0
LINE
  5
1D8
  8
0
  6
CONTINUOUS
 62
     7
 10
499.7888965373
 20
724.2890695723
 30
0.0
 11
499.7888965373
 21
714.9299482497
 31
0.0
  0
LINE
  5
1D9
  8
0
  6
CONTINUOUS
 62
     7
 10
457.2733374154
 20
694.4299439581
 30
0.0
 11
456.7887255763
 21
675.9233276041
 31
0.0
  0
LINE
  5
1DA
  8
0
  6
CONTINUOUS
 62
     7
 10
574.7890690183
 20
675.9233276041
 30
0.0
 11
574.3044571792
 21
694.4299439581
 31
0.0
  0
LINE
  5
1DB
  8
0
  6
CONTINUOUS
 62
     7
 10
458.7888972675
 20
695.9299544485
 30
0.0
 11
458.7888972675
 21
694.4299439581
 31
0.0
  0
LINE
  5
1DC
  8
0
  6
CONTINUOUS
 62
     7
 10
482.7888974761
 20
694.4299439581
 30
0.0
 11
482.7888974761
 21
695.9299544485
 31
0.0
  0
LINE
  5
1DD
  8
0
  6
CONTINUOUS
 62
     7
 10
548.7888971185
 20
695.9299544485
 30
0.0
 11
548.7888971185
 21
694.4299439581
 31
0.0
  0
LINE
  5
1DE
  8
0
  6
CONTINUOUS
 62
     7
 10
572.7888973271
 20
694.4299439581
 30
0.0
 11
572.7888973271
 21
695.9299544485
 31
0.0
  0
CIRCLE
  5
1DF
  8
0
  6
CONTINUOUS
 62
     7
 10
515.7888972973
 20
438.1299416216
 30
0.0
 40
114.3
  0
CIRCLE
  5
1E0
  8
0
  6
CONTINUOUS
 62
     7
 10
598.9380552233
 20
472.5714505345
 30
0.0
 40
9.5
  0
CIRCLE
  5
1E1
  8
0
  6
CONTINUOUS
 62
     7
 10
550.2304062102
 20
354.9807836956
 30
0.0
 40
9.499999999999886
  0
CIRCLE
  5
1E2
  8
0
  6
CONTINUOUS
 62
     7
 10
432.6397393713
 20
403.6884327088
 30
0.0
 40
9.5
  0
CIRCLE
  5
1E3
  8
0
  6
CONTINUOUS
 62
     7
 10
481.3473883844
 20
521.2790995476
 30
0.0
 40
9.500000000000057
  0
CIRCLE
  5
1E4
  8
0
  6
CONTINUOUS
 62
     7
 10
515.7888972973
 20
438.1299416216
 30
0.0
 40
50.79999999999995
  0
CIRCLE
  5
1E5
  8
0
  6
CONTINUOUS
 62
     7
 10
550.2304062102
 20
521.2790995476
 30
0.0
 40
9.5
  0
CIRCLE
  5
1E6
  8
0
  6
CONTINUOUS
 62
     7
 10
432.6397393713
 20
472.5714505345
 30
0.0
 40
9.500000000000057
  0
CIRCLE
  5
1E7
  8
0
  6
CONTINUOUS
 62
     7
 10
481.3473883844
 20
354.9807836956
 30
0.0
 40
9.499999999999943
  0
CIRCLE
  5
1E8
  8
0
  6
CONTINUOUS
 62
     7
 10
598.9380552233
 20
403.6884327088
 30
0.0
 40
9.5
  0
LINE
  5
1E9
  8
0
  6
CONTINUOUS
 62
     7
 10
515.7888972973
 20
323.8299439343
 30
0.0
 11
460.7888975953
 21
323.8299439343
 31
0.0
  0
LINE
  5
1EA
  8
0
  6
CONTINUOUS
 62
     7
 10
460.7888975953
 20
323.8299439343
 30
0.0
 11
456.3165785586
 21
340.5208537968
 31
0.0
  0
LINE
  5
1EB
  8
0
  6
CONTINUOUS
 62
     7
 10
575.261216036
 20
340.5208537968
 30
0.0
 11
570.7888969993
 21
323.8299439343
 31
0.0
  0
LINE
  5
1EC
  8
0
  6
CONTINUOUS
 62
     7
 10
570.7888969993
 20
323.8299439343
 30
0.0
 11
515.7888972973
 21
323.8299439343
 31
0.0
  0
POLYLINE
  5
1ED
  8
0
  6
CONTINUOUS
 62
     7
 66
     1
 10
0.0
 20
0.0
 30
0.0
  0
VERTEX
  5
575
  8
0
  6
CONTINUOUS
 62
     7
 10
585.6386119341
 20
598.9299366864
 30
0.0
  0
VERTEX
  5
576
  8
0
  6
CONTINUOUS
 62
     7
 10
583.3882758235
 20
599.3986378105
 30
0.0
  0
VERTEX
  5
577
  8
0
  6
CONTINUOUS
 62
     7
 10
581.2402883386
 20
600.0354985388
 30
0.0
  0
VERTEX
  5
578
  8
0
  6
CONTINUOUS
 62
     7
 10
579.2602369403
 20
600.8134434613
 30
0.0
  0
VERTEX
  5
579
  8
0
  6
CONTINUOUS
 62
     7
 10
577.4747351026
 20
601.7080197724
 30
0.0
  0
VERTEX
  5
57A
  8
0
  6
CONTINUOUS
 62
     7
 10
575.7855394696
 20
602.7883986624
 30
0.0
  0
VERTEX
  5
57B
  8
0
  6
CONTINUOUS
 62
     7
 10
574.3850463842
 20
603.9497802647
 30
0.0
  0
VERTEX
  5
57C
  8
0
  6
CONTINUOUS
 62
     7
 10
573.1788644408
 20
605.3205380829
 30
0.0
  0
VERTEX
  5
57D
  8
0
  6
CONTINUOUS
 62
     7
 10
572.3758259629
 20
606.7262689265
 30
0.0
  0
VERTEX
  5
57E
  8
0
  6
CONTINUOUS
 62
     7
 10
571.9937750911
 20
608.1318060549
 30
0.0
  0
VERTEX
  5
57F
  8
0
  6
CONTINUOUS
 62
     7
 10
572.0147857284
 20
608.7432155999
 30
0.0
  0
SEQEND
  5
7CC
  8
0
  6
CONTINUOUS
 62
     7
  0
LINE
  5
1EE
  8
0
  6
CONTINUOUS
 62
     7
 10
518.8202959327
 20
598.9299366864
 30
0.0
 11
585.6386119341
 21
598.9299366864
 31
0.0
  0
POLYLINE
  5
1EF
  8
0
  6
CONTINUOUS
 62
     7
 66
     1
 10
0.0
 20
0.0
 30
0.0
  0
VERTEX
  5
580
  8
0
  6
CONTINUOUS
 62
     7
 10
529.6175576588
 20
606.6050479801
 30
0.0
  0
VERTEX
  5
581
  8
0
  6
CONTINUOUS
 62
     7
 10
529.5904654851
 20
605.7542363795
 30
0.0
  0
VERTEX
  5
582
  8
0
  6
CONTINUOUS
 62
     7
 10
529.2088458156
 20
604.5247415694
 30
0.0
  0
VERTEX
  5
583
  8
0
  6
CONTINUOUS
 62
     7
 10
528.2616888945
 20
603.0755738409
 30
0.0
  0
VERTEX
  5
584
  8
0
  6
CONTINUOUS
 62
     7
 10
526.7981955623
 20
601.7452875765
 30
0.0
  0
VERTEX
  5
585
  8
0
  6
CONTINUOUS
 62
     7
 10
524.9917240655
 20
600.6688723954
 30
0.0
  0
VERTEX
  5
586
  8
0
  6
CONTINUOUS
 62
     7
 10
522.7933105854
 20
599.7873644026
 30
0.0
  0
VERTEX
  5
587
  8
0
  6
CONTINUOUS
 62
     7
 10
520.8815544685
 20
599.2775509747
 30
0.0
  0
VERTEX
  5
588
  8
0
  6
CONTINUOUS
 62
     7
 10
518.8202959327
 20
598.9299366864
 30
0.0
  0
SEQEND
  5
7CB
  8
0
  6
CONTINUOUS
 62
     7
  0
POLYLINE
  5
1F0
  8
0
  6
CONTINUOUS
 62
     7
 66
     1
 10
0.0
 20
0.0
 30
0.0
  0
VERTEX
  5
589
  8
0
  6
CONTINUOUS
 62
     7
 10
529.6303363358
 20
607.0063362511
 30
0.0
  0
VERTEX
  5
58A
  8
0
  6
CONTINUOUS
 62
     7
 10
543.5374932205
 20
607.5010548027
 30
0.0
  0
VERTEX
  5
58B
  8
0
  6
CONTINUOUS
 62
     7
 10
557.3054062044
 20
608.2919339331
 30
0.0
  0
VERTEX
  5
58C
  8
0
  6
CONTINUOUS
 62
     7
 10
564.7351289009
 20
608.8516513499
 30
0.0
  0
VERTEX
  5
58D
  8
0
  6
CONTINUOUS
 62
     7
 10
572.0409745192
 20
609.5053354891
 30
0.0
  0
SEQEND
  5
7CA
  8
0
  6
CONTINUOUS
 62
     7
  0
LINE
  5
1F1
  8
0
  6
CONTINUOUS
 62
     7
 10
518.7899599624
 20
613.9299372824
 30
0.0
 11
518.8202959327
 21
598.9299366864
 31
0.0
  0
LINE
  5
1F2
  8
0
  6
CONTINUOUS
 62
     7
 10
529.5270712887
 20
613.9299372824
 30
0.0
 11
518.7899599624
 21
613.9299372824
 31
0.0
  0
POLYLINE
  5
1F3
  8
0
  6
CONTINUOUS
 62
     7
 66
     1
 10
0.0
 20
0.0
 30
0.0
  0
VERTEX
  5
58E
  8
0
  6
CONTINUOUS
 62
     7
 10
459.5402845954
 20
608.7406824025
 30
0.0
  0
VERTEX
  5
58F
  8
0
  6
CONTINUOUS
 62
     7
 10
459.5442632054
 20
607.8627059849
 30
0.0
  0
VERTEX
  5
590
  8
0
  6
CONTINUOUS
 62
     7
 10
459.0357350027
 20
606.3665846976
 30
0.0
  0
VERTEX
  5
591
  8
0
  6
CONTINUOUS
 62
     7
 10
458.061511985
 20
604.8820565136
 30
0.0
  0
VERTEX
  5
592
  8
0
  6
CONTINUOUS
 62
     7
 10
456.5728785311
 20
603.3976028355
 30
0.0
  0
VERTEX
  5
593
  8
0
  6
CONTINUOUS
 62
     7
 10
454.6288432395
 20
602.0155797394
 30
0.0
  0
VERTEX
  5
594
  8
0
  6
CONTINUOUS
 62
     7
 10
452.4135136818
 20
600.8573124798
 30
0.0
  0
VERTEX
  5
595
  8
0
  6
CONTINUOUS
 62
     7
 10
449.8848462319
 20
599.8845199736
 30
0.0
  0
VERTEX
  5
596
  8
0
  6
CONTINUOUS
 62
     7
 10
445.9391826605
 20
598.9299366864
 30
0.0
  0
SEQEND
  5
7C9
  8
0
  6
CONTINUOUS
 62
     7
  0
POLYLINE
  5
1F4
  8
0
  6
CONTINUOUS
 62
     7
 66
     1
 10
0.0
 20
0.0
 30
0.0
  0
VERTEX
  5
597
  8
0
  6
CONTINUOUS
 62
     7
 10
459.5368200754
 20
609.5053354891
 30
0.0
  0
VERTEX
  5
598
  8
0
  6
CONTINUOUS
 62
     7
 10
469.6827785884
 20
608.6254815253
 30
0.0
  0
VERTEX
  5
599
  8
0
  6
CONTINUOUS
 62
     7
 10
480.0906287347
 20
607.9203287752
 30
0.0
  0
VERTEX
  5
59A
  8
0
  6
CONTINUOUS
 62
     7
 10
490.9442247664
 20
607.3722789677
 30
0.0
  0
VERTEX
  5
59B
  8
0
  6
CONTINUOUS
 62
     7
 10
501.9474582588
 20
607.0063362511
 30
0.0
  0
SEQEND
  5
7C8
  8
0
  6
CONTINUOUS
 62
     7
  0
POLYLINE
  5
1F5
  8
0
  6
CONTINUOUS
 62
     7
 66
     1
 10
0.0
 20
0.0
 30
0.0
  0
VERTEX
  5
59C
  8
0
  6
CONTINUOUS
 62
     7
 10
512.7574986619
 20
598.9299366864
 30
0.0
  0
VERTEX
  5
59D
  8
0
  6
CONTINUOUS
 62
     7
 10
510.6403332976
 20
599.2898146303
 30
0.0
  0
VERTEX
  5
59E
  8
0
  6
CONTINUOUS
 62
     7
 10
508.682504653
 20
599.8205194863
 30
0.0
  0
VERTEX
  5
59F
  8
0
  6
CONTINUOUS
 62
     7
 10
506.9413076927
 20
600.4993269833
 30
0.0
  0
VERTEX
  5
5A0
  8
0
  6
CONTINUOUS
 62
     7
 10
505.4365819161
 20
601.3029764088
 30
0.0
  0
VERTEX
  5
5A1
  8
0
  6
CONTINUOUS
 62
     7
 10
504.1035370742
 20
602.2850672396
 30
0.0
  0
VERTEX
  5
5A2
  8
0
  6
CONTINUOUS
 62
     7
 10
503.08243966
 20
603.3584276827
 30
0.0
  0
VERTEX
  5
5A3
  8
0
  6
CONTINUOUS
 62
     7
 10
502.3155905148
 20
604.6473334225
 30
0.0
  0
VERTEX
  5
5A4
  8
0
  6
CONTINUOUS
 62
     7
 10
501.9533162778
 20
605.9881548079
 30
0.0
  0
VERTEX
  5
5A5
  8
0
  6
CONTINUOUS
 62
     7
 10
501.9497716641
 20
606.6042880209
 30
0.0
  0
SEQEND
  5
7C7
  8
0
  6
CONTINUOUS
 62
     7
  0
LINE
  5
1F6
  8
0
  6
CONTINUOUS
 62
     7
 10
445.9391826605
 20
598.9299366864
 30
0.0
 11
512.7574986619
 21
598.9299366864
 31
0.0
  0
LINE
  5
1F7
  8
0
  6
CONTINUOUS
 62
     7
 10
512.7878346322
 20
613.9299372824
 30
0.0
 11
512.7574986619
 21
598.9299366864
 31
0.0
  0
LINE
  5
1F8
  8
0
  6
CONTINUOUS
 62
     7
 10
512.7878346322
 20
613.9299372824
 30
0.0
 11
502.0507233059
 21
613.9299372824
 31
0.0
  0
LINE
  5
1F9
  8
0
  6
CONTINUOUS
 62
     7
 10
589.3666440462
 20
586.92994217
 30
0.0
 11
442.2111505484
 21
586.92994217
 31
0.0
  0
LINE
  5
1FA
  8
0
  6
CONTINUOUS
 62
     7
 10
442.361145637
 20
574.9299476536
 30
0.0
 11
589.2166489576
 21
574.9299476536
 31
0.0
  0
LINE
  5
1FB
  8
0
  6
CONTINUOUS
 62
     7
 10
439.4348257994
 20
598.9299366864
 30
0.0
 11
445.9391826605
 21
598.9299366864
 31
0.0
  0
LINE
  5
1FC
  8
0
  6
CONTINUOUS
 62
     7
 10
518.8202959327
 20
598.9299366864
 30
0.0
 11
512.7574986619
 21
598.9299366864
 31
0.0
  0
LINE
  5
1FD
  8
0
  6
CONTINUOUS
 62
     7
 10
592.1429687952
 20
598.9299366864
 30
0.0
 11
585.6386119341
 21
598.9299366864
 31
0.0
  0
LINE
  5
1FE
  8
0
  6
CONTINUOUS
 62
     7
 10
589.3666440462
 20
586.92994217
 30
0.0
 11
592.2364437794
 21
586.92994217
 31
0.0
  0
LINE
  5
1FF
  8
0
  6
CONTINUOUS
 62
     7
 10
439.3413508152
 20
586.92994217
 30
0.0
 11
442.2111505484
 21
586.92994217
 31
0.0
  0
LINE
  5
200
  8
0
  6
CONTINUOUS
 62
     7
 10
518.7899599624
 20
613.9299372824
 30
0.0
 11
512.7878346322
 21
613.9299372824
 31
0.0
  0
LINE
  5
201
  8
0
  6
CONTINUOUS
 62
     7
 10
445.7888969993
 20
573.6560622843
 30
0.0
 11
442.8587326621
 21
573.9265034588
 31
0.0
  0
LINE
  5
202
  8
0
  6
CONTINUOUS
 62
     7
 10
585.7888975953
 20
573.6560622843
 30
0.0
 11
588.7190619325
 21
573.9265034588
 31
0.0
  0
ARC
  5
203
  8
0
  6
CONTINUOUS
 62
     7
 10
514.3939835093
 20
1006.5435504273
 30
0.0
 40
438.7354683041611
 50
271.6362425292
 51
279.3653235317
  0
POLYLINE
  5
204
  8
0
  6
CONTINUOUS
 62
     7
 66
     1
 10
0.0
 20
0.0
 30
0.0
  0
VERTEX
  5
5A6
  8
0
  6
CONTINUOUS
 62
     7
 10
526.9216088419
 20
567.9869751128
 30
0.0
  0
VERTEX
  5
5A7
  8
0
  6
CONTINUOUS
 62
     7
 10
526.5519883325
 20
569.1704998406
 30
0.0
  0
VERTEX
  5
5A8
  8
0
  6
CONTINUOUS
 62
     7
 10
525.7904114043
 20
570.2995459231
 30
0.0
  0
VERTEX
  5
5A9
  8
0
  6
CONTINUOUS
 62
     7
 10
524.622019737
 20
571.347008148
 30
0.0
  0
VERTEX
  5
5AA
  8
0
  6
CONTINUOUS
 62
     7
 10
523.0720084002
 20
572.2614179047
 30
0.0
  0
VERTEX
  5
5AB
  8
0
  6
CONTINUOUS
 62
     7
 10
521.4039384229
 20
572.9204515608
 30
0.0
  0
VERTEX
  5
5AC
  8
0
  6
CONTINUOUS
 62
     7
 10
519.5062415516
 20
573.4077642353
 30
0.0
  0
VERTEX
  5
5AD
  8
0
  6
CONTINUOUS
 62
     7
 10
517.6820227718
 20
573.6693839224
 30
0.0
  0
VERTEX
  5
5AE
  8
0
  6
CONTINUOUS
 62
     7
 10
515.7890972973
 20
573.7595508488
 30
0.0
  0
VERTEX
  5
5AF
  8
0
  6
CONTINUOUS
 62
     7
 10
512.4377253307
 20
573.4753261002
 30
0.0
  0
VERTEX
  5
5B0
  8
0
  6
CONTINUOUS
 62
     7
 10
509.4699588445
 20
572.6744035872
 30
0.0
  0
VERTEX
  5
5B1
  8
0
  6
CONTINUOUS
 62
     7
 10
507.0351822143
 20
571.4055101069
 30
0.0
  0
VERTEX
  5
5B2
  8
0
  6
CONTINUOUS
 62
     7
 10
505.2911968743
 20
569.6441928538
 30
0.0
  0
VERTEX
  5
5B3
  8
0
  6
CONTINUOUS
 62
     7
 10
504.6561857527
 20
567.9869751128
 30
0.0
  0
SEQEND
  5
7C6
  8
0
  6
CONTINUOUS
 62
     7
  0
ARC
  5
205
  8
0
  6
CONTINUOUS
 62
     7
 10
517.1838110853
 20
1006.5435504273
 30
0.0
 40
438.7354683041611
 50
260.6346764683
 51
268.3637574708
  0
LINE
  5
206
  8
0
  6
CONTINUOUS
 62
     7
 10
526.3971783062
 20
554.9299443754
 30
0.0
 11
526.9216088419
 21
567.9869751128
 31
0.0
  0
LINE
  5
207
  8
0
  6
CONTINUOUS
 62
     7
 10
526.3971783062
 20
554.9299443754
 30
0.0
 11
505.1806162884
 21
554.9299443754
 31
0.0
  0
LINE
  5
208
  8
0
  6
CONTINUOUS
 62
     7
 10
505.1806162884
 20
554.9299443754
 30
0.0
 11
504.6561857527
 21
567.9869751128
 31
0.0
  0
LINE
  5
209
  8
0
  6
CONTINUOUS
 62
     7
 10
505.1806162884
 20
554.9299443754
 30
0.0
 11
445.7888969993
 21
554.9299443754
 31
0.0
  0
LINE
  5
20A
  8
0
  6
CONTINUOUS
 62
     7
 10
526.3971783062
 20
554.9299443754
 30
0.0
 11
585.7888975953
 21
554.9299443754
 31
0.0
  0
LINE
  5
20B
  8
0
  6
CONTINUOUS
 62
     7
 10
445.9739470696
 20
613.9299372824
 30
0.0
 11
445.9391826605
 21
598.9299366864
 31
0.0
  0
LINE
  5
20C
  8
0
  6
CONTINUOUS
 62
     7
 10
459.5270709907
 20
613.9299372824
 30
0.0
 11
445.9739470696
 21
613.9299372824
 31
0.0
  0
LINE
  5
20D
  8
0
  6
CONTINUOUS
 62
     7
 10
585.603847525
 20
613.9299372824
 30
0.0
 11
585.6386119341
 21
598.9299366864
 31
0.0
  0
LINE
  5
20E
  8
0
  6
CONTINUOUS
 62
     7
 10
585.603847525
 20
613.9299372824
 30
0.0
 11
572.0507236039
 21
613.9299372824
 31
0.0
  0
LINE
  5
20F
  8
0
  6
CONTINUOUS
 62
     7
 10
445.9739470696
 20
613.9299372824
 30
0.0
 11
439.5127067184
 21
613.9299372824
 31
0.0
  0
LINE
  5
210
  8
0
  6
CONTINUOUS
 62
     7
 10
592.0650878762
 20
613.9299372824
 30
0.0
 11
585.603847525
 21
613.9299372824
 31
0.0
  0
LINE
  5
211
  8
0
  6
CONTINUOUS
 62
     7
 10
432.4538850998
 20
574.9299476536
 30
0.0
 11
442.361145637
 21
574.9299476536
 31
0.0
  0
LINE
  5
212
  8
0
  6
CONTINUOUS
 62
     7
 10
599.1239094948
 20
574.9299476536
 30
0.0
 11
589.2166489576
 21
574.9299476536
 31
0.0
  0
ARC
  5
213
  8
0
  6
CONTINUOUS
 62
     7
 10
439.9748175264
 20
521.6676191944
 30
0.0
 40
52.33839843816587
 50
86.8413268474
 51
96.0137133264
  0
ARC
  5
214
  8
0
  6
CONTINUOUS
 62
     7
 10
591.6029770682
 20
521.6676191944
 30
0.0
 40
52.33839843816587
 50
83.9862866736
 51
93.1586731526
  0
LINE
  5
215
  8
0
  6
CONTINUOUS
 62
     7
 10
429.5327955698
 20
598.9299366864
 30
0.0
 11
437.606505475
 21
598.9299366864
 31
0.0
  0
LINE
  5
216
  8
0
  6
CONTINUOUS
 62
     7
 10
439.4348257994
 20
598.9299366864
 30
0.0
 11
437.606505475
 21
598.9299366864
 31
0.0
  0
LINE
  5
217
  8
0
  6
CONTINUOUS
 62
     7
 10
429.2274558758
 20
586.92994217
 30
0.0
 11
439.3413508152
 21
586.92994217
 31
0.0
  0
LINE
  5
218
  8
0
  6
CONTINUOUS
 62
     7
 10
592.1429687952
 20
598.9299366864
 30
0.0
 11
593.9712891196
 21
598.9299366864
 31
0.0
  0
LINE
  5
219
  8
0
  6
CONTINUOUS
 62
     7
 10
593.9712891196
 20
598.9299366864
 30
0.0
 11
602.0449990248
 21
598.9299366864
 31
0.0
  0
LINE
  5
21A
  8
0
  6
CONTINUOUS
 62
     7
 10
592.2364437794
 20
586.92994217
 30
0.0
 11
602.3503387188
 21
586.92994217
 31
0.0
  0
LINE
  5
21B
  8
0
  6
CONTINUOUS
 62
     7
 10
437.7394536351
 20
613.9299372824
 30
0.0
 11
437.606505475
 21
598.9299366864
 31
0.0
  0
LINE
  5
21C
  8
0
  6
CONTINUOUS
 62
     7
 10
439.5127067184
 20
613.9299372824
 30
0.0
 11
437.7394536351
 21
613.9299372824
 31
0.0
  0
LINE
  5
21D
  8
0
  6
CONTINUOUS
 62
     7
 10
593.8383409595
 20
613.9299372824
 30
0.0
 11
593.9712891196
 21
598.9299366864
 31
0.0
  0
LINE
  5
21E
  8
0
  6
CONTINUOUS
 62
     7
 10
593.8383409595
 20
613.9299372824
 30
0.0
 11
592.0650878762
 21
613.9299372824
 31
0.0
  0
LINE
  5
21F
  8
0
  6
CONTINUOUS
 62
     7
 10
434.4915071344
 20
573.7179915102
 30
0.0
 11
434.437438271
 21
573.4989891442
 31
0.0
  0
LINE
  5
220
  8
0
  6
CONTINUOUS
 62
     7
 10
445.7888969993
 20
554.9299443754
 30
0.0
 11
435.1621189927
 21
554.9299443754
 31
0.0
  0
LINE
  5
221
  8
0
  6
CONTINUOUS
 62
     7
 10
597.0862874602
 20
573.7179915102
 30
0.0
 11
597.1403563236
 21
573.4989891442
 31
0.0
  0
LINE
  5
222
  8
0
  6
CONTINUOUS
 62
     7
 10
585.7888975953
 20
554.9299443754
 30
0.0
 11
596.4156756019
 21
554.9299443754
 31
0.0
  0
ARC
  5
223
  8
0
  6
CONTINUOUS
 62
     7
 10
438.052843018
 20
613.5669404761
 30
0.0
 40
14.64380746739223
 50
244.9187975404
 51
268.2533764671
  0
LINE
  5
224
  8
0
  6
CONTINUOUS
 62
     7
 10
431.8452993249
 20
600.3039280566
 30
0.0
 11
431.9114157771
 21
600.4653225334
 31
0.0
  0
LINE
  5
225
  8
0
  6
CONTINUOUS
 62
     7
 10
437.7394536351
 20
613.9299372824
 30
0.0
 11
432.0507267331
 21
613.9299372824
 31
0.0
  0
ARC
  5
226
  8
0
  6
CONTINUOUS
 62
     7
 10
593.1131023995
 20
615.2938421607
 30
0.0
 40
16.38639334390734
 50
273.0020628371
 51
293.8257631554
  0
POLYLINE
  5
227
  8
0
  6
CONTINUOUS
 62
     7
 66
     1
 10
0.0
 20
0.0
 30
0.0
  0
VERTEX
  5
5B4
  8
0
  6
CONTINUOUS
 62
     7
 10
599.7327411388
 20
600.4310498627
 30
0.0
  0
VERTEX
  5
5B5
  8
0
  6
CONTINUOUS
 62
     7
 10
599.7548619126
 20
600.3516117724
 30
0.0
  0
VERTEX
  5
5B6
  8
0
  6
CONTINUOUS
 62
     7
 10
599.7324952697
 20
600.3039280566
 30
0.0
  0
SEQEND
  5
7C5
  8
0
  6
CONTINUOUS
 62
     7
  0
LINE
  5
228
  8
0
  6
CONTINUOUS
 62
     7
 10
599.5270678615
 20
613.9299372824
 30
0.0
 11
593.8383409595
 21
613.9299372824
 31
0.0
  0
LINE
  5
229
  8
0
  6
CONTINUOUS
 62
     7
 10
456.0026259934
 20
613.9299372824
 30
0.0
 11
455.1816949462
 21
617.3836986216
 31
0.0
  0
POLYLINE
  5
22A
  8
0
  6
CONTINUOUS
 62
     7
 66
     1
 10
0.0
 20
0.0
 30
0.0
  0
VERTEX
  5
5B7
  8
0
  6
CONTINUOUS
 62
     7
 10
455.1816949462
 20
617.3836986216
 30
0.0
  0
VERTEX
  5
5B8
  8
0
  6
CONTINUOUS
 62
     7
 10
458.8693449115
 20
624.2365489395
 30
0.0
  0
VERTEX
  5
5B9
  8
0
  6
CONTINUOUS
 62
     7
 10
463.0303041851
 20
630.7922850045
 30
0.0
  0
VERTEX
  5
5BA
  8
0
  6
CONTINUOUS
 62
     7
 10
467.6476524984
 20
636.9579980763
 30
0.0
  0
VERTEX
  5
5BB
  8
0
  6
CONTINUOUS
 62
     7
 10
472.3404193138
 20
642.8734163435
 30
0.0
  0
VERTEX
  5
5BC
  8
0
  6
CONTINUOUS
 62
     7
 10
476.3727145111
 20
648.8921443613
 30
0.0
  0
VERTEX
  5
5BD
  8
0
  6
CONTINUOUS
 62
     7
 10
479.6350369071
 20
655.229697624
 30
0.0
  0
VERTEX
  5
5BE
  8
0
  6
CONTINUOUS
 62
     7
 10
482.311330161
 20
661.9640092047
 30
0.0
  0
VERTEX
  5
5BF
  8
0
  6
CONTINUOUS
 62
     7
 10
484.9333887761
 20
668.9018706473
 30
0.0
  0
VERTEX
  5
5C0
  8
0
  6
CONTINUOUS
 62
     7
 10
487.5554492538
 20
675.9299437197
 30
0.0
  0
SEQEND
  5
7C4
  8
0
  6
CONTINUOUS
 62
     7
  0
LINE
  5
22B
  8
0
  6
CONTINUOUS
 62
     7
 10
487.5554492538
 20
675.9299437197
 30
0.0
 11
490.3162916963
 21
675.9299437197
 31
0.0
  0
LINE
  5
22C
  8
0
  6
CONTINUOUS
 62
     7
 10
490.3162916963
 20
675.9299437197
 30
0.0
 11
497.2805468207
 21
675.9299437197
 31
0.0
  0
LINE
  5
22D
  8
0
  6
CONTINUOUS
 62
     7
 10
510.0936665041
 20
675.9298990162
 30
0.0
 11
510.0987287079
 21
675.9310613068
 31
0.0
  0
LINE
  5
22E
  8
0
  6
CONTINUOUS
 62
     7
 10
510.0987240513
 20
675.9299437197
 30
0.0
 11
510.3242605766
 21
675.9299437197
 31
0.0
  0
LINE
  5
22F
  8
0
  6
CONTINUOUS
 62
     7
 10
510.3242605766
 20
675.9299437197
 30
0.0
 11
521.253534018
 21
675.9299437197
 31
0.0
  0
LINE
  5
230
  8
0
  6
CONTINUOUS
 62
     7
 10
521.253534018
 20
675.9299437197
 30
0.0
 11
521.4790705433
 21
675.9299437197
 31
0.0
  0
LINE
  5
231
  8
0
  6
CONTINUOUS
 62
     7
 10
521.4790658867
 20
675.9310613068
 30
0.0
 11
521.4839576585
 21
675.9299437197
 31
0.0
  0
LINE
  5
232
  8
0
  6
CONTINUOUS
 62
     7
 10
534.2972477739
 20
675.9299437197
 30
0.0
 11
541.2614973103
 21
675.9299437197
 31
0.0
  0
LINE
  5
233
  8
0
  6
CONTINUOUS
 62
     7
 10
541.2615028983
 20
675.9299437197
 30
0.0
 11
544.0223453408
 21
675.9299437197
 31
0.0
  0
POLYLINE
  5
234
  8
0
  6
CONTINUOUS
 62
     7
 66
     1
 10
0.0
 20
0.0
 30
0.0
  0
VERTEX
  5
5C1
  8
0
  6
CONTINUOUS
 62
     7
 10
576.3960996484
 20
617.3836986216
 30
0.0
  0
VERTEX
  5
5C2
  8
0
  6
CONTINUOUS
 62
     7
 10
572.7084496831
 20
624.2365489395
 30
0.0
  0
VERTEX
  5
5C3
  8
0
  6
CONTINUOUS
 62
     7
 10
568.5474904095
 20
630.7922850045
 30
0.0
  0
VERTEX
  5
5C4
  8
0
  6
CONTINUOUS
 62
     7
 10
563.9301420962
 20
636.9579980763
 30
0.0
  0
VERTEX
  5
5C5
  8
0
  6
CONTINUOUS
 62
     7
 10
559.2373752808
 20
642.8734163435
 30
0.0
  0
VERTEX
  5
5C6
  8
0
  6
CONTINUOUS
 62
     7
 10
555.2050800835
 20
648.8921443613
 30
0.0
  0
VERTEX
  5
5C7
  8
0
  6
CONTINUOUS
 62
     7
 10
551.9427576875
 20
655.229697624
 30
0.0
  0
VERTEX
  5
5C8
  8
0
  6
CONTINUOUS
 62
     7
 10
549.2664644336
 20
661.9640092047
 30
0.0
  0
VERTEX
  5
5C9
  8
0
  6
CONTINUOUS
 62
     7
 10
546.6444058185
 20
668.9018706473
 30
0.0
  0
VERTEX
  5
5CA
  8
0
  6
CONTINUOUS
 62
     7
 10
544.0223453408
 20
675.9299437197
 30
0.0
  0
SEQEND
  5
7C3
  8
0
  6
CONTINUOUS
 62
     7
  0
LINE
  5
235
  8
0
  6
CONTINUOUS
 62
     7
 10
576.3960996484
 20
617.3836986216
 30
0.0
 11
575.5751648759
 21
613.9299372824
 31
0.0
  0
POLYLINE
  5
236
  8
0
  6
CONTINUOUS
 62
     7
 66
     1
 10
0.0
 20
0.0
 30
0.0
  0
VERTEX
  5
5CB
  8
0
  6
CONTINUOUS
 62
     7
 10
526.7755150636
 20
613.9299372824
 30
0.0
  0
VERTEX
  5
5CC
  8
0
  6
CONTINUOUS
 62
     7
 10
526.7550296923
 20
619.6929911764
 30
0.0
  0
VERTEX
  5
5CD
  8
0
  6
CONTINUOUS
 62
     7
 10
526.5868095522
 20
625.3828356655
 30
0.0
  0
VERTEX
  5
5CE
  8
0
  6
CONTINUOUS
 62
     7
 10
526.0824648505
 20
630.8878014477
 30
0.0
  0
VERTEX
  5
5CF
  8
0
  6
CONTINUOUS
 62
     7
 10
525.5150956874
 20
634.1022203358
 30
0.0
  0
VERTEX
  5
5D0
  8
0
  6
CONTINUOUS
 62
     7
 10
524.6211955165
 20
637.1871034296
 30
0.0
  0
VERTEX
  5
5D1
  8
0
  6
CONTINUOUS
 62
     7
 10
523.2812411924
 20
640.0423745306
 30
0.0
  0
VERTEX
  5
5D2
  8
0
  6
CONTINUOUS
 62
     7
 10
522.2085205679
 20
641.5913353356
 30
0.0
  0
VERTEX
  5
5D3
  8
0
  6
CONTINUOUS
 62
     7
 10
520.8791926344
 20
642.9579357298
 30
0.0
  0
VERTEX
  5
5D4
  8
0
  6
CONTINUOUS
 62
     7
 10
518.7672808608
 20
644.2867467793
 30
0.0
  0
VERTEX
  5
5D5
  8
0
  6
CONTINUOUS
 62
     7
 10
516.6746586984
 20
644.8604861887
 30
0.0
  0
VERTEX
  5
5D6
  8
0
  6
CONTINUOUS
 62
     7
 10
514.4663307657
 20
644.7937438877
 30
0.0
  0
VERTEX
  5
5D7
  8
0
  6
CONTINUOUS
 62
     7
 10
512.5503366654
 20
644.1679398211
 30
0.0
  0
VERTEX
  5
5D8
  8
0
  6
CONTINUOUS
 62
     7
 10
510.2784767588
 20
642.5792823227
 30
0.0
  0
VERTEX
  5
5D9
  8
0
  6
CONTINUOUS
 62
     7
 10
508.9201129814
 20
641.002054015
 30
0.0
  0
VERTEX
  5
5DA
  8
0
  6
CONTINUOUS
 62
     7
 10
507.85197167
 20
639.2352829369
 30
0.0
  0
VERTEX
  5
5DB
  8
0
  6
CONTINUOUS
 62
     7
 10
506.4935594638
 20
635.7610175999
 30
0.0
  0
VERTEX
  5
5DC
  8
0
  6
CONTINUOUS
 62
     7
 10
505.6691089486
 20
632.0440868529
 30
0.0
  0
VERTEX
  5
5DD
  8
0
  6
CONTINUOUS
 62
     7
 10
505.106293953
 20
627.1720925959
 30
0.0
  0
VERTEX
  5
5DE
  8
0
  6
CONTINUOUS
 62
     7
 10
504.8753334051
 20
622.1303890141
 30
0.0
  0
VERTEX
  5
5DF
  8
0
  6
CONTINUOUS
 62
     7
 10
504.8134488826
 20
617.0047024878
 30
0.0
  0
VERTEX
  5
5E0
  8
0
  6
CONTINUOUS
 62
     7
 10
504.802279531
 20
613.9299372824
 30
0.0
  0
SEQEND
  5
7C2
  8
0
  6
CONTINUOUS
 62
     7
  0
POLYLINE
  5
237
  8
0
  6
CONTINUOUS
 62
     7
 66
     1
 10
0.0
 20
0.0
 30
0.0
  0
VERTEX
  5
5E1
  8
0
  6
CONTINUOUS
 62
     7
 10
527.308403871
 20
679.5940796526
 30
0.0
  0
VERTEX
  5
5E2
  8
0
  6
CONTINUOUS
 62
     7
 10
526.9875213345
 20
682.9563776644
 30
0.0
  0
VERTEX
  5
5E3
  8
0
  6
CONTINUOUS
 62
     7
 10
526.6011174609
 20
684.4557027014
 30
0.0
  0
VERTEX
  5
5E4
  8
0
  6
CONTINUOUS
 62
     7
 10
526.0096512576
 20
685.7669154795
 30
0.0
  0
VERTEX
  5
5E5
  8
0
  6
CONTINUOUS
 62
     7
 10
524.2687299689
 20
687.5762293728
 30
0.0
  0
VERTEX
  5
5E6
  8
0
  6
CONTINUOUS
 62
     7
 10
521.9394731177
 20
688.5389188917
 30
0.0
  0
VERTEX
  5
5E7
  8
0
  6
CONTINUOUS
 62
     7
 10
518.9301007268
 20
689.0069941672
 30
0.0
  0
VERTEX
  5
5E8
  8
0
  6
CONTINUOUS
 62
     7
 10
515.2557896291
 20
689.1238490733
 30
0.0
  0
VERTEX
  5
5E9
  8
0
  6
CONTINUOUS
 62
     7
 10
513.2946096202
 20
689.0543798598
 30
0.0
  0
VERTEX
  5
5EA
  8
0
  6
CONTINUOUS
 62
     7
 10
511.4050813792
 20
688.8735393675
 30
0.0
  0
VERTEX
  5
5EB
  8
0
  6
CONTINUOUS
 62
     7
 10
509.6621009362
 20
688.5442535075
 30
0.0
  0
VERTEX
  5
5EC
  8
0
  6
CONTINUOUS
 62
     7
 10
508.1093966802
 20
688.0105088147
 30
0.0
  0
VERTEX
  5
5ED
  8
0
  6
CONTINUOUS
 62
     7
 10
506.9240754311
 20
687.3030165823
 30
0.0
  0
VERTEX
  5
5EE
  8
0
  6
CONTINUOUS
 62
     7
 10
505.9713547891
 20
686.3613078984
 30
0.0
  0
VERTEX
  5
5EF
  8
0
  6
CONTINUOUS
 62
     7
 10
504.872336409
 20
684.133688608
 30
0.0
  0
VERTEX
  5
5F0
  8
0
  6
CONTINUOUS
 62
     7
 10
504.3683195328
 20
681.3164899739
 30
0.0
  0
VERTEX
  5
5F1
  8
0
  6
CONTINUOUS
 62
     7
 10
504.2693907236
 20
679.5940796526
 30
0.0
  0
SEQEND
  5
7C1
  8
0
  6
CONTINUOUS
 62
     7
  0
ARC
  5
238
  8
0
  6
CONTINUOUS
 62
     7
 10
463.328617935
 20
682.2915195741
 30
0.0
 40
36.38102474683633
 50
355.7479515775
 51
11.2205457598
  0
ARC
  5
239
  8
0
  6
CONTINUOUS
 62
     7
 10
576.3424158354
 20
681.7987490797
 30
0.0
 40
44.42886070066294
 50
170.1871769317
 51
182.8443257311
  0
POLYLINE
  5
23A
  8
0
  6
CONTINUOUS
 62
     7
 66
     1
 10
0.0
 20
0.0
 30
0.0
  0
VERTEX
  5
5F2
  8
0
  6
CONTINUOUS
 62
     7
 10
504.2693907236
 20
679.5940796526
 30
0.0
  0
VERTEX
  5
5F3
  8
0
  6
CONTINUOUS
 62
     7
 10
504.2929205885
 20
678.6304662617
 30
0.0
  0
VERTEX
  5
5F4
  8
0
  6
CONTINUOUS
 62
     7
 10
504.4161652987
 20
677.7206013592
 30
0.0
  0
VERTEX
  5
5F5
  8
0
  6
CONTINUOUS
 62
     7
 10
504.6473437761
 20
676.9579748305
 30
0.0
  0
VERTEX
  5
5F6
  8
0
  6
CONTINUOUS
 62
     7
 10
505.0006680032
 20
676.4109383019
 30
0.0
  0
VERTEX
  5
5F7
  8
0
  6
CONTINUOUS
 62
     7
 10
505.4932948043
 20
676.1211256178
 30
0.0
  0
VERTEX
  5
5F8
  8
0
  6
CONTINUOUS
 62
     7
 10
506.1500131925
 20
676.1276076229
 30
0.0
  0
VERTEX
  5
5F9
  8
0
  6
CONTINUOUS
 62
     7
 10
506.9881858145
 20
676.5056500824
 30
0.0
  0
VERTEX
  5
5FA
  8
0
  6
CONTINUOUS
 62
     7
 10
507.6336119165
 20
677.0406166704
 30
0.0
  0
SEQEND
  5
7C0
  8
0
  6
CONTINUOUS
 62
     7
  0
POLYLINE
  5
23B
  8
0
  6
CONTINUOUS
 62
     7
 66
     1
 10
0.0
 20
0.0
 30
0.0
  0
VERTEX
  5
5FB
  8
0
  6
CONTINUOUS
 62
     7
 10
523.9441826781
 20
677.0406166704
 30
0.0
  0
VERTEX
  5
5FC
  8
0
  6
CONTINUOUS
 62
     7
 10
524.8704481711
 20
676.340604821
 30
0.0
  0
VERTEX
  5
5FD
  8
0
  6
CONTINUOUS
 62
     7
 10
525.7998671224
 20
676.0839025172
 30
0.0
  0
VERTEX
  5
5FE
  8
0
  6
CONTINUOUS
 62
     7
 10
526.4244520878
 20
676.2806127461
 30
0.0
  0
VERTEX
  5
5FF
  8
0
  6
CONTINUOUS
 62
     7
 10
526.8979793256
 20
676.8865833672
 30
0.0
  0
VERTEX
  5
600
  8
0
  6
CONTINUOUS
 62
     7
 10
527.1635357132
 20
677.7298996838
 30
0.0
  0
VERTEX
  5
601
  8
0
  6
CONTINUOUS
 62
     7
 10
527.2884484222
 20
678.6789695414
 30
0.0
  0
VERTEX
  5
602
  8
0
  6
CONTINUOUS
 62
     7
 10
527.308403871
 20
679.5940796526
 30
0.0
  0
SEQEND
  5
7BF
  8
0
  6
CONTINUOUS
 62
     7
  0
POLYLINE
  5
23C
  8
0
  6
CONTINUOUS
 62
     7
 66
     1
 10
0.0
 20
0.0
 30
0.0
  0
VERTEX
  5
603
  8
0
  6
CONTINUOUS
 62
     7
 10
507.6336119165
 20
677.0406166704
 30
0.0
  0
VERTEX
  5
604
  8
0
  6
CONTINUOUS
 62
     7
 10
509.7348763449
 20
678.4267971905
 30
0.0
  0
VERTEX
  5
605
  8
0
  6
CONTINUOUS
 62
     7
 10
512.3769909916
 20
679.1231731566
 30
0.0
  0
VERTEX
  5
606
  8
0
  6
CONTINUOUS
 62
     7
 10
515.5641110833
 20
679.3611148985
 30
0.0
  0
VERTEX
  5
607
  8
0
  6
CONTINUOUS
 62
     7
 10
519.116949181
 20
679.1358242424
 30
0.0
  0
VERTEX
  5
608
  8
0
  6
CONTINUOUS
 62
     7
 10
520.7867248756
 20
678.7875394018
 30
0.0
  0
VERTEX
  5
609
  8
0
  6
CONTINUOUS
 62
     7
 10
522.2957384614
 20
678.2219360264
 30
0.0
  0
VERTEX
  5
60A
  8
0
  6
CONTINUOUS
 62
     7
 10
523.9441826781
 20
677.0406166704
 30
0.0
  0
SEQEND
  5
7BE
  8
0
  6
CONTINUOUS
 62
     7
  0
LINE
  5
23D
  8
0
  6
CONTINUOUS
 62
     7
 10
497.2805468207
 20
675.9299437197
 30
0.0
 11
497.7029109215
 21
675.9299437197
 31
0.0
  0
LINE
  5
23E
  8
0
  6
CONTINUOUS
 62
     7
 10
497.6862775003
 20
692.1968857439
 30
0.0
 11
497.2805468207
 21
675.9299437197
 31
0.0
  0
LINE
  5
23F
  8
0
  6
CONTINUOUS
 62
     7
 10
499.0142354583
 20
689.3707613142
 30
0.0
 11
497.6862775003
 21
692.1968857439
 31
0.0
  0
POLYLINE
  5
240
  8
0
  6
CONTINUOUS
 62
     7
 66
     1
 10
0.0
 20
0.0
 30
0.0
  0
VERTEX
  5
60B
  8
0
  6
CONTINUOUS
 62
     7
 10
499.091561309
 20
677.0406166704
 30
0.0
  0
VERTEX
  5
60C
  8
0
  6
CONTINUOUS
 62
     7
 10
499.1177053963
 20
676.6748229655
 30
0.0
  0
VERTEX
  5
60D
  8
0
  6
CONTINUOUS
 62
     7
 10
499.1511938935
 20
676.3895551356
 30
0.0
  0
VERTEX
  5
60E
  8
0
  6
CONTINUOUS
 62
     7
 10
499.1909092133
 20
676.1943648251
 30
0.0
  0
VERTEX
  5
60F
  8
0
  6
CONTINUOUS
 62
     7
 10
499.2355251526
 20
676.0957489403
 30
0.0
  0
VERTEX
  5
610
  8
0
  6
CONTINUOUS
 62
     7
 10
499.2835460072
 20
676.0970304402
 30
0.0
  0
VERTEX
  5
611
  8
0
  6
CONTINUOUS
 62
     7
 10
499.3333699023
 20
676.1981646212
 30
0.0
  0
VERTEX
  5
612
  8
0
  6
CONTINUOUS
 62
     7
 10
499.3833297705
 20
676.3957540186
 30
0.0
  0
VERTEX
  5
613
  8
0
  6
CONTINUOUS
 62
     7
 10
499.4317566817
 20
676.6832123192
 30
0.0
  0
VERTEX
  5
614
  8
0
  6
CONTINUOUS
 62
     7
 10
499.4770319974
 20
677.0509133728
 30
0.0
  0
VERTEX
  5
615
  8
0
  6
CONTINUOUS
 62
     7
 10
499.5176395243
 20
677.4865786227
 30
0.0
  0
VERTEX
  5
616
  8
0
  6
CONTINUOUS
 62
     7
 10
499.5522232567
 20
677.975634733
 30
0.0
  0
VERTEX
  5
617
  8
0
  6
CONTINUOUS
 62
     7
 10
499.5796283548
 20
678.5017351302
 30
0.0
  0
VERTEX
  5
618
  8
0
  6
CONTINUOUS
 62
     7
 10
499.5989383971
 20
679.0472964438
 30
0.0
  0
VERTEX
  5
619
  8
0
  6
CONTINUOUS
 62
     7
 10
499.609505183
 20
679.5940796526
 30
0.0
  0
SEQEND
  5
7BD
  8
0
  6
CONTINUOUS
 62
     7
  0
POLYLINE
  5
241
  8
0
  6
CONTINUOUS
 62
     7
 66
     1
 10
0.0
 20
0.0
 30
0.0
  0
VERTEX
  5
61A
  8
0
  6
CONTINUOUS
 62
     7
 10
497.7029109215
 20
675.9299437197
 30
0.0
  0
VERTEX
  5
61B
  8
0
  6
CONTINUOUS
 62
     7
 10
497.8389119571
 20
677.2988537939
 30
0.0
  0
VERTEX
  5
61C
  8
0
  6
CONTINUOUS
 62
     7
 10
497.9886872535
 20
678.4429053458
 30
0.0
  0
VERTEX
  5
61D
  8
0
  6
CONTINUOUS
 62
     7
 10
498.1474721645
 20
679.3257097395
 30
0.0
  0
VERTEX
  5
61E
  8
0
  6
CONTINUOUS
 62
     7
 10
498.3102151965
 20
679.9192080887
 30
0.0
  0
VERTEX
  5
61F
  8
0
  6
CONTINUOUS
 62
     7
 10
498.4717400586
 20
680.2044908198
 30
0.0
  0
VERTEX
  5
620
  8
0
  6
CONTINUOUS
 62
     7
 10
498.6269095754
 20
680.1725129278
 30
0.0
  0
VERTEX
  5
621
  8
0
  6
CONTINUOUS
 62
     7
 10
498.7707877373
 20
679.8242578896
 30
0.0
  0
VERTEX
  5
622
  8
0
  6
CONTINUOUS
 62
     7
 10
498.8987980252
 20
679.1708270701
 30
0.0
  0
VERTEX
  5
623
  8
0
  6
CONTINUOUS
 62
     7
 10
499.0068686967
 20
678.2330075892
 30
0.0
  0
VERTEX
  5
624
  8
0
  6
CONTINUOUS
 62
     7
 10
499.091561309
 20
677.0406166704
 30
0.0
  0
SEQEND
  5
7BC
  8
0
  6
CONTINUOUS
 62
     7
  0
POLYLINE
  5
242
  8
0
  6
CONTINUOUS
 62
     7
 66
     1
 10
0.0
 20
0.0
 30
0.0
  0
VERTEX
  5
625
  8
0
  6
CONTINUOUS
 62
     7
 10
531.9682894116
 20
679.5940796526
 30
0.0
  0
VERTEX
  5
626
  8
0
  6
CONTINUOUS
 62
     7
 10
531.9788561975
 20
679.0472964438
 30
0.0
  0
VERTEX
  5
627
  8
0
  6
CONTINUOUS
 62
     7
 10
531.9981662398
 20
678.5017351302
 30
0.0
  0
VERTEX
  5
628
  8
0
  6
CONTINUOUS
 62
     7
 10
532.0255713379
 20
677.975634733
 30
0.0
  0
VERTEX
  5
629
  8
0
  6
CONTINUOUS
 62
     7
 10
532.0601550703
 20
677.4865786227
 30
0.0
  0
VERTEX
  5
62A
  8
0
  6
CONTINUOUS
 62
     7
 10
532.1007625972
 20
677.0509133728
 30
0.0
  0
VERTEX
  5
62B
  8
0
  6
CONTINUOUS
 62
     7
 10
532.1460379129
 20
676.6832123192
 30
0.0
  0
VERTEX
  5
62C
  8
0
  6
CONTINUOUS
 62
     7
 10
532.1944648241
 20
676.3957540186
 30
0.0
  0
VERTEX
  5
62D
  8
0
  6
CONTINUOUS
 62
     7
 10
532.2444246923
 20
676.1981646212
 30
0.0
  0
VERTEX
  5
62E
  8
0
  6
CONTINUOUS
 62
     7
 10
532.2942485874
 20
676.0970304402
 30
0.0
  0
VERTEX
  5
62F
  8
0
  6
CONTINUOUS
 62
     7
 10
532.342269442
 20
676.0957489403
 30
0.0
  0
VERTEX
  5
630
  8
0
  6
CONTINUOUS
 62
     7
 10
532.3868853813
 20
676.1943648251
 30
0.0
  0
VERTEX
  5
631
  8
0
  6
CONTINUOUS
 62
     7
 10
532.4266007011
 20
676.3895551356
 30
0.0
  0
VERTEX
  5
632
  8
0
  6
CONTINUOUS
 62
     7
 10
532.4600891983
 20
676.6748229655
 30
0.0
  0
VERTEX
  5
633
  8
0
  6
CONTINUOUS
 62
     7
 10
532.4862332856
 20
677.0406166704
 30
0.0
  0
SEQEND
  5
7BB
  8
0
  6
CONTINUOUS
 62
     7
  0
LINE
  5
243
  8
0
  6
CONTINUOUS
 62
     7
 10
533.8915170943
 20
692.1968857439
 30
0.0
 11
532.5635591363
 21
689.3707613142
 31
0.0
  0
LINE
  5
244
  8
0
  6
CONTINUOUS
 62
     7
 10
533.8915170943
 20
692.1968857439
 30
0.0
 11
534.2972477739
 21
675.9299437197
 31
0.0
  0
LINE
  5
245
  8
0
  6
CONTINUOUS
 62
     7
 10
533.8748836731
 20
675.9299437197
 30
0.0
 11
534.2972477739
 21
675.9299437197
 31
0.0
  0
POLYLINE
  5
246
  8
0
  6
CONTINUOUS
 62
     7
 66
     1
 10
0.0
 20
0.0
 30
0.0
  0
VERTEX
  5
634
  8
0
  6
CONTINUOUS
 62
     7
 10
532.4862332856
 20
677.0406166704
 30
0.0
  0
VERTEX
  5
635
  8
0
  6
CONTINUOUS
 62
     7
 10
532.5709258979
 20
678.2330075892
 30
0.0
  0
VERTEX
  5
636
  8
0
  6
CONTINUOUS
 62
     7
 10
532.6789965694
 20
679.1708270701
 30
0.0
  0
VERTEX
  5
637
  8
0
  6
CONTINUOUS
 62
     7
 10
532.8070068573
 20
679.8242578896
 30
0.0
  0
VERTEX
  5
638
  8
0
  6
CONTINUOUS
 62
     7
 10
532.9508850192
 20
680.1725129278
 30
0.0
  0
VERTEX
  5
639
  8
0
  6
CONTINUOUS
 62
     7
 10
533.106054536
 20
680.2044908198
 30
0.0
  0
VERTEX
  5
63A
  8
0
  6
CONTINUOUS
 62
     7
 10
533.2675793981
 20
679.9192080887
 30
0.0
  0
VERTEX
  5
63B
  8
0
  6
CONTINUOUS
 62
     7
 10
533.43032243
 20
679.3257097395
 30
0.0
  0
VERTEX
  5
63C
  8
0
  6
CONTINUOUS
 62
     7
 10
533.5891073411
 20
678.4429053458
 30
0.0
  0
VERTEX
  5
63D
  8
0
  6
CONTINUOUS
 62
     7
 10
533.7388826375
 20
677.2988537939
 30
0.0
  0
VERTEX
  5
63E
  8
0
  6
CONTINUOUS
 62
     7
 10
533.8748836731
 20
675.9299437197
 30
0.0
  0
SEQEND
  5
7BA
  8
0
  6
CONTINUOUS
 62
     7
  0
ARC
  5
247
  8
0
  6
CONTINUOUS
 62
     7
 10
504.2078564506
 20
452.9739480824
 30
0.0
 40
88.20199795207155
 50
50.9896040459
 51
61.067901311
  0
ARC
  5
248
  8
0
  6
CONTINUOUS
 62
     7
 10
527.369938144
 20
452.9739480824
 30
0.0
 40
88.20199795207158
 50
118.932098689
 51
129.0103959541
  0
POLYLINE
  5
249
  8
0
  6
CONTINUOUS
 62
     7
 66
     1
 10
0.0
 20
0.0
 30
0.0
  0
VERTEX
  5
63F
  8
0
  6
CONTINUOUS
 62
     7
 10
441.1657074308
 20
468.3812341334
 30
0.0
  0
VERTEX
  5
640
  8
0
  6
CONTINUOUS
 62
     7
 10
441.5221357559
 20
470.6624808403
 30
0.0
  0
VERTEX
  5
641
  8
0
  6
CONTINUOUS
 62
     7
 10
442.0589500879
 20
473.8077546151
 30
0.0
  0
SEQEND
  5
7B9
  8
0
  6
CONTINUOUS
 62
     7
  0
POLYLINE
  5
24A
  8
0
  6
CONTINUOUS
 62
     7
 66
     1
 10
0.0
 20
0.0
 30
0.0
  0
VERTEX
  5
642
  8
0
  6
CONTINUOUS
 62
     7
 10
590.4120871638
 20
468.3812341334
 30
0.0
  0
VERTEX
  5
643
  8
0
  6
CONTINUOUS
 62
     7
 10
590.0556588387
 20
470.6624808403
 30
0.0
  0
VERTEX
  5
644
  8
0
  6
CONTINUOUS
 62
     7
 10
589.5188445067
 20
473.8077546151
 30
0.0
  0
SEQEND
  5
7B8
  8
0
  6
CONTINUOUS
 62
     7
  0
LINE
  5
24B
  8
0
  6
CONTINUOUS
 62
     7
 10
521.4841243652
 20
675.9299437197
 30
0.0
 11
533.8748836731
 21
675.9299437197
 31
0.0
  0
ARC
  5
24C
  8
0
  6
CONTINUOUS
 62
     7
 10
515.7888972973
 20
649.4051420643
 30
0.0
 40
27.12936435364374
 50
77.8927636466
 51
102.1072363534
  0
LINE
  5
24D
  8
0
  6
CONTINUOUS
 62
     7
 10
497.7029109215
 20
675.9299437197
 30
0.0
 11
510.0936534656
 21
675.9299437197
 31
0.0
  0
LINE
  5
24E
  8
0
  6
CONTINUOUS
 62
     7
 10
432.4538850998
 20
574.9299476536
 30
0.0
 11
426.3128259992
 21
574.9299476536
 31
0.0
  0
LINE
  5
24F
  8
0
  6
CONTINUOUS
 62
     7
 10
599.1239094948
 20
574.9299476536
 30
0.0
 11
605.2649685954
 21
574.9299476536
 31
0.0
  0
LINE
  5
250
  8
0
  6
CONTINUOUS
 62
     7
 10
602.0449990248
 20
598.9299366864
 30
0.0
 11
607.9746628021
 21
598.9299366864
 31
0.0
  0
ARC
  5
251
  8
0
  6
CONTINUOUS
 62
     7
 10
827.861607021
 20
1020.8868812225
 30
0.0
 40
475.5625397792529
 50
241.330432541
 51
241.6330243221
  0
LINE
  5
252
  8
0
  6
CONTINUOUS
 62
     7
 10
423.6031317925
 20
598.9299366864
 30
0.0
 11
429.5327955698
 21
598.9299366864
 31
0.0
  0
ARC
  5
253
  8
0
  6
CONTINUOUS
 62
     7
 10
203.7161875736
 20
1020.8868812225
 30
0.0
 40
475.5625397792529
 50
298.3669756779
 51
298.669567459
  0
LINE
  5
254
  8
0
  6
CONTINUOUS
 62
     7
 10
423.2888961052
 20
586.92994217
 30
0.0
 11
429.2274558758
 21
586.92994217
 31
0.0
  0
LINE
  5
255
  8
0
  6
CONTINUOUS
 62
     7
 10
602.3503387188
 20
586.92994217
 30
0.0
 11
608.2888984894
 21
586.92994217
 31
0.0
  0
POLYLINE
  5
256
  8
0
  6
CONTINUOUS
 62
     7
 66
     1
 10
0.0
 20
0.0
 30
0.0
  0
VERTEX
  5
645
  8
0
  6
CONTINUOUS
 62
     7
 10
490.4352104133
 20
732.2222391756
 30
0.0
  0
VERTEX
  5
646
  8
0
  6
CONTINUOUS
 62
     7
 10
497.907706893
 20
733.9921096953
 30
0.0
  0
VERTEX
  5
647
  8
0
  6
CONTINUOUS
 62
     7
 10
505.4661840042
 20
735.3273133429
 30
0.0
  0
VERTEX
  5
648
  8
0
  6
CONTINUOUS
 62
     7
 10
513.3011388899
 20
736.0127369555
 30
0.0
  0
VERTEX
  5
649
  8
0
  6
CONTINUOUS
 62
     7
 10
521.161804798
 20
735.8622650297
 30
0.0
  0
VERTEX
  5
64A
  8
0
  6
CONTINUOUS
 62
     7
 10
531.1861675074
 20
734.4884673746
 30
0.0
  0
VERTEX
  5
64B
  8
0
  6
CONTINUOUS
 62
     7
 10
541.1425841813
 20
732.2222391756
 30
0.0
  0
SEQEND
  5
7B7
  8
0
  6
CONTINUOUS
 62
     7
  0
ARC
  5
257
  8
0
  6
CONTINUOUS
 62
     7
 10
572.7391228381
 20
771.3956771655
 30
0.0
 40
47.44007490566874
 50
228.129754426
 51
244.6322395524
  0
LINE
  5
258
  8
0
  6
CONTINUOUS
 62
     7
 10
552.4145247256
 20
728.5299400481
 30
0.0
 11
479.163269869
 21
728.5299400481
 31
0.0
  0
ARC
  5
259
  8
0
  6
CONTINUOUS
 62
     7
 10
458.3106114845
 20
772.1899001567
 30
0.0
 40
48.38414490706382
 50
295.5298477216
 51
311.7081583001
  0
LINE
  5
25A
  8
0
  6
CONTINUOUS
 62
     7
 10
552.4145247256
 20
728.5299400481
 30
0.0
 11
552.4508425807
 21
725.1299420985
 31
0.0
  0
LINE
  5
25B
  8
0
  6
CONTINUOUS
 62
     7
 10
479.1269520139
 20
725.1299420985
 30
0.0
 11
479.163269869
 21
728.5299400481
 31
0.0
  0
LINE
  5
25C
  8
0
  6
CONTINUOUS
 62
     7
 10
552.4508425807
 20
725.1299420985
 30
0.0
 11
479.1269520139
 21
725.1299420985
 31
0.0
  0
LINE
  5
25D
  8
0
  6
CONTINUOUS
 62
     7
 10
495.4548546886
 20
692.8078631552
 30
0.0
 11
499.2004198795
 21
693.4683124216
 31
0.0
  0
ARC
  5
25E
  8
0
  6
CONTINUOUS
 62
     7
 10
515.7888972973
 20
830.6574614961
 30
0.0
 40
138.1884228392852
 50
263.1054472635
 51
276.8945527365
  0
LINE
  5
25F
  8
0
  6
CONTINUOUS
 62
     7
 10
532.3773747151
 20
693.4683124216
 30
0.0
 11
536.122939906
 21
692.8078631552
 31
0.0
  0
ARC
  5
260
  8
0
  6
CONTINUOUS
 62
     7
 10
529.1497196758
 20
748.426520427
 30
0.0
 40
56.05408849584869
 50
277.1462022527
 51
285.5719368401
  0
LINE
  5
261
  8
0
  6
CONTINUOUS
 62
     7
 10
555.5680276667
 20
694.4299439581
 30
0.0
 11
544.1973296767
 21
694.4299439581
 31
0.0
  0
LINE
  5
262
  8
0
  6
CONTINUOUS
 62
     7
 10
555.5680276667
 20
694.4299439581
 30
0.0
 11
542.0750951236
 21
693.4394935759
 31
0.0
  0
ARC
  5
263
  8
0
  6
CONTINUOUS
 62
     7
 10
524.9292508296
 20
778.78970636
 30
0.0
 40
87.05537777100615
 50
275.9090139369
 51
281.3588528256
  0
ARC
  5
264
  8
0
  6
CONTINUOUS
 62
     7
 10
506.648543765
 20
778.78970636
 30
0.0
 40
87.05537777100616
 50
258.6411471744
 51
264.0909860631
  0
LINE
  5
265
  8
0
  6
CONTINUOUS
 62
     7
 10
489.502699471
 20
693.4394935759
 30
0.0
 11
476.0097669279
 21
694.4299439581
 31
0.0
  0
LINE
  5
266
  8
0
  6
CONTINUOUS
 62
     7
 10
487.3804649179
 20
694.4299439581
 30
0.0
 11
476.0097669279
 21
694.4299439581
 31
0.0
  0
ARC
  5
267
  8
0
  6
CONTINUOUS
 62
     7
 10
502.4280749188
 20
748.426520427
 30
0.0
 40
56.05408849584867
 50
254.4280631599
 51
262.8537977473
  0
ARC
  5
268
  8
0
  6
CONTINUOUS
 62
     7
 10
573.2767142117
 20
610.2129538357
 30
0.0
 40
7.819855899437265
 50
28.3805998074
 51
66.4902109326
  0
ARC
  5
269
  8
0
  6
CONTINUOUS
 62
     7
 10
458.6982691478
 20
609.7804782341
 30
0.0
 40
8.37706717031201
 50
114.8210675856
 51
150.3081216744
  0
LINE
  5
26A
  8
0
  6
CONTINUOUS
 62
     7
 10
456.7888969397
 20
675.9299437197
 30
0.0
 11
465.4313282882
 21
675.9299437197
 31
0.0
  0
LINE
  5
26B
  8
0
  6
CONTINUOUS
 62
     7
 10
465.4313282882
 20
675.9299437197
 30
0.0
 11
487.5554492538
 21
675.9299437197
 31
0.0
  0
POLYLINE
  5
26C
  8
0
  6
CONTINUOUS
 62
     7
 66
     1
 10
0.0
 20
0.0
 30
0.0
  0
VERTEX
  5
64C
  8
0
  6
CONTINUOUS
 62
     7
 10
456.6927956258
 20
670.7297215851
 30
0.0
  0
VERTEX
  5
64D
  8
0
  6
CONTINUOUS
 62
     7
 10
456.6742213284
 20
670.7386920842
 30
0.0
  0
VERTEX
  5
64E
  8
0
  6
CONTINUOUS
 62
     7
 10
456.9812895571
 20
670.5882201584
 30
0.0
  0
VERTEX
  5
64F
  8
0
  6
CONTINUOUS
 62
     7
 10
457.6105432426
 20
670.2716300877
 30
0.0
  0
VERTEX
  5
650
  8
0
  6
CONTINUOUS
 62
     7
 10
458.5648657595
 20
669.7593877705
 30
0.0
  0
VERTEX
  5
651
  8
0
  6
CONTINUOUS
 62
     7
 10
459.7594695007
 20
669.0420458706
 30
0.0
  0
VERTEX
  5
652
  8
0
  6
CONTINUOUS
 62
     7
 10
461.1572170471
 20
668.0174569281
 30
0.0
  0
VERTEX
  5
653
  8
0
  6
CONTINUOUS
 62
     7
 10
462.5682154512
 20
666.5253440531
 30
0.0
  0
VERTEX
  5
654
  8
0
  6
CONTINUOUS
 62
     7
 10
463.4171346044
 20
664.8393819722
 30
0.0
  0
VERTEX
  5
655
  8
0
  6
CONTINUOUS
 62
     7
 10
463.751073352
 20
662.8805498274
 30
0.0
  0
VERTEX
  5
656
  8
0
  6
CONTINUOUS
 62
     7
 10
463.5880062198
 20
660.0165764483
 30
0.0
  0
VERTEX
  5
657
  8
0
  6
CONTINUOUS
 62
     7
 10
463.0816684877
 20
657.1042040976
 30
0.0
  0
VERTEX
  5
658
  8
0
  6
CONTINUOUS
 62
     7
 10
462.2583160018
 20
654.0851096304
 30
0.0
  0
VERTEX
  5
659
  8
0
  6
CONTINUOUS
 62
     7
 10
461.1891912138
 20
651.1411766203
 30
0.0
  0
VERTEX
  5
65A
  8
0
  6
CONTINUOUS
 62
     7
 10
458.446632496
 20
645.3636536988
 30
0.0
  0
VERTEX
  5
65B
  8
0
  6
CONTINUOUS
 62
     7
 10
454.5120106851
 20
639.2831454666
 30
0.0
  0
VERTEX
  5
65C
  8
0
  6
CONTINUOUS
 62
     7
 10
452.1919632172
 20
636.4376644286
 30
0.0
  0
VERTEX
  5
65D
  8
0
  6
CONTINUOUS
 62
     7
 10
449.8837957
 20
633.5844347866
 30
0.0
  0
VERTEX
  5
65E
  8
0
  6
CONTINUOUS
 62
     7
 10
447.3181212162
 20
629.8779795559
 30
0.0
  0
VERTEX
  5
65F
  8
0
  6
CONTINUOUS
 62
     7
 10
445.0582856154
 20
625.9799549969
 30
0.0
  0
VERTEX
  5
660
  8
0
  6
CONTINUOUS
 62
     7
 10
443.088113687
 20
621.7805544527
 30
0.0
  0
VERTEX
  5
661
  8
0
  6
CONTINUOUS
 62
     7
 10
441.5063703274
 20
617.4181352051
 30
0.0
  0
VERTEX
  5
662
  8
0
  6
CONTINUOUS
 62
     7
 10
440.6048947786
 20
613.9299372824
 30
0.0
  0
SEQEND
  5
7B6
  8
0
  6
CONTINUOUS
 62
     7
  0
LINE
  5
26D
  8
0
  6
CONTINUOUS
 62
     7
 10
544.0223453408
 20
675.9299437197
 30
0.0
 11
566.1464663064
 21
675.9299437197
 31
0.0
  0
LINE
  5
26E
  8
0
  6
CONTINUOUS
 62
     7
 10
566.1464663064
 20
675.9299437197
 30
0.0
 11
574.7888976549
 21
675.9299437197
 31
0.0
  0
POLYLINE
  5
26F
  8
0
  6
CONTINUOUS
 62
     7
 66
     1
 10
0.0
 20
0.0
 30
0.0
  0
VERTEX
  5
663
  8
0
  6
CONTINUOUS
 62
     7
 10
574.8849989688
 20
670.7297215851
 30
0.0
  0
VERTEX
  5
664
  8
0
  6
CONTINUOUS
 62
     7
 10
574.9035732662
 20
670.7386920842
 30
0.0
  0
VERTEX
  5
665
  8
0
  6
CONTINUOUS
 62
     7
 10
574.5965050375
 20
670.5882201584
 30
0.0
  0
VERTEX
  5
666
  8
0
  6
CONTINUOUS
 62
     7
 10
573.967251352
 20
670.2716300877
 30
0.0
  0
VERTEX
  5
667
  8
0
  6
CONTINUOUS
 62
     7
 10
573.0129288351
 20
669.7593877705
 30
0.0
  0
VERTEX
  5
668
  8
0
  6
CONTINUOUS
 62
     7
 10
571.8183250939
 20
669.0420458706
 30
0.0
  0
VERTEX
  5
669
  8
0
  6
CONTINUOUS
 62
     7
 10
570.4205775475
 20
668.0174569281
 30
0.0
  0
VERTEX
  5
66A
  8
0
  6
CONTINUOUS
 62
     7
 10
569.0095791434
 20
666.5253440531
 30
0.0
  0
VERTEX
  5
66B
  8
0
  6
CONTINUOUS
 62
     7
 10
568.1606599902
 20
664.8393819722
 30
0.0
  0
VERTEX
  5
66C
  8
0
  6
CONTINUOUS
 62
     7
 10
567.8267212426
 20
662.8805498274
 30
0.0
  0
VERTEX
  5
66D
  8
0
  6
CONTINUOUS
 62
     7
 10
567.9897883748
 20
660.0165764483
 30
0.0
  0
VERTEX
  5
66E
  8
0
  6
CONTINUOUS
 62
     7
 10
568.4961261069
 20
657.1042040976
 30
0.0
  0
VERTEX
  5
66F
  8
0
  6
CONTINUOUS
 62
     7
 10
569.3194785928
 20
654.0851096304
 30
0.0
  0
VERTEX
  5
670
  8
0
  6
CONTINUOUS
 62
     7
 10
570.3886033808
 20
651.1411766203
 30
0.0
  0
VERTEX
  5
671
  8
0
  6
CONTINUOUS
 62
     7
 10
573.1311620986
 20
645.3636536988
 30
0.0
  0
VERTEX
  5
672
  8
0
  6
CONTINUOUS
 62
     7
 10
577.0657839095
 20
639.2831454666
 30
0.0
  0
VERTEX
  5
673
  8
0
  6
CONTINUOUS
 62
     7
 10
579.3858313774
 20
636.4376644286
 30
0.0
  0
VERTEX
  5
674
  8
0
  6
CONTINUOUS
 62
     7
 10
581.6939988946
 20
633.5844347866
 30
0.0
  0
VERTEX
  5
675
  8
0
  6
CONTINUOUS
 62
     7
 10
584.2596733784
 20
629.8779795559
 30
0.0
  0
VERTEX
  5
676
  8
0
  6
CONTINUOUS
 62
     7
 10
586.5195089792
 20
625.9799549969
 30
0.0
  0
VERTEX
  5
677
  8
0
  6
CONTINUOUS
 62
     7
 10
588.4896809076
 20
621.7805544527
 30
0.0
  0
VERTEX
  5
678
  8
0
  6
CONTINUOUS
 62
     7
 10
590.0714242672
 20
617.4181352051
 30
0.0
  0
VERTEX
  5
679
  8
0
  6
CONTINUOUS
 62
     7
 10
590.972899816
 20
613.9299372824
 30
0.0
  0
SEQEND
  5
7B5
  8
0
  6
CONTINUOUS
 62
     7
  0
ARC
  5
270
  8
0
  6
CONTINUOUS
 62
     7
 10
594.9659232583
 20
544.7891005858
 30
0.0
 40
0.5420084104800541
 50
160.5095915708
 51
186.2660311173
  0
LINE
  5
271
  8
0
  6
CONTINUOUS
 62
     7
 10
594.4271528935
 20
540.4099399837
 30
0.0
 11
594.4271528935
 21
544.729943076
 31
0.0
  0
ARC
  5
272
  8
0
  6
CONTINUOUS
 62
     7
 10
594.9656013585
 20
540.3507451594
 30
0.0
 40
0.5416925112219915
 50
173.7263294826
 51
199.4980478293
  0
ARC
  5
273
  8
0
  6
CONTINUOUS
 62
     7
 10
594.9208105619
 20
540.0498180125
 30
0.0
 40
0.6336320054713439
 50
357.4644934842
 51
10.9282665282
  0
LINE
  5
274
  8
0
  6
CONTINUOUS
 62
     7
 10
595.5739239072
 20
538.3987228068
 30
0.0
 11
595.5538222407
 21
540.0217870863
 31
0.0
  0
ARC
  5
275
  8
0
  6
CONTINUOUS
 62
     7
 10
594.9659232583
 20
538.2178822144
 30
0.0
 40
0.5420084104800541
 50
160.5095915708
 51
186.2660311173
  0
LINE
  5
276
  8
0
  6
CONTINUOUS
 62
     7
 10
594.4271528935
 20
533.8387216123
 30
0.0
 11
594.4271528935
 21
538.1587247046
 31
0.0
  0
ARC
  5
277
  8
0
  6
CONTINUOUS
 62
     7
 10
594.9656013585
 20
533.779526788
 30
0.0
 40
0.5416925112219915
 50
173.7263294826
 51
199.4980478293
  0
ARC
  5
278
  8
0
  6
CONTINUOUS
 62
     7
 10
593.8687550601
 20
533.3720471965
 30
0.0
 40
0.9197999657003184
 50
353.434744273
 51
14.2670012923
  0
LINE
  5
279
  8
0
  6
CONTINUOUS
 62
     7
 10
594.2741552209
 20
522.2617859634
 30
0.0
 11
594.7825232362
 21
533.2668821009
 31
0.0
  0
ARC
  5
27A
  8
0
  6
CONTINUOUS
 62
     7
 10
595.0313437178
 20
522.1566227399
 30
0.0
 40
0.7644564888554164
 50
172.0929743009
 51
197.2488270839
  0
LINE
  5
27B
  8
0
  6
CONTINUOUS
 62
     7
 10
491.288897938
 20
781.1299363764
 30
0.0
 11
540.2888966565
 21
781.1299363764
 31
0.0
  0
LINE
  5
27C
  8
0
  6
CONTINUOUS
 62
     7
 10
541.1425841813
 20
732.2222391756
 30
0.0
 11
540.2888966565
 21
781.1299363764
 31
0.0
  0
LINE
  5
27D
  8
0
  6
CONTINUOUS
 62
     7
 10
490.4352104133
 20
732.2222391756
 30
0.0
 11
491.288897938
 21
781.1299363764
 31
0.0
  0
LINE
  5
27E
  8
0
  6
CONTINUOUS
 62
     7
 10
542.0750951236
 20
693.4394935759
 30
0.0
 11
542.3521058475
 21
675.9299437197
 31
0.0
  0
LINE
  5
27F
  8
0
  6
CONTINUOUS
 62
     7
 10
489.502699471
 20
693.4394935759
 30
0.0
 11
489.2256887471
 21
675.9299437197
 31
0.0
  0
LINE
  5
280
  8
0
  6
CONTINUOUS
 62
     7
 10
499.7361166244
 20
714.9299482497
 30
0.0
 11
531.8416779702
 21
714.9299482497
 31
0.0
  0
LINE
  5
281
  8
0
  6
CONTINUOUS
 62
     7
 10
531.8416779702
 20
714.9299482497
 30
0.0
 11
532.3773747151
 21
693.4683124216
 31
0.0
  0
LINE
  5
282
  8
0
  6
CONTINUOUS
 62
     7
 10
499.2004198795
 20
693.4683124216
 30
0.0
 11
499.7361166244
 21
714.9299482497
 31
0.0
  0
LINE
  5
283
  8
0
  6
CONTINUOUS
 62
     7
 10
495.4548546886
 20
692.8078631552
 30
0.0
 11
495.4548546886
 21
714.9299482497
 31
0.0
  0
LINE
  5
284
  8
0
  6
CONTINUOUS
 62
     7
 10
485.5665502911
 20
694.4299439581
 30
0.0
 11
485.5665502911
 21
714.9299482497
 31
0.0
  0
LINE
  5
285
  8
0
  6
CONTINUOUS
 62
     7
 10
485.5665502911
 20
714.9299482497
 30
0.0
 11
495.4548546886
 21
714.9299482497
 31
0.0
  0
LINE
  5
286
  8
0
  6
CONTINUOUS
 62
     7
 10
495.4548546886
 20
714.9299482497
 30
0.0
 11
499.7361166244
 21
714.9299482497
 31
0.0
  0
LINE
  5
287
  8
0
  6
CONTINUOUS
 62
     7
 10
536.122939906
 20
692.8078631552
 30
0.0
 11
536.122939906
 21
714.9299482497
 31
0.0
  0
LINE
  5
288
  8
0
  6
CONTINUOUS
 62
     7
 10
536.122939906
 20
714.9299482497
 30
0.0
 11
531.8416779702
 21
714.9299482497
 31
0.0
  0
LINE
  5
289
  8
0
  6
CONTINUOUS
 62
     7
 10
546.0112443035
 20
694.4299439581
 30
0.0
 11
546.0112443035
 21
714.9299482497
 31
0.0
  0
LINE
  5
28A
  8
0
  6
CONTINUOUS
 62
     7
 10
546.0112443035
 20
714.9299482497
 30
0.0
 11
536.122939906
 21
714.9299482497
 31
0.0
  0
LINE
  5
28B
  8
0
  6
CONTINUOUS
 62
     7
 10
595.7627961253
 20
522.2617859634
 30
0.0
 11
594.2741552209
 21
522.2617859634
 31
0.0
  0
ARC
  5
28C
  8
0
  6
CONTINUOUS
 62
     7
 10
596.5145304168
 20
522.1566163233
 30
0.0
 40
0.7590553985664412
 50
172.0358586631
 51
197.3749452519
  0
LINE
  5
28D
  8
0
  6
CONTINUOUS
 62
     7
 10
595.9449702715
 20
538.3987228068
 30
0.0
 11
596.9784701084
 21
538.3987228068
 31
0.0
  0
ARC
  5
28E
  8
0
  6
CONTINUOUS
 62
     7
 10
596.4303506416
 20
538.2787385438
 30
0.0
 40
0.5610981850357133
 50
357.122194488
 51
12.3473798553
  0
LINE
  5
28F
  8
0
  6
CONTINUOUS
 62
     7
 10
596.9907412147
 20
538.2505680116
 30
0.0
 11
597.2432190394
 21
522.2617859634
 31
0.0
  0
ARC
  5
290
  8
0
  6
CONTINUOUS
 62
     7
 10
593.1272774782
 20
522.156359286
 30
0.0
 40
4.117291551354382
 50
356.8476471568
 51
1.4672664941
  0
ARC
  5
291
  8
0
  6
CONTINUOUS
 62
     7
 10
597.7359694061
 20
522.0503596056
 30
0.0
 40
0.6691220654727189
 50
177.624012202
 51
190.3674163935
  0
LINE
  5
292
  8
0
  6
CONTINUOUS
 62
     7
 10
597.0674225902
 20
522.0780993493
 30
0.0
 11
597.0034444546
 21
525.1417855414
 31
0.0
  0
ARC
  5
293
  8
0
  6
CONTINUOUS
 62
     7
 10
596.4315383669
 20
525.1699875413
 30
0.0
 40
0.57260101814352
 50
357.1769006285
 51
12.0923241736
  0
LINE
  5
294
  8
0
  6
CONTINUOUS
 62
     7
 10
596.471525154
 20
525.2899403365
 30
0.0
 11
596.9914341187
 21
525.2899403365
 31
0.0
  0
ARC
  5
295
  8
0
  6
CONTINUOUS
 62
     7
 10
596.8055727974
 20
525.1688905964
 30
0.0
 40
0.3553039088827275
 50
160.0808671837
 51
184.3751715401
  0
LINE
  5
296
  8
0
  6
CONTINUOUS
 62
     7
 10
596.4513042783
 20
525.1417855414
 30
0.0
 11
596.3308060383
 21
522.0780993493
 31
0.0
  0
ARC
  5
297
  8
0
  6
CONTINUOUS
 62
     7
 10
596.0034115848
 20
522.0507618698
 30
0.0
 40
0.3285338124792023
 50
338.4232656759
 51
4.7731324085
  0
LINE
  5
298
  8
0
  6
CONTINUOUS
 62
     7
 10
595.7901099538
 20
521.9299445542
 30
0.0
 11
596.3089236831
 21
521.9299445542
 31
0.0
  0
LINE
  5
299
  8
0
  6
CONTINUOUS
 62
     7
 10
595.7627961253
 20
522.2617859634
 30
0.0
 11
596.2749713873
 21
533.2668821009
 31
0.0
  0
ARC
  5
29A
  8
0
  6
CONTINUOUS
 62
     7
 10
595.369232731
 20
533.3721513628
 30
0.0
 40
0.9118355833633265
 50
353.3705553636
 51
14.3875354305
  0
LINE
  5
29B
  8
0
  6
CONTINUOUS
 62
     7
 10
595.9449702715
 20
533.5987235101
 30
0.0
 11
596.2524706339
 21
533.5987235101
 31
0.0
  0
ARC
  5
29C
  8
0
  6
CONTINUOUS
 62
     7
 10
596.4518091965
 20
533.7795523992
 30
0.0
 40
0.5381308233265091
 50
173.6873814872
 51
199.6352730267
  0
LINE
  5
29D
  8
0
  6
CONTINUOUS
 62
     7
 10
595.9169411873
 20
533.8387216123
 30
0.0
 11
595.9169411873
 21
538.1587247046
 31
0.0
  0
ARC
  5
29E
  8
0
  6
CONTINUOUS
 62
     7
 10
596.4510544648
 20
538.2179820618
 30
0.0
 40
0.5373903865553153
 50
160.3465383906
 51
186.3308070955
  0
LINE
  5
29F
  8
0
  6
CONTINUOUS
 62
     7
 10
596.7795992111
 20
533.7745795639
 30
0.0
 11
596.8837434267
 21
530.0617838891
 31
0.0
  0
POLYLINE
  5
2A0
  8
0
  6
CONTINUOUS
 62
     7
 66
     1
 10
0.0
 20
0.0
 30
0.0
  0
VERTEX
  5
67A
  8
0
  6
CONTINUOUS
 62
     7
 10
596.7473530983
 20
533.7745795639
 30
0.0
  0
VERTEX
  5
67B
  8
0
  6
CONTINUOUS
 62
     7
 10
596.7500502085
 20
533.8356594237
 30
0.0
  0
VERTEX
  5
67C
  8
0
  6
CONTINUOUS
 62
     7
 10
596.7538574552
 20
533.882285157
 30
0.0
  0
VERTEX
  5
67D
  8
0
  6
CONTINUOUS
 62
     7
 10
596.758514068
 20
533.9126239212
 30
0.0
  0
VERTEX
  5
67E
  8
0
  6
CONTINUOUS
 62
     7
 10
596.763595364
 20
533.9227343591
 30
0.0
  0
VERTEX
  5
67F
  8
0
  6
CONTINUOUS
 62
     7
 10
596.7686543082
 20
533.9126239212
 30
0.0
  0
VERTEX
  5
680
  8
0
  6
CONTINUOUS
 62
     7
 10
596.7732513165
 20
533.882285157
 30
0.0
  0
VERTEX
  5
681
  8
0
  6
CONTINUOUS
 62
     7
 10
596.7769170021
 20
533.8360245021
 30
0.0
  0
VERTEX
  5
682
  8
0
  6
CONTINUOUS
 62
     7
 10
596.7795992111
 20
533.7745795639
 30
0.0
  0
SEQEND
  5
7B4
  8
0
  6
CONTINUOUS
 62
     7
  0
LINE
  5
2A1
  8
0
  6
CONTINUOUS
 62
     7
 10
596.6278979396
 20
530.0617838891
 30
0.0
 11
596.7473530983
 21
533.7745795639
 31
0.0
  0
ARC
  5
2A2
  8
0
  6
CONTINUOUS
 62
     7
 10
597.7572596588
 20
529.9564870172
 30
0.0
 40
1.134259813271154
 50
174.6733847521
 51
191.5211100319
  0
LINE
  5
2A3
  8
0
  6
CONTINUOUS
 62
     7
 10
596.6458538388
 20
529.7299424799
 30
0.0
 11
596.8694606637
 21
529.7299424799
 31
0.0
  0
ARC
  5
2A4
  8
0
  6
CONTINUOUS
 62
     7
 10
595.467803005
 20
529.956499206
 30
0.0
 40
1.419849337855933
 50
350.8184145099
 51
4.2525004147
  0
LINE
  5
2A5
  8
0
  6
CONTINUOUS
 62
     7
 10
595.8337033009
 20
533.2668821009
 30
0.0
 11
594.7825232362
 21
533.2668821009
 31
0.0
  0
LINE
  5
2A6
  8
0
  6
CONTINUOUS
 62
     7
 10
595.9169411873
 20
538.1587247046
 30
0.0
 11
594.4271528935
 21
538.1587247046
 31
0.0
  0
LINE
  5
2A7
  8
0
  6
CONTINUOUS
 62
     7
 10
595.9169411873
 20
533.8387216123
 30
0.0
 11
594.4271528935
 21
533.8387216123
 31
0.0
  0
LINE
  5
2A8
  8
0
  6
CONTINUOUS
 62
     7
 10
595.9169411873
 20
540.4099399837
 30
0.0
 11
594.4271528935
 21
540.4099399837
 31
0.0
  0
ARC
  5
2A9
  8
0
  6
CONTINUOUS
 62
     7
 10
596.4517717126
 20
540.3507663929
 30
0.0
 40
0.5380940481806133
 50
173.6864793307
 51
199.6361751832
  0
LINE
  5
2AA
  8
0
  6
CONTINUOUS
 62
     7
 10
595.9449702715
 20
540.1699418815
 30
0.0
 11
594.4549733614
 21
540.1699418815
 31
0.0
  0
LINE
  5
2AB
  8
0
  6
CONTINUOUS
 62
     7
 10
595.9449702715
 20
538.3987228068
 30
0.0
 11
594.4549733614
 21
538.3987228068
 31
0.0
  0
LINE
  5
2AC
  8
0
  6
CONTINUOUS
 62
     7
 10
595.9169411873
 20
544.729943076
 30
0.0
 11
594.4271528935
 21
544.729943076
 31
0.0
  0
LINE
  5
2AD
  8
0
  6
CONTINUOUS
 62
     7
 10
595.9169411873
 20
540.4099399837
 30
0.0
 11
595.9169411873
 21
544.729943076
 31
0.0
  0
LINE
  5
2AE
  8
0
  6
CONTINUOUS
 62
     7
 10
595.9449702715
 20
544.9699411782
 30
0.0
 11
594.4549733614
 21
544.9699411782
 31
0.0
  0
ARC
  5
2AF
  8
0
  6
CONTINUOUS
 62
     7
 10
596.4510544648
 20
544.7892004332
 30
0.0
 40
0.5373903865553153
 50
160.3465383906
 51
186.3308070955
  0
LINE
  5
2B0
  8
0
  6
CONTINUOUS
 62
     7
 10
595.9449702715
 20
533.5987235101
 30
0.0
 11
594.4549733614
 21
533.5987235101
 31
0.0
  0
LINE
  5
2B1
  8
0
  6
CONTINUOUS
 62
     7
 10
595.9449702715
 20
544.9699411782
 30
0.0
 11
597.1754262065
 21
544.9699411782
 31
0.0
  0
ARC
  5
2B2
  8
0
  6
CONTINUOUS
 62
     7
 10
596.2666718659
 20
544.8504827483
 30
0.0
 40
0.9165722928475252
 50
358.2058705498
 51
7.4887607066
  0
LINE
  5
2B3
  8
0
  6
CONTINUOUS
 62
     7
 10
597.1827948307
 20
544.821786383
 30
0.0
 11
597.2887718891
 21
529.6873177083
 31
0.0
  0
POLYLINE
  5
2B4
  8
0
  6
CONTINUOUS
 62
     7
 66
     1
 10
0.0
 20
0.0
 30
0.0
  0
VERTEX
  5
683
  8
0
  6
CONTINUOUS
 62
     7
 10
597.2887718891
 20
529.6873177083
 30
0.0
  0
VERTEX
  5
684
  8
0
  6
CONTINUOUS
 62
     7
 10
597.288809142
 20
529.6262452992
 30
0.0
  0
VERTEX
  5
685
  8
0
  6
CONTINUOUS
 62
     7
 10
597.2888538455
 20
529.5796121152
 30
0.0
  0
VERTEX
  5
686
  8
0
  6
CONTINUOUS
 62
     7
 10
597.2888836478
 20
529.5492957028
 30
0.0
  0
VERTEX
  5
687
  8
0
  6
CONTINUOUS
 62
     7
 10
597.288898549
 20
529.5391629132
 30
0.0
  0
VERTEX
  5
688
  8
0
  6
CONTINUOUS
 62
     7
 10
597.2888836478
 20
529.5492584499
 30
0.0
  0
VERTEX
  5
689
  8
0
  6
CONTINUOUS
 62
     7
 10
597.2888538455
 20
529.5796121152
 30
0.0
  0
VERTEX
  5
68A
  8
0
  6
CONTINUOUS
 62
     7
 10
597.288809142
 20
529.6262974532
 30
0.0
  0
VERTEX
  5
68B
  8
0
  6
CONTINUOUS
 62
     7
 10
597.2887718891
 20
529.6873177083
 30
0.0
  0
SEQEND
  5
7B3
  8
0
  6
CONTINUOUS
 62
     7
  0
LINE
  5
2B5
  8
0
  6
CONTINUOUS
 62
     7
 10
597.2783783292
 20
521.9299445542
 30
0.0
 11
597.288898549
 21
521.9299445542
 31
0.0
  0
ARC
  5
2B6
  8
0
  6
CONTINUOUS
 62
     7
 10
600.18955998
 20
522.0513289836
 30
0.0
 40
2.913711170294026
 50
179.4735749492
 51
182.3876178497
  0
LINE
  5
2B7
  8
0
  6
CONTINUOUS
 62
     7
 10
597.2759717917
 20
522.0780993493
 30
0.0
 11
597.052059493
 21
540.0217870863
 31
0.0
  0
ARC
  5
2B8
  8
0
  6
CONTINUOUS
 62
     7
 10
596.4277738781
 20
540.0501189534
 30
0.0
 40
0.6249281747863877
 50
357.4015365777
 51
11.0542713044
  0
LINE
  5
2B9
  8
0
  6
CONTINUOUS
 62
     7
 10
595.9449702715
 20
540.1699418815
 30
0.0
 11
597.0411071395
 21
540.1699418815
 31
0.0
  0
LINE
  5
2BA
  8
0
  6
CONTINUOUS
 62
     7
 10
465.6167173599
 20
694.4299439581
 30
0.0
 11
476.0097669279
 21
694.4299439581
 31
0.0
  0
LINE
  5
2BB
  8
0
  6
CONTINUOUS
 62
     7
 10
555.5680276667
 20
694.4299439581
 30
0.0
 11
565.9610772347
 21
694.4299439581
 31
0.0
  0
POLYLINE
  5
2BC
  8
0
  6
CONTINUOUS
 62
     7
 66
     1
 10
0.0
 20
0.0
 30
0.0
  0
VERTEX
  5
68C
  8
0
  6
CONTINUOUS
 62
     7
 10
500.6297811707
 20
725.1299420985
 30
0.0
  0
VERTEX
  5
68D
  8
0
  6
CONTINUOUS
 62
     7
 10
500.0933347111
 20
724.5935002955
 30
0.0
  0
VERTEX
  5
68E
  8
0
  6
CONTINUOUS
 62
     7
 10
499.8228190308
 20
724.3229846152
 30
0.0
  0
VERTEX
  5
68F
  8
0
  6
CONTINUOUS
 62
     7
 10
499.7888965373
 20
724.2890695723
 30
0.0
  0
SEQEND
  5
7B2
  8
0
  6
CONTINUOUS
 62
     7
  0
ARC
  5
2BD
  8
0
  6
CONTINUOUS
 62
     7
 10
515.7888972973
 20
740.2891849836
 30
0.0
 40
16.00012034651983
 50
251.3420911826
 51
288.6579088174
  0
POLYLINE
  5
2BE
  8
0
  6
CONTINUOUS
 62
     7
 66
     1
 10
0.0
 20
0.0
 30
0.0
  0
VERTEX
  5
690
  8
0
  6
CONTINUOUS
 62
     7
 10
531.7888980573
 20
724.2890695723
 30
0.0
  0
VERTEX
  5
691
  8
0
  6
CONTINUOUS
 62
     7
 10
531.7549755638
 20
724.3229846152
 30
0.0
  0
VERTEX
  5
692
  8
0
  6
CONTINUOUS
 62
     7
 10
531.4844598835
 20
724.5935002955
 30
0.0
  0
VERTEX
  5
693
  8
0
  6
CONTINUOUS
 62
     7
 10
530.9480134239
 20
725.1299420985
 30
0.0
  0
SEQEND
  5
7B1
  8
0
  6
CONTINUOUS
 62
     7
  0
LINE
  5
2BF
  8
0
  6
CONTINUOUS
 62
     7
 10
457.2733374154
 20
694.4299439581
 30
0.0
 11
465.6167173599
 21
694.4299439581
 31
0.0
  0
LINE
  5
2C0
  8
0
  6
CONTINUOUS
 62
     7
 10
565.9610772347
 20
694.4299439581
 30
0.0
 11
574.3044571792
 21
694.4299439581
 31
0.0
  0
LINE
  5
2C1
  8
0
  6
CONTINUOUS
 62
     7
 10
482.7888974761
 20
695.9299544485
 30
0.0
 11
458.7888972675
 21
695.9299544485
 31
0.0
  0
LINE
  5
2C2
  8
0
  6
CONTINUOUS
 62
     7
 10
548.7888971185
 20
695.9299544485
 30
0.0
 11
572.7888973271
 21
695.9299544485
 31
0.0
  0
LINE
  5
2C3
  8
0
  6
CONTINUOUS
 62
     7
 10
597.0674225902
 20
522.0780993493
 30
0.0
 11
596.6260203933
 21
522.0780993493
 31
0.0
  0
LINE
  5
2C4
  8
0
  6
CONTINUOUS
 62
     7
 10
597.0777714466
 20
521.9299445542
 30
0.0
 11
596.7988664126
 21
521.9299445542
 31
0.0
  0
CIRCLE
  5
2C5
  8
0
  6
CONTINUOUS
 62
     8
 10
515.7888972973
 20
438.1299416216
 30
0.0
 40
111.3
  0
LINE
  5
2C6
  8
0
  6
CONTINUOUS
 62
     8
 10
442.361145637
 20
574.9299476536
 30
0.0
 11
442.2111505484
 21
586.92994217
 31
0.0
  0
LINE
  5
2C7
  8
0
  6
CONTINUOUS
 62
     8
 10
589.2166489576
 20
574.9299476536
 30
0.0
 11
589.3666440462
 21
586.92994217
 31
0.0
  0
LINE
  5
2C8
  8
0
  6
CONTINUOUS
 62
     8
 10
439.4348257994
 20
598.9299366864
 30
0.0
 11
439.3413508152
 21
586.92994217
 31
0.0
  0
LINE
  5
2C9
  8
0
  6
CONTINUOUS
 62
     8
 10
592.1429687952
 20
598.9299366864
 30
0.0
 11
592.2364437794
 21
586.92994217
 31
0.0
  0
LINE
  5
2CA
  8
0
  6
CONTINUOUS
 62
     8
 10
442.8587326621
 20
573.9265034588
 30
0.0
 11
442.361145637
 21
574.9299476536
 31
0.0
  0
LINE
  5
2CB
  8
0
  6
CONTINUOUS
 62
     8
 10
588.7190619325
 20
573.9265034588
 30
0.0
 11
589.2166489576
 21
574.9299476536
 31
0.0
  0
LINE
  5
2CC
  8
0
  6
CONTINUOUS
 62
     8
 10
445.7888969993
 20
554.9299443754
 30
0.0
 11
445.7888969993
 21
573.6560622843
 31
0.0
  0
LINE
  5
2CD
  8
0
  6
CONTINUOUS
 62
     8
 10
585.7888975953
 20
554.9299443754
 30
0.0
 11
585.7888975953
 21
573.6560622843
 31
0.0
  0
LINE
  5
2CE
  8
0
  6
CONTINUOUS
 62
     8
 10
439.5127067184
 20
613.9299372824
 30
0.0
 11
439.4348257994
 21
598.9299366864
 31
0.0
  0
LINE
  5
2CF
  8
0
  6
CONTINUOUS
 62
     8
 10
592.0650878762
 20
613.9299372824
 30
0.0
 11
592.1429687952
 21
598.9299366864
 31
0.0
  0
LINE
  5
2D0
  8
0
  6
CONTINUOUS
 62
     8
 10
432.4538850998
 20
574.9299476536
 30
0.0
 11
431.9453159188
 21
586.92994217
 31
0.0
  0
LINE
  5
2D1
  8
0
  6
CONTINUOUS
 62
     8
 10
599.1239094948
 20
574.9299476536
 30
0.0
 11
599.6324786758
 21
586.92994217
 31
0.0
  0
LINE
  5
2D2
  8
0
  6
CONTINUOUS
 62
     8
 10
434.4915071344
 20
573.7179915102
 30
0.0
 11
432.4538850998
 21
574.9299476536
 31
0.0
  0
LINE
  5
2D3
  8
0
  6
CONTINUOUS
 62
     8
 10
597.0862874602
 20
573.7179915102
 30
0.0
 11
599.1239094948
 21
574.9299476536
 31
0.0
  0
LINE
  5
2D4
  8
0
  6
CONTINUOUS
 62
     8
 10
429.5327955698
 20
598.9299366864
 30
0.0
 11
429.2274558758
 21
586.92994217
 31
0.0
  0
LINE
  5
2D5
  8
0
  6
CONTINUOUS
 62
     8
 10
602.0449990248
 20
598.9299366864
 30
0.0
 11
602.3503387188
 21
586.92994217
 31
0.0
  0
LINE
  5
2D6
  8
0
  6
CONTINUOUS
 62
     8
 10
431.8452993249
 20
600.3039280566
 30
0.0
 11
429.5327955698
 21
598.9299366864
 31
0.0
  0
LINE
  5
2D7
  8
0
  6
CONTINUOUS
 62
     8
 10
599.7324952697
 20
600.3039280566
 30
0.0
 11
602.0449990248
 21
598.9299366864
 31
0.0
  0
LINE
  5
2D8
  8
0
  6
CONTINUOUS
 62
     8
 10
527.308403871
 20
679.5940796526
 30
0.0
 11
531.9682894116
 21
679.5940796526
 31
0.0
  0
LINE
  5
2D9
  8
0
  6
CONTINUOUS
 62
     8
 10
499.609505183
 20
679.5940796526
 30
0.0
 11
504.2693907236
 21
679.5940796526
 31
0.0
  0
LINE
  5
2DA
  8
0
  6
CONTINUOUS
 62
     8
 10
499.0142354583
 20
689.3707613142
 30
0.0
 11
532.5635591363
 21
689.3707613142
 31
0.0
  0
LINE
  5
2DB
  8
0
  6
CONTINUOUS
 62
     8
 10
451.2445995425
 20
532.4619288238
 30
0.0
 11
451.2445995425
 21
554.9299443754
 31
0.0
  0
LINE
  5
2DC
  8
0
  6
CONTINUOUS
 62
     8
 10
580.3331950521
 20
532.4619288238
 30
0.0
 11
580.3331950521
 21
554.9299443754
 31
0.0
  0
LINE
  5
2DD
  8
0
  6
CONTINUOUS
 62
     8
 10
438.3125448441
 20
464.9511321129
 30
0.0
 11
438.3125448441
 21
480.1917696985
 31
0.0
  0
LINE
  5
2DE
  8
0
  6
CONTINUOUS
 62
     8
 10
438.3125448441
 20
522.1650848778
 30
0.0
 11
438.3125448441
 21
554.9299443754
 31
0.0
  0
LINE
  5
2DF
  8
0
  6
CONTINUOUS
 62
     8
 10
593.2652497505
 20
464.9511321129
 30
0.0
 11
593.2652497505
 21
480.1917696985
 31
0.0
  0
LINE
  5
2E0
  8
0
  6
CONTINUOUS
 62
     8
 10
593.2652497505
 20
522.1650848778
 30
0.0
 11
593.2652497505
 21
554.9299443754
 31
0.0
  0
LINE
  5
2E1
  8
0
  6
CONTINUOUS
 62
     8
 10
465.6167173599
 20
694.4299439581
 30
0.0
 11
465.4313282882
 21
675.9299437197
 31
0.0
  0
LINE
  5
2E2
  8
0
  6
CONTINUOUS
 62
     8
 10
565.9610772347
 20
694.4299439581
 30
0.0
 11
566.1464663064
 21
675.9299437197
 31
0.0
  0
INSERT
  5
2EE
  8
FORMAT
  2
SW_CENTERMARKSYMBOL_0
 10
515.7888972973
 20
438.1299416216
 30
0.0
  0
LINE
  5
2EF
  8
0
  6
CONTINUOUS
 62
     7
 10
90.0548737273
 20
-5.1183214745
 30
0.0
 11
90.0548737273
 21
-0.4377084187
 31
0.0
  0
LINE
  5
2F0
  8
0
  6
CONTINUOUS
 62
     7
 10
-20.48285643
 20
-28.1350536606
 30
0.0
 11
-20.48285643
 21
-32.8156667164
 31
0.0
  0
LINE
  5
2F1
  8
0
  6
CONTINUOUS
 62
     7
 10
-20.48285643
 20
-0.4377084187
 30
0.0
 11
-20.48285643
 21
-5.1196495405
 31
0.0
  0
LINE
  5
2F2
  8
0
  6
CONTINUOUS
 62
     7
 10
90.0548737273
 20
-32.8156667164
 30
0.0
 11
90.0548737273
 21
-28.1337255946
 31
0.0
  0
LINE
  5
2F3
  8
0
  6
CONTINUOUS
 62
     7
 10
20.7860082165
 20
-70.682288926
 30
0.0
 11
20.7860082165
 21
-78.1626085154
 31
0.0
  0
LINE
  5
2F4
  8
0
  6
CONTINUOUS
 62
     7
 10
48.7860090808
 20
-78.2568695358
 30
0.0
 11
48.7860090808
 21
-70.4986358396
 31
0.0
  0
LINE
  5
2F5
  8
0
  6
CONTINUOUS
 62
     7
 10
48.7860090808
 20
37.3318252751
 30
0.0
 11
48.7860090808
 21
44.7543879637
 31
0.0
  0
LINE
  5
2F6
  8
0
  6
CONTINUOUS
 62
     7
 10
20.7860082165
 20
45.1151972302
 30
0.0
 11
20.7860082165
 21
37.3590720483
 31
0.0
  0
ARC
  5
2F7
  8
0
  6
CONTINUOUS
 62
     7
 10
-57.7139913514
 20
94.6733124324
 30
0.0
 40
3.0
 50
0.0
 51
90.0
  0
ARC
  5
2F8
  8
0
  6
CONTINUOUS
 62
     7
 10
-57.7139913514
 20
-127.9266875676
 30
0.0
 40
3.0
 50
270.0
 51
0.0
  0
ARC
  5
2F9
  8
0
  6
CONTINUOUS
 62
     7
 10
127.2860086486
 20
94.6733124324
 30
0.0
 40
3.0
 50
90.0
 51
180.0
  0
ARC
  5
2FA
  8
0
  6
CONTINUOUS
 62
     7
 10
127.2860086486
 20
-127.9266875676
 30
0.0
 40
3.0
 50
180.0
 51
270.0
  0
LINE
  5
2FB
  8
0
  6
CONTINUOUS
 62
     7
 10
146.2860110924
 20
97.6733101198
 30
0.0
 11
127.2860098407
 21
97.6733101198
 31
0.0
  0
LINE
  5
2FC
  8
0
  6
CONTINUOUS
 62
     7
 10
127.2860098407
 20
-130.9266852549
 30
0.0
 11
146.2860110924
 21
-130.9266852549
 31
0.0
  0
LINE
  5
2FD
  8
0
  6
CONTINUOUS
 62
     7
 10
-76.7139937951
 20
-130.9266852549
 30
0.0
 11
-57.7139925434
 21
-130.9266852549
 31
0.0
  0
LINE
  5
2FE
  8
0
  6
CONTINUOUS
 62
     7
 10
-57.7139925434
 20
97.6733101198
 30
0.0
 11
-76.7139937951
 21
97.6733101198
 31
0.0
  0
ARC
  5
2FF
  8
0
  6
CONTINUOUS
 62
     7
 10
146.2860086486
 20
94.6733124324
 30
0.0
 40
3.0
 50
0.0
 51
90.0
  0
ARC
  5
300
  8
0
  6
CONTINUOUS
 62
     7
 10
146.2860086486
 20
-127.9266875676
 30
0.0
 40
2.999999999999972
 50
270.0
 51
0.0
  0
ARC
  5
301
  8
0
  6
CONTINUOUS
 62
     7
 10
-76.7139913514
 20
-127.9266875676
 30
0.0
 40
2.999999999999986
 50
180.0
 51
270.0
  0
ARC
  5
302
  8
0
  6
CONTINUOUS
 62
     7
 10
-76.7139913514
 20
94.6733124324
 30
0.0
 40
3.0
 50
90.0
 51
180.0
  0
ARC
  5
303
  8
0
  6
CONTINUOUS
 62
     7
 10
116.2860086486
 20
57.968003519
 30
0.0
 40
8.000000000000014
 50
281.0
 51
0.0
  0
ARC
  5
304
  8
0
  6
CONTINUOUS
 62
     7
 10
116.2860086486
 20
-91.2213786541
 30
0.0
 40
8.000000000000014
 50
0.0
 51
79.0
  0
ARC
  5
305
  8
0
  6
CONTINUOUS
 62
     7
 10
-46.7139913514
 20
-91.2213786541
 30
0.0
 40
8.000000000000007
 50
101.0
 51
180.0
  0
ARC
  5
306
  8
0
  6
CONTINUOUS
 62
     7
 10
-46.7139913514
 20
57.968003519
 30
0.0
 40
8.000000000000007
 50
180.0
 51
259.0
  0
LINE
  5
307
  8
0
  6
CONTINUOUS
 62
     7
 10
-29.3546986058
 20
46.4439673015
 30
0.0
 11
-48.2404601052
 21
50.1149875709
 31
0.0
  0
LINE
  5
308
  8
0
  6
CONTINUOUS
 62
     7
 10
117.8124774025
 20
50.1149875709
 30
0.0
 11
98.9267159031
 21
46.4439673015
 31
0.0
  0
LINE
  5
309
  8
0
  6
CONTINUOUS
 62
     7
 10
-48.2404601052
 20
-83.368362706
 30
0.0
 11
-29.3546986058
 21
-79.6973424366
 31
0.0
  0
LINE
  5
30A
  8
0
  6
CONTINUOUS
 62
     7
 10
98.9267159031
 20
-79.6973424366
 30
0.0
 11
117.8124774025
 21
-83.368362706
 31
0.0
  0
LINE
  5
30B
  8
0
  6
CONTINUOUS
 62
     7
 10
10.2860092894
 20
7.8733117917
 30
0.0
 11
10.2860092894
 21
-41.1266869268
 31
0.0
  0
LINE
  5
30C
  8
0
  6
CONTINUOUS
 62
     7
 10
59.2860080079
 20
7.8733117917
 30
0.0
 11
10.2860092894
 21
7.8733117917
 31
0.0
  0
LINE
  5
30D
  8
0
  6
CONTINUOUS
 62
     7
 10
59.2860080079
 20
-41.1266869268
 30
0.0
 11
59.2860080079
 21
7.8733117917
 31
0.0
  0
LINE
  5
30E
  8
0
  6
CONTINUOUS
 62
     7
 10
10.2860092894
 20
-41.1266869268
 30
0.0
 11
59.2860080079
 21
-41.1266869268
 31
0.0
  0
LINE
  5
30F
  8
0
  6
CONTINUOUS
 62
     7
 10
60.1396955327
 20
8.7269993165
 30
0.0
 11
59.2860080079
 21
7.8733117917
 31
0.0
  0
LINE
  5
310
  8
0
  6
CONTINUOUS
 62
     7
 10
9.4323217646
 20
8.7269993165
 30
0.0
 11
10.2860092894
 21
7.8733117917
 31
0.0
  0
POLYLINE
  5
311
  8
0
  6
CONTINUOUS
 62
     7
 66
     1
 10
0.0
 20
0.0
 30
0.0
  0
VERTEX
  5
694
  8
0
  6
CONTINUOUS
 62
     7
 10
34.7860086486
 20
8.6598528215
 30
0.0
  0
VERTEX
  5
695
  8
0
  6
CONTINUOUS
 62
     7
 10
29.4131011479
 20
8.6634626278
 30
0.0
  0
VERTEX
  5
696
  8
0
  6
CONTINUOUS
 62
     7
 10
19.3887384386
 20
8.6874423214
 30
0.0
  0
VERTEX
  5
697
  8
0
  6
CONTINUOUS
 62
     7
 10
9.4323217646
 20
8.7269993165
 30
0.0
  0
SEQEND
  5
7B0
  8
0
  6
CONTINUOUS
 62
     7
  0
POLYLINE
  5
312
  8
0
  6
CONTINUOUS
 62
     7
 66
     1
 10
0.0
 20
0.0
 30
0.0
  0
VERTEX
  5
698
  8
0
  6
CONTINUOUS
 62
     7
 10
60.1396955327
 20
8.7269993165
 30
0.0
  0
VERTEX
  5
699
  8
0
  6
CONTINUOUS
 62
     7
 10
53.9328720198
 20
8.7008962074
 30
0.0
  0
VERTEX
  5
69A
  8
0
  6
CONTINUOUS
 62
     7
 10
47.6675605179
 20
8.6796098986
 30
0.0
  0
VERTEX
  5
69B
  8
0
  6
CONTINUOUS
 62
     7
 10
41.2486245633
 20
8.6651092061
 30
0.0
  0
VERTEX
  5
69C
  8
0
  6
CONTINUOUS
 62
     7
 10
34.7860086486
 20
8.6598528215
 30
0.0
  0
SEQEND
  5
7AF
  8
0
  6
CONTINUOUS
 62
     7
  0
LINE
  5
313
  8
0
  6
CONTINUOUS
 62
     7
 10
9.4323217646
 20
-41.9803744516
 30
0.0
 11
10.2860092894
 21
-41.1266869268
 31
0.0
  0
POLYLINE
  5
314
  8
0
  6
CONTINUOUS
 62
     7
 66
     1
 10
0.0
 20
0.0
 30
0.0
  0
VERTEX
  5
69D
  8
0
  6
CONTINUOUS
 62
     7
 10
9.4323217646
 20
8.7269993165
 30
0.0
  0
VERTEX
  5
69E
  8
0
  6
CONTINUOUS
 62
     7
 10
9.463215597
 20
1.2545028367
 30
0.0
  0
VERTEX
  5
69F
  8
0
  6
CONTINUOUS
 62
     7
 10
9.4865210132
 20
-6.3039742744
 30
0.0
  0
VERTEX
  5
6A0
  8
0
  6
CONTINUOUS
 62
     7
 10
9.4984847829
 20
-14.1389291602
 30
0.0
  0
VERTEX
  5
6A1
  8
0
  6
CONTINUOUS
 62
     7
 10
9.4958584533
 20
-21.9995950683
 30
0.0
  0
VERTEX
  5
6A2
  8
0
  6
CONTINUOUS
 62
     7
 10
9.4718787596
 20
-32.0239577777
 30
0.0
  0
VERTEX
  5
6A3
  8
0
  6
CONTINUOUS
 62
     7
 10
9.4323217646
 20
-41.9803744516
 30
0.0
  0
SEQEND
  5
7AE
  8
0
  6
CONTINUOUS
 62
     7
  0
POLYLINE
  5
315
  8
0
  6
CONTINUOUS
 62
     7
 66
     1
 10
0.0
 20
0.0
 30
0.0
  0
VERTEX
  5
6A4
  8
0
  6
CONTINUOUS
 62
     7
 10
60.1396955327
 20
-41.9803744516
 30
0.0
  0
VERTEX
  5
6A5
  8
0
  6
CONTINUOUS
 62
     7
 10
60.1088017002
 20
-34.5078779719
 30
0.0
  0
VERTEX
  5
6A6
  8
0
  6
CONTINUOUS
 62
     7
 10
60.0854962841
 20
-26.9494008607
 30
0.0
  0
VERTEX
  5
6A7
  8
0
  6
CONTINUOUS
 62
     7
 10
60.0735325143
 20
-19.1144459749
 30
0.0
  0
VERTEX
  5
6A8
  8
0
  6
CONTINUOUS
 62
     7
 10
60.076158844
 20
-11.2537800669
 30
0.0
  0
VERTEX
  5
6A9
  8
0
  6
CONTINUOUS
 62
     7
 10
60.1001385377
 20
-1.2294173575
 30
0.0
  0
VERTEX
  5
6AA
  8
0
  6
CONTINUOUS
 62
     7
 10
60.1396955327
 20
8.7269993165
 30
0.0
  0
SEQEND
  5
7AD
  8
0
  6
CONTINUOUS
 62
     7
  0
LINE
  5
316
  8
0
  6
CONTINUOUS
 62
     7
 10
60.1396955327
 20
-41.9803744516
 30
0.0
 11
59.2860080079
 21
-41.1266869268
 31
0.0
  0
POLYLINE
  5
317
  8
0
  6
CONTINUOUS
 62
     7
 66
     1
 10
0.0
 20
0.0
 30
0.0
  0
VERTEX
  5
6AB
  8
0
  6
CONTINUOUS
 62
     7
 10
34.7860086486
 20
-41.9132279566
 30
0.0
  0
VERTEX
  5
6AC
  8
0
  6
CONTINUOUS
 62
     7
 10
40.1589161494
 20
-41.9168377629
 30
0.0
  0
VERTEX
  5
6AD
  8
0
  6
CONTINUOUS
 62
     7
 10
50.1832788587
 20
-41.9408174566
 30
0.0
  0
VERTEX
  5
6AE
  8
0
  6
CONTINUOUS
 62
     7
 10
60.1396955327
 20
-41.9803744516
 30
0.0
  0
SEQEND
  5
7AC
  8
0
  6
CONTINUOUS
 62
     7
  0
POLYLINE
  5
318
  8
0
  6
CONTINUOUS
 62
     7
 66
     1
 10
0.0
 20
0.0
 30
0.0
  0
VERTEX
  5
6AF
  8
0
  6
CONTINUOUS
 62
     7
 10
9.4323217646
 20
-41.9803744516
 30
0.0
  0
VERTEX
  5
6B0
  8
0
  6
CONTINUOUS
 62
     7
 10
15.6391452775
 20
-41.9542713425
 30
0.0
  0
VERTEX
  5
6B1
  8
0
  6
CONTINUOUS
 62
     7
 10
21.9044567794
 20
-41.9329850337
 30
0.0
  0
VERTEX
  5
6B2
  8
0
  6
CONTINUOUS
 62
     7
 10
28.323392734
 20
-41.9184843412
 30
0.0
  0
VERTEX
  5
6B3
  8
0
  6
CONTINUOUS
 62
     7
 10
34.7860086486
 20
-41.9132279566
 30
0.0
  0
SEQEND
  5
7AB
  8
0
  6
CONTINUOUS
 62
     7
  0
ARC
  5
319
  8
0
  6
CONTINUOUS
 62
     7
 10
34.8215365205
 20
-81.8245419318
 30
0.0
 40
39.91132978805325
 50
90.0510029957
 51
134.2835985556
  0
ARC
  5
31A
  8
0
  6
CONTINUOUS
 62
     7
 10
34.7860086486
 20
-16.6266875676
 30
0.0
 40
46.00000000000001
 50
127.2303705097
 51
232.7696294903
  0
ARC
  5
31B
  8
0
  6
CONTINUOUS
 62
     7
 10
34.8270125691
 20
48.5846073657
 30
0.0
 40
39.92477560034344
 50
225.7242429122
 51
269.9411555365
  0
ARC
  5
31C
  8
0
  6
CONTINUOUS
 62
     7
 10
34.7860086486
 20
-16.6266875676
 30
0.0
 40
46.0
 50
307.2303705097
 51
52.7696294903
  0
ARC
  5
31D
  8
0
  6
CONTINUOUS
 62
     7
 10
34.7450047282
 20
-81.8379825008
 30
0.0
 40
39.92477560034347
 50
45.7242429122
 51
89.9411555365
  0
ARC
  5
31E
  8
0
  6
CONTINUOUS
 62
     7
 10
34.7504807768
 20
48.5711667966
 30
0.0
 40
39.91132978805324
 50
270.0510029957
 51
314.2835985556
  0
ARC
  5
31F
  8
0
  6
CONTINUOUS
 62
     7
 10
34.7860086486
 20
48.9507960684
 30
0.0
 40
40.09999999999999
 50
226.1441924265
 51
313.8558075735
  0
LINE
  5
320
  8
0
  6
CONTINUOUS
 62
     7
 10
62.6169856415
 20
19.9989398607
 30
0.0
 11
62.569126837
 21
20.0352577158
 31
0.0
  0
LINE
  5
321
  8
0
  6
CONTINUOUS
 62
     7
 10
7.0028904603
 20
20.0352577158
 30
0.0
 11
6.9550316558
 21
19.9989398607
 31
0.0
  0
LINE
  5
322
  8
0
  6
CONTINUOUS
 62
     7
 10
62.569126837
 20
-53.288632851
 30
0.0
 11
62.6169856415
 21
-53.2523149959
 31
0.0
  0
ARC
  5
323
  8
0
  6
CONTINUOUS
 62
     7
 10
34.7860086486
 20
-82.2041712035
 30
0.0
 40
40.1
 50
46.1441924265
 51
133.8558075735
  0
LINE
  5
324
  8
0
  6
CONTINUOUS
 62
     7
 10
6.9550316558
 20
-53.2523149959
 30
0.0
 11
7.0028904603
 21
-53.288632851
 31
0.0
  0
LINE
  5
325
  8
0
  6
CONTINUOUS
 62
     7
 10
25.0889448226
 20
-43.2943141422
 30
0.0
 11
21.5342253224
 21
-46.8490345738
 31
0.0
  0
POLYLINE
  5
326
  8
0
  6
CONTINUOUS
 62
     7
 66
     1
 10
0.0
 20
0.0
 30
0.0
  0
VERTEX
  5
6B4
  8
0
  6
CONTINUOUS
 62
     7
 10
21.5342253224
 20
-46.8490345738
 30
0.0
  0
VERTEX
  5
6B5
  8
0
  6
CONTINUOUS
 62
     7
 10
19.6956138835
 20
-45.9742600432
 30
0.0
  0
VERTEX
  5
6B6
  8
0
  6
CONTINUOUS
 62
     7
 10
18.7316093371
 20
-45.4582030288
 30
0.0
  0
SEQEND
  5
7AA
  8
0
  6
CONTINUOUS
 62
     7
  0
POLYLINE
  5
327
  8
0
  6
CONTINUOUS
 62
     7
 66
     1
 10
0.0
 20
0.0
 30
0.0
  0
VERTEX
  5
6B7
  8
0
  6
CONTINUOUS
 62
     7
 10
21.5342253224
 20
13.5956594386
 30
0.0
  0
VERTEX
  5
6B8
  8
0
  6
CONTINUOUS
 62
     7
 10
19.6956138835
 20
12.7208849081
 30
0.0
  0
VERTEX
  5
6B9
  8
0
  6
CONTINUOUS
 62
     7
 10
18.7316093371
 20
12.2048278936
 30
0.0
  0
SEQEND
  5
7A9
  8
0
  6
CONTINUOUS
 62
     7
  0
LINE
  5
328
  8
0
  6
CONTINUOUS
 62
     7
 10
25.0889448226
 20
10.0409390071
 30
0.0
 11
21.5342253224
 21
13.5956594386
 31
0.0
  0
ARC
  5
329
  8
0
  6
CONTINUOUS
 62
     7
 10
34.7860086486
 20
-16.6266875676
 30
0.0
 40
27.0
 50
75.0548080701
 51
104.9451919299
  0
LINE
  5
32A
  8
0
  6
CONTINUOUS
 62
     7
 10
44.4830724747
 20
10.0409390071
 30
0.0
 11
48.0377919749
 21
13.5956594386
 31
0.0
  0
POLYLINE
  5
32B
  8
0
  6
CONTINUOUS
 62
     7
 66
     1
 10
0.0
 20
0.0
 30
0.0
  0
VERTEX
  5
6BA
  8
0
  6
CONTINUOUS
 62
     7
 10
48.0377919749
 20
13.5956594386
 30
0.0
  0
VERTEX
  5
6BB
  8
0
  6
CONTINUOUS
 62
     7
 10
49.8764034138
 20
12.7208849081
 30
0.0
  0
VERTEX
  5
6BC
  8
0
  6
CONTINUOUS
 62
     7
 10
50.8404079602
 20
12.2048278936
 30
0.0
  0
SEQEND
  5
7A8
  8
0
  6
CONTINUOUS
 62
     7
  0
POLYLINE
  5
32C
  8
0
  6
CONTINUOUS
 62
     7
 66
     1
 10
0.0
 20
0.0
 30
0.0
  0
VERTEX
  5
6BD
  8
0
  6
CONTINUOUS
 62
     7
 10
48.0377919749
 20
-46.8490345738
 30
0.0
  0
VERTEX
  5
6BE
  8
0
  6
CONTINUOUS
 62
     7
 10
49.8764034138
 20
-45.9742600432
 30
0.0
  0
VERTEX
  5
6BF
  8
0
  6
CONTINUOUS
 62
     7
 10
50.8404079602
 20
-45.4582030288
 30
0.0
  0
SEQEND
  5
7A7
  8
0
  6
CONTINUOUS
 62
     7
  0
LINE
  5
32D
  8
0
  6
CONTINUOUS
 62
     7
 10
44.4830724747
 20
-43.2943141422
 30
0.0
 11
48.0377919749
 21
-46.8490345738
 31
0.0
  0
ARC
  5
32E
  8
0
  6
CONTINUOUS
 62
     7
 10
34.7860086486
 20
-16.6266875676
 30
0.0
 40
27.0
 50
255.0548080701
 51
284.9451919299
  0
ARC
  5
32F
  8
0
  6
CONTINUOUS
 62
     7
 10
34.7860086486
 20
-16.6266875676
 30
0.0
 40
27.71587577458084
 50
72.1744737681
 51
107.8255262319
  0
ARC
  5
330
  8
0
  6
CONTINUOUS
 62
     7
 10
34.7860086486
 20
-16.6266875676
 30
0.0
 40
27.71587577458083
 50
252.1744737681
 51
287.8255262319
  0
CIRCLE
  5
331
  8
0
  6
CONTINUOUS
 62
     7
 10
34.7860086486
 20
28.3733124324
 30
0.0
 40
12.0
  0
CIRCLE
  5
332
  8
0
  6
CONTINUOUS
 62
     7
 10
34.7860086486
 20
-61.6266875676
 30
0.0
 40
12.0
  0
ARC
  5
333
  8
0
  6
CONTINUOUS
 62
     7
 10
34.7860086486
 20
28.3733124324
 30
0.0
 40
13.51556045097005
 50
22.5
 51
157.5
  0
ARC
  5
334
  8
0
  6
CONTINUOUS
 62
     7
 10
34.7860086486
 20
28.3733103626
 30
0.0
 40
14.00000088126441
 50
22.5000119096
 51
157.4999880904
  0
LINE
  5
335
  8
0
  6
CONTINUOUS
 62
     7
 10
55.6061643884
 20
14.6927741953
 30
0.0
 11
47.7203218044
 21
33.7308814415
 31
0.0
  0
LINE
  5
336
  8
0
  6
CONTINUOUS
 62
     7
 10
51.5777006523
 20
23.1524428019
 30
0.0
 11
55.2050959096
 21
14.4389012494
 31
0.0
  0
LINE
  5
337
  8
0
  6
CONTINUOUS
 62
     7
 10
51.5777006523
 20
23.1524428019
 30
0.0
 11
47.2727579773
 21
33.5454923698
 31
0.0
  0
LINE
  5
338
  8
0
  6
CONTINUOUS
 62
     7
 10
21.8516954929
 20
33.7308814415
 30
0.0
 11
14.000008233
 21
14.7752334961
 31
0.0
  0
LINE
  5
339
  8
0
  6
CONTINUOUS
 62
     7
 10
22.29925932
 20
33.5454923698
 30
0.0
 11
17.994316645
 21
23.1524428019
 31
0.0
  0
LINE
  5
33A
  8
0
  6
CONTINUOUS
 62
     7
 10
14.3669213877
 20
14.4389012494
 30
0.0
 11
17.994316645
 21
23.1524428019
 31
0.0
  0
LINE
  5
33B
  8
0
  6
CONTINUOUS
 62
     7
 10
47.7203218044
 20
-66.9842565766
 30
0.0
 11
55.6061643884
 21
-47.9461493305
 31
0.0
  0
LINE
  5
33C
  8
0
  6
CONTINUOUS
 62
     7
 10
47.2727579773
 20
-66.7988675049
 30
0.0
 11
51.5777006523
 21
-56.405817937
 31
0.0
  0
LINE
  5
33D
  8
0
  6
CONTINUOUS
 62
     7
 10
55.2050959096
 20
-47.6922763846
 30
0.0
 11
51.5777006523
 21
-56.405817937
 31
0.0
  0
LINE
  5
33E
  8
0
  6
CONTINUOUS
 62
     7
 10
14.000008233
 20
-48.0286086312
 30
0.0
 11
21.8516954929
 21
-66.9842565766
 31
0.0
  0
LINE
  5
33F
  8
0
  6
CONTINUOUS
 62
     7
 10
17.994316645
 20
-56.405817937
 30
0.0
 11
14.3669213877
 21
-47.6922763846
 31
0.0
  0
LINE
  5
340
  8
0
  6
CONTINUOUS
 62
     7
 10
17.994316645
 20
-56.405817937
 30
0.0
 11
22.29925932
 21
-66.7988675049
 31
0.0
  0
ARC
  5
341
  8
0
  6
CONTINUOUS
 62
     7
 10
34.7860086486
 20
-61.6266875676
 30
0.0
 40
13.51556045097004
 50
202.5
 51
337.5
  0
ARC
  5
342
  8
0
  6
CONTINUOUS
 62
     7
 10
34.7860086486
 20
-61.6266854977
 30
0.0
 40
14.00000088126441
 50
202.5000119096
 51
337.4999880904
  0
LINE
  5
343
  8
0
  6
CONTINUOUS
 62
     7
 10
17.994316645
 20
12.5358404258
 30
0.0
 11
17.994316645
 21
23.1524428019
 31
0.0
  0
LINE
  5
344
  8
0
  6
CONTINUOUS
 62
     7
 10
51.5777006523
 20
23.1524428019
 30
0.0
 11
51.5777006523
 21
12.5358404258
 31
0.0
  0
LINE
  5
345
  8
0
  6
CONTINUOUS
 62
     7
 10
17.994316645
 20
-56.405817937
 30
0.0
 11
17.994316645
 21
-45.7892155609
 31
0.0
  0
LINE
  5
346
  8
0
  6
CONTINUOUS
 62
     7
 10
-7.9567093625
 20
-33.6284561417
 30
0.0
 11
-10.6977705135
 21
-33.4013494066
 31
0.0
  0
LINE
  5
347
  8
0
  6
CONTINUOUS
 62
     7
 10
-10.6977705135
 20
0.1479742714
 30
0.0
 11
-7.9567093625
 21
0.3750810066
 31
0.0
  0
LINE
  5
348
  8
0
  6
CONTINUOUS
 62
     7
 10
77.5287266598
 20
0.3750810066
 30
0.0
 11
80.2697878108
 21
0.1479742714
 31
0.0
  0
LINE
  5
349
  8
0
  6
CONTINUOUS
 62
     7
 10
80.2697878108
 20
-33.4013494066
 30
0.0
 11
77.5287266598
 21
-33.6284561417
 31
0.0
  0
LINE
  5
34A
  8
0
  6
CONTINUOUS
 62
     7
 10
51.5777006523
 20
-45.7892155609
 30
0.0
 11
51.5777006523
 21
-56.405817937
 31
0.0
  0
ARC
  5
34B
  8
0
  6
CONTINUOUS
 62
     7
 10
-24.4439311471
 20
145.0942547946
 30
0.0
 40
145.5966385932835
 50
271.5761789186
 51
275.417513672
  0
POLYLINE
  5
34C
  8
0
  6
CONTINUOUS
 62
     7
 66
     1
 10
0.0
 20
0.0
 30
0.0
  0
VERTEX
  5
6C0
  8
0
  6
CONTINUOUS
 62
     7
 10
-15.286195673
 20
0.0706484207
 30
0.0
  0
VERTEX
  5
6C1
  8
0
  6
CONTINUOUS
 62
     7
 10
-15.6949196234
 20
0.0445043334
 30
0.0
  0
VERTEX
  5
6C2
  8
0
  6
CONTINUOUS
 62
     7
 10
-16.1634121313
 20
0.0110158363
 30
0.0
  0
VERTEX
  5
6C3
  8
0
  6
CONTINUOUS
 62
     7
 10
-16.6760120764
 20
-0.0286994836
 30
0.0
  0
VERTEX
  5
6C4
  8
0
  6
CONTINUOUS
 62
     7
 10
-17.2155868485
 20
-0.0733154229
 30
0.0
  0
VERTEX
  5
6C5
  8
0
  6
CONTINUOUS
 62
     7
 10
-17.7640948667
 20
-0.1213362775
 30
0.0
  0
VERTEX
  5
6C6
  8
0
  6
CONTINUOUS
 62
     7
 10
-18.3032002523
 20
-0.1711601726
 30
0.0
  0
VERTEX
  5
6C7
  8
0
  6
CONTINUOUS
 62
     7
 10
-18.8148837759
 20
-0.2211200407
 30
0.0
  0
VERTEX
  5
6C8
  8
0
  6
CONTINUOUS
 62
     7
 10
-19.2820389047
 20
-0.269546952
 30
0.0
  0
VERTEX
  5
6C9
  8
0
  6
CONTINUOUS
 62
     7
 10
-19.6890454962
 20
-0.3148222676
 30
0.0
  0
VERTEX
  5
6CA
  8
0
  6
CONTINUOUS
 62
     7
 10
-20.022306241
 20
-0.3554297945
 30
0.0
  0
VERTEX
  5
6CB
  8
0
  6
CONTINUOUS
 62
     7
 10
-20.2706713452
 20
-0.390013527
 30
0.0
  0
VERTEX
  5
6CC
  8
0
  6
CONTINUOUS
 62
     7
 10
-20.4258445873
 20
-0.4174186251
 30
0.0
  0
VERTEX
  5
6CD
  8
0
  6
CONTINUOUS
 62
     7
 10
-20.4826329126
 20
-0.4367286674
 30
0.0
  0
VERTEX
  5
6CE
  8
0
  6
CONTINUOUS
 62
     7
 10
-20.4391438737
 20
-0.4472954533
 30
0.0
  0
SEQEND
  5
7A6
  8
0
  6
CONTINUOUS
 62
     7
  0
ARC
  5
34D
  8
0
  6
CONTINUOUS
 62
     7
 10
-32.8283645698
 20
279.2963613414
 30
0.0
 40
279.7762077905282
 50
273.5948445496
 51
275.1218722559
  0
ARC
  5
34E
  8
0
  6
CONTINUOUS
 62
     7
 10
102.9642270318
 20
286.6944710457
 30
0.0
 40
287.1951312981101
 50
264.8978522195
 51
266.3854309749
  0
POLYLINE
  5
34F
  8
0
  6
CONTINUOUS
 62
     7
 66
     1
 10
0.0
 20
0.0
 30
0.0
  0
VERTEX
  5
6CF
  8
0
  6
CONTINUOUS
 62
     7
 10
90.011161171
 20
-0.4472954533
 30
0.0
  0
VERTEX
  5
6D0
  8
0
  6
CONTINUOUS
 62
     7
 10
90.0546502099
 20
-0.4367286674
 30
0.0
  0
VERTEX
  5
6D1
  8
0
  6
CONTINUOUS
 62
     7
 10
89.9978618846
 20
-0.4174186251
 30
0.0
  0
VERTEX
  5
6D2
  8
0
  6
CONTINUOUS
 62
     7
 10
89.8426886425
 20
-0.390013527
 30
0.0
  0
VERTEX
  5
6D3
  8
0
  6
CONTINUOUS
 62
     7
 10
89.5943235383
 20
-0.3554297945
 30
0.0
  0
VERTEX
  5
6D4
  8
0
  6
CONTINUOUS
 62
     7
 10
89.2610627935
 20
-0.3148222676
 30
0.0
  0
VERTEX
  5
6D5
  8
0
  6
CONTINUOUS
 62
     7
 10
88.8540562019
 20
-0.269546952
 30
0.0
  0
VERTEX
  5
6D6
  8
0
  6
CONTINUOUS
 62
     7
 10
88.3869010732
 20
-0.2211200407
 30
0.0
  0
VERTEX
  5
6D7
  8
0
  6
CONTINUOUS
 62
     7
 10
87.8752175496
 20
-0.1711601726
 30
0.0
  0
VERTEX
  5
6D8
  8
0
  6
CONTINUOUS
 62
     7
 10
87.336112164
 20
-0.1213362775
 30
0.0
  0
VERTEX
  5
6D9
  8
0
  6
CONTINUOUS
 62
     7
 10
86.7876041458
 20
-0.0733154229
 30
0.0
  0
VERTEX
  5
6DA
  8
0
  6
CONTINUOUS
 62
     7
 10
86.2480293737
 20
-0.0286994836
 30
0.0
  0
VERTEX
  5
6DB
  8
0
  6
CONTINUOUS
 62
     7
 10
85.7354294286
 20
0.0110158363
 30
0.0
  0
VERTEX
  5
6DC
  8
0
  6
CONTINUOUS
 62
     7
 10
85.2669369207
 20
0.0445043334
 30
0.0
  0
VERTEX
  5
6DD
  8
0
  6
CONTINUOUS
 62
     7
 10
84.8582129703
 20
0.0706484207
 30
0.0
  0
SEQEND
  5
7A5
  8
0
  6
CONTINUOUS
 62
     7
  0
ARC
  5
350
  8
0
  6
CONTINUOUS
 62
     7
 10
92.3529333254
 20
117.8796149344
 30
0.0
 40
118.3500807719284
 50
264.140082874
 51
268.8662245354
  0
POLYLINE
  5
351
  8
0
  6
CONTINUOUS
 62
     7
 66
     1
 10
0.0
 20
0.0
 30
0.0
  0
VERTEX
  5
6DE
  8
0
  6
CONTINUOUS
 62
     7
 10
-20.4391438737
 20
-32.8060796818
 30
0.0
  0
VERTEX
  5
6DF
  8
0
  6
CONTINUOUS
 62
     7
 10
-20.4826329126
 20
-32.8166464678
 30
0.0
  0
VERTEX
  5
6E0
  8
0
  6
CONTINUOUS
 62
     7
 10
-20.4258445873
 20
-32.83595651
 30
0.0
  0
VERTEX
  5
6E1
  8
0
  6
CONTINUOUS
 62
     7
 10
-20.2706713452
 20
-32.8633616081
 30
0.0
  0
VERTEX
  5
6E2
  8
0
  6
CONTINUOUS
 62
     7
 10
-20.022306241
 20
-32.8979453406
 30
0.0
  0
VERTEX
  5
6E3
  8
0
  6
CONTINUOUS
 62
     7
 10
-19.6890454962
 20
-32.9385528675
 30
0.0
  0
VERTEX
  5
6E4
  8
0
  6
CONTINUOUS
 62
     7
 10
-19.2820389047
 20
-32.9838281831
 30
0.0
  0
VERTEX
  5
6E5
  8
0
  6
CONTINUOUS
 62
     7
 10
-18.8148837759
 20
-33.0322550944
 30
0.0
  0
VERTEX
  5
6E6
  8
0
  6
CONTINUOUS
 62
     7
 10
-18.3032002523
 20
-33.0822149626
 30
0.0
  0
VERTEX
  5
6E7
  8
0
  6
CONTINUOUS
 62
     7
 10
-17.7640948667
 20
-33.1320388577
 30
0.0
  0
VERTEX
  5
6E8
  8
0
  6
CONTINUOUS
 62
     7
 10
-17.2155868485
 20
-33.1800597123
 30
0.0
  0
VERTEX
  5
6E9
  8
0
  6
CONTINUOUS
 62
     7
 10
-16.6760120764
 20
-33.2246756515
 30
0.0
  0
VERTEX
  5
6EA
  8
0
  6
CONTINUOUS
 62
     7
 10
-16.1634121313
 20
-33.2643909714
 30
0.0
  0
VERTEX
  5
6EB
  8
0
  6
CONTINUOUS
 62
     7
 10
-15.6949196234
 20
-33.2978794685
 30
0.0
  0
VERTEX
  5
6EC
  8
0
  6
CONTINUOUS
 62
     7
 10
-15.286195673
 20
-33.3240235559
 30
0.0
  0
SEQEND
  5
7A4
  8
0
  6
CONTINUOUS
 62
     7
  0
ARC
  5
352
  8
0
  6
CONTINUOUS
 62
     7
 10
-22.7809160281
 20
-151.1329900695
 30
0.0
 40
118.3500807719284
 50
84.140082874
 51
88.8662245354
  0
ARC
  5
353
  8
0
  6
CONTINUOUS
 62
     7
 10
-33.3922097345
 20
-319.9478461808
 30
0.0
 40
287.1951312981091
 50
84.8978522195
 51
86.3854309749
  0
ARC
  5
354
  8
0
  6
CONTINUOUS
 62
     7
 10
94.0159484444
 20
-178.3476299297
 30
0.0
 40
145.5966385932835
 50
91.5761789186
 51
95.417513672
  0
POLYLINE
  5
355
  8
0
  6
CONTINUOUS
 62
     7
 66
     1
 10
0.0
 20
0.0
 30
0.0
  0
VERTEX
  5
6ED
  8
0
  6
CONTINUOUS
 62
     7
 10
84.8582129703
 20
-33.3240235559
 30
0.0
  0
VERTEX
  5
6EE
  8
0
  6
CONTINUOUS
 62
     7
 10
85.2669369207
 20
-33.2978794685
 30
0.0
  0
VERTEX
  5
6EF
  8
0
  6
CONTINUOUS
 62
     7
 10
85.7354294286
 20
-33.2643909714
 30
0.0
  0
VERTEX
  5
6F0
  8
0
  6
CONTINUOUS
 62
     7
 10
86.2480293737
 20
-33.2246756515
 30
0.0
  0
VERTEX
  5
6F1
  8
0
  6
CONTINUOUS
 62
     7
 10
86.7876041458
 20
-33.1800597123
 30
0.0
  0
VERTEX
  5
6F2
  8
0
  6
CONTINUOUS
 62
     7
 10
87.336112164
 20
-33.1320388577
 30
0.0
  0
VERTEX
  5
6F3
  8
0
  6
CONTINUOUS
 62
     7
 10
87.8752175496
 20
-33.0822149626
 30
0.0
  0
VERTEX
  5
6F4
  8
0
  6
CONTINUOUS
 62
     7
 10
88.3869010732
 20
-33.0322550944
 30
0.0
  0
VERTEX
  5
6F5
  8
0
  6
CONTINUOUS
 62
     7
 10
88.8540562019
 20
-32.9838281831
 30
0.0
  0
VERTEX
  5
6F6
  8
0
  6
CONTINUOUS
 62
     7
 10
89.2610627935
 20
-32.9385528675
 30
0.0
  0
VERTEX
  5
6F7
  8
0
  6
CONTINUOUS
 62
     7
 10
89.5943235383
 20
-32.8979453406
 30
0.0
  0
VERTEX
  5
6F8
  8
0
  6
CONTINUOUS
 62
     7
 10
89.8426886425
 20
-32.8633616081
 30
0.0
  0
VERTEX
  5
6F9
  8
0
  6
CONTINUOUS
 62
     7
 10
89.9978618846
 20
-32.83595651
 30
0.0
  0
VERTEX
  5
6FA
  8
0
  6
CONTINUOUS
 62
     7
 10
90.0546502099
 20
-32.8166464678
 30
0.0
  0
VERTEX
  5
6FB
  8
0
  6
CONTINUOUS
 62
     7
 10
90.011161171
 20
-32.8060796818
 30
0.0
  0
SEQEND
  5
7A3
  8
0
  6
CONTINUOUS
 62
     7
  0
ARC
  5
356
  8
0
  6
CONTINUOUS
 62
     7
 10
102.4003818671
 20
-312.5497364765
 30
0.0
 40
279.7762077905291
 50
93.5948445496
 51
95.1218722559
  0
ARC
  5
357
  8
0
  6
CONTINUOUS
 62
     7
 10
-28.2194382788
 20
-22.6526634007
 30
0.0
 40
19.19314809817728
 50
47.6353337339
 51
66.0857893065
  0
ARC
  5
358
  8
0
  6
CONTINUOUS
 62
     7
 10
-23.6781551274
 20
-16.6266875676
 30
0.0
 40
11.96621183176006
 50
285.7047200633
 51
74.2952799367
  0
POLYLINE
  5
359
  8
0
  6
CONTINUOUS
 62
     7
 66
     1
 10
0.0
 20
0.0
 30
0.0
  0
VERTEX
  5
6FC
  8
0
  6
CONTINUOUS
 62
     7
 10
-15.286195673
 20
-24.7819729483
 30
0.0
  0
VERTEX
  5
6FD
  8
0
  6
CONTINUOUS
 62
     7
 10
-16.2684578671
 20
-25.7082384414
 30
0.0
  0
VERTEX
  5
6FE
  8
0
  6
CONTINUOUS
 62
     7
 10
-17.504725255
 20
-26.6376573927
 30
0.0
  0
VERTEX
  5
6FF
  8
0
  6
CONTINUOUS
 62
     7
 10
-18.5514908507
 20
-27.2622423581
 30
0.0
  0
VERTEX
  5
700
  8
0
  6
CONTINUOUS
 62
     7
 10
-19.5254419222
 20
-27.7357695958
 30
0.0
  0
VERTEX
  5
701
  8
0
  6
CONTINUOUS
 62
     7
 10
-20.1599594428
 20
-28.0013259834
 30
0.0
  0
VERTEX
  5
702
  8
0
  6
CONTINUOUS
 62
     7
 10
-20.4554122164
 20
-28.1262386924
 30
0.0
  0
VERTEX
  5
703
  8
0
  6
CONTINUOUS
 62
     7
 10
-20.4391438737
 20
-28.1461941412
 30
0.0
  0
SEQEND
  5
7A2
  8
0
  6
CONTINUOUS
 62
     7
  0
ARC
  5
35A
  8
0
  6
CONTINUOUS
 62
     7
 10
-23.8748297697
 20
-16.6266875676
 30
0.0
 40
11.84370361371123
 50
316.482538843
 51
43.517461157
  0
ARC
  5
35B
  8
0
  6
CONTINUOUS
 62
     7
 10
93.2501724247
 20
-16.6266875676
 30
0.0
 40
11.96621183176006
 50
105.7047200633
 51
254.2952799367
  0
POLYLINE
  5
35C
  8
0
  6
CONTINUOUS
 62
     7
 66
     1
 10
0.0
 20
0.0
 30
0.0
  0
VERTEX
  5
704
  8
0
  6
CONTINUOUS
 62
     7
 10
84.8582129703
 20
-8.4714021868
 30
0.0
  0
VERTEX
  5
705
  8
0
  6
CONTINUOUS
 62
     7
 10
85.8404751644
 20
-7.5451366938
 30
0.0
  0
VERTEX
  5
706
  8
0
  6
CONTINUOUS
 62
     7
 10
87.0767425523
 20
-6.6157177425
 30
0.0
  0
VERTEX
  5
707
  8
0
  6
CONTINUOUS
 62
     7
 10
88.123508148
 20
-5.9911327771
 30
0.0
  0
VERTEX
  5
708
  8
0
  6
CONTINUOUS
 62
     7
 10
89.0974592195
 20
-5.5176055393
 30
0.0
  0
VERTEX
  5
709
  8
0
  6
CONTINUOUS
 62
     7
 10
89.7319767401
 20
-5.2520491517
 30
0.0
  0
VERTEX
  5
70A
  8
0
  6
CONTINUOUS
 62
     7
 10
90.0274295137
 20
-5.1271364427
 30
0.0
  0
VERTEX
  5
70B
  8
0
  6
CONTINUOUS
 62
     7
 10
90.011161171
 20
-5.1071809939
 30
0.0
  0
SEQEND
  5
7A1
  8
0
  6
CONTINUOUS
 62
     7
  0
ARC
  5
35D
  8
0
  6
CONTINUOUS
 62
     7
 10
93.446847067
 20
-16.6266875676
 30
0.0
 40
11.84370361371123
 50
136.482538843
 51
223.517461157
  0
ARC
  5
35E
  8
0
  6
CONTINUOUS
 62
     7
 10
97.7914555761
 20
-10.6007117344
 30
0.0
 40
19.19314809817728
 50
227.6353337339
 51
246.0857893065
  0
ARC
  5
35F
  8
0
  6
CONTINUOUS
 62
     7
 10
126.554351954
 20
-17.7284625314
 30
0.0
 40
149.8174693335853
 50
157.4912286828
 51
174.2756399977
  0
LINE
  5
360
  8
0
  6
CONTINUOUS
 62
     7
 10
-11.8501629903
 20
39.6253896543
 30
0.0
 11
-10.4435008242
 21
39.9173928091
 31
0.0
  0
LINE
  5
361
  8
0
  6
CONTINUOUS
 62
     7
 10
-9.1299038603
 20
43.1595837363
 30
0.0
 11
-10.4435008242
 21
39.9173928091
 31
0.0
  0
LINE
  5
362
  8
0
  6
CONTINUOUS
 62
     7
 10
-9.1299038603
 20
43.1595837363
 30
0.0
 11
-7.489017792
 21
43.9805147835
 31
0.0
  0
POLYLINE
  5
363
  8
0
  6
CONTINUOUS
 62
     7
 66
     1
 10
0.0
 20
0.0
 30
0.0
  0
VERTEX
  5
70C
  8
0
  6
CONTINUOUS
 62
     7
 10
-7.489017792
 20
43.9805147835
 30
0.0
  0
VERTEX
  5
70D
  8
0
  6
CONTINUOUS
 62
     7
 10
-5.8760304227
 20
40.2928648182
 30
0.0
  0
VERTEX
  5
70E
  8
0
  6
CONTINUOUS
 62
     7
 10
-3.8255412354
 20
36.1319055447
 30
0.0
  0
VERTEX
  5
70F
  8
0
  6
CONTINUOUS
 62
     7
 10
-1.3546232357
 20
31.5145572313
 30
0.0
  0
VERTEX
  5
710
  8
0
  6
CONTINUOUS
 62
     7
 10
1.5196580217
 20
26.8217904159
 30
0.0
  0
VERTEX
  5
711
  8
0
  6
CONTINUOUS
 62
     7
 10
4.7438353077
 20
22.7894952187
 30
0.0
  0
VERTEX
  5
712
  8
0
  6
CONTINUOUS
 62
     7
 10
7.0552438275
 20
20.145556111
 30
0.0
  0
SEQEND
  5
7A0
  8
0
  6
CONTINUOUS
 62
     7
  0
POLYLINE
  5
364
  8
0
  6
CONTINUOUS
 62
     7
 66
     1
 10
0.0
 20
0.0
 30
0.0
  0
VERTEX
  5
713
  8
0
  6
CONTINUOUS
 62
     7
 10
-7.489017792
 20
-77.2338899187
 30
0.0
  0
VERTEX
  5
714
  8
0
  6
CONTINUOUS
 62
     7
 10
-5.8760304227
 20
-73.5462399534
 30
0.0
  0
VERTEX
  5
715
  8
0
  6
CONTINUOUS
 62
     7
 10
-3.8255412354
 20
-69.3852806798
 30
0.0
  0
VERTEX
  5
716
  8
0
  6
CONTINUOUS
 62
     7
 10
-1.3546232357
 20
-64.7679323665
 30
0.0
  0
VERTEX
  5
717
  8
0
  6
CONTINUOUS
 62
     7
 10
1.5196580217
 20
-60.075165551
 30
0.0
  0
VERTEX
  5
718
  8
0
  6
CONTINUOUS
 62
     7
 10
4.7438353077
 20
-56.0428703538
 30
0.0
  0
VERTEX
  5
719
  8
0
  6
CONTINUOUS
 62
     7
 10
7.0552438275
 20
-53.3989312461
 30
0.0
  0
SEQEND
  5
79F
  8
0
  6
CONTINUOUS
 62
     7
  0
LINE
  5
365
  8
0
  6
CONTINUOUS
 62
     7
 10
-7.489017792
 20
-77.2338899187
 30
0.0
 11
-9.1299150362
 21
-76.4129551462
 31
0.0
  0
LINE
  5
366
  8
0
  6
CONTINUOUS
 62
     7
 10
-10.4434970989
 20
-73.1707679442
 30
0.0
 11
-9.1299150362
 21
-76.4129551462
 31
0.0
  0
LINE
  5
367
  8
0
  6
CONTINUOUS
 62
     7
 10
-10.4434970989
 20
-73.1707679442
 30
0.0
 11
-11.8501629903
 21
-72.8787647894
 31
0.0
  0
ARC
  5
368
  8
0
  6
CONTINUOUS
 62
     7
 10
126.4548630212
 20
-15.5499330782
 30
0.0
 40
149.7159816633358
 50
185.7186301179
 51
202.5145012016
  0
LINE
  5
369
  8
0
  6
CONTINUOUS
 62
     7
 10
-22.5160155668
 20
-30.4681266061
 30
0.0
 11
-22.3812978937
 21
-30.3396031595
 31
0.0
  0
LINE
  5
36A
  8
0
  6
CONTINUOUS
 62
     7
 10
-22.6715613379
 20
-27.6133053339
 30
0.0
 11
-22.3812978937
 21
-30.3396031595
 31
0.0
  0
ARC
  5
36B
  8
0
  6
CONTINUOUS
 62
     7
 10
-23.2064545022
 20
-16.6266875676
 30
0.0
 40
10.99963093201152
 50
272.7872946336
 51
87.2127053664
  0
LINE
  5
36C
  8
0
  6
CONTINUOUS
 62
     7
 10
-22.3812978937
 20
-2.9137719757
 30
0.0
 11
-22.6715613379
 21
-5.6400698012
 31
0.0
  0
LINE
  5
36D
  8
0
  6
CONTINUOUS
 62
     7
 10
-22.3812978937
 20
-2.9137719757
 30
0.0
 11
-22.5160155668
 21
-2.7852485291
 31
0.0
  0
ARC
  5
36E
  8
0
  6
CONTINUOUS
 62
     7
 10
-56.8828457239
 20
-17.7034420569
 30
0.0
 40
149.715981663336
 50
5.7186301179
 51
22.5145012016
  0
LINE
  5
36F
  8
0
  6
CONTINUOUS
 62
     7
 10
92.0880328641
 20
-2.7852485291
 30
0.0
 11
91.953315191
 21
-2.9137719757
 31
0.0
  0
LINE
  5
370
  8
0
  6
CONTINUOUS
 62
     7
 10
92.2435786352
 20
-5.6400698012
 30
0.0
 11
91.953315191
 21
-2.9137719757
 31
0.0
  0
ARC
  5
371
  8
0
  6
CONTINUOUS
 62
     7
 10
92.7784717995
 20
-16.6266875676
 30
0.0
 40
10.99963093201153
 50
92.7872946336
 51
267.2127053664
  0
LINE
  5
372
  8
0
  6
CONTINUOUS
 62
     7
 10
91.953315191
 20
-30.3396031595
 30
0.0
 11
92.2435786352
 21
-27.6133053339
 31
0.0
  0
LINE
  5
373
  8
0
  6
CONTINUOUS
 62
     7
 10
91.953315191
 20
-30.3396031595
 30
0.0
 11
92.0880328641
 21
-30.4681266061
 31
0.0
  0
ARC
  5
374
  8
0
  6
CONTINUOUS
 62
     7
 10
-56.9823346567
 20
-15.5249126037
 30
0.0
 40
149.8174693335853
 50
337.4912286828
 51
354.2756399977
  0
LINE
  5
375
  8
0
  6
CONTINUOUS
 62
     7
 10
81.4221802876
 20
-72.8787647894
 30
0.0
 11
80.0155181215
 21
-73.1707679442
 31
0.0
  0
LINE
  5
376
  8
0
  6
CONTINUOUS
 62
     7
 10
78.7019211576
 20
-76.4129588715
 30
0.0
 11
80.0155181215
 21
-73.1707679442
 31
0.0
  0
LINE
  5
377
  8
0
  6
CONTINUOUS
 62
     7
 10
78.7019211576
 20
-76.4129588715
 30
0.0
 11
77.0610350893
 21
-77.2338899187
 31
0.0
  0
POLYLINE
  5
378
  8
0
  6
CONTINUOUS
 62
     7
 66
     1
 10
0.0
 20
0.0
 30
0.0
  0
VERTEX
  5
71A
  8
0
  6
CONTINUOUS
 62
     7
 10
77.0610350893
 20
-77.2338899187
 30
0.0
  0
VERTEX
  5
71B
  8
0
  6
CONTINUOUS
 62
     7
 10
75.44804772
 20
-73.5462399534
 30
0.0
  0
VERTEX
  5
71C
  8
0
  6
CONTINUOUS
 62
     7
 10
73.3975585327
 20
-69.3852806798
 30
0.0
  0
VERTEX
  5
71D
  8
0
  6
CONTINUOUS
 62
     7
 10
70.926640533
 20
-64.7679323665
 30
0.0
  0
VERTEX
  5
71E
  8
0
  6
CONTINUOUS
 62
     7
 10
68.0523592756
 20
-60.075165551
 30
0.0
  0
VERTEX
  5
71F
  8
0
  6
CONTINUOUS
 62
     7
 10
64.8281819896
 20
-56.0428703538
 30
0.0
  0
VERTEX
  5
720
  8
0
  6
CONTINUOUS
 62
     7
 10
62.5418744759
 20
-53.4276420585
 30
0.0
  0
SEQEND
  5
79E
  8
0
  6
CONTINUOUS
 62
     7
  0
POLYLINE
  5
379
  8
0
  6
CONTINUOUS
 62
     7
 66
     1
 10
0.0
 20
0.0
 30
0.0
  0
VERTEX
  5
721
  8
0
  6
CONTINUOUS
 62
     7
 10
77.0610350893
 20
43.9805147835
 30
0.0
  0
VERTEX
  5
722
  8
0
  6
CONTINUOUS
 62
     7
 10
75.44804772
 20
40.2928648182
 30
0.0
  0
VERTEX
  5
723
  8
0
  6
CONTINUOUS
 62
     7
 10
73.3975585327
 20
36.1319055447
 30
0.0
  0
VERTEX
  5
724
  8
0
  6
CONTINUOUS
 62
     7
 10
70.926640533
 20
31.5145572313
 30
0.0
  0
VERTEX
  5
725
  8
0
  6
CONTINUOUS
 62
     7
 10
68.0523592756
 20
26.8217904159
 30
0.0
  0
VERTEX
  5
726
  8
0
  6
CONTINUOUS
 62
     7
 10
64.8281819896
 20
22.7894952187
 30
0.0
  0
VERTEX
  5
727
  8
0
  6
CONTINUOUS
 62
     7
 10
62.5167734698
 20
20.145556111
 30
0.0
  0
SEQEND
  5
79D
  8
0
  6
CONTINUOUS
 62
     7
  0
LINE
  5
37A
  8
0
  6
CONTINUOUS
 62
     7
 10
77.0610350893
 20
43.9805147835
 30
0.0
 11
78.7019323335
 21
43.159580011
 31
0.0
  0
LINE
  5
37B
  8
0
  6
CONTINUOUS
 62
     7
 10
80.0155143962
 20
39.9173928091
 30
0.0
 11
78.7019323335
 21
43.159580011
 31
0.0
  0
LINE
  5
37C
  8
0
  6
CONTINUOUS
 62
     7
 10
80.0155143962
 20
39.9173928091
 30
0.0
 11
81.4221802876
 21
39.6253896543
 31
0.0
  0
LINE
  5
37D
  8
0
  6
CONTINUOUS
 62
     7
 10
69.2462663875
 20
50.7976768204
 30
0.0
 11
69.5968832598
 21
49.5282617995
 31
0.0
  0
LINE
  5
37E
  8
0
  6
CONTINUOUS
 62
     7
 10
73.337287061
 20
47.7411133834
 30
0.0
 11
69.5968832598
 21
49.5282617995
 31
0.0
  0
ARC
  5
37F
  8
0
  6
CONTINUOUS
 62
     7
 10
82.785975793
 20
53.3732846639
 30
0.0
 40
10.9999578220008
 50
210.7983103667
 51
238.6374813542
  0
ARC
  5
380
  8
0
  6
CONTINUOUS
 62
     7
 10
-13.2139746405
 20
53.3733006505
 30
0.0
 40
10.99997987540907
 50
301.3625471149
 51
329.2016611642
  0
LINE
  5
381
  8
0
  6
CONTINUOUS
 62
     7
 10
-0.0248659625
 20
49.5282617995
 30
0.0
 11
-3.7652697637
 21
47.7411133834
 31
0.0
  0
LINE
  5
382
  8
0
  6
CONTINUOUS
 62
     7
 10
-0.0248659625
 20
49.5282617995
 30
0.0
 11
0.3257509098
 21
50.7976768204
 31
0.0
  0
ARC
  5
383
  8
0
  6
CONTINUOUS
 62
     7
 10
50.9293633875
 20
-41.2475235171
 30
0.0
 40
105.038300162203
 50
106.1626171524
 51
118.8006383164
  0
POLYLINE
  5
384
  8
0
  6
CONTINUOUS
 62
     7
 66
     1
 10
0.0
 20
0.0
 30
0.0
  0
VERTEX
  5
728
  8
0
  6
CONTINUOUS
 62
     7
 10
47.8815877587
 20
59.6391914078
 30
0.0
  0
VERTEX
  5
729
  8
0
  6
CONTINUOUS
 62
     7
 10
47.8532913849
 20
58.5255233237
 30
0.0
  0
VERTEX
  5
72A
  8
0
  6
CONTINUOUS
 62
     7
 10
48.0053689108
 20
56.6141662785
 30
0.0
  0
VERTEX
  5
72B
  8
0
  6
CONTINUOUS
 62
     7
 10
48.2514168844
 20
54.3389452287
 30
0.0
  0
VERTEX
  5
72C
  8
0
  6
CONTINUOUS
 62
     7
 10
48.5216568933
 20
51.5345839449
 30
0.0
  0
VERTEX
  5
72D
  8
0
  6
CONTINUOUS
 62
     7
 10
48.7271914036
 20
48.2771826574
 30
0.0
  0
VERTEX
  5
72E
  8
0
  6
CONTINUOUS
 62
     7
 10
48.8180698604
 20
44.8370074519
 30
0.0
  0
VERTEX
  5
72F
  8
0
  6
CONTINUOUS
 62
     7
 10
48.8188158498
 20
44.6208884605
 30
0.0
  0
SEQEND
  5
79C
  8
0
  6
CONTINUOUS
 62
     7
  0
POLYLINE
  5
385
  8
0
  6
CONTINUOUS
 62
     7
 66
     1
 10
0.0
 20
0.0
 30
0.0
  0
VERTEX
  5
730
  8
0
  6
CONTINUOUS
 62
     7
 10
48.7889883817
 20
37.18360715
 30
0.0
  0
VERTEX
  5
731
  8
0
  6
CONTINUOUS
 62
     7
 10
48.7860081495
 20
36.8345847019
 30
0.0
  0
VERTEX
  5
732
  8
0
  6
CONTINUOUS
 62
     7
 10
48.7470891104
 20
35.9736589381
 30
0.0
  0
VERTEX
  5
733
  8
0
  6
CONTINUOUS
 62
     7
 10
48.552207999
 20
35.4683084079
 30
0.0
  0
VERTEX
  5
734
  8
0
  6
CONTINUOUS
 62
     7
 10
48.176753685
 20
35.4725813159
 30
0.0
  0
VERTEX
  5
735
  8
0
  6
CONTINUOUS
 62
     7
 10
47.5892949627
 20
36.0087735244
 30
0.0
  0
VERTEX
  5
736
  8
0
  6
CONTINUOUS
 62
     7
 10
46.6544193924
 20
37.0397960433
 30
0.0
  0
VERTEX
  5
737
  8
0
  6
CONTINUOUS
 62
     7
 10
44.5766312779
 20
38.9997942039
 30
0.0
  0
VERTEX
  5
738
  8
0
  6
CONTINUOUS
 62
     7
 10
42.7857110054
 20
40.2550717482
 30
0.0
  0
VERTEX
  5
739
  8
0
  6
CONTINUOUS
 62
     7
 10
40.7777758092
 20
41.2865822801
 30
0.0
  0
VERTEX
  5
73A
  8
0
  6
CONTINUOUS
 62
     7
 10
38.5891444758
 20
42.0262088665
 30
0.0
  0
VERTEX
  5
73B
  8
0
  6
CONTINUOUS
 62
     7
 10
36.2928225669
 20
42.4343330451
 30
0.0
  0
VERTEX
  5
73C
  8
0
  6
CONTINUOUS
 62
     7
 10
33.9527557381
 20
42.4845052549
 30
0.0
  0
VERTEX
  5
73D
  8
0
  6
CONTINUOUS
 62
     7
 10
31.6365329792
 20
42.1809201726
 30
0.0
  0
VERTEX
  5
73E
  8
0
  6
CONTINUOUS
 62
     7
 10
29.4317220115
 20
41.5391942152
 30
0.0
  0
VERTEX
  5
73F
  8
0
  6
CONTINUOUS
 62
     7
 10
27.3739917912
 20
40.5973439702
 30
0.0
  0
VERTEX
  5
740
  8
0
  6
CONTINUOUS
 62
     7
 10
25.4889739455
 20
39.379114438
 30
0.0
  0
VERTEX
  5
741
  8
0
  6
CONTINUOUS
 62
     7
 10
23.8638086022
 20
38.0049926826
 30
0.0
  0
VERTEX
  5
742
  8
0
  6
CONTINUOUS
 62
     7
 10
22.5118085519
 20
36.5939942786
 30
0.0
  0
VERTEX
  5
743
  8
0
  6
CONTINUOUS
 62
     7
 10
21.7270454169
 20
35.7450751254
 30
0.0
  0
VERTEX
  5
744
  8
0
  6
CONTINUOUS
 62
     7
 10
21.262216732
 20
35.4111363777
 30
0.0
  0
VERTEX
  5
745
  8
0
  6
CONTINUOUS
 62
     7
 10
20.934218891
 20
35.5543477127
 30
0.0
  0
VERTEX
  5
746
  8
0
  6
CONTINUOUS
 62
     7
 10
20.8136712909
 20
36.080541242
 30
0.0
  0
VERTEX
  5
747
  8
0
  6
CONTINUOUS
 62
     7
 10
20.7987412588
 20
37.2405035087
 30
0.0
  0
SEQEND
  5
79B
  8
0
  6
CONTINUOUS
 62
     7
  0
POLYLINE
  5
386
  8
0
  6
CONTINUOUS
 62
     7
 66
     1
 10
0.0
 20
0.0
 30
0.0
  0
VERTEX
  5
748
  8
0
  6
CONTINUOUS
 62
     7
 10
20.8065708876
 20
45.0909828433
 30
0.0
  0
VERTEX
  5
749
  8
0
  6
CONTINUOUS
 62
     7
 10
20.8045201153
 20
46.2844503709
 30
0.0
  0
VERTEX
  5
74A
  8
0
  6
CONTINUOUS
 62
     7
 10
20.8933636323
 20
49.2784140297
 30
0.0
  0
VERTEX
  5
74B
  8
0
  6
CONTINUOUS
 62
     7
 10
21.1498247237
 20
52.6695308873
 30
0.0
  0
VERTEX
  5
74C
  8
0
  6
CONTINUOUS
 62
     7
 10
21.4433505908
 20
55.492563326
 30
0.0
  0
VERTEX
  5
74D
  8
0
  6
CONTINUOUS
 62
     7
 10
21.6651916281
 20
57.6558394023
 30
0.0
  0
VERTEX
  5
74E
  8
0
  6
CONTINUOUS
 62
     7
 10
21.7312065662
 20
58.87567826
 30
0.0
  0
VERTEX
  5
74F
  8
0
  6
CONTINUOUS
 62
     7
 10
21.6904295386
 20
59.6391914078
 30
0.0
  0
SEQEND
  5
79A
  8
0
  6
CONTINUOUS
 62
     7
  0
ARC
  5
387
  8
0
  6
CONTINUOUS
 62
     7
 10
19.2421385815
 20
-39.7989258558
 30
0.0
 40
103.4802261985843
 50
61.1038215329
 51
73.9329229983
  0
ARC
  5
388
  8
0
  6
CONTINUOUS
 62
     7
 10
50.3298787158
 20
6.5455507207
 30
0.0
 40
103.4802261985843
 50
241.1038215329
 51
253.9329229983
  0
LINE
  5
389
  8
0
  6
CONTINUOUS
 62
     7
 10
0.3257509098
 20
-84.0510519556
 30
0.0
 11
-0.0248659625
 21
-82.7816369346
 31
0.0
  0
LINE
  5
38A
  8
0
  6
CONTINUOUS
 62
     7
 10
-3.7652697637
 20
-80.9944885186
 30
0.0
 11
-0.0248659625
 21
-82.7816369346
 31
0.0
  0
ARC
  5
38B
  8
0
  6
CONTINUOUS
 62
     7
 10
-13.2139584957
 20
-86.626659799
 30
0.0
 40
10.9999578220008
 50
30.7983103667
 51
58.6374813542
  0
ARC
  5
38C
  8
0
  6
CONTINUOUS
 62
     7
 10
82.7859919378
 20
-86.6266757856
 30
0.0
 40
10.99997987540907
 50
121.3625471149
 51
149.2016611642
  0
LINE
  5
38D
  8
0
  6
CONTINUOUS
 62
     7
 10
69.5968832598
 20
-82.7816369346
 30
0.0
 11
73.337287061
 21
-80.9944885186
 31
0.0
  0
LINE
  5
38E
  8
0
  6
CONTINUOUS
 62
     7
 10
69.5968832598
 20
-82.7816369346
 30
0.0
 11
69.2462663875
 21
-84.0510519556
 31
0.0
  0
ARC
  5
38F
  8
0
  6
CONTINUOUS
 62
     7
 10
18.6426539098
 20
7.994148382
 30
0.0
 40
105.038300162203
 50
286.1626171524
 51
298.8006383164
  0
POLYLINE
  5
390
  8
0
  6
CONTINUOUS
 62
     7
 66
     1
 10
0.0
 20
0.0
 30
0.0
  0
VERTEX
  5
750
  8
0
  6
CONTINUOUS
 62
     7
 10
47.8815877587
 20
-92.892566543
 30
0.0
  0
VERTEX
  5
751
  8
0
  6
CONTINUOUS
 62
     7
 10
47.8532913849
 20
-91.7788984588
 30
0.0
  0
VERTEX
  5
752
  8
0
  6
CONTINUOUS
 62
     7
 10
48.0053689108
 20
-89.8675414136
 30
0.0
  0
VERTEX
  5
753
  8
0
  6
CONTINUOUS
 62
     7
 10
48.2514168844
 20
-87.5923203639
 30
0.0
  0
VERTEX
  5
754
  8
0
  6
CONTINUOUS
 62
     7
 10
48.5216568933
 20
-84.7879590801
 30
0.0
  0
VERTEX
  5
755
  8
0
  6
CONTINUOUS
 62
     7
 10
48.7271914036
 20
-81.5305577925
 30
0.0
  0
VERTEX
  5
756
  8
0
  6
CONTINUOUS
 62
     7
 10
48.8145559803
 20
-78.2234127036
 30
0.0
  0
SEQEND
  5
799
  8
0
  6
CONTINUOUS
 62
     7
  0
POLYLINE
  5
391
  8
0
  6
CONTINUOUS
 62
     7
 66
     1
 10
0.0
 20
0.0
 30
0.0
  0
VERTEX
  5
757
  8
0
  6
CONTINUOUS
 62
     7
 10
48.788469635
 20
-70.3762377015
 30
0.0
  0
VERTEX
  5
758
  8
0
  6
CONTINUOUS
 62
     7
 10
48.7860081495
 20
-70.0879598371
 30
0.0
  0
VERTEX
  5
759
  8
0
  6
CONTINUOUS
 62
     7
 10
48.7470891104
 20
-69.2270340732
 30
0.0
  0
VERTEX
  5
75A
  8
0
  6
CONTINUOUS
 62
     7
 10
48.552207999
 20
-68.7216835431
 30
0.0
  0
VERTEX
  5
75B
  8
0
  6
CONTINUOUS
 62
     7
 10
48.176753685
 20
-68.725956451
 30
0.0
  0
VERTEX
  5
75C
  8
0
  6
CONTINUOUS
 62
     7
 10
47.5892949627
 20
-69.2621486596
 30
0.0
  0
VERTEX
  5
75D
  8
0
  6
CONTINUOUS
 62
     7
 10
46.6544193924
 20
-70.2931711784
 30
0.0
  0
VERTEX
  5
75E
  8
0
  6
CONTINUOUS
 62
     7
 10
44.5766312779
 20
-72.253169339
 30
0.0
  0
VERTEX
  5
75F
  8
0
  6
CONTINUOUS
 62
     7
 10
42.7857110054
 20
-73.5084468833
 30
0.0
  0
VERTEX
  5
760
  8
0
  6
CONTINUOUS
 62
     7
 10
40.7777758092
 20
-74.5399574152
 30
0.0
  0
VERTEX
  5
761
  8
0
  6
CONTINUOUS
 62
     7
 10
38.5891444758
 20
-75.2795840016
 30
0.0
  0
VERTEX
  5
762
  8
0
  6
CONTINUOUS
 62
     7
 10
36.2928225669
 20
-75.6877081803
 30
0.0
  0
VERTEX
  5
763
  8
0
  6
CONTINUOUS
 62
     7
 10
33.9527557381
 20
-75.73788039
 30
0.0
  0
VERTEX
  5
764
  8
0
  6
CONTINUOUS
 62
     7
 10
31.6365329792
 20
-75.4342953077
 30
0.0
  0
VERTEX
  5
765
  8
0
  6
CONTINUOUS
 62
     7
 10
29.4317220115
 20
-74.7925693503
 30
0.0
  0
VERTEX
  5
766
  8
0
  6
CONTINUOUS
 62
     7
 10
27.3739917912
 20
-73.8507191053
 30
0.0
  0
VERTEX
  5
767
  8
0
  6
CONTINUOUS
 62
     7
 10
25.4889739455
 20
-72.6324895731
 30
0.0
  0
VERTEX
  5
768
  8
0
  6
CONTINUOUS
 62
     7
 10
23.8638086022
 20
-71.2583678177
 30
0.0
  0
VERTEX
  5
769
  8
0
  6
CONTINUOUS
 62
     7
 10
22.5118085519
 20
-69.8473694137
 30
0.0
  0
VERTEX
  5
76A
  8
0
  6
CONTINUOUS
 62
     7
 10
21.7270454169
 20
-68.9984502605
 30
0.0
  0
VERTEX
  5
76B
  8
0
  6
CONTINUOUS
 62
     7
 10
21.262216732
 20
-68.6645115129
 30
0.0
  0
VERTEX
  5
76C
  8
0
  6
CONTINUOUS
 62
     7
 10
20.934218891
 20
-68.8077228478
 30
0.0
  0
VERTEX
  5
76D
  8
0
  6
CONTINUOUS
 62
     7
 10
20.8136712909
 20
-69.3339163772
 30
0.0
  0
VERTEX
  5
76E
  8
0
  6
CONTINUOUS
 62
     7
 10
20.7982225121
 20
-70.5342235378
 30
0.0
  0
SEQEND
  5
798
  8
0
  6
CONTINUOUS
 62
     7
  0
POLYLINE
  5
392
  8
0
  6
CONTINUOUS
 62
     7
 66
     1
 10
0.0
 20
0.0
 30
0.0
  0
VERTEX
  5
76F
  8
0
  6
CONTINUOUS
 62
     7
 10
20.8071008102
 20
-78.036086481
 30
0.0
  0
VERTEX
  5
770
  8
0
  6
CONTINUOUS
 62
     7
 10
20.8045201153
 20
-79.5378255061
 30
0.0
  0
VERTEX
  5
771
  8
0
  6
CONTINUOUS
 62
     7
 10
20.8933636323
 20
-82.5317891649
 30
0.0
  0
VERTEX
  5
772
  8
0
  6
CONTINUOUS
 62
     7
 10
21.1498247237
 20
-85.9229060224
 30
0.0
  0
VERTEX
  5
773
  8
0
  6
CONTINUOUS
 62
     7
 10
21.4433505908
 20
-88.7459384612
 30
0.0
  0
VERTEX
  5
774
  8
0
  6
CONTINUOUS
 62
     7
 10
21.6651916281
 20
-90.9092145375
 30
0.0
  0
VERTEX
  5
775
  8
0
  6
CONTINUOUS
 62
     7
 10
21.7312065662
 20
-92.1290533951
 30
0.0
  0
VERTEX
  5
776
  8
0
  6
CONTINUOUS
 62
     7
 10
21.6904295386
 20
-92.892566543
 30
0.0
  0
SEQEND
  5
797
  8
0
  6
CONTINUOUS
 62
     7
  0
POLYLINE
  5
393
  8
0
  6
CONTINUOUS
 62
     7
 66
     1
 10
0.0
 20
0.0
 30
0.0
  0
VERTEX
  5
777
  8
0
  6
CONTINUOUS
 62
     7
 10
47.8815877587
 20
-92.892566543
 30
0.0
  0
VERTEX
  5
778
  8
0
  6
CONTINUOUS
 62
     7
 10
47.6223541201
 20
-93.602390807
 30
0.0
  0
VERTEX
  5
779
  8
0
  6
CONTINUOUS
 62
     7
 10
46.4806811661
 20
-95.9299521855
 30
0.0
  0
VERTEX
  5
77A
  8
0
  6
CONTINUOUS
 62
     7
 10
44.9285138176
 20
-98.0704369358
 30
0.0
  0
VERTEX
  5
77B
  8
0
  6
CONTINUOUS
 62
     7
 10
43.3304192276
 20
-99.6328236869
 30
0.0
  0
VERTEX
  5
77C
  8
0
  6
CONTINUOUS
 62
     7
 10
41.4642341212
 20
-100.9461002758
 30
0.0
  0
VERTEX
  5
77D
  8
0
  6
CONTINUOUS
 62
     7
 10
39.340393968
 20
-101.948099058
 30
0.0
  0
VERTEX
  5
77E
  8
0
  6
CONTINUOUS
 62
     7
 10
37.0384670106
 20
-102.571764808
 30
0.0
  0
VERTEX
  5
77F
  8
0
  6
CONTINUOUS
 62
     7
 10
34.9653792519
 20
-102.7641164473
 30
0.0
  0
VERTEX
  5
780
  8
0
  6
CONTINUOUS
 62
     7
 10
32.8865550701
 20
-102.6284637264
 30
0.0
  0
VERTEX
  5
781
  8
0
  6
CONTINUOUS
 62
     7
 10
29.2163997666
 20
-101.5272679142
 30
0.0
  0
VERTEX
  5
782
  8
0
  6
CONTINUOUS
 62
     7
 10
25.9756812603
 20
-99.4068401268
 30
0.0
  0
VERTEX
  5
783
  8
0
  6
CONTINUOUS
 62
     7
 10
24.489512086
 20
-97.8901701382
 30
0.0
  0
VERTEX
  5
784
  8
0
  6
CONTINUOUS
 62
     7
 10
23.2601178587
 20
-96.207285147
 30
0.0
  0
VERTEX
  5
785
  8
0
  6
CONTINUOUS
 62
     7
 10
21.6904295386
 20
-92.892566543
 30
0.0
  0
SEQEND
  5
796
  8
0
  6
CONTINUOUS
 62
     7
  0
POLYLINE
  5
394
  8
0
  6
CONTINUOUS
 62
     7
 66
     1
 10
0.0
 20
0.0
 30
0.0
  0
VERTEX
  5
786
  8
0
  6
CONTINUOUS
 62
     7
 10
47.8815877587
 20
59.6391914078
 30
0.0
  0
VERTEX
  5
787
  8
0
  6
CONTINUOUS
 62
     7
 10
47.6223541201
 20
60.3490156719
 30
0.0
  0
VERTEX
  5
788
  8
0
  6
CONTINUOUS
 62
     7
 10
46.4806811661
 20
62.6765770504
 30
0.0
  0
VERTEX
  5
789
  8
0
  6
CONTINUOUS
 62
     7
 10
44.9285138176
 20
64.8170618006
 30
0.0
  0
VERTEX
  5
78A
  8
0
  6
CONTINUOUS
 62
     7
 10
43.3304192276
 20
66.3794485518
 30
0.0
  0
VERTEX
  5
78B
  8
0
  6
CONTINUOUS
 62
     7
 10
41.4642341212
 20
67.6927251407
 30
0.0
  0
VERTEX
  5
78C
  8
0
  6
CONTINUOUS
 62
     7
 10
39.340393968
 20
68.6947239229
 30
0.0
  0
VERTEX
  5
78D
  8
0
  6
CONTINUOUS
 62
     7
 10
37.0384670106
 20
69.3183896729
 30
0.0
  0
VERTEX
  5
78E
  8
0
  6
CONTINUOUS
 62
     7
 10
34.9653792519
 20
69.5107413122
 30
0.0
  0
VERTEX
  5
78F
  8
0
  6
CONTINUOUS
 62
     7
 10
32.8865550701
 20
69.3750885912
 30
0.0
  0
VERTEX
  5
790
  8
0
  6
CONTINUOUS
 62
     7
 10
29.2163997666
 20
68.273892779
 30
0.0
  0
VERTEX
  5
791
  8
0
  6
CONTINUOUS
 62
     7
 10
25.9756812603
 20
66.1534649917
 30
0.0
  0
VERTEX
  5
792
  8
0
  6
CONTINUOUS
 62
     7
 10
24.489512086
 20
64.6367950031
 30
0.0
  0
VERTEX
  5
793
  8
0
  6
CONTINUOUS
 62
     7
 10
23.2601178587
 20
62.9539100119
 30
0.0
  0
VERTEX
  5
794
  8
0
  6
CONTINUOUS
 62
     7
 10
21.6904295386
 20
59.6391914078
 30
0.0
  0
SEQEND
  5
795
  8
0
  6
CONTINUOUS
 62
     7
  0
ARC
  5
395
  8
0
  6
CONTINUOUS
 62
     7
 10
-13.344666186
 20
53.4144775984
 30
0.0
 40
13.86984088345644
 50
180.7908998932
 51
276.1857447905
  0
ARC
  5
396
  8
0
  6
CONTINUOUS
 62
     7
 10
-23.3508483695
 20
-16.6264642578
 30
0.0
 40
13.86636933947421
 50
86.5483870579
 51
167.3732375341
  0
ARC
  5
397
  8
0
  6
CONTINUOUS
 62
     7
 10
219.7860086486
 20
-16.6266875676
 30
0.0
 40
256.6857689411698
 50
164.2094531554
 51
179.3233345952
  0
ARC
  5
398
  8
0
  6
CONTINUOUS
 62
     7
 10
82.9200655955
 20
-86.6640315207
 30
0.0
 40
13.86640686148534
 50
0.7753051045
 51
96.2013395792
  0
ARC
  5
399
  8
0
  6
CONTINUOUS
 62
     7
 10
92.9228656668
 20
-16.6269108773
 30
0.0
 40
13.86636933947421
 50
266.5483870579
 51
347.3732375341
  0
ARC
  5
39A
  8
0
  6
CONTINUOUS
 62
     7
 10
-150.2139913514
 20
-16.6266875676
 30
0.0
 40
256.6857689411698
 50
344.2094531554
 51
359.3233345952
  0
ARC
  5
39B
  8
0
  6
CONTINUOUS
 62
     7
 10
82.7860086486
 20
-86.6266875676
 30
0.0
 40
13.73817402607673
 50
0.7717897517
 51
101.6342642106
  0
ARC
  5
39C
  8
0
  6
CONTINUOUS
 62
     7
 10
-150.2139913514
 20
-16.6266875676
 30
0.0
 40
256.4239429672464
 50
342.6948154552
 51
344.2009813127
  0
ARC
  5
39D
  8
0
  6
CONTINUOUS
 62
     7
 10
80.8316092837
 20
-88.6123140994
 30
0.0
 40
14.4239429672465
 50
335.1401954838
 51
342.6948154552
  0
ARC
  5
39E
  8
0
  6
CONTINUOUS
 62
     7
 10
82.7860086486
 20
-86.6266875676
 30
0.0
 40
13.73817402607673
 50
163.7469085401
 51
324.1321322885
  0
LINE
  5
39F
  8
0
  6
CONTINUOUS
 62
     7
 10
-24.3469994738
 20
61.4227560946
 30
0.0
 11
-24.5739441588
 21
61.5557042548
 31
0.0
  0
ARC
  5
3A0
  8
0
  6
CONTINUOUS
 62
     7
 10
-13.2372807325
 20
53.3571600797
 30
0.0
 40
13.99057054705081
 50
93.8037989759
 51
144.1259801733
  0
ARC
  5
3A1
  8
0
  6
CONTINUOUS
 62
     7
 10
-13.2463512695
 20
53.5074817333
 30
0.0
 40
13.83997833206034
 50
348.7088041561
 51
93.8076150797
  0
ARC
  5
3A2
  8
0
  6
CONTINUOUS
 62
     7
 10
-13.2139913514
 20
53.3733124324
 30
0.0
 40
13.73817402607673
 50
343.7469085401
 51
144.1321322885
  0
ARC
  5
3A3
  8
0
  6
CONTINUOUS
 62
     7
 10
82.7860086486
 20
53.3733124324
 30
0.0
 40
13.73817402607673
 50
35.8678677115
 51
196.2530914599
  0
ARC
  5
3A4
  8
0
  6
CONTINUOUS
 62
     7
 10
80.8316092837
 20
55.3589389643
 30
0.0
 40
14.42394296724651
 50
17.3051845448
 51
24.8598045162
  0
ARC
  5
3A5
  8
0
  6
CONTINUOUS
 62
     7
 10
-150.2139913514
 20
-16.6266875676
 30
0.0
 40
256.4239429672465
 50
15.7990186873
 51
17.3051845448
  0
ARC
  5
3A6
  8
0
  6
CONTINUOUS
 62
     7
 10
82.7860086486
 20
53.3733124324
 30
0.0
 40
13.73817402609172
 50
258.3657180272
 51
359.2282102483
  0
ARC
  5
3A7
  8
0
  6
CONTINUOUS
 62
     7
 10
-13.2139913514
 20
53.3733124324
 30
0.0
 40
13.73817402607675
 50
180.7717897517
 51
281.6342642106
  0
ARC
  5
3A8
  8
0
  6
CONTINUOUS
 62
     7
 10
219.7860086486
 20
-16.6266875676
 30
0.0
 40
256.4239429672464
 50
162.6948154552
 51
164.2009813127
  0
ARC
  5
3A9
  8
0
  6
CONTINUOUS
 62
     7
 10
-11.2595919864
 20
55.3589389643
 30
0.0
 40
14.42394296724651
 50
155.1401954838
 51
162.6948154552
  0
ARC
  5
3AA
  8
0
  6
CONTINUOUS
 62
     7
 10
82.8092617464
 20
53.357094528
 30
0.0
 40
13.99063836139945
 50
35.8741502813
 51
86.1960705695
  0
LINE
  5
3AB
  8
0
  6
CONTINUOUS
 62
     7
 10
93.9190167711
 20
61.4227560946
 30
0.0
 11
94.1459614561
 21
61.5557042548
 31
0.0
  0
ARC
  5
3AC
  8
0
  6
CONTINUOUS
 62
     7
 10
82.8203010533
 20
53.5057864982
 30
0.0
 40
13.84154164590886
 50
86.2008326041
 51
191.2827481601
  0
LINE
  5
3AD
  8
0
  6
CONTINUOUS
 62
     7
 10
96.5229350851
 20
53.1882626602
 30
0.0
 11
96.7852029727
 21
53.2230270692
 31
0.0
  0
ARC
  5
3AE
  8
0
  6
CONTINUOUS
 62
     7
 10
-150.2139913514
 20
-16.6266875676
 30
0.0
 40
256.6857689411698
 50
15.7905468446
 51
17.3051845448
  0
LINE
  5
3AF
  8
0
  6
CONTINUOUS
 62
     7
 10
-26.9509177878
 20
53.1882626602
 30
0.0
 11
-27.2131856754
 21
53.2230270692
 31
0.0
  0
ARC
  5
3B0
  8
0
  6
CONTINUOUS
 62
     7
 10
219.7860086486
 20
-16.6266875676
 30
0.0
 40
256.6857689411698
 50
162.6948154552
 51
164.2094531554
  0
ARC
  5
3B1
  8
0
  6
CONTINUOUS
 62
     7
 10
80.8316092837
 20
55.3589389643
 30
0.0
 40
14.68576894116976
 50
17.3051845448
 51
24.9582062073
  0
ARC
  5
3B2
  8
0
  6
CONTINUOUS
 62
     7
 10
-11.2595919864
 20
55.3589389643
 30
0.0
 40
14.68576894116977
 50
155.0417937927
 51
162.6948154552
  0
ARC
  5
3B3
  8
0
  6
CONTINUOUS
 62
     7
 10
82.9200663912
 20
53.4106554866
 30
0.0
 40
13.86640605373356
 50
263.7986567511
 51
359.2246985651
  0
ARC
  5
3B4
  8
0
  6
CONTINUOUS
 62
     7
 10
92.7860086486
 20
-16.6266875676
 30
0.0
 40
13.73817402609944
 50
12.6178335451
 51
93.4749194968
  0
ARC
  5
3B5
  8
0
  6
CONTINUOUS
 62
     7
 10
-150.2139913514
 20
-16.6266875676
 30
0.0
 40
256.4239429672465
 50
359.3294223886
 51
0.6705776114
  0
ARC
  5
3B6
  8
0
  6
CONTINUOUS
 62
     7
 10
92.7860086486
 20
-16.6266875676
 30
0.0
 40
13.73817402607675
 50
266.5250805032
 51
347.3821664549
  0
LINE
  5
3B7
  8
0
  6
CONTINUOUS
 62
     7
 10
-36.6203706934
 20
-13.6256249024
 30
0.0
 11
-36.8818562701
 21
-13.5952889322
 31
0.0
  0
ARC
  5
3B8
  8
0
  6
CONTINUOUS
 62
     7
 10
-23.2139913514
 20
-16.6266875676
 30
0.0
 40
13.73817402607674
 50
86.5250805032
 51
167.3821664549
  0
LINE
  5
3B9
  8
0
  6
CONTINUOUS
 62
     7
 10
106.1923879907
 20
-13.6256249024
 30
0.0
 11
106.4538735674
 21
-13.5952889322
 31
0.0
  0
ARC
  5
3BA
  8
0
  6
CONTINUOUS
 62
     7
 10
92.9245561004
 20
-16.6242177815
 30
0.0
 40
13.86422883162906
 50
12.6192302552
 51
93.4591451528
  0
ARC
  5
3BB
  8
0
  6
CONTINUOUS
 62
     7
 10
-23.2139913514
 20
-16.6266875676
 30
0.0
 40
13.73817402609935
 50
192.6178335451
 51
273.4749194968
  0
ARC
  5
3BC
  8
0
  6
CONTINUOUS
 62
     7
 10
219.7860086486
 20
-16.6266875676
 30
0.0
 40
256.4239429672465
 50
179.3294223886
 51
180.6705776114
  0
LINE
  5
3BD
  8
0
  6
CONTINUOUS
 62
     7
 10
-36.6203706934
 20
-19.6277502327
 30
0.0
 11
-36.8818562701
 21
-19.6580862029
 31
0.0
  0
ARC
  5
3BE
  8
0
  6
CONTINUOUS
 62
     7
 10
219.7860086486
 20
-16.6266875676
 30
0.0
 40
256.6857689411697
 50
179.3233345952
 51
180.6766654048
  0
LINE
  5
3BF
  8
0
  6
CONTINUOUS
 62
     7
 10
106.1923879907
 20
-19.6277502327
 30
0.0
 11
106.4538735674
 21
-19.6580862029
 31
0.0
  0
ARC
  5
3C0
  8
0
  6
CONTINUOUS
 62
     7
 10
-150.2139913514
 20
-16.6266875676
 30
0.0
 40
256.6857689411697
 50
359.3233345952
 51
0.6766654048
  0
ARC
  5
3C1
  8
0
  6
CONTINUOUS
 62
     7
 10
-23.3525388031
 20
-16.6291573536
 30
0.0
 40
13.86422883162906
 50
192.6192302552
 51
273.4591451528
  0
LINE
  5
3C2
  8
0
  6
CONTINUOUS
 62
     7
 10
96.5229350851
 20
-86.4416377953
 30
0.0
 11
96.7852029727
 21
-86.4764022044
 31
0.0
  0
ARC
  5
3C3
  8
0
  6
CONTINUOUS
 62
     7
 10
-13.2139913514
 20
-86.6266875676
 30
0.0
 40
13.73817402607675
 50
215.8678677115
 51
16.2530914599
  0
ARC
  5
3C4
  8
0
  6
CONTINUOUS
 62
     7
 10
-11.2595919864
 20
-88.6123140994
 30
0.0
 40
14.42394296724651
 50
197.3051845448
 51
204.8598045162
  0
ARC
  5
3C5
  8
0
  6
CONTINUOUS
 62
     7
 10
219.7860086486
 20
-16.6266875676
 30
0.0
 40
256.4239429672465
 50
195.7990186873
 51
197.3051845448
  0
ARC
  5
3C6
  8
0
  6
CONTINUOUS
 62
     7
 10
-13.2139913514
 20
-86.6266875676
 30
0.0
 40
13.73817402607673
 50
78.3657180271
 51
179.2282102483
  0
LINE
  5
3C7
  8
0
  6
CONTINUOUS
 62
     7
 10
-26.9509177878
 20
-86.4416377953
 30
0.0
 11
-27.2131856754
 21
-86.4764022044
 31
0.0
  0
ARC
  5
3C8
  8
0
  6
CONTINUOUS
 62
     7
 10
-13.3480490939
 20
-86.6640306218
 30
0.0
 40
13.86640605373356
 50
83.7986567511
 51
179.2246985651
  0
ARC
  5
3C9
  8
0
  6
CONTINUOUS
 62
     7
 10
-13.2372444491
 20
-86.6104696632
 30
0.0
 40
13.99063836139945
 50
215.8741502813
 51
266.1960705695
  0
LINE
  5
3CA
  8
0
  6
CONTINUOUS
 62
     7
 10
-24.3469994738
 20
-94.6761312297
 30
0.0
 11
-24.5739441588
 21
-94.8090793899
 31
0.0
  0
ARC
  5
3CB
  8
0
  6
CONTINUOUS
 62
     7
 10
-13.248283756
 20
-86.7591616333
 30
0.0
 40
13.84154164590885
 50
266.2008326041
 51
11.2827481601
  0
LINE
  5
3CC
  8
0
  6
CONTINUOUS
 62
     7
 10
93.9190167711
 20
-94.6761312297
 30
0.0
 11
94.1459614561
 21
-94.8090793899
 31
0.0
  0
ARC
  5
3CD
  8
0
  6
CONTINUOUS
 62
     7
 10
82.8092617464
 20
-86.6104696632
 30
0.0
 40
13.99063836139944
 50
273.8039294305
 51
324.1258497187
  0
ARC
  5
3CE
  8
0
  6
CONTINUOUS
 62
     7
 10
82.8204396638
 20
-86.75904004
 30
0.0
 40
13.84165378849897
 50
168.7178576893
 51
273.7985615465
  0
ARC
  5
3CF
  8
0
  6
CONTINUOUS
 62
     7
 10
219.7860086486
 20
-16.6266875676
 30
0.0
 40
256.6857689411698
 50
195.7905468446
 51
197.3051845448
  0
ARC
  5
3D0
  8
0
  6
CONTINUOUS
 62
     7
 10
-150.2139913514
 20
-16.6266875676
 30
0.0
 40
256.6857689411698
 50
342.6948154552
 51
344.2094531554
  0
ARC
  5
3D1
  8
0
  6
CONTINUOUS
 62
     7
 10
-11.2595919864
 20
-88.6123140994
 30
0.0
 40
14.68576894116977
 50
197.3051845448
 51
204.9582062073
  0
ARC
  5
3D2
  8
0
  6
CONTINUOUS
 62
     7
 10
80.8316092837
 20
-88.6123140994
 30
0.0
 40
14.68576894116977
 50
335.0417937927
 51
342.6948154552
  0
ARC
  5
3D3
  8
0
  6
CONTINUOUS
 62
     7
 10
34.7860086486
 20
-134.1266875676
 30
0.0
 40
209.6857689411698
 50
76.3416824532
 51
103.6583175468
  0
ARC
  5
3D4
  8
0
  6
CONTINUOUS
 62
     7
 10
34.7860086486
 20
100.8733124324
 30
0.0
 40
209.6857689411698
 50
256.3416824532
 51
283.6583175468
  0
ARC
  5
3D5
  8
0
  6
CONTINUOUS
 62
     7
 10
219.7860086486
 20
-16.6266875676
 30
0.0
 40
256.6857689411697
 50
180.6766654048
 51
195.7905468446
  0
ARC
  5
3D6
  8
0
  6
CONTINUOUS
 62
     7
 10
-150.2139913514
 20
-16.6266875676
 30
0.0
 40
256.6857689411698
 50
0.6766654048
 51
15.7905468446
  0
ARC
  5
3D7
  8
0
  6
CONTINUOUS
 62
     7
 10
-11.2595919864
 20
55.3589389643
 30
0.0
 40
14.68576894116981
 50
103.6583175468
 51
155.0417937927
  0
ARC
  5
3D8
  8
0
  6
CONTINUOUS
 62
     7
 10
80.8316092837
 20
55.3589389643
 30
0.0
 40
14.68576894116976
 50
24.9582062073
 51
76.3416824532
  0
ARC
  5
3D9
  8
0
  6
CONTINUOUS
 62
     7
 10
-11.2595919864
 20
-88.6123140994
 30
0.0
 40
14.68576894116979
 50
204.9582062073
 51
256.3416824532
  0
ARC
  5
3DA
  8
0
  6
CONTINUOUS
 62
     7
 10
80.8316092837
 20
-88.6123140994
 30
0.0
 40
14.68576894116978
 50
283.6583175468
 51
335.0417937927
  0
ARC
  5
3DB
  8
0
  6
CONTINUOUS
 62
     7
 10
34.7860086486
 20
-134.1266875676
 30
0.0
 40
210.0
 50
76.3416824532
 51
103.6583175468
  0
ARC
  5
3DC
  8
0
  6
CONTINUOUS
 62
     7
 10
80.8316092837
 20
55.3589389643
 30
0.0
 40
15.00000000000003
 50
17.3051845448
 51
76.3416824532
  0
ARC
  5
3DD
  8
0
  6
CONTINUOUS
 62
     7
 10
-11.2595919864
 20
55.3589389643
 30
0.0
 40
15.00000000000004
 50
103.6583175468
 51
162.6948154552
  0
ARC
  5
3DE
  8
0
  6
CONTINUOUS
 62
     7
 10
219.7860086486
 20
-16.6266875676
 30
0.0
 40
257.0
 50
196.6362570991
 51
197.3051845448
  0
ARC
  5
3DF
  8
0
  6
CONTINUOUS
 62
     7
 10
219.7860086486
 20
-16.6266875676
 30
0.0
 40
257.0000000000001
 50
163.3637429009
 51
196.6362570991
  0
ARC
  5
3E0
  8
0
  6
CONTINUOUS
 62
     7
 10
219.7860086486
 20
-16.6266875676
 30
0.0
 40
257.0
 50
162.6948154552
 51
163.3637429009
  0
ARC
  5
3E1
  8
0
  6
CONTINUOUS
 62
     7
 10
-150.2139913514
 20
-16.6266875676
 30
0.0
 40
257.0000000000001
 50
16.6362570991
 51
17.3051845448
  0
ARC
  5
3E2
  8
0
  6
CONTINUOUS
 62
     7
 10
-150.2139913514
 20
-16.6266875676
 30
0.0
 40
257.0
 50
343.3637429009
 51
16.6362570991
  0
ARC
  5
3E3
  8
0
  6
CONTINUOUS
 62
     7
 10
-150.2139913514
 20
-16.6266875676
 30
0.0
 40
257.0
 50
342.6948154552
 51
343.3637429009
  0
ARC
  5
3E4
  8
0
  6
CONTINUOUS
 62
     7
 10
-11.2595919864
 20
-88.6123140994
 30
0.0
 40
15.00000000000002
 50
197.3051845448
 51
256.3416824532
  0
ARC
  5
3E5
  8
0
  6
CONTINUOUS
 62
     7
 10
80.8316092837
 20
-88.6123140994
 30
0.0
 40
14.99999999999999
 50
283.6583175468
 51
342.6948154552
  0
ARC
  5
3E6
  8
0
  6
CONTINUOUS
 62
     7
 10
34.7860086486
 20
100.8733124324
 30
0.0
 40
210.0
 50
256.3416824532
 51
283.6583175468
  0
LINE
  5
3E7
  8
0
  6
CONTINUOUS
 62
     7
 10
-54.7139939144
 20
94.6733114907
 30
0.0
 11
-54.7139939144
 21
-11.6266876793
 31
0.0
  0
LINE
  5
3E8
  8
0
  6
CONTINUOUS
 62
     7
 10
-54.7139939144
 20
-21.6266874558
 30
0.0
 11
-54.7139939144
 21
-127.9266866258
 31
0.0
  0
LINE
  5
3E9
  8
0
  6
CONTINUOUS
 62
     7
 10
124.2860112116
 20
94.6733114907
 30
0.0
 11
124.2860112116
 21
-11.6266876793
 31
0.0
  0
LINE
  5
3EA
  8
0
  6
CONTINUOUS
 62
     7
 10
124.2860112116
 20
-21.6266874558
 30
0.0
 11
124.2860112116
 21
-127.9266866258
 31
0.0
  0
LINE
  5
3EB
  8
0
  6
CONTINUOUS
 62
     7
 10
106.7373681591
 20
-21.6266874558
 30
0.0
 11
127.2860098407
 21
-21.6266874558
 31
0.0
  0
LINE
  5
3EC
  8
0
  6
CONTINUOUS
 62
     7
 10
106.7373681591
 20
-11.6266876793
 30
0.0
 11
127.2860098407
 21
-11.6266876793
 31
0.0
  0
LINE
  5
3ED
  8
0
  6
CONTINUOUS
 62
     7
 10
-37.1653508618
 20
-21.6266874558
 30
0.0
 11
-57.7139925434
 21
-21.6266874558
 31
0.0
  0
LINE
  5
3EE
  8
0
  6
CONTINUOUS
 62
     7
 10
-37.1653508618
 20
-11.6266876793
 30
0.0
 11
-57.7139925434
 21
-11.6266876793
 31
0.0
  0
LINE
  5
3EF
  8
0
  6
CONTINUOUS
 62
     7
 10
149.2860097215
 20
94.6733114907
 30
0.0
 11
149.2860097215
 21
-127.9266493729
 31
0.0
  0
LINE
  5
3F0
  8
0
  6
CONTINUOUS
 62
     7
 10
-79.7139924242
 20
94.6733114907
 30
0.0
 11
-79.7139924242
 21
-127.9266493729
 31
0.0
  0
LINE
  5
3F1
  8
0
  6
CONTINUOUS
 62
     8
 10
47.2727579773
 20
33.5454923698
 30
0.0
 11
47.7203218044
 21
33.7308814415
 31
0.0
  0
LINE
  5
3F2
  8
0
  6
CONTINUOUS
 62
     8
 10
22.29925932
 20
33.5454923698
 30
0.0
 11
21.8516954929
 21
33.7308814415
 31
0.0
  0
LINE
  5
3F3
  8
0
  6
CONTINUOUS
 62
     8
 10
47.2727579773
 20
-66.7988675049
 30
0.0
 11
47.7203218044
 21
-66.9842565766
 31
0.0
  0
LINE
  5
3F4
  8
0
  6
CONTINUOUS
 62
     8
 10
22.29925932
 20
-66.7988675049
 30
0.0
 11
21.8516954929
 21
-66.9842565766
 31
0.0
  0
LINE
  5
3F5
  8
0
  6
CONTINUOUS
 62
     8
 10
-10.6977705135
 20
0.1479742714
 30
0.0
 11
-10.6977705135
 21
-9.7545751705
 31
0.0
  0
LINE
  5
3F6
  8
0
  6
CONTINUOUS
 62
     8
 10
-10.6977705135
 20
-23.4987999647
 30
0.0
 11
-10.6977705135
 21
-33.4013494066
 31
0.0
  0
LINE
  5
3F7
  8
0
  6
CONTINUOUS
 62
     8
 10
80.2697878108
 20
0.1479742714
 30
0.0
 11
80.2697878108
 21
-9.7545751705
 31
0.0
  0
LINE
  5
3F8
  8
0
  6
CONTINUOUS
 62
     8
 10
80.2697878108
 20
-23.4987999647
 30
0.0
 11
80.2697878108
 21
-33.4013494066
 31
0.0
  0
LINE
  5
3F9
  8
0
  6
CONTINUOUS
 62
     8
 10
90.011161171
 20
-0.4472954533
 30
0.0
 11
90.011161171
 21
-5.1071809939
 31
0.0
  0
LINE
  5
3FA
  8
0
  6
CONTINUOUS
 62
     8
 10
90.011161171
 20
-28.1461941412
 30
0.0
 11
90.011161171
 21
-32.8060796818
 31
0.0
  0
LINE
  5
3FB
  8
0
  6
CONTINUOUS
 62
     8
 10
-20.4391438737
 20
-28.1461941412
 30
0.0
 11
-20.4391438737
 21
-32.8060796818
 31
0.0
  0
LINE
  5
3FC
  8
0
  6
CONTINUOUS
 62
     8
 10
-20.4391438737
 20
-0.4472954533
 30
0.0
 11
-20.4391438737
 21
-5.1071809939
 31
0.0
  0
LINE
  5
3FD
  8
0
  6
CONTINUOUS
 62
     8
 10
94.6026373432
 20
59.6495030114
 30
0.0
 11
94.8526117728
 21
59.7273839304
 31
0.0
  0
LINE
  5
3FE
  8
0
  6
CONTINUOUS
 62
     8
 10
-25.0306200459
 20
59.6495030114
 30
0.0
 11
-25.2805944755
 21
59.7273839304
 31
0.0
  0
LINE
  5
3FF
  8
0
  6
CONTINUOUS
 62
     8
 10
-25.0306200459
 20
-92.9028781465
 30
0.0
 11
-25.2805944755
 21
-92.9807590655
 31
0.0
  0
LINE
  5
400
  8
0
  6
CONTINUOUS
 62
     8
 10
94.6026373432
 20
-92.9028781465
 30
0.0
 11
94.8526117728
 21
-92.9807590655
 31
0.0
  0
LINE
  5
401
  8
0
  6
CONTINUOUS
 62
     8
 10
-14.1654160097
 20
67.3169104048
 30
0.0
 11
-14.72736115
 21
69.6294141599
 31
0.0
  0
LINE
  5
402
  8
0
  6
CONTINUOUS
 62
     8
 10
83.7374333069
 20
67.3169104048
 30
0.0
 11
84.2993784473
 21
69.6294141599
 31
0.0
  0
LINE
  5
403
  8
0
  6
CONTINUOUS
 62
     8
 10
83.7374333069
 20
-100.57028554
 30
0.0
 11
84.2993784473
 21
-102.8827892951
 31
0.0
  0
LINE
  5
404
  8
0
  6
CONTINUOUS
 62
     8
 10
-14.1654160097
 20
-100.57028554
 30
0.0
 11
-14.72736115
 21
-102.8827892951
 31
0.0
  0
LINE
  5
405
  8
0
  6
CONTINUOUS
 62
     8
 10
84.2993784473
 20
69.6294141599
 30
0.0
 11
84.3735787795
 21
69.9347538539
 31
0.0
  0
LINE
  5
406
  8
0
  6
CONTINUOUS
 62
     8
 10
-14.72736115
 20
69.6294141599
 30
0.0
 11
-14.8015614822
 21
69.9347538539
 31
0.0
  0
LINE
  5
407
  8
0
  6
CONTINUOUS
 62
     8
 10
94.8526117728
 20
59.7273839304
 30
0.0
 11
95.1526168511
 21
59.8208589145
 31
0.0
  0
LINE
  5
408
  8
0
  6
CONTINUOUS
 62
     8
 10
-25.2805944755
 20
59.7273839304
 30
0.0
 11
-25.5805995538
 21
59.8208589145
 31
0.0
  0
LINE
  5
409
  8
0
  6
CONTINUOUS
 62
     8
 10
-25.2805944755
 20
-92.9807590655
 30
0.0
 11
-25.5805995538
 21
-93.0742340497
 31
0.0
  0
LINE
  5
40A
  8
0
  6
CONTINUOUS
 62
     8
 10
94.8526117728
 20
-92.9807590655
 30
0.0
 11
95.1526168511
 21
-93.0742340497
 31
0.0
  0
LINE
  5
40B
  8
0
  6
CONTINUOUS
 62
     8
 10
-14.72736115
 20
-102.8827892951
 30
0.0
 11
-14.8015614822
 21
-103.1881289891
 31
0.0
  0
LINE
  5
40C
  8
0
  6
CONTINUOUS
 62
     8
 10
84.2993784473
 20
-102.8827892951
 30
0.0
 11
84.3735787795
 21
-103.1881289891
 31
0.0
  0
LINE
  5
40D
  8
0
  6
CONTINUOUS
 62
     8
 10
-57.7139925434
 20
97.6733101198
 30
0.0
 11
-57.7139925434
 21
-11.6266876793
 31
0.0
  0
LINE
  5
40E
  8
0
  6
CONTINUOUS
 62
     8
 10
-57.7139925434
 20
-21.6266874558
 30
0.0
 11
-57.7139925434
 21
-130.9266852549
 31
0.0
  0
LINE
  5
40F
  8
0
  6
CONTINUOUS
 62
     8
 10
127.2860098407
 20
97.6733101198
 30
0.0
 11
127.2860098407
 21
-11.6266876793
 31
0.0
  0
LINE
  5
410
  8
0
  6
CONTINUOUS
 62
     8
 10
127.2860098407
 20
-21.6266874558
 30
0.0
 11
127.2860098407
 21
-130.9266852549
 31
0.0
  0
LINE
  5
411
  8
0
  6
CONTINUOUS
 62
     8
 10
146.2860110924
 20
97.6733101198
 30
0.0
 11
146.2860110924
 21
-130.9266852549
 31
0.0
  0
LINE
  5
412
  8
0
  6
CONTINUOUS
 62
     8
 10
-76.7139937951
 20
97.6733101198
 30
0.0
 11
-76.7139937951
 21
-130.9266852549
 31
0.0
  0
LINE
  5
413
  8
0
  6
CONTINUOUS
 62
     8
 10
117.8124774025
 20
-21.6266874558
 30
0.0
 11
117.8124774025
 21
-83.368362706
 31
0.0
  0
LINE
  5
414
  8
0
  6
CONTINUOUS
 62
     8
 10
117.8124774025
 20
50.1149875709
 30
0.0
 11
117.8124774025
 21
-11.6266876793
 31
0.0
  0
LINE
  5
415
  8
0
  6
CONTINUOUS
 62
     8
 10
-48.2404601052
 20
50.1149875709
 30
0.0
 11
-48.2404601052
 21
-11.6266876793
 31
0.0
  0
LINE
  5
416
  8
0
  6
CONTINUOUS
 62
     8
 10
-48.2404601052
 20
-21.6266874558
 30
0.0
 11
-48.2404601052
 21
-83.368362706
 31
0.0
  0
LINE
  5
417
  8
FORMAT
  6
CENTERX2
 10
34.7860086486
 20
-118.7542917973
 30
0.0
 11
34.7860086486
 21
84.2904567588
 31
0.0
  0
LINE
  5
418
  8
FORMAT
  6
CENTERX2
 10
-86.1574665531
 20
-16.6266875676
 30
0.0
 11
157.235917934
 21
-16.6266875676
 31
0.0
  0
ENDSEC
  0
EOF
