  0
SECTION
  2
HEADER
  9
$ACADVER
  1
AC1015
  9
$ACADMAINTVER
 70
     6
  9
$DWGCODEPAGE
  3
ANSI_1252
  9
$INSBASE
 10
0.0
 20
0.0
 30
0.0
  9
$EXTMIN
 10
0.0
 20
0.0
 30
0.0
  9
$EXTMAX
 10
431.8
 20
279.4
 30
0.0
  9
$LIMMIN
 10
0.0
 20
0.0
  9
$LIMMAX
 10
431.8
 20
279.4
  9
$ORTHOMODE
 70
     0
  9
$REGENMODE
 70
     1
  9
$FILLMODE
 70
     1
  9
$QTEXTMODE
 70
     0
  9
$MIRRTEXT
 70
     1
  9
$LTSCALE
 40
1.0
  9
$ATTMODE
 70
     1
  9
$TEXTSIZE
 40
2.5
  9
$TRACEWID
 40
1.0
  9
$TEXTSTYLE
  7
Standard
  9
$CLAYER
  8
0
  9
$CELTYPE
  6
ByLayer
  9
$CECOLOR
 62
   256
  9
$CELTSCALE
 40
1.0
  9
$DISPSILH
 70
     0
  9
$DIMSCALE
 40
1.0
  9
$DIMASZ
 40
2.5
  9
$DIMEXO
 40
1.0
  9
$DIMDLI
 40
3.75
  9
$DIMRND
 40
0.0
  9
$DIMDLE
 40
0.0
  9
$DIMEXE
 40
1.0
  9
$DIMTP
 40
0.0
  9
$DIMTM
 40
0.0
  9
$DIMTXT
 40
2.5
  9
$DIMCEN
 40
2.5
  9
$DIMTSZ
 40
0.0
  9
$DIMTOL
 70
     0
  9
$DIMLIM
 70
     0
  9
$DIMTIH
 70
     1
  9
$DIMTOH
 70
     1
  9
$DIMSE1
 70
     0
  9
$DIMSE2
 70
     0
  9
$DIMTAD
 70
     1
  9
$DIMZIN
 70
     0
  9
$DIMBLK
  1

  9
$DIMASO
 70
     1
  9
$DIMSHO
 70
     1
  9
$DIMPOST
  1

  9
$DIMAPOST
  1

  9
$DIMALT
 70
     0
  9
$DIMALTD
 70
     3
  9
$DIMALTF
 40
0.0393700787
  9
$DIMLFAC
 40
1.0
  9
$DIMTOFL
 70
     1
  9
$DIMTVP
 40
0.0
  9
$DIMTIX
 70
     0
  9
$DIMSOXD
 70
     0
  9
$DIMSAH
 70
     0
  9
$DIMBLK1
  1

  9
$DIMBLK2
  1

  9
$DIMSTYLE
  2
ISO-25
  9
$DIMCLRD
 70
     0
  9
$DIMCLRE
 70
     0
  9
$DIMCLRT
 70
     0
  9
$DIMTFAC
 40
1.0
  9
$DIMGAP
 40
1.524
  9
$DIMJUST
 70
     0
  9
$DIMSD1
 70
     0
  9
$DIMSD2
 70
     0
  9
$DIMTOLJ
 70
     0
  9
$DIMTZIN
 70
     0
  9
$DIMALTZ
 70
     0
  9
$DIMALTTZ
 70
     0
  9
$DIMUPT
 70
     0
  9
$DIMDEC
 70
     2
  9
$DIMTDEC
 70
     2
  9
$DIMALTU
 70
     2
  9
$DIMALTTD
 70
     3
  9
$DIMTXSTY
  7
Standard
  9
$DIMAUNIT
 70
     0
  9
$DIMADEC
 70
     2
  9
$DIMALTRND
 40
0.0
  9
$DIMAZIN
 70
     0
  9
$DIMDSEP
 70
    44
  9
$DIMATFIT
 70
     3
  9
$DIMFRAC
 70
     0
  9
$DIMLDRBLK
  1

  9
$DIMLUNIT
 70
     2
  9
$DIMLWD
 70
    -2
  9
$DIMLWE
 70
    -2
  9
$DIMTMOVE
 70
     0
  9
$LUNITS
 70
     2
  9
$LUPREC
 70
     2
  9
$SKETCHINC
 40
1.0
  9
$FILLETRAD
 40
10.0
  9
$AUNITS
 70
     0
  9
$AUPREC
 70
     2
  9
$MENU
  1
.
  9
$ELEVATION
 40
0.0
  9
$PELEVATION
 40
0.0
  9
$THICKNESS
 40
0.0
  9
$LIMCHECK
 70
     0
  9
$CHAMFERA
 40
10.0
  9
$CHAMFERB
 40
10.0
  9
$CHAMFERC
 40
20.0
  9
$CHAMFERD
 40
0.0
  9
$SKPOLY
 70
     0
  9
$TDCREATE
 40
2457198.721830197
  9
$TDUCREATE
 40
2457198.388496864
  9
$TDUPDATE
 40
2457198.721832361
  9
$TDUUPDATE
 40
2457198.388499028
  9
$TDINDWG
 40
0.0000000116
  9
$TDUSRTIMER
 40
0.0000000116
  9
$USRTIMER
 70
     1
  9
$ANGBASE
 50
0.0
  9
$ANGDIR
 70
     0
  9
$PDMODE
 70
     0
  9
$PDSIZE
 40
-1.0
  9
$PLINEWID
 40
0.0
  9
$SPLFRAME
 70
     0
  9
$SPLINETYPE
 70
     6
  9
$SPLINESEGS
 70
     8
  9
$HANDSEED
  5
396
  9
$SURFTAB1
 70
     6
  9
$SURFTAB2
 70
     6
  9
$SURFTYPE
 70
     6
  9
$SURFU
 70
     6
  9
$SURFV
 70
     6
  9
$UCSBASE
  2

  9
$UCSNAME
  2

  9
$UCSORG
 10
0.0
 20
0.0
 30
0.0
  9
$UCSXDIR
 10
1.0
 20
0.0
 30
0.0
  9
$UCSYDIR
 10
0.0
 20
1.0
 30
0.0
  9
$UCSORTHOREF
  2

  9
$UCSORTHOVIEW
 70
     0
  9
$UCSORGTOP
 10
0.0
 20
0.0
 30
0.0
  9
$UCSORGBOTTOM
 10
0.0
 20
0.0
 30
0.0
  9
$UCSORGLEFT
 10
0.0
 20
0.0
 30
0.0
  9
$UCSORGRIGHT
 10
0.0
 20
0.0
 30
0.0
  9
$UCSORGFRONT
 10
0.0
 20
0.0
 30
0.0
  9
$UCSORGBACK
 10
0.0
 20
0.0
 30
0.0
  9
$PUCSBASE
  2

  9
$PUCSNAME
  2

  9
$PUCSORG
 10
0.0
 20
0.0
 30
0.0
  9
$PUCSXDIR
 10
1.0
 20
0.0
 30
0.0
  9
$PUCSYDIR
 10
0.0
 20
1.0
 30
0.0
  9
$PUCSORTHOREF
  2

  9
$PUCSORTHOVIEW
 70
     0
  9
$PUCSORGTOP
 10
0.0
 20
0.0
 30
0.0
  9
$PUCSORGBOTTOM
 10
0.0
 20
0.0
 30
0.0
  9
$PUCSORGLEFT
 10
0.0
 20
0.0
 30
0.0
  9
$PUCSORGRIGHT
 10
0.0
 20
0.0
 30
0.0
  9
$PUCSORGFRONT
 10
0.0
 20
0.0
 30
0.0
  9
$PUCSORGBACK
 10
0.0
 20
0.0
 30
0.0
  9
$USERI1
 70
     0
  9
$USERI2
 70
     0
  9
$USERI3
 70
     0
  9
$USERI4
 70
     0
  9
$USERI5
 70
     0
  9
$USERR1
 40
0.0
  9
$USERR2
 40
0.0
  9
$USERR3
 40
0.0
  9
$USERR4
 40
0.0
  9
$USERR5
 40
0.0
  9
$WORLDVIEW
 70
     1
  9
$SHADEDGE
 70
     3
  9
$SHADEDIF
 70
    70
  9
$TILEMODE
 70
     1
  9
$MAXACTVP
 70
    64
  9
$PINSBASE
 10
0.0
 20
0.0
 30
0.0
  9
$PLIMCHECK
 70
     0
  9
$PEXTMIN
 10
1.0000000000E+20
 20
1.0000000000E+20
 30
1.0000000000E+20
  9
$PEXTMAX
 10
-1.0000000000E+20
 20
-1.0000000000E+20
 30
-1.0000000000E+20
  9
$PLIMMIN
 10
0.0
 20
0.0
  9
$PLIMMAX
 10
420.0
 20
297.0
  9
$UNITMODE
 70
     0
  9
$VISRETAIN
 70
     1
  9
$PLINEGEN
 70
     0
  9
$PSLTSCALE
 70
     1
  9
$TREEDEPTH
 70
  3020
  9
$CMLSTYLE
  2
Standard
  9
$CMLJUST
 70
     0
  9
$CMLSCALE
 40
20.0
  9
$PROXYGRAPHICS
 70
     1
  9
$MEASUREMENT
 70
     1
  9
$CELWEIGHT
370
    -1
  9
$ENDCAPS
280
     0
  9
$JOINSTYLE
280
     0
  9
$LWDISPLAY
290
     1
  9
$INSUNITS
 70
     4
  9
$HYPERLINKBASE
  1

  9
$STYLESHEET
  1

  9
$XEDIT
290
     1
  9
$CEPSNTYPE
380
     0
  9
$PSTYLEMODE
290
     1
  9
$FINGERPRINTGUID
  2
{FDC1B3A1-02A4-4CE8-B82B-B68F9B34BEBE}
  9
$VERSIONGUID
  2
{FAEB1C32-E019-11D5-929B-00C0DF256EC4}
  9
$EXTNAMES
290
     1
  9
$PSVPSCALE
 40
0.0
  9
$OLESTARTUP
290
     0
  0
ENDSEC
  0
SECTION
  2
CLASSES
  0
CLASS
  1
ACDBDICTIONARYWDFLT
  2
AcDbDictionaryWithDefault
  3
ObjectDBX Classes
 90
        0
280
     0
281
     0
  0
CLASS
  1
VISUALSTYLE
  2
AcDbVisualStyle
  3
ObjectDBX Classes
 90
     4095
280
     0
281
     0
  0
CLASS
  1
MATERIAL
  2
AcDbMaterial
  3
ObjectDBX Classes
 90
     1153
280
     0
281
     0
  0
CLASS
  1
ACDBPLACEHOLDER
  2
AcDbPlaceHolder
  3
ObjectDBX Classes
 90
        0
280
     0
281
     0
  0
CLASS
  1
LAYOUT
  2
AcDbLayout
  3
ObjectDBX Classes
 90
        0
280
     0
281
     0
  0
ENDSEC
  0
SECTION
  2
TABLES
  0
TABLE
  2
VPORT
  5
8
330
0
100
AcDbSymbolTable
 70
     1
  0
VPORT
  5
29
330
8
100
AcDbSymbolTableRecord
100
AcDbViewportTableRecord
  2
*Active
 70
     0
 10
0.0
 20
0.0
 11
1.0
 21
1.0
 12
215.9
 22
139.7
 13
0.0
 23
0.0
 14
10.0
 24
10.0
 15
10.0
 25
10.0
 16
0.0
 26
0.0
 36
1.0
 17
0.0
 27
0.0
 37
0.0
 40
279.4
 41
1.5454545455
 42
50.0
 43
0.0
 44
0.0
 50
0.0
 51
0.0
 71
     0
 72
  2000
 73
     1
 74
     3
 75
     0
 76
     0
 77
     0
 78
     0
281
     0
 65
     1
110
0.0
120
0.0
130
0.0
111
1.0
121
0.0
131
0.0
112
0.0
122
1.0
132
0.0
 79
     0
146
0.0
  0
ENDTAB
  0
TABLE
  2
LTYPE
  5
5
330
0
100
AcDbSymbolTable
 70
     6
  0
LTYPE
  5
14
330
5
100
AcDbSymbolTableRecord
100
AcDbLinetypeTableRecord
  2
ByBlock
 70
     0
  3

 72
    65
 73
     0
 40
0.0
  0
LTYPE
  5
15
330
5
100
AcDbSymbolTableRecord
100
AcDbLinetypeTableRecord
  2
ByLayer
 70
     0
  3

 72
    65
 73
     0
 40
0.0
  0
LTYPE
  5
16
330
5
100
AcDbSymbolTableRecord
100
AcDbLinetypeTableRecord
  2
Continuous
 70
     0
  3
Solid line
 72
    65
 73
     0
 40
0.0
  0
LTYPE
  5
3F
330
5
100
AcDbSymbolTableRecord
100
AcDbLinetypeTableRecord
  2
HIDDEN
 70
     0
  3
Hidden __ __ __ __ __ __ __ __ __ __ __ __ __ __
 72
    65
 73
     2
 40
1.905
 49
1.27
 74
     0
 49
-0.635
 74
     0
  0
LTYPE
  5
40
330
5
100
AcDbSymbolTableRecord
100
AcDbLinetypeTableRecord
  2
PHANTOM
 70
     0
  3
Phantom ______  __  __  ______  __  __  ______
 72
    65
 73
     6
 40
12.7
 49
6.35
 74
     0
 49
-1.27
 74
     0
 49
1.27
 74
     0
 49
-1.27
 74
     0
 49
1.27
 74
     0
 49
-1.27
 74
     0
  0
LTYPE
  5
41
330
5
100
AcDbSymbolTableRecord
100
AcDbLinetypeTableRecord
  2
CENTER
 70
     0
  3
Center ____ _ ____ _ ____ _ ____ _ ____ _ ____
 72
    65
 73
     4
 40
10.16
 49
6.35
 74
     0
 49
-1.27
 74
     0
 49
1.27
 74
     0
 49
-1.27
 74
     0
  0
LTYPE
  5
42
330
5
100
AcDbSymbolTableRecord
100
AcDbLinetypeTableRecord
  2
CENTERX2
 70
     0
  3
Center (2x) ________  __  ________  __  _____
 72
    65
 73
     4
 40
20.32
 49
12.7
 74
     0
 49
-2.54
 74
     0
 49
2.54
 74
     0
 49
-2.54
 74
     0
  0
LTYPE
  5
43
330
5
100
AcDbSymbolTableRecord
100
AcDbLinetypeTableRecord
  2
DOT2
 70
     0
  3
Dot (.5x) ........................................
 72
    65
 73
     2
 40
0.635
 49
0.0
 74
     0
 49
-0.635
 74
     0
  0
ENDTAB
  0
TABLE
  2
LAYER
  5
2
330
0
100
AcDbSymbolTable
 70
     3
  0
LAYER
  5
10
330
2
100
AcDbSymbolTableRecord
100
AcDbLayerTableRecord
  2
0
 70
     0
 62
     7
  6
Continuous
370
    -3
390
F
  0
LAYER
  5
44
330
2
100
AcDbSymbolTableRecord
100
AcDbLayerTableRecord
  2
FORMAT
 70
     0
 62
     7
  6
Continuous
370
    -3
390
F
  0
LAYER
  5
45
330
2
100
AcDbSymbolTableRecord
100
AcDbLayerTableRecord
  2
PROTOTYPE
 70
     0
 62
     7
  6
Continuous
370
    -3
390
F
  0
ENDTAB
  0
TABLE
  2
STYLE
  5
3
330
0
100
AcDbSymbolTable
 70
     1
  0
STYLE
  5
11
330
3
100
AcDbSymbolTableRecord
100
AcDbTextStyleTableRecord
  2
Standard
 70
     0
 40
0.0
 41
1.0
 50
0.0
 71
     0
 42
2.5
  3
txt
  4

  0
ENDTAB
  0
TABLE
  2
VIEW
  5
6
330
0
100
AcDbSymbolTable
 70
     0
  0
ENDTAB
  0
TABLE
  2
UCS
  5
7
330
0
100
AcDbSymbolTable
 70
     0
  0
ENDTAB
  0
TABLE
  2
APPID
  5
9
330
0
100
AcDbSymbolTable
 70
     1
  0
APPID
  5
12
330
9
100
AcDbSymbolTableRecord
100
AcDbRegAppTableRecord
  2
ACAD
 70
     0
  0
ENDTAB
  0
TABLE
  2
DIMSTYLE
  5
A
330
0
100
AcDbSymbolTable
 70
     1
100
AcDbDimStyleTable
  0
DIMSTYLE
105
27
330
A
100
AcDbSymbolTableRecord
100
AcDbDimStyleTableRecord
  2
ISO-25
 70
     0
 41
2.5
 42
0.625
 43
3.75
 44
1.25
 73
     0
 74
     0
 77
     1
 78
     8
140
2.5
141
2.5
143
0.0393700787
147
0.625
171
     3
172
     1
178
     0
271
     2
272
     2
274
     3
278
    44
283
     0
284
     8
340
11
  0
ENDTAB
  0
TABLE
  2
BLOCK_RECORD
  5
1
330
0
100
AcDbSymbolTable
 70
     2
  0
BLOCK_RECORD
  5
1F
330
1
100
AcDbSymbolTableRecord
100
AcDbBlockTableRecord
  2
*Model_Space
340
22
  0
BLOCK_RECORD
  5
1B
330
1
100
AcDbSymbolTableRecord
100
AcDbBlockTableRecord
  2
*Paper_Space
340
1E
  0
BLOCK_RECORD
  5
23
330
1
100
AcDbSymbolTableRecord
100
AcDbBlockTableRecord
  2
*Paper_Space0
340
26
  0
BLOCK_RECORD
  5
38A
330
1
100
AcDbSymbolTableRecord
100
AcDbBlockTableRecord
  2
SW_CENTERMARKSYMBOL_0
340
0
102
{BLKREFS
331
395
102
}
  0
ENDTAB
  0
ENDSEC
  0
SECTION
  2
BLOCKS
  0
BLOCK
  5
20
330
1F
100
AcDbEntity
  8
0
100
AcDbBlockBegin
  2
*Model_Space
 70
     0
 10
0.0
 20
0.0
 30
0.0
  3
*Model_Space
  1

  0
ENDBLK
  5
21
330
1F
100
AcDbEntity
  8
0
100
AcDbBlockEnd
  0
BLOCK
  5
1C
330
1B
100
AcDbEntity
 67
     1
  8
0
100
AcDbBlockBegin
  2
*Paper_Space
 70
     0
 10
0.0
 20
0.0
 30
0.0
  3
*Paper_Space
  1

  0
ENDBLK
  5
1D
330
1B
100
AcDbEntity
 67
     1
  8
0
100
AcDbBlockEnd
  0
BLOCK
  5
24
330
23
100
AcDbEntity
  8
0
100
AcDbBlockBegin
  2
*Paper_Space0
 70
     0
 10
0.0
 20
0.0
 30
0.0
  3
*Paper_Space0
  1

  0
ENDBLK
  5
25
330
23
100
AcDbEntity
  8
0
100
AcDbBlockEnd
  0
BLOCK
  5
38B
330
38A
100
AcDbEntity
  8
0
100
AcDbBlockBegin
  2
SW_CENTERMARKSYMBOL_0
 70
     0
 10
0.0
 20
0.0
 30
0.0
  3
SW_CENTERMARKSYMBOL_0
  1

  0
LINE
  5
38D
330
38A
100
AcDbEntity
  8
0
  6
Continuous
 62
     0
370
     0
100
AcDbLine
 10
0.0
 20
0.0
 30
0.0
 11
0.0
 21
2.5
 31
0.0
  0
LINE
  5
38E
330
38A
100
AcDbEntity
  8
0
  6
Continuous
 62
     0
370
     0
100
AcDbLine
 10
0.0
 20
0.0
 30
0.0
 11
-2.5
 21
0.0
 31
0.0
  0
LINE
  5
38F
330
38A
100
AcDbEntity
  8
0
  6
Continuous
 62
     0
370
     0
100
AcDbLine
 10
0.0
 20
0.0
 30
0.0
 11
0.0
 21
-2.5
 31
0.0
  0
LINE
  5
390
330
38A
100
AcDbEntity
  8
0
  6
Continuous
 62
     0
370
     0
100
AcDbLine
 10
0.0
 20
0.0
 30
0.0
 11
2.5
 21
0.0
 31
0.0
  0
LINE
  5
391
330
38A
100
AcDbEntity
  8
0
  6
Continuous
 62
     0
370
     0
100
AcDbLine
 10
0.0
 20
5.0
 30
0.0
 11
0.0
 21
110.1181723544
 31
0.0
  0
LINE
  5
392
330
38A
100
AcDbEntity
  8
0
  6
Continuous
 62
     0
370
     0
100
AcDbLine
 10
-5.0
 20
0.0
 30
0.0
 11
-111.2580039312
 21
0.0
 31
0.0
  0
LINE
  5
393
330
38A
100
AcDbEntity
  8
0
  6
Continuous
 62
     0
370
     0
100
AcDbLine
 10
0.0
 20
-5.0
 30
0.0
 11
0.0
 21
-112.9144611049
 31
0.0
  0
LINE
  5
394
330
38A
100
AcDbEntity
  8
0
  6
Continuous
 62
     0
370
     0
100
AcDbLine
 10
5.0
 20
0.0
 30
0.0
 11
108.9152367914
 21
0.0
 31
0.0
  0
ENDBLK
  5
38C
330
38A
100
AcDbEntity
  8
0
100
AcDbBlockEnd
  0
ENDSEC
  0
SECTION
  2
ENTITIES
  0
LINE
  5
46
330
1F
100
AcDbEntity
  8
0
  6
Continuous
 62
     7
370
    15
100
AcDbLine
 10
137.9585951298
 20
229.3210598457
 30
0.0
 11
110.0834846227
 21
230.7819324363
 31
0.0
  0
LINE
  5
47
330
1F
100
AcDbEntity
  8
0
  6
Continuous
 62
     7
370
    15
100
AcDbLine
 10
-34.1804385454
 20
230.7811911035
 30
0.0
 11
-62.0414078505
 21
229.3210598457
 31
0.0
  0
LINE
  5
48
330
1F
100
AcDbEntity
  8
0
  6
Continuous
 62
     7
370
    15
100
AcDbLine
 10
-12.2687019677
 20
217.3210606727
 30
0.0
 11
-12.2687019677
 21
213.3210604827
 31
0.0
  0
LINE
  5
49
330
1F
100
AcDbEntity
  8
0
  6
Continuous
 62
     7
370
    15
100
AcDbLine
 10
88.185889247
 20
213.3210604827
 30
0.0
 11
88.185889247
 21
217.3210606727
 31
0.0
  0
LINE
  5
4A
330
1F
100
AcDbEntity
  8
0
  6
Continuous
 62
     7
370
    15
100
AcDbLine
 10
-22.3290011556
 20
224.3210608888
 30
0.0
 11
-22.3290011556
 21
217.3210606727
 31
0.0
  0
LINE
  5
4B
330
1F
100
AcDbEntity
  8
0
  6
Continuous
 62
     7
370
    15
100
AcDbLine
 10
98.2461884349
 20
217.3210606727
 30
0.0
 11
98.2461884349
 21
224.3210608888
 31
0.0
  0
ARC
  5
4C
330
1F
100
AcDbEntity
  8
0
  6
Continuous
 62
     7
370
    15
100
AcDbCircle
 10
100.7143204699
 20
240.1914492015
 30
0.0
 40
22.67267151925523
100
AcDbArc
 50
263.750432004
 51
311.4212052824
  0
LINE
  5
4D
330
1F
100
AcDbEntity
  8
0
  6
Continuous
 62
     7
370
    15
100
AcDbLine
 10
115.7143205135
 20
223.1899780038
 30
0.0
 11
115.7143205135
 21
224.3187772858
 31
0.0
  0
LINE
  5
4E
330
1F
100
AcDbEntity
  8
0
  6
Continuous
 62
     7
370
    15
100
AcDbLine
 10
-39.8112744362
 20
224.3187772858
 30
0.0
 11
-39.8112744362
 21
223.1899780038
 31
0.0
  0
ARC
  5
4F
330
1F
100
AcDbEntity
  8
0
  6
Continuous
 62
     7
370
    15
100
AcDbCircle
 10
-24.8112753263
 20
240.1914492015
 30
0.0
 40
22.67267151925522
100
AcDbArc
 50
228.5787947176
 51
276.2855212769
  0
LINE
  5
50
330
1F
100
AcDbEntity
  8
0
  6
Continuous
 62
     7
370
    15
100
AcDbLine
 10
112.7143218844
 20
340.7787746567
 30
0.0
 11
112.7143218844
 21
343.2787722725
 31
0.0
  0
LINE
  5
51
330
1F
100
AcDbEntity
  8
0
  6
Continuous
 62
     7
370
    15
100
AcDbLine
 10
88.7143216758
 20
343.2787722725
 30
0.0
 11
88.7143216758
 21
340.7787746567
 31
0.0
  0
LINE
  5
52
330
1F
100
AcDbEntity
  8
0
  6
Continuous
 62
     7
370
    15
100
AcDbLine
 10
-12.8112755985
 20
340.7787746567
 30
0.0
 11
-12.8112755985
 21
343.2787722725
 31
0.0
  0
LINE
  5
53
330
1F
100
AcDbEntity
  8
0
  6
Continuous
 62
     7
370
    15
100
AcDbLine
 10
-36.8112758071
 20
343.2787722725
 30
0.0
 11
-36.8112758071
 21
340.7787746567
 31
0.0
  0
LINE
  5
54
330
1F
100
AcDbEntity
  8
0
  6
Continuous
 62
     7
370
    15
100
AcDbLine
 10
108.7143212288
 20
357.3187804598
 30
0.0
 11
108.7143212288
 21
357.8187740225
 31
0.0
  0
LINE
  5
55
330
1F
100
AcDbEntity
  8
0
  6
Continuous
 62
     7
370
    15
100
AcDbLine
 10
92.7143223315
 20
357.8187740225
 30
0.0
 11
92.7143223315
 21
357.3187804598
 31
0.0
  0
LINE
  5
56
330
1F
100
AcDbEntity
  8
0
  6
Continuous
 62
     7
370
    15
100
AcDbLine
 10
-16.8112762542
 20
357.3187804598
 30
0.0
 11
-16.8112762542
 21
357.8187740225
 31
0.0
  0
LINE
  5
57
330
1F
100
AcDbEntity
  8
0
  6
Continuous
 62
     7
370
    15
100
AcDbLine
 10
-32.8112751515
 20
357.8187740225
 30
0.0
 11
-32.8112751515
 21
357.3187804598
 31
0.0
  0
LINE
  5
58
330
1F
100
AcDbEntity
  8
0
  6
Continuous
 62
     7
370
    15
100
AcDbLine
 10
107.2143181889
 20
357.8187740225
 30
0.0
 11
107.2143181889
 21
369.3187749762
 31
0.0
  0
LINE
  5
59
330
1F
100
AcDbEntity
  8
0
  6
Continuous
 62
     7
370
    15
100
AcDbLine
 10
94.214321646
 20
369.3187749762
 30
0.0
 11
94.214321646
 21
357.8187740225
 31
0.0
  0
LINE
  5
5A
330
1F
100
AcDbEntity
  8
0
  6
Continuous
 62
     7
370
    15
100
AcDbLine
 10
-18.3112755687
 20
357.8187740225
 30
0.0
 11
-18.3112755687
 21
369.3187749762
 31
0.0
  0
LINE
  5
5B
330
1F
100
AcDbEntity
  8
0
  6
Continuous
 62
     7
370
    15
100
AcDbLine
 10
-31.3112721116
 20
369.3187749762
 30
0.0
 11
-31.3112721116
 21
357.8187740225
 31
0.0
  0
LINE
  5
5C
330
1F
100
AcDbEntity
  8
0
  6
Continuous
 62
     7
370
    15
100
AcDbLine
 10
106.9585919111
 20
307.4819586057
 30
0.0
 11
106.9585919111
 21
308.3210578937
 31
0.0
  0
LINE
  5
5D
330
1F
100
AcDbEntity
  8
0
  6
Continuous
 62
     7
370
    15
100
AcDbLine
 10
-31.0414046318
 20
308.3210578937
 30
0.0
 11
-31.0414046318
 21
307.4819586057
 31
0.0
  0
ARC
  5
5E
330
1F
100
AcDbEntity
  8
0
  6
Continuous
 62
     7
370
    15
100
AcDbCircle
 10
104.9585936396
 20
308.3210604567
 30
0.0
 40
2.0
100
AcDbArc
 50
0.0
 51
28.6143071806
  0
ARC
  5
5F
330
1F
100
AcDbEntity
  8
0
  6
Continuous
 62
     7
370
    15
100
AcDbCircle
 10
-29.0414063604
 20
308.3210604567
 30
0.0
 40
2.000000000000004
100
AcDbArc
 50
152.24345983
 51
180.0
  0
ARC
  5
60
330
1F
100
AcDbEntity
  8
0
  6
Continuous
 62
     7
370
    15
100
AcDbCircle
 10
103.9585936396
 20
307.4819608255
 30
0.0
 40
3.000000000000024
100
AcDbArc
 50
336.7187262228
 51
0.0
  0
ARC
  5
61
330
1F
100
AcDbEntity
  8
0
  6
Continuous
 62
     7
370
    15
100
AcDbCircle
 10
-28.0414063604
 20
307.4819608255
 30
0.0
 40
3.000000000000004
100
AcDbArc
 50
180.0
 51
202.588153371
  0
LINE
  5
62
330
1F
100
AcDbEntity
  8
0
  6
Continuous
 62
     7
370
    15
100
AcDbLine
 10
106.7143171757
 20
353.2787776369
 30
0.0
 11
106.7143171757
 21
357.3187804598
 31
0.0
  0
LINE
  5
63
330
1F
100
AcDbEntity
  8
0
  6
Continuous
 62
     7
370
    15
100
AcDbLine
 10
94.714318934
 20
357.3187804598
 30
0.0
 11
94.714318934
 21
353.2787776369
 31
0.0
  0
LINE
  5
64
330
1F
100
AcDbEntity
  8
0
  6
Continuous
 62
     7
370
    15
100
AcDbLine
 10
106.7143171757
 20
233.1187772382
 30
0.0
 11
106.7143171757
 21
335.7787794251
 31
0.0
  0
LINE
  5
65
330
1F
100
AcDbEntity
  8
0
  6
Continuous
 62
     7
370
    15
100
AcDbLine
 10
94.714318934
 20
324.2493114251
 30
0.0
 11
94.714318934
 21
233.1187772382
 31
0.0
  0
LINE
  5
66
330
1F
100
AcDbEntity
  8
0
  6
Continuous
 62
     7
370
    15
100
AcDbLine
 10
-18.811276582
 20
233.1187772382
 30
0.0
 11
-18.811276582
 21
324.2724007744
 31
0.0
  0
LINE
  5
67
330
1F
100
AcDbEntity
  8
0
  6
Continuous
 62
     7
370
    15
100
AcDbLine
 10
-30.8112785489
 20
335.7787794251
 30
0.0
 11
-30.8112785489
 21
233.1187772382
 31
0.0
  0
LINE
  5
68
330
1F
100
AcDbEntity
  8
0
  6
Continuous
 62
     7
370
    15
100
AcDbLine
 10
-18.811276582
 20
353.2787776369
 30
0.0
 11
-18.811276582
 21
357.3187804598
 31
0.0
  0
LINE
  5
69
330
1F
100
AcDbEntity
  8
0
  6
Continuous
 62
     7
370
    15
100
AcDbLine
 10
-30.8112785489
 20
357.3187804598
 30
0.0
 11
-30.8112785489
 21
353.2787776369
 31
0.0
  0
ARC
  5
6A
330
1F
100
AcDbEntity
  8
0
  6
Continuous
 62
     7
370
    15
100
AcDbCircle
 10
-36.9619733628
 20
312.8210604567
 30
0.0
 40
2.499999999999997
100
AcDbArc
 50
183.0
 51
270.0
  0
ARC
  5
6B
330
1F
100
AcDbEntity
  8
0
  6
Continuous
 62
     7
370
    15
100
AcDbCircle
 10
112.8791606421
 20
312.8210604567
 30
0.0
 40
2.49999999999999
100
AcDbArc
 50
270.0
 51
357.0
  0
LINE
  5
6C
330
1F
100
AcDbEntity
  8
0
  6
Continuous
 62
     7
370
    15
100
AcDbLine
 10
115.3757363289
 20
312.6902199167
 30
0.0
 11
116.3828313082
 21
331.9067648429
 31
0.0
  0
LINE
  5
6D
330
1F
100
AcDbEntity
  8
0
  6
Continuous
 62
     7
370
    15
100
AcDbLine
 10
-40.4656440289
 20
331.9067648429
 30
0.0
 11
-39.4585490496
 21
312.6902199167
 31
0.0
  0
LINE
  5
6E
330
1F
100
AcDbEntity
  8
0
  6
Continuous
 62
     7
370
    15
100
AcDbLine
 10
-62.0414078505
 20
229.3210598457
 30
0.0
 11
-62.0414078505
 21
217.3210606727
 31
0.0
  0
LINE
  5
6F
330
1F
100
AcDbEntity
  8
0
  6
Continuous
 62
     7
370
    15
100
AcDbLine
 10
137.9585951298
 20
217.3210606727
 30
0.0
 11
137.9585951298
 21
229.3210598457
 31
0.0
  0
LINE
  5
70
330
1F
100
AcDbEntity
  8
0
  6
Continuous
 62
     7
370
    15
100
AcDbLine
 10
-56.9047540695
 20
217.3210606727
 30
0.0
 11
-56.9047540695
 21
213.3210604827
 31
0.0
  0
LINE
  5
71
330
1F
100
AcDbEntity
  8
0
  6
Continuous
 62
     7
370
    15
100
AcDbLine
 10
132.8219413488
 20
213.3210604827
 30
0.0
 11
132.8219413488
 21
217.3210606727
 31
0.0
  0
LINE
  5
72
330
1F
100
AcDbEntity
  8
0
  6
Continuous
 62
     7
370
    15
100
AcDbLine
 10
104.4585942953
 20
210.3210604567
 30
0.0
 11
107.4585929244
 21
213.3210604827
 31
0.0
  0
LINE
  5
73
330
1F
100
AcDbEntity
  8
0
  6
Continuous
 62
     7
370
    15
100
AcDbLine
 10
-31.5414056451
 20
213.3210604827
 30
0.0
 11
-28.541407016
 21
210.3210604567
 31
0.0
  0
LINE
  5
74
330
1F
100
AcDbEntity
  8
0
  6
Continuous
 62
     7
370
    15
100
AcDbLine
 10
112.7284630864
 20
340.7787746567
 30
0.0
 11
112.7284630864
 21
343.2787722725
 31
0.0
  0
LINE
  5
75
330
1F
100
AcDbEntity
  8
0
  6
Continuous
 62
     7
370
    15
100
AcDbLine
 10
108.7284624307
 20
357.3187804598
 30
0.0
 11
108.7284624307
 21
357.8187740225
 31
0.0
  0
LINE
  5
76
330
1F
100
AcDbEntity
  8
0
  6
Continuous
 62
     7
370
    15
100
AcDbLine
 10
-16.7971350522
 20
357.3187804598
 30
0.0
 11
-16.7971350522
 21
357.8187740225
 31
0.0
  0
LINE
  5
77
330
1F
100
AcDbEntity
  8
0
  6
Continuous
 62
     7
370
    15
100
AcDbLine
 10
107.2284593909
 20
357.8187740225
 30
0.0
 11
107.2284593909
 21
369.3187749762
 31
0.0
  0
LINE
  5
78
330
1F
100
AcDbEntity
  8
0
  6
Continuous
 62
     7
370
    15
100
AcDbLine
 10
-18.2971343667
 20
357.8187740225
 30
0.0
 11
-18.2971343667
 21
369.3187749762
 31
0.0
  0
LINE
  5
79
330
1F
100
AcDbEntity
  8
0
  6
Continuous
 62
     7
370
    15
100
AcDbLine
 10
106.7284658282
 20
353.2787776369
 30
0.0
 11
106.7284658282
 21
357.3187804598
 31
0.0
  0
LINE
  5
7A
330
1F
100
AcDbEntity
  8
0
  6
Continuous
 62
     7
370
    15
100
AcDbLine
 10
106.7284658282
 20
233.1187772382
 30
0.0
 11
106.7284658282
 21
306.32964436
 31
0.0
  0
LINE
  5
7B
330
1F
100
AcDbEntity
  8
0
  6
Continuous
 62
     7
370
    15
100
AcDbLine
 10
106.7284658282
 20
309.252492227
 30
0.0
 11
106.7284658282
 21
310.3210619468
 31
0.0
  0
LINE
  5
7C
330
1F
100
AcDbEntity
  8
0
  6
Continuous
 62
     7
370
    15
100
AcDbLine
 10
-18.7971316547
 20
353.2787776369
 30
0.0
 11
-18.7971316547
 21
357.3187804598
 31
0.0
  0
LINE
  5
7D
330
1F
100
AcDbEntity
  8
0
  6
Continuous
 62
     7
370
    15
100
AcDbLine
 10
137.9585951298
 20
229.3210598457
 30
0.0
 11
129.1259765356
 21
229.3210598457
 31
0.0
  0
SPLINE
  5
7E
330
1F
100
AcDbEntity
  8
0
  6
Continuous
 62
     7
370
    15
100
AcDbSpline
210
0.0
220
0.0
230
1.0
 70
     8
 71
     3
 72
     8
 73
     4
 74
     0
 42
0.00000001
 43
0.00000001
 12
1.0
 22
0.0
 32
0.0
 13
1.0
 23
0.0
 33
0.0
 40
0.0
 40
0.0
 40
0.0
 40
0.0
 40
1.0
 40
1.0
 40
1.0
 40
1.0
 10
116.2127755106172
 20
229.0683724396382
 30
0.0
 10
120.5169102833364
 20
229.2329465926067
 30
0.0
 10
124.8212976888662
 20
229.3210604566661
 30
0.0
 10
129.1259762318408
 20
229.3210604566661
 30
0.0
  0
SPLINE
  5
7F
330
1F
100
AcDbEntity
  8
0
  6
Continuous
 62
     7
370
    15
100
AcDbSpline
210
0.0
220
0.0
230
1.0
 70
     8
 71
     3
 72
    18
 73
    14
 74
     0
 42
0.00000001
 43
0.00000001
 12
1.0
 22
0.0
 32
0.0
 13
1.0
 23
0.0
 33
0.0
 40
0.0
 40
0.0
 40
0.0
 40
0.0
 40
0.2500000000000005
 40
0.2500000000000005
 40
0.3750000000000008
 40
0.3750000000000008
 40
0.500000000000001
 40
0.500000000000001
 40
0.749999999999999
 40
0.749999999999999
 40
0.8749999999999996
 40
0.8749999999999996
 40
1.0
 40
1.0
 40
1.0
 40
1.0
 10
107.6998692209065
 20
229.0683724396384
 30
0.0
 10
108.6430756699724
 20
229.0521171523853
 30
0.0
 10
109.533306662789
 20
229.040064919911
 30
0.0
 10
110.7924860065875
 20
229.0279134116038
 30
0.0
 10
111.1994368616249
 20
229.0248579814997
 30
0.0
 10
111.9873843520094
 20
229.0207585659266
 30
0.0
 10
112.3701830551946
 20
229.0197167416342
 30
0.0
 10
113.463426048105
 20
229.0197136963465
 30
0.0
 10
114.1169972148664
 20
229.0237959119684
 30
0.0
 10
114.9877149501229
 20
229.0359088884652
 30
0.0
 10
115.2595679965301
 20
229.0409517499334
 30
0.0
 10
115.765675743752
 20
229.0531097177682
 30
0.0
 10
116.0002113549444
 20
229.0602447745628
 30
0.0
 10
116.2127755106187
 20
229.0683724396381
 30
0.0
  0
SPLINE
  5
80
330
1F
100
AcDbEntity
  8
0
  6
Continuous
 62
     7
370
    15
100
AcDbSpline
210
0.0
220
0.0
230
1.0
 70
     8
 71
     3
 72
     8
 73
     4
 74
     0
 42
0.00000001
 43
0.00000001
 12
1.0
 22
0.0
 32
0.0
 13
1.0
 23
0.0
 33
0.0
 40
0.0
 40
0.0
 40
0.0
 40
0.0
 40
1.0
 40
1.0
 40
1.0
 40
1.0
 10
79.05005688062579
 20
229.3210604566659
 30
0.0
 10
88.60061178207323
 20
229.321060456666
 30
0.0
 10
98.15052075279168
 20
229.2329465926068
 30
0.0
 10
107.6998692209072
 20
229.0683724396383
 30
0.0
  0
LINE
  5
81
330
1F
100
AcDbEntity
  8
0
  6
Continuous
 62
     7
370
    15
100
AcDbLine
 10
79.0500580995
 20
229.3210598457
 30
0.0
 11
-3.1328708203
 21
229.3210598457
 31
0.0
  0
SPLINE
  5
82
330
1F
100
AcDbEntity
  8
0
  6
Continuous
 62
     7
370
    15
100
AcDbSpline
210
0.0
220
0.0
230
1.0
 70
     8
 71
     3
 72
     8
 73
     4
 74
     0
 42
0.00000001
 43
0.00000001
 12
1.0
 22
0.0
 32
0.0
 13
1.0
 23
0.0
 33
0.0
 40
0.0
 40
0.0
 40
0.0
 40
0.0
 40
1.0
 40
1.0
 40
1.0
 40
1.0
 10
-31.78268194163928
 20
229.0683724396384
 30
0.0
 10
-22.23333347352385
 20
229.2329465926068
 30
0.0
 10
-12.68342450280553
 20
229.321060456666
 30
0.0
 10
-3.132869601358175
 20
229.321060456666
 30
0.0
  0
SPLINE
  5
83
330
1F
100
AcDbEntity
  8
0
  6
Continuous
 62
     7
370
    15
100
AcDbSpline
210
0.0
220
0.0
230
1.0
 70
     8
 71
     3
 72
    18
 73
    14
 74
     0
 42
0.00000001
 43
0.00000001
 12
1.0
 22
0.0
 32
0.0
 13
1.0
 23
0.0
 33
0.0
 40
0.0
 40
0.0
 40
0.0
 40
0.0
 40
0.2500000000000023
 40
0.2500000000000023
 40
0.3750000000000012
 40
0.3750000000000012
 40
0.5
 40
0.5
 40
0.75
 40
0.75
 40
0.8749999999999999
 40
0.8749999999999999
 40
1.0
 40
1.0
 40
1.0
 40
1.0
 10
-40.29558823134779
 20
229.0683724396383
 30
0.0
 10
-39.87046104190318
 20
229.0521171523852
 30
0.0
 10
-39.36648606382624
 20
229.0400649199109
 30
0.0
 10
-38.49715945228768
 20
229.0279134116038
 30
0.0
 10
-38.18836921710295
 20
229.0248579814996
 30
0.0
 10
-37.53215964425862
 20
229.0207585659266
 30
0.0
 10
-37.1828685025394
 20
229.0197167416341
 30
0.0
 10
-36.08972342696098
 20
229.0197136963465
 30
0.0
 10
-35.30475295982343
 20
229.0237959119684
 30
0.0
 10
-34.04541218184848
 20
229.0359088884653
 30
0.0
 10
-33.61189999825668
 20
229.0409517499335
 30
0.0
 10
-32.71679504604072
 20
229.0531097177683
 30
0.0
 10
-32.25428641072569
 20
229.060244774563
 30
0.0
 10
-31.7826819416399
 20
229.0683724396383
 30
0.0
  0
SPLINE
  5
84
330
1F
100
AcDbEntity
  8
0
  6
Continuous
 62
     7
370
    15
100
AcDbSpline
210
0.0
220
0.0
230
1.0
 70
     8
 71
     3
 72
     8
 73
     4
 74
     0
 42
0.00000001
 43
0.00000001
 12
1.0
 22
0.0
 32
0.0
 13
1.0
 23
0.0
 33
0.0
 40
0.0
 40
0.0
 40
0.0
 40
0.0
 40
1.0
 40
1.0
 40
1.0
 40
1.0
 10
-53.2087889525754
 20
229.3210604566659
 30
0.0
 10
-48.90411040959997
 20
229.3210604566659
 30
0.0
 10
-44.59972300406926
 20
229.2329465926067
 30
0.0
 10
-40.29558823134919
 20
229.0683724396382
 30
0.0
  0
LINE
  5
85
330
1F
100
AcDbEntity
  8
0
  6
Continuous
 62
     7
370
    15
100
AcDbLine
 10
-53.2087892563
 20
229.3210598457
 30
0.0
 11
-62.0414078505
 21
229.3210598457
 31
0.0
  0
LINE
  5
86
330
1F
100
AcDbEntity
  8
0
  6
Continuous
 62
     7
370
    15
100
AcDbLine
 10
-15.4421091349
 20
230.4708706963
 30
0.0
 11
-5.5513069303
 21
231.2034918744
 31
0.0
  0
SPLINE
  5
87
330
1F
100
AcDbEntity
  8
0
  6
Continuous
 62
     7
370
    15
100
AcDbSpline
210
0.0
220
0.0
230
1.0
 70
     8
 71
     3
 72
    10
 73
     6
 74
     0
 42
0.00000001
 43
0.00000001
 12
1.0
 22
0.0
 32
0.0
 13
1.0
 23
0.0
 33
0.0
 40
0.0
 40
0.0
 40
0.0
 40
0.0
 40
0.5
 40
0.5
 40
1.0
 40
1.0
 40
1.0
 40
1.0
 10
-5.551308395301629
 20
231.2034913682632
 30
0.0
 10
-5.20870382644495
 20
231.2106738332278
 30
0.0
 10
-4.855251935931705
 20
231.2192903679275
 30
0.0
 10
-4.125876793556513
 20
231.2395619181496
 30
0.0
 10
-3.756128532788269
 20
231.2510529368948
 30
0.0
 10
-3.38461223368694
 20
231.2638445021551
 30
0.0
  0
SPLINE
  5
88
330
1F
100
AcDbEntity
  8
0
  6
Continuous
 62
     7
370
    15
100
AcDbSpline
210
0.0
220
0.0
230
1.0
 70
     8
 71
     3
 72
     8
 73
     4
 74
     0
 42
0.00000001
 43
0.00000001
 12
1.0
 22
0.0
 32
0.0
 13
1.0
 23
0.0
 33
0.0
 40
0.0
 40
0.0
 40
0.0
 40
0.0
 40
1.0
 40
1.0
 40
1.0
 40
1.0
 10
-3.384612233686933
 20
231.2638445021551
 30
0.0
 10
1.083990332927082
 20
231.4177016047684
 30
0.0
 10
5.553023441311367
 20
231.5575676788724
 30
0.0
 10
10.02270307698444
 20
231.6764239872486
 30
0.0
  0
SPLINE
  5
89
330
1F
100
AcDbEntity
  8
0
  6
Continuous
 62
     7
370
    15
100
AcDbSpline
210
0.0
220
0.0
230
1.0
 70
     8
 71
     3
 72
    18
 73
    14
 74
     0
 42
0.00000001
 43
0.00000001
 12
1.0
 22
0.0
 32
0.0
 13
1.0
 23
0.0
 33
0.0
 40
0.0
 40
0.0
 40
0.0
 40
0.0
 40
0.2500000000000003
 40
0.2500000000000003
 40
0.3750000000000002
 40
0.3750000000000002
 40
0.5000000000000001
 40
0.5000000000000001
 40
0.7499999999999998
 40
0.7499999999999998
 40
0.875
 40
0.875
 40
1.0
 40
1.0
 40
1.0
 40
1.0
 10
10.02270307698443
 20
231.6764239872486
 30
0.0
 10
11.34234378226286
 20
231.7115154558542
 30
0.0
 10
12.64014540048918
 20
231.7383303448356
 30
0.0
 10
14.55541878554072
 20
231.7656092386906
 30
0.0
 10
15.18856615299122
 20
231.7725352146495
 30
0.0
 10
16.44406372951429
 20
231.7818520597372
 30
0.0
 10
17.06805448634223
 20
231.7842176724032
 30
0.0
 10
18.88316939294374
 20
231.7842428359127
 30
0.0
 10
20.03115264968508
 20
231.775018044291
 30
0.0
 10
21.6608181967699
 20
231.7478399951662
 30
0.0
 10
22.18977545418195
 20
231.7365157551118
 30
0.0
 10
23.20993268568077
 20
231.7095356556361
 30
0.0
 10
23.698271560075
 20
231.6939698605039
 30
0.0
 10
24.16483870071511
 20
231.6764239872486
 30
0.0
  0
SPLINE
  5
8A
330
1F
100
AcDbEntity
  8
0
  6
Continuous
 62
     7
370
    15
100
AcDbSpline
210
0.0
220
0.0
230
1.0
 70
     8
 71
     3
 72
     8
 73
     4
 74
     0
 42
0.00000001
 43
0.00000001
 12
1.0
 22
0.0
 32
0.0
 13
1.0
 23
0.0
 33
0.0
 40
0.0
 40
0.0
 40
0.0
 40
0.0
 40
1.0
 40
1.0
 40
1.0
 40
1.0
 10
24.16483870071511
 20
231.6764239872486
 30
0.0
 10
27.32536871637661
 20
231.5575680836839
 30
0.0
 10
30.48549971654842
 20
231.4176998216818
 30
0.0
 10
33.64524227439777
 20
231.263844502155
 30
0.0
  0
SPLINE
  5
8B
330
1F
100
AcDbEntity
  8
0
  6
Continuous
 62
     7
370
    15
100
AcDbSpline
210
0.0
220
0.0
230
1.0
 70
     8
 71
     3
 72
    12
 73
     8
 74
     0
 42
0.00000001
 43
0.00000001
 12
1.0
 22
0.0
 32
0.0
 13
1.0
 23
0.0
 33
0.0
 40
0.0
 40
0.0
 40
0.0
 40
0.0
 40
0.5
 40
0.5
 40
0.75
 40
0.75
 40
1.0
 40
1.0
 40
1.0
 40
1.0
 10
33.64524227439777
 20
231.263844502155
 30
0.0
 10
34.01216398751095
 20
231.245978218311
 30
0.0
 10
34.41737259833367
 20
231.2308752261955
 30
0.0
 10
35.080839881942
 20
231.2120807184126
 30
0.0
 10
35.31272222110767
 20
231.2064430129869
 30
0.0
 10
35.78837196858814
 20
231.1966763888132
 30
0.0
 10
36.0320273229597
 20
231.1925372612664
 30
0.0
 10
36.28155946451574
 20
231.1891399310619
 30
0.0
  0
LINE
  5
8C
330
1F
100
AcDbEntity
  8
0
  6
Continuous
 62
     7
370
    15
100
AcDbLine
 10
39.6356278296
 20
231.1891401935
 30
0.0
 11
36.2815594497
 21
231.1891401935
 31
0.0
  0
SPLINE
  5
8D
330
1F
100
AcDbEntity
  8
0
  6
Continuous
 62
     7
370
    15
100
AcDbSpline
210
0.0
220
0.0
230
1.0
 70
     8
 71
     3
 72
    12
 73
     8
 74
     0
 42
0.00000001
 43
0.00000001
 12
1.0
 22
0.0
 32
0.0
 13
1.0
 23
0.0
 33
0.0
 40
0.0
 40
0.0
 40
0.0
 40
0.0
 40
0.5000000000000003
 40
0.5000000000000003
 40
0.7500000000000002
 40
0.7500000000000002
 40
1.0
 40
1.0
 40
1.0
 40
1.0
 10
39.63562781474751
 20
231.1891399310619
 30
0.0
 10
40.13478176120559
 20
231.1959358122195
 30
0.0
 10
40.60527763969866
 20
231.2055881329108
 30
0.0
 10
41.26942444724427
 20
231.2243230955211
 30
0.0
 10
41.48488425396088
 20
231.2313307231584
 30
0.0
 10
41.89435285094372
 20
231.2466298968311
 30
0.0
 10
42.08848888364304
 20
231.2549115908072
 30
0.0
 10
42.27194500487486
 20
231.2638445021551
 30
0.0
  0
SPLINE
  5
8E
330
1F
100
AcDbEntity
  8
0
  6
Continuous
 62
     7
370
    15
100
AcDbSpline
210
0.0
220
0.0
230
1.0
 70
     8
 71
     3
 72
     8
 73
     4
 74
     0
 42
0.00000001
 43
0.00000001
 12
1.0
 22
0.0
 32
0.0
 13
1.0
 23
0.0
 33
0.0
 40
0.0
 40
0.0
 40
0.0
 40
0.0
 40
1.0
 40
1.0
 40
1.0
 40
1.0
 10
42.27194500487486
 20
231.2638445021551
 30
0.0
 10
45.43172418215528
 20
231.4177016047684
 30
0.0
 10
48.59180779844104
 20
231.5575676788724
 30
0.0
 10
51.75234857855691
 20
231.6764239872486
 30
0.0
  0
SPLINE
  5
8F
330
1F
100
AcDbEntity
  8
0
  6
Continuous
 62
     7
370
    15
100
AcDbSpline
210
0.0
220
0.0
230
1.0
 70
     8
 71
     3
 72
    18
 73
    14
 74
     0
 42
0.00000001
 43
0.00000001
 12
1.0
 22
0.0
 32
0.0
 13
1.0
 23
0.0
 33
0.0
 40
0.0
 40
0.0
 40
0.0
 40
0.0
 40
0.25
 40
0.25
 40
0.3750000000000003
 40
0.3750000000000003
 40
0.5000000000000006
 40
0.5000000000000006
 40
0.7500000000000007
 40
0.7500000000000007
 40
0.8750000000000003
 40
0.8750000000000003
 40
1.0
 40
1.0
 40
1.0
 40
1.0
 10
51.75234857855692
 20
231.6764239872486
 30
0.0
 10
52.68547546998911
 20
231.7115154558542
 30
0.0
 10
53.69460883051418
 20
231.7383303448356
 30
0.0
 10
55.31775987476431
 20
231.7656092386906
 30
0.0
 10
55.8771871790541
 20
231.7725352146495
 30
0.0
 10
57.03364855891063
 20
231.7818520597372
 30
0.0
 10
57.63258749389181
 20
231.7842176724032
 30
0.0
 10
59.44743559293742
 20
231.7842428359127
 30
0.0
 10
60.69276414406331
 20
231.775018044291
 30
0.0
 10
62.61343237058033
 20
231.7478399951662
 30
0.0
 10
63.26408699750991
 20
231.7365157551118
 30
0.0
 10
64.57661608473873
 20
231.7095356556361
 30
0.0
 10
65.23465862423686
 20
231.6939698605039
 30
0.0
 10
65.89448420228773
 20
231.6764239872486
 30
0.0
  0
SPLINE
  5
90
330
1F
100
AcDbEntity
  8
0
  6
Continuous
 62
     7
370
    15
100
AcDbSpline
210
0.0
220
0.0
230
1.0
 70
     8
 71
     3
 72
     8
 73
     4
 74
     0
 42
0.00000001
 43
0.00000001
 12
1.0
 22
0.0
 32
0.0
 13
1.0
 23
0.0
 33
0.0
 40
0.0
 40
0.0
 40
0.0
 40
0.0
 40
1.0
 40
1.0
 40
1.0
 40
1.0
 10
65.89448420228771
 20
231.6764239872486
 30
0.0
 10
70.36414861472387
 20
231.5575680836839
 30
0.0
 10
74.83324873404287
 20
231.4176998216818
 30
0.0
 10
79.30179951296127
 20
231.263844502155
 30
0.0
  0
SPLINE
  5
91
330
1F
100
AcDbEntity
  8
0
  6
Continuous
 62
     7
370
    15
100
AcDbSpline
210
0.0
220
0.0
230
1.0
 70
     8
 71
     3
 72
    10
 73
     6
 74
     0
 42
0.00000001
 43
0.00000001
 12
1.0
 22
0.0
 32
0.0
 13
1.0
 23
0.0
 33
0.0
 40
0.0
 40
0.0
 40
0.0
 40
0.0
 40
0.5
 40
0.5
 40
1.0
 40
1.0
 40
1.0
 40
1.0
 10
79.30179951296127
 20
231.263844502155
 30
0.0
 10
79.67420604309252
 20
231.2510222856195
 30
0.0
 10
80.04089936189607
 20
231.2396346113775
 30
0.0
 10
80.76332666158702
 20
231.2195312982115
 30
0.0
 10
81.12089241731805
 20
231.210778627231
 30
0.0
 10
81.46849567457573
 20
231.2034913682631
 30
0.0
  0
LINE
  5
92
330
1F
100
AcDbEntity
  8
0
  6
Continuous
 62
     7
370
    15
100
AcDbLine
 10
91.3451552122
 20
230.4719193656
 30
0.0
 11
81.4684942096
 21
231.2034918744
 31
0.0
  0
SPLINE
  5
93
330
1F
100
AcDbEntity
  8
0
  6
Continuous
 62
     7
370
    15
100
AcDbSpline
210
0.0
220
0.0
230
1.0
 70
     8
 71
     3
 72
     8
 73
     4
 74
     0
 42
0.00000001
 43
0.00000001
 12
1.0
 22
0.0
 32
0.0
 13
1.0
 23
0.0
 33
0.0
 40
0.0
 40
0.0
 40
0.0
 40
0.0
 40
1.0
 40
1.0
 40
1.0
 40
1.0
 10
100.7143204699427
 20
229.5508430199922
 30
0.0
 10
103.8373753580243
 20
229.5669051470062
 30
0.0
 10
106.960430308264
 20
229.5669295884431
 30
0.0
 10
110.0834853206644
 20
229.550915645058
 30
0.0
  0
LINE
  5
94
330
1F
100
AcDbEntity
  8
0
  6
Continuous
 62
     7
370
    15
100
AcDbLine
 10
91.3451552122
 20
230.2433038879
 30
0.0
 11
100.7143199175
 21
229.5508432019
 31
0.0
  0
SPLINE
  5
95
330
1F
100
AcDbEntity
  8
0
  6
Continuous
 62
     7
370
    15
100
AcDbSpline
210
0.0
220
0.0
230
1.0
 70
     8
 71
     3
 72
     8
 73
     4
 74
     0
 42
0.00000001
 43
0.00000001
 12
1.0
 22
0.0
 32
0.0
 13
1.0
 23
0.0
 33
0.0
 40
0.0
 40
0.0
 40
0.0
 40
0.0
 40
1.0
 40
1.0
 40
1.0
 40
1.0
 10
-34.18044017701421
 20
229.5508430199922
 30
0.0
 10
-31.05738528893257
 20
229.5669051470062
 30
0.0
 10
-27.93433033869288
 20
229.5669295884431
 30
0.0
 10
-24.81127532629247
 20
229.550915645058
 30
0.0
  0
LINE
  5
96
330
1F
100
AcDbEntity
  8
0
  6
Continuous
 62
     7
370
    15
100
AcDbLine
 10
-24.8112738402
 20
229.5509158451
 30
0.0
 11
-15.4421091349
 21
230.2433877069
 31
0.0
  0
LINE
  5
97
330
1F
100
AcDbEntity
  8
0
  6
Continuous
 62
     7
370
    15
100
AcDbLine
 10
15.1512022792
 20
230.3458909321
 30
0.0
 11
17.812326151
 21
230.7106378305
 31
0.0
  0
SPLINE
  5
98
330
1F
100
AcDbEntity
  8
0
  6
Continuous
 62
     7
370
    15
100
AcDbSpline
210
0.0
220
0.0
230
1.0
 70
     8
 71
     3
 72
    49
 73
    45
 74
     0
 42
0.00000001
 43
0.00000001
 12
1.0
 22
0.0
 32
0.0
 13
1.0
 23
0.0
 33
0.0
 40
0.0
 40
0.0
 40
0.0
 40
0.0
 40
0.062499999999997
 40
0.062499999999997
 40
0.1249999999999941
 40
0.1249999999999941
 40
0.1874999999999911
 40
0.1874999999999911
 40
0.2187499999999905
 40
0.2187499999999905
 40
0.2499999999999898
 40
0.2812499999999891
 40
0.2812499999999891
 40
0.3124999999999885
 40
0.3124999999999885
 40
0.3749999999999892
 40
0.3749999999999892
 40
0.4062499999999897
 40
0.4062499999999897
 40
0.4374999999999901
 40
0.4374999999999901
 40
0.4999999999999909
 40
0.4999999999999909
 40
0.5312499999999913
 40
0.5312499999999913
 40
0.5624999999999917
 40
0.5624999999999917
 40
0.6249999999999931
 40
0.6249999999999931
 40
0.6874999999999946
 40
0.6874999999999946
 40
0.718749999999995
 40
0.718749999999995
 40
0.7499999999999953
 40
0.7499999999999953
 40
0.812499999999997
 40
0.812499999999997
 40
0.8749999999999986
 40
0.8749999999999986
 40
0.9375000000000002
 40
0.9375000000000002
 40
0.9687500000000001
 40
0.9687500000000001
 40
1.0
 40
1.0
 40
1.0
 40
1.0
 10
17.81232643532516
 20
230.710637125146
 30
0.0
 10
18.02202653186546
 20
230.7393637824127
 30
0.0
 10
18.17974900689433
 20
230.7680793948534
 30
0.0
 10
18.39234076588804
 20
230.8254943433437
 30
0.0
 10
18.44618139489608
 20
230.8543756767248
 30
0.0
 10
18.4441136365948
 20
230.9096238278662
 30
0.0
 10
18.38996215042203
 20
230.9362832817871
 30
0.0
 10
18.22731546963913
 20
230.9746834999883
 30
0.0
 10
18.15918531540281
 20
230.9872206960174
 30
0.0
 10
17.99845632322207
 20
231.011181486229
 30
0.0
 10
17.81275655632048
 20
231.0341757568809
 30
0.0
 10
17.57792060172178
 20
231.0552158019201
 30
0.0
 10
17.31820947295822
 20
231.075238382503
 30
0.0
 10
17.17518129871002
 20
231.0847820510706
 30
0.0
 10
16.71253353727173
 20
231.1114799889296
 30
0.0
 10
16.36356926408391
 20
231.1265462578181
 30
0.0
 10
15.78110359411254
 20
231.1450121074431
 30
0.0
 10
15.57704076596885
 20
231.1504740067514
 30
0.0
 10
15.14852660666339
 20
231.1599495304375
 30
0.0
 10
14.92467384289677
 20
231.1639379095638
 30
0.0
 10
14.23718853699035
 20
231.1734500660038
 30
0.0
 10
13.7533505863361
 20
231.1766459941256
 30
0.0
 10
12.98923936806378
 20
231.1766712791577
 30
0.0
 10
12.72658712224084
 20
231.1758684768565
 30
0.0
 10
12.19654998179679
 20
231.1726573867953
 30
0.0
 10
11.92938883381468
 20
231.170261791687
 30
0.0
 10
11.12164402620821
 20
231.1607810577495
 30
0.0
 10
10.57485952177974
 20
231.1514210392053
 30
0.0
 10
9.464135329740769
 20
231.1265613648144
 30
0.0
 10
8.914503751636389
 20
231.1113629134096
 30
0.0
 10
8.10741914145318
 20
231.0849695227841
 30
0.0
 10
7.840791972097194
 20
231.0755565928263
 30
0.0
 10
7.312429420916942
 20
231.0555059393673
 30
0.0
 10
7.049441154813825
 20
231.0448090980376
 30
0.0
 10
6.283408161424344
 20
231.0115265014475
 30
0.0
 10
5.799556842075518
 20
230.9876560638283
 30
0.0
 10
4.884641676305805
 20
230.9368068664374
 30
0.0
 10
4.450804317073176
 20
230.9095738215749
 30
0.0
 10
3.67259991285053
 20
230.8542915527283
 30
0.0
 10
3.323701699198288
 20
230.826037049155
 30
0.0
 10
2.861634122286329
 20
230.7827744258367
 30
0.0
 10
2.717624166526309
 20
230.7681610886998
 30
0.0
 10
2.456547492197529
 20
230.7392636528891
 30
0.0
 10
2.338624265018498
 20
230.7249063030526
 30
0.0
 10
2.233079718643387
 20
230.710637125146
 30
0.0
  0
LINE
  5
99
330
1F
100
AcDbEntity
  8
0
  6
Continuous
 62
     7
370
    15
100
AcDbLine
 10
2.2330783038
 20
230.7106378305
 30
0.0
 11
-0.4633650453
 21
230.3458909321
 31
0.0
  0
SPLINE
  5
9A
330
1F
100
AcDbEntity
  8
0
  6
Continuous
 62
     7
370
    15
100
AcDbSpline
210
0.0
220
0.0
230
1.0
 70
     8
 71
     3
 72
    49
 73
    45
 74
     0
 42
0.00000001
 43
0.00000001
 12
1.0
 22
0.0
 32
0.0
 13
1.0
 23
0.0
 33
0.0
 40
0.0
 40
0.0
 40
0.0
 40
0.0
 40
0.0624999999999974
 40
0.0624999999999974
 40
0.1249999999999948
 40
0.1249999999999948
 40
0.1874999999999922
 40
0.1874999999999922
 40
0.2187499999999917
 40
0.2187499999999917
 40
0.2499999999999912
 40
0.2812499999999907
 40
0.2812499999999907
 40
0.3124999999999901
 40
0.3124999999999901
 40
0.3749999999999895
 40
0.3749999999999895
 40
0.4062499999999898
 40
0.4062499999999898
 40
0.4374999999999901
 40
0.4374999999999901
 40
0.4999999999999915
 40
0.4999999999999915
 40
0.5312499999999917
 40
0.5312499999999917
 40
0.562499999999992
 40
0.562499999999992
 40
0.6249999999999933
 40
0.6249999999999933
 40
0.6874999999999948
 40
0.6874999999999948
 40
0.7187499999999957
 40
0.7187499999999957
 40
0.7499999999999966
 40
0.7499999999999966
 40
0.8124999999999974
 40
0.8124999999999974
 40
0.8749999999999983
 40
0.8749999999999983
 40
0.9374999999999991
 40
0.9374999999999991
 40
0.9687499999999996
 40
0.9687499999999996
 40
1.0
 40
1.0
 40
1.0
 40
1.0
 10
-0.4633648009059813
 20
230.3458901327878
 30
0.0
 10
-0.6770749988335365
 20
230.3169672271012
 30
0.0
 10
-0.8384033074473191
 20
230.2886631767118
 30
0.0
 10
-1.057414829900918
 20
230.2332144058834
 30
0.0
 10
-1.114070491939907
 20
230.205911888152
 30
0.0
 10
-1.11653411682943
 20
230.1546817291848
 30
0.0
 10
-1.064143906750276
 20
230.1304638543354
 30
0.0
 10
-0.9033098254106544
 20
230.096170535132
 30
0.0
 10
-0.8356679756656091
 20
230.0850828992071
 30
0.0
 10
-0.6756484016029046
 20
230.0640641960318
 30
0.0
 10
-0.490385893588248
 20
230.044069188446
 30
0.0
 10
-0.2554317986127319
 20
230.0260517631737
 30
0.0
 10
0.0046933925680198
 20
230.0090176523643
 30
0.0
 10
0.1481376238124665
 20
230.0009554411328
 30
0.0
 10
0.611891365878317
 20
229.9785577172417
 30
0.0
 10
0.9620882261780483
 20
229.9660956914993
 30
0.0
 10
1.54721357841392
 20
229.9509191818528
 30
0.0
 10
1.752299305834218
 20
229.9464510695193
 30
0.0
 10
2.183161702997011
 20
229.9387208294151
 30
0.0
 10
2.407942760140954
 20
229.9354852437052
 30
0.0
 10
3.098773018442406
 20
229.9277751572948
 30
0.0
 10
3.585266214411686
 20
229.9251991175347
 30
0.0
 10
4.35410019160825
 20
229.9251800330297
 30
0.0
 10
4.618460225729655
 20
229.9258296276188
 30
0.0
 10
5.151193460779719
 20
229.9284245453109
 30
0.0
 10
5.419784872325605
 20
229.9303611029216
 30
0.0
 10
6.232070426523379
 20
229.9380483784727
 30
0.0
 10
6.782212110480367
 20
229.9456565619538
 30
0.0
 10
7.900395803441183
 20
229.9661073588094
 30
0.0
 10
8.451862697597608
 20
229.9786569303789
 30
0.0
 10
9.263404100565344
 20
230.0008109293794
 30
0.0
 10
9.531557186630332
 20
230.0087597099337
 30
0.0
 10
10.06304216034333
 20
230.0258265920327
 30
0.0
 10
10.32735625263996
 20
230.0349874657849
 30
0.0
 10
11.09633098658641
 20
230.063695214935
 30
0.0
 10
11.58217397566427
 20
230.0845928924477
 30
0.0
 10
12.50088917568217
 20
230.1300164706658
 30
0.0
 10
12.93583040088491
 20
230.1547494698384
 30
0.0
 10
13.71492666603045
 20
230.2059868264842
 30
0.0
 10
14.06410600805849
 20
230.2326973374262
 30
0.0
 10
14.52602601607851
 20
230.274522901423
 30
0.0
 10
14.66949146093847
 20
230.2887672739338
 30
0.0
 10
14.92925200680733
 20
230.3172299743208
 30
0.0
 10
15.04646110733745
 20
230.3315264431805
 30
0.0
 10
15.15120290176312
 20
230.3458901327878
 30
0.0
  0
LINE
  5
9B
330
1F
100
AcDbEntity
  8
0
  6
Continuous
 62
     7
370
    15
100
AcDbLine
 10
76.3805523246
 20
230.3458909321
 30
0.0
 11
73.6841089754
 21
230.7106378305
 31
0.0
  0
SPLINE
  5
9C
330
1F
100
AcDbEntity
  8
0
  6
Continuous
 62
     7
370
    15
100
AcDbSpline
210
0.0
220
0.0
230
1.0
 70
     8
 71
     3
 72
    50
 73
    46
 74
     0
 42
0.00000001
 43
0.00000001
 12
1.0
 22
0.0
 32
0.0
 13
1.0
 23
0.0
 33
0.0
 40
0.0
 40
0.0
 40
0.0
 40
0.0
 40
0.0312499999999997
 40
0.0312499999999997
 40
0.0624999999999993
 40
0.0624999999999993
 40
0.1249999999999991
 40
0.1249999999999991
 40
0.1562499999999987
 40
0.1562499999999987
 40
0.1874999999999983
 40
0.1874999999999983
 40
0.2499999999999976
 40
0.2499999999999976
 40
0.2812499999999973
 40
0.2812499999999973
 40
0.3124999999999971
 40
0.3124999999999971
 40
0.3749999999999971
 40
0.3749999999999971
 40
0.4374999999999971
 40
0.4374999999999971
 40
0.4687499999999972
 40
0.4687499999999972
 40
0.4999999999999972
 40
0.4999999999999972
 40
0.5624999999999977
 40
0.5624999999999977
 40
0.6249999999999981
 40
0.6249999999999981
 40
0.6874999999999986
 40
0.6874999999999986
 40
0.7187499999999988
 40
0.7187499999999988
 40
0.749999999999999
 40
0.749999999999999
 40
0.8124999999999981
 40
0.8124999999999981
 40
0.8749999999999971
 40
0.8749999999999971
 40
0.9062499999999974
 40
0.9062499999999974
 40
0.9374999999999978
 40
0.9374999999999978
 40
1.0
 40
1.0
 40
1.0
 40
1.0
 10
73.68410756062845
 20
230.710637125146
 30
0.0
 10
73.57858189422039
 20
230.7249037505606
 30
0.0
 10
73.46078867923022
 20
230.739244039116
 30
0.0
 10
73.2003524878844
 20
230.7680768385
 30
0.0
 10
73.05691650708246
 20
230.7826420159781
 30
0.0
 10
72.59370203103079
 20
230.826026261265
 30
0.0
 10
72.24445738371291
 20
230.8542982186191
 30
0.0
 10
71.66164078897552
 20
230.8957043316205
 30
0.0
 10
71.45747296873523
 20
230.9093376891182
 30
0.0
 10
71.0287621947672
 20
230.9362407287267
 30
0.0
 10
70.8050394493491
 20
230.9494492746042
 30
0.0
 10
70.11779152302528
 20
230.9876509787002
 30
0.0
 10
69.63411089197332
 20
231.0115056103605
 30
0.0
 10
68.87016888465217
 20
231.0447070556216
 30
0.0
 10
68.60755883448186
 20
231.0553958622604
 30
0.0
 10
68.07780835377346
 20
231.0755067234176
 30
0.0
 10
67.81077092023205
 20
231.0849352012803
 30
0.0
 10
67.00333362281908
 20
231.1113447031346
 30
0.0
 10
66.45667001969174
 20
231.1264676778249
 30
0.0
 10
65.34598159685946
 20
231.1513518870069
 30
0.0
 10
64.79640393957484
 20
231.1607663402584
 30
0.0
 10
63.98925208791032
 20
231.1702470294782
 30
0.0
 10
63.72258942794068
 20
231.1726401769704
 30
0.0
 10
63.19413287373321
 20
231.1758524025947
 30
0.0
 10
62.93107688266583
 20
231.1766662509025
 30
0.0
 10
62.16486389195813
 20
231.1766562188589
 30
0.0
 10
61.68093335243859
 20
231.1734538750325
 30
0.0
 10
60.76597290228991
 20
231.1608125455699
 30
0.0
 10
60.33218095179717
 20
231.1512196205768
 30
0.0
 10
59.55436107005878
 20
231.1265791211011
 30
0.0
 10
59.20576607664018
 20
231.1115229708008
 30
0.0
 10
58.74432597250169
 20
231.0849264353209
 30
0.0
 10
58.60059689888988
 20
231.0753536939532
 30
0.0
 10
58.34014971383922
 20
231.0552933025654
 30
0.0
 10
58.22256050789304
 20
231.0447629159009
 30
0.0
 10
57.90698461953985
 20
231.0117410752873
 30
0.0
 10
57.74538844506204
 20
230.9877279240912
 30
0.0
 10
57.52737486510986
 20
230.9363810439187
 30
0.0
 10
57.47321286126149
 20
230.9096959119312
 30
0.0
 10
57.47145951733251
 20
230.8683096502246
 30
0.0
 10
57.48421986985223
 20
230.8542854642185
 30
0.0
 10
57.53713622744459
 20
230.8257790349
 30
0.0
 10
57.57745669128106
 20
230.8113071676103
 30
0.0
 10
57.73706892581383
 20
230.7681367782474
 30
0.0
 10
57.89505909596835
 20
230.7393777075661
 30
0.0
 10
58.10486084394653
 20
230.710637125146
 30
0.0
  0
LINE
  5
9D
330
1F
100
AcDbEntity
  8
0
  6
Continuous
 62
     7
370
    15
100
AcDbLine
 10
58.1048611282
 20
230.7106378305
 30
0.0
 11
60.765985
 21
230.3458909321
 31
0.0
  0
SPLINE
  5
9E
330
1F
100
AcDbEntity
  8
0
  6
Continuous
 62
     7
370
    15
100
AcDbSpline
210
0.0
220
0.0
230
1.0
 70
     8
 71
     3
 72
    51
 73
    47
 74
     0
 42
0.00000001
 43
0.00000001
 12
1.0
 22
0.0
 32
0.0
 13
1.0
 23
0.0
 33
0.0
 40
0.0
 40
0.0
 40
0.0
 40
0.0
 40
0.0312499999999993
 40
0.0312499999999993
 40
0.0624999999999985
 40
0.0624999999999985
 40
0.1249999999999968
 40
0.1249999999999968
 40
0.1562499999999965
 40
0.1562499999999965
 40
0.1874999999999962
 40
0.1874999999999962
 40
0.2499999999999968
 40
0.2499999999999968
 40
0.2812499999999971
 40
0.2812499999999971
 40
0.3124999999999974
 40
0.3124999999999974
 40
0.3749999999999978
 40
0.3749999999999978
 40
0.4374999999999981
 40
0.4374999999999981
 40
0.4687499999999979
 40
0.4687499999999979
 40
0.4999999999999979
 40
0.4999999999999979
 40
0.562499999999999
 40
0.562499999999999
 40
0.6250000000000002
 40
0.6250000000000002
 40
0.6875000000000013
 40
0.6875000000000013
 40
0.7187500000000018
 40
0.7187500000000018
 40
0.7500000000000021
 40
0.7812500000000024
 40
0.7812500000000024
 40
0.8125000000000028
 40
0.8125000000000028
 40
0.8750000000000019
 40
0.8750000000000019
 40
0.9062500000000013
 40
0.9062500000000013
 40
0.9375000000000008
 40
0.9375000000000008
 40
1.0
 40
1.0
 40
1.0
 40
1.0
 10
60.76598437750845
 20
230.3458901327878
 30
0.0
 10
60.87072006421715
 20
230.3315272807579
 30
0.0
 10
60.98785988365744
 20
230.3172401346672
 30
0.0
 10
61.24726301677459
 20
230.2888128011662
 30
0.0
 10
61.39030798960832
 20
230.2746035165146
 30
0.0
 10
61.85291836562708
 20
230.2327054012432
 30
0.0
 10
62.2023119427794
 20
230.2059852158365
 30
0.0
 10
62.7861479194704
 20
230.1675865281692
 30
0.0
 10
62.99078959362834
 20
230.1550690791891
 30
0.0
 10
63.42072823600243
 20
230.1305973972851
 30
0.0
 10
63.64515516728911
 20
230.1187025833673
 30
0.0
 10
64.3348537945894
 20
230.084598027257
 30
0.0
 10
64.82060222153915
 20
230.0637086681865
 30
0.0
 10
65.58831488225472
 20
230.0350420895373
 30
0.0
 10
65.852308078699
 20
230.0258879275449
 30
0.0
 10
66.38466294461053
 20
230.0087884339726
 30
0.0
 10
66.6530756717257
 20
230.0008312211335
 30
0.0
 10
67.46485376677566
 20
229.978667830889
 30
0.0
 10
68.01469508376603
 20
229.9661527005667
 30
0.0
 10
69.1323448467373
 20
229.9456976980308
 30
0.0
 10
69.68450251173265
 20
229.9380567328916
 30
0.0
 10
70.49643505406442
 20
229.9303689904842
 30
0.0
 10
70.76472284086306
 20
229.9284335068692
 30
0.0
 10
71.29648827992516
 20
229.9258377801157
 30
0.0
 10
71.56108406667188
 20
229.9251826404339
 30
0.0
 10
72.33121808289874
 20
229.9251938101332
 30
0.0
 10
72.81776940951902
 20
229.9277728189313
 30
0.0
 10
73.73783779594775
 20
229.9380316376022
 30
0.0
 10
74.1736875965203
 20
229.9458331977154
 30
0.0
 10
74.95458928476891
 20
229.9660773544558
 30
0.0
 10
75.30455638670097
 20
229.9785339787269
 30
0.0
 10
75.76756598132536
 20
230.0008778315787
 30
0.0
 10
75.91147729038012
 20
230.0089564571023
 30
0.0
 10
76.17205209182279
 20
230.026009291261
 30
0.0
 10
76.4072156618224
 20
230.0440368226066
 30
0.0
 10
76.59241187796076
 20
230.0640171808152
 30
0.0
 10
76.75232557862896
 20
230.0850047255891
 30
0.0
 10
76.81988635181784
 20
230.0960583512747
 30
0.0
 10
76.98123794264737
 20
230.1304081087599
 30
0.0
 10
77.03363566973265
 20
230.1546395116563
 30
0.0
 10
77.03192087583191
 20
230.1930319798451
 30
0.0
 10
77.01786685129593
 20
230.2061725389774
 30
0.0
 10
76.96201149638601
 20
230.2331756021637
 30
0.0
 10
76.9201775281199
 20
230.2469821398017
 30
0.0
 10
76.75581247849972
 20
230.288629589596
 30
0.0
 10
76.59432228081285
 20
230.3169591065123
 30
0.0
 10
76.38055208017768
 20
230.3458901327878
 30
0.0
  0
LINE
  5
9F
330
1F
100
AcDbEntity
  8
0
  6
Continuous
 62
     7
370
    15
100
AcDbLine
 10
115.1028364628
 20
230.3458909321
 30
0.0
 11
110.0834846227
 21
230.6286609549
 31
0.0
  0
SPLINE
  5
A0
330
1F
100
AcDbEntity
  8
0
  6
Continuous
 62
     7
370
    15
100
AcDbSpline
210
0.0
220
0.0
230
1.0
 70
     8
 71
     3
 72
    43
 73
    39
 74
     0
 42
0.00000001
 43
0.00000001
 12
1.0
 22
0.0
 32
0.0
 13
1.0
 23
0.0
 33
0.0
 40
0.0
 40
0.0
 40
0.0
 40
0.0
 40
0.0116110237715076
 40
0.0356579273874916
 40
0.0640771265215508
 40
0.0925981750995872
 40
0.1211191462510613
 40
0.1495385792795446
 40
0.1779411373733475
 40
0.2064454016589399
 40
0.2349493092099669
 40
0.26335193712473
 40
0.2917245832048893
 40
0.3201987493607835
 40
0.348672994893134
 40
0.3770457013004528
 40
0.4053918781139091
 40
0.4338393876971482
 40
0.4622868079259999
 40
0.4906329088173003
 40
0.5189647168606656
 40
0.5473977968165735
 40
0.5758310032764874
 40
0.6041628232084004
 40
0.632497294342615
 40
0.6609328305922035
 40
0.6893684692626465
 40
0.717703016508353
 40
0.7460560060034902
 40
0.7745102397491385
 40
0.802964470820625
 40
0.8313177567066206
 40
0.8596994465702189
 40
0.8881823853203096
 40
0.9166652792460019
 40
0.9450469699827294
 40
0.972523528649764
 40
0.9999999999999999
 40
0.9999999999999999
 40
0.9999999999999999
 40
0.9999999999999999
 10
110.0834846227413
 20
230.2678870785561
 30
0.0
 10
110.177959281004
 20
230.26298567476
 30
0.0
 10
110.4680948082911
 20
230.2479332638704
 30
0.0
 10
110.9991240369109
 20
230.2216185331153
 30
0.0
 10
111.6742507298282
 20
230.1892248794837
 30
0.0
 10
112.3887815505513
 20
230.1564285069415
 30
0.0
 10
113.0997064536275
 20
230.1251376630449
 30
0.0
 10
113.8012864109502
 20
230.095614581047
 30
0.0
 10
114.4888403853547
 20
230.0680453893234
 30
0.0
 10
115.1586321470563
 20
230.0425087768249
 30
0.0
 10
115.8055125706084
 20
230.0191500717312
 30
0.0
 10
116.423824729566
 20
229.9981585734697
 30
0.0
 10
117.0089215599253
 20
229.9796816087435
 30
0.0
 10
117.5582433670422
 20
229.9637402434971
 30
0.0
 10
118.0678236151973
 20
229.9504062408743
 30
0.0
 10
118.5330597606305
 20
229.9397930249299
 30
0.0
 10
118.9498106816837
 20
229.9320101129682
 30
0.0
 10
119.3169831312284
 20
229.9270215277826
 30
0.0
 10
119.6321268671829
 20
229.9248325389984
 30
0.0
 10
119.8922132291422
 20
229.9254773901117
 30
0.0
 10
120.0941004538021
 20
229.9290267420927
 30
0.0
 10
120.238202007185
 20
229.9353912565323
 30
0.0
 10
120.3238976244541
 20
229.9445055810137
 30
0.0
 10
120.3499874281051
 20
229.95633945119
 30
0.0
 10
120.314639536611
 20
229.9709047334162
 30
0.0
 10
120.2197695278162
 20
229.9880742080883
 30
0.0
 10
120.0666237735902
 20
230.0077151368706
 30
0.0
 10
119.8559686240043
 20
230.0297219192419
 30
0.0
 10
119.58741018631
 20
230.0540570936768
 30
0.0
 10
119.2641503289491
 20
230.0805546474928
 30
0.0
 10
118.8893138131836
 20
230.1090094712545
 30
0.0
 10
118.4653719154149
 20
230.1392512543025
 30
0.0
 10
117.9935279167257
 20
230.1711863177962
 30
0.0
 10
117.4778594893182
 20
230.2046086203865
 30
0.0
 10
116.923204143858
 20
230.2392516011896
 30
0.0
 10
116.3393530511463
 20
230.2745046523094
 30
0.0
 10
115.7333002425306
 20
230.3100916197561
 30
0.0
 10
115.3129908334024
 20
230.3339578406364
 30
0.0
 10
115.1028364627605
 20
230.3458909321156
 30
0.0
  0
LINE
  5
A1
330
1F
100
AcDbEntity
  8
0
  6
Continuous
 62
     7
370
    15
100
AcDbLine
 10
-34.1804385454
 20
230.6278637427
 30
0.0
 11
-39.1856491835
 21
230.3458909321
 31
0.0
  0
SPLINE
  5
A2
330
1F
100
AcDbEntity
  8
0
  6
Continuous
 62
     7
370
    15
100
AcDbSpline
210
0.0
220
0.0
230
1.0
 70
     8
 71
     3
 72
    44
 73
    40
 74
     0
 42
0.00000001
 43
0.00000001
 12
1.0
 22
0.0
 32
0.0
 13
1.0
 23
0.0
 33
0.0
 40
0.0
 40
0.0
 40
0.0
 40
0.0
 40
0.0196998399651351
 40
0.0394162645414991
 40
0.0591160109902473
 40
0.0875595337551867
 40
0.1161048784601963
 40
0.1446501127881707
 40
0.1730935590960928
 40
0.2015208874252129
 40
0.2300501407209624
 40
0.2585791774729483
 40
0.2870065756681104
 40
0.3154055811019179
 40
0.3439062821587416
 40
0.3724069833863691
 40
0.4008059154996242
 40
0.4291761534588475
 40
0.4576478761831247
 40
0.486119537662947
 40
0.5144897304154475
 40
0.5428408067559314
 40
0.5712933860138072
 40
0.5997457397216609
 40
0.6280970504341005
 40
0.6564450124544088
 40
0.6848942669536394
 40
0.7133436018499472
 40
0.7416917296470293
 40
0.7700537618232227
 40
0.7985166347228333
 40
0.8269798903595238
 40
0.8553417013327437
 40
0.8837298813050042
 40
0.9122192288156267
 40
0.9407088633193035
 40
0.9690971777990408
 40
0.9921147445045991
 40
0.9999999999999999
 40
0.9999999999999999
 40
0.9999999999999999
 40
0.9999999999999999
 10
-39.18564918348735
 20
230.3458909321156
 30
0.0
 10
-39.33663873984198
 20
230.3373353365972
 30
0.0
 10
-39.63874496541595
 20
230.3202169429018
 30
0.0
 10
-40.07643222638006
 20
230.2948198031214
 30
0.0
 10
-40.56381290717488
 20
230.2660180540746
 30
0.0
 10
-41.08956817855611
 20
230.234107469768
 30
0.0
 10
-41.63960490735857
 20
230.1995772404426
 30
0.0
 10
-42.14983745234309
 20
230.1663038209338
 30
0.0
 10
-42.61569744736966
 20
230.1345490600025
 30
0.0
 10
-43.03302685539941
 20
230.1045168815831
 30
0.0
 10
-43.40070187437193
 20
230.076300316947
 30
0.0
 10
-43.71618488906297
 20
230.0500750947924
 30
0.0
 10
-43.97642383121998
 20
230.0260444270367
 30
0.0
 10
-44.17821408369377
 20
230.0043751750299
 30
0.0
 10
-44.32206978585194
 20
229.9851002881065
 30
0.0
 10
-44.40731280221994
 20
229.9683258562579
 30
0.0
 10
-44.43277175708784
 20
229.9541741969746
 30
0.0
 10
-44.39661900803839
 20
229.9427864517203
 30
0.0
 10
-44.30085230431196
 20
229.9341249495545
 30
0.0
 10
-44.14673079389584
 20
229.9282337992392
 30
0.0
 10
-43.93503386972787
 20
229.9251630675354
 30
0.0
 10
-43.66550354206643
 20
229.9249990615892
 30
0.0
 10
-43.3413966570465
 20
229.9276685676801
 30
0.0
 10
-42.96572380627192
 20
229.9331333862705
 30
0.0
 10
-42.54113093715107
 20
229.9413742706385
 30
0.0
 10
-42.06885407092116
 20
229.952434755322
 30
0.0
 10
-41.55309097521805
 20
229.9661928522501
 30
0.0
 10
-40.99831456908147
 20
229.9825391646523
 30
0.0
 10
-40.408644521959
 20
230.0013908473509
 30
0.0
 10
-39.78670131432017
 20
230.0227278784642
 30
0.0
 10
-39.13713275769881
 20
230.0463988813877
 30
0.0
 10
-38.46548026719821
 20
230.0722200785014
 30
0.0
 10
-37.77681091270455
 20
230.1000385253347
 30
0.0
 10
-37.07486860204114
 20
230.1297879386218
 30
0.0
 10
-36.36430328344881
 20
230.1612694491059
 30
0.0
 10
-35.65084863829615
 20
230.1942240548373
 30
0.0
 10
-34.985942061451
 20
230.2263338141022
 30
0.0
 10
-34.49544554550081
 20
230.2507468028483
 30
0.0
 10
-34.24447653922246
 20
230.2638001212916
 30
0.0
 10
-34.18043854544108
 20
230.2671308446255
 30
0.0
  0
LINE
  5
A3
330
1F
100
AcDbEntity
  8
0
  6
Continuous
 62
     7
370
    15
100
AcDbLine
 10
80.4843395679
 20
213.3210604827
 30
0.0
 11
71.88663778
 21
213.3210604827
 31
0.0
  0
LINE
  5
A4
330
1F
100
AcDbEntity
  8
0
  6
Continuous
 62
     7
370
    15
100
AcDbLine
 10
4.0305494993
 20
213.3210604827
 30
0.0
 11
-4.5671522887
 21
213.3210604827
 31
0.0
  0
LINE
  5
A5
330
1F
100
AcDbEntity
  8
0
  6
Continuous
 62
     7
370
    15
100
AcDbLine
 10
71.88663778
 20
217.3210606727
 30
0.0
 11
4.0305494993
 21
217.3210606727
 31
0.0
  0
LINE
  5
A6
330
1F
100
AcDbEntity
  8
0
  6
Continuous
 62
     7
370
    15
100
AcDbLine
 10
54.0838964014
 20
217.3210606727
 30
0.0
 11
54.0838964014
 21
213.3210604827
 31
0.0
  0
LINE
  5
A7
330
1F
100
AcDbEntity
  8
0
  6
Continuous
 62
     7
370
    15
100
AcDbLine
 10
54.0838964014
 20
213.3210604827
 30
0.0
 11
71.88663778
 21
213.3210604827
 31
0.0
  0
LINE
  5
A8
330
1F
100
AcDbEntity
  8
0
  6
Continuous
 62
     7
370
    15
100
AcDbLine
 10
21.8332908778
 20
217.3210606727
 30
0.0
 11
21.8332908778
 21
213.3210604827
 31
0.0
  0
LINE
  5
A9
330
1F
100
AcDbEntity
  8
0
  6
Continuous
 62
     7
370
    15
100
AcDbLine
 10
4.0305494993
 20
213.3210604827
 30
0.0
 11
21.8332908778
 21
213.3210604827
 31
0.0
  0
LINE
  5
AA
330
1F
100
AcDbEntity
  8
0
  6
Continuous
 62
     7
370
    15
100
AcDbLine
 10
97.0680169492
 20
224.3210608888
 30
0.0
 11
107.6998725264
 21
224.3210608888
 31
0.0
  0
LINE
  5
AB
330
1F
100
AcDbEntity
  8
0
  6
Continuous
 62
     7
370
    15
100
AcDbLine
 10
97.0680169492
 20
217.3210606727
 30
0.0
 11
79.0500580995
 21
217.3210606727
 31
0.0
  0
LINE
  5
AC
330
1F
100
AcDbEntity
  8
0
  6
Continuous
 62
     7
370
    15
100
AcDbLine
 10
-31.7826852472
 20
224.3210608888
 30
0.0
 11
-21.1508296699
 21
224.3210608888
 31
0.0
  0
LINE
  5
AD
330
1F
100
AcDbEntity
  8
0
  6
Continuous
 62
     7
370
    15
100
AcDbLine
 10
-3.1328708203
 20
217.3210606727
 30
0.0
 11
-21.1508296699
 21
217.3210606727
 31
0.0
  0
LINE
  5
AE
330
1F
100
AcDbEntity
  8
0
  6
Continuous
 62
     7
370
    15
100
AcDbLine
 10
-12.2687019677
 20
213.3210604827
 30
0.0
 11
-4.5671522887
 21
213.3210604827
 31
0.0
  0
LINE
  5
AF
330
1F
100
AcDbEntity
  8
0
  6
Continuous
 62
     7
370
    15
100
AcDbLine
 10
88.185889247
 20
213.3210604827
 30
0.0
 11
80.4843395679
 21
213.3210604827
 31
0.0
  0
LINE
  5
B0
330
1F
100
AcDbEntity
  8
0
  6
Continuous
 62
     7
370
    15
100
AcDbLine
 10
102.1285369723
 20
340.7787746567
 30
0.0
 11
102.1285369723
 21
335.7787794251
 31
0.0
  0
LINE
  5
B1
330
1F
100
AcDbEntity
  8
0
  6
Continuous
 62
     7
370
    15
100
AcDbLine
 10
124.7559502452
 20
340.7787746567
 30
0.0
 11
102.1285369723
 21
340.7787746567
 31
0.0
  0
LINE
  5
B2
330
1F
100
AcDbEntity
  8
0
  6
Continuous
 62
     7
370
    15
100
AcDbLine
 10
124.7559502452
 20
340.7787746567
 30
0.0
 11
124.7559502452
 21
335.7787794251
 31
0.0
  0
LINE
  5
B3
330
1F
100
AcDbEntity
  8
0
  6
Continuous
 62
     7
370
    15
100
AcDbLine
 10
124.7559502452
 20
335.7787794251
 30
0.0
 11
102.1285369723
 21
335.7787794251
 31
0.0
  0
LINE
  5
B4
330
1F
100
AcDbEntity
  8
0
  6
Continuous
 62
     7
370
    15
100
AcDbLine
 10
67.1680267631
 20
340.009591617
 30
0.0
 11
67.1680267631
 21
340.7787746567
 31
0.0
  0
LINE
  5
B5
330
1F
100
AcDbEntity
  8
0
  6
Continuous
 62
     7
370
    15
100
AcDbLine
 10
96.1266398161
 20
335.7787794251
 30
0.0
 11
75.6481155484
 21
335.7787794251
 31
0.0
  0
SPLINE
  5
B6
330
1F
100
AcDbEntity
  8
0
  6
Continuous
 62
     7
370
    15
100
AcDbSpline
210
0.0
220
0.0
230
1.0
 70
     8
 71
     3
 72
     8
 73
     4
 74
     0
 42
0.00000001
 43
0.00000001
 12
1.0
 22
0.0
 32
0.0
 13
1.0
 23
0.0
 33
0.0
 40
0.0
 40
0.0
 40
0.0
 40
0.0
 40
1.0
 40
1.0
 40
1.0
 40
1.0
 10
75.64811426716619
 20
335.778777682195
 30
0.0
 10
72.82301099528793
 20
337.1956747707947
 30
0.0
 10
69.99660560032744
 20
338.6072618701543
 30
0.0
 10
67.1680266773097
 20
340.0095921302402
 30
0.0
  0
LINE
  5
B7
330
1F
100
AcDbEntity
  8
0
  6
Continuous
 62
     7
370
    15
100
AcDbLine
 10
102.1285369723
 20
340.7787746567
 30
0.0
 11
67.1680267631
 21
340.7787746567
 31
0.0
  0
LINE
  5
B8
330
1F
100
AcDbEntity
  8
0
  6
Continuous
 62
     7
370
    15
100
AcDbLine
 10
102.1285369723
 20
335.7787794251
 30
0.0
 11
96.1266398161
 21
335.7787794251
 31
0.0
  0
LINE
  5
B9
330
1F
100
AcDbEntity
  8
0
  6
Continuous
 62
     7
370
    15
100
AcDbLine
 10
-26.211349693
 20
335.7787794251
 30
0.0
 11
-20.2094525368
 21
335.7787794251
 31
0.0
  0
LINE
  5
BA
330
1F
100
AcDbEntity
  8
0
  6
Continuous
 62
     7
370
    15
100
AcDbLine
 10
-26.211349693
 20
340.7787746567
 30
0.0
 11
-26.211349693
 21
335.7787794251
 31
0.0
  0
LINE
  5
BB
330
1F
100
AcDbEntity
  8
0
  6
Continuous
 62
     7
370
    15
100
AcDbLine
 10
8.7491605162
 20
340.009591617
 30
0.0
 11
8.7491605162
 21
340.7787746567
 31
0.0
  0
SPLINE
  5
BC
330
1F
100
AcDbEntity
  8
0
  6
Continuous
 62
     7
370
    15
100
AcDbSpline
210
0.0
220
0.0
230
1.0
 70
     8
 71
     3
 72
     8
 73
     4
 74
     0
 42
0.00000001
 43
0.00000001
 12
1.0
 22
0.0
 32
0.0
 13
1.0
 23
0.0
 33
0.0
 40
0.0
 40
0.0
 40
0.0
 40
0.0
 40
1.0
 40
1.0
 40
1.0
 40
1.0
 10
0.2690730121069698
 20
335.778777682195
 30
0.0
 10
3.094108815906264
 20
337.1956409329787
 30
0.0
 10
5.920477804128736
 20
338.6072103719275
 30
0.0
 10
8.749160601963464
 20
340.0095921302402
 30
0.0
  0
LINE
  5
BD
330
1F
100
AcDbEntity
  8
0
  6
Continuous
 62
     7
370
    15
100
AcDbLine
 10
0.2690717309
 20
335.7787794251
 30
0.0
 11
-20.2094525368
 21
335.7787794251
 31
0.0
  0
LINE
  5
BE
330
1F
100
AcDbEntity
  8
0
  6
Continuous
 62
     7
370
    15
100
AcDbLine
 10
8.7491605162
 20
340.7787746567
 30
0.0
 11
-26.211349693
 21
340.7787746567
 31
0.0
  0
LINE
  5
BF
330
1F
100
AcDbEntity
  8
0
  6
Continuous
 62
     7
370
    15
100
AcDbLine
 10
-48.8387629659
 20
340.7787746567
 30
0.0
 11
-48.8387629659
 21
335.7787794251
 31
0.0
  0
LINE
  5
C0
330
1F
100
AcDbEntity
  8
0
  6
Continuous
 62
     7
370
    15
100
AcDbLine
 10
-26.211349693
 20
335.7787794251
 30
0.0
 11
-48.8387629659
 21
335.7787794251
 31
0.0
  0
LINE
  5
C1
330
1F
100
AcDbEntity
  8
0
  6
Continuous
 62
     7
370
    15
100
AcDbLine
 10
-26.211349693
 20
340.7787746567
 30
0.0
 11
-48.8387629659
 21
340.7787746567
 31
0.0
  0
LINE
  5
C2
330
1F
100
AcDbEntity
  8
0
  6
Continuous
 62
     7
370
    15
100
AcDbLine
 10
21.8332908778
 20
213.3210604827
 30
0.0
 11
22.0422778009
 21
217.3210606727
 31
0.0
  0
LINE
  5
C3
330
1F
100
AcDbEntity
  8
0
  6
Continuous
 62
     7
370
    15
100
AcDbLine
 10
54.0838964014
 20
213.3210604827
 30
0.0
 11
53.8749094783
 21
217.3210606727
 31
0.0
  0
LINE
  5
C4
330
1F
100
AcDbEntity
  8
0
  6
Continuous
 62
     7
370
    15
100
AcDbLine
 10
21.8332908778
 20
213.3210604827
 30
0.0
 11
37.9585936396
 21
213.3210604827
 31
0.0
  0
LINE
  5
C5
330
1F
100
AcDbEntity
  8
0
  6
Continuous
 62
     7
370
    15
100
AcDbLine
 10
54.0838964014
 20
213.3210604827
 30
0.0
 11
37.9585936396
 21
213.3210604827
 31
0.0
  0
LINE
  5
C6
330
1F
100
AcDbEntity
  8
0
  6
Continuous
 62
     7
370
    15
100
AcDbLine
 10
-21.1508296699
 20
217.3210606727
 30
0.0
 11
-22.3290011556
 21
217.3210606727
 31
0.0
  0
LINE
  5
C7
330
1F
100
AcDbEntity
  8
0
  6
Continuous
 62
     7
370
    15
100
AcDbLine
 10
98.2461884349
 20
217.3210606727
 30
0.0
 11
97.0680169492
 21
217.3210606727
 31
0.0
  0
LINE
  5
C8
330
1F
100
AcDbEntity
  8
0
  6
Continuous
 62
     7
370
    15
100
AcDbLine
 10
82.4231222003
 20
310.3210619468
 30
0.0
 11
96.1266398161
 21
335.7787794251
 31
0.0
  0
LINE
  5
C9
330
1F
100
AcDbEntity
  8
0
  6
Continuous
 62
     7
370
    15
100
AcDbLine
 10
86.1846446722
 20
310.3210619468
 30
0.0
 11
101.7749771207
 21
335.7787794251
 31
0.0
  0
LINE
  5
CA
330
1F
100
AcDbEntity
  8
0
  6
Continuous
 62
     7
370
    15
100
AcDbLine
 10
86.1846446722
 20
310.3210619468
 30
0.0
 11
82.4231222003
 21
310.3210619468
 31
0.0
  0
SPLINE
  5
CB
330
1F
100
AcDbEntity
  8
0
  6
Continuous
 62
     7
370
    15
100
AcDbSpline
210
0.0
220
0.0
230
1.0
 70
     8
 71
     3
 72
     8
 73
     4
 74
     0
 42
0.00000001
 43
0.00000001
 12
1.0
 22
0.0
 32
0.0
 13
1.0
 23
0.0
 33
0.0
 40
0.0000006007372458
 40
0.0000006007372458
 40
0.0000006007372458
 40
0.0000006007372458
 40
0.0080289928377437
 40
0.0080289928377437
 40
0.0080289928377437
 40
0.0080289928377437
 10
75.64811426716619
 20
335.778777682195
 30
0.0
 10
77.46518614049356
 20
334.887829047252
 30
0.0
 10
79.28171851919797
 20
333.9943489276795
 30
0.0
 10
81.09784680863027
 20
333.0989914944907
 30
0.0
  0
LINE
  5
CC
330
1F
100
AcDbEntity
  8
0
  6
Continuous
 62
     7
370
    15
100
AcDbLine
 10
82.4231222003
 20
310.3210619468
 30
0.0
 11
79.5402206211
 21
310.3210619468
 31
0.0
  0
SPLINE
  5
CD
330
1F
100
AcDbEntity
  8
0
  6
Continuous
 62
     7
370
    15
100
AcDbSpline
210
0.0
220
0.0
230
1.0
 70
     8
 71
     3
 72
    20
 73
    16
 74
     0
 42
0.00000001
 43
0.00000001
 12
1.0
 22
0.0
 32
0.0
 13
1.0
 23
0.0
 33
0.0
 40
0.0
 40
0.0
 40
0.0
 40
0.0
 40
0.1250000000000009
 40
0.1250000000000009
 40
0.2500000000000018
 40
0.2500000000000018
 40
0.3750000000000028
 40
0.3750000000000028
 40
0.5000000000000037
 40
0.5000000000000037
 40
0.6250000000000046
 40
0.6250000000000046
 40
0.7500000000000056
 40
0.7500000000000056
 40
1.0
 40
1.0
 40
1.0
 40
1.0
 10
81.23442719373207
 20
312.6902205660587
 30
0.0
 10
81.23547307330067
 20
312.5297390109578
 30
0.0
 10
81.2254231290965
 20
312.3725891733289
 30
0.0
 10
81.1839847949159
 20
312.0646967440819
 30
0.0
 10
81.15209529865798
 20
311.9124103705896
 30
0.0
 10
81.068046175475
 20
311.6229963241509
 30
0.0
 10
81.01634888910944
 20
311.4863866426954
 30
0.0
 10
80.89392951625291
 20
311.2290935376079
 30
0.0
 10
80.8224978361786
 20
311.1078259241957
 30
0.0
 10
80.66615694622061
 20
310.8913183805165
 30
0.0
 10
80.58077690744427
 20
310.7947232900255
 30
0.0
 10
80.39549134335988
 20
310.6250223684477
 30
0.0
 10
80.29639596360252
 20
310.5530277967871
 30
0.0
 10
79.98920570128801
 20
310.3806507517414
 30
0.0
 10
79.76454242943706
 20
310.3210604566661
 30
0.0
 10
79.5402202182477
 20
310.3210604566661
 30
0.0
  0
SPLINE
  5
CE
330
1F
100
AcDbEntity
  8
0
  6
Continuous
 62
     7
370
    15
100
AcDbSpline
210
0.0
220
0.0
230
1.0
 70
     8
 71
     3
 72
     8
 73
     4
 74
     0
 42
0.00000001
 43
0.00000001
 12
1.0
 22
0.0
 32
0.0
 13
1.0
 23
0.0
 33
0.0
 40
0.0000002004564486
 40
0.0000002004564486
 40
0.0000002004564486
 40
0.0000002004564486
 40
0.0204557632362345
 40
0.0204557632362345
 40
0.0204557632362345
 40
0.0204557632362345
 10
81.09784680863025
 20
333.0989914944907
 30
0.0
 10
81.14455174868746
 20
326.2959968596387
 30
0.0
 10
81.19009210920868
 20
319.4930719874196
 30
0.0
 10
81.23442719373209
 20
312.6902205660587
 30
0.0
  0
LINE
  5
CF
330
1F
100
AcDbEntity
  8
0
  6
Continuous
 62
     7
370
    15
100
AcDbLine
 10
-20.2094525368
 20
335.7787794251
 30
0.0
 11
-6.505934921
 21
310.3210619468
 31
0.0
  0
LINE
  5
D0
330
1F
100
AcDbEntity
  8
0
  6
Continuous
 62
     7
370
    15
100
AcDbLine
 10
-6.505934921
 20
310.3210619468
 30
0.0
 11
-10.2674573929
 21
310.3210619468
 31
0.0
  0
LINE
  5
D1
330
1F
100
AcDbEntity
  8
0
  6
Continuous
 62
     7
370
    15
100
AcDbLine
 10
-25.8577898414
 20
335.7787794251
 30
0.0
 11
-10.2674573929
 21
310.3210619468
 31
0.0
  0
LINE
  5
D2
330
1F
100
AcDbEntity
  8
0
  6
Continuous
 62
     7
370
    15
100
AcDbLine
 10
-3.6230333419
 20
310.3210619468
 30
0.0
 11
-6.505934921
 21
310.3210619468
 31
0.0
  0
SPLINE
  5
D3
330
1F
100
AcDbEntity
  8
0
  6
Continuous
 62
     7
370
    15
100
AcDbSpline
210
0.0
220
0.0
230
1.0
 70
     8
 71
     3
 72
     8
 73
     4
 74
     0
 42
0.00000001
 43
0.00000001
 12
1.0
 22
0.0
 32
0.0
 13
1.0
 23
0.0
 33
0.0
 40
0.0000006007372458
 40
0.0000006007372458
 40
0.0000006007372458
 40
0.0000006007372458
 40
0.0080289928377437
 40
0.0080289928377437
 40
0.0080289928377437
 40
0.0080289928377437
 10
0.2690730121069698
 20
335.778777682195
 30
0.0
 10
-1.547998861220389
 20
334.887829047252
 30
0.0
 10
-3.364531239924778
 20
333.9943489276795
 30
0.0
 10
-5.18065952935709
 20
333.0989914944907
 30
0.0
  0
SPLINE
  5
D4
330
1F
100
AcDbEntity
  8
0
  6
Continuous
 62
     7
370
    15
100
AcDbSpline
210
0.0
220
0.0
230
1.0
 70
     8
 71
     3
 72
     8
 73
     4
 74
     0
 42
0.00000001
 43
0.00000001
 12
1.0
 22
0.0
 32
0.0
 13
1.0
 23
0.0
 33
0.0
 40
0.0000002004564486
 40
0.0000002004564486
 40
0.0000002004564486
 40
0.0000002004564486
 40
0.0204557632362345
 40
0.0204557632362345
 40
0.0204557632362345
 40
0.0204557632362345
 10
-5.18065952935709
 20
333.0989914944907
 30
0.0
 10
-5.227364469414304
 20
326.2959968596387
 30
0.0
 10
-5.272904829935511
 20
319.4930719874196
 30
0.0
 10
-5.317239914458913
 20
312.6902205660587
 30
0.0
  0
SPLINE
  5
D5
330
1F
100
AcDbEntity
  8
0
  6
Continuous
 62
     7
370
    15
100
AcDbSpline
210
0.0
220
0.0
230
1.0
 70
     8
 71
     3
 72
    20
 73
    16
 74
     0
 42
0.00000001
 43
0.00000001
 12
1.0
 22
0.0
 32
0.0
 13
1.0
 23
0.0
 33
0.0
 40
0.0
 40
0.0
 40
0.0
 40
0.0
 40
0.1250000000000009
 40
0.1250000000000009
 40
0.2500000000000018
 40
0.2500000000000018
 40
0.3750000000000028
 40
0.3750000000000028
 40
0.5000000000000037
 40
0.5000000000000037
 40
0.6250000000000046
 40
0.6250000000000046
 40
0.7500000000000056
 40
0.7500000000000056
 40
1.0
 40
1.0
 40
1.0
 40
1.0
 10
-5.317239914458913
 20
312.6902205660587
 30
0.0
 10
-5.318285794027516
 20
312.5297390109578
 30
0.0
 10
-5.308235849823332
 20
312.3725891733289
 30
0.0
 10
-5.266797515642726
 20
312.0646967440819
 30
0.0
 10
-5.234908019384823
 20
311.9124103705896
 30
0.0
 10
-5.150858896201836
 20
311.6229963241509
 30
0.0
 10
-5.09916160983629
 20
311.4863866426954
 30
0.0
 10
-4.976742236979727
 20
311.2290935376079
 30
0.0
 10
-4.905310556905442
 20
311.1078259241957
 30
0.0
 10
-4.748969666947454
 20
310.8913183805166
 30
0.0
 10
-4.663589628171115
 20
310.7947232900256
 30
0.0
 10
-4.478304064086731
 20
310.6250223684477
 30
0.0
 10
-4.379208684329367
 20
310.5530277967871
 30
0.0
 10
-4.072018422014843
 20
310.3806507517414
 30
0.0
 10
-3.847355150163913
 20
310.3210604566661
 30
0.0
 10
-3.623032938974535
 20
310.3210604566661
 30
0.0
  0
LINE
  5
D6
330
1F
100
AcDbEntity
  8
0
  6
Continuous
 62
     7
370
    15
100
AcDbLine
 10
-34.7279891641
 20
213.3210604827
 30
0.0
 11
-34.7279891641
 21
217.3210606727
 31
0.0
  0
LINE
  5
D7
330
1F
100
AcDbEntity
  8
0
  6
Continuous
 62
     7
370
    15
100
AcDbLine
 10
-34.7279891641
 20
217.3210606727
 30
0.0
 11
-41.320374635
 21
217.3210606727
 31
0.0
  0
LINE
  5
D8
330
1F
100
AcDbEntity
  8
0
  6
Continuous
 62
     7
370
    15
100
AcDbLine
 10
-34.7279891641
 20
213.3210604827
 30
0.0
 11
-12.2687019677
 21
213.3210604827
 31
0.0
  0
LINE
  5
D9
330
1F
100
AcDbEntity
  8
0
  6
Continuous
 62
     7
370
    15
100
AcDbLine
 10
110.6451764434
 20
213.3210604827
 30
0.0
 11
110.6451764434
 21
217.3210606727
 31
0.0
  0
LINE
  5
DA
330
1F
100
AcDbEntity
  8
0
  6
Continuous
 62
     7
370
    15
100
AcDbLine
 10
117.2375619142
 20
217.3210606727
 30
0.0
 11
110.6451764434
 21
217.3210606727
 31
0.0
  0
LINE
  5
DB
330
1F
100
AcDbEntity
  8
0
  6
Continuous
 62
     7
370
    15
100
AcDbLine
 10
88.185889247
 20
213.3210604827
 30
0.0
 11
110.6451764434
 21
213.3210604827
 31
0.0
  0
LINE
  5
DC
330
1F
100
AcDbEntity
  8
0
  6
Continuous
 62
     7
370
    15
100
AcDbLine
 10
8.7491605162
 20
340.009591617
 30
0.0
 11
67.1680267631
 21
340.009591617
 31
0.0
  0
LINE
  5
DD
330
1F
100
AcDbEntity
  8
0
  6
Continuous
 62
     7
370
    15
100
AcDbLine
 10
-5.180659172
 20
333.0989918489
 30
0.0
 11
81.0978464513
 21
333.0989918489
 31
0.0
  0
LINE
  5
DE
330
1F
100
AcDbEntity
  8
0
  6
Continuous
 62
     7
370
    15
100
AcDbLine
 10
107.6998725264
 20
224.3210608888
 30
0.0
 11
116.212771806
 21
224.3210608888
 31
0.0
  0
LINE
  5
DF
330
1F
100
AcDbEntity
  8
0
  6
Continuous
 62
     7
370
    15
100
AcDbLine
 10
-40.2955845268
 20
224.3210608888
 30
0.0
 11
-31.7826852472
 21
224.3210608888
 31
0.0
  0
LINE
  5
E0
330
1F
100
AcDbEntity
  8
0
  6
Continuous
 62
     7
370
    15
100
AcDbLine
 10
115.7143205135
 20
223.1899780038
 30
0.0
 11
98.2461884349
 21
223.1899780038
 31
0.0
  0
LINE
  5
E1
330
1F
100
AcDbEntity
  8
0
  6
Continuous
 62
     7
370
    15
100
AcDbLine
 10
115.7143205135
 20
224.3187772858
 30
0.0
 11
98.2461884349
 21
224.3187772858
 31
0.0
  0
LINE
  5
E2
330
1F
100
AcDbEntity
  8
0
  6
Continuous
 62
     7
370
    15
100
AcDbLine
 10
-22.3290011556
 20
223.1899780038
 30
0.0
 11
-39.8112744362
 21
223.1899780038
 31
0.0
  0
LINE
  5
E3
330
1F
100
AcDbEntity
  8
0
  6
Continuous
 62
     7
370
    15
100
AcDbLine
 10
-22.3290011556
 20
224.3187772858
 30
0.0
 11
-39.8112744362
 21
224.3187772858
 31
0.0
  0
LINE
  5
E4
330
1F
100
AcDbEntity
  8
0
  6
Continuous
 62
     7
370
    15
100
AcDbLine
 10
-3.6230333419
 20
310.3210619468
 30
0.0
 11
79.5402206211
 21
310.3210619468
 31
0.0
  0
LINE
  5
E5
330
1F
100
AcDbEntity
  8
0
  6
Continuous
 62
     7
370
    15
100
AcDbLine
 10
92.2290399401
 20
343.2787722725
 30
0.0
 11
88.7143216758
 21
343.2787722725
 31
0.0
  0
LINE
  5
E6
330
1F
100
AcDbEntity
  8
0
  6
Continuous
 62
     7
370
    15
100
AcDbLine
 10
112.7143218844
 20
343.2787722725
 30
0.0
 11
92.2290399401
 21
343.2787722725
 31
0.0
  0
LINE
  5
E7
330
1F
100
AcDbEntity
  8
0
  6
Continuous
 62
     7
370
    15
100
AcDbLine
 10
-12.8112755985
 20
343.2787722725
 30
0.0
 11
-36.8112758071
 21
343.2787722725
 31
0.0
  0
LINE
  5
E8
330
1F
100
AcDbEntity
  8
0
  6
Continuous
 62
     7
370
    15
100
AcDbLine
 10
92.9576024144
 20
353.2787776369
 30
0.0
 11
92.9576024144
 21
343.2787722725
 31
0.0
  0
LINE
  5
E9
330
1F
100
AcDbEntity
  8
0
  6
Continuous
 62
     7
370
    15
100
AcDbLine
 10
103.5534754126
 20
353.2787776369
 30
0.0
 11
103.5534754126
 21
343.2787722725
 31
0.0
  0
LINE
  5
EA
330
1F
100
AcDbEntity
  8
0
  6
Continuous
 62
     7
370
    15
100
AcDbLine
 10
92.9576024144
 20
353.2787776369
 30
0.0
 11
103.5534754126
 21
353.2787776369
 31
0.0
  0
LINE
  5
EB
330
1F
100
AcDbEntity
  8
0
  6
Continuous
 62
     7
370
    15
100
AcDbLine
 10
111.3101929157
 20
353.2787776369
 30
0.0
 11
111.3101929157
 21
343.2787722725
 31
0.0
  0
LINE
  5
EC
330
1F
100
AcDbEntity
  8
0
  6
Continuous
 62
     7
370
    15
100
AcDbLine
 10
103.5534754126
 20
353.2787776369
 30
0.0
 11
111.3101929157
 21
353.2787776369
 31
0.0
  0
LINE
  5
ED
330
1F
100
AcDbEntity
  8
0
  6
Continuous
 62
     7
370
    15
100
AcDbLine
 10
-35.4071468384
 20
353.2787776369
 30
0.0
 11
-35.4071468384
 21
343.2787722725
 31
0.0
  0
LINE
  5
EE
330
1F
100
AcDbEntity
  8
0
  6
Continuous
 62
     7
370
    15
100
AcDbLine
 10
-35.4071468384
 20
353.2787776369
 30
0.0
 11
-27.6504293353
 21
353.2787776369
 31
0.0
  0
LINE
  5
EF
330
1F
100
AcDbEntity
  8
0
  6
Continuous
 62
     7
370
    15
100
AcDbLine
 10
-27.6504293353
 20
353.2787776369
 30
0.0
 11
-27.6504293353
 21
343.2787722725
 31
0.0
  0
LINE
  5
F0
330
1F
100
AcDbEntity
  8
0
  6
Continuous
 62
     7
370
    15
100
AcDbLine
 10
-27.6504293353
 20
353.2787776369
 30
0.0
 11
-17.0545563371
 21
353.2787776369
 31
0.0
  0
LINE
  5
F1
330
1F
100
AcDbEntity
  8
0
  6
Continuous
 62
     7
370
    15
100
AcDbLine
 10
-17.0545563371
 20
353.2787776369
 30
0.0
 11
-17.0545563371
 21
343.2787722725
 31
0.0
  0
LINE
  5
F2
330
1F
100
AcDbEntity
  8
0
  6
Continuous
 62
     7
370
    15
100
AcDbLine
 10
100.7143199175
 20
224.3210608888
 30
0.0
 11
100.7143199175
 21
224.3187772858
 31
0.0
  0
LINE
  5
F3
330
1F
100
AcDbEntity
  8
0
  6
Continuous
 62
     7
370
    15
100
AcDbLine
 10
110.0834846227
 20
224.3210608888
 30
0.0
 11
110.0834846227
 21
224.3187772858
 31
0.0
  0
LINE
  5
F4
330
1F
100
AcDbEntity
  8
0
  6
Continuous
 62
     7
370
    15
100
AcDbLine
 10
110.0834846227
 20
233.1187772382
 30
0.0
 11
110.0834846227
 21
229.5509158451
 31
0.0
  0
LINE
  5
F5
330
1F
100
AcDbEntity
  8
0
  6
Continuous
 62
     7
370
    15
100
AcDbLine
 10
100.7143199175
 20
233.1187772382
 30
0.0
 11
100.7143199175
 21
229.5508432019
 31
0.0
  0
LINE
  5
F6
330
1F
100
AcDbEntity
  8
0
  6
Continuous
 62
     7
370
    15
100
AcDbLine
 10
100.7143199175
 20
233.1187772382
 30
0.0
 11
110.0834846227
 21
233.1187772382
 31
0.0
  0
LINE
  5
F7
330
1F
100
AcDbEntity
  8
0
  6
Continuous
 62
     7
370
    15
100
AcDbLine
 10
91.3451552122
 20
233.1187772382
 30
0.0
 11
91.3451552122
 21
230.2433038879
 31
0.0
  0
LINE
  5
F8
330
1F
100
AcDbEntity
  8
0
  6
Continuous
 62
     7
370
    15
100
AcDbLine
 10
91.3451552122
 20
233.1187772382
 30
0.0
 11
100.7143199175
 21
233.1187772382
 31
0.0
  0
LINE
  5
F9
330
1F
100
AcDbEntity
  8
0
  6
Continuous
 62
     7
370
    15
100
AcDbLine
 10
-24.8112738402
 20
224.3210608888
 30
0.0
 11
-24.8112738402
 21
224.3187772858
 31
0.0
  0
LINE
  5
FA
330
1F
100
AcDbEntity
  8
0
  6
Continuous
 62
     7
370
    15
100
AcDbLine
 10
-34.1804385454
 20
233.1187772382
 30
0.0
 11
-24.8112738402
 21
233.1187772382
 31
0.0
  0
LINE
  5
FB
330
1F
100
AcDbEntity
  8
0
  6
Continuous
 62
     7
370
    15
100
AcDbLine
 10
-24.8112738402
 20
233.1187772382
 30
0.0
 11
-24.8112738402
 21
229.5509158451
 31
0.0
  0
LINE
  5
FC
330
1F
100
AcDbEntity
  8
0
  6
Continuous
 62
     7
370
    15
100
AcDbLine
 10
-34.1804385454
 20
233.1187772382
 30
0.0
 11
-34.1804385454
 21
229.5508432019
 31
0.0
  0
LINE
  5
FD
330
1F
100
AcDbEntity
  8
0
  6
Continuous
 62
     7
370
    15
100
AcDbLine
 10
-34.1804385454
 20
224.3210608888
 30
0.0
 11
-34.1804385454
 21
224.3187772858
 31
0.0
  0
LINE
  5
FE
330
1F
100
AcDbEntity
  8
0
  6
Continuous
 62
     7
370
    15
100
AcDbLine
 10
-24.8112738402
 20
233.1187772382
 30
0.0
 11
-15.4421091349
 21
233.1187772382
 31
0.0
  0
LINE
  5
FF
330
1F
100
AcDbEntity
  8
0
  6
Continuous
 62
     7
370
    15
100
AcDbLine
 10
-15.4421091349
 20
233.1187772382
 30
0.0
 11
-15.4421091349
 21
230.2433877069
 31
0.0
  0
LINE
  5
100
330
1F
100
AcDbEntity
  8
0
  6
Continuous
 62
     7
370
    15
100
AcDbLine
 10
6.5342984824
 20
210.3210604567
 30
0.0
 11
18.7376174807
 21
210.3210604567
 31
0.0
  0
SPLINE
  5
101
330
1F
100
AcDbEntity
  8
0
  6
Continuous
 62
     7
370
    15
100
AcDbSpline
210
0.0
220
0.0
230
1.0
 70
     8
 71
     3
 72
    10
 73
     6
 74
     0
 42
0.00000001
 43
0.00000001
 12
1.0
 22
0.0
 32
0.0
 13
1.0
 23
0.0
 33
0.0
 40
0.0
 40
0.0
 40
0.0
 40
0.0
 40
0.5
 40
0.5
 40
1.0
 40
1.0
 40
1.0
 40
1.0
 10
3.764407025231884
 20
213.321060456666
 30
0.0
 10
4.15073184347943
 20
212.7952484565417
 30
0.0
 10
4.57217741807335
 20
212.2811009157702
 30
0.0
 10
5.491602782778743
 20
211.279309670156
 30
0.0
 10
5.989326341669251
 20
210.7915565062712
 30
0.0
 10
6.534300310016388
 20
210.321060456666
 30
0.0
  0
SPLINE
  5
102
330
1F
100
AcDbEntity
  8
0
  6
Continuous
 62
     7
370
    15
100
AcDbSpline
210
0.0
220
0.0
230
1.0
 70
     8
 71
     3
 72
    10
 73
     6
 74
     0
 42
0.00000001
 43
0.00000001
 12
1.0
 22
0.0
 32
0.0
 13
1.0
 23
0.0
 33
0.0
 40
0.0
 40
0.0
 40
0.0
 40
0.0
 40
0.5000000000000001
 40
0.5000000000000001
 40
1.0
 40
1.0
 40
1.0
 40
1.0
 10
18.7376179270755
 20
210.321060456666
 30
0.0
 10
18.9520977286577
 20
210.7915565062713
 30
0.0
 10
19.1037162990169
 20
211.279309670156
 30
0.0
 10
19.3041620360404
 20
212.2811009157702
 30
0.0
 10
19.35266604807601
 20
212.7952484565417
 30
0.0
 10
19.35314752213347
 20
213.321060456666
 30
0.0
  0
LINE
  5
103
330
1F
100
AcDbEntity
  8
0
  6
Continuous
 62
     7
370
    15
100
AcDbLine
 10
57.1795697986
 20
210.3210604567
 30
0.0
 11
69.3828887968
 21
210.3210604567
 31
0.0
  0
SPLINE
  5
104
330
1F
100
AcDbEntity
  8
0
  6
Continuous
 62
     7
370
    15
100
AcDbSpline
210
0.0
220
0.0
230
1.0
 70
     8
 71
     3
 72
    10
 73
     6
 74
     0
 42
0.00000001
 43
0.00000001
 12
1.0
 22
0.0
 32
0.0
 13
1.0
 23
0.0
 33
0.0
 40
0.0
 40
0.0
 40
0.0
 40
0.0
 40
0.5
 40
0.5
 40
1.0
 40
1.0
 40
1.0
 40
1.0
 10
56.5640397571383
 20
213.321060456666
 30
0.0
 10
56.56452123119578
 20
212.7952484565417
 30
0.0
 10
56.6130252432314
 20
212.2811009157702
 30
0.0
 10
56.81347098025492
 20
211.279309670156
 30
0.0
 10
56.96508955061413
 20
210.7915565062712
 30
0.0
 10
57.17956935219634
 20
210.321060456666
 30
0.0
  0
SPLINE
  5
105
330
1F
100
AcDbEntity
  8
0
  6
Continuous
 62
     7
370
    15
100
AcDbSpline
210
0.0
220
0.0
230
1.0
 70
     8
 71
     3
 72
    10
 73
     6
 74
     0
 42
0.00000001
 43
0.00000001
 12
1.0
 22
0.0
 32
0.0
 13
1.0
 23
0.0
 33
0.0
 40
0.0
 40
0.0
 40
0.0
 40
0.0
 40
0.5
 40
0.5
 40
1.0
 40
1.0
 40
1.0
 40
1.0
 10
69.38288696925557
 20
210.321060456666
 30
0.0
 10
69.9278609376027
 20
210.7915565062713
 30
0.0
 10
70.42558449649322
 20
211.279309670156
 30
0.0
 10
71.34500986119858
 20
212.2811009157702
 30
0.0
 10
71.7664554357925
 20
212.7952484565417
 30
0.0
 10
72.15278025404002
 20
213.321060456666
 30
0.0
  0
LINE
  5
106
330
1F
100
AcDbEntity
  8
0
  6
Continuous
 62
     7
370
    15
100
AcDbLine
 10
95.0574665993
 20
357.8187740225
 30
0.0
 11
92.7143223315
 21
357.8187740225
 31
0.0
  0
LINE
  5
107
330
1F
100
AcDbEntity
  8
0
  6
Continuous
 62
     7
370
    15
100
AcDbLine
 10
108.7143212288
 20
357.8187740225
 30
0.0
 11
95.0574665993
 21
357.8187740225
 31
0.0
  0
LINE
  5
108
330
1F
100
AcDbEntity
  8
0
  6
Continuous
 62
     7
370
    15
100
AcDbLine
 10
95.0574665993
 20
357.3187804598
 30
0.0
 11
92.7143223315
 21
357.3187804598
 31
0.0
  0
LINE
  5
109
330
1F
100
AcDbEntity
  8
0
  6
Continuous
 62
     7
370
    15
100
AcDbLine
 10
108.7143212288
 20
357.3187804598
 30
0.0
 11
95.0574665993
 21
357.3187804598
 31
0.0
  0
LINE
  5
10A
330
1F
100
AcDbEntity
  8
0
  6
Continuous
 62
     7
370
    15
100
AcDbLine
 10
-16.8112762542
 20
357.8187740225
 30
0.0
 11
-32.8112751515
 21
357.8187740225
 31
0.0
  0
LINE
  5
10B
330
1F
100
AcDbEntity
  8
0
  6
Continuous
 62
     7
370
    15
100
AcDbLine
 10
-16.8112762542
 20
357.3187804598
 30
0.0
 11
-32.8112751515
 21
357.3187804598
 31
0.0
  0
LINE
  5
10C
330
1F
100
AcDbEntity
  8
0
  6
Continuous
 62
     7
370
    15
100
AcDbLine
 10
90.1184469192
 20
353.2787776369
 30
0.0
 11
90.1184469192
 21
343.2787722725
 31
0.0
  0
LINE
  5
10D
330
1F
100
AcDbEntity
  8
0
  6
Continuous
 62
     7
370
    15
100
AcDbLine
 10
90.1184469192
 20
353.2787776369
 30
0.0
 11
92.9576024144
 21
353.2787776369
 31
0.0
  0
LINE
  5
10E
330
1F
100
AcDbEntity
  8
0
  6
Continuous
 62
     7
370
    15
100
AcDbLine
 10
-14.2154008419
 20
353.2787776369
 30
0.0
 11
-14.2154008419
 21
343.2787722725
 31
0.0
  0
LINE
  5
10F
330
1F
100
AcDbEntity
  8
0
  6
Continuous
 62
     7
370
    15
100
AcDbLine
 10
-17.0545563371
 20
353.2787776369
 30
0.0
 11
-14.2154008419
 21
353.2787776369
 31
0.0
  0
LINE
  5
110
330
1F
100
AcDbEntity
  8
0
  6
Continuous
 62
     7
370
    15
100
AcDbLine
 10
129.1259765356
 20
217.3210606727
 30
0.0
 11
121.0048213332
 21
217.3210606727
 31
0.0
  0
LINE
  5
111
330
1F
100
AcDbEntity
  8
0
  6
Continuous
 62
     7
370
    15
100
AcDbLine
 10
116.212771806
 20
224.3210608888
 30
0.0
 11
121.0048213332
 21
224.3210608888
 31
0.0
  0
LINE
  5
112
330
1F
100
AcDbEntity
  8
0
  6
Continuous
 62
     7
370
    15
100
AcDbLine
 10
-45.0876340539
 20
217.3210606727
 30
0.0
 11
-53.2087892563
 21
217.3210606727
 31
0.0
  0
LINE
  5
113
330
1F
100
AcDbEntity
  8
0
  6
Continuous
 62
     7
370
    15
100
AcDbLine
 10
-45.0876340539
 20
224.3210608888
 30
0.0
 11
-40.2955845268
 21
224.3210608888
 31
0.0
  0
LINE
  5
114
330
1F
100
AcDbEntity
  8
0
  6
Continuous
 62
     7
370
    15
100
AcDbLine
 10
57.1795697986
 20
210.3210604567
 30
0.0
 11
18.7376174807
 21
210.3210604567
 31
0.0
  0
LINE
  5
115
330
1F
100
AcDbEntity
  8
0
  6
Continuous
 62
     7
370
    15
100
AcDbLine
 10
96.1181275277
 20
369.3187749762
 30
0.0
 11
94.214321646
 21
369.3187749762
 31
0.0
  0
LINE
  5
116
330
1F
100
AcDbEntity
  8
0
  6
Continuous
 62
     7
370
    15
100
AcDbLine
 10
107.2143181889
 20
369.3187749762
 30
0.0
 11
96.1181275277
 21
369.3187749762
 31
0.0
  0
LINE
  5
117
330
1F
100
AcDbEntity
  8
0
  6
Continuous
 62
     7
370
    15
100
AcDbLine
 10
-18.3112755687
 20
369.3187749762
 30
0.0
 11
-31.3112721116
 21
369.3187749762
 31
0.0
  0
LINE
  5
118
330
1F
100
AcDbEntity
  8
0
  6
Continuous
 62
     7
370
    15
100
AcDbLine
 10
42.0176401465
 20
248.389138915
 30
0.0
 11
79.651413086
 21
248.389138915
 31
0.0
  0
SPLINE
  5
119
330
1F
100
AcDbEntity
  8
0
  6
Continuous
 62
     7
370
    15
100
AcDbSpline
210
0.0
220
0.0
230
1.0
 70
     8
 71
     3
 72
    14
 73
    10
 74
     0
 42
0.00000001
 43
0.00000001
 12
1.0
 22
0.0
 32
0.0
 13
1.0
 23
0.0
 33
0.0
 40
0.0
 40
0.0
 40
0.0
 40
0.0
 40
0.5000000000000002
 40
0.5000000000000002
 40
0.75
 40
0.75
 40
0.875
 40
0.875
 40
1.0
 40
1.0
 40
1.0
 40
1.0
 10
42.01763997776558
 20
248.3891399310619
 30
0.0
 10
41.77302633022058
 20
245.5021270009769
 30
0.0
 10
41.49189314252016
 20
242.6192924663887
 30
0.0
 10
40.95230605505795
 20
238.3083902339653
 30
0.0
 10
40.75267181505909
 20
236.8727818445676
 30
0.0
 10
40.39691514097334
 20
234.7288977900843
 30
0.0
 10
40.26886915509002
 20
234.0161472286652
 30
0.0
 10
39.98204083484106
 20
232.5967395179704
 30
0.0
 10
39.82424843154181
 20
231.8898864372457
 30
0.0
 10
39.6356278147475
 20
231.1891399310619
 30
0.0
  0
SPLINE
  5
11A
330
1F
100
AcDbEntity
  8
0
  6
Continuous
 62
     7
370
    15
100
AcDbSpline
210
0.0
220
0.0
230
1.0
 70
     8
 71
     3
 72
    14
 73
    10
 74
     0
 42
0.00000001
 43
0.00000001
 12
1.0
 22
0.0
 32
0.0
 13
1.0
 23
0.0
 33
0.0
 40
0.0
 40
0.0
 40
0.0
 40
0.0
 40
0.1249999999999998
 40
0.1249999999999998
 40
0.2499999999999996
 40
0.2499999999999996
 40
0.4999999999999998
 40
0.4999999999999998
 40
1.0
 40
1.0
 40
1.0
 40
1.0
 10
36.28155946451559
 20
231.1891399310619
 30
0.0
 10
36.09240871862148
 20
231.8918559256381
 30
0.0
 10
35.93455024375019
 20
232.5994683533229
 30
0.0
 10
35.64774174440423
 20
234.0192219695909
 30
0.0
 10
35.5198194873168
 20
234.7315238168423
 30
0.0
 10
35.16453039390849
 20
236.8728957933771
 30
0.0
 10
34.96516017986166
 20
238.306357163682
 30
0.0
 10
34.42566193510301
 20
242.6159633735826
 30
0.0
 10
34.14420990553708
 20
245.5015491999573
 30
0.0
 10
33.89954730150408
 20
248.3891399310619
 30
0.0
  0
LINE
  5
11B
330
1F
100
AcDbEntity
  8
0
  6
Continuous
 62
     7
370
    15
100
AcDbLine
 10
-3.7342258067
 20
248.389138915
 30
0.0
 11
33.8995471328
 21
248.389138915
 31
0.0
  0
SPLINE
  5
11C
330
1F
100
AcDbEntity
  8
0
  6
Continuous
 62
     7
370
    15
100
AcDbSpline
210
0.0
220
0.0
230
1.0
 70
     8
 71
     3
 72
    12
 73
     8
 74
     0
 42
0.00000001
 43
0.00000001
 12
1.0
 22
0.0
 32
0.0
 13
1.0
 23
0.0
 33
0.0
 40
0.0
 40
0.0
 40
0.0
 40
0.0
 40
0.5000000000000001
 40
0.5000000000000001
 40
0.75
 40
0.75
 40
1.0
 40
1.0
 40
1.0
 40
1.0
 10
-3.73422673382378
 20
248.3891399310619
 30
0.0
 10
-3.986047899514587
 20
246.1669152875041
 30
0.0
 10
-4.254318769797844
 20
243.9473013432667
 30
0.0
 10
-4.698290600862403
 20
240.624501084623
 30
0.0
 10
-4.853303363186658
 20
239.5180195828065
 30
0.0
 10
-5.183829681366617
 20
237.3083275477181
 30
0.0
 10
-5.359166565552097
 20
236.2044239640579
 30
0.0
 10
-5.551308395301636
 20
235.1052591890696
 30
0.0
  0
LINE
  5
11D
330
1F
100
AcDbEntity
  8
0
  6
Continuous
 62
     7
370
    15
100
AcDbLine
 10
-5.5513069303
 20
235.1052584875
 30
0.0
 11
-4.895607409
 21
248.3560732383
 31
0.0
  0
ELLIPSE
  5
11E
330
1F
100
AcDbEntity
  8
0
  6
Continuous
 62
     7
370
    15
100
AcDbEllipse
 10
34.9430822936
 20
309.2871036092
 30
0.0
 11
53.93971002020029
 21
56.77069568147709
 31
0.0
210
0.0
220
0.0
230
1.0
 40
0.4130611018
 41
3.473010861349421
 42
3.558158650174176
  0
LINE
  5
11F
330
1F
100
AcDbEntity
  8
0
  6
Continuous
 62
     7
370
    15
100
AcDbLine
 10
-9.4598666103
 20
246.8495434898
 30
0.0
 11
-9.4745852322
 21
248.389138915
 31
0.0
  0
LINE
  5
120
330
1F
100
AcDbEntity
  8
0
  6
Continuous
 62
     7
370
    15
100
AcDbLine
 10
-18.811276582
 20
248.389138915
 30
0.0
 11
-9.4745852322
 21
248.389138915
 31
0.0
  0
LINE
  5
121
330
1F
100
AcDbEntity
  8
0
  6
Continuous
 62
     7
370
    15
100
AcDbLine
 10
85.3917725115
 20
248.389138915
 30
0.0
 11
94.714318934
 21
248.389138915
 31
0.0
  0
LINE
  5
122
330
1F
100
AcDbEntity
  8
0
  6
Continuous
 62
     7
370
    15
100
AcDbLine
 10
85.3917725115
 20
248.389138915
 30
0.0
 11
85.3761896222
 21
246.8508063633
 31
0.0
  0
ELLIPSE
  5
123
330
1F
100
AcDbEntity
  8
0
  6
Continuous
 62
     7
370
    15
100
AcDbEllipse
 10
40.9741049857
 20
309.2871036092
 30
0.0
 11
-53.9397100202001
 21
56.77069568147699
 31
0.0
210
0.0
220
0.0
230
1.0
 40
0.4130611018
 41
2.725026657005435
 42
2.81017444583019
  0
LINE
  5
124
330
1F
100
AcDbEntity
  8
0
  6
Continuous
 62
     7
370
    15
100
AcDbLine
 10
81.4684942096
 20
235.1052584875
 30
0.0
 11
80.8127946882
 21
248.3560732383
 31
0.0
  0
SPLINE
  5
125
330
1F
100
AcDbEntity
  8
0
  6
Continuous
 62
     7
370
    15
100
AcDbSpline
210
0.0
220
0.0
230
1.0
 70
     8
 71
     3
 72
    12
 73
     8
 74
     0
 42
0.00000001
 43
0.00000001
 12
1.0
 22
0.0
 32
0.0
 13
1.0
 23
0.0
 33
0.0
 40
0.0
 40
0.0
 40
0.0
 40
0.0
 40
0.25
 40
0.25
 40
0.5
 40
0.5
 40
1.0
 40
1.0
 40
1.0
 40
1.0
 10
81.46849567457575
 20
235.1052591890371
 30
0.0
 10
81.27651339575695
 20
236.2035112384462
 30
0.0
 10
81.1014562656783
 20
237.3055381645662
 30
0.0
 10
80.77107259042972
 20
239.5139819629904
 30
0.0
 10
80.61603338686382
 20
240.6204631361317
 30
0.0
 10
80.17184161360946
 20
243.9445512588467
 30
0.0
 10
79.90332675969148
 20
246.1661071213327
 30
0.0
 10
79.65141401309434
 20
248.3891399310619
 30
0.0
  0
LINE
  5
126
330
1F
100
AcDbEntity
  8
0
  6
Continuous
 62
     7
370
    15
100
AcDbLine
 10
-30.8112785489
 20
323.931432404
 30
0.0
 11
-37.1885285051
 21
335.7787794251
 31
0.0
  0
LINE
  5
127
330
1F
100
AcDbEntity
  8
0
  6
Continuous
 62
     7
370
    15
100
AcDbLine
 10
113.1057157843
 20
335.7787794251
 30
0.0
 11
106.7143171757
 21
323.9051616568
 31
0.0
  0
LINE
  5
128
330
1F
100
AcDbEntity
  8
0
  6
Continuous
 62
     7
370
    15
100
AcDbLine
 10
118.7540530889
 20
335.7787794251
 30
0.0
 11
106.7143171757
 21
316.1188951511
 31
0.0
  0
LINE
  5
129
330
1F
100
AcDbEntity
  8
0
  6
Continuous
 62
     7
370
    15
100
AcDbLine
 10
-30.8112785489
 20
316.1419919509
 30
0.0
 11
-42.8368658097
 21
335.7787794251
 31
0.0
  0
LINE
  5
12A
330
1F
100
AcDbEntity
  8
0
  6
Continuous
 62
     7
370
    15
100
AcDbLine
 10
20.445592302
 20
257.6935804266
 30
0.0
 11
20.445592302
 21
254.3210602182
 31
0.0
  0
LINE
  5
12B
330
1F
100
AcDbEntity
  8
0
  6
Continuous
 62
     7
370
    15
100
AcDbLine
 10
20.445592302
 20
254.3210602182
 30
0.0
 11
17.0170213758
 21
254.3210602182
 31
0.0
  0
LINE
  5
12C
330
1F
100
AcDbEntity
  8
0
  6
Continuous
 62
     7
370
    15
100
AcDbLine
 10
17.0170213758
 20
254.3210602182
 30
0.0
 11
17.0170213758
 21
264.074298628
 31
0.0
  0
LWPOLYLINE
  5
12D
330
1F
100
AcDbEntity
  8
0
  6
Continuous
 62
     7
370
    15
100
AcDbPolyline
 90
        8
 70
   128
 43
0.0
 10
17.0170213758
 20
264.074298628
 10
18.7268364905
 20
264.7704361755
 10
20.4506698727
 20
265.472284593
 10
22.1871394395
 20
266.1792739112
 10
23.9348463445
 20
266.8908416111
 10
25.6923870846
 20
267.6064102727
 10
27.4583469807
 20
268.3254099268
 10
29.2313066973
 20
269.0472557026
  0
LINE
  5
12E
330
1F
100
AcDbEntity
  8
0
  6
Continuous
 62
     7
370
    15
100
AcDbLine
 10
29.2313066973
 20
269.0472557026
 30
0.0
 11
29.2313066973
 21
265.2065857131
 31
0.0
  0
LINE
  5
12F
330
1F
100
AcDbEntity
  8
0
  6
Continuous
 62
     7
370
    15
100
AcDbLine
 10
29.2313066973
 20
265.2065857131
 30
0.0
 11
27.3455926879
 21
264.4388331849
 31
0.0
  0
LINE
  5
130
330
1F
100
AcDbEntity
  8
0
  6
Continuous
 62
     7
370
    15
100
AcDbLine
 10
27.3455926879
 20
264.4388331849
 30
0.0
 11
27.3455926879
 21
258.8551333922
 31
0.0
  0
LWPOLYLINE
  5
131
330
1F
100
AcDbEntity
  8
0
  6
Continuous
 62
     7
370
    15
100
AcDbPolyline
 90
        3
 70
   128
 43
0.0
 10
27.3455926879
 20
258.8551333922
 10
28.2871830939
 20
258.4936908263
 10
29.2313066973
 20
258.1312759596
  0
LWPOLYLINE
  5
132
330
1F
100
AcDbEntity
  8
0
  6
Continuous
 62
     7
370
    15
100
AcDbPolyline
 90
        4
 70
   128
 43
0.0
 10
24.0884493767
 20
259.7381836552
 10
22.657137896
 20
260.2876118201
 10
21.2348490684
 20
260.8335791904
 10
19.8223363339
 20
261.3757914681
  0
LINE
  5
133
330
1F
100
AcDbEntity
  8
0
  6
Continuous
 62
     7
370
    15
100
AcDbLine
 10
24.0884493767
 20
263.1127080697
 30
0.0
 11
24.0884493767
 21
259.7381836552
 31
0.0
  0
LWPOLYLINE
  5
134
330
1F
100
AcDbEntity
  8
0
  6
Continuous
 62
     7
370
    15
100
AcDbPolyline
 90
        4
 70
   128
 43
0.0
 10
19.8223363339
 20
261.3757914681
 10
21.2366893618
 20
261.9516356665
 10
22.6589791208
 20
262.5307096917
 10
24.0884493767
 20
263.1127080697
  0
LWPOLYLINE
  5
135
330
1F
100
AcDbEntity
  8
0
  6
Continuous
 62
     7
370
    15
100
AcDbPolyline
 90
        6
 70
   128
 43
0.0
 10
29.2313066973
 20
254.3210602182
 10
27.4521918698
 20
255.0039990622
 10
25.6826789781
 20
255.6832498688
 10
23.924156624
 20
256.3582836467
 10
22.1780050277
 20
257.0285714048
 10
20.445592302
 20
257.6935804266
  0
LINE
  5
136
330
1F
100
AcDbEntity
  8
0
  6
Continuous
 62
     7
370
    15
100
AcDbLine
 10
29.2313066973
 20
258.1312759596
 30
0.0
 11
29.2313066973
 21
254.3210602182
 31
0.0
  0
LINE
  5
137
330
1F
100
AcDbEntity
  8
0
  6
Continuous
 62
     7
370
    15
100
AcDbLine
 10
12.0884492724
 20
254.3210602182
 30
0.0
 11
12.0884492724
 21
267.4353449422
 31
0.0
  0
LWPOLYLINE
  5
138
330
1F
100
AcDbEntity
  8
0
  6
Continuous
 62
     7
370
    15
100
AcDbPolyline
 90
        8
 70
   128
 43
0.0
 10
12.0884492724
 20
267.4353449422
 10
13.7545183032
 20
268.1136756021
 10
15.4389865427
 20
268.7994940955
 10
17.1404681831
 20
269.4922379035
 10
18.8575718283
 20
270.1913445074
 10
20.5888837307
 20
270.8962364871
 10
22.33298828
 20
271.6063364226
 10
24.0884493767
 20
272.3210594434
  0
LWPOLYLINE
  5
139
330
1F
100
AcDbEntity
  8
0
  6
Continuous
 62
     7
370
    15
100
AcDbPolyline
 90
        8
 70
   128
 43
0.0
 10
24.0884493767
 20
272.3210594434
 10
22.3234850644
 20
273.0396530408
 10
20.5730121314
 20
273.7523457784
 10
18.8384853034
 20
274.4585490603
 10
17.1213481306
 20
275.15766684
 10
15.4230236738
 20
275.8491254229
 10
13.7449275433
 20
276.5323511142
 10
12.0884492724
 20
277.2067776698
  0
LINE
  5
13A
330
1F
100
AcDbEntity
  8
0
  6
Continuous
 62
     7
370
    15
100
AcDbLine
 10
12.0884492724
 20
277.2067776698
 30
0.0
 11
12.0884492724
 21
290.3210586685
 31
0.0
  0
LINE
  5
13B
330
1F
100
AcDbEntity
  8
0
  6
Continuous
 62
     7
370
    15
100
AcDbLine
 10
12.0884492724
 20
290.3210586685
 30
0.0
 11
15.6455930053
 21
290.3210586685
 31
0.0
  0
LINE
  5
13C
330
1F
100
AcDbEntity
  8
0
  6
Continuous
 62
     7
370
    15
100
AcDbLine
 10
15.6455930053
 20
290.3210586685
 30
0.0
 11
15.6455930053
 21
279.6454495567
 31
0.0
  0
LWPOLYLINE
  5
13D
330
1F
100
AcDbEntity
  8
0
  6
Continuous
 62
     7
370
    15
100
AcDbPolyline
 90
        9
 70
   128
 43
0.0
 10
15.6455930053
 20
279.6454495567
 10
17.2912716596
 20
278.9754262942
 10
18.9546044647
 20
278.2982132215
 10
20.6342857062
 20
277.6143393296
 10
22.3289947688
 20
276.9243559617
 10
24.0373970672
 20
276.2287846583
 10
25.7581533595
 20
275.5281916637
 10
27.4899104341
 20
274.82312087
 10
29.2313066973
 20
274.1141236204
  0
LWPOLYLINE
  5
13E
330
1F
100
AcDbEntity
  8
0
  6
Continuous
 62
     7
370
    15
100
AcDbPolyline
 90
        9
 70
   128
 43
0.0
 10
29.2313066973
 20
270.5279952664
 10
27.5005582451
 20
269.8233342547
 10
25.7764715432
 20
269.1213852543
 10
24.0603727951
 20
268.4226884324
 10
22.3535807534
 20
267.7277802307
 10
20.6574085831
 20
267.0371933657
 10
18.9731564104
 20
266.3514642793
 10
17.3021234303
 20
265.6711145121
 10
15.6455930053
 20
264.99666933
  0
LINE
  5
13F
330
1F
100
AcDbEntity
  8
0
  6
Continuous
 62
     7
370
    15
100
AcDbLine
 10
15.6455930053
 20
264.99666933
 30
0.0
 11
15.6455930053
 21
254.3210602182
 31
0.0
  0
LINE
  5
140
330
1F
100
AcDbEntity
  8
0
  6
Continuous
 62
     7
370
    15
100
AcDbLine
 10
15.6455930053
 20
254.3210602182
 30
0.0
 11
12.0884492724
 21
254.3210602182
 31
0.0
  0
LINE
  5
141
330
1F
100
AcDbEntity
  8
0
  6
Continuous
 62
     7
370
    15
100
AcDbLine
 10
29.2313066973
 20
274.1141236204
 30
0.0
 11
29.2313066973
 21
270.5279952664
 31
0.0
  0
LINE
  5
142
330
1F
100
AcDbEntity
  8
0
  6
Continuous
 62
     7
370
    15
100
AcDbLine
 10
17.0170213758
 20
290.3210586685
 30
0.0
 11
20.445592302
 21
290.3210586685
 31
0.0
  0
LINE
  5
143
330
1F
100
AcDbEntity
  8
0
  6
Continuous
 62
     7
370
    15
100
AcDbLine
 10
20.445592302
 20
290.3210586685
 30
0.0
 11
20.445592302
 21
289.292491116
 31
0.0
  0
SPLINE
  5
144
330
1F
100
AcDbEntity
  8
0
  6
Continuous
 62
     7
370
    15
100
AcDbSpline
210
0.0
220
0.0
230
1.0
 70
     8
 71
     3
 72
    18
 73
    14
 74
     0
 42
0.00000001
 43
0.00000001
 12
1.0
 22
0.0
 32
0.0
 13
1.0
 23
0.0
 33
0.0
 40
0.0
 40
0.0
 40
0.0
 40
0.0
 40
0.2499999999999988
 40
0.2499999999999988
 40
0.374999999999999
 40
0.374999999999999
 40
0.4999999999999992
 40
0.4999999999999992
 40
0.6249999999999994
 40
0.6249999999999994
 40
0.7499999999999996
 40
0.7499999999999996
 40
1.0
 40
1.0
 40
1.0
 40
1.0
 10
20.44559250335109
 20
289.2924890280946
 30
0.0
 10
20.86000013257069
 20
289.1340363107963
 30
0.0
 10
21.24876653822222
 20
288.9276865329721
 30
0.0
 10
21.7931088651504
 20
288.5470237248632
 30
0.0
 10
21.96901119283806
 20
288.4072319795251
 30
0.0
 10
22.30192410094072
 20
288.1067022053674
 30
0.0
 10
22.45797039023471
 20
287.947086511919
 30
0.0
 10
22.74951194675362
 20
287.6095360799208
 30
0.0
 10
22.88500835932781
 20
287.4316020117037
 30
0.0
 10
23.13479707485858
 20
287.0569704108562
 30
0.0
 10
23.24969930803658
 20
286.8588489123533
 30
0.0
 10
23.55327354545056
 20
286.2491973565655
 30
0.0
 10
23.7034958702145
 20
285.8210829781676
 30
0.0
 10
23.79919191260464
 20
285.3705254337425
 30
0.0
  0
LWPOLYLINE
  5
145
330
1F
100
AcDbEntity
  8
0
  6
Continuous
 62
     7
370
    15
100
AcDbPolyline
 90
        4
 70
   128
 43
0.0
 10
23.7991917609
 20
285.3705278415
 10
25.602378483
 20
286.7293274778
 10
27.4136164888
 20
288.0941918868
 10
29.2313066973
 20
289.4639140743
  0
LINE
  5
146
330
1F
100
AcDbEntity
  8
0
  6
Continuous
 62
     7
370
    15
100
AcDbLine
 10
29.2313066973
 20
289.4639140743
 30
0.0
 11
29.2313066973
 21
285.0098899383
 31
0.0
  0
LWPOLYLINE
  5
147
330
1F
100
AcDbEntity
  8
0
  6
Continuous
 62
     7
370
    15
100
AcDbPolyline
 90
        4
 70
   128
 43
0.0
 10
29.2313066973
 20
285.0098899383
 10
27.6252492993
 20
283.7996399778
 10
26.0240198775
 20
282.5930259008
 10
24.4287108733
 20
281.3908747214
  0
LWPOLYLINE
  5
148
330
1F
100
AcDbEntity
  8
0
  6
Continuous
 62
     7
370
    15
100
AcDbPolyline
 90
        4
 70
   128
 43
0.0
 10
24.4287108733
 20
281.3908747214
 10
26.0206158935
 20
280.7427412647
 10
27.6218434527
 20
280.0908154625
 10
29.2313066973
 20
279.435536899
  0
LINE
  5
149
330
1F
100
AcDbEntity
  8
0
  6
Continuous
 62
     7
370
    15
100
AcDbLine
 10
17.0170213758
 20
280.5678239841
 30
0.0
 11
17.0170213758
 21
284.4084939736
 31
0.0
  0
LWPOLYLINE
  5
14A
330
1F
100
AcDbEntity
  8
0
  6
Continuous
 62
     7
370
    15
100
AcDbPolyline
 90
        4
 70
   128
 43
0.0
 10
17.0170213758
 20
284.4084939736
 10
18.4887774019
 20
283.8092810291
 10
19.9738494783
 20
283.204644062
 10
21.4713044195
 20
282.5949630517
  0
SPLINE
  5
14B
330
1F
100
AcDbEntity
  8
0
  6
Continuous
 62
     7
370
    15
100
AcDbSpline
210
0.0
220
0.0
230
1.0
 70
     8
 71
     3
 72
    22
 73
    18
 74
     0
 42
0.00000001
 43
0.00000001
 12
1.0
 22
0.0
 32
0.0
 13
1.0
 23
0.0
 33
0.0
 40
0.0
 40
0.0
 40
0.0
 40
0.0
 40
0.125
 40
0.125
 40
0.25
 40
0.25
 40
0.375
 40
0.375
 40
0.5
 40
0.5
 40
0.625
 40
0.625
 40
0.75
 40
0.75
 40
0.875
 40
0.875
 40
1.0
 40
1.0
 40
1.0
 40
1.0
 10
21.47130495884303
 20
282.5949629907217
 30
0.0
 10
21.46068424753764
 20
282.8913456856848
 30
0.0
 10
21.42099090638606
 20
283.1808104878434
 30
0.0
 10
21.28681552877656
 20
283.7466518737058
 30
0.0
 10
21.19078556802314
 20
284.0259467394142
 30
0.0
 10
20.9493276742332
 20
284.5536674452978
 30
0.0
 10
20.80479794942356
 20
284.8020689578597
 30
0.0
 10
20.46967859459783
 20
285.2686810352061
 30
0.0
 10
20.27805363426044
 20
285.4869425582279
 30
0.0
 10
19.86492499361518
 20
285.8756974806165
 30
0.0
 10
19.64179115555137
 20
286.0488111192212
 30
0.0
 10
19.16265530820693
 20
286.3523348926142
 30
0.0
 10
18.91095338975844
 20
286.4796825350606
 30
0.0
 10
18.39294054733362
 20
286.6839320350742
 30
0.0
 10
18.12429508499674
 20
286.761830847387
 30
0.0
 10
17.57413231590195
 20
286.866390342944
 30
0.0
 10
17.2967193188627
 20
286.8924890280946
 30
0.0
 10
17.01702107477968
 20
286.8924890280945
 30
0.0
  0
LINE
  5
14C
330
1F
100
AcDbEntity
  8
0
  6
Continuous
 62
     7
370
    15
100
AcDbLine
 10
17.0170213758
 20
286.8924877423
 30
0.0
 11
17.0170213758
 21
290.3210586685
 31
0.0
  0
LWPOLYLINE
  5
14D
330
1F
100
AcDbEntity
  8
0
  6
Continuous
 62
     7
370
    15
100
AcDbPolyline
 90
        8
 70
   128
 43
0.0
 10
29.2313066973
 20
275.5948669094
 10
27.4486286296
 20
276.3206726688
 10
25.6761187418
 20
277.0423359055
 10
23.9152438669
 20
277.7592605728
 10
22.1674587308
 20
278.4708580751
 10
20.4342059522
 20
279.1765398163
 10
18.7169216304
 20
279.8757246512
 10
17.0170213758
 20
280.5678239841
  0
LINE
  5
14E
330
1F
100
AcDbEntity
  8
0
  6
Continuous
 62
     7
370
    15
100
AcDbLine
 10
29.2313066973
 20
279.435536899
 30
0.0
 11
29.2313066973
 21
275.5948669094
 31
0.0
  0
LINE
  5
14F
330
1F
100
AcDbEntity
  8
0
  6
Continuous
 62
     7
370
    15
100
AcDbLine
 10
-18.811276582
 20
310.3210619468
 30
0.0
 11
-10.2674573929
 21
310.3210619468
 31
0.0
  0
LINE
  5
150
330
1F
100
AcDbEntity
  8
0
  6
Continuous
 62
     7
370
    15
100
AcDbLine
 10
86.1846446722
 20
310.3210619468
 30
0.0
 11
94.714318934
 21
310.3210619468
 31
0.0
  0
SPLINE
  5
151
330
1F
100
AcDbEntity
  8
0
  6
Continuous
 62
     7
370
    15
100
AcDbSpline
210
0.0
220
0.0
230
1.0
 70
     8
 71
     3
 72
    10
 73
     6
 74
     0
 42
0.00000001
 43
0.00000001
 12
1.0
 22
0.0
 32
0.0
 13
1.0
 23
0.0
 33
0.0
 40
0.0
 40
0.0
 40
0.0
 40
0.0
 40
0.5
 40
0.5
 40
1.0
 40
1.0
 40
1.0
 40
1.0
 10
98.46485448741402
 20
213.321060456666
 30
0.0
 10
98.0792105763085
 20
212.7952484565417
 30
0.0
 10
97.72636003336486
 20
212.2811009157702
 30
0.0
 10
97.09040774847799
 20
211.279309670156
 30
0.0
 10
96.80710522809709
 20
210.7915565062713
 30
0.0
 10
96.5654515040026
 20
210.321060456666
 30
0.0
  0
LINE
  5
152
330
1F
100
AcDbEntity
  8
0
  6
Continuous
 62
     7
370
    15
100
AcDbLine
 10
96.5654529362
 20
210.3210604567
 30
0.0
 11
69.3828887968
 21
210.3210604567
 31
0.0
  0
SPLINE
  5
153
330
1F
100
AcDbEntity
  8
0
  6
Continuous
 62
     7
370
    15
100
AcDbSpline
210
0.0
220
0.0
230
1.0
 70
     8
 71
     3
 72
    10
 73
     6
 74
     0
 42
0.00000001
 43
0.00000001
 12
1.0
 22
0.0
 32
0.0
 13
1.0
 23
0.0
 33
0.0
 40
0.0
 40
0.0
 40
0.0
 40
0.0
 40
0.5
 40
0.5
 40
1.0
 40
1.0
 40
1.0
 40
1.0
 10
-20.64826422472965
 20
210.321060456666
 30
0.0
 10
-20.88991794882415
 20
210.7915565062713
 30
0.0
 10
-21.17322046920506
 20
211.279309670156
 30
0.0
 10
-21.80917275409189
 20
212.2811009157702
 30
0.0
 10
-22.16202329703555
 20
212.7952484565417
 30
0.0
 10
-22.54766720814108
 20
213.321060456666
 30
0.0
  0
LINE
  5
154
330
1F
100
AcDbEntity
  8
0
  6
Continuous
 62
     7
370
    15
100
AcDbLine
 10
6.5342984824
 20
210.3210604567
 30
0.0
 11
-20.6482656569
 21
210.3210604567
 31
0.0
  0
LINE
  5
155
330
1F
100
AcDbEntity
  8
0
  6
Continuous
 62
     7
370
    15
100
AcDbLine
 10
-41.320374635
 20
217.3210606727
 30
0.0
 11
-45.0876340539
 21
217.3210606727
 31
0.0
  0
LINE
  5
156
330
1F
100
AcDbEntity
  8
0
  6
Continuous
 62
     7
370
    15
100
AcDbLine
 10
121.0048213332
 20
217.3210606727
 30
0.0
 11
117.2375619142
 21
217.3210606727
 31
0.0
  0
LINE
  5
157
330
1F
100
AcDbEntity
  8
0
  6
Continuous
 62
     7
370
    15
100
AcDbLine
 10
-14.2154008419
 20
343.7787807364
 30
0.0
 11
90.1184469192
 21
343.7787807364
 31
0.0
  0
LINE
  5
158
330
1F
100
AcDbEntity
  8
0
  6
Continuous
 62
     7
370
    15
100
AcDbLine
 10
91.3451552122
 20
232.9318384457
 30
0.0
 11
80.8127946882
 21
248.3560732383
 31
0.0
  0
LINE
  5
159
330
1F
100
AcDbEntity
  8
0
  6
Continuous
 62
     7
370
    15
100
AcDbLine
 10
81.4684942096
 20
235.1052584875
 30
0.0
 11
81.4684942096
 21
231.2034918744
 31
0.0
  0
LINE
  5
15A
330
1F
100
AcDbEntity
  8
0
  6
Continuous
 62
     7
370
    15
100
AcDbLine
 10
94.714318934
 20
233.1754780192
 30
0.0
 11
84.3483261495
 21
248.3560732383
 31
0.0
  0
LINE
  5
15B
330
1F
100
AcDbEntity
  8
0
  6
Continuous
 62
     7
370
    15
100
AcDbLine
 10
-15.4421091349
 20
232.9111276943
 30
0.0
 11
-4.895607409
 21
248.3560732383
 31
0.0
  0
LINE
  5
15C
330
1F
100
AcDbEntity
  8
0
  6
Continuous
 62
     7
370
    15
100
AcDbLine
 10
-5.5513069303
 20
235.1052584875
 30
0.0
 11
-5.5513069303
 21
231.2034918744
 31
0.0
  0
LINE
  5
15D
330
1F
100
AcDbEntity
  8
0
  6
Continuous
 62
     7
370
    15
100
AcDbLine
 10
-18.811276582
 20
233.1547691304
 30
0.0
 11
-8.4311388702
 21
248.3560732383
 31
0.0
  0
LINE
  5
15E
330
1F
100
AcDbEntity
  8
0
  6
Continuous
 62
     7
370
    15
100
AcDbLine
 10
-34.7279891641
 20
213.3210604827
 30
0.0
 11
-52.5486529143
 21
213.3210604827
 31
0.0
  0
LINE
  5
15F
330
1F
100
AcDbEntity
  8
0
  6
Continuous
 62
     7
370
    15
100
AcDbLine
 10
110.6451764434
 20
213.3210604827
 30
0.0
 11
128.4658401935
 21
213.3210604827
 31
0.0
  0
LINE
  5
160
330
1F
100
AcDbEntity
  8
0
  6
Continuous
 62
     7
370
    15
100
AcDbLine
 10
-9.4846137137
 20
248.389138915
 30
0.0
 11
-9.4846137137
 21
246.8133038658
 31
0.0
  0
LINE
  5
161
330
1F
100
AcDbEntity
  8
0
  6
Continuous
 62
     7
370
    15
100
AcDbLine
 10
85.401800993
 20
248.389138915
 30
0.0
 11
85.401800993
 21
246.8133038658
 31
0.0
  0
LINE
  5
162
330
1F
100
AcDbEntity
  8
0
  6
Continuous
 62
     7
370
    15
100
AcDbLine
 10
-36.9619712503
 20
310.3210619468
 30
0.0
 11
-30.8112785489
 21
310.3210619468
 31
0.0
  0
LINE
  5
163
330
1F
100
AcDbEntity
  8
0
  6
Continuous
 62
     7
370
    15
100
AcDbLine
 10
106.7143171757
 20
310.3210619468
 30
0.0
 11
112.8791585295
 21
310.3210619468
 31
0.0
  0
LINE
  5
164
330
1F
100
AcDbEntity
  8
0
  6
Continuous
 62
     7
370
    15
100
AcDbLine
 10
-56.109933582
 20
217.3210606727
 30
0.0
 11
-62.0414078505
 21
217.3210606727
 31
0.0
  0
LINE
  5
165
330
1F
100
AcDbEntity
  8
0
  6
Continuous
 62
     7
370
    15
100
AcDbLine
 10
-52.5486529143
 20
213.3210604827
 30
0.0
 11
-56.109933582
 21
213.3210604827
 31
0.0
  0
LINE
  5
166
330
1F
100
AcDbEntity
  8
0
  6
Continuous
 62
     7
370
    15
100
AcDbLine
 10
137.9585951298
 20
217.3210606727
 30
0.0
 11
132.0271208613
 21
217.3210606727
 31
0.0
  0
LINE
  5
167
330
1F
100
AcDbEntity
  8
0
  6
Continuous
 62
     7
370
    15
100
AcDbLine
 10
132.0271208613
 20
213.3210604827
 30
0.0
 11
128.4658401935
 21
213.3210604827
 31
0.0
  0
SPLINE
  5
168
330
1F
100
AcDbEntity
  8
0
  6
Continuous
 62
     7
370
    15
100
AcDbSpline
210
0.0
220
0.0
230
1.0
 70
     8
 71
     3
 72
    10
 73
     6
 74
     0
 42
0.00000001
 43
0.00000001
 12
1.0
 22
0.0
 32
0.0
 13
1.0
 23
0.0
 33
0.0
 40
0.0
 40
0.0
 40
0.0
 40
0.0
 40
0.5
 40
0.5
 40
1.0
 40
1.0
 40
1.0
 40
1.0
 10
101.6202311669351
 20
210.321060456666
 30
0.0
 10
102.1764609425297
 20
210.7915565062713
 30
0.0
 10
102.7287297794661
 20
211.279309670156
 30
0.0
 10
103.8285478627987
 20
212.2811009157702
 30
0.0
 10
104.376057898156
 20
212.7952484565417
 30
0.0
 10
104.9219222215455
 20
213.321060456666
 30
0.0
  0
LINE
  5
169
330
1F
100
AcDbEntity
  8
0
  6
Continuous
 62
     7
370
    15
100
AcDbLine
 10
96.5654529362
 20
210.3210604567
 30
0.0
 11
101.6202285617
 21
210.3210604567
 31
0.0
  0
SPLINE
  5
16A
330
1F
100
AcDbEntity
  8
0
  6
Continuous
 62
     7
370
    15
100
AcDbSpline
210
0.0
220
0.0
230
1.0
 70
     8
 71
     3
 72
    10
 73
     6
 74
     0
 42
0.00000001
 43
0.00000001
 12
1.0
 22
0.0
 32
0.0
 13
1.0
 23
0.0
 33
0.0
 40
0.0
 40
0.0
 40
0.0
 40
0.0
 40
0.5
 40
0.5
 40
1.0
 40
1.0
 40
1.0
 40
1.0
 10
-29.00473494227247
 20
213.321060456666
 30
0.0
 10
-28.45887061888292
 20
212.7952484565417
 30
0.0
 10
-27.91136058352572
 20
212.2811009157702
 30
0.0
 10
-26.81154250019304
 20
211.279309670156
 30
0.0
 10
-26.25927366325668
 20
210.7915565062713
 30
0.0
 10
-25.70304388766208
 20
210.321060456666
 30
0.0
  0
LINE
  5
16B
330
1F
100
AcDbEntity
  8
0
  6
Continuous
 62
     7
370
    15
100
AcDbLine
 10
-25.7030412824
 20
210.3210604567
 30
0.0
 11
-20.6482656569
 21
210.3210604567
 31
0.0
  0
LINE
  5
16C
330
1F
100
AcDbEntity
  8
0
  6
Continuous
 62
     7
370
    15
100
AcDbLine
 10
-56.9047540695
 20
213.3210604827
 30
0.0
 11
-56.109933582
 21
213.3210604827
 31
0.0
  0
LINE
  5
16D
330
1F
100
AcDbEntity
  8
0
  6
Continuous
 62
     7
370
    15
100
AcDbLine
 10
132.0271208613
 20
213.3210604827
 30
0.0
 11
132.8219413488
 21
213.3210604827
 31
0.0
  0
LINE
  5
16E
330
1F
100
AcDbEntity
  8
0
  6
Continuous
 62
     7
370
    15
100
AcDbLine
 10
104.4585942953
 20
210.3210604567
 30
0.0
 11
101.6202285617
 21
210.3210604567
 31
0.0
  0
LINE
  5
16F
330
1F
100
AcDbEntity
  8
0
  6
Continuous
 62
     7
370
    15
100
AcDbLine
 10
-25.7030412824
 20
210.3210604567
 30
0.0
 11
-28.541407016
 21
210.3210604567
 31
0.0
  0
LINE
  5
170
330
1F
100
AcDbEntity
  8
0
  6
Continuous
 62
     7
370
    15
100
AcDbLine
 10
112.7284630864
 20
343.2787722725
 30
0.0
 11
112.7143218844
 21
343.2787722725
 31
0.0
  0
LINE
  5
171
330
1F
100
AcDbEntity
  8
0
  6
Continuous
 62
     7
370
    15
100
AcDbLine
 10
-14.20125964
 20
353.2787776369
 30
0.0
 11
-14.20125964
 21
343.7787807364
 31
0.0
  0
LINE
  5
172
330
1F
100
AcDbEntity
  8
0
  6
Continuous
 62
     7
370
    15
100
AcDbLine
 10
-14.2154008419
 20
353.2787776369
 30
0.0
 11
-14.20125964
 21
353.2787776369
 31
0.0
  0
LINE
  5
173
330
1F
100
AcDbEntity
  8
0
  6
Continuous
 62
     7
370
    15
100
AcDbLine
 10
110.0976258247
 20
233.1187772382
 30
0.0
 11
110.0976258247
 21
230.7811911035
 31
0.0
  0
LINE
  5
174
330
1F
100
AcDbEntity
  8
0
  6
Continuous
 62
     7
370
    15
100
AcDbLine
 10
110.0834846227
 20
233.1187772382
 30
0.0
 11
110.0976258247
 21
233.1187772382
 31
0.0
  0
LINE
  5
175
330
1F
100
AcDbEntity
  8
0
  6
Continuous
 62
     7
370
    15
100
AcDbLine
 10
108.7284624307
 20
357.8187740225
 30
0.0
 11
108.7143212288
 21
357.8187740225
 31
0.0
  0
LINE
  5
176
330
1F
100
AcDbEntity
  8
0
  6
Continuous
 62
     7
370
    15
100
AcDbLine
 10
108.7284624307
 20
357.3187804598
 30
0.0
 11
108.7143212288
 21
357.3187804598
 31
0.0
  0
LINE
  5
177
330
1F
100
AcDbEntity
  8
0
  6
Continuous
 62
     7
370
    15
100
AcDbLine
 10
-16.7971350522
 20
357.8187740225
 30
0.0
 11
-16.8112762542
 21
357.8187740225
 31
0.0
  0
LINE
  5
178
330
1F
100
AcDbEntity
  8
0
  6
Continuous
 62
     7
370
    15
100
AcDbLine
 10
-16.7971350522
 20
357.3187804598
 30
0.0
 11
-16.8112762542
 21
357.3187804598
 31
0.0
  0
LINE
  5
179
330
1F
100
AcDbEntity
  8
0
  6
Continuous
 62
     7
370
    15
100
AcDbLine
 10
111.3243341177
 20
353.2787776369
 30
0.0
 11
111.3243341177
 21
343.2787722725
 31
0.0
  0
LINE
  5
17A
330
1F
100
AcDbEntity
  8
0
  6
Continuous
 62
     7
370
    15
100
AcDbLine
 10
111.3101929157
 20
353.2787776369
 30
0.0
 11
111.3243341177
 21
353.2787776369
 31
0.0
  0
LINE
  5
17B
330
1F
100
AcDbEntity
  8
0
  6
Continuous
 62
     7
370
    15
100
AcDbLine
 10
107.2284593909
 20
369.3187749762
 30
0.0
 11
107.2143181889
 21
369.3187749762
 31
0.0
  0
LINE
  5
17C
330
1F
100
AcDbEntity
  8
0
  6
Continuous
 62
     7
370
    15
100
AcDbLine
 10
-18.2971343667
 20
369.3187749762
 30
0.0
 11
-18.3112755687
 21
369.3187749762
 31
0.0
  0
LINE
  5
17D
330
1F
100
AcDbEntity
  8
0
  6
Continuous
 62
     8
370
     0
100
AcDbLine
 10
80.4843395679
 20
217.3210606727
 30
0.0
 11
80.4843395679
 21
213.3210604827
 31
0.0
  0
LINE
  5
17E
330
1F
100
AcDbEntity
  8
0
  6
Continuous
 62
     8
370
     0
100
AcDbLine
 10
71.88663778
 20
217.3210606727
 30
0.0
 11
71.88663778
 21
213.3210604827
 31
0.0
  0
LINE
  5
17F
330
1F
100
AcDbEntity
  8
0
  6
Continuous
 62
     8
370
     0
100
AcDbLine
 10
4.0305494993
 20
217.3210606727
 30
0.0
 11
4.0305494993
 21
213.3210604827
 31
0.0
  0
LINE
  5
180
330
1F
100
AcDbEntity
  8
0
  6
Continuous
 62
     8
370
     0
100
AcDbLine
 10
-4.5671522887
 20
217.3210606727
 30
0.0
 11
-4.5671522887
 21
213.3210604827
 31
0.0
  0
LINE
  5
181
330
1F
100
AcDbEntity
  8
0
  6
Continuous
 62
     8
370
     0
100
AcDbLine
 10
-3.1328708203
 20
229.3210598457
 30
0.0
 11
-3.1328708203
 21
217.3210606727
 31
0.0
  0
LINE
  5
182
330
1F
100
AcDbEntity
  8
0
  6
Continuous
 62
     8
370
     0
100
AcDbLine
 10
79.0500580995
 20
229.3210598457
 30
0.0
 11
79.0500580995
 21
217.3210606727
 31
0.0
  0
LINE
  5
183
330
1F
100
AcDbEntity
  8
0
  6
Continuous
 62
     8
370
     0
100
AcDbLine
 10
107.6998725264
 20
229.0683715421
 30
0.0
 11
107.6998725264
 21
224.3210608888
 31
0.0
  0
LINE
  5
184
330
1F
100
AcDbEntity
  8
0
  6
Continuous
 62
     8
370
     0
100
AcDbLine
 10
97.0680169492
 20
217.3210606727
 30
0.0
 11
97.0680169492
 21
224.3210608888
 31
0.0
  0
LINE
  5
185
330
1F
100
AcDbEntity
  8
0
  6
Continuous
 62
     8
370
     0
100
AcDbLine
 10
-31.7826852472
 20
229.0683715421
 30
0.0
 11
-31.7826852472
 21
224.3210608888
 31
0.0
  0
LINE
  5
186
330
1F
100
AcDbEntity
  8
0
  6
Continuous
 62
     8
370
     0
100
AcDbLine
 10
-21.1508296699
 20
224.3210608888
 30
0.0
 11
-21.1508296699
 21
217.3210606727
 31
0.0
  0
LINE
  5
187
330
1F
100
AcDbEntity
  8
0
  6
Continuous
 62
     8
370
     0
100
AcDbLine
 10
76.3805523246
 20
230.3458909321
 30
0.0
 11
76.3951256602
 21
230.044919141
 31
0.0
  0
LINE
  5
188
330
1F
100
AcDbEntity
  8
0
  6
Continuous
 62
     8
370
     0
100
AcDbLine
 10
-0.4633650453
 20
230.3458909321
 30
0.0
 11
-0.4779383809
 21
230.0449284542
 31
0.0
  0
LINE
  5
189
330
1F
100
AcDbEntity
  8
0
  6
Continuous
 62
     8
370
     0
100
AcDbLine
 10
-41.320374635
 20
224.3210608888
 30
0.0
 11
-41.320374635
 21
217.3210606727
 31
0.0
  0
LINE
  5
18A
330
1F
100
AcDbEntity
  8
0
  6
Continuous
 62
     8
370
     0
100
AcDbLine
 10
117.2375619142
 20
217.3210606727
 30
0.0
 11
117.2375619142
 21
224.3210608888
 31
0.0
  0
LINE
  5
18B
330
1F
100
AcDbEntity
  8
0
  6
Continuous
 62
     8
370
     0
100
AcDbLine
 10
-5.3172394902
 20
312.6902199167
 30
0.0
 11
81.2344267695
 21
312.6902199167
 31
0.0
  0
LINE
  5
18C
330
1F
100
AcDbEntity
  8
0
  6
Continuous
 62
     8
370
     0
100
AcDbLine
 10
116.212771806
 20
229.0683715421
 30
0.0
 11
116.212771806
 21
224.3210608888
 31
0.0
  0
LINE
  5
18D
330
1F
100
AcDbEntity
  8
0
  6
Continuous
 62
     8
370
     0
100
AcDbLine
 10
-40.2955845268
 20
229.0683715421
 30
0.0
 11
-40.2955845268
 21
224.3210608888
 31
0.0
  0
LINE
  5
18E
330
1F
100
AcDbEntity
  8
0
  6
Continuous
 62
     8
370
     0
100
AcDbLine
 10
2.2330783038
 20
230.7106378305
 30
0.0
 11
2.1957173674
 21
229.9390110004
 31
0.0
  0
LINE
  5
18F
330
1F
100
AcDbEntity
  8
0
  6
Continuous
 62
     8
370
     0
100
AcDbLine
 10
73.6841089754
 20
230.7106378305
 30
0.0
 11
73.7214624613
 21
229.9391562867
 31
0.0
  0
LINE
  5
190
330
1F
100
AcDbEntity
  8
0
  6
Continuous
 62
     8
370
     0
100
AcDbLine
 10
129.1259765356
 20
229.3210598457
 30
0.0
 11
129.1259765356
 21
217.3210606727
 31
0.0
  0
LINE
  5
191
330
1F
100
AcDbEntity
  8
0
  6
Continuous
 62
     8
370
     0
100
AcDbLine
 10
121.0048213332
 20
224.3210608888
 30
0.0
 11
121.0048213332
 21
217.3210606727
 31
0.0
  0
LINE
  5
192
330
1F
100
AcDbEntity
  8
0
  6
Continuous
 62
     8
370
     0
100
AcDbLine
 10
-53.2087892563
 20
229.3210598457
 30
0.0
 11
-53.2087892563
 21
217.3210606727
 31
0.0
  0
LINE
  5
193
330
1F
100
AcDbEntity
  8
0
  6
Continuous
 62
     8
370
     0
100
AcDbLine
 10
-45.0876340539
 20
217.3210606727
 30
0.0
 11
-45.0876340539
 21
224.3210608888
 31
0.0
  0
LINE
  5
194
330
1F
100
AcDbEntity
  8
0
  6
Continuous
 62
     8
370
     0
100
AcDbLine
 10
106.9585919111
 20
308.3210578937
 30
0.0
 11
106.7143171757
 21
308.3210578937
 31
0.0
  0
LINE
  5
195
330
1F
100
AcDbEntity
  8
0
  6
Continuous
 62
     8
370
     0
100
AcDbLine
 10
94.714318934
 20
308.3210578937
 30
0.0
 11
-18.811276582
 21
308.3210578937
 31
0.0
  0
LINE
  5
196
330
1F
100
AcDbEntity
  8
0
  6
Continuous
 62
     8
370
     0
100
AcDbLine
 10
-30.8112785489
 20
308.3210578937
 30
0.0
 11
-31.0414046318
 21
308.3210578937
 31
0.0
  0
LINE
  5
197
330
1F
100
AcDbEntity
  8
0
  6
Continuous
 62
     8
370
     0
100
AcDbLine
 10
106.9585919111
 20
307.4819586057
 30
0.0
 11
106.7143171757
 21
307.4819586057
 31
0.0
  0
LINE
  5
198
330
1F
100
AcDbEntity
  8
0
  6
Continuous
 62
     8
370
     0
100
AcDbLine
 10
94.714318934
 20
307.4819586057
 30
0.0
 11
-18.811276582
 21
307.4819586057
 31
0.0
  0
LINE
  5
199
330
1F
100
AcDbEntity
  8
0
  6
Continuous
 62
     8
370
     0
100
AcDbLine
 10
-30.8112785489
 20
307.4819586057
 30
0.0
 11
-31.0414046318
 21
307.4819586057
 31
0.0
  0
LINE
  5
19A
330
1F
100
AcDbEntity
  8
0
  6
Continuous
 62
     8
370
     0
100
AcDbLine
 10
94.714318934
 20
305.1838270206
 30
0.0
 11
-18.811276582
 21
305.1838270206
 31
0.0
  0
LINE
  5
19B
330
1F
100
AcDbEntity
  8
0
  6
Continuous
 62
     8
370
     0
100
AcDbLine
 10
94.714318934
 20
299.8880735416
 30
0.0
 11
-18.811276582
 21
299.8880735416
 31
0.0
  0
LINE
  5
19C
330
1F
100
AcDbEntity
  8
0
  6
Continuous
 62
     8
370
     0
100
AcDbLine
 10
94.714318934
 20
295.7090726871
 30
0.0
 11
-18.811276582
 21
295.7090726871
 31
0.0
  0
LINE
  5
19D
330
1F
100
AcDbEntity
  8
0
  6
Continuous
 62
     8
370
     0
100
AcDbLine
 10
33.6452420532
 20
248.389138915
 30
0.0
 11
33.6452420532
 21
231.2638453025
 31
0.0
  0
LINE
  5
19E
330
1F
100
AcDbEntity
  8
0
  6
Continuous
 62
     8
370
     0
100
AcDbLine
 10
42.2719452261
 20
248.389138915
 30
0.0
 11
42.2719452261
 21
231.2638453025
 31
0.0
  0
LINE
  5
19F
330
1F
100
AcDbEntity
  8
0
  6
Continuous
 62
     8
370
     0
100
AcDbLine
 10
24.1648383169
 20
248.389138915
 30
0.0
 11
24.1648383169
 21
231.6764230657
 31
0.0
  0
LINE
  5
1A0
330
1F
100
AcDbEntity
  8
0
  6
Continuous
 62
     8
370
     0
100
AcDbLine
 10
51.7523489623
 20
248.389138915
 30
0.0
 11
51.7523489623
 21
231.6764230657
 31
0.0
  0
LINE
  5
1A1
330
1F
100
AcDbEntity
  8
0
  6
Continuous
 62
     8
370
     0
100
AcDbLine
 10
-12.8112755985
 20
341.7787766832
 30
0.0
 11
88.7143216758
 21
341.7787766832
 31
0.0
  0
LINE
  5
1A2
330
1F
100
AcDbEntity
  8
0
  6
Continuous
 62
     8
370
     0
100
AcDbLine
 10
65.8944841205
 20
248.389138915
 30
0.0
 11
65.8944841205
 21
231.6764230657
 31
0.0
  0
LINE
  5
1A3
330
1F
100
AcDbEntity
  8
0
  6
Continuous
 62
     8
370
     0
100
AcDbLine
 10
10.0227031588
 20
248.389138915
 30
0.0
 11
10.0227031588
 21
231.6764230657
 31
0.0
  0
LINE
  5
1A4
330
1F
100
AcDbEntity
  8
0
  6
Continuous
 62
     8
370
     0
100
AcDbLine
 10
-52.5486529143
 20
217.3210606727
 30
0.0
 11
-52.5486529143
 21
213.3210604827
 31
0.0
  0
LINE
  5
1A5
330
1F
100
AcDbEntity
  8
0
  6
Continuous
 62
     8
370
     0
100
AcDbLine
 10
128.4658401935
 20
217.3210606727
 30
0.0
 11
128.4658401935
 21
213.3210604827
 31
0.0
  0
LINE
  5
1A6
330
1F
100
AcDbEntity
  8
0
  6
Continuous
 62
     8
370
     0
100
AcDbLine
 10
79.3017983167
 20
248.389138915
 30
0.0
 11
79.3017983167
 21
231.2638453025
 31
0.0
  0
LINE
  5
1A7
330
1F
100
AcDbEntity
  8
0
  6
Continuous
 62
     8
370
     0
100
AcDbLine
 10
-3.3846110375
 20
248.389138915
 30
0.0
 11
-3.3846110375
 21
231.2638453025
 31
0.0
  0
LINE
  5
1A8
330
1F
100
AcDbEntity
  8
0
  6
Continuous
 62
     8
370
     0
100
AcDbLine
 10
-39.4585490496
 20
312.6902199167
 30
0.0
 11
-30.8112785489
 21
312.6902199167
 31
0.0
  0
LINE
  5
1A9
330
1F
100
AcDbEntity
  8
0
  6
Continuous
 62
     8
370
     0
100
AcDbLine
 10
106.7143171757
 20
312.6902199167
 30
0.0
 11
115.3757363289
 21
312.6902199167
 31
0.0
  0
LINE
  5
1AA
330
1F
100
AcDbEntity
  8
0
  6
Continuous
 62
     8
370
     0
100
AcDbLine
 10
-56.109933582
 20
217.3210606727
 30
0.0
 11
-56.109933582
 21
213.3210604827
 31
0.0
  0
LINE
  5
1AB
330
1F
100
AcDbEntity
  8
0
  6
Continuous
 62
     8
370
     0
100
AcDbLine
 10
132.0271208613
 20
217.3210606727
 30
0.0
 11
132.0271208613
 21
213.3210604827
 31
0.0
  0
LINE
  5
1AC
330
1F
100
AcDbEntity
  8
0
  6
Continuous
 62
     8
370
     0
100
AcDbLine
 10
115.1028364628
 20
230.3458909321
 30
0.0
 11
115.1088788836
 21
230.044624843
 31
0.0
  0
LINE
  5
1AD
330
1F
100
AcDbEntity
  8
0
  6
Continuous
 62
     8
370
     0
100
AcDbLine
 10
-39.1856491835
 20
230.3458909321
 30
0.0
 11
-39.1916916044
 21
230.0446341563
 31
0.0
  0
LINE
  5
1AE
330
1F
100
AcDbEntity
  8
0
  6
Continuous
 62
     8
370
     0
100
AcDbLine
 10
91.2596635251
 20
248.389138915
 30
0.0
 11
91.2596635251
 21
238.2346886027
 31
0.0
  0
LINE
  5
1AF
330
1F
100
AcDbEntity
  8
0
  6
Continuous
 62
     8
370
     0
100
AcDbLine
 10
-15.3424762459
 20
248.389138915
 30
0.0
 11
-15.3424762459
 21
238.2346886027
 31
0.0
  0
LINE
  5
1B0
330
1F
100
AcDbEntity
  8
0
  6
CENTERX2
 62
     7
370
     0
100
AcDbLine
 10
37.9585936396
 20
198.8248359192
 30
0.0
 11
37.9585936396
 21
354.0059948898
 31
0.0
  0
LINE
  5
1B1
330
1F
100
AcDbEntity
  8
0
  6
Continuous
 62
     7
370
    15
100
AcDbLine
 10
477.6463451007
 20
229.3210598457
 30
0.0
 11
449.7712345937
 21
230.7819324363
 31
0.0
  0
LINE
  5
1B2
330
1F
100
AcDbEntity
  8
0
  6
Continuous
 62
     7
370
    15
100
AcDbLine
 10
305.5073114255
 20
230.7811911035
 30
0.0
 11
277.6463421204
 21
229.3210598457
 31
0.0
  0
LINE
  5
1B3
330
1F
100
AcDbEntity
  8
0
  6
Continuous
 62
     7
370
    15
100
AcDbLine
 10
327.4190480032
 20
217.3210606727
 30
0.0
 11
327.4190480032
 21
213.3210604827
 31
0.0
  0
LINE
  5
1B4
330
1F
100
AcDbEntity
  8
0
  6
Continuous
 62
     7
370
    15
100
AcDbLine
 10
427.8736392179
 20
213.3210604827
 30
0.0
 11
427.8736392179
 21
217.3210606727
 31
0.0
  0
LINE
  5
1B5
330
1F
100
AcDbEntity
  8
0
  6
Continuous
 62
     7
370
    15
100
AcDbLine
 10
437.9339384058
 20
217.3210606727
 30
0.0
 11
437.9339384058
 21
224.3210608888
 31
0.0
  0
LINE
  5
1B6
330
1F
100
AcDbEntity
  8
0
  6
Continuous
 62
     7
370
    15
100
AcDbLine
 10
317.3587488153
 20
224.3210608888
 30
0.0
 11
317.3587488153
 21
217.3210606727
 31
0.0
  0
LINE
  5
1B7
330
1F
100
AcDbEntity
  8
0
  6
Continuous
 62
     7
370
    15
100
AcDbLine
 10
455.4020704844
 20
223.1899780038
 30
0.0
 11
455.4020704844
 21
224.3187772858
 31
0.0
  0
ARC
  5
1B8
330
1F
100
AcDbEntity
  8
0
  6
Continuous
 62
     7
370
    15
100
AcDbCircle
 10
440.4020704409
 20
240.1914492015
 30
0.0
 40
22.67267151925523
100
AcDbArc
 50
263.750432004
 51
311.4212052824
  0
ARC
  5
1B9
330
1F
100
AcDbEntity
  8
0
  6
Continuous
 62
     7
370
    15
100
AcDbCircle
 10
314.8764746446
 20
240.1914492015
 30
0.0
 40
22.67267151925525
100
AcDbArc
 50
228.5787947176
 51
276.2855212768
  0
LINE
  5
1BA
330
1F
100
AcDbEntity
  8
0
  6
Continuous
 62
     7
370
    15
100
AcDbLine
 10
299.8764755347
 20
224.3187772858
 30
0.0
 11
299.8764755347
 21
223.1899780038
 31
0.0
  0
LINE
  5
1BB
330
1F
100
AcDbEntity
  8
0
  6
Continuous
 62
     7
370
    15
100
AcDbLine
 10
452.4020718553
 20
340.7787746567
 30
0.0
 11
452.4020718553
 21
343.2787722725
 31
0.0
  0
LINE
  5
1BC
330
1F
100
AcDbEntity
  8
0
  6
Continuous
 62
     7
370
    15
100
AcDbLine
 10
428.4020716467
 20
343.2787722725
 30
0.0
 11
428.4020716467
 21
340.7787746567
 31
0.0
  0
LINE
  5
1BD
330
1F
100
AcDbEntity
  8
0
  6
Continuous
 62
     7
370
    15
100
AcDbLine
 10
326.8764743724
 20
340.7787746567
 30
0.0
 11
326.8764743724
 21
343.2787722725
 31
0.0
  0
LINE
  5
1BE
330
1F
100
AcDbEntity
  8
0
  6
Continuous
 62
     7
370
    15
100
AcDbLine
 10
302.8764741638
 20
343.2787722725
 30
0.0
 11
302.8764741638
 21
340.7787746567
 31
0.0
  0
LINE
  5
1BF
330
1F
100
AcDbEntity
  8
0
  6
Continuous
 62
     7
370
    15
100
AcDbLine
 10
448.4020711997
 20
357.3187804598
 30
0.0
 11
448.4020711997
 21
357.8187740225
 31
0.0
  0
LINE
  5
1C0
330
1F
100
AcDbEntity
  8
0
  6
Continuous
 62
     7
370
    15
100
AcDbLine
 10
432.4020723024
 20
357.8187740225
 30
0.0
 11
432.4020723024
 21
357.3187804598
 31
0.0
  0
LINE
  5
1C1
330
1F
100
AcDbEntity
  8
0
  6
Continuous
 62
     7
370
    15
100
AcDbLine
 10
322.8764737168
 20
357.3187804598
 30
0.0
 11
322.8764737168
 21
357.8187740225
 31
0.0
  0
LINE
  5
1C2
330
1F
100
AcDbEntity
  8
0
  6
Continuous
 62
     7
370
    15
100
AcDbLine
 10
306.8764748194
 20
357.8187740225
 30
0.0
 11
306.8764748194
 21
357.3187804598
 31
0.0
  0
LINE
  5
1C3
330
1F
100
AcDbEntity
  8
0
  6
Continuous
 62
     7
370
    15
100
AcDbLine
 10
446.9020681598
 20
357.8187740225
 30
0.0
 11
446.9020681598
 21
369.3187749762
 31
0.0
  0
LINE
  5
1C4
330
1F
100
AcDbEntity
  8
0
  6
Continuous
 62
     7
370
    15
100
AcDbLine
 10
433.9020716169
 20
369.3187749762
 30
0.0
 11
433.9020716169
 21
357.8187740225
 31
0.0
  0
LINE
  5
1C5
330
1F
100
AcDbEntity
  8
0
  6
Continuous
 62
     7
370
    15
100
AcDbLine
 10
321.3764744022
 20
357.8187740225
 30
0.0
 11
321.3764744022
 21
369.3187749762
 31
0.0
  0
LINE
  5
1C6
330
1F
100
AcDbEntity
  8
0
  6
Continuous
 62
     7
370
    15
100
AcDbLine
 10
308.3764778593
 20
369.3187749762
 30
0.0
 11
308.3764778593
 21
357.8187740225
 31
0.0
  0
ARC
  5
1C7
330
1F
100
AcDbEntity
  8
0
  6
Continuous
 62
     7
370
    15
100
AcDbCircle
 10
444.6463436105
 20
308.3210604567
 30
0.0
 40
2.0
100
AcDbArc
 50
0.0
 51
28.6143071806
  0
ARC
  5
1C8
330
1F
100
AcDbEntity
  8
0
  6
Continuous
 62
     7
370
    15
100
AcDbCircle
 10
310.6463436105
 20
308.3210604567
 30
0.0
 40
2.0
100
AcDbArc
 50
152.24345983
 51
180.0
  0
LINE
  5
1C9
330
1F
100
AcDbEntity
  8
0
  6
Continuous
 62
     7
370
    15
100
AcDbLine
 10
446.646341882
 20
307.4819586057
 30
0.0
 11
446.646341882
 21
308.3210578937
 31
0.0
  0
LINE
  5
1CA
330
1F
100
AcDbEntity
  8
0
  6
Continuous
 62
     7
370
    15
100
AcDbLine
 10
308.6463453391
 20
308.3210578937
 30
0.0
 11
308.6463453391
 21
307.4819586057
 31
0.0
  0
ARC
  5
1CB
330
1F
100
AcDbEntity
  8
0
  6
Continuous
 62
     7
370
    15
100
AcDbCircle
 10
443.6463436105
 20
307.4819608255
 30
0.0
 40
3.0
100
AcDbArc
 50
336.7187262228
 51
0.0
  0
ARC
  5
1CC
330
1F
100
AcDbEntity
  8
0
  6
Continuous
 62
     7
370
    15
100
AcDbCircle
 10
311.6463436105
 20
307.4819608255
 30
0.0
 40
3.0
100
AcDbArc
 50
180.0
 51
202.588153371
  0
LINE
  5
1CD
330
1F
100
AcDbEntity
  8
0
  6
Continuous
 62
     7
370
    15
100
AcDbLine
 10
446.4020671466
 20
233.1187772382
 30
0.0
 11
446.4020671466
 21
335.7787794251
 31
0.0
  0
LINE
  5
1CE
330
1F
100
AcDbEntity
  8
0
  6
Continuous
 62
     7
370
    15
100
AcDbLine
 10
434.4020689049
 20
324.2493114251
 30
0.0
 11
434.4020689049
 21
233.1187772382
 31
0.0
  0
LINE
  5
1CF
330
1F
100
AcDbEntity
  8
0
  6
Continuous
 62
     7
370
    15
100
AcDbLine
 10
446.4020671466
 20
353.2787776369
 30
0.0
 11
446.4020671466
 21
357.3187804598
 31
0.0
  0
LINE
  5
1D0
330
1F
100
AcDbEntity
  8
0
  6
Continuous
 62
     7
370
    15
100
AcDbLine
 10
434.4020689049
 20
357.3187804598
 30
0.0
 11
434.4020689049
 21
353.2787776369
 31
0.0
  0
LINE
  5
1D1
330
1F
100
AcDbEntity
  8
0
  6
Continuous
 62
     7
370
    15
100
AcDbLine
 10
320.8764733889
 20
233.1187772382
 30
0.0
 11
320.8764733889
 21
324.2724007744
 31
0.0
  0
LINE
  5
1D2
330
1F
100
AcDbEntity
  8
0
  6
Continuous
 62
     7
370
    15
100
AcDbLine
 10
308.876471422
 20
335.7787794251
 30
0.0
 11
308.876471422
 21
233.1187772382
 31
0.0
  0
LINE
  5
1D3
330
1F
100
AcDbEntity
  8
0
  6
Continuous
 62
     7
370
    15
100
AcDbLine
 10
320.8764733889
 20
353.2787776369
 30
0.0
 11
320.8764733889
 21
357.3187804598
 31
0.0
  0
LINE
  5
1D4
330
1F
100
AcDbEntity
  8
0
  6
Continuous
 62
     7
370
    15
100
AcDbLine
 10
308.876471422
 20
357.3187804598
 30
0.0
 11
308.876471422
 21
353.2787776369
 31
0.0
  0
ARC
  5
1D5
330
1F
100
AcDbEntity
  8
0
  6
Continuous
 62
     7
370
    15
100
AcDbCircle
 10
302.7257766081
 20
312.8210604567
 30
0.0
 40
2.500000000000018
100
AcDbArc
 50
183.0
 51
270.0
  0
ARC
  5
1D6
330
1F
100
AcDbEntity
  8
0
  6
Continuous
 62
     7
370
    15
100
AcDbCircle
 10
452.566910613
 20
312.8210604567
 30
0.0
 40
2.500000000000018
100
AcDbArc
 50
270.0
 51
357.0
  0
LINE
  5
1D7
330
1F
100
AcDbEntity
  8
0
  6
Continuous
 62
     7
370
    15
100
AcDbLine
 10
299.222105942
 20
331.9067648429
 30
0.0
 11
300.2292009213
 21
312.6902199167
 31
0.0
  0
LINE
  5
1D8
330
1F
100
AcDbEntity
  8
0
  6
Continuous
 62
     7
370
    15
100
AcDbLine
 10
455.0634862998
 20
312.6902199167
 30
0.0
 11
456.0705812791
 21
331.9067648429
 31
0.0
  0
LINE
  5
1D9
330
1F
100
AcDbEntity
  8
0
  6
Continuous
 62
     7
370
    15
100
AcDbLine
 10
277.6463421204
 20
229.3210598457
 30
0.0
 11
277.6463421204
 21
217.3210606727
 31
0.0
  0
LINE
  5
1DA
330
1F
100
AcDbEntity
  8
0
  6
Continuous
 62
     7
370
    15
100
AcDbLine
 10
477.6463451007
 20
217.3210606727
 30
0.0
 11
477.6463451007
 21
229.3210598457
 31
0.0
  0
LINE
  5
1DB
330
1F
100
AcDbEntity
  8
0
  6
Continuous
 62
     7
370
    15
100
AcDbLine
 10
282.7829959014
 20
217.3210606727
 30
0.0
 11
282.7829959014
 21
213.3210604827
 31
0.0
  0
LINE
  5
1DC
330
1F
100
AcDbEntity
  8
0
  6
Continuous
 62
     7
370
    15
100
AcDbLine
 10
472.5096913197
 20
213.3210604827
 30
0.0
 11
472.5096913197
 21
217.3210606727
 31
0.0
  0
LINE
  5
1DD
330
1F
100
AcDbEntity
  8
0
  6
Continuous
 62
     7
370
    15
100
AcDbLine
 10
444.1463442662
 20
210.3210604567
 30
0.0
 11
447.1463428953
 21
213.3210604827
 31
0.0
  0
LINE
  5
1DE
330
1F
100
AcDbEntity
  8
0
  6
Continuous
 62
     7
370
    15
100
AcDbLine
 10
308.1463443258
 20
213.3210604827
 30
0.0
 11
311.1463429549
 21
210.3210604567
 31
0.0
  0
LINE
  5
1DF
330
1F
100
AcDbEntity
  8
0
  6
Continuous
 62
     7
370
    15
100
AcDbLine
 10
452.4162130573
 20
340.7787746567
 30
0.0
 11
452.4162130573
 21
343.2787722725
 31
0.0
  0
LINE
  5
1E0
330
1F
100
AcDbEntity
  8
0
  6
Continuous
 62
     7
370
    15
100
AcDbLine
 10
448.4162124017
 20
357.3187804598
 30
0.0
 11
448.4162124017
 21
357.8187740225
 31
0.0
  0
LINE
  5
1E1
330
1F
100
AcDbEntity
  8
0
  6
Continuous
 62
     7
370
    15
100
AcDbLine
 10
322.8906149187
 20
357.3187804598
 30
0.0
 11
322.8906149187
 21
357.8187740225
 31
0.0
  0
LINE
  5
1E2
330
1F
100
AcDbEntity
  8
0
  6
Continuous
 62
     7
370
    15
100
AcDbLine
 10
446.9162093618
 20
357.8187740225
 30
0.0
 11
446.9162093618
 21
369.3187749762
 31
0.0
  0
LINE
  5
1E3
330
1F
100
AcDbEntity
  8
0
  6
Continuous
 62
     7
370
    15
100
AcDbLine
 10
321.3906156042
 20
357.8187740225
 30
0.0
 11
321.3906156042
 21
369.3187749762
 31
0.0
  0
LINE
  5
1E4
330
1F
100
AcDbEntity
  8
0
  6
Continuous
 62
     7
370
    15
100
AcDbLine
 10
446.4162157991
 20
353.2787776369
 30
0.0
 11
446.4162157991
 21
357.3187804598
 31
0.0
  0
LINE
  5
1E5
330
1F
100
AcDbEntity
  8
0
  6
Continuous
 62
     7
370
    15
100
AcDbLine
 10
446.4162157991
 20
233.1187772382
 30
0.0
 11
446.4162157991
 21
306.32964436
 31
0.0
  0
LINE
  5
1E6
330
1F
100
AcDbEntity
  8
0
  6
Continuous
 62
     7
370
    15
100
AcDbLine
 10
446.4162157991
 20
309.252492227
 30
0.0
 11
446.4162157991
 21
310.3210619468
 31
0.0
  0
LINE
  5
1E7
330
1F
100
AcDbEntity
  8
0
  6
Continuous
 62
     7
370
    15
100
AcDbLine
 10
320.8906183162
 20
353.2787776369
 30
0.0
 11
320.8906183162
 21
357.3187804598
 31
0.0
  0
LINE
  5
1E8
330
1F
100
AcDbEntity
  8
0
  6
Continuous
 62
     7
370
    15
100
AcDbLine
 10
420.1720895388
 20
213.3210604827
 30
0.0
 11
411.5743877509
 21
213.3210604827
 31
0.0
  0
LINE
  5
1E9
330
1F
100
AcDbEntity
  8
0
  6
Continuous
 62
     7
370
    15
100
AcDbLine
 10
411.5743877509
 20
217.3210606727
 30
0.0
 11
343.7182994702
 21
217.3210606727
 31
0.0
  0
LINE
  5
1EA
330
1F
100
AcDbEntity
  8
0
  6
Continuous
 62
     7
370
    15
100
AcDbLine
 10
343.7182994702
 20
213.3210604827
 30
0.0
 11
335.1205976823
 21
213.3210604827
 31
0.0
  0
LINE
  5
1EB
330
1F
100
AcDbEntity
  8
0
  6
Continuous
 62
     7
370
    15
100
AcDbLine
 10
418.7378080704
 20
229.3210598457
 30
0.0
 11
336.5548791507
 21
229.3210598457
 31
0.0
  0
SPLINE
  5
1EC
330
1F
100
AcDbEntity
  8
0
  6
Continuous
 62
     7
370
    15
100
AcDbSpline
210
0.0
220
0.0
230
1.0
 70
     8
 71
     3
 72
     8
 73
     4
 74
     0
 42
0.00000001
 43
0.00000001
 12
1.0
 22
0.0
 32
0.0
 13
1.0
 23
0.0
 33
0.0
 40
0.0
 40
0.0
 40
0.0
 40
0.0
 40
1.0
 40
1.0
 40
1.0
 40
1.0
 10
305.5073097938965
 20
229.5508430199922
 30
0.0
 10
308.6303646819782
 20
229.5669051470062
 30
0.0
 10
311.7534196322179
 20
229.5669295884431
 30
0.0
 10
314.8764746446183
 20
229.550915645058
 30
0.0
  0
LINE
  5
1ED
330
1F
100
AcDbEntity
  8
0
  6
Continuous
 62
     7
370
    15
100
AcDbLine
 10
314.8764761307
 20
229.5509158451
 30
0.0
 11
324.245640836
 21
230.2433877069
 31
0.0
  0
SPLINE
  5
1EE
330
1F
100
AcDbEntity
  8
0
  6
Continuous
 62
     7
370
    15
100
AcDbSpline
210
0.0
220
0.0
230
1.0
 70
     8
 71
     3
 72
     8
 73
     4
 74
     0
 42
0.00000001
 43
0.00000001
 12
1.0
 22
0.0
 32
0.0
 13
1.0
 23
0.0
 33
0.0
 40
0.0
 40
0.0
 40
0.0
 40
0.0
 40
1.0
 40
1.0
 40
1.0
 40
1.0
 10
307.9050680292705
 20
229.0683724396384
 30
0.0
 10
317.4544164973859
 20
229.2329465926068
 30
0.0
 10
327.0043254681042
 20
229.321060456666
 30
0.0
 10
336.5548803695516
 20
229.321060456666
 30
0.0
  0
SPLINE
  5
1EF
330
1F
100
AcDbEntity
  8
0
  6
Continuous
 62
     7
370
    15
100
AcDbSpline
210
0.0
220
0.0
230
1.0
 70
     8
 71
     3
 72
    18
 73
    14
 74
     0
 42
0.00000001
 43
0.00000001
 12
1.0
 22
0.0
 32
0.0
 13
1.0
 23
0.0
 33
0.0
 40
0.0
 40
0.0
 40
0.0
 40
0.0
 40
0.2499999999999976
 40
0.2499999999999976
 40
0.3749999999999964
 40
0.3749999999999964
 40
0.4999999999999952
 40
0.4999999999999952
 40
0.7499999999999952
 40
0.7499999999999952
 40
0.8749999999999977
 40
0.8749999999999977
 40
1.0
 40
1.0
 40
1.0
 40
1.0
 10
299.392161739564
 20
229.0683724396384
 30
0.0
 10
299.8172889290086
 20
229.0521171523852
 30
0.0
 10
300.3212639070854
 20
229.0400649199109
 30
0.0
 10
301.1905905186238
 20
229.0279134116039
 30
0.0
 10
301.4993807538086
 20
229.0248579814997
 30
0.0
 10
302.1555903266528
 20
229.0207585659266
 30
0.0
 10
302.504881468372
 20
229.0197167416342
 30
0.0
 10
303.5980265439503
 20
229.0197136963467
 30
0.0
 10
304.3829970110877
 20
229.0237959119685
 30
0.0
 10
305.6423377890624
 20
229.0359088884654
 30
0.0
 10
306.0758499726541
 20
229.0409517499336
 30
0.0
 10
306.9709549248699
 20
229.0531097177684
 30
0.0
 10
307.4334635601848
 20
229.060244774563
 30
0.0
 10
307.9050680292705
 20
229.0683724396384
 30
0.0
  0
SPLINE
  5
1F0
330
1F
100
AcDbEntity
  8
0
  6
Continuous
 62
     7
370
    15
100
AcDbSpline
210
0.0
220
0.0
230
1.0
 70
     8
 71
     3
 72
     8
 73
     4
 74
     0
 42
0.00000001
 43
0.00000001
 12
1.0
 22
0.0
 32
0.0
 13
1.0
 23
0.0
 33
0.0
 40
0.0
 40
0.0
 40
0.0
 40
0.0
 40
1.0
 40
1.0
 40
1.0
 40
1.0
 10
286.4789610183381
 20
229.3210604566661
 30
0.0
 10
290.7836395613133
 20
229.321060456666
 30
0.0
 10
295.0880269668439
 20
229.2329465926068
 30
0.0
 10
299.392161739564
 20
229.0683724396384
 30
0.0
  0
LINE
  5
1F1
330
1F
100
AcDbEntity
  8
0
  6
Continuous
 62
     7
370
    15
100
AcDbLine
 10
286.4789607146
 20
229.3210598457
 30
0.0
 11
277.6463421204
 21
229.3210598457
 31
0.0
  0
LINE
  5
1F2
330
1F
100
AcDbEntity
  8
0
  6
Continuous
 62
     7
370
    15
100
AcDbLine
 10
477.6463451007
 20
229.3210598457
 30
0.0
 11
468.8137265065
 21
229.3210598457
 31
0.0
  0
SPLINE
  5
1F3
330
1F
100
AcDbEntity
  8
0
  6
Continuous
 62
     7
370
    15
100
AcDbSpline
210
0.0
220
0.0
230
1.0
 70
     8
 71
     3
 72
     8
 73
     4
 74
     0
 42
0.00000001
 43
0.00000001
 12
1.0
 22
0.0
 32
0.0
 13
1.0
 23
0.0
 33
0.0
 40
0.0
 40
0.0
 40
0.0
 40
0.0
 40
1.0
 40
1.0
 40
1.0
 40
1.0
 10
455.9005254815274
 20
229.0683724396384
 30
0.0
 10
460.2046602542477
 20
229.2329465926068
 30
0.0
 10
464.5090476597787
 20
229.321060456666
 30
0.0
 10
468.8137262027543
 20
229.321060456666
 30
0.0
  0
SPLINE
  5
1F4
330
1F
100
AcDbEntity
  8
0
  6
Continuous
 62
     7
370
    15
100
AcDbSpline
210
0.0
220
0.0
230
1.0
 70
     8
 71
     3
 72
    18
 73
    14
 74
     0
 42
0.00000001
 43
0.00000001
 12
1.0
 22
0.0
 32
0.0
 13
1.0
 23
0.0
 33
0.0
 40
0.0
 40
0.0
 40
0.0
 40
0.0
 40
0.2500000000000023
 40
0.2500000000000023
 40
0.3750000000000012
 40
0.3750000000000012
 40
0.5
 40
0.5
 40
0.75
 40
0.75
 40
0.8749999999999999
 40
0.8749999999999999
 40
1.0
 40
1.0
 40
1.0
 40
1.0
 10
447.3876191918202
 20
229.0683724396383
 30
0.0
 10
448.330825640886
 20
229.0521171523852
 30
0.0
 10
449.2210566337024
 20
229.0400649199109
 30
0.0
 10
450.4802359775006
 20
229.0279134116038
 30
0.0
 10
450.8871868325379
 20
229.0248579814996
 30
0.0
 10
451.6751343229222
 20
229.0207585659266
 30
0.0
 10
452.0579330261072
 20
229.0197167416341
 30
0.0
 10
453.1511760190172
 20
229.0197136963465
 30
0.0
 10
453.8047471857781
 20
229.0237959119684
 30
0.0
 10
454.6754649210342
 20
229.0359088884653
 30
0.0
 10
454.9473179674412
 20
229.0409517499335
 30
0.0
 10
455.4534257146625
 20
229.0531097177683
 30
0.0
 10
455.6879613258548
 20
229.060244774563
 30
0.0
 10
455.9005254815288
 20
229.0683724396383
 30
0.0
  0
SPLINE
  5
1F5
330
1F
100
AcDbEntity
  8
0
  6
Continuous
 62
     7
370
    15
100
AcDbSpline
210
0.0
220
0.0
230
1.0
 70
     8
 71
     3
 72
     8
 73
     4
 74
     0
 42
0.00000001
 43
0.00000001
 12
1.0
 22
0.0
 32
0.0
 13
1.0
 23
0.0
 33
0.0
 40
0.0
 40
0.0
 40
0.0
 40
0.0
 40
1.0
 40
1.0
 40
1.0
 40
1.0
 10
418.7378068515394
 20
229.3210604566659
 30
0.0
 10
428.2883617529869
 20
229.3210604566659
 30
0.0
 10
437.8382707237053
 20
229.2329465926067
 30
0.0
 10
447.3876191918209
 20
229.0683724396382
 30
0.0
  0
LINE
  5
1F6
330
1F
100
AcDbEntity
  8
0
  6
Continuous
 62
     7
370
    15
100
AcDbLine
 10
324.245640836
 20
230.4708706963
 30
0.0
 11
334.1364430406
 21
231.2034918744
 31
0.0
  0
SPLINE
  5
1F7
330
1F
100
AcDbEntity
  8
0
  6
Continuous
 62
     7
370
    15
100
AcDbSpline
210
0.0
220
0.0
230
1.0
 70
     8
 71
     3
 72
    10
 73
     6
 74
     0
 42
0.00000001
 43
0.00000001
 12
1.0
 22
0.0
 32
0.0
 13
1.0
 23
0.0
 33
0.0
 40
0.0
 40
0.0
 40
0.0
 40
0.0
 40
0.5
 40
0.5
 40
1.0
 40
1.0
 40
1.0
 40
1.0
 10
334.1364415756083
 20
231.2034913682632
 30
0.0
 10
334.479046144465
 20
231.2106738332278
 30
0.0
 10
334.8324980349782
 20
231.2192903679275
 30
0.0
 10
335.5618731773534
 20
231.2395619181496
 30
0.0
 10
335.9316214381217
 20
231.2510529368948
 30
0.0
 10
336.303137737223
 20
231.2638445021551
 30
0.0
  0
SPLINE
  5
1F8
330
1F
100
AcDbEntity
  8
0
  6
Continuous
 62
     7
370
    15
100
AcDbSpline
210
0.0
220
0.0
230
1.0
 70
     8
 71
     3
 72
     8
 73
     4
 74
     0
 42
0.00000001
 43
0.00000001
 12
1.0
 22
0.0
 32
0.0
 13
1.0
 23
0.0
 33
0.0
 40
0.0
 40
0.0
 40
0.0
 40
0.0
 40
1.0
 40
1.0
 40
1.0
 40
1.0
 10
336.303137737223
 20
231.2638445021551
 30
0.0
 10
340.771740303837
 20
231.4177016047684
 30
0.0
 10
345.2407734122212
 20
231.5575676788724
 30
0.0
 10
349.7104530478943
 20
231.6764239872486
 30
0.0
  0
SPLINE
  5
1F9
330
1F
100
AcDbEntity
  8
0
  6
Continuous
 62
     7
370
    15
100
AcDbSpline
210
0.0
220
0.0
230
1.0
 70
     8
 71
     3
 72
    18
 73
    14
 74
     0
 42
0.00000001
 43
0.00000001
 12
1.0
 22
0.0
 32
0.0
 13
1.0
 23
0.0
 33
0.0
 40
0.0
 40
0.0
 40
0.0
 40
0.0
 40
0.2499999999999993
 40
0.2499999999999993
 40
0.3749999999999992
 40
0.3749999999999992
 40
0.4999999999999991
 40
0.4999999999999991
 40
0.7499999999999996
 40
0.7499999999999996
 40
0.8749999999999998
 40
0.8749999999999998
 40
1.0
 40
1.0
 40
1.0
 40
1.0
 10
349.7104530478943
 20
231.6764239872486
 30
0.0
 10
351.0300937531728
 20
231.7115154558542
 30
0.0
 10
352.3278953713991
 20
231.7383303448356
 30
0.0
 10
354.2431687564506
 20
231.7656092386906
 30
0.0
 10
354.8763161239011
 20
231.7725352146495
 30
0.0
 10
356.1318137004242
 20
231.7818520597372
 30
0.0
 10
356.7558044572521
 20
231.7842176724032
 30
0.0
 10
358.5709193638536
 20
231.7842428359128
 30
0.0
 10
359.718902620595
 20
231.775018044291
 30
0.0
 10
361.3485681676798
 20
231.7478399951662
 30
0.0
 10
361.8775254250919
 20
231.7365157551118
 30
0.0
 10
362.8976826565907
 20
231.7095356556361
 30
0.0
 10
363.3860215309849
 20
231.6939698605039
 30
0.0
 10
363.852588671625
 20
231.6764239872486
 30
0.0
  0
SPLINE
  5
1FA
330
1F
100
AcDbEntity
  8
0
  6
Continuous
 62
     7
370
    15
100
AcDbSpline
210
0.0
220
0.0
230
1.0
 70
     8
 71
     3
 72
     8
 73
     4
 74
     0
 42
0.00000001
 43
0.00000001
 12
1.0
 22
0.0
 32
0.0
 13
1.0
 23
0.0
 33
0.0
 40
0.0
 40
0.0
 40
0.0
 40
0.0
 40
1.0
 40
1.0
 40
1.0
 40
1.0
 10
363.852588671625
 20
231.6764239872486
 30
0.0
 10
367.0131186872865
 20
231.5575680836839
 30
0.0
 10
370.1732496874583
 20
231.4176998216818
 30
0.0
 10
373.3329922453077
 20
231.263844502155
 30
0.0
  0
SPLINE
  5
1FB
330
1F
100
AcDbEntity
  8
0
  6
Continuous
 62
     7
370
    15
100
AcDbSpline
210
0.0
220
0.0
230
1.0
 70
     8
 71
     3
 72
    12
 73
     8
 74
     0
 42
0.00000001
 43
0.00000001
 12
1.0
 22
0.0
 32
0.0
 13
1.0
 23
0.0
 33
0.0
 40
0.0
 40
0.0
 40
0.0
 40
0.0
 40
0.5000000000000001
 40
0.5000000000000001
 40
0.75
 40
0.75
 40
1.0
 40
1.0
 40
1.0
 40
1.0
 10
373.3329922453077
 20
231.263844502155
 30
0.0
 10
373.6999139584208
 20
231.245978218311
 30
0.0
 10
374.1051225692436
 20
231.2308752261955
 30
0.0
 10
374.7685898528518
 20
231.2120807184126
 30
0.0
 10
375.0004721920175
 20
231.2064430129868
 30
0.0
 10
375.4761219394981
 20
231.1966763888132
 30
0.0
 10
375.7197772938696
 20
231.1925372612664
 30
0.0
 10
375.9693094354256
 20
231.1891399310619
 30
0.0
  0
LINE
  5
1FC
330
1F
100
AcDbEntity
  8
0
  6
Continuous
 62
     7
370
    15
100
AcDbLine
 10
379.3233778005
 20
231.1891401935
 30
0.0
 11
375.9693094206
 21
231.1891401935
 31
0.0
  0
SPLINE
  5
1FD
330
1F
100
AcDbEntity
  8
0
  6
Continuous
 62
     7
370
    15
100
AcDbSpline
210
0.0
220
0.0
230
1.0
 70
     8
 71
     3
 72
    12
 73
     8
 74
     0
 42
0.00000001
 43
0.00000001
 12
1.0
 22
0.0
 32
0.0
 13
1.0
 23
0.0
 33
0.0
 40
0.0
 40
0.0
 40
0.0
 40
0.0
 40
0.4999999999999964
 40
0.4999999999999964
 40
0.7499999999999982
 40
0.7499999999999982
 40
1.0
 40
1.0
 40
1.0
 40
1.0
 10
379.3233777856569
 20
231.1891399310619
 30
0.0
 10
379.822531732115
 20
231.1959358122195
 30
0.0
 10
380.2930276106081
 20
231.2055881329108
 30
0.0
 10
380.9571744181537
 20
231.2243230955211
 30
0.0
 10
381.1726342248703
 20
231.2313307231584
 30
0.0
 10
381.5821028218531
 20
231.2466298968311
 30
0.0
 10
381.7762388545525
 20
231.2549115908072
 30
0.0
 10
381.9596949757843
 20
231.2638445021551
 30
0.0
  0
SPLINE
  5
1FE
330
1F
100
AcDbEntity
  8
0
  6
Continuous
 62
     7
370
    15
100
AcDbSpline
210
0.0
220
0.0
230
1.0
 70
     8
 71
     3
 72
     8
 73
     4
 74
     0
 42
0.00000001
 43
0.00000001
 12
1.0
 22
0.0
 32
0.0
 13
1.0
 23
0.0
 33
0.0
 40
0.0
 40
0.0
 40
0.0
 40
0.0
 40
1.0
 40
1.0
 40
1.0
 40
1.0
 10
381.9596949757843
 20
231.2638445021551
 30
0.0
 10
385.1194741530647
 20
231.4177016047684
 30
0.0
 10
388.2795577693505
 20
231.5575676788724
 30
0.0
 10
391.4400985494664
 20
231.6764239872486
 30
0.0
  0
SPLINE
  5
1FF
330
1F
100
AcDbEntity
  8
0
  6
Continuous
 62
     7
370
    15
100
AcDbSpline
210
0.0
220
0.0
230
1.0
 70
     8
 71
     3
 72
    18
 73
    14
 74
     0
 42
0.00000001
 43
0.00000001
 12
1.0
 22
0.0
 32
0.0
 13
1.0
 23
0.0
 33
0.0
 40
0.0
 40
0.0
 40
0.0
 40
0.0
 40
0.2500000000000009
 40
0.2500000000000009
 40
0.3750000000000009
 40
0.3750000000000009
 40
0.500000000000001
 40
0.500000000000001
 40
0.7500000000000006
 40
0.7500000000000006
 40
0.8750000000000003
 40
0.8750000000000003
 40
1.0
 40
1.0
 40
1.0
 40
1.0
 10
391.4400985494664
 20
231.6764239872486
 30
0.0
 10
392.3732254408986
 20
231.7115154558542
 30
0.0
 10
393.3823588014237
 20
231.7383303448356
 30
0.0
 10
395.0055098456738
 20
231.7656092386906
 30
0.0
 10
395.5649371499637
 20
231.7725352146495
 30
0.0
 10
396.7213985298202
 20
231.7818520597372
 30
0.0
 10
397.3203374648014
 20
231.7842176724032
 30
0.0
 10
399.135185563847
 20
231.7842428359127
 30
0.0
 10
400.3805141149729
 20
231.775018044291
 30
0.0
 10
402.3011823414899
 20
231.7478399951662
 30
0.0
 10
402.9518369684195
 20
231.7365157551118
 30
0.0
 10
404.2643660556483
 20
231.7095356556361
 30
0.0
 10
404.9224085951465
 20
231.6939698605039
 30
0.0
 10
405.5822341731973
 20
231.6764239872486
 30
0.0
  0
SPLINE
  5
200
330
1F
100
AcDbEntity
  8
0
  6
Continuous
 62
     7
370
    15
100
AcDbSpline
210
0.0
220
0.0
230
1.0
 70
     8
 71
     3
 72
     8
 73
     4
 74
     0
 42
0.00000001
 43
0.00000001
 12
1.0
 22
0.0
 32
0.0
 13
1.0
 23
0.0
 33
0.0
 40
0.0
 40
0.0
 40
0.0
 40
0.0
 40
1.0
 40
1.0
 40
1.0
 40
1.0
 10
405.5822341731973
 20
231.6764239872486
 30
0.0
 10
410.0518985856335
 20
231.5575680836839
 30
0.0
 10
414.5209987049524
 20
231.4176998216818
 30
0.0
 10
418.9895494838709
 20
231.263844502155
 30
0.0
  0
SPLINE
  5
201
330
1F
100
AcDbEntity
  8
0
  6
Continuous
 62
     7
370
    15
100
AcDbSpline
210
0.0
220
0.0
230
1.0
 70
     8
 71
     3
 72
    10
 73
     6
 74
     0
 42
0.00000001
 43
0.00000001
 12
1.0
 22
0.0
 32
0.0
 13
1.0
 23
0.0
 33
0.0
 40
0.0
 40
0.0
 40
0.0
 40
0.0
 40
0.5
 40
0.5
 40
1.0
 40
1.0
 40
1.0
 40
1.0
 10
418.9895494838709
 20
231.263844502155
 30
0.0
 10
419.3619560140024
 20
231.2510222856195
 30
0.0
 10
419.7286493328061
 20
231.2396346113775
 30
0.0
 10
420.4510766324975
 20
231.2195312982115
 30
0.0
 10
420.8086423882288
 20
231.2107786272309
 30
0.0
 10
421.1562456454867
 20
231.2034913682631
 30
0.0
  0
LINE
  5
202
330
1F
100
AcDbEntity
  8
0
  6
Continuous
 62
     7
370
    15
100
AcDbLine
 10
431.0329051831
 20
230.4719193656
 30
0.0
 11
421.1562441805
 21
231.2034918744
 31
0.0
  0
SPLINE
  5
203
330
1F
100
AcDbEntity
  8
0
  6
Continuous
 62
     7
370
    15
100
AcDbSpline
210
0.0
220
0.0
230
1.0
 70
     8
 71
     3
 72
     8
 73
     4
 74
     0
 42
0.00000001
 43
0.00000001
 12
1.0
 22
0.0
 32
0.0
 13
1.0
 23
0.0
 33
0.0
 40
0.0
 40
0.0
 40
0.0
 40
0.0
 40
1.0
 40
1.0
 40
1.0
 40
1.0
 10
440.4020704408525
 20
229.5508430199922
 30
0.0
 10
443.5251253289341
 20
229.5669051470062
 30
0.0
 10
446.6481802791739
 20
229.5669295884431
 30
0.0
 10
449.7712352915743
 20
229.550915645058
 30
0.0
  0
LINE
  5
204
330
1F
100
AcDbEntity
  8
0
  6
Continuous
 62
     7
370
    15
100
AcDbLine
 10
431.0329051831
 20
230.2433038879
 30
0.0
 11
440.4020698884
 21
229.5508432019
 31
0.0
  0
LINE
  5
205
330
1F
100
AcDbEntity
  8
0
  6
Continuous
 62
     7
370
    15
100
AcDbLine
 10
454.7905864337
 20
230.3458909321
 30
0.0
 11
449.7712345937
 21
230.6286609549
 31
0.0
  0
SPLINE
  5
206
330
1F
100
AcDbEntity
  8
0
  6
Continuous
 62
     7
370
    15
100
AcDbSpline
210
0.0
220
0.0
230
1.0
 70
     8
 71
     3
 72
    43
 73
    39
 74
     0
 42
0.00000001
 43
0.00000001
 12
1.0
 22
0.0
 32
0.0
 13
1.0
 23
0.0
 33
0.0
 40
0.0
 40
0.0
 40
0.0
 40
0.0
 40
0.0116110237715076
 40
0.0356579273874916
 40
0.0640771265215508
 40
0.0925981750995872
 40
0.1211191462510613
 40
0.1495385792795446
 40
0.1779411373733475
 40
0.2064454016589399
 40
0.2349493092099669
 40
0.26335193712473
 40
0.2917245832048893
 40
0.3201987493607835
 40
0.348672994893134
 40
0.3770457013004528
 40
0.4053918781139091
 40
0.4338393876971482
 40
0.4622868079259999
 40
0.4906329088173003
 40
0.5189647168606656
 40
0.5473977968165735
 40
0.5758310032764874
 40
0.6041628232084004
 40
0.632497294342615
 40
0.6609328305922035
 40
0.6893684692626465
 40
0.717703016508353
 40
0.7460560060034902
 40
0.7745102397491385
 40
0.802964470820625
 40
0.8313177567066206
 40
0.8596994465702189
 40
0.8881823853203096
 40
0.9166652792460019
 40
0.9450469699827294
 40
0.972523528649764
 40
0.9999999999999999
 40
0.9999999999999999
 40
0.9999999999999999
 40
0.9999999999999999
 10
449.7712345936513
 20
230.2678870785561
 30
0.0
 10
449.8657092519141
 20
230.26298567476
 30
0.0
 10
450.1558447792012
 20
230.2479332638704
 30
0.0
 10
450.686874007821
 20
230.2216185331153
 30
0.0
 10
451.3620007007383
 20
230.1892248794837
 30
0.0
 10
452.0765315214614
 20
230.1564285069415
 30
0.0
 10
452.7874564245375
 20
230.1251376630449
 30
0.0
 10
453.4890363818603
 20
230.095614581047
 30
0.0
 10
454.1765903562648
 20
230.0680453893234
 30
0.0
 10
454.8463821179664
 20
230.0425087768249
 30
0.0
 10
455.4932625415184
 20
230.0191500717312
 30
0.0
 10
456.1115747004761
 20
229.9981585734697
 30
0.0
 10
456.6966715308354
 20
229.9796816087435
 30
0.0
 10
457.2459933379523
 20
229.9637402434971
 30
0.0
 10
457.7555735861073
 20
229.9504062408743
 30
0.0
 10
458.2208097315406
 20
229.9397930249299
 30
0.0
 10
458.6375606525938
 20
229.9320101129682
 30
0.0
 10
459.0047331021385
 20
229.9270215277826
 30
0.0
 10
459.319876838093
 20
229.9248325389984
 30
0.0
 10
459.5799632000522
 20
229.9254773901117
 30
0.0
 10
459.7818504247122
 20
229.9290267420927
 30
0.0
 10
459.925951978095
 20
229.9353912565323
 30
0.0
 10
460.0116475953642
 20
229.9445055810137
 30
0.0
 10
460.0377373990152
 20
229.95633945119
 30
0.0
 10
460.0023895075211
 20
229.9709047334162
 30
0.0
 10
459.9075194987262
 20
229.9880742080883
 30
0.0
 10
459.7543737445003
 20
230.0077151368706
 30
0.0
 10
459.5437185949144
 20
230.0297219192419
 30
0.0
 10
459.2751601572201
 20
230.0540570936768
 30
0.0
 10
458.9519002998592
 20
230.0805546474928
 30
0.0
 10
458.5770637840937
 20
230.1090094712545
 30
0.0
 10
458.153121886325
 20
230.1392512543025
 30
0.0
 10
457.6812778876358
 20
230.1711863177962
 30
0.0
 10
457.1656094602282
 20
230.2046086203865
 30
0.0
 10
456.610954114768
 20
230.2392516011896
 30
0.0
 10
456.0271030220563
 20
230.2745046523094
 30
0.0
 10
455.4210502134407
 20
230.3100916197561
 30
0.0
 10
455.0007408043125
 20
230.3339578406364
 30
0.0
 10
454.7905864336706
 20
230.3458909321156
 30
0.0
  0
LINE
  5
207
330
1F
100
AcDbEntity
  8
0
  6
Continuous
 62
     7
370
    15
100
AcDbLine
 10
305.5073114255
 20
230.6278637427
 30
0.0
 11
300.5021007874
 21
230.3458909321
 31
0.0
  0
SPLINE
  5
208
330
1F
100
AcDbEntity
  8
0
  6
Continuous
 62
     7
370
    15
100
AcDbSpline
210
0.0
220
0.0
230
1.0
 70
     8
 71
     3
 72
    44
 73
    40
 74
     0
 42
0.00000001
 43
0.00000001
 12
1.0
 22
0.0
 32
0.0
 13
1.0
 23
0.0
 33
0.0
 40
0.0
 40
0.0
 40
0.0
 40
0.0
 40
0.0196998399651351
 40
0.0394162645414991
 40
0.0591160109902473
 40
0.0875595337551867
 40
0.1161048784601963
 40
0.1446501127881707
 40
0.1730935590960928
 40
0.2015208874252129
 40
0.2300501407209624
 40
0.2585791774729483
 40
0.2870065756681104
 40
0.3154055811019179
 40
0.3439062821587416
 40
0.3724069833863691
 40
0.4008059154996242
 40
0.4291761534588475
 40
0.4576478761831247
 40
0.486119537662947
 40
0.5144897304154475
 40
0.5428408067559314
 40
0.5712933860138072
 40
0.5997457397216609
 40
0.6280970504341005
 40
0.6564450124544088
 40
0.6848942669536394
 40
0.7133436018499472
 40
0.7416917296470293
 40
0.7700537618232227
 40
0.7985166347228333
 40
0.8269798903595238
 40
0.8553417013327437
 40
0.8837298813050042
 40
0.9122192288156267
 40
0.9407088633193035
 40
0.9690971777990408
 40
0.9921147445045991
 40
0.9999999999999999
 40
0.9999999999999999
 40
0.9999999999999999
 40
0.9999999999999999
 10
300.5021007874227
 20
230.3458909321156
 30
0.0
 10
300.3511112310681
 20
230.3373353365972
 30
0.0
 10
300.0490050054942
 20
230.3202169429018
 30
0.0
 10
299.61131774453
 20
230.2948198031214
 30
0.0
 10
299.1239370637352
 20
230.2660180540746
 30
0.0
 10
298.598181792354
 20
230.234107469768
 30
0.0
 10
298.0481450635515
 20
230.1995772404426
 30
0.0
 10
297.537912518567
 20
230.1663038209338
 30
0.0
 10
297.0720525235404
 20
230.1345490600025
 30
0.0
 10
296.6547231155106
 20
230.1045168815831
 30
0.0
 10
296.2870480965382
 20
230.076300316947
 30
0.0
 10
295.9715650818471
 20
230.0500750947924
 30
0.0
 10
295.7113261396901
 20
230.0260444270367
 30
0.0
 10
295.5095358872163
 20
230.0043751750299
 30
0.0
 10
295.3656801850582
 20
229.9851002881065
 30
0.0
 10
295.2804371686901
 20
229.9683258562579
 30
0.0
 10
295.2549782138223
 20
229.9541741969746
 30
0.0
 10
295.2911309628717
 20
229.9427864517203
 30
0.0
 10
295.3868976665981
 20
229.9341249495545
 30
0.0
 10
295.5410191770143
 20
229.9282337992392
 30
0.0
 10
295.7527161011822
 20
229.9251630675354
 30
0.0
 10
296.0222464288437
 20
229.9249990615892
 30
0.0
 10
296.3463533138636
 20
229.9276685676801
 30
0.0
 10
296.7220261646382
 20
229.9331333862705
 30
0.0
 10
297.146619033759
 20
229.9413742706385
 30
0.0
 10
297.6188958999889
 20
229.952434755322
 30
0.0
 10
298.134658995692
 20
229.9661928522501
 30
0.0
 10
298.6894354018286
 20
229.9825391646523
 30
0.0
 10
299.2791054489511
 20
230.0013908473509
 30
0.0
 10
299.9010486565899
 20
230.0227278784642
 30
0.0
 10
300.5506172132113
 20
230.0463988813877
 30
0.0
 10
301.2222697037118
 20
230.0722200785014
 30
0.0
 10
301.9109390582055
 20
230.1000385253347
 30
0.0
 10
302.612881368869
 20
230.1297879386218
 30
0.0
 10
303.3234466874612
 20
230.1612694491059
 30
0.0
 10
304.036901332614
 20
230.1942240548373
 30
0.0
 10
304.7018079094591
 20
230.2263338141022
 30
0.0
 10
305.1923044254093
 20
230.2507468028483
 30
0.0
 10
305.4432734316877
 20
230.2638001212916
 30
0.0
 10
305.507311425469
 20
230.2671308446255
 30
0.0
  0
LINE
  5
209
330
1F
100
AcDbEntity
  8
0
  6
Continuous
 62
     7
370
    15
100
AcDbLine
 10
354.8389522501
 20
230.3458909321
 30
0.0
 11
357.5000761219
 21
230.7106378305
 31
0.0
  0
SPLINE
  5
20A
330
1F
100
AcDbEntity
  8
0
  6
Continuous
 62
     7
370
    15
100
AcDbSpline
210
0.0
220
0.0
230
1.0
 70
     8
 71
     3
 72
    49
 73
    45
 74
     0
 42
0.00000001
 43
0.00000001
 12
1.0
 22
0.0
 32
0.0
 13
1.0
 23
0.0
 33
0.0
 40
0.0
 40
0.0
 40
0.0
 40
0.0
 40
0.062499999999999
 40
0.062499999999999
 40
0.1249999999999981
 40
0.1249999999999981
 40
0.1874999999999971
 40
0.1874999999999971
 40
0.2187499999999967
 40
0.2187499999999967
 40
0.2499999999999962
 40
0.2812499999999958
 40
0.2812499999999958
 40
0.3124999999999954
 40
0.3124999999999954
 40
0.3749999999999956
 40
0.3749999999999956
 40
0.4062499999999956
 40
0.4062499999999956
 40
0.4374999999999955
 40
0.4374999999999955
 40
0.4999999999999956
 40
0.4999999999999956
 40
0.5312499999999957
 40
0.5312499999999957
 40
0.5624999999999957
 40
0.5624999999999957
 40
0.6249999999999962
 40
0.6249999999999962
 40
0.6874999999999967
 40
0.6874999999999967
 40
0.7187499999999972
 40
0.7187499999999972
 40
0.7499999999999977
 40
0.7499999999999977
 40
0.8124999999999988
 40
0.8124999999999988
 40
0.8749999999999998
 40
0.8749999999999998
 40
0.9375000000000009
 40
0.9375000000000009
 40
0.9687500000000003
 40
0.9687500000000003
 40
1.0
 40
1.0
 40
1.0
 40
1.0
 10
357.500076406236
 20
230.710637125146
 30
0.0
 10
357.7097765027763
 20
230.7393637824127
 30
0.0
 10
357.8674989778051
 20
230.7680793948534
 30
0.0
 10
358.0800907367989
 20
230.8254943433437
 30
0.0
 10
358.1339313658069
 20
230.8543756767248
 30
0.0
 10
358.1318636075056
 20
230.9096238278662
 30
0.0
 10
358.0777121213328
 20
230.9362832817871
 30
0.0
 10
357.9150654405499
 20
230.9746834999883
 30
0.0
 10
357.8469352863136
 20
230.9872206960174
 30
0.0
 10
357.6862062941328
 20
231.011181486229
 30
0.0
 10
357.5005065272312
 20
231.0341757568809
 30
0.0
 10
357.2656705726325
 20
231.0552158019201
 30
0.0
 10
357.0059594438689
 20
231.075238382503
 30
0.0
 10
356.8629312696208
 20
231.0847820510706
 30
0.0
 10
356.4002835081825
 20
231.1114799889296
 30
0.0
 10
356.0513192349946
 20
231.1265462578181
 30
0.0
 10
355.4688535650232
 20
231.1450121074431
 30
0.0
 10
355.2647907368795
 20
231.1504740067514
 30
0.0
 10
354.8362765775741
 20
231.1599495304375
 30
0.0
 10
354.6124238138075
 20
231.1639379095637
 30
0.0
 10
353.9249385079011
 20
231.1734500660038
 30
0.0
 10
353.4411005572468
 20
231.1766459941256
 30
0.0
 10
352.6769893389745
 20
231.1766712791577
 30
0.0
 10
352.4143370931515
 20
231.1758684768565
 30
0.0
 10
351.8842999527075
 20
231.1726573867953
 30
0.0
 10
351.6171388047254
 20
231.170261791687
 30
0.0
 10
350.8093939971189
 20
231.1607810577495
 30
0.0
 10
350.2626094926904
 20
231.1514210392053
 30
0.0
 10
349.1518853006514
 20
231.1265613648144
 30
0.0
 10
348.6022537225471
 20
231.1113629134096
 30
0.0
 10
347.7951691123639
 20
231.0849695227841
 30
0.0
 10
347.5285419430078
 20
231.0755565928264
 30
0.0
 10
347.0001793918277
 20
231.0555059393673
 30
0.0
 10
346.7371911257246
 20
231.0448090980376
 30
0.0
 10
345.971158132335
 20
231.0115265014475
 30
0.0
 10
345.4873068129862
 20
230.9876560638283
 30
0.0
 10
344.5723916472165
 20
230.9368068664374
 30
0.0
 10
344.1385542879839
 20
230.9095738215749
 30
0.0
 10
343.3603498837613
 20
230.8542915527283
 30
0.0
 10
343.0114516701091
 20
230.826037049155
 30
0.0
 10
342.5493840931971
 20
230.7827744258367
 30
0.0
 10
342.405374137437
 20
230.7681610886998
 30
0.0
 10
342.1442974631083
 20
230.7392636528891
 30
0.0
 10
342.0263742359293
 20
230.7249063030526
 30
0.0
 10
341.9208296895542
 20
230.710637125146
 30
0.0
  0
LINE
  5
20B
330
1F
100
AcDbEntity
  8
0
  6
Continuous
 62
     7
370
    15
100
AcDbLine
 10
341.9208282747
 20
230.7106378305
 30
0.0
 11
339.2243849256
 21
230.3458909321
 31
0.0
  0
SPLINE
  5
20C
330
1F
100
AcDbEntity
  8
0
  6
Continuous
 62
     7
370
    15
100
AcDbSpline
210
0.0
220
0.0
230
1.0
 70
     8
 71
     3
 72
    49
 73
    45
 74
     0
 42
0.00000001
 43
0.00000001
 12
1.0
 22
0.0
 32
0.0
 13
1.0
 23
0.0
 33
0.0
 40
0.0
 40
0.0
 40
0.0
 40
0.0
 40
0.0625000000000002
 40
0.0625000000000002
 40
0.1250000000000004
 40
0.1250000000000004
 40
0.1875000000000006
 40
0.1875000000000006
 40
0.2187500000000007
 40
0.2187500000000007
 40
0.2500000000000008
 40
0.2812500000000009
 40
0.2812500000000009
 40
0.3125000000000011
 40
0.3125000000000011
 40
0.3750000000000012
 40
0.3750000000000012
 40
0.4062500000000011
 40
0.4062500000000011
 40
0.4375000000000009
 40
0.4375000000000009
 40
0.5000000000000003
 40
0.5000000000000003
 40
0.5312500000000007
 40
0.5312500000000007
 40
0.562500000000001
 40
0.562500000000001
 40
0.625000000000001
 40
0.625000000000001
 40
0.687500000000001
 40
0.687500000000001
 40
0.7187500000000008
 40
0.7187500000000008
 40
0.7500000000000004
 40
0.7500000000000004
 40
0.8125
 40
0.8125
 40
0.8749999999999996
 40
0.8749999999999996
 40
0.9374999999999991
 40
0.9374999999999991
 40
0.9687499999999996
 40
0.9687499999999996
 40
1.0
 40
1.0
 40
1.0
 40
1.0
 10
339.2243851700048
 20
230.3458901327878
 30
0.0
 10
339.0106749720773
 20
230.3169672271012
 30
0.0
 10
338.8493466634635
 20
230.2886631767118
 30
0.0
 10
338.6303351410099
 20
230.2332144058834
 30
0.0
 10
338.5736794789709
 20
230.205911888152
 30
0.0
 10
338.5712158540814
 20
230.1546817291848
 30
0.0
 10
338.6236060641606
 20
230.1304638543354
 30
0.0
 10
338.7844401455002
 20
230.096170535132
 30
0.0
 10
338.8520819952453
 20
230.0850828992071
 30
0.0
 10
339.012101569308
 20
230.0640641960318
 30
0.0
 10
339.1973640773227
 20
230.044069188446
 30
0.0
 10
339.4323181722982
 20
230.0260517631737
 30
0.0
 10
339.6924433634789
 20
230.0090176523643
 30
0.0
 10
339.8358875947233
 20
230.0009554411328
 30
0.0
 10
340.2996413367892
 20
229.9785577172417
 30
0.0
 10
340.6498381970889
 20
229.9660956914993
 30
0.0
 10
341.2349635493248
 20
229.9509191818528
 30
0.0
 10
341.4400492767451
 20
229.9464510695193
 30
0.0
 10
341.8709116739079
 20
229.9387208294151
 30
0.0
 10
342.0956927310518
 20
229.9354852437052
 30
0.0
 10
342.7865229893533
 20
229.9277751572948
 30
0.0
 10
343.2730161853226
 20
229.9251991175347
 30
0.0
 10
344.0418501625192
 20
229.9251800330297
 30
0.0
 10
344.3062101966406
 20
229.9258296276188
 30
0.0
 10
344.8389434316906
 20
229.9284245453109
 30
0.0
 10
345.1075348432365
 20
229.9303611029216
 30
0.0
 10
345.9198203974343
 20
229.9380483784727
 30
0.0
 10
346.4699620813913
 20
229.9456565619538
 30
0.0
 10
347.5881457743521
 20
229.9661073588094
 30
0.0
 10
348.1396126685085
 20
229.9786569303789
 30
0.0
 10
348.9511540714763
 20
230.0008109293794
 30
0.0
 10
349.2193071575412
 20
230.0087597099337
 30
0.0
 10
349.7507921312543
 20
230.0258265920327
 30
0.0
 10
350.0151062235508
 20
230.0349874657849
 30
0.0
 10
350.7840809574973
 20
230.063695214935
 30
0.0
 10
351.2699239465752
 20
230.0845928924477
 30
0.0
 10
352.1886391465931
 20
230.1300164706658
 30
0.0
 10
352.6235803717958
 20
230.1547494698384
 30
0.0
 10
353.4026766369414
 20
230.2059868264842
 30
0.0
 10
353.7518559789694
 20
230.2326973374262
 30
0.0
 10
354.2137759869894
 20
230.274522901423
 30
0.0
 10
354.3572414318493
 20
230.2887672739338
 30
0.0
 10
354.6170019777182
 20
230.3172299743208
 30
0.0
 10
354.7342110782483
 20
230.3315264431805
 30
0.0
 10
354.838952872674
 20
230.3458901327878
 30
0.0
  0
LINE
  5
20D
330
1F
100
AcDbEntity
  8
0
  6
Continuous
 62
     7
370
    15
100
AcDbLine
 10
416.0683022955
 20
230.3458909321
 30
0.0
 11
413.3718589463
 21
230.7106378305
 31
0.0
  0
SPLINE
  5
20E
330
1F
100
AcDbEntity
  8
0
  6
Continuous
 62
     7
370
    15
100
AcDbSpline
210
0.0
220
0.0
230
1.0
 70
     8
 71
     3
 72
    50
 73
    46
 74
     0
 42
0.00000001
 43
0.00000001
 12
1.0
 22
0.0
 32
0.0
 13
1.0
 23
0.0
 33
0.0
 40
0.0
 40
0.0
 40
0.0
 40
0.0
 40
0.0312499999999999
 40
0.0312499999999999
 40
0.0624999999999999
 40
0.0624999999999999
 40
0.1249999999999997
 40
0.1249999999999997
 40
0.1562499999999999
 40
0.1562499999999999
 40
0.1875000000000001
 40
0.1875000000000001
 40
0.2500000000000006
 40
0.2500000000000006
 40
0.2812500000000005
 40
0.2812500000000005
 40
0.3125000000000004
 40
0.3125000000000004
 40
0.3750000000000003
 40
0.3750000000000003
 40
0.4375000000000003
 40
0.4375000000000003
 40
0.4687500000000006
 40
0.4687500000000006
 40
0.5000000000000009
 40
0.5000000000000009
 40
0.5625000000000011
 40
0.5625000000000011
 40
0.6250000000000013
 40
0.6250000000000013
 40
0.6875000000000016
 40
0.6875000000000016
 40
0.7187500000000013
 40
0.7187500000000013
 40
0.7500000000000011
 40
0.7500000000000011
 40
0.8125000000000009
 40
0.8125000000000009
 40
0.8750000000000007
 40
0.8750000000000007
 40
0.9062500000000006
 40
0.9062500000000006
 40
0.9375000000000003
 40
0.9375000000000003
 40
1.0
 40
1.0
 40
1.0
 40
1.0
 10
413.3718575315392
 20
230.710637125146
 30
0.0
 10
413.2663318651312
 20
230.7249037505606
 30
0.0
 10
413.1485386501409
 20
230.739244039116
 30
0.0
 10
412.8881024587952
 20
230.7680768385
 30
0.0
 10
412.7446664779932
 20
230.7826420159781
 30
0.0
 10
412.2814520019415
 20
230.826026261265
 30
0.0
 10
411.9322073546236
 20
230.8542982186191
 30
0.0
 10
411.3493907598863
 20
230.8957043316205
 30
0.0
 10
411.145222939646
 20
230.9093376891182
 30
0.0
 10
410.7165121656779
 20
230.9362407287267
 30
0.0
 10
410.4927894202598
 20
230.9494492746042
 30
0.0
 10
409.805541493936
 20
230.9876509787002
 30
0.0
 10
409.321860862884
 20
231.0115056103605
 30
0.0
 10
408.5579188555629
 20
231.0447070556216
 30
0.0
 10
408.2953088053926
 20
231.0553958622604
 30
0.0
 10
407.7655583246842
 20
231.0755067234176
 30
0.0
 10
407.4985208911427
 20
231.0849352012803
 30
0.0
 10
406.6910835937298
 20
231.1113447031346
 30
0.0
 10
406.1444199906024
 20
231.1264676778249
 30
0.0
 10
405.0337315677701
 20
231.1513518870069
 30
0.0
 10
404.4841539104855
 20
231.1607663402584
 30
0.0
 10
403.677002058821
 20
231.1702470294782
 30
0.0
 10
403.4103393988514
 20
231.1726401769704
 30
0.0
 10
402.8818828446439
 20
231.1758524025947
 30
0.0
 10
402.6188268535765
 20
231.1766662509025
 30
0.0
 10
401.8526138628688
 20
231.1766562188589
 30
0.0
 10
401.3686833233493
 20
231.1734538750325
 30
0.0
 10
400.4537228732007
 20
231.1608125455699
 30
0.0
 10
400.0199309227079
 20
231.1512196205768
 30
0.0
 10
399.2421110409695
 20
231.1265791211011
 30
0.0
 10
398.8935160475509
 20
231.1115229708008
 30
0.0
 10
398.4320759434124
 20
231.0849264353209
 30
0.0
 10
398.2883468698006
 20
231.0753536939532
 30
0.0
 10
398.02789968475
 20
231.0552933025653
 30
0.0
 10
397.9103104788038
 20
231.0447629159009
 30
0.0
 10
397.5947345904506
 20
231.0117410752873
 30
0.0
 10
397.4331384159728
 20
230.9877279240912
 30
0.0
 10
397.2151248360206
 20
230.9363810439187
 30
0.0
 10
397.1609628321723
 20
230.9096959119312
 30
0.0
 10
397.1592094882433
 20
230.8683096502246
 30
0.0
 10
397.171969840763
 20
230.8542854642185
 30
0.0
 10
397.2248861983554
 20
230.8257790349
 30
0.0
 10
397.2652066621918
 20
230.8113071676102
 30
0.0
 10
397.4248188967247
 20
230.7681367782474
 30
0.0
 10
397.5828090668792
 20
230.7393777075661
 30
0.0
 10
397.7926108148573
 20
230.710637125146
 30
0.0
  0
LINE
  5
20F
330
1F
100
AcDbEntity
  8
0
  6
Continuous
 62
     7
370
    15
100
AcDbLine
 10
397.7926110991
 20
230.7106378305
 30
0.0
 11
400.4537349709
 21
230.3458909321
 31
0.0
  0
SPLINE
  5
210
330
1F
100
AcDbEntity
  8
0
  6
Continuous
 62
     7
370
    15
100
AcDbSpline
210
0.0
220
0.0
230
1.0
 70
     8
 71
     3
 72
    51
 73
    47
 74
     0
 42
0.00000001
 43
0.00000001
 12
1.0
 22
0.0
 32
0.0
 13
1.0
 23
0.0
 33
0.0
 40
0.0
 40
0.0
 40
0.0
 40
0.0
 40
0.0312500000000002
 40
0.0312500000000002
 40
0.0625000000000005
 40
0.0625000000000005
 40
0.125000000000001
 40
0.125000000000001
 40
0.1562500000000014
 40
0.1562500000000014
 40
0.1875000000000018
 40
0.1875000000000018
 40
0.2500000000000017
 40
0.2500000000000017
 40
0.2812500000000012
 40
0.2812500000000012
 40
0.3125000000000007
 40
0.3125000000000007
 40
0.375
 40
0.375
 40
0.4374999999999993
 40
0.4374999999999993
 40
0.4687499999999992
 40
0.4687499999999992
 40
0.4999999999999992
 40
0.4999999999999992
 40
0.5624999999999997
 40
0.5624999999999997
 40
0.6250000000000002
 40
0.6250000000000002
 40
0.6875000000000007
 40
0.6875000000000007
 40
0.718750000000001
 40
0.718750000000001
 40
0.7500000000000012
 40
0.7812500000000014
 40
0.7812500000000014
 40
0.8125000000000017
 40
0.8125000000000017
 40
0.8750000000000022
 40
0.8750000000000022
 40
0.9062500000000017
 40
0.9062500000000017
 40
0.9375000000000011
 40
0.9375000000000011
 40
1.0
 40
1.0
 40
1.0
 40
1.0
 10
400.4537343484193
 20
230.3458901327878
 30
0.0
 10
400.558470035128
 20
230.3315272807579
 30
0.0
 10
400.6756098545683
 20
230.3172401346672
 30
0.0
 10
400.9350129876855
 20
230.2888128011662
 30
0.0
 10
401.0780579605192
 20
230.2746035165146
 30
0.0
 10
401.540668336538
 20
230.2327054012432
 30
0.0
 10
401.8900619136903
 20
230.2059852158365
 30
0.0
 10
402.4738978903813
 20
230.1675865281692
 30
0.0
 10
402.6785395645393
 20
230.1550690791891
 30
0.0
 10
403.1084782069134
 20
230.1305973972851
 30
0.0
 10
403.3329051382
 20
230.1187025833673
 30
0.0
 10
404.0226037655004
 20
230.084598027257
 30
0.0
 10
404.50835219245
 20
230.0637086681865
 30
0.0
 10
405.2760648531657
 20
230.0350420895373
 30
0.0
 10
405.5400580496099
 20
230.0258879275449
 30
0.0
 10
406.0724129155215
 20
230.0087884339726
 30
0.0
 10
406.3408256426366
 20
230.0008312211335
 30
0.0
 10
407.1526037376867
 20
229.978667830889
 30
0.0
 10
407.702445054677
 20
229.9661527005667
 30
0.0
 10
408.8200948176482
 20
229.9456976980308
 30
0.0
 10
409.3722524826436
 20
229.9380567328916
 30
0.0
 10
410.1841850249753
 20
229.9303689904842
 30
0.0
 10
410.452472811774
 20
229.9284335068692
 30
0.0
 10
410.9842382508361
 20
229.9258377801157
 30
0.0
 10
411.2488340375828
 20
229.9251826404339
 30
0.0
 10
412.0189680538097
 20
229.9251938101332
 30
0.0
 10
412.50551938043
 20
229.9277728189313
 30
0.0
 10
413.4255877668587
 20
229.9380316376022
 30
0.0
 10
413.8614375674312
 20
229.9458331977154
 30
0.0
 10
414.6423392556798
 20
229.9660773544558
 30
0.0
 10
414.9923063576119
 20
229.9785339787269
 30
0.0
 10
415.4553159522363
 20
230.0008778315787
 30
0.0
 10
415.599227261291
 20
230.0089564571023
 30
0.0
 10
415.8598020627337
 20
230.026009291261
 30
0.0
 10
416.0949653230455
 20
230.0440367999689
 30
0.0
 10
416.2801618488716
 20
230.0640171808152
 30
0.0
 10
416.4400755495399
 20
230.0850047255891
 30
0.0
 10
416.5076363227287
 20
230.0960583512747
 30
0.0
 10
416.6689879135582
 20
230.1304081087599
 30
0.0
 10
416.7213856406435
 20
230.1546395116563
 30
0.0
 10
416.7196708467428
 20
230.1930319798451
 30
0.0
 10
416.7056168222068
 20
230.2061725389774
 30
0.0
 10
416.6497614672969
 20
230.2331756021637
 30
0.0
 10
416.6079274990307
 20
230.2469821398017
 30
0.0
 10
416.4435624494105
 20
230.288629589596
 30
0.0
 10
416.2820722517237
 20
230.3169591065123
 30
0.0
 10
416.0683020510885
 20
230.3458901327878
 30
0.0
  0
LINE
  5
211
330
1F
100
AcDbEntity
  8
0
  6
Continuous
 62
     7
370
    15
100
AcDbLine
 10
393.7716463723
 20
217.3210606727
 30
0.0
 11
393.7716463723
 21
213.3210604827
 31
0.0
  0
LINE
  5
212
330
1F
100
AcDbEntity
  8
0
  6
Continuous
 62
     7
370
    15
100
AcDbLine
 10
393.7716463723
 20
213.3210604827
 30
0.0
 11
411.5743877509
 21
213.3210604827
 31
0.0
  0
LINE
  5
213
330
1F
100
AcDbEntity
  8
0
  6
Continuous
 62
     7
370
    15
100
AcDbLine
 10
361.5210408488
 20
217.3210606727
 30
0.0
 11
361.5210408488
 21
213.3210604827
 31
0.0
  0
LINE
  5
214
330
1F
100
AcDbEntity
  8
0
  6
Continuous
 62
     7
370
    15
100
AcDbLine
 10
343.7182994702
 20
213.3210604827
 30
0.0
 11
361.5210408488
 21
213.3210604827
 31
0.0
  0
LINE
  5
215
330
1F
100
AcDbEntity
  8
0
  6
Continuous
 62
     7
370
    15
100
AcDbLine
 10
436.7557669201
 20
224.3210608888
 30
0.0
 11
447.3876224973
 21
224.3210608888
 31
0.0
  0
LINE
  5
216
330
1F
100
AcDbEntity
  8
0
  6
Continuous
 62
     7
370
    15
100
AcDbLine
 10
436.7557669201
 20
217.3210606727
 30
0.0
 11
418.7378080704
 21
217.3210606727
 31
0.0
  0
LINE
  5
217
330
1F
100
AcDbEntity
  8
0
  6
Continuous
 62
     7
370
    15
100
AcDbLine
 10
336.5548791507
 20
217.3210606727
 30
0.0
 11
318.536920301
 21
217.3210606727
 31
0.0
  0
LINE
  5
218
330
1F
100
AcDbEntity
  8
0
  6
Continuous
 62
     7
370
    15
100
AcDbLine
 10
307.9050647238
 20
224.3210608888
 30
0.0
 11
318.536920301
 21
224.3210608888
 31
0.0
  0
LINE
  5
219
330
1F
100
AcDbEntity
  8
0
  6
Continuous
 62
     7
370
    15
100
AcDbLine
 10
327.4190480032
 20
213.3210604827
 30
0.0
 11
335.1205976823
 21
213.3210604827
 31
0.0
  0
LINE
  5
21A
330
1F
100
AcDbEntity
  8
0
  6
Continuous
 62
     7
370
    15
100
AcDbLine
 10
427.8736392179
 20
213.3210604827
 30
0.0
 11
420.1720895388
 21
213.3210604827
 31
0.0
  0
LINE
  5
21B
330
1F
100
AcDbEntity
  8
0
  6
Continuous
 62
     7
370
    15
100
AcDbLine
 10
339.9568217018
 20
335.7787794251
 30
0.0
 11
319.4782974341
 21
335.7787794251
 31
0.0
  0
LINE
  5
21C
330
1F
100
AcDbEntity
  8
0
  6
Continuous
 62
     7
370
    15
100
AcDbLine
 10
313.4764002779
 20
335.7787794251
 30
0.0
 11
319.4782974341
 21
335.7787794251
 31
0.0
  0
LINE
  5
21D
330
1F
100
AcDbEntity
  8
0
  6
Continuous
 62
     7
370
    15
100
AcDbLine
 10
313.4764002779
 20
340.7787746567
 30
0.0
 11
313.4764002779
 21
335.7787794251
 31
0.0
  0
LINE
  5
21E
330
1F
100
AcDbEntity
  8
0
  6
Continuous
 62
     7
370
    15
100
AcDbLine
 10
348.4369104871
 20
340.7787746567
 30
0.0
 11
313.4764002779
 21
340.7787746567
 31
0.0
  0
LINE
  5
21F
330
1F
100
AcDbEntity
  8
0
  6
Continuous
 62
     7
370
    15
100
AcDbLine
 10
348.4369104871
 20
340.7787746567
 30
0.0
 11
348.4369104871
 21
340.009591617
 31
0.0
  0
SPLINE
  5
220
330
1F
100
AcDbEntity
  8
0
  6
Continuous
 62
     7
370
    15
100
AcDbSpline
210
0.0
220
0.0
230
1.0
 70
     8
 71
     3
 72
     8
 73
     4
 74
     0
 42
0.00000001
 43
0.00000001
 12
1.0
 22
0.0
 32
0.0
 13
1.0
 23
0.0
 33
0.0
 40
0.0
 40
0.0
 40
0.0
 40
0.0
 40
1.0
 40
1.0
 40
1.0
 40
1.0
 10
348.4369105728741
 20
340.0095921302402
 30
0.0
 10
345.6082277750394
 20
338.6072103719275
 30
0.0
 10
342.7818587868169
 20
337.1956409329787
 30
0.0
 10
339.9568229830177
 20
335.778777682195
 30
0.0
  0
LINE
  5
221
330
1F
100
AcDbEntity
  8
0
  6
Continuous
 62
     7
370
    15
100
AcDbLine
 10
290.848987005
 20
340.7787746567
 30
0.0
 11
290.848987005
 21
335.7787794251
 31
0.0
  0
LINE
  5
222
330
1F
100
AcDbEntity
  8
0
  6
Continuous
 62
     7
370
    15
100
AcDbLine
 10
313.4764002779
 20
335.7787794251
 30
0.0
 11
290.848987005
 21
335.7787794251
 31
0.0
  0
LINE
  5
223
330
1F
100
AcDbEntity
  8
0
  6
Continuous
 62
     7
370
    15
100
AcDbLine
 10
313.4764002779
 20
340.7787746567
 30
0.0
 11
290.848987005
 21
340.7787746567
 31
0.0
  0
LINE
  5
224
330
1F
100
AcDbEntity
  8
0
  6
Continuous
 62
     7
370
    15
100
AcDbLine
 10
441.8162869432
 20
340.7787746567
 30
0.0
 11
441.8162869432
 21
335.7787794251
 31
0.0
  0
LINE
  5
225
330
1F
100
AcDbEntity
  8
0
  6
Continuous
 62
     7
370
    15
100
AcDbLine
 10
464.4437002161
 20
340.7787746567
 30
0.0
 11
441.8162869432
 21
340.7787746567
 31
0.0
  0
LINE
  5
226
330
1F
100
AcDbEntity
  8
0
  6
Continuous
 62
     7
370
    15
100
AcDbLine
 10
464.4437002161
 20
340.7787746567
 30
0.0
 11
464.4437002161
 21
335.7787794251
 31
0.0
  0
LINE
  5
227
330
1F
100
AcDbEntity
  8
0
  6
Continuous
 62
     7
370
    15
100
AcDbLine
 10
464.4437002161
 20
335.7787794251
 30
0.0
 11
441.8162869432
 21
335.7787794251
 31
0.0
  0
LINE
  5
228
330
1F
100
AcDbEntity
  8
0
  6
Continuous
 62
     7
370
    15
100
AcDbLine
 10
441.8162869432
 20
340.7787746567
 30
0.0
 11
406.855776734
 21
340.7787746567
 31
0.0
  0
LINE
  5
229
330
1F
100
AcDbEntity
  8
0
  6
Continuous
 62
     7
370
    15
100
AcDbLine
 10
435.814389787
 20
335.7787794251
 30
0.0
 11
415.3358655193
 21
335.7787794251
 31
0.0
  0
SPLINE
  5
22A
330
1F
100
AcDbEntity
  8
0
  6
Continuous
 62
     7
370
    15
100
AcDbSpline
210
0.0
220
0.0
230
1.0
 70
     8
 71
     3
 72
     8
 73
     4
 74
     0
 42
0.00000001
 43
0.00000001
 12
1.0
 22
0.0
 32
0.0
 13
1.0
 23
0.0
 33
0.0
 40
0.0
 40
0.0
 40
0.0
 40
0.0
 40
1.0
 40
1.0
 40
1.0
 40
1.0
 10
406.8557766482196
 20
340.0095921302402
 30
0.0
 10
409.6844594460543
 20
338.6072103719275
 30
0.0
 10
412.5108284342768
 20
337.1956409329787
 30
0.0
 10
415.3358642380761
 20
335.778777682195
 30
0.0
  0
LINE
  5
22B
330
1F
100
AcDbEntity
  8
0
  6
Continuous
 62
     7
370
    15
100
AcDbLine
 10
406.855776734
 20
340.7787746567
 30
0.0
 11
406.855776734
 21
340.009591617
 31
0.0
  0
LINE
  5
22C
330
1F
100
AcDbEntity
  8
0
  6
Continuous
 62
     7
370
    15
100
AcDbLine
 10
441.8162869432
 20
335.7787794251
 30
0.0
 11
435.814389787
 21
335.7787794251
 31
0.0
  0
LINE
  5
22D
330
1F
100
AcDbEntity
  8
0
  6
Continuous
 62
     7
370
    15
100
AcDbLine
 10
393.7716463723
 20
213.3210604827
 30
0.0
 11
393.5626594492
 21
217.3210606727
 31
0.0
  0
LINE
  5
22E
330
1F
100
AcDbEntity
  8
0
  6
Continuous
 62
     7
370
    15
100
AcDbLine
 10
361.5210408488
 20
213.3210604827
 30
0.0
 11
361.7300277719
 21
217.3210606727
 31
0.0
  0
LINE
  5
22F
330
1F
100
AcDbEntity
  8
0
  6
Continuous
 62
     7
370
    15
100
AcDbLine
 10
393.7716463723
 20
213.3210604827
 30
0.0
 11
377.6463436105
 21
213.3210604827
 31
0.0
  0
LINE
  5
230
330
1F
100
AcDbEntity
  8
0
  6
Continuous
 62
     7
370
    15
100
AcDbLine
 10
361.5210408488
 20
213.3210604827
 30
0.0
 11
377.6463436105
 21
213.3210604827
 31
0.0
  0
LINE
  5
231
330
1F
100
AcDbEntity
  8
0
  6
Continuous
 62
     7
370
    15
100
AcDbLine
 10
437.9339384058
 20
217.3210606727
 30
0.0
 11
436.7557669201
 21
217.3210606727
 31
0.0
  0
LINE
  5
232
330
1F
100
AcDbEntity
  8
0
  6
Continuous
 62
     7
370
    15
100
AcDbLine
 10
318.536920301
 20
217.3210606727
 30
0.0
 11
317.3587488153
 21
217.3210606727
 31
0.0
  0
LINE
  5
233
330
1F
100
AcDbEntity
  8
0
  6
Continuous
 62
     7
370
    15
100
AcDbLine
 10
319.4782974341
 20
335.7787794251
 30
0.0
 11
333.1818150499
 21
310.3210619468
 31
0.0
  0
LINE
  5
234
330
1F
100
AcDbEntity
  8
0
  6
Continuous
 62
     7
370
    15
100
AcDbLine
 10
333.1818150499
 20
310.3210619468
 30
0.0
 11
329.420292578
 21
310.3210619468
 31
0.0
  0
LINE
  5
235
330
1F
100
AcDbEntity
  8
0
  6
Continuous
 62
     7
370
    15
100
AcDbLine
 10
313.8299601295
 20
335.7787794251
 30
0.0
 11
329.420292578
 21
310.3210619468
 31
0.0
  0
SPLINE
  5
236
330
1F
100
AcDbEntity
  8
0
  6
Continuous
 62
     7
370
    15
100
AcDbSpline
210
0.0
220
0.0
230
1.0
 70
     8
 71
     3
 72
     8
 73
     4
 74
     0
 42
0.00000001
 43
0.00000001
 12
1.0
 22
0.0
 32
0.0
 13
1.0
 23
0.0
 33
0.0
 40
0.0000005977789991
 40
0.0000005977789991
 40
0.0000005977789991
 40
0.0000005977789991
 40
0.008028989879497
 40
0.008028989879497
 40
0.008028989879497
 40
0.008028989879497
 10
334.5070904415537
 20
333.0989914944907
 30
0.0
 10
336.323218730986
 20
333.9943489276795
 30
0.0
 10
338.1397511096903
 20
334.887829047252
 30
0.0
 10
339.9568229830177
 20
335.778777682195
 30
0.0
  0
SPLINE
  5
237
330
1F
100
AcDbEntity
  8
0
  6
Continuous
 62
     7
370
    15
100
AcDbSpline
210
0.0
220
0.0
230
1.0
 70
     8
 71
     3
 72
     8
 73
     4
 74
     0
 42
0.00000001
 43
0.00000001
 12
1.0
 22
0.0
 32
0.0
 13
1.0
 23
0.0
 33
0.0
 40
0.0000002004606685
 40
0.0000002004606685
 40
0.0000002004606685
 40
0.0000002004606685
 40
0.0204557632404544
 40
0.0204557632404544
 40
0.0204557632404544
 40
0.0204557632404544
 10
334.3705100564518
 20
312.6902205660587
 30
0.0
 10
334.4148451409753
 20
319.4930719874196
 30
0.0
 10
334.4603855014965
 20
326.2959968596387
 30
0.0
 10
334.5070904415537
 20
333.0989914944907
 30
0.0
  0
SPLINE
  5
238
330
1F
100
AcDbEntity
  8
0
  6
Continuous
 62
     7
370
    15
100
AcDbSpline
210
0.0
220
0.0
230
1.0
 70
     8
 71
     3
 72
    20
 73
    16
 74
     0
 42
0.00000001
 43
0.00000001
 12
1.0
 22
0.0
 32
0.0
 13
1.0
 23
0.0
 33
0.0
 40
0.0
 40
0.0
 40
0.0
 40
0.0
 40
0.2500000000000055
 40
0.2500000000000055
 40
0.3750000000000046
 40
0.3750000000000046
 40
0.5000000000000037
 40
0.5000000000000037
 40
0.6250000000000028
 40
0.6250000000000028
 40
0.7500000000000018
 40
0.7500000000000018
 40
0.8750000000000009
 40
0.8750000000000009
 40
1.0
 40
1.0
 40
1.0
 40
1.0
 10
336.0647170319362
 20
310.3210604566661
 30
0.0
 10
335.8405540212796
 20
310.3210604566661
 30
0.0
 10
335.6157858411833
 20
310.3806493258574
 30
0.0
 10
335.3087206080588
 20
310.5529126669256
 30
0.0
 10
335.2093769891899
 20
310.6250919343516
 30
0.0
 10
335.0243258614885
 20
310.7945652516328
 30
0.0
 10
334.9390092667998
 20
310.8910488232589
 30
0.0
 10
334.7827202675109
 20
311.1073896207783
 30
0.0
 10
334.7112354885006
 20
311.2286755191006
 30
0.0
 10
334.5887548091458
 20
311.4859763465919
 30
0.0
 10
334.5370637471676
 20
311.6225233252512
 30
0.0
 10
334.4530358072282
 20
311.9116217988541
 30
0.0
 10
334.4210375185652
 20
312.0641861048581
 30
0.0
 10
334.3795195200715
 20
312.3724279298738
 30
0.0
 10
334.3694638797908
 20
312.5296934245893
 30
0.0
 10
334.3705100564518
 20
312.6902205660587
 30
0.0
  0
LINE
  5
239
330
1F
100
AcDbEntity
  8
0
  6
Continuous
 62
     7
370
    15
100
AcDbLine
 10
336.064716629
 20
310.3210619468
 30
0.0
 11
333.1818150499
 21
310.3210619468
 31
0.0
  0
SPLINE
  5
23A
330
1F
100
AcDbEntity
  8
0
  6
Continuous
 62
     7
370
    15
100
AcDbSpline
210
0.0
220
0.0
230
1.0
 70
     8
 71
     3
 72
     8
 73
     4
 74
     0
 42
0.00000001
 43
0.00000001
 12
1.0
 22
0.0
 32
0.0
 13
1.0
 23
0.0
 33
0.0
 40
0.0000002004606685
 40
0.0000002004606685
 40
0.0000002004606685
 40
0.0000002004606685
 40
0.0204557632404544
 40
0.0204557632404544
 40
0.0204557632404544
 40
0.0204557632404544
 10
420.9221771646419
 20
312.6902205660587
 30
0.0
 10
420.8778420801185
 20
319.4930719874196
 30
0.0
 10
420.8323017195973
 20
326.2959968596387
 30
0.0
 10
420.7855967795401
 20
333.0989914944907
 30
0.0
  0
SPLINE
  5
23B
330
1F
100
AcDbEntity
  8
0
  6
Continuous
 62
     7
370
    15
100
AcDbSpline
210
0.0
220
0.0
230
1.0
 70
     8
 71
     3
 72
     8
 73
     4
 74
     0
 42
0.00000001
 43
0.00000001
 12
1.0
 22
0.0
 32
0.0
 13
1.0
 23
0.0
 33
0.0
 40
0.0000005977789991
 40
0.0000005977789991
 40
0.0000005977789991
 40
0.0000005977789991
 40
0.008028989879497
 40
0.008028989879497
 40
0.008028989879497
 40
0.008028989879497
 10
420.7855967795401
 20
333.0989914944907
 30
0.0
 10
418.9694684901078
 20
333.9943489276795
 30
0.0
 10
417.1529361114034
 20
334.887829047252
 30
0.0
 10
415.3358642380761
 20
335.778777682195
 30
0.0
  0
LINE
  5
23C
330
1F
100
AcDbEntity
  8
0
  6
Continuous
 62
     7
370
    15
100
AcDbLine
 10
422.1108721712
 20
310.3210619468
 30
0.0
 11
435.814389787
 21
335.7787794251
 31
0.0
  0
LINE
  5
23D
330
1F
100
AcDbEntity
  8
0
  6
Continuous
 62
     7
370
    15
100
AcDbLine
 10
422.1108721712
 20
310.3210619468
 30
0.0
 11
419.227970592
 21
310.3210619468
 31
0.0
  0
SPLINE
  5
23E
330
1F
100
AcDbEntity
  8
0
  6
Continuous
 62
     7
370
    15
100
AcDbSpline
210
0.0
220
0.0
230
1.0
 70
     8
 71
     3
 72
    20
 73
    16
 74
     0
 42
0.00000001
 43
0.00000001
 12
1.0
 22
0.0
 32
0.0
 13
1.0
 23
0.0
 33
0.0
 40
0.0
 40
0.0
 40
0.0
 40
0.0
 40
0.2499999999999945
 40
0.2499999999999945
 40
0.3749999999999954
 40
0.3749999999999954
 40
0.4999999999999963
 40
0.4999999999999963
 40
0.6249999999999972
 40
0.6249999999999972
 40
0.7499999999999981
 40
0.7499999999999981
 40
0.8749999999999991
 40
0.8749999999999991
 40
1.0
 40
1.0
 40
1.0
 40
1.0
 10
419.2279701891576
 20
310.3210604566661
 30
0.0
 10
419.4521331998141
 20
310.3210604566661
 30
0.0
 10
419.6769013799105
 20
310.3806493258574
 30
0.0
 10
419.983966613035
 20
310.5529126669256
 30
0.0
 10
420.0833102319039
 20
310.6250919343516
 30
0.0
 10
420.2683613596052
 20
310.7945652516328
 30
0.0
 10
420.353677954294
 20
310.8910488232589
 30
0.0
 10
420.5099669535829
 20
311.1073896207784
 30
0.0
 10
420.5814517325932
 20
311.2286755191006
 30
0.0
 10
420.703932411948
 20
311.4859763465919
 30
0.0
 10
420.7556234739262
 20
311.6225233252512
 30
0.0
 10
420.8396514138656
 20
311.9116217988541
 30
0.0
 10
420.8716497025285
 20
312.0641861048582
 30
0.0
 10
420.9131677010222
 20
312.3724279298738
 30
0.0
 10
420.923223341303
 20
312.5296934245893
 30
0.0
 10
420.9221771646419
 20
312.6902205660587
 30
0.0
  0
LINE
  5
23F
330
1F
100
AcDbEntity
  8
0
  6
Continuous
 62
     7
370
    15
100
AcDbLine
 10
425.8723946431
 20
310.3210619468
 30
0.0
 11
441.4627270916
 21
335.7787794251
 31
0.0
  0
LINE
  5
240
330
1F
100
AcDbEntity
  8
0
  6
Continuous
 62
     7
370
    15
100
AcDbLine
 10
425.8723946431
 20
310.3210619468
 30
0.0
 11
422.1108721712
 21
310.3210619468
 31
0.0
  0
LINE
  5
241
330
1F
100
AcDbEntity
  8
0
  6
Continuous
 62
     7
370
    15
100
AcDbLine
 10
450.3329264143
 20
213.3210604827
 30
0.0
 11
450.3329264143
 21
217.3210606727
 31
0.0
  0
LINE
  5
242
330
1F
100
AcDbEntity
  8
0
  6
Continuous
 62
     7
370
    15
100
AcDbLine
 10
456.9253118851
 20
217.3210606727
 30
0.0
 11
450.3329264143
 21
217.3210606727
 31
0.0
  0
LINE
  5
243
330
1F
100
AcDbEntity
  8
0
  6
Continuous
 62
     7
370
    15
100
AcDbLine
 10
427.8736392179
 20
213.3210604827
 30
0.0
 11
450.3329264143
 21
213.3210604827
 31
0.0
  0
LINE
  5
244
330
1F
100
AcDbEntity
  8
0
  6
Continuous
 62
     7
370
    15
100
AcDbLine
 10
304.9597608068
 20
213.3210604827
 30
0.0
 11
304.9597608068
 21
217.3210606727
 31
0.0
  0
LINE
  5
245
330
1F
100
AcDbEntity
  8
0
  6
Continuous
 62
     7
370
    15
100
AcDbLine
 10
304.9597608068
 20
217.3210606727
 30
0.0
 11
298.367375336
 21
217.3210606727
 31
0.0
  0
LINE
  5
246
330
1F
100
AcDbEntity
  8
0
  6
Continuous
 62
     7
370
    15
100
AcDbLine
 10
304.9597608068
 20
213.3210604827
 30
0.0
 11
327.4190480032
 21
213.3210604827
 31
0.0
  0
LINE
  5
247
330
1F
100
AcDbEntity
  8
0
  6
Continuous
 62
     7
370
    15
100
AcDbLine
 10
334.5070907989
 20
333.0989918489
 30
0.0
 11
420.7855964222
 21
333.0989918489
 31
0.0
  0
LINE
  5
248
330
1F
100
AcDbEntity
  8
0
  6
Continuous
 62
     7
370
    15
100
AcDbLine
 10
348.4369104871
 20
340.009591617
 30
0.0
 11
406.855776734
 21
340.009591617
 31
0.0
  0
LINE
  5
249
330
1F
100
AcDbEntity
  8
0
  6
Continuous
 62
     7
370
    15
100
AcDbLine
 10
447.3876224973
 20
224.3210608888
 30
0.0
 11
455.9005217769
 21
224.3210608888
 31
0.0
  0
LINE
  5
24A
330
1F
100
AcDbEntity
  8
0
  6
Continuous
 62
     7
370
    15
100
AcDbLine
 10
299.3921654442
 20
224.3210608888
 30
0.0
 11
307.9050647238
 21
224.3210608888
 31
0.0
  0
LINE
  5
24B
330
1F
100
AcDbEntity
  8
0
  6
Continuous
 62
     7
370
    15
100
AcDbLine
 10
455.4020704844
 20
223.1899780038
 30
0.0
 11
437.9339384058
 21
223.1899780038
 31
0.0
  0
LINE
  5
24C
330
1F
100
AcDbEntity
  8
0
  6
Continuous
 62
     7
370
    15
100
AcDbLine
 10
455.4020704844
 20
224.3187772858
 30
0.0
 11
437.9339384058
 21
224.3187772858
 31
0.0
  0
LINE
  5
24D
330
1F
100
AcDbEntity
  8
0
  6
Continuous
 62
     7
370
    15
100
AcDbLine
 10
317.3587488153
 20
223.1899780038
 30
0.0
 11
299.8764755347
 21
223.1899780038
 31
0.0
  0
LINE
  5
24E
330
1F
100
AcDbEntity
  8
0
  6
Continuous
 62
     7
370
    15
100
AcDbLine
 10
317.3587488153
 20
224.3187772858
 30
0.0
 11
299.8764755347
 21
224.3187772858
 31
0.0
  0
LINE
  5
24F
330
1F
100
AcDbEntity
  8
0
  6
Continuous
 62
     7
370
    15
100
AcDbLine
 10
336.064716629
 20
310.3210619468
 30
0.0
 11
419.227970592
 21
310.3210619468
 31
0.0
  0
LINE
  5
250
330
1F
100
AcDbEntity
  8
0
  6
Continuous
 62
     7
370
    15
100
AcDbLine
 10
431.9167899111
 20
343.2787722725
 30
0.0
 11
428.4020716467
 21
343.2787722725
 31
0.0
  0
LINE
  5
251
330
1F
100
AcDbEntity
  8
0
  6
Continuous
 62
     7
370
    15
100
AcDbLine
 10
452.4020718553
 20
343.2787722725
 30
0.0
 11
431.9167899111
 21
343.2787722725
 31
0.0
  0
LINE
  5
252
330
1F
100
AcDbEntity
  8
0
  6
Continuous
 62
     7
370
    15
100
AcDbLine
 10
326.8764743724
 20
343.2787722725
 30
0.0
 11
302.8764741638
 21
343.2787722725
 31
0.0
  0
LINE
  5
253
330
1F
100
AcDbEntity
  8
0
  6
Continuous
 62
     7
370
    15
100
AcDbLine
 10
432.6453523853
 20
353.2787776369
 30
0.0
 11
432.6453523853
 21
343.2787722725
 31
0.0
  0
LINE
  5
254
330
1F
100
AcDbEntity
  8
0
  6
Continuous
 62
     7
370
    15
100
AcDbLine
 10
443.2412253835
 20
353.2787776369
 30
0.0
 11
443.2412253835
 21
343.2787722725
 31
0.0
  0
LINE
  5
255
330
1F
100
AcDbEntity
  8
0
  6
Continuous
 62
     7
370
    15
100
AcDbLine
 10
432.6453523853
 20
353.2787776369
 30
0.0
 11
443.2412253835
 21
353.2787776369
 31
0.0
  0
LINE
  5
256
330
1F
100
AcDbEntity
  8
0
  6
Continuous
 62
     7
370
    15
100
AcDbLine
 10
450.9979428866
 20
353.2787776369
 30
0.0
 11
450.9979428866
 21
343.2787722725
 31
0.0
  0
LINE
  5
257
330
1F
100
AcDbEntity
  8
0
  6
Continuous
 62
     7
370
    15
100
AcDbLine
 10
443.2412253835
 20
353.2787776369
 30
0.0
 11
450.9979428866
 21
353.2787776369
 31
0.0
  0
LINE
  5
258
330
1F
100
AcDbEntity
  8
0
  6
Continuous
 62
     7
370
    15
100
AcDbLine
 10
312.0373206356
 20
353.2787776369
 30
0.0
 11
312.0373206356
 21
343.2787722725
 31
0.0
  0
LINE
  5
259
330
1F
100
AcDbEntity
  8
0
  6
Continuous
 62
     7
370
    15
100
AcDbLine
 10
312.0373206356
 20
353.2787776369
 30
0.0
 11
322.6331936338
 21
353.2787776369
 31
0.0
  0
LINE
  5
25A
330
1F
100
AcDbEntity
  8
0
  6
Continuous
 62
     7
370
    15
100
AcDbLine
 10
322.6331936338
 20
353.2787776369
 30
0.0
 11
322.6331936338
 21
343.2787722725
 31
0.0
  0
LINE
  5
25B
330
1F
100
AcDbEntity
  8
0
  6
Continuous
 62
     7
370
    15
100
AcDbLine
 10
304.2806031325
 20
353.2787776369
 30
0.0
 11
304.2806031325
 21
343.2787722725
 31
0.0
  0
LINE
  5
25C
330
1F
100
AcDbEntity
  8
0
  6
Continuous
 62
     7
370
    15
100
AcDbLine
 10
304.2806031325
 20
353.2787776369
 30
0.0
 11
312.0373206356
 21
353.2787776369
 31
0.0
  0
LINE
  5
25D
330
1F
100
AcDbEntity
  8
0
  6
Continuous
 62
     7
370
    15
100
AcDbLine
 10
431.0329051831
 20
233.1187772382
 30
0.0
 11
440.4020698884
 21
233.1187772382
 31
0.0
  0
LINE
  5
25E
330
1F
100
AcDbEntity
  8
0
  6
Continuous
 62
     7
370
    15
100
AcDbLine
 10
440.4020698884
 20
233.1187772382
 30
0.0
 11
440.4020698884
 21
229.5508432019
 31
0.0
  0
LINE
  5
25F
330
1F
100
AcDbEntity
  8
0
  6
Continuous
 62
     7
370
    15
100
AcDbLine
 10
431.0329051831
 20
233.1187772382
 30
0.0
 11
431.0329051831
 21
230.2433038879
 31
0.0
  0
LINE
  5
260
330
1F
100
AcDbEntity
  8
0
  6
Continuous
 62
     7
370
    15
100
AcDbLine
 10
440.4020698884
 20
224.3210608888
 30
0.0
 11
440.4020698884
 21
224.3187772858
 31
0.0
  0
LINE
  5
261
330
1F
100
AcDbEntity
  8
0
  6
Continuous
 62
     7
370
    15
100
AcDbLine
 10
440.4020698884
 20
233.1187772382
 30
0.0
 11
449.7712345937
 21
233.1187772382
 31
0.0
  0
LINE
  5
262
330
1F
100
AcDbEntity
  8
0
  6
Continuous
 62
     7
370
    15
100
AcDbLine
 10
449.7712345937
 20
233.1187772382
 30
0.0
 11
449.7712345937
 21
229.5509158451
 31
0.0
  0
LINE
  5
263
330
1F
100
AcDbEntity
  8
0
  6
Continuous
 62
     7
370
    15
100
AcDbLine
 10
449.7712345937
 20
224.3210608888
 30
0.0
 11
449.7712345937
 21
224.3187772858
 31
0.0
  0
LINE
  5
264
330
1F
100
AcDbEntity
  8
0
  6
Continuous
 62
     7
370
    15
100
AcDbLine
 10
305.5073114255
 20
224.3210608888
 30
0.0
 11
305.5073114255
 21
224.3187772858
 31
0.0
  0
LINE
  5
265
330
1F
100
AcDbEntity
  8
0
  6
Continuous
 62
     7
370
    15
100
AcDbLine
 10
314.8764761307
 20
224.3210608888
 30
0.0
 11
314.8764761307
 21
224.3187772858
 31
0.0
  0
LINE
  5
266
330
1F
100
AcDbEntity
  8
0
  6
Continuous
 62
     7
370
    15
100
AcDbLine
 10
314.8764761307
 20
233.1187772382
 30
0.0
 11
324.245640836
 21
233.1187772382
 31
0.0
  0
LINE
  5
267
330
1F
100
AcDbEntity
  8
0
  6
Continuous
 62
     7
370
    15
100
AcDbLine
 10
324.245640836
 20
233.1187772382
 30
0.0
 11
324.245640836
 21
230.2433877069
 31
0.0
  0
LINE
  5
268
330
1F
100
AcDbEntity
  8
0
  6
Continuous
 62
     7
370
    15
100
AcDbLine
 10
314.8764761307
 20
233.1187772382
 30
0.0
 11
314.8764761307
 21
229.5509158451
 31
0.0
  0
LINE
  5
269
330
1F
100
AcDbEntity
  8
0
  6
Continuous
 62
     7
370
    15
100
AcDbLine
 10
305.5073114255
 20
233.1187772382
 30
0.0
 11
314.8764761307
 21
233.1187772382
 31
0.0
  0
LINE
  5
26A
330
1F
100
AcDbEntity
  8
0
  6
Continuous
 62
     7
370
    15
100
AcDbLine
 10
305.5073114255
 20
233.1187772382
 30
0.0
 11
305.5073114255
 21
229.5508432019
 31
0.0
  0
LINE
  5
26B
330
1F
100
AcDbEntity
  8
0
  6
Continuous
 62
     7
370
    15
100
AcDbLine
 10
346.2220484534
 20
210.3210604567
 30
0.0
 11
358.4253674516
 21
210.3210604567
 31
0.0
  0
SPLINE
  5
26C
330
1F
100
AcDbEntity
  8
0
  6
Continuous
 62
     7
370
    15
100
AcDbSpline
210
0.0
220
0.0
230
1.0
 70
     8
 71
     3
 72
    10
 73
     6
 74
     0
 42
0.00000001
 43
0.00000001
 12
1.0
 22
0.0
 32
0.0
 13
1.0
 23
0.0
 33
0.0
 40
0.0
 40
0.0
 40
0.0
 40
0.0
 40
0.5
 40
0.5
 40
1.0
 40
1.0
 40
1.0
 40
1.0
 10
343.4521569961426
 20
213.321060456666
 30
0.0
 10
343.8384818143901
 20
212.7952484565417
 30
0.0
 10
344.2599273889841
 20
212.2811009157702
 30
0.0
 10
345.1793527536894
 20
211.279309670156
 30
0.0
 10
345.6770763125799
 20
210.7915565062712
 30
0.0
 10
346.2220502809271
 20
210.321060456666
 30
0.0
  0
SPLINE
  5
26D
330
1F
100
AcDbEntity
  8
0
  6
Continuous
 62
     7
370
    15
100
AcDbSpline
210
0.0
220
0.0
230
1.0
 70
     8
 71
     3
 72
    10
 73
     6
 74
     0
 42
0.00000001
 43
0.00000001
 12
1.0
 22
0.0
 32
0.0
 13
1.0
 23
0.0
 33
0.0
 40
0.0
 40
0.0
 40
0.0
 40
0.0
 40
0.5
 40
0.5
 40
1.0
 40
1.0
 40
1.0
 40
1.0
 10
358.4253678979862
 20
210.321060456666
 30
0.0
 10
358.6398476995685
 20
210.7915565062713
 30
0.0
 10
358.7914662699276
 20
211.279309670156
 30
0.0
 10
358.9919120069512
 20
212.2811009157702
 30
0.0
 10
359.0404160189868
 20
212.7952484565417
 30
0.0
 10
359.0408974930443
 20
213.321060456666
 30
0.0
  0
LINE
  5
26E
330
1F
100
AcDbEntity
  8
0
  6
Continuous
 62
     7
370
    15
100
AcDbLine
 10
396.8673197695
 20
210.3210604567
 30
0.0
 11
409.0706387677
 21
210.3210604567
 31
0.0
  0
SPLINE
  5
26F
330
1F
100
AcDbEntity
  8
0
  6
Continuous
 62
     7
370
    15
100
AcDbSpline
210
0.0
220
0.0
230
1.0
 70
     8
 71
     3
 72
    10
 73
     6
 74
     0
 42
0.00000001
 43
0.00000001
 12
1.0
 22
0.0
 32
0.0
 13
1.0
 23
0.0
 33
0.0
 40
0.0
 40
0.0
 40
0.0
 40
0.0
 40
0.5
 40
0.5
 40
1.0
 40
1.0
 40
1.0
 40
1.0
 10
396.2517897280491
 20
213.321060456666
 30
0.0
 10
396.2522712021066
 20
212.7952484565417
 30
0.0
 10
396.3007752141422
 20
212.2811009157702
 30
0.0
 10
396.5012209511657
 20
211.279309670156
 30
0.0
 10
396.6528395215249
 20
210.7915565062713
 30
0.0
 10
396.8673193231071
 20
210.321060456666
 30
0.0
  0
SPLINE
  5
270
330
1F
100
AcDbEntity
  8
0
  6
Continuous
 62
     7
370
    15
100
AcDbSpline
210
0.0
220
0.0
230
1.0
 70
     8
 71
     3
 72
    10
 73
     6
 74
     0
 42
0.00000001
 43
0.00000001
 12
1.0
 22
0.0
 32
0.0
 13
1.0
 23
0.0
 33
0.0
 40
0.0
 40
0.0
 40
0.0
 40
0.0
 40
0.5
 40
0.5
 40
1.0
 40
1.0
 40
1.0
 40
1.0
 10
409.0706369401663
 20
210.321060456666
 30
0.0
 10
409.6156109085134
 20
210.7915565062713
 30
0.0
 10
410.1133344674039
 20
211.279309670156
 30
0.0
 10
411.0327598321093
 20
212.2811009157702
 30
0.0
 10
411.4542054067032
 20
212.7952484565417
 30
0.0
 10
411.8405302249507
 20
213.321060456666
 30
0.0
  0
LINE
  5
271
330
1F
100
AcDbEntity
  8
0
  6
Continuous
 62
     7
370
    15
100
AcDbLine
 10
434.7452165702
 20
357.8187740225
 30
0.0
 11
432.4020723024
 21
357.8187740225
 31
0.0
  0
LINE
  5
272
330
1F
100
AcDbEntity
  8
0
  6
Continuous
 62
     7
370
    15
100
AcDbLine
 10
448.4020711997
 20
357.8187740225
 30
0.0
 11
434.7452165702
 21
357.8187740225
 31
0.0
  0
LINE
  5
273
330
1F
100
AcDbEntity
  8
0
  6
Continuous
 62
     7
370
    15
100
AcDbLine
 10
434.7452165702
 20
357.3187804598
 30
0.0
 11
432.4020723024
 21
357.3187804598
 31
0.0
  0
LINE
  5
274
330
1F
100
AcDbEntity
  8
0
  6
Continuous
 62
     7
370
    15
100
AcDbLine
 10
448.4020711997
 20
357.3187804598
 30
0.0
 11
434.7452165702
 21
357.3187804598
 31
0.0
  0
LINE
  5
275
330
1F
100
AcDbEntity
  8
0
  6
Continuous
 62
     7
370
    15
100
AcDbLine
 10
322.8764737168
 20
357.8187740225
 30
0.0
 11
306.8764748194
 21
357.8187740225
 31
0.0
  0
LINE
  5
276
330
1F
100
AcDbEntity
  8
0
  6
Continuous
 62
     7
370
    15
100
AcDbLine
 10
322.8764737168
 20
357.3187804598
 30
0.0
 11
306.8764748194
 21
357.3187804598
 31
0.0
  0
LINE
  5
277
330
1F
100
AcDbEntity
  8
0
  6
Continuous
 62
     7
370
    15
100
AcDbLine
 10
429.8061968901
 20
353.2787776369
 30
0.0
 11
429.8061968901
 21
343.2787722725
 31
0.0
  0
LINE
  5
278
330
1F
100
AcDbEntity
  8
0
  6
Continuous
 62
     7
370
    15
100
AcDbLine
 10
429.8061968901
 20
353.2787776369
 30
0.0
 11
432.6453523853
 21
353.2787776369
 31
0.0
  0
LINE
  5
279
330
1F
100
AcDbEntity
  8
0
  6
Continuous
 62
     7
370
    15
100
AcDbLine
 10
325.472349129
 20
353.2787776369
 30
0.0
 11
325.472349129
 21
343.2787722725
 31
0.0
  0
LINE
  5
27A
330
1F
100
AcDbEntity
  8
0
  6
Continuous
 62
     7
370
    15
100
AcDbLine
 10
322.6331936338
 20
353.2787776369
 30
0.0
 11
325.472349129
 21
353.2787776369
 31
0.0
  0
LINE
  5
27B
330
1F
100
AcDbEntity
  8
0
  6
Continuous
 62
     7
370
    15
100
AcDbLine
 10
468.8137265065
 20
217.3210606727
 30
0.0
 11
460.6925713041
 21
217.3210606727
 31
0.0
  0
LINE
  5
27C
330
1F
100
AcDbEntity
  8
0
  6
Continuous
 62
     7
370
    15
100
AcDbLine
 10
455.9005217769
 20
224.3210608888
 30
0.0
 11
460.6925713041
 21
224.3210608888
 31
0.0
  0
LINE
  5
27D
330
1F
100
AcDbEntity
  8
0
  6
Continuous
 62
     7
370
    15
100
AcDbLine
 10
294.600115917
 20
217.3210606727
 30
0.0
 11
286.4789607146
 21
217.3210606727
 31
0.0
  0
LINE
  5
27E
330
1F
100
AcDbEntity
  8
0
  6
Continuous
 62
     7
370
    15
100
AcDbLine
 10
294.600115917
 20
224.3210608888
 30
0.0
 11
299.3921654442
 21
224.3210608888
 31
0.0
  0
LINE
  5
27F
330
1F
100
AcDbEntity
  8
0
  6
Continuous
 62
     7
370
    15
100
AcDbLine
 10
396.8673197695
 20
210.3210604567
 30
0.0
 11
358.4253674516
 21
210.3210604567
 31
0.0
  0
LINE
  5
280
330
1F
100
AcDbEntity
  8
0
  6
Continuous
 62
     7
370
    15
100
AcDbLine
 10
435.8058774986
 20
369.3187749762
 30
0.0
 11
433.9020716169
 21
369.3187749762
 31
0.0
  0
LINE
  5
281
330
1F
100
AcDbEntity
  8
0
  6
Continuous
 62
     7
370
    15
100
AcDbLine
 10
446.9020681598
 20
369.3187749762
 30
0.0
 11
435.8058774986
 21
369.3187749762
 31
0.0
  0
LINE
  5
282
330
1F
100
AcDbEntity
  8
0
  6
Continuous
 62
     7
370
    15
100
AcDbLine
 10
321.3764744022
 20
369.3187749762
 30
0.0
 11
308.3764778593
 21
369.3187749762
 31
0.0
  0
SPLINE
  5
283
330
1F
100
AcDbEntity
  8
0
  6
Continuous
 62
     7
370
    15
100
AcDbSpline
210
0.0
220
0.0
230
1.0
 70
     8
 71
     3
 72
    14
 73
    10
 74
     0
 42
0.00000001
 43
0.00000001
 12
1.0
 22
0.0
 32
0.0
 13
1.0
 23
0.0
 33
0.0
 40
0.0
 40
0.0
 40
0.0
 40
0.0
 40
0.1249999999999997
 40
0.1249999999999997
 40
0.2499999999999994
 40
0.2499999999999994
 40
0.4999999999999994
 40
0.4999999999999994
 40
1.0
 40
1.0
 40
1.0
 40
1.0
 10
375.9693094354255
 20
231.1891399310619
 30
0.0
 10
375.7801586895314
 20
231.8918559256381
 30
0.0
 10
375.62230021466
 20
232.5994683533229
 30
0.0
 10
375.3354917153141
 20
234.0192219695909
 30
0.0
 10
375.2075694582267
 20
234.7315238168423
 30
0.0
 10
374.8522803648184
 20
236.8728957933771
 30
0.0
 10
374.6529101507716
 20
238.306357163682
 30
0.0
 10
374.1134119060129
 20
242.6159633735826
 30
0.0
 10
373.8319598764469
 20
245.5015491999573
 30
0.0
 10
373.587297272414
 20
248.3891399310619
 30
0.0
  0
LINE
  5
284
330
1F
100
AcDbEntity
  8
0
  6
Continuous
 62
     7
370
    15
100
AcDbLine
 10
425.0795224824
 20
248.389138915
 30
0.0
 11
434.4020689049
 21
248.389138915
 31
0.0
  0
LINE
  5
285
330
1F
100
AcDbEntity
  8
0
  6
Continuous
 62
     7
370
    15
100
AcDbLine
 10
425.0795224824
 20
248.389138915
 30
0.0
 11
425.0639395931
 21
246.8508063633
 31
0.0
  0
ELLIPSE
  5
286
330
1F
100
AcDbEntity
  8
0
  6
Continuous
 62
     7
370
    15
100
AcDbEllipse
 10
380.6618549566
 20
309.2871036092
 30
0.0
 11
-53.93971002020021
 21
56.77069568147709
 31
0.0
210
0.0
220
0.0
230
1.0
 40
0.4130611018
 41
2.725026657005441
 42
2.810174445830197
  0
LINE
  5
287
330
1F
100
AcDbEntity
  8
0
  6
Continuous
 62
     7
370
    15
100
AcDbLine
 10
421.1562441805
 20
235.1052584875
 30
0.0
 11
420.5005446592
 21
248.3560732383
 31
0.0
  0
SPLINE
  5
288
330
1F
100
AcDbEntity
  8
0
  6
Continuous
 62
     7
370
    15
100
AcDbSpline
210
0.0
220
0.0
230
1.0
 70
     8
 71
     3
 72
    12
 73
     8
 74
     0
 42
0.00000001
 43
0.00000001
 12
1.0
 22
0.0
 32
0.0
 13
1.0
 23
0.0
 33
0.0
 40
0.0
 40
0.0
 40
0.0
 40
0.0
 40
0.2500000000000004
 40
0.2500000000000004
 40
0.5000000000000009
 40
0.5000000000000009
 40
1.0
 40
1.0
 40
1.0
 40
1.0
 10
421.1562456454867
 20
235.1052591890292
 30
0.0
 10
420.9642633666677
 20
236.2035112384389
 30
0.0
 10
420.7892062365889
 20
237.3055381645596
 30
0.0
 10
420.4588225613401
 20
239.5139819629851
 30
0.0
 10
420.3037833577741
 20
240.6204631361271
 30
0.0
 10
419.8595915845194
 20
243.9445512588441
 30
0.0
 10
419.5910767306012
 20
246.1661071213313
 30
0.0
 10
419.339163984004
 20
248.3891399310619
 30
0.0
  0
LINE
  5
289
330
1F
100
AcDbEntity
  8
0
  6
Continuous
 62
     7
370
    15
100
AcDbLine
 10
381.7053901174
 20
248.389138915
 30
0.0
 11
419.3391630569
 21
248.389138915
 31
0.0
  0
SPLINE
  5
28A
330
1F
100
AcDbEntity
  8
0
  6
Continuous
 62
     7
370
    15
100
AcDbSpline
210
0.0
220
0.0
230
1.0
 70
     8
 71
     3
 72
    14
 73
    10
 74
     0
 42
0.00000001
 43
0.00000001
 12
1.0
 22
0.0
 32
0.0
 13
1.0
 23
0.0
 33
0.0
 40
0.0
 40
0.0
 40
0.0
 40
0.0
 40
0.5000000000000002
 40
0.5000000000000002
 40
0.75
 40
0.75
 40
0.875
 40
0.875
 40
1.0
 40
1.0
 40
1.0
 40
1.0
 10
381.705389948675
 20
248.3891399310619
 30
0.0
 10
381.46077630113
 20
245.5021270009769
 30
0.0
 10
381.1796431134296
 20
242.6192924663887
 30
0.0
 10
380.6400560259673
 20
238.3083902339653
 30
0.0
 10
380.4404217859685
 20
236.8727818445676
 30
0.0
 10
380.0846651118828
 20
234.7288977900843
 30
0.0
 10
379.9566191259995
 20
234.0161472286652
 30
0.0
 10
379.6697908057505
 20
232.5967395179703
 30
0.0
 10
379.5119984024512
 20
231.8898864372457
 30
0.0
 10
379.3233777856569
 20
231.1891399310619
 30
0.0
  0
LINE
  5
28B
330
1F
100
AcDbEntity
  8
0
  6
Continuous
 62
     7
370
    15
100
AcDbLine
 10
335.9535241642
 20
248.389138915
 30
0.0
 11
373.5872971037
 21
248.389138915
 31
0.0
  0
SPLINE
  5
28C
330
1F
100
AcDbEntity
  8
0
  6
Continuous
 62
     7
370
    15
100
AcDbSpline
210
0.0
220
0.0
230
1.0
 70
     8
 71
     3
 72
    12
 73
     8
 74
     0
 42
0.00000001
 43
0.00000001
 12
1.0
 22
0.0
 32
0.0
 13
1.0
 23
0.0
 33
0.0
 40
0.0
 40
0.0
 40
0.0
 40
0.0
 40
0.5
 40
0.5
 40
0.75
 40
0.75
 40
1.0
 40
1.0
 40
1.0
 40
1.0
 10
335.9535232370862
 20
248.3891399310619
 30
0.0
 10
335.7017020713953
 20
246.1669152875041
 30
0.0
 10
335.4334312011121
 20
243.9473013432668
 30
0.0
 10
334.9894593700475
 20
240.6245010846233
 30
0.0
 10
334.8344466077233
 20
239.5180195828069
 30
0.0
 10
334.5039202895433
 20
237.3083275477185
 30
0.0
 10
334.3285834053579
 20
236.2044239640583
 30
0.0
 10
334.1364415756084
 20
235.1052591890701
 30
0.0
  0
LINE
  5
28D
330
1F
100
AcDbEntity
  8
0
  6
Continuous
 62
     7
370
    15
100
AcDbLine
 10
334.1364430406
 20
235.1052584875
 30
0.0
 11
334.7921425619
 21
248.3560732383
 31
0.0
  0
ELLIPSE
  5
28E
330
1F
100
AcDbEntity
  8
0
  6
Continuous
 62
     7
370
    15
100
AcDbEllipse
 10
374.6308322645
 20
309.2871036092
 30
0.0
 11
53.93971002020033
 21
56.7706956814771
 31
0.0
210
0.0
220
0.0
230
1.0
 40
0.4130611018
 41
3.473010861349419
 42
3.558158650174173
  0
LINE
  5
28F
330
1F
100
AcDbEntity
  8
0
  6
Continuous
 62
     7
370
    15
100
AcDbLine
 10
330.2278833606
 20
246.8495434898
 30
0.0
 11
330.2131647387
 21
248.389138915
 31
0.0
  0
LINE
  5
290
330
1F
100
AcDbEntity
  8
0
  6
Continuous
 62
     7
370
    15
100
AcDbLine
 10
320.8764733889
 20
248.389138915
 30
0.0
 11
330.2131647387
 21
248.389138915
 31
0.0
  0
LWPOLYLINE
  5
291
330
1F
100
AcDbEntity
  8
0
  6
Continuous
 62
     7
370
    15
100
AcDbPolyline
 90
        3
 70
   128
 43
0.0
 10
432.026354424
 20
290.3210586685
 10
432.5036162653
 20
284.1528273005
 10
433.0401623764
 20
277.2067776698
  0
ELLIPSE
  5
292
330
1F
100
AcDbEntity
  8
0
  6
Continuous
 62
     7
370
    15
100
AcDbEllipse
 10
377.6463436105
 20
265.9561447246
 30
0.0
 11
61.89867307991591
 21
0.0
 31
0.0
210
0.0
220
0.0
230
1.0
 40
0.4073079628
 41
0.410519891488942
 42
0.4625641066809029
  0
ELLIPSE
  5
293
330
1F
100
AcDbEntity
  8
0
  6
Continuous
 62
     7
370
    15
100
AcDbEllipse
 10
377.6463436105
 20
277.2595668495
 30
0.0
 11
61.10858120689238
 21
0.0
 31
0.0
210
0.0
220
0.0
230
1.0
 40
0.4073079628
 41
5.877438170356704
 42
5.903465490806809
  0
LWPOLYLINE
  5
294
330
1F
100
AcDbEntity
  8
0
  6
Continuous
 62
     7
370
    15
100
AcDbPolyline
 90
        3
 70
   128
 43
0.0
 10
433.7933825472
 20
267.4353449422
 10
434.2667477348
 20
261.2826480347
 10
434.4020689049
 20
259.5210290331
  0
LINE
  5
295
330
1F
100
AcDbEntity
  8
0
  6
Continuous
 62
     7
370
    15
100
AcDbLine
 10
308.876471422
 20
323.931432404
 30
0.0
 11
302.4992214658
 21
335.7787794251
 31
0.0
  0
LINE
  5
296
330
1F
100
AcDbEntity
  8
0
  6
Continuous
 62
     7
370
    15
100
AcDbLine
 10
452.7934657552
 20
335.7787794251
 30
0.0
 11
446.4020671466
 21
323.9051616568
 31
0.0
  0
LINE
  5
297
330
1F
100
AcDbEntity
  8
0
  6
Continuous
 62
     7
370
    15
100
AcDbLine
 10
308.876471422
 20
316.1419919509
 30
0.0
 11
296.8508841613
 21
335.7787794251
 31
0.0
  0
LINE
  5
298
330
1F
100
AcDbEntity
  8
0
  6
Continuous
 62
     7
370
    15
100
AcDbLine
 10
458.4418030598
 20
335.7787794251
 30
0.0
 11
446.4020671466
 21
316.1188951511
 31
0.0
  0
LINE
  5
299
330
1F
100
AcDbEntity
  8
0
  6
Continuous
 62
     7
370
    15
100
AcDbLine
 10
320.8764733889
 20
310.3210619468
 30
0.0
 11
329.420292578
 21
310.3210619468
 31
0.0
  0
LINE
  5
29A
330
1F
100
AcDbEntity
  8
0
  6
Continuous
 62
     7
370
    15
100
AcDbLine
 10
425.8723946431
 20
310.3210619468
 30
0.0
 11
434.4020689049
 21
310.3210619468
 31
0.0
  0
SPLINE
  5
29B
330
1F
100
AcDbEntity
  8
0
  6
Continuous
 62
     7
370
    15
100
AcDbSpline
210
0.0
220
0.0
230
1.0
 70
     8
 71
     3
 72
    10
 73
     6
 74
     0
 42
0.00000001
 43
0.00000001
 12
1.0
 22
0.0
 32
0.0
 13
1.0
 23
0.0
 33
0.0
 40
0.0
 40
0.0
 40
0.0
 40
0.0
 40
0.5
 40
0.5
 40
1.0
 40
1.0
 40
1.0
 40
1.0
 10
319.0394857461803
 20
210.321060456666
 30
0.0
 10
318.7978320220859
 20
210.7915565062713
 30
0.0
 10
318.5145295017049
 20
211.279309670156
 30
0.0
 10
317.8785772168181
 20
212.2811009157702
 30
0.0
 10
317.5257266738744
 20
212.7952484565417
 30
0.0
 10
317.1400827627689
 20
213.321060456666
 30
0.0
  0
LINE
  5
29C
330
1F
100
AcDbEntity
  8
0
  6
Continuous
 62
     7
370
    15
100
AcDbLine
 10
346.2220484534
 20
210.3210604567
 30
0.0
 11
319.039484314
 21
210.3210604567
 31
0.0
  0
SPLINE
  5
29D
330
1F
100
AcDbEntity
  8
0
  6
Continuous
 62
     7
370
    15
100
AcDbSpline
210
0.0
220
0.0
230
1.0
 70
     8
 71
     3
 72
    10
 73
     6
 74
     0
 42
0.00000001
 43
0.00000001
 12
1.0
 22
0.0
 32
0.0
 13
1.0
 23
0.0
 33
0.0
 40
0.0
 40
0.0
 40
0.0
 40
0.0
 40
0.5
 40
0.5
 40
1.0
 40
1.0
 40
1.0
 40
1.0
 10
438.152604458324
 20
213.321060456666
 30
0.0
 10
437.7669605472184
 20
212.7952484565417
 30
0.0
 10
437.4141100042748
 20
212.2811009157702
 30
0.0
 10
436.7781577193879
 20
211.279309670156
 30
0.0
 10
436.494855199007
 20
210.7915565062712
 30
0.0
 10
436.2532014749126
 20
210.321060456666
 30
0.0
  0
LINE
  5
29E
330
1F
100
AcDbEntity
  8
0
  6
Continuous
 62
     7
370
    15
100
AcDbLine
 10
436.2532029071
 20
210.3210604567
 30
0.0
 11
409.0706387677
 21
210.3210604567
 31
0.0
  0
LINE
  5
29F
330
1F
100
AcDbEntity
  8
0
  6
Continuous
 62
     7
370
    15
100
AcDbLine
 10
298.367375336
 20
217.3210606727
 30
0.0
 11
294.600115917
 21
217.3210606727
 31
0.0
  0
LINE
  5
2A0
330
1F
100
AcDbEntity
  8
0
  6
Continuous
 62
     7
370
    15
100
AcDbLine
 10
460.6925713041
 20
217.3210606727
 30
0.0
 11
456.9253118851
 21
217.3210606727
 31
0.0
  0
LINE
  5
2A1
330
1F
100
AcDbEntity
  8
0
  6
Continuous
 62
     7
370
    15
100
AcDbLine
 10
336.987702004
 20
343.7787807364
 30
0.0
 11
429.8061968901
 21
343.7787807364
 31
0.0
  0
LINE
  5
2A2
330
1F
100
AcDbEntity
  8
0
  6
Continuous
 62
     7
370
    15
100
AcDbLine
 10
325.472349129
 20
343.7787807364
 30
0.0
 11
336.987702004
 21
343.7787807364
 31
0.0
  0
LINE
  5
2A3
330
1F
100
AcDbEntity
  8
0
  6
Continuous
 62
     7
370
    15
100
AcDbLine
 10
431.0329051831
 20
232.9318384457
 30
0.0
 11
420.5005446592
 21
248.3560732383
 31
0.0
  0
LINE
  5
2A4
330
1F
100
AcDbEntity
  8
0
  6
Continuous
 62
     7
370
    15
100
AcDbLine
 10
421.1562441805
 20
235.1052584875
 30
0.0
 11
421.1562441805
 21
231.2034918744
 31
0.0
  0
LINE
  5
2A5
330
1F
100
AcDbEntity
  8
0
  6
Continuous
 62
     7
370
    15
100
AcDbLine
 10
434.4020689049
 20
233.1754780192
 30
0.0
 11
424.0360761204
 21
248.3560732383
 31
0.0
  0
LINE
  5
2A6
330
1F
100
AcDbEntity
  8
0
  6
Continuous
 62
     7
370
    15
100
AcDbLine
 10
324.245640836
 20
232.9111276943
 30
0.0
 11
334.7921425619
 21
248.3560732383
 31
0.0
  0
LINE
  5
2A7
330
1F
100
AcDbEntity
  8
0
  6
Continuous
 62
     7
370
    15
100
AcDbLine
 10
334.1364430406
 20
235.1052584875
 30
0.0
 11
334.1364430406
 21
231.2034918744
 31
0.0
  0
LINE
  5
2A8
330
1F
100
AcDbEntity
  8
0
  6
Continuous
 62
     7
370
    15
100
AcDbLine
 10
320.8764733889
 20
233.1547691304
 30
0.0
 11
331.2566111007
 21
248.3560732383
 31
0.0
  0
LINE
  5
2A9
330
1F
100
AcDbEntity
  8
0
  6
Continuous
 62
     7
370
    15
100
AcDbLine
 10
304.9597608068
 20
213.3210604827
 30
0.0
 11
287.1390970566
 21
213.3210604827
 31
0.0
  0
LINE
  5
2AA
330
1F
100
AcDbEntity
  8
0
  6
Continuous
 62
     7
370
    15
100
AcDbLine
 10
450.3329264143
 20
213.3210604827
 30
0.0
 11
468.1535901644
 21
213.3210604827
 31
0.0
  0
LINE
  5
2AB
330
1F
100
AcDbEntity
  8
0
  6
Continuous
 62
     7
370
    15
100
AcDbLine
 10
330.2031362572
 20
248.389138915
 30
0.0
 11
330.2031362572
 21
246.8133038658
 31
0.0
  0
LINE
  5
2AC
330
1F
100
AcDbEntity
  8
0
  6
Continuous
 62
     7
370
    15
100
AcDbLine
 10
425.0895509639
 20
248.389138915
 30
0.0
 11
425.0895509639
 21
246.8133038658
 31
0.0
  0
LINE
  5
2AD
330
1F
100
AcDbEntity
  8
0
  6
Continuous
 62
     7
370
    15
100
AcDbLine
 10
302.7257787206
 20
310.3210619468
 30
0.0
 11
308.876471422
 21
310.3210619468
 31
0.0
  0
LINE
  5
2AE
330
1F
100
AcDbEntity
  8
0
  6
Continuous
 62
     7
370
    15
100
AcDbLine
 10
446.4020671466
 20
310.3210619468
 30
0.0
 11
452.5669085005
 21
310.3210619468
 31
0.0
  0
LINE
  5
2AF
330
1F
100
AcDbEntity
  8
0
  6
Continuous
 62
     7
370
    15
100
AcDbLine
 10
283.5778163889
 20
217.3210606727
 30
0.0
 11
277.6463421204
 21
217.3210606727
 31
0.0
  0
LINE
  5
2B0
330
1F
100
AcDbEntity
  8
0
  6
Continuous
 62
     7
370
    15
100
AcDbLine
 10
287.1390970566
 20
213.3210604827
 30
0.0
 11
283.5778163889
 21
213.3210604827
 31
0.0
  0
LINE
  5
2B1
330
1F
100
AcDbEntity
  8
0
  6
Continuous
 62
     7
370
    15
100
AcDbLine
 10
477.6463451007
 20
217.3210606727
 30
0.0
 11
471.7148708322
 21
217.3210606727
 31
0.0
  0
LINE
  5
2B2
330
1F
100
AcDbEntity
  8
0
  6
Continuous
 62
     7
370
    15
100
AcDbLine
 10
471.7148708322
 20
213.3210604827
 30
0.0
 11
468.1535901644
 21
213.3210604827
 31
0.0
  0
SPLINE
  5
2B3
330
1F
100
AcDbEntity
  8
0
  6
Continuous
 62
     7
370
    15
100
AcDbSpline
210
0.0
220
0.0
230
1.0
 70
     8
 71
     3
 72
    10
 73
     6
 74
     0
 42
0.00000001
 43
0.00000001
 12
1.0
 22
0.0
 32
0.0
 13
1.0
 23
0.0
 33
0.0
 40
0.0
 40
0.0
 40
0.0
 40
0.0
 40
0.5000000000000001
 40
0.5000000000000001
 40
1.0
 40
1.0
 40
1.0
 40
1.0
 10
441.3079811378452
 20
210.321060456666
 30
0.0
 10
441.8642109134398
 20
210.7915565062713
 30
0.0
 10
442.4164797503761
 20
211.279309670156
 30
0.0
 10
443.5162978337088
 20
212.2811009157702
 30
0.0
 10
444.063807869066
 20
212.7952484565417
 30
0.0
 10
444.6096721924555
 20
213.321060456666
 30
0.0
  0
LINE
  5
2B4
330
1F
100
AcDbEntity
  8
0
  6
Continuous
 62
     7
370
    15
100
AcDbLine
 10
436.2532029071
 20
210.3210604567
 30
0.0
 11
441.3079785326
 21
210.3210604567
 31
0.0
  0
SPLINE
  5
2B5
330
1F
100
AcDbEntity
  8
0
  6
Continuous
 62
     7
370
    15
100
AcDbSpline
210
0.0
220
0.0
230
1.0
 70
     8
 71
     3
 72
    10
 73
     6
 74
     0
 42
0.00000001
 43
0.00000001
 12
1.0
 22
0.0
 32
0.0
 13
1.0
 23
0.0
 33
0.0
 40
0.0
 40
0.0
 40
0.0
 40
0.0
 40
0.5
 40
0.5
 40
1.0
 40
1.0
 40
1.0
 40
1.0
 10
310.6830150286376
 20
213.321060456666
 30
0.0
 10
311.228879352027
 20
212.7952484565417
 30
0.0
 10
311.7763893873843
 20
212.2811009157702
 30
0.0
 10
312.876207470717
 20
211.279309670156
 30
0.0
 10
313.4284763076533
 20
210.7915565062712
 30
0.0
 10
313.9847060832479
 20
210.321060456666
 30
0.0
  0
LINE
  5
2B6
330
1F
100
AcDbEntity
  8
0
  6
Continuous
 62
     7
370
    15
100
AcDbLine
 10
313.9847086885
 20
210.3210604567
 30
0.0
 11
319.039484314
 21
210.3210604567
 31
0.0
  0
LINE
  5
2B7
330
1F
100
AcDbEntity
  8
0
  6
Continuous
 62
     7
370
    15
100
AcDbLine
 10
282.7829959014
 20
213.3210604827
 30
0.0
 11
283.5778163889
 21
213.3210604827
 31
0.0
  0
LINE
  5
2B8
330
1F
100
AcDbEntity
  8
0
  6
Continuous
 62
     7
370
    15
100
AcDbLine
 10
471.7148708322
 20
213.3210604827
 30
0.0
 11
472.5096913197
 21
213.3210604827
 31
0.0
  0
LWPOLYLINE
  5
2B9
330
1F
100
AcDbEntity
  8
0
  6
Continuous
 62
     7
370
    15
100
AcDbPolyline
 90
        3
 70
   128
 43
0.0
 10
434.4020689049
 20
281.0243285078
 10
434.2038760104
 20
283.603726961
 10
433.6869361022
 20
290.3210586685
  0
LINE
  5
2BA
330
1F
100
AcDbEntity
  8
0
  6
Continuous
 62
     7
370
    15
100
AcDbLine
 10
433.6869361022
 20
290.3210586685
 30
0.0
 11
434.4020689049
 21
290.3210586685
 31
0.0
  0
LINE
  5
2BB
330
1F
100
AcDbEntity
  8
0
  6
Continuous
 62
     7
370
    15
100
AcDbLine
 10
434.4020689049
 20
277.2067776698
 30
0.0
 11
433.0401623764
 21
277.2067776698
 31
0.0
  0
LINE
  5
2BC
330
1F
100
AcDbEntity
  8
0
  6
Continuous
 62
     7
370
    15
100
AcDbLine
 10
433.6869361022
 20
290.3210586685
 30
0.0
 11
432.026354424
 21
290.3210586685
 31
0.0
  0
LINE
  5
2BD
330
1F
100
AcDbEntity
  8
0
  6
Continuous
 62
     7
370
    15
100
AcDbLine
 10
434.4020689049
 20
267.4353449422
 30
0.0
 11
433.7933825472
 21
267.4353449422
 31
0.0
  0
LINE
  5
2BE
330
1F
100
AcDbEntity
  8
0
  6
Continuous
 62
     7
370
    15
100
AcDbLine
 10
444.1463442662
 20
210.3210604567
 30
0.0
 11
441.3079785326
 21
210.3210604567
 31
0.0
  0
LINE
  5
2BF
330
1F
100
AcDbEntity
  8
0
  6
Continuous
 62
     7
370
    15
100
AcDbLine
 10
313.9847086885
 20
210.3210604567
 30
0.0
 11
311.1463429549
 21
210.3210604567
 31
0.0
  0
LINE
  5
2C0
330
1F
100
AcDbEntity
  8
0
  6
Continuous
 62
     7
370
    15
100
AcDbLine
 10
452.4162130573
 20
343.2787722725
 30
0.0
 11
452.4020718553
 21
343.2787722725
 31
0.0
  0
LINE
  5
2C1
330
1F
100
AcDbEntity
  8
0
  6
Continuous
 62
     7
370
    15
100
AcDbLine
 10
325.472349129
 20
353.2787776369
 30
0.0
 11
325.486490331
 21
353.2787776369
 31
0.0
  0
LINE
  5
2C2
330
1F
100
AcDbEntity
  8
0
  6
Continuous
 62
     7
370
    15
100
AcDbLine
 10
325.486490331
 20
353.2787776369
 30
0.0
 11
325.486490331
 21
343.7787807364
 31
0.0
  0
LINE
  5
2C3
330
1F
100
AcDbEntity
  8
0
  6
Continuous
 62
     7
370
    15
100
AcDbLine
 10
449.7853757956
 20
233.1187772382
 30
0.0
 11
449.7853757956
 21
230.7811911035
 31
0.0
  0
LINE
  5
2C4
330
1F
100
AcDbEntity
  8
0
  6
Continuous
 62
     7
370
    15
100
AcDbLine
 10
449.7712345937
 20
233.1187772382
 30
0.0
 11
449.7853757956
 21
233.1187772382
 31
0.0
  0
LINE
  5
2C5
330
1F
100
AcDbEntity
  8
0
  6
Continuous
 62
     7
370
    15
100
AcDbLine
 10
448.4162124017
 20
357.3187804598
 30
0.0
 11
448.4020711997
 21
357.3187804598
 31
0.0
  0
LINE
  5
2C6
330
1F
100
AcDbEntity
  8
0
  6
Continuous
 62
     7
370
    15
100
AcDbLine
 10
448.4162124017
 20
357.8187740225
 30
0.0
 11
448.4020711997
 21
357.8187740225
 31
0.0
  0
LINE
  5
2C7
330
1F
100
AcDbEntity
  8
0
  6
Continuous
 62
     7
370
    15
100
AcDbLine
 10
322.8906149187
 20
357.3187804598
 30
0.0
 11
322.8764737168
 21
357.3187804598
 31
0.0
  0
LINE
  5
2C8
330
1F
100
AcDbEntity
  8
0
  6
Continuous
 62
     7
370
    15
100
AcDbLine
 10
322.8906149187
 20
357.8187740225
 30
0.0
 11
322.8764737168
 21
357.8187740225
 31
0.0
  0
LINE
  5
2C9
330
1F
100
AcDbEntity
  8
0
  6
Continuous
 62
     7
370
    15
100
AcDbLine
 10
451.0120840886
 20
353.2787776369
 30
0.0
 11
451.0120840886
 21
343.2787722725
 31
0.0
  0
LINE
  5
2CA
330
1F
100
AcDbEntity
  8
0
  6
Continuous
 62
     7
370
    15
100
AcDbLine
 10
450.9979428866
 20
353.2787776369
 30
0.0
 11
451.0120840886
 21
353.2787776369
 31
0.0
  0
LINE
  5
2CB
330
1F
100
AcDbEntity
  8
0
  6
Continuous
 62
     7
370
    15
100
AcDbLine
 10
446.9162093618
 20
369.3187749762
 30
0.0
 11
446.9020681598
 21
369.3187749762
 31
0.0
  0
LINE
  5
2CC
330
1F
100
AcDbEntity
  8
0
  6
Continuous
 62
     7
370
    15
100
AcDbLine
 10
321.3906156042
 20
369.3187749762
 30
0.0
 11
321.3764744022
 21
369.3187749762
 31
0.0
  0
LINE
  5
2CD
330
1F
100
AcDbEntity
  8
0
  6
Continuous
 62
     8
370
     0
100
AcDbLine
 10
418.7378080704
 20
229.3210598457
 30
0.0
 11
418.7378080704
 21
217.3210606727
 31
0.0
  0
LINE
  5
2CE
330
1F
100
AcDbEntity
  8
0
  6
Continuous
 62
     8
370
     0
100
AcDbLine
 10
420.1720895388
 20
217.3210606727
 30
0.0
 11
420.1720895388
 21
213.3210604827
 31
0.0
  0
LINE
  5
2CF
330
1F
100
AcDbEntity
  8
0
  6
Continuous
 62
     8
370
     0
100
AcDbLine
 10
411.5743877509
 20
217.3210606727
 30
0.0
 11
411.5743877509
 21
213.3210604827
 31
0.0
  0
LINE
  5
2D0
330
1F
100
AcDbEntity
  8
0
  6
Continuous
 62
     8
370
     0
100
AcDbLine
 10
343.7182994702
 20
217.3210606727
 30
0.0
 11
343.7182994702
 21
213.3210604827
 31
0.0
  0
LINE
  5
2D1
330
1F
100
AcDbEntity
  8
0
  6
Continuous
 62
     8
370
     0
100
AcDbLine
 10
335.1205976823
 20
217.3210606727
 30
0.0
 11
335.1205976823
 21
213.3210604827
 31
0.0
  0
LINE
  5
2D2
330
1F
100
AcDbEntity
  8
0
  6
Continuous
 62
     8
370
     0
100
AcDbLine
 10
336.5548791507
 20
229.3210598457
 30
0.0
 11
336.5548791507
 21
217.3210606727
 31
0.0
  0
LINE
  5
2D3
330
1F
100
AcDbEntity
  8
0
  6
Continuous
 62
     8
370
     0
100
AcDbLine
 10
447.3876224973
 20
229.0683715421
 30
0.0
 11
447.3876224973
 21
224.3210608888
 31
0.0
  0
LINE
  5
2D4
330
1F
100
AcDbEntity
  8
0
  6
Continuous
 62
     8
370
     0
100
AcDbLine
 10
436.7557669201
 20
217.3210606727
 30
0.0
 11
436.7557669201
 21
224.3210608888
 31
0.0
  0
LINE
  5
2D5
330
1F
100
AcDbEntity
  8
0
  6
Continuous
 62
     8
370
     0
100
AcDbLine
 10
307.9050647238
 20
229.0683715421
 30
0.0
 11
307.9050647238
 21
224.3210608888
 31
0.0
  0
LINE
  5
2D6
330
1F
100
AcDbEntity
  8
0
  6
Continuous
 62
     8
370
     0
100
AcDbLine
 10
318.536920301
 20
224.3210608888
 30
0.0
 11
318.536920301
 21
217.3210606727
 31
0.0
  0
LINE
  5
2D7
330
1F
100
AcDbEntity
  8
0
  6
Continuous
 62
     8
370
     0
100
AcDbLine
 10
339.2243849256
 20
230.3458909321
 30
0.0
 11
339.20981159
 21
230.0449284542
 31
0.0
  0
LINE
  5
2D8
330
1F
100
AcDbEntity
  8
0
  6
Continuous
 62
     8
370
     0
100
AcDbLine
 10
416.0683022955
 20
230.3458909321
 30
0.0
 11
416.0828756311
 21
230.044919141
 31
0.0
  0
LINE
  5
2D9
330
1F
100
AcDbEntity
  8
0
  6
Continuous
 62
     8
370
     0
100
AcDbLine
 10
456.9253118851
 20
217.3210606727
 30
0.0
 11
456.9253118851
 21
224.3210608888
 31
0.0
  0
LINE
  5
2DA
330
1F
100
AcDbEntity
  8
0
  6
Continuous
 62
     8
370
     0
100
AcDbLine
 10
298.367375336
 20
224.3210608888
 30
0.0
 11
298.367375336
 21
217.3210606727
 31
0.0
  0
LINE
  5
2DB
330
1F
100
AcDbEntity
  8
0
  6
Continuous
 62
     8
370
     0
100
AcDbLine
 10
334.3705104807
 20
312.6902199167
 30
0.0
 11
420.9221767404
 21
312.6902199167
 31
0.0
  0
LINE
  5
2DC
330
1F
100
AcDbEntity
  8
0
  6
Continuous
 62
     8
370
     0
100
AcDbLine
 10
455.9005217769
 20
229.0683715421
 30
0.0
 11
455.9005217769
 21
224.3210608888
 31
0.0
  0
LINE
  5
2DD
330
1F
100
AcDbEntity
  8
0
  6
Continuous
 62
     8
370
     0
100
AcDbLine
 10
299.3921654442
 20
229.0683715421
 30
0.0
 11
299.3921654442
 21
224.3210608888
 31
0.0
  0
LINE
  5
2DE
330
1F
100
AcDbEntity
  8
0
  6
Continuous
 62
     8
370
     0
100
AcDbLine
 10
341.9208282747
 20
230.7106378305
 30
0.0
 11
341.8834673383
 21
229.9390110004
 31
0.0
  0
LINE
  5
2DF
330
1F
100
AcDbEntity
  8
0
  6
Continuous
 62
     8
370
     0
100
AcDbLine
 10
413.3718589463
 20
230.7106378305
 30
0.0
 11
413.4092124322
 21
229.9391562867
 31
0.0
  0
LINE
  5
2E0
330
1F
100
AcDbEntity
  8
0
  6
Continuous
 62
     8
370
     0
100
AcDbLine
 10
468.8137265065
 20
229.3210598457
 30
0.0
 11
468.8137265065
 21
217.3210606727
 31
0.0
  0
LINE
  5
2E1
330
1F
100
AcDbEntity
  8
0
  6
Continuous
 62
     8
370
     0
100
AcDbLine
 10
460.6925713041
 20
224.3210608888
 30
0.0
 11
460.6925713041
 21
217.3210606727
 31
0.0
  0
LINE
  5
2E2
330
1F
100
AcDbEntity
  8
0
  6
Continuous
 62
     8
370
     0
100
AcDbLine
 10
286.4789607146
 20
229.3210598457
 30
0.0
 11
286.4789607146
 21
217.3210606727
 31
0.0
  0
LINE
  5
2E3
330
1F
100
AcDbEntity
  8
0
  6
Continuous
 62
     8
370
     0
100
AcDbLine
 10
294.600115917
 20
217.3210606727
 30
0.0
 11
294.600115917
 21
224.3210608888
 31
0.0
  0
LINE
  5
2E4
330
1F
100
AcDbEntity
  8
0
  6
Continuous
 62
     8
370
     0
100
AcDbLine
 10
446.646341882
 20
308.3210578937
 30
0.0
 11
446.4020671466
 21
308.3210578937
 31
0.0
  0
LINE
  5
2E5
330
1F
100
AcDbEntity
  8
0
  6
Continuous
 62
     8
370
     0
100
AcDbLine
 10
434.4020689049
 20
308.3210578937
 30
0.0
 11
320.8764733889
 21
308.3210578937
 31
0.0
  0
LINE
  5
2E6
330
1F
100
AcDbEntity
  8
0
  6
Continuous
 62
     8
370
     0
100
AcDbLine
 10
308.876471422
 20
308.3210578937
 30
0.0
 11
308.6463453391
 21
308.3210578937
 31
0.0
  0
LINE
  5
2E7
330
1F
100
AcDbEntity
  8
0
  6
Continuous
 62
     8
370
     0
100
AcDbLine
 10
446.646341882
 20
307.4819586057
 30
0.0
 11
446.4020671466
 21
307.4819586057
 31
0.0
  0
LINE
  5
2E8
330
1F
100
AcDbEntity
  8
0
  6
Continuous
 62
     8
370
     0
100
AcDbLine
 10
434.4020689049
 20
307.4819586057
 30
0.0
 11
320.8764733889
 21
307.4819586057
 31
0.0
  0
LINE
  5
2E9
330
1F
100
AcDbEntity
  8
0
  6
Continuous
 62
     8
370
     0
100
AcDbLine
 10
308.876471422
 20
307.4819586057
 30
0.0
 11
308.6463453391
 21
307.4819586057
 31
0.0
  0
LINE
  5
2EA
330
1F
100
AcDbEntity
  8
0
  6
Continuous
 62
     8
370
     0
100
AcDbLine
 10
434.4020689049
 20
305.1838270206
 30
0.0
 11
320.8764733889
 21
305.1838270206
 31
0.0
  0
LINE
  5
2EB
330
1F
100
AcDbEntity
  8
0
  6
Continuous
 62
     8
370
     0
100
AcDbLine
 10
434.4020689049
 20
299.8880735416
 30
0.0
 11
320.8764733889
 21
299.8880735416
 31
0.0
  0
LINE
  5
2EC
330
1F
100
AcDbEntity
  8
0
  6
Continuous
 62
     8
370
     0
100
AcDbLine
 10
373.3329920241
 20
248.389138915
 30
0.0
 11
373.3329920241
 21
231.2638453025
 31
0.0
  0
LINE
  5
2ED
330
1F
100
AcDbEntity
  8
0
  6
Continuous
 62
     8
370
     0
100
AcDbLine
 10
434.4020689049
 20
295.7090726871
 30
0.0
 11
320.8764733889
 21
295.7090726871
 31
0.0
  0
LINE
  5
2EE
330
1F
100
AcDbEntity
  8
0
  6
Continuous
 62
     8
370
     0
100
AcDbLine
 10
381.959695197
 20
248.389138915
 30
0.0
 11
381.959695197
 21
231.2638453025
 31
0.0
  0
LINE
  5
2EF
330
1F
100
AcDbEntity
  8
0
  6
Continuous
 62
     8
370
     0
100
AcDbLine
 10
363.8525882879
 20
248.389138915
 30
0.0
 11
363.8525882879
 21
231.6764230657
 31
0.0
  0
LINE
  5
2F0
330
1F
100
AcDbEntity
  8
0
  6
Continuous
 62
     8
370
     0
100
AcDbLine
 10
391.4400989332
 20
248.389138915
 30
0.0
 11
391.4400989332
 21
231.6764230657
 31
0.0
  0
LINE
  5
2F1
330
1F
100
AcDbEntity
  8
0
  6
Continuous
 62
     8
370
     0
100
AcDbLine
 10
335.5734886744
 20
341.7787766832
 30
0.0
 11
428.4020716467
 21
341.7787766832
 31
0.0
  0
LINE
  5
2F2
330
1F
100
AcDbEntity
  8
0
  6
Continuous
 62
     8
370
     0
100
AcDbLine
 10
326.8764743724
 20
341.7787766832
 30
0.0
 11
335.5734886744
 21
341.7787766832
 31
0.0
  0
LINE
  5
2F3
330
1F
100
AcDbEntity
  8
0
  6
Continuous
 62
     8
370
     0
100
AcDbLine
 10
405.5822340914
 20
248.389138915
 30
0.0
 11
405.5822340914
 21
231.6764230657
 31
0.0
  0
LINE
  5
2F4
330
1F
100
AcDbEntity
  8
0
  6
Continuous
 62
     8
370
     0
100
AcDbLine
 10
349.7104531297
 20
248.389138915
 30
0.0
 11
349.7104531297
 21
231.6764230657
 31
0.0
  0
LINE
  5
2F5
330
1F
100
AcDbEntity
  8
0
  6
Continuous
 62
     8
370
     0
100
AcDbLine
 10
287.1390970566
 20
217.3210606727
 30
0.0
 11
287.1390970566
 21
213.3210604827
 31
0.0
  0
LINE
  5
2F6
330
1F
100
AcDbEntity
  8
0
  6
Continuous
 62
     8
370
     0
100
AcDbLine
 10
468.1535901644
 20
217.3210606727
 30
0.0
 11
468.1535901644
 21
213.3210604827
 31
0.0
  0
LINE
  5
2F7
330
1F
100
AcDbEntity
  8
0
  6
Continuous
 62
     8
370
     0
100
AcDbLine
 10
418.9895482877
 20
248.389138915
 30
0.0
 11
418.9895482877
 21
231.2638453025
 31
0.0
  0
LINE
  5
2F8
330
1F
100
AcDbEntity
  8
0
  6
Continuous
 62
     8
370
     0
100
AcDbLine
 10
336.3031389334
 20
248.389138915
 30
0.0
 11
336.3031389334
 21
231.2638453025
 31
0.0
  0
LINE
  5
2F9
330
1F
100
AcDbEntity
  8
0
  6
Continuous
 62
     8
370
     0
100
AcDbLine
 10
300.2292009213
 20
312.6902199167
 30
0.0
 11
308.876471422
 21
312.6902199167
 31
0.0
  0
LINE
  5
2FA
330
1F
100
AcDbEntity
  8
0
  6
Continuous
 62
     8
370
     0
100
AcDbLine
 10
446.4020671466
 20
312.6902199167
 30
0.0
 11
455.0634862998
 21
312.6902199167
 31
0.0
  0
LINE
  5
2FB
330
1F
100
AcDbEntity
  8
0
  6
Continuous
 62
     8
370
     0
100
AcDbLine
 10
283.5778163889
 20
217.3210606727
 30
0.0
 11
283.5778163889
 21
213.3210604827
 31
0.0
  0
LINE
  5
2FC
330
1F
100
AcDbEntity
  8
0
  6
Continuous
 62
     8
370
     0
100
AcDbLine
 10
471.7148708322
 20
217.3210606727
 30
0.0
 11
471.7148708322
 21
213.3210604827
 31
0.0
  0
LINE
  5
2FD
330
1F
100
AcDbEntity
  8
0
  6
Continuous
 62
     8
370
     0
100
AcDbLine
 10
454.7905864337
 20
230.3458909321
 30
0.0
 11
454.7966288545
 21
230.044624843
 31
0.0
  0
LINE
  5
2FE
330
1F
100
AcDbEntity
  8
0
  6
Continuous
 62
     8
370
     0
100
AcDbLine
 10
300.5021007874
 20
230.3458909321
 30
0.0
 11
300.4960583666
 21
230.0446341563
 31
0.0
  0
LINE
  5
2FF
330
1F
100
AcDbEntity
  8
0
  6
Continuous
 62
     8
370
     0
100
AcDbLine
 10
430.947413496
 20
248.389138915
 30
0.0
 11
430.947413496
 21
238.2346886027
 31
0.0
  0
LINE
  5
300
330
1F
100
AcDbEntity
  8
0
  6
Continuous
 62
     8
370
     0
100
AcDbLine
 10
324.3452737251
 20
248.389138915
 30
0.0
 11
324.3452737251
 21
238.2346886027
 31
0.0
  0
LINE
  5
301
330
1F
100
AcDbEntity
  8
0
  6
CENTERX2
 62
     7
370
     0
100
AcDbLine
 10
377.6463436105
 20
354.1801156961
 30
0.0
 11
377.6463436105
 21
201.4816161999
 31
0.0
  0
CIRCLE
  5
302
330
1F
100
AcDbEntity
  8
0
  6
Continuous
 62
     7
370
    15
100
AcDbCircle
 10
100.7284626056
 20
41.2260381319
 30
0.0
 40
6.499999999999997
  0
CIRCLE
  5
303
330
1F
100
AcDbEntity
  8
0
  6
Continuous
 62
     7
370
    15
100
AcDbCircle
 10
-24.7971331907
 20
41.2401802675
 30
0.0
 40
6.5
  0
CIRCLE
  5
304
330
1F
100
AcDbEntity
  8
0
  6
Continuous
 62
     7
370
    15
100
AcDbCircle
 10
100.7143204699
 20
-84.2995576644
 30
0.0
 40
6.500000000000022
  0
CIRCLE
  5
305
330
1F
100
AcDbEntity
  8
0
  6
Continuous
 62
     7
370
    15
100
AcDbCircle
 10
-24.8112753263
 20
-84.2854155287
 30
0.0
 40
6.499999999999985
  0
CIRCLE
  5
306
330
1F
100
AcDbEntity
  8
0
  6
Continuous
 62
     7
370
    15
100
AcDbCircle
 10
-24.7971331907
 20
41.2401802675
 30
0.0
 40
7.999999999999999
  0
CIRCLE
  5
307
330
1F
100
AcDbEntity
  8
0
  6
Continuous
 62
     7
370
    15
100
AcDbCircle
 10
100.7284626056
 20
41.2260381319
 30
0.0
 40
7.999999999999999
  0
CIRCLE
  5
308
330
1F
100
AcDbEntity
  8
0
  6
Continuous
 62
     7
370
    15
100
AcDbCircle
 10
100.7143204699
 20
-84.2995576644
 30
0.0
 40
7.999999999999994
  0
CIRCLE
  5
309
330
1F
100
AcDbEntity
  8
0
  6
Continuous
 62
     7
370
    15
100
AcDbCircle
 10
-24.8112753263
 20
-84.2854155287
 30
0.0
 40
7.999999999999996
  0
LINE
  5
30A
330
1F
100
AcDbEntity
  8
0
  6
Continuous
 62
     7
370
    15
100
AcDbLine
 10
103.5676166146
 20
51.8219105776
 30
0.0
 11
92.9717436164
 21
48.9827550825
 31
0.0
  0
LINE
  5
30B
330
1F
100
AcDbEntity
  8
0
  6
Continuous
 62
     7
370
    15
100
AcDbLine
 10
108.4851786225
 20
33.4693200763
 30
0.0
 11
111.3243341177
 21
44.0651930746
 31
0.0
  0
LINE
  5
30C
330
1F
100
AcDbEntity
  8
0
  6
Continuous
 62
     7
370
    15
100
AcDbLine
 10
97.8893056243
 20
30.6301645812
 30
0.0
 11
108.4851786225
 21
33.4693200763
 31
0.0
  0
LINE
  5
30D
330
1F
100
AcDbEntity
  8
0
  6
Continuous
 62
     7
370
    15
100
AcDbLine
 10
90.1325881212
 20
38.3868820842
 30
0.0
 11
97.8893056243
 21
30.6301645812
 31
0.0
  0
LINE
  5
30E
330
1F
100
AcDbEntity
  8
0
  6
Continuous
 62
     7
370
    15
100
AcDbLine
 10
111.3243341177
 20
44.0651930746
 30
0.0
 11
103.5676166146
 21
51.8219105776
 31
0.0
  0
LINE
  5
30F
330
1F
100
AcDbEntity
  8
0
  6
Continuous
 62
     7
370
    15
100
AcDbLine
 10
92.9717436164
 20
48.9827550825
 30
0.0
 11
90.1325881212
 21
38.3868820842
 31
0.0
  0
LINE
  5
310
330
1F
100
AcDbEntity
  8
0
  6
Continuous
 62
     7
370
    15
100
AcDbLine
 10
-35.3930056364
 20
44.0793342765
 30
0.0
 11
-32.5538501413
 21
33.4834612783
 31
0.0
  0
LINE
  5
311
330
1F
100
AcDbEntity
  8
0
  6
Continuous
 62
     7
370
    15
100
AcDbLine
 10
-27.6362881334
 20
51.8360517796
 30
0.0
 11
-35.3930056364
 21
44.0793342765
 31
0.0
  0
LINE
  5
312
330
1F
100
AcDbEntity
  8
0
  6
Continuous
 62
     7
370
    15
100
AcDbLine
 10
-17.0404151351
 20
48.9968962845
 30
0.0
 11
-27.6362881334
 21
51.8360517796
 31
0.0
  0
LINE
  5
313
330
1F
100
AcDbEntity
  8
0
  6
Continuous
 62
     7
370
    15
100
AcDbLine
 10
-21.957977143
 20
30.6443057831
 30
0.0
 11
-14.20125964
 21
38.4010232862
 31
0.0
  0
LINE
  5
314
330
1F
100
AcDbEntity
  8
0
  6
Continuous
 62
     7
370
    15
100
AcDbLine
 10
-32.5538501413
 20
33.4834612783
 30
0.0
 11
-21.957977143
 21
30.6443057831
 31
0.0
  0
LINE
  5
315
330
1F
100
AcDbEntity
  8
0
  6
Continuous
 62
     7
370
    15
100
AcDbLine
 10
-14.20125964
 20
38.4010232862
 30
0.0
 11
-17.0404151351
 21
48.9968962845
 31
0.0
  0
LINE
  5
316
330
1F
100
AcDbEntity
  8
0
  6
Continuous
 62
     7
370
    15
100
AcDbLine
 10
-27.6504293353
 20
-94.8812879745
 30
0.0
 11
-17.0545563371
 21
-92.0421324793
 31
0.0
  0
LINE
  5
317
330
1F
100
AcDbEntity
  8
0
  6
Continuous
 62
     7
370
    15
100
AcDbLine
 10
-35.4071468384
 20
-87.1245704714
 30
0.0
 11
-27.6504293353
 21
-94.8812879745
 31
0.0
  0
LINE
  5
318
330
1F
100
AcDbEntity
  8
0
  6
Continuous
 62
     7
370
    15
100
AcDbLine
 10
-32.5679913432
 20
-76.5286974732
 30
0.0
 11
-35.4071468384
 21
-87.1245704714
 31
0.0
  0
LINE
  5
319
330
1F
100
AcDbEntity
  8
0
  6
Continuous
 62
     7
370
    15
100
AcDbLine
 10
-21.972118345
 20
-73.689541978
 30
0.0
 11
-32.5679913432
 21
-76.5286974732
 31
0.0
  0
LINE
  5
31A
330
1F
100
AcDbEntity
  8
0
  6
Continuous
 62
     7
370
    15
100
AcDbLine
 10
-14.2154008419
 20
-81.4462594811
 30
0.0
 11
-21.972118345
 21
-73.689541978
 31
0.0
  0
LINE
  5
31B
330
1F
100
AcDbEntity
  8
0
  6
Continuous
 62
     7
370
    15
100
AcDbLine
 10
-17.0545563371
 20
-92.0421324793
 30
0.0
 11
-14.2154008419
 21
-81.4462594811
 31
0.0
  0
LINE
  5
31C
330
1F
100
AcDbEntity
  8
0
  6
Continuous
 62
     7
370
    15
100
AcDbLine
 10
111.3101929157
 20
-87.1387116734
 30
0.0
 11
108.4710374205
 21
-76.5428386752
 31
0.0
  0
LINE
  5
31D
330
1F
100
AcDbEntity
  8
0
  6
Continuous
 62
     7
370
    15
100
AcDbLine
 10
103.5534754126
 20
-94.8954291765
 30
0.0
 11
111.3101929157
 21
-87.1387116734
 31
0.0
  0
LINE
  5
31E
330
1F
100
AcDbEntity
  8
0
  6
Continuous
 62
     7
370
    15
100
AcDbLine
 10
92.9576024144
 20
-92.0562736813
 30
0.0
 11
103.5534754126
 21
-94.8954291765
 31
0.0
  0
LINE
  5
31F
330
1F
100
AcDbEntity
  8
0
  6
Continuous
 62
     7
370
    15
100
AcDbLine
 10
90.1184469192
 20
-81.4604006831
 30
0.0
 11
92.9576024144
 21
-92.0562736813
 31
0.0
  0
LINE
  5
320
330
1F
100
AcDbEntity
  8
0
  6
Continuous
 62
     7
370
    15
100
AcDbLine
 10
97.8751644223
 20
-73.70368318
 30
0.0
 11
90.1184469192
 21
-81.4604006831
 31
0.0
  0
LINE
  5
321
330
1F
100
AcDbEntity
  8
0
  6
Continuous
 62
     7
370
    15
100
AcDbLine
 10
108.4710374205
 20
-76.5428386752
 30
0.0
 11
97.8751644223
 21
-73.70368318
 31
0.0
  0
CIRCLE
  5
322
330
1F
100
AcDbEntity
  8
0
  6
Continuous
 62
     7
370
    15
100
AcDbCircle
 10
37.9585936396
 20
-21.5296886984
 30
0.0
 40
59.5
  0
CIRCLE
  5
323
330
1F
100
AcDbEntity
  8
0
  6
Continuous
 62
     7
370
    15
100
AcDbCircle
 10
37.9585936396
 20
-21.5296886984
 30
0.0
 40
53.0
  0
CIRCLE
  5
324
330
1F
100
AcDbEntity
  8
0
  6
Continuous
 62
     7
370
    15
100
AcDbCircle
 10
-24.7971331907
 20
41.2401802675
 30
0.0
 40
12.0
  0
CIRCLE
  5
325
330
1F
100
AcDbEntity
  8
0
  6
Continuous
 62
     7
370
    15
100
AcDbCircle
 10
100.7284626056
 20
41.2260381319
 30
0.0
 40
12.00000000000001
  0
CIRCLE
  5
326
330
1F
100
AcDbEntity
  8
0
  6
Continuous
 62
     7
370
    15
100
AcDbCircle
 10
-24.8112753263
 20
-84.2854155287
 30
0.0
 40
12.0
  0
CIRCLE
  5
327
330
1F
100
AcDbEntity
  8
0
  6
Continuous
 62
     7
370
    15
100
AcDbCircle
 10
100.7143204699
 20
-84.2995576644
 30
0.0
 40
12.00000000000001
  0
LINE
  5
328
330
1F
100
AcDbEntity
  8
0
  6
Continuous
 62
     7
370
    15
100
AcDbLine
 10
-36.7566257984
 20
42.2253765043
 30
0.0
 11
-37.1715039284
 21
42.6402546343
 31
0.0
  0
LINE
  5
329
330
1F
100
AcDbEntity
  8
0
  6
Continuous
 62
     7
370
    15
100
AcDbLine
 10
-23.3829193086
 20
28.8516700145
 30
0.0
 11
-23.8119423659
 21
29.2806893464
 31
0.0
  0
LINE
  5
32A
330
1F
100
AcDbEntity
  8
0
  6
Continuous
 62
     7
370
    15
100
AcDbLine
 10
-22.8324890406
 20
29.4021002825
 30
0.0
 11
-23.3829193086
 21
28.8516700145
 31
0.0
  0
LINE
  5
32B
330
1F
100
AcDbEntity
  8
0
  6
Continuous
 62
     7
370
    15
100
AcDbLine
 10
-12.4227650733
 20
39.8118242499
 30
0.0
 11
-12.9590504141
 21
39.2755389091
 31
0.0
  0
LINE
  5
32C
330
1F
100
AcDbEntity
  8
0
  6
Continuous
 62
     7
370
    15
100
AcDbLine
 10
-12.8398224981
 20
40.2288816746
 30
0.0
 11
-12.4227650733
 21
39.8118242499
 31
0.0
  0
LINE
  5
32D
330
1F
100
AcDbEntity
  8
0
  6
Continuous
 62
     7
370
    15
100
AcDbLine
 10
-26.211349693
 20
53.6004088696
 30
0.0
 11
-25.8084297449
 21
53.1974889215
 31
0.0
  0
LINE
  5
32E
330
1F
100
AcDbEntity
  8
0
  6
Continuous
 62
     7
370
    15
100
AcDbLine
 10
-26.7279207976
 20
53.0838303145
 30
0.0
 11
-26.211349693
 21
53.6004088696
 31
0.0
  0
LINE
  5
32F
330
1F
100
AcDbEntity
  8
0
  6
Continuous
 62
     7
370
    15
100
AcDbLine
 10
-37.1715039284
 20
42.6402546343
 30
0.0
 11
-36.6407841713
 21
43.1709669408
 31
0.0
  0
LINE
  5
330
330
1F
100
AcDbEntity
  8
0
  6
Continuous
 62
     7
370
    15
100
AcDbLine
 10
-13.8782546193
 20
7.679744425
 30
0.0
 11
-48.8387629659
 21
42.6402546343
 31
0.0
  0
LINE
  5
331
330
1F
100
AcDbEntity
  8
0
  6
Continuous
 62
     7
370
    15
100
AcDbLine
 10
-48.8387629659
 20
42.6402546343
 30
0.0
 11
-26.211349693
 21
65.2676679071
 31
0.0
  0
LINE
  5
332
330
1F
100
AcDbEntity
  8
0
  6
Continuous
 62
     7
370
    15
100
AcDbLine
 10
-26.211349693
 20
65.2676679071
 30
0.0
 11
8.7491605162
 21
30.3071595606
 31
0.0
  0
LINE
  5
333
330
1F
100
AcDbEntity
  8
0
  6
Continuous
 62
     7
370
    15
100
AcDbLine
 10
-6.5891318292
 20
38.5743871208
 30
0.0
 11
4.3891571193
 21
27.5960981723
 31
0.0
  0
LINE
  5
334
330
1F
100
AcDbEntity
  8
0
  6
Continuous
 62
     7
370
    15
100
AcDbLine
 10
-22.1454821796
 20
23.0180367705
 30
0.0
 11
-6.5891318292
 21
38.5743871208
 31
0.0
  0
LINE
  5
335
330
1F
100
AcDbEntity
  8
0
  6
Continuous
 62
     7
370
    15
100
AcDbLine
 10
-11.1671932311
 20
12.0397478219
 30
0.0
 11
-22.1454821796
 21
23.0180367705
 31
0.0
  0
LINE
  5
336
330
1F
100
AcDbEntity
  8
0
  6
Continuous
 62
     7
370
    15
100
AcDbLine
 10
99.3001065879
 20
28.8516700145
 30
0.0
 11
98.7638212471
 21
29.3879553553
 31
0.0
  0
LINE
  5
337
330
1F
100
AcDbEntity
  8
0
  6
Continuous
 62
     7
370
    15
100
AcDbLine
 10
99.7171640127
 20
29.2687274393
 30
0.0
 11
99.3001065879
 21
28.8516700145
 31
0.0
  0
LINE
  5
338
330
1F
100
AcDbEntity
  8
0
  6
Continuous
 62
     7
370
    15
100
AcDbLine
 10
113.0886912077
 20
42.6402546343
 30
0.0
 11
112.6857712596
 21
42.2373346861
 31
0.0
  0
LINE
  5
339
330
1F
100
AcDbEntity
  8
0
  6
Continuous
 62
     7
370
    15
100
AcDbLine
 10
112.5721126526
 20
43.1568257388
 30
0.0
 11
113.0886912077
 21
42.6402546343
 31
0.0
  0
LINE
  5
33A
330
1F
100
AcDbEntity
  8
0
  6
Continuous
 62
     7
370
    15
100
AcDbLine
 10
102.1285369723
 20
53.6004088696
 30
0.0
 11
102.6592492788
 21
53.0696891125
 31
0.0
  0
LINE
  5
33B
330
1F
100
AcDbEntity
  8
0
  6
Continuous
 62
     7
370
    15
100
AcDbLine
 10
101.7136588423
 20
53.1855307397
 30
0.0
 11
102.1285369723
 21
53.6004088696
 31
0.0
  0
LINE
  5
33C
330
1F
100
AcDbEntity
  8
0
  6
Continuous
 62
     7
370
    15
100
AcDbLine
 10
88.3399523525
 20
39.8118242499
 30
0.0
 11
88.7689716845
 21
40.2408473071
 31
0.0
  0
LINE
  5
33D
330
1F
100
AcDbEntity
  8
0
  6
Continuous
 62
     7
370
    15
100
AcDbLine
 10
88.8903826206
 20
39.2613939818
 30
0.0
 11
88.3399523525
 21
39.8118242499
 31
0.0
  0
LINE
  5
33E
330
1F
100
AcDbEntity
  8
0
  6
Continuous
 62
     7
370
    15
100
AcDbLine
 10
98.0626694589
 20
23.0180367705
 30
0.0
 11
87.0843805104
 21
12.0397478219
 31
0.0
  0
LINE
  5
33F
330
1F
100
AcDbEntity
  8
0
  6
Continuous
 62
     7
370
    15
100
AcDbLine
 10
82.5063191085
 20
38.5743871208
 30
0.0
 11
98.0626694589
 21
23.0180367705
 31
0.0
  0
LINE
  5
340
330
1F
100
AcDbEntity
  8
0
  6
Continuous
 62
     7
370
    15
100
AcDbLine
 10
71.52803016
 20
27.5960981723
 30
0.0
 11
82.5063191085
 21
38.5743871208
 31
0.0
  0
LINE
  5
341
330
1F
100
AcDbEntity
  8
0
  6
Continuous
 62
     7
370
    15
100
AcDbLine
 10
124.7559502452
 20
42.6402546343
 30
0.0
 11
89.7954418986
 21
7.679744425
 31
0.0
  0
LINE
  5
342
330
1F
100
AcDbEntity
  8
0
  6
Continuous
 62
     7
370
    15
100
AcDbLine
 10
67.1680267631
 20
30.3071595606
 30
0.0
 11
102.1285369723
 21
65.2676679071
 31
0.0
  0
LINE
  5
343
330
1F
100
AcDbEntity
  8
0
  6
Continuous
 62
     7
370
    15
100
AcDbLine
 10
102.1285369723
 20
65.2676679071
 30
0.0
 11
124.7559502452
 21
42.6402546343
 31
0.0
  0
LINE
  5
344
330
1F
100
AcDbEntity
  8
0
  6
Continuous
 62
     7
370
    15
100
AcDbLine
 10
88.7570097773
 20
-83.2882590715
 30
0.0
 11
88.3399523525
 21
-82.8712016467
 31
0.0
  0
LINE
  5
345
330
1F
100
AcDbEntity
  8
0
  6
Continuous
 62
     7
370
    15
100
AcDbLine
 10
102.1285369723
 20
-96.6597862665
 30
0.0
 11
101.7256170242
 21
-96.2568663184
 31
0.0
  0
LINE
  5
346
330
1F
100
AcDbEntity
  8
0
  6
Continuous
 62
     7
370
    15
100
AcDbLine
 10
102.6451080768
 20
-96.1432077113
 30
0.0
 11
102.1285369723
 21
-96.6597862665
 31
0.0
  0
LINE
  5
347
330
1F
100
AcDbEntity
  8
0
  6
Continuous
 62
     7
370
    15
100
AcDbLine
 10
113.0886912077
 20
-85.6996320311
 30
0.0
 11
112.5579714506
 21
-86.2303443376
 31
0.0
  0
LINE
  5
348
330
1F
100
AcDbEntity
  8
0
  6
Continuous
 62
     7
370
    15
100
AcDbLine
 10
112.6738130777
 20
-85.2847539011
 30
0.0
 11
113.0886912077
 21
-85.6996320311
 31
0.0
  0
LINE
  5
349
330
1F
100
AcDbEntity
  8
0
  6
Continuous
 62
     7
370
    15
100
AcDbLine
 10
99.3001065879
 20
-71.9110474113
 30
0.0
 11
99.7291296451
 21
-72.3400667433
 31
0.0
  0
LINE
  5
34A
330
1F
100
AcDbEntity
  8
0
  6
Continuous
 62
     7
370
    15
100
AcDbLine
 10
98.7496763199
 20
-72.4614776794
 30
0.0
 11
99.3001065879
 21
-71.9110474113
 31
0.0
  0
LINE
  5
34B
330
1F
100
AcDbEntity
  8
0
  6
Continuous
 62
     7
370
    15
100
AcDbLine
 10
88.3399523525
 20
-82.8712016467
 30
0.0
 11
88.8762376933
 21
-82.3349163059
 31
0.0
  0
LINE
  5
34C
330
1F
100
AcDbEntity
  8
0
  6
Continuous
 62
     7
370
    15
100
AcDbLine
 10
82.5063191085
 20
-81.6337645177
 30
0.0
 11
71.52803016
 21
-70.6554755691
 31
0.0
  0
LINE
  5
34D
330
1F
100
AcDbEntity
  8
0
  6
Continuous
 62
     7
370
    15
100
AcDbLine
 10
98.0626694589
 20
-66.0774141673
 30
0.0
 11
82.5063191085
 21
-81.6337645177
 31
0.0
  0
LINE
  5
34E
330
1F
100
AcDbEntity
  8
0
  6
Continuous
 62
     7
370
    15
100
AcDbLine
 10
87.0843805104
 20
-55.0991252188
 30
0.0
 11
98.0626694589
 21
-66.0774141673
 31
0.0
  0
LINE
  5
34F
330
1F
100
AcDbEntity
  8
0
  6
Continuous
 62
     7
370
    15
100
AcDbLine
 10
89.7954418986
 20
-50.7391218219
 30
0.0
 11
124.7559502452
 21
-85.6996320311
 31
0.0
  0
LINE
  5
350
330
1F
100
AcDbEntity
  8
0
  6
Continuous
 62
     7
370
    15
100
AcDbLine
 10
124.7559502452
 20
-85.6996320311
 30
0.0
 11
102.1285369723
 21
-108.327045304
 31
0.0
  0
LINE
  5
351
330
1F
100
AcDbEntity
  8
0
  6
Continuous
 62
     7
370
    15
100
AcDbLine
 10
102.1285369723
 20
-108.327045304
 30
0.0
 11
67.1680267631
 21
-73.3665369574
 31
0.0
  0
LINE
  5
352
330
1F
100
AcDbEntity
  8
0
  6
Continuous
 62
     7
370
    15
100
AcDbLine
 10
-23.7999767334
 20
-72.3281048361
 30
0.0
 11
-23.3829193086
 21
-71.9110474113
 31
0.0
  0
LINE
  5
353
330
1F
100
AcDbEntity
  8
0
  6
Continuous
 62
     7
370
    15
100
AcDbLine
 10
-37.1715039284
 20
-85.6996320311
 30
0.0
 11
-36.7685839803
 21
-85.296712083
 31
0.0
  0
LINE
  5
354
330
1F
100
AcDbEntity
  8
0
  6
Continuous
 62
     7
370
    15
100
AcDbLine
 10
-36.6549253733
 20
-86.2162031356
 30
0.0
 11
-37.1715039284
 21
-85.6996320311
 31
0.0
  0
LINE
  5
355
330
1F
100
AcDbEntity
  8
0
  6
Continuous
 62
     7
370
    15
100
AcDbLine
 10
-26.211349693
 20
-96.6597862665
 30
0.0
 11
-26.7420619995
 21
-96.1290665094
 31
0.0
  0
LINE
  5
356
330
1F
100
AcDbEntity
  8
0
  6
Continuous
 62
     7
370
    15
100
AcDbLine
 10
-25.7964715631
 20
-96.2449081365
 30
0.0
 11
-26.211349693
 21
-96.6597862665
 31
0.0
  0
LINE
  5
357
330
1F
100
AcDbEntity
  8
0
  6
Continuous
 62
     7
370
    15
100
AcDbLine
 10
-12.4227650733
 20
-82.8712016467
 30
0.0
 11
-12.8517844052
 21
-83.3002247039
 31
0.0
  0
LINE
  5
358
330
1F
100
AcDbEntity
  8
0
  6
Continuous
 62
     7
370
    15
100
AcDbLine
 10
-12.9731953413
 20
-82.3207713786
 30
0.0
 11
-12.4227650733
 21
-82.8712016467
 31
0.0
  0
LINE
  5
359
330
1F
100
AcDbEntity
  8
0
  6
Continuous
 62
     7
370
    15
100
AcDbLine
 10
-23.3829193086
 20
-71.9110474113
 30
0.0
 11
-22.8466339679
 21
-72.4473327521
 31
0.0
  0
LINE
  5
35A
330
1F
100
AcDbEntity
  8
0
  6
Continuous
 62
     7
370
    15
100
AcDbLine
 10
-26.211349693
 20
-108.327045304
 30
0.0
 11
-48.8387629659
 21
-85.6996320311
 31
0.0
  0
LINE
  5
35B
330
1F
100
AcDbEntity
  8
0
  6
Continuous
 62
     7
370
    15
100
AcDbLine
 10
-6.5891318292
 20
-81.6337645177
 30
0.0
 11
-22.1454821796
 21
-66.0774141673
 31
0.0
  0
LINE
  5
35C
330
1F
100
AcDbEntity
  8
0
  6
Continuous
 62
     7
370
    15
100
AcDbLine
 10
4.3891571193
 20
-70.6554755691
 30
0.0
 11
-6.5891318292
 21
-81.6337645177
 31
0.0
  0
LINE
  5
35D
330
1F
100
AcDbEntity
  8
0
  6
Continuous
 62
     7
370
    15
100
AcDbLine
 10
8.7491605162
 20
-73.3665369574
 30
0.0
 11
-26.211349693
 21
-108.327045304
 31
0.0
  0
LINE
  5
35E
330
1F
100
AcDbEntity
  8
0
  6
Continuous
 62
     7
370
    15
100
AcDbLine
 10
-48.8387629659
 20
-85.6996320311
 30
0.0
 11
-13.8782546193
 21
-50.7391218219
 31
0.0
  0
LINE
  5
35F
330
1F
100
AcDbEntity
  8
0
  6
Continuous
 62
     7
370
    15
100
AcDbLine
 10
-22.1454821796
 20
-66.0774141673
 30
0.0
 11
-11.1671932311
 21
-55.0991252188
 31
0.0
  0
ARC
  5
360
330
1F
100
AcDbEntity
  8
0
  6
Continuous
 62
     7
370
    15
100
AcDbCircle
 10
37.9585936396
 20
-21.5296886984
 30
0.0
 40
78.4867192015897
100
AcDbArc
 50
56.7625470534
 51
123.2374529466
  0
ARC
  5
361
330
1F
100
AcDbEntity
  8
0
  6
Continuous
 62
     7
370
    15
100
AcDbCircle
 10
37.9585936396
 20
-21.5296886984
 30
0.0
 40
78.4867192015897
100
AcDbArc
 50
146.7625470534
 51
213.2374529466
  0
ARC
  5
362
330
1F
100
AcDbEntity
  8
0
  6
Continuous
 62
     7
370
    15
100
AcDbCircle
 10
37.9585936396
 20
-21.5296886984
 30
0.0
 40
78.4867192015897
100
AcDbArc
 50
326.7625470534
 51
33.2374529466
  0
ARC
  5
363
330
1F
100
AcDbEntity
  8
0
  6
Continuous
 62
     7
370
    15
100
AcDbCircle
 10
37.9585936396
 20
-21.5296886984
 30
0.0
 40
78.4867192015897
100
AcDbArc
 50
236.7625470534
 51
303.2374529466
  0
CIRCLE
  5
364
330
1F
100
AcDbEntity
  8
0
  6
Continuous
 62
     7
370
    15
100
AcDbCircle
 10
37.9585936396
 20
-21.5296886984
 30
0.0
 40
40.0
  0
SPLINE
  5
365
330
1F
100
AcDbEntity
  8
0
  6
Continuous
 62
     7
370
    15
100
AcDbSpline
210
0.0
220
0.0
230
1.0
 70
     8
 71
     3
 72
    10
 73
     6
 74
     0
 42
0.00000001
 43
0.00000001
 12
1.0
 22
0.0
 32
0.0
 13
1.0
 23
0.0
 33
0.0
 40
0.0
 40
0.0
 40
0.0
 40
0.0
 40
0.242851485575779
 40
0.6214257670787758
 40
1.0
 40
1.0
 40
1.0
 40
1.0
 10
-44.68082490274852
 20
38.48230912052535
 30
0.0
 10
-45.371141973696
 20
36.95073837608088
 30
0.0
 10
-47.13757471477659
 20
33.03164550973387
 30
0.0
 10
-49.98025121917195
 20
26.72474324579285
 30
0.0
 10
-52.13260995663199
 20
21.94943148744611
 30
0.0
 10
-53.20878925630992
 20
19.5617757614746
 30
0.0
  0
SPLINE
  5
366
330
1F
100
AcDbEntity
  8
0
  6
Continuous
 62
     7
370
    15
100
AcDbSpline
210
0.0
220
0.0
230
1.0
 70
     8
 71
     3
 72
    10
 73
     6
 74
     0
 42
0.00000001
 43
0.00000001
 12
1.0
 22
0.0
 32
0.0
 13
1.0
 23
0.0
 33
0.0
 40
0.0
 40
0.0
 40
0.0
 40
0.0
 40
0.3785507760813724
 40
0.7571014367651346
 40
1.0
 40
1.0
 40
1.0
 40
1.0
 10
-3.132870820259502
 20
69.63769419752502
 30
0.0
 10
-5.520378821182587
 20
68.5615820490982
 30
0.0
 10
-10.29539409521959
 20
66.40935808028713
 30
0.0
 10
-16.60229621691543
 20
63.56668129821711
 30
0.0
 10
-20.52153666974641
 20
61.80018105705849
 30
0.0
 10
-22.05340417931025
 20
61.10972984396361
 30
0.0
  0
ARC
  5
367
330
1F
100
AcDbEntity
  8
0
  6
Continuous
 62
     7
370
    15
100
AcDbCircle
 10
37.9585936396
 20
-21.5296886984
 30
0.0
 40
99.99999999999984
100
AcDbArc
 50
65.7376964623
 51
114.2623035377
  0
SPLINE
  5
368
330
1F
100
AcDbEntity
  8
0
  6
Continuous
 62
     7
370
    15
100
AcDbSpline
210
0.0
220
0.0
230
1.0
 70
     8
 71
     3
 72
    10
 73
     6
 74
     0
 42
0.00000001
 43
0.00000001
 12
1.0
 22
0.0
 32
0.0
 13
1.0
 23
0.0
 33
0.0
 40
0.0
 40
0.0
 40
0.0
 40
0.0
 40
0.242851485575779
 40
0.6214257670787758
 40
1.0
 40
1.0
 40
1.0
 40
1.0
 10
97.97059145858341
 20
61.10972984396361
 30
0.0
 10
96.43902071413896
 20
61.80004691491109
 30
0.0
 10
92.51992784779195
 20
63.56647965599169
 30
0.0
 10
86.21302558385092
 20
66.40915616038706
 30
0.0
 10
81.43771382550419
 20
68.56151489784709
 30
0.0
 10
79.05005809953266
 20
69.63769419752502
 30
0.0
  0
SPLINE
  5
369
330
1F
100
AcDbEntity
  8
0
  6
Continuous
 62
     7
370
    15
100
AcDbSpline
210
0.0
220
0.0
230
1.0
 70
     8
 71
     3
 72
    10
 73
     6
 74
     0
 42
0.00000001
 43
0.00000001
 12
1.0
 22
0.0
 32
0.0
 13
1.0
 23
0.0
 33
0.0
 40
0.0
 40
0.0
 40
0.0
 40
0.0
 40
0.3785507760813724
 40
0.7571014367651346
 40
1.0
 40
1.0
 40
1.0
 40
1.0
 10
129.1259765355831
 20
19.5617757614746
 30
0.0
 10
128.0498643871563
 20
21.94928376239769
 30
0.0
 10
125.8976404183452
 20
26.72429903643469
 30
0.0
 10
123.0549636362752
 20
33.03120115813053
 30
0.0
 10
121.2884633951166
 20
36.95044161096151
 30
0.0
 10
120.5980121820217
 20
38.48230912052535
 30
0.0
  0
ARC
  5
36A
330
1F
100
AcDbEntity
  8
0
  6
Continuous
 62
     7
370
    15
100
AcDbCircle
 10
37.9585936396
 20
-21.5296886984
 30
0.0
 40
99.99999999999984
100
AcDbArc
 50
335.7376964623
 51
24.2623035377
  0
SPLINE
  5
36B
330
1F
100
AcDbEntity
  8
0
  6
Continuous
 62
     7
370
    15
100
AcDbSpline
210
0.0
220
0.0
230
1.0
 70
     8
 71
     3
 72
    10
 73
     6
 74
     0
 42
0.00000001
 43
0.00000001
 12
1.0
 22
0.0
 32
0.0
 13
1.0
 23
0.0
 33
0.0
 40
0.0
 40
0.0
 40
0.0
 40
0.0
 40
0.242851485575779
 40
0.6214257670787758
 40
1.0
 40
1.0
 40
1.0
 40
1.0
 10
120.5980121820217
 20
-81.54168651736832
 30
0.0
 10
121.2883292529692
 20
-80.01011577292385
 30
0.0
 10
123.0547619940498
 20
-76.09102290657685
 30
0.0
 10
125.8974384984451
 20
-69.78412064263583
 30
0.0
 10
128.0497972359051
 20
-65.00880888428908
 30
0.0
 10
129.1259765355831
 20
-62.62115315831757
 30
0.0
  0
SPLINE
  5
36C
330
1F
100
AcDbEntity
  8
0
  6
Continuous
 62
     7
370
    15
100
AcDbSpline
210
0.0
220
0.0
230
1.0
 70
     8
 71
     3
 72
    10
 73
     6
 74
     0
 42
0.00000001
 43
0.00000001
 12
1.0
 22
0.0
 32
0.0
 13
1.0
 23
0.0
 33
0.0
 40
0.0
 40
0.0
 40
0.0
 40
0.0
 40
0.3785507760813724
 40
0.7571014367651346
 40
1.0
 40
1.0
 40
1.0
 40
1.0
 10
79.05005809953266
 20
-112.697071594368
 30
0.0
 10
81.43756610045575
 20
-111.6209594459412
 30
0.0
 10
86.21258137449276
 20
-109.4687354771301
 30
0.0
 10
92.5194834961886
 20
-106.6260586950601
 30
0.0
 10
96.43872394901959
 20
-104.8595584539015
 30
0.0
 10
97.97059145858341
 20
-104.1691072408066
 30
0.0
  0
ARC
  5
36D
330
1F
100
AcDbEntity
  8
0
  6
Continuous
 62
     7
370
    15
100
AcDbCircle
 10
37.9585936396
 20
-21.5296886984
 30
0.0
 40
100.0000000000016
100
AcDbArc
 50
245.7376964623
 51
294.2623035377
  0
SPLINE
  5
36E
330
1F
100
AcDbEntity
  8
0
  6
Continuous
 62
     7
370
    15
100
AcDbSpline
210
0.0
220
0.0
230
1.0
 70
     8
 71
     3
 72
    10
 73
     6
 74
     0
 42
0.00000001
 43
0.00000001
 12
1.0
 22
0.0
 32
0.0
 13
1.0
 23
0.0
 33
0.0
 40
0.0
 40
0.0
 40
0.0
 40
0.0
 40
0.242851485575779
 40
0.6214257670787758
 40
1.0
 40
1.0
 40
1.0
 40
1.0
 10
-22.05340417931025
 20
-104.1691072408066
 30
0.0
 10
-20.52183343486579
 20
-104.8594243117541
 30
0.0
 10
-16.60274056851877
 20
-106.6258570528347
 30
0.0
 10
-10.29583830457775
 20
-109.46853355723
 30
0.0
 10
-5.52052654623101
 20
-111.6208922946901
 30
0.0
 10
-3.132870820259502
 20
-112.697071594368
 30
0.0
  0
SPLINE
  5
36F
330
1F
100
AcDbEntity
  8
0
  6
Continuous
 62
     7
370
    15
100
AcDbSpline
210
0.0
220
0.0
230
1.0
 70
     8
 71
     3
 72
    10
 73
     6
 74
     0
 42
0.00000001
 43
0.00000001
 12
1.0
 22
0.0
 32
0.0
 13
1.0
 23
0.0
 33
0.0
 40
0.0
 40
0.0
 40
0.0
 40
0.0
 40
0.3785507760813724
 40
0.7571014367651346
 40
1.0
 40
1.0
 40
1.0
 40
1.0
 10
-53.20878925630992
 20
-62.62115315831757
 30
0.0
 10
-52.13267710788311
 20
-65.00866115924066
 30
0.0
 10
-49.98045313907203
 20
-69.78367643327765
 30
0.0
 10
-47.13777635700201
 20
-76.0905785549735
 30
0.0
 10
-45.37127611584339
 20
-80.0098190078045
 30
0.0
 10
-44.68082490274852
 20
-81.54168651736832
 30
0.0
  0
ARC
  5
370
330
1F
100
AcDbEntity
  8
0
  6
Continuous
 62
     7
370
    15
100
AcDbCircle
 10
37.9585936396
 20
-21.5296886984
 30
0.0
 40
100.0000000000031
100
AcDbArc
 50
155.7376964623
 51
204.2623035377
  0
LINE
  5
371
330
1F
100
AcDbEntity
  8
0
  6
Continuous
 62
     7
370
    15
100
AcDbLine
 10
15.1512022792
 20
-98.6739315215
 30
0.0
 11
15.9025523542
 21
-96.8459166709
 31
0.0
  0
LINE
  5
372
330
1F
100
AcDbEntity
  8
0
  6
Continuous
 62
     7
370
    15
100
AcDbLine
 10
0.2961136132
 20
-90.3866954271
 30
0.0
 11
-0.4633650453
 21
-92.2061719123
 31
0.0
  0
SPLINE
  5
373
330
1F
100
AcDbEntity
  8
0
  6
Continuous
 62
     7
370
    15
100
AcDbSpline
210
0.0
220
0.0
230
1.0
 70
     8
 71
     3
 72
    49
 73
    45
 74
     0
 42
0.00000001
 43
0.00000001
 12
1.0
 22
0.0
 32
0.0
 13
1.0
 23
0.0
 33
0.0
 40
0.0
 40
0.0
 40
0.0
 40
0.0
 40
0.0624999999999974
 40
0.0624999999999974
 40
0.1249999999999948
 40
0.1249999999999948
 40
0.1874999999999922
 40
0.1874999999999922
 40
0.2187499999999917
 40
0.2187499999999917
 40
0.2499999999999912
 40
0.2812499999999907
 40
0.2812499999999907
 40
0.3124999999999901
 40
0.3124999999999901
 40
0.3749999999999895
 40
0.3749999999999895
 40
0.4062499999999898
 40
0.4062499999999898
 40
0.4374999999999901
 40
0.4374999999999901
 40
0.4999999999999915
 40
0.4999999999999915
 40
0.5312499999999917
 40
0.5312499999999917
 40
0.562499999999992
 40
0.562499999999992
 40
0.6249999999999933
 40
0.6249999999999933
 40
0.6874999999999948
 40
0.6874999999999948
 40
0.7187499999999957
 40
0.7187499999999957
 40
0.7499999999999966
 40
0.7499999999999966
 40
0.8124999999999974
 40
0.8124999999999974
 40
0.8749999999999983
 40
0.8749999999999983
 40
0.9374999999999991
 40
0.9374999999999991
 40
0.9687499999999996
 40
0.9687499999999996
 40
1.0
 40
1.0
 40
1.0
 40
1.0
 10
-0.4633648009059813
 20
-92.20616844280477
 30
0.0
 10
-0.6770749988335365
 20
-92.71814956329871
 30
0.0
 10
-0.8384033074473191
 20
-93.24515223587521
 30
0.0
 10
-1.057414829900918
 20
-94.32887641057076
 30
0.0
 10
-1.114070491939907
 20
-94.889536174006
 30
0.0
 10
-1.11653411682943
 20
-95.9939554773497
 30
0.0
 10
-1.064143906750276
 20
-96.54305646529254
 30
0.0
 10
-0.9033098254106544
 20
-97.36193475416816
 30
0.0
 10
-0.8356679756656091
 20
-97.63414838513071
 30
0.0
 10
-0.6756484016029046
 20
-98.16491687955639
 30
0.0
 10
-0.490385893588248
 20
-98.68514489353394
 30
0.0
 10
-0.2554317986127319
 20
-99.18462221033714
 30
0.0
 10
0.0046933925680198
 20
-99.6735876506917
 30
0.0
 10
0.1481376238124665
 20
-99.9139736855335
 30
0.0
 10
0.611891365878317
 20
-100.6099737782466
 30
0.0
 10
0.9620882261780483
 20
-101.0369985779602
 30
0.0
 10
1.54721357841392
 20
-101.6236129657263
 30
0.0
 10
1.752299305834218
 20
-101.8100988391938
 30
0.0
 10
2.183161702997011
 20
-102.1644222589551
 30
0.0
 10
2.407942760140954
 20
-102.3312435180494
 30
0.0
 10
3.098773018442406
 20
-102.7931579755563
 30
0.0
 10
3.585266214411686
 20
-103.0535414599388
 30
0.0
 10
4.35410019160825
 20
-103.3724387075439
 30
0.0
 10
4.618460225729655
 20
-103.4671038592754
 30
0.0
 10
5.151193460779719
 20
-103.6285400903338
 30
0.0
 10
5.419784872325605
 20
-103.695601879061
 30
0.0
 10
6.232070426523379
 20
-103.8568187000899
 30
0.0
 10
6.782212110480367
 20
-103.9113967961532
 30
0.0
 10
7.900395803441183
 20
-103.910670211927
 30
0.0
 10
8.451862697597608
 20
-103.8551687350181
 30
0.0
 10
9.263404100565344
 20
-103.6928896379656
 30
0.0
 10
9.531557186630332
 20
-103.6255268096445
 30
0.0
 10
10.06304216034333
 20
-103.4637033162272
 30
0.0
 10
10.32735625263996
 20
-103.3687030216758
 30
0.0
 10
11.09633098658641
 20
-103.0485737103526
 30
0.0
 10
11.58217397566427
 20
-102.7875922169227
 30
0.0
 10
12.50088917568217
 20
-102.1716579486377
 30
0.0
 10
12.93583040088491
 20
-101.8131647518035
 30
0.0
 10
13.71492666603045
 20
-101.0302999161476
 30
0.0
 10
14.06410600805849
 20
-100.6034167318939
 30
0.0
 10
14.52602601607851
 20
-99.90878338848358
 30
0.0
 10
14.66949146093847
 20
-99.66793631512196
 30
0.0
 10
14.92925200680733
 20
-99.17857096516703
 30
0.0
 10
15.04646110733745
 20
-98.92877029688118
 30
0.0
 10
15.15120290176312
 20
-98.67393415584341
 30
0.0
  0
LINE
  5
374
330
1F
100
AcDbEntity
  8
0
  6
Continuous
 62
     7
370
    15
100
AcDbLine
 10
76.3805523246
 20
-92.2061719123
 30
0.0
 11
75.6192929774
 21
-90.3824262444
 31
0.0
  0
LINE
  5
375
330
1F
100
AcDbEntity
  8
0
  6
Continuous
 62
     7
370
    15
100
AcDbLine
 10
60.0166838347
 20
-96.8509011093
 30
0.0
 11
60.765985
 21
-98.6739315215
 31
0.0
  0
SPLINE
  5
376
330
1F
100
AcDbEntity
  8
0
  6
Continuous
 62
     7
370
    15
100
AcDbSpline
210
0.0
220
0.0
230
1.0
 70
     8
 71
     3
 72
    51
 73
    47
 74
     0
 42
0.00000001
 43
0.00000001
 12
1.0
 22
0.0
 32
0.0
 13
1.0
 23
0.0
 33
0.0
 40
0.0
 40
0.0
 40
0.0
 40
0.0
 40
0.0312499999999993
 40
0.0312499999999993
 40
0.0624999999999985
 40
0.0624999999999985
 40
0.1249999999999968
 40
0.1249999999999968
 40
0.1562499999999965
 40
0.1562499999999965
 40
0.1874999999999962
 40
0.1874999999999962
 40
0.2499999999999968
 40
0.2499999999999968
 40
0.2812499999999971
 40
0.2812499999999971
 40
0.3124999999999974
 40
0.3124999999999974
 40
0.3749999999999978
 40
0.3749999999999978
 40
0.4374999999999981
 40
0.4374999999999981
 40
0.4687499999999979
 40
0.4687499999999979
 40
0.4999999999999979
 40
0.4999999999999979
 40
0.562499999999999
 40
0.562499999999999
 40
0.6250000000000002
 40
0.6250000000000002
 40
0.6875000000000013
 40
0.6875000000000013
 40
0.7187500000000018
 40
0.7187500000000018
 40
0.7500000000000021
 40
0.7812500000000024
 40
0.7812500000000024
 40
0.8125000000000028
 40
0.8125000000000028
 40
0.8750000000000019
 40
0.8750000000000019
 40
0.9062500000000013
 40
0.9062500000000013
 40
0.9375000000000008
 40
0.9375000000000008
 40
1.0
 40
1.0
 40
1.0
 40
1.0
 10
60.76598437750845
 20
-98.67393415584388
 30
0.0
 10
60.87072006421715
 20
-98.92875543684384
 30
0.0
 10
60.98785988365744
 20
-99.17839104593627
 30
0.0
 10
61.24726301677459
 20
-99.66715877555734
 30
0.0
 10
61.39030798960832
 20
-99.9074330930196
 30
0.0
 10
61.85291836562708
 20
-100.6033056415655
 30
0.0
 10
62.2023119427794
 20
-101.0303156720054
 30
0.0
 10
62.7861479194704
 20
-101.6170294387981
 30
0.0
 10
62.99078959362834
 20
-101.8035688944905
 30
0.0
 10
63.42072823600243
 20
-102.1580464294316
 30
0.0
 10
63.64515516728911
 20
-102.3250620232543
 30
0.0
 10
64.3348537945894
 20
-102.7875423168864
 30
0.0
 10
64.82060222153915
 20
-103.0483835158701
 30
0.0
 10
65.58831488225472
 20
-103.368113916771
 30
0.0
 10
65.852308078699
 20
-103.463093402186
 30
0.0
 10
66.38466294461053
 20
-103.6252826548074
 30
0.0
 10
66.6530756717257
 20
-103.6927267892901
 30
0.0
 10
67.46485376677566
 20
-103.8551172600258
 30
0.0
 10
68.01469508376603
 20
-103.9105122441524
 30
0.0
 10
69.1323448467373
 20
-103.9115510316475
 30
0.0
 10
69.68450251173265
 20
-103.856882920298
 30
0.0
 10
70.49643505406442
 20
-103.695822659659
 30
0.0
 10
70.76472284086306
 20
-103.628862053468
 30
0.0
 10
71.29648827992516
 20
-103.4678450540759
 30
0.0
 10
71.56108406667188
 20
-103.3732088469732
 30
0.0
 10
72.33121808289874
 20
-103.0539538369915
 30
0.0
 10
72.81776940951902
 20
-102.7934787168408
 30
0.0
 10
73.73783779594775
 20
-102.1785078168473
 30
0.0
 10
74.1736875965203
 20
-101.8202834310985
 30
0.0
 10
74.95458928476891
 20
-101.0376245358739
 30
0.0
 10
75.30455638670097
 20
-100.610818558488
 30
0.0
 10
75.76756598132536
 20
-99.91633213383066
 30
0.0
 10
75.91147729038012
 20
-99.6753804531633
 30
0.0
 10
76.17205209182279
 20
-99.18580540126129
 30
0.0
 10
76.4072156618224
 20
-98.6860138987378
 30
0.0
 10
76.59241187796076
 20
-98.16613464542917
 30
0.0
 10
76.75232557862896
 20
-97.63609209427993
 30
0.0
 10
76.81988635181784
 20
-97.36465389051396
 30
0.0
 10
76.98123794264737
 20
-96.54430741217776
 30
0.0
 10
77.03363566973265
 20
-95.99490981921274
 30
0.0
 10
77.03192087583191
 20
-95.16717909297354
 30
0.0
 10
77.01786685129593
 20
-94.89065871611676
 30
0.0
 10
76.96201149638601
 20
-94.3363630035689
 30
0.0
 10
76.9201775281199
 20
-94.05981516613667
 30
0.0
 10
76.75581247849972
 20
-93.24576159208017
 30
0.0
 10
76.59432228081285
 20
-92.71829331055062
 30
0.0
 10
76.38055208017768
 20
-92.20616844280555
 30
0.0
  0
LINE
  5
377
330
1F
100
AcDbEntity
  8
0
  6
Continuous
 62
     7
370
    15
100
AcDbLine
 10
115.1028364628
 20
-44.3370800588
 30
0.0
 11
113.2748216121
 21
-43.5857299838
 31
0.0
  0
LINE
  5
378
330
1F
100
AcDbEntity
  8
0
  6
Continuous
 62
     7
370
    15
100
AcDbLine
 10
106.8156003683
 20
-59.1921687249
 30
0.0
 11
108.6350768535
 21
-59.9516473833
 31
0.0
  0
SPLINE
  5
379
330
1F
100
AcDbEntity
  8
0
  6
Continuous
 62
     7
370
    15
100
AcDbSpline
210
0.0
220
0.0
230
1.0
 70
     8
 71
     3
 72
    49
 73
    45
 74
     0
 42
0.00000001
 43
0.00000001
 12
1.0
 22
0.0
 32
0.0
 13
1.0
 23
0.0
 33
0.0
 40
0.0
 40
0.0
 40
0.0
 40
0.0
 40
0.0625000000000003
 40
0.0625000000000003
 40
0.1250000000000006
 40
0.1250000000000006
 40
0.1875000000000009
 40
0.1875000000000009
 40
0.2187500000000002
 40
0.2187500000000002
 40
0.2499999999999996
 40
0.281249999999999
 40
0.281249999999999
 40
0.3124999999999983
 40
0.3124999999999983
 40
0.3749999999999975
 40
0.3749999999999975
 40
0.4062499999999966
 40
0.4062499999999966
 40
0.4374999999999956
 40
0.4374999999999956
 40
0.4999999999999952
 40
0.4999999999999952
 40
0.5312499999999949
 40
0.5312499999999949
 40
0.5624999999999947
 40
0.5624999999999947
 40
0.6249999999999941
 40
0.6249999999999941
 40
0.687499999999994
 40
0.687499999999994
 40
0.7187499999999941
 40
0.7187499999999941
 40
0.7499999999999942
 40
0.7499999999999942
 40
0.8124999999999954
 40
0.8124999999999954
 40
0.8749999999999967
 40
0.8749999999999967
 40
0.9374999999999978
 40
0.9374999999999978
 40
0.968749999999999
 40
0.968749999999999
 40
1.0
 40
1.0
 40
1.0
 40
1.0
 10
108.63507338402
 20
-59.9516471389638
 30
0.0
 10
109.1470545045139
 20
-60.16535733689136
 30
0.0
 10
109.6740571770904
 20
-60.32668564550514
 30
0.0
 10
110.757781351786
 20
-60.54569716795874
 30
0.0
 10
111.3184411152212
 20
-60.60235282999773
 30
0.0
 10
112.4228604185649
 20
-60.60481645488724
 30
0.0
 10
112.9719614065077
 20
-60.55242624480807
 30
0.0
 10
113.7908396953833
 20
-60.39159216346844
 30
0.0
 10
114.0630533263459
 20
-60.32395031372341
 30
0.0
 10
114.5938218207716
 20
-60.1639307396607
 30
0.0
 10
115.1140498347492
 20
-59.97866823164605
 30
0.0
 10
115.6135271515523
 20
-59.74371413667054
 30
0.0
 10
116.1024925919069
 20
-59.4835889454898
 30
0.0
 10
116.3428786267487
 20
-59.34014471424535
 30
0.0
 10
117.0388787194619
 20
-58.8763909721795
 30
0.0
 10
117.4659035191754
 20
-58.52619411187976
 30
0.0
 10
118.0525179069415
 20
-57.94106875964387
 30
0.0
 10
118.2390037804091
 20
-57.73598303222358
 30
0.0
 10
118.5933272001704
 20
-57.3051206350608
 30
0.0
 10
118.7601484592647
 20
-57.08033957791685
 30
0.0
 10
119.2220629167716
 20
-56.3895093196154
 30
0.0
 10
119.482446401154
 20
-55.90301612364611
 30
0.0
 10
119.8013436487591
 20
-55.13418214644955
 30
0.0
 10
119.8960088004907
 20
-54.86982211232811
 30
0.0
 10
120.0574450315491
 20
-54.33708887727808
 30
0.0
 10
120.1245068202761
 20
-54.06849746573219
 30
0.0
 10
120.2857236413051
 20
-53.25621191153441
 30
0.0
 10
120.3403017373684
 20
-52.70607022757742
 30
0.0
 10
120.3395751531423
 20
-51.5878865346166
 30
0.0
 10
120.2840736762333
 20
-51.03641964046017
 30
0.0
 10
120.1217945791808
 20
-50.22487823749244
 30
0.0
 10
120.0544317508597
 20
-49.95672515142746
 30
0.0
 10
119.8926082574424
 20
-49.42524017771446
 30
0.0
 10
119.7976079628909
 20
-49.16092608541782
 30
0.0
 10
119.4774786515678
 20
-48.39195135147137
 30
0.0
 10
119.2164971581378
 20
-47.90610836239352
 30
0.0
 10
118.6005628898528
 20
-46.98739316237561
 30
0.0
 10
118.2420696930186
 20
-46.55245193717288
 30
0.0
 10
117.4592048573627
 20
-45.77335567202735
 30
0.0
 10
117.032321673109
 20
-45.42417632999929
 30
0.0
 10
116.3376883296988
 20
-44.96225632197928
 30
0.0
 10
116.0968412563372
 20
-44.81879087711932
 30
0.0
 10
115.6074759063822
 20
-44.55903033125047
 30
0.0
 10
115.3576752380963
 20
-44.44182123072035
 30
0.0
 10
115.1028390970586
 20
-44.33707943629468
 30
0.0
  0
LINE
  5
37A
330
1F
100
AcDbEntity
  8
0
  6
Continuous
 62
     7
370
    15
100
AcDbLine
 10
108.6350768535
 20
16.8922699865
 30
0.0
 11
106.8113311856
 21
16.1310106393
 31
0.0
  0
LINE
  5
37B
330
1F
100
AcDbEntity
  8
0
  6
Continuous
 62
     7
370
    15
100
AcDbLine
 10
113.2798060506
 20
0.5284014966
 30
0.0
 11
115.1028364628
 21
1.277702662
 31
0.0
  0
SPLINE
  5
37C
330
1F
100
AcDbEntity
  8
0
  6
Continuous
 62
     7
370
    15
100
AcDbSpline
210
0.0
220
0.0
230
1.0
 70
     8
 71
     3
 72
    51
 73
    47
 74
     0
 42
0.00000001
 43
0.00000001
 12
1.0
 22
0.0
 32
0.0
 13
1.0
 23
0.0
 33
0.0
 40
0.0
 40
0.0
 40
0.0
 40
0.0
 40
0.0312500000000002
 40
0.0312500000000002
 40
0.0625000000000005
 40
0.0625000000000005
 40
0.125000000000001
 40
0.125000000000001
 40
0.1562500000000014
 40
0.1562500000000014
 40
0.1875000000000018
 40
0.1875000000000018
 40
0.2500000000000017
 40
0.2500000000000017
 40
0.2812500000000012
 40
0.2812500000000012
 40
0.3125000000000007
 40
0.3125000000000007
 40
0.375
 40
0.375
 40
0.4374999999999993
 40
0.4374999999999993
 40
0.4687499999999992
 40
0.4687499999999992
 40
0.4999999999999992
 40
0.4999999999999992
 40
0.5624999999999997
 40
0.5624999999999997
 40
0.6250000000000002
 40
0.6250000000000002
 40
0.6875000000000007
 40
0.6875000000000007
 40
0.718750000000001
 40
0.718750000000001
 40
0.7500000000000012
 40
0.7812500000000014
 40
0.7812500000000014
 40
0.8125000000000017
 40
0.8125000000000017
 40
0.8750000000000022
 40
0.8750000000000022
 40
0.9062500000000017
 40
0.9062500000000017
 40
0.9375000000000011
 40
0.9375000000000011
 40
1.0
 40
1.0
 40
1.0
 40
1.0
 10
115.1028390970587
 20
1.277702039451184
 30
0.0
 10
115.3576603780587
 20
1.382437726159879
 30
0.0
 10
115.6072959871512
 20
1.499577545600192
 30
0.0
 10
116.0960637167722
 20
1.758980678717339
 30
0.0
 10
116.3363380342344
 20
1.902025651551061
 30
0.0
 10
117.0322105827804
 20
2.364636027569821
 30
0.0
 10
117.4592206132203
 20
2.714029604722154
 30
0.0
 10
118.0459343800129
 20
3.297865581413168
 30
0.0
 10
118.2324738357054
 20
3.502507255571098
 30
0.0
 10
118.5869513706465
 20
3.932445897945211
 30
0.0
 10
118.7539669644691
 20
4.156872829231897
 30
0.0
 10
119.2164472581012
 20
4.846571456532192
 30
0.0
 10
119.4772884570849
 20
5.332319883481929
 30
0.0
 10
119.7970188579858
 20
6.100032544197519
 30
0.0
 10
119.8919983434008
 20
6.364025740641786
 30
0.0
 10
120.0541875960222
 20
6.896380606553326
 30
0.0
 10
120.1216317305049
 20
7.164793333668491
 30
0.0
 10
120.2840222012406
 20
7.976571428718461
 30
0.0
 10
120.3394171853672
 20
8.526412745708807
 30
0.0
 10
120.3404559728623
 20
9.6440625086801
 30
0.0
 10
120.2857878615128
 20
10.19622017367544
 30
0.0
 10
120.1247276008738
 20
11.00815271600721
 30
0.0
 10
120.0577669946828
 20
11.27644050280587
 30
0.0
 10
119.8967499952906
 20
11.80820594186797
 30
0.0
 10
119.8021137881879
 20
12.07280172861467
 30
0.0
 10
119.4828587782062
 20
12.84293574484153
 30
0.0
 10
119.2223836580555
 20
13.3294870714618
 30
0.0
 10
118.607412758062
 20
14.24955545789053
 30
0.0
 10
118.2491883723132
 20
14.68540525846307
 30
0.0
 10
117.4665294770887
 20
15.46630694671169
 30
0.0
 10
117.0397234997028
 20
15.81627404864373
 30
0.0
 10
116.3452370750453
 20
16.2792836432681
 30
0.0
 10
116.104285394378
 20
16.42319495232288
 30
0.0
 10
115.614710342476
 20
16.68376975376554
 30
0.0
 10
115.11491871415
 20
16.91893301407738
 30
0.0
 10
114.5950395866438
 20
17.10412953990349
 30
0.0
 10
114.0649970354946
 20
17.26404324057171
 30
0.0
 10
113.7935588317286
 20
17.33160401376057
 30
0.0
 10
112.9732123533924
 20
17.49295560459008
 30
0.0
 10
112.4238147604274
 20
17.54535333167534
 30
0.0
 10
111.5960840341883
 20
17.54363853777459
 30
0.0
 10
111.3195636573314
 20
17.52958451323865
 30
0.0
 10
110.7652679447836
 20
17.47372915832871
 30
0.0
 10
110.4887201073513
 20
17.43189519006257
 30
0.0
 10
109.6746665332948
 20
17.26753014044241
 30
0.0
 10
109.1471982517653
 20
17.10603994275553
 30
0.0
 10
108.6350733840202
 20
16.89226974212034
 30
0.0
  0
LINE
  5
37D
330
1F
100
AcDbEntity
  8
0
  6
Continuous
 62
     7
370
    15
100
AcDbLine
 10
60.765985
 20
55.6145541247
 30
0.0
 11
60.014634925
 21
53.7865392741
 31
0.0
  0
LINE
  5
37E
330
1F
100
AcDbEntity
  8
0
  6
Continuous
 62
     7
370
    15
100
AcDbLine
 10
75.6210736661
 20
47.3273180302
 30
0.0
 11
76.3805523246
 21
49.1467945155
 31
0.0
  0
SPLINE
  5
37F
330
1F
100
AcDbEntity
  8
0
  6
Continuous
 62
     7
370
    15
100
AcDbSpline
210
0.0
220
0.0
230
1.0
 70
     8
 71
     3
 72
    49
 73
    45
 74
     0
 42
0.00000001
 43
0.00000001
 12
1.0
 22
0.0
 32
0.0
 13
1.0
 23
0.0
 33
0.0
 40
0.0
 40
0.0
 40
0.0
 40
0.0
 40
0.0624999999999966
 40
0.0624999999999966
 40
0.1249999999999932
 40
0.1249999999999932
 40
0.1874999999999898
 40
0.1874999999999898
 40
0.2187499999999889
 40
0.2187499999999889
 40
0.249999999999988
 40
0.2812499999999871
 40
0.2812499999999871
 40
0.3124999999999862
 40
0.3124999999999862
 40
0.3749999999999848
 40
0.3749999999999848
 40
0.4062499999999841
 40
0.4062499999999841
 40
0.4374999999999834
 40
0.4374999999999834
 40
0.4999999999999836
 40
0.4999999999999836
 40
0.5312499999999843
 40
0.5312499999999843
 40
0.562499999999985
 40
0.562499999999985
 40
0.6249999999999872
 40
0.6249999999999872
 40
0.6874999999999893
 40
0.6874999999999893
 40
0.7187499999999907
 40
0.7187499999999907
 40
0.749999999999992
 40
0.749999999999992
 40
0.8124999999999942
 40
0.8124999999999942
 40
0.8749999999999966
 40
0.8749999999999966
 40
0.9374999999999988
 40
0.9374999999999988
 40
0.9687499999999993
 40
0.9687499999999993
 40
1.0
 40
1.0
 40
1.0
 40
1.0
 10
76.38055208017866
 20
49.14679104596204
 30
0.0
 10
76.5942622781062
 20
49.65877216645601
 30
0.0
 10
76.75559058671999
 20
50.18577483903248
 30
0.0
 10
76.97460210917359
 20
51.26949901372805
 30
0.0
 10
77.03125777121255
 20
51.83015877716328
 30
0.0
 10
77.0337213961021
 20
52.93457808050698
 30
0.0
 10
76.98133118602291
 20
53.48367906844979
 30
0.0
 10
76.8204971046833
 20
54.30255735732541
 30
0.0
 10
76.75285525493824
 20
54.57477098828798
 30
0.0
 10
76.59283568087555
 20
55.10553948271367
 30
0.0
 10
76.40757300137865
 20
55.62576742638415
 30
0.0
 10
76.17261907788536
 20
56.12524481349442
 30
0.0
 10
75.91249388670462
 20
56.61421025384899
 30
0.0
 10
75.76904965546017
 20
56.85459628869075
 30
0.0
 10
75.30529591339433
 20
57.55059638140396
 30
0.0
 10
74.95509905309459
 20
57.97762118111753
 30
0.0
 10
74.36997370085868
 20
58.56423556888353
 30
0.0
 10
74.1648879734384
 20
58.7507214423511
 30
0.0
 10
73.73402557627561
 20
59.10504486211243
 30
0.0
 10
73.50924451913166
 20
59.27186612120668
 30
0.0
 10
72.81841426083021
 20
59.73378057871363
 30
0.0
 10
72.33192106486092
 20
59.99416406309608
 30
0.0
 10
71.56308708766431
 20
60.31306131070111
 30
0.0
 10
71.29872705354293
 20
60.40772646243265
 30
0.0
 10
70.7659938184929
 20
60.56916269349106
 30
0.0
 10
70.49740240694702
 20
60.63622448221819
 30
0.0
 10
69.68511685274922
 20
60.79744130324712
 30
0.0
 10
69.13497516879224
 20
60.85201939931046
 30
0.0
 10
68.01679147583143
 20
60.85129281508429
 30
0.0
 10
67.46532458167499
 20
60.79579133817533
 30
0.0
 10
66.65378317870727
 20
60.63351224112285
 30
0.0
 10
66.38563009264227
 20
60.56614941280174
 30
0.0
 10
65.85414511892928
 20
60.40432591938442
 30
0.0
 10
65.58983102663265
 20
60.30932562483298
 30
0.0
 10
64.8208562926862
 20
59.98919631350983
 30
0.0
 10
64.33501330360835
 20
59.7282148200799
 30
0.0
 10
63.41629810359045
 20
59.1122805517949
 30
0.0
 10
62.98135687838771
 20
58.75378735496072
 30
0.0
 10
62.20226061324217
 20
57.97092251930476
 30
0.0
 10
61.85308127121412
 20
57.54403933505107
 30
0.0
 10
61.39116126319411
 20
56.84940599164077
 30
0.0
 10
61.24769581833417
 20
56.60855891827916
 30
0.0
 10
60.98793527246531
 20
56.11919356832421
 30
0.0
 10
60.87072617193519
 20
55.86939290003833
 30
0.0
 10
60.76598437750952
 20
55.61455675900059
 30
0.0
  0
LINE
  5
380
330
1F
100
AcDbEntity
  8
0
  6
Continuous
 62
     7
370
    15
100
AcDbLine
 10
-0.4633650453
 20
49.1467945155
 30
0.0
 11
0.2978943019
 21
47.3230488475
 31
0.0
  0
LINE
  5
381
330
1F
100
AcDbEntity
  8
0
  6
Continuous
 62
     7
370
    15
100
AcDbLine
 10
15.9005034446
 20
53.7915237125
 30
0.0
 11
15.1512022792
 21
55.6145541247
 31
0.0
  0
SPLINE
  5
382
330
1F
100
AcDbEntity
  8
0
  6
Continuous
 62
     7
370
    15
100
AcDbSpline
210
0.0
220
0.0
230
1.0
 70
     8
 71
     3
 72
    51
 73
    47
 74
     0
 42
0.00000001
 43
0.00000001
 12
1.0
 22
0.0
 32
0.0
 13
1.0
 23
0.0
 33
0.0
 40
0.0
 40
0.0
 40
0.0
 40
0.0
 40
0.0312500000000001
 40
0.0312500000000001
 40
0.0625000000000003
 40
0.0625000000000003
 40
0.1250000000000005
 40
0.1250000000000005
 40
0.1562500000000007
 40
0.1562500000000007
 40
0.1875000000000008
 40
0.1875000000000008
 40
0.2500000000000002
 40
0.2500000000000002
 40
0.2812499999999999
 40
0.2812499999999999
 40
0.3124999999999996
 40
0.3124999999999996
 40
0.3749999999999993
 40
0.3749999999999993
 40
0.4374999999999992
 40
0.4374999999999992
 40
0.4687499999999996
 40
0.4687499999999996
 40
0.5
 40
0.5
 40
0.5625000000000002
 40
0.5625000000000002
 40
0.6250000000000006
 40
0.6250000000000006
 40
0.6875000000000008
 40
0.6875000000000008
 40
0.7187500000000011
 40
0.7187500000000011
 40
0.7500000000000014
 40
0.7812500000000019
 40
0.7812500000000019
 40
0.8125000000000022
 40
0.8125000000000022
 40
0.8750000000000014
 40
0.8750000000000014
 40
0.9062500000000011
 40
0.9062500000000011
 40
0.9375000000000009
 40
0.9375000000000009
 40
1.0
 40
1.0
 40
1.0
 40
1.0
 10
15.15120290176419
 20
55.61455675900074
 30
0.0
 10
15.04646721505549
 20
55.86937804000072
 30
0.0
 10
14.92932739561519
 20
56.11901364909314
 30
0.0
 10
14.66992426249804
 20
56.60778137871421
 30
0.0
 10
14.52687928966432
 20
56.84805569617644
 30
0.0
 10
14.06426891364556
 20
57.54392824472235
 30
0.0
 10
13.71487533649322
 20
57.97093827516223
 30
0.0
 10
13.13103935980222
 20
58.55765204195495
 30
0.0
 10
12.9263976856443
 20
58.74419149764736
 30
0.0
 10
12.4964590432702
 20
59.09866903258845
 30
0.0
 10
12.27203211198351
 20
59.26568462641108
 30
0.0
 10
11.5823334846832
 20
59.72816492004327
 30
0.0
 10
11.09658505773346
 20
59.9890061190269
 30
0.0
 10
10.32887239701788
 20
60.30873651992783
 30
0.0
 10
10.06487920057361
 20
60.40371600534285
 30
0.0
 10
9.532524334662083
 20
60.56590525796419
 30
0.0
 10
9.264111607546907
 20
60.63334939244695
 30
0.0
 10
8.45233351249694
 20
60.79573986318259
 30
0.0
 10
7.902492195506584
 20
60.85113484730923
 30
0.0
 10
6.784842432535295
 20
60.85217363480437
 30
0.0
 10
6.232684767539958
 20
60.79750552345486
 30
0.0
 10
5.420752225208179
 20
60.63644526281583
 30
0.0
 10
5.152464438409554
 20
60.56948465662479
 30
0.0
 10
4.620698999347431
 20
60.4084676572327
 30
0.0
 10
4.356103212600729
 20
60.31383145012998
 30
0.0
 10
3.58596919637387
 20
59.99457644014826
 30
0.0
 10
3.099417869753603
 20
59.73410131999758
 30
0.0
 10
2.179349483324843
 20
59.11913042000414
 30
0.0
 10
1.743499682752315
 20
58.76090603425527
 30
0.0
 10
0.9625979945037042
 20
57.97824713903069
 30
0.0
 10
0.6126308925716584
 20
57.55144116164478
 30
0.0
 10
0.1496212979472597
 20
56.85695473698743
 30
0.0
 10
0.0057099888924952
 20
56.61600305632008
 30
0.0
 10
-0.2548648125501596
 20
56.12642800441807
 30
0.0
 10
-0.49002838254978
 20
55.62663650189451
 30
0.0
 10
-0.675224598688115
 20
55.10675724858594
 30
0.0
 10
-0.8351382993563374
 20
54.57671469743669
 30
0.0
 10
-0.9026990725452128
 20
54.30527649367072
 30
0.0
 10
-1.064050663374734
 20
53.48493001533448
 30
0.0
 10
-1.11644839045999
 20
52.9355324223695
 30
0.0
 10
-1.114733596559253
 20
52.10780169613031
 30
0.0
 10
-1.10067957202329
 20
51.83128131927352
 30
0.0
 10
-1.044824217113362
 20
51.27698560672567
 30
0.0
 10
-1.00299024884723
 20
51.00043776929342
 30
0.0
 10
-0.8386251992270679
 20
50.18638419523698
 30
0.0
 10
-0.6771350015401939
 20
49.65891591370742
 30
0.0
 10
-0.4633648009050029
 20
49.14679104596232
 30
0.0
  0
LINE
  5
383
330
1F
100
AcDbEntity
  8
0
  6
Continuous
 62
     7
370
    15
100
AcDbLine
 10
-39.1856491835
 20
1.277702662
 30
0.0
 11
-37.3576343329
 21
0.526352587
 31
0.0
  0
LINE
  5
384
330
1F
100
AcDbEntity
  8
0
  6
Continuous
 62
     7
370
    15
100
AcDbLine
 10
-30.898413089
 20
16.1327913281
 30
0.0
 11
-32.7178895743
 21
16.8922699865
 31
0.0
  0
SPLINE
  5
385
330
1F
100
AcDbEntity
  8
0
  6
Continuous
 62
     7
370
    15
100
AcDbSpline
210
0.0
220
0.0
230
1.0
 70
     8
 71
     3
 72
    49
 73
    45
 74
     0
 42
0.00000001
 43
0.00000001
 12
1.0
 22
0.0
 32
0.0
 13
1.0
 23
0.0
 33
0.0
 40
0.0
 40
0.0
 40
0.0
 40
0.0
 40
0.0625000000000002
 40
0.0625000000000002
 40
0.1250000000000004
 40
0.1250000000000004
 40
0.1875000000000006
 40
0.1875000000000006
 40
0.2187500000000007
 40
0.2187500000000007
 40
0.2500000000000008
 40
0.2812500000000009
 40
0.2812500000000009
 40
0.3125000000000011
 40
0.3125000000000011
 40
0.3750000000000012
 40
0.3750000000000012
 40
0.4062500000000011
 40
0.4062500000000011
 40
0.4375000000000009
 40
0.4375000000000009
 40
0.5000000000000003
 40
0.5000000000000003
 40
0.5312500000000007
 40
0.5312500000000007
 40
0.562500000000001
 40
0.562500000000001
 40
0.625000000000001
 40
0.625000000000001
 40
0.687500000000001
 40
0.687500000000001
 40
0.7187500000000008
 40
0.7187500000000008
 40
0.7500000000000004
 40
0.7500000000000004
 40
0.8125
 40
0.8125
 40
0.8749999999999996
 40
0.8749999999999996
 40
0.9374999999999991
 40
0.9374999999999991
 40
0.9687499999999996
 40
0.9687499999999996
 40
1.0
 40
1.0
 40
1.0
 40
1.0
 10
-32.71788610474708
 20
16.89226974212034
 30
0.0
 10
-33.22986722524102
 20
17.1059799400479
 30
0.0
 10
-33.75686989781752
 20
17.26730824866167
 30
0.0
 10
-34.8405940725131
 20
17.48631977111526
 30
0.0
 10
-35.40125383594832
 20
17.54297543315424
 30
0.0
 10
-36.50567313929204
 20
17.54543905804377
 30
0.0
 10
-37.05477412723486
 20
17.49304884796459
 30
0.0
 10
-37.87365241611047
 20
17.33221476662496
 30
0.0
 10
-38.14586604707302
 20
17.2645729168799
 30
0.0
 10
-38.6766345414987
 20
17.10455334281719
 30
0.0
 10
-39.19686255547627
 20
16.91929083480254
 30
0.0
 10
-39.69633987227942
 20
16.68433673982701
 30
0.0
 10
-40.18530531263401
 20
16.42421154864628
 30
0.0
 10
-40.42569134747581
 20
16.28076731740183
 30
0.0
 10
-41.12169144018895
 20
15.81701357533597
 30
0.0
 10
-41.54871623990252
 20
15.46681671503625
 30
0.0
 10
-42.13533062766854
 20
14.88169136280035
 30
0.0
 10
-42.32181650113614
 20
14.67660563538006
 30
0.0
 10
-42.67613992089748
 20
14.24574323821726
 30
0.0
 10
-42.8429611799917
 20
14.02096218107332
 30
0.0
 10
-43.30487563749864
 20
13.33013192277185
 30
0.0
 10
-43.56525912188109
 20
12.84363872680257
 30
0.0
 10
-43.88415636948615
 20
12.07480474960599
 30
0.0
 10
-43.97882152121768
 20
11.8104447154846
 30
0.0
 10
-44.14025775227613
 20
11.27771148043455
 30
0.0
 10
-44.20731954100319
 20
11.00912006888866
 30
0.0
 10
-44.36853636203213
 20
10.19683451469088
 30
0.0
 10
-44.42311445809548
 20
9.646692830733887
 30
0.0
 10
-44.42238787386928
 20
8.528509137773067
 30
0.0
 10
-44.36688639696033
 20
7.977042243616641
 30
0.0
 10
-44.20460729990785
 20
7.165500840648916
 30
0.0
 10
-44.13724447158674
 20
6.897347754583931
 30
0.0
 10
-43.97542097816943
 20
6.365862780870938
 30
0.0
 10
-43.88042068361799
 20
6.101548688574304
 30
0.0
 10
-43.56029137229486
 20
5.332573954627852
 30
0.0
 10
-43.29930987886488
 20
4.846730965550002
 30
0.0
 10
-42.68337561057989
 20
3.928015765532103
 30
0.0
 10
-42.3248824137457
 20
3.493074540329363
 30
0.0
 10
-41.54201757808972
 20
2.71397827518383
 30
0.0
 10
-41.11513439383605
 20
2.364798933155783
 30
0.0
 10
-40.42050105042578
 20
1.902878925135777
 30
0.0
 10
-40.17965397706416
 20
1.759413480275831
 30
0.0
 10
-39.69028862710923
 20
1.49965293440698
 30
0.0
 10
-39.44048795882332
 20
1.38244383387684
 30
0.0
 10
-39.1856518177856
 20
1.277702039451188
 30
0.0
  0
LINE
  5
386
330
1F
100
AcDbEntity
  8
0
  6
Continuous
 62
     7
370
    15
100
AcDbLine
 10
-32.7178895743
 20
-59.9516473833
 30
0.0
 11
-30.8941439063
 21
-59.1903880361
 31
0.0
  0
LINE
  5
387
330
1F
100
AcDbEntity
  8
0
  6
Continuous
 62
     7
370
    15
100
AcDbLine
 10
-37.3626187713
 20
-43.5877788935
 30
0.0
 11
-39.1856491835
 21
-44.3370800588
 31
0.0
  0
SPLINE
  5
388
330
1F
100
AcDbEntity
  8
0
  6
Continuous
 62
     7
370
    15
100
AcDbSpline
210
0.0
220
0.0
230
1.0
 70
     8
 71
     3
 72
    51
 73
    47
 74
     0
 42
0.00000001
 43
0.00000001
 12
1.0
 22
0.0
 32
0.0
 13
1.0
 23
0.0
 33
0.0
 40
0.0
 40
0.0
 40
0.0
 40
0.0
 40
0.0312500000000002
 40
0.0312500000000002
 40
0.0625000000000005
 40
0.0625000000000005
 40
0.125000000000001
 40
0.125000000000001
 40
0.1562500000000014
 40
0.1562500000000014
 40
0.1875000000000018
 40
0.1875000000000018
 40
0.2500000000000017
 40
0.2500000000000017
 40
0.2812500000000012
 40
0.2812500000000012
 40
0.3125000000000007
 40
0.3125000000000007
 40
0.375
 40
0.375
 40
0.4374999999999993
 40
0.4374999999999993
 40
0.4687499999999992
 40
0.4687499999999992
 40
0.4999999999999992
 40
0.4999999999999992
 40
0.5624999999999997
 40
0.5624999999999997
 40
0.6250000000000002
 40
0.6250000000000002
 40
0.6875000000000007
 40
0.6875000000000007
 40
0.718750000000001
 40
0.718750000000001
 40
0.7500000000000012
 40
0.7812500000000014
 40
0.7812500000000014
 40
0.8125000000000017
 40
0.8125000000000017
 40
0.8750000000000022
 40
0.8750000000000022
 40
0.9062500000000017
 40
0.9062500000000017
 40
0.9375000000000011
 40
0.9375000000000011
 40
1.0
 40
1.0
 40
1.0
 40
1.0
 10
-39.18565181778557
 20
-44.33707943629415
 30
0.0
 10
-39.44047309878556
 20
-44.44181512300285
 30
0.0
 10
-39.69010870787799
 20
-44.55895494244317
 30
0.0
 10
-40.17887643749902
 20
-44.81835807556031
 30
0.0
 10
-40.41915075496127
 20
-44.96140304839403
 30
0.0
 10
-41.11502330350721
 20
-45.4240134244128
 30
0.0
 10
-41.54203333394707
 20
-45.77340700156513
 30
0.0
 10
-42.12874710073975
 20
-46.35724297825614
 30
0.0
 10
-42.31528655643219
 20
-46.56188465241407
 30
0.0
 10
-42.66976409137329
 20
-46.99182329478818
 30
0.0
 10
-42.83677968519591
 20
-47.21625022607487
 30
0.0
 10
-43.29925997882803
 20
-47.90594885337516
 30
0.0
 10
-43.5601011778117
 20
-48.3916972803249
 30
0.0
 10
-43.87983157871262
 20
-49.15940994104049
 30
0.0
 10
-43.97481106412766
 20
-49.42340313748475
 30
0.0
 10
-44.137000316749
 20
-49.9557580033963
 30
0.0
 10
-44.20444445123174
 20
-50.22417073051146
 30
0.0
 10
-44.3668349219674
 20
-51.03594882556143
 30
0.0
 10
-44.422229906094
 20
-51.58579014255178
 30
0.0
 10
-44.42326869358915
 20
-52.70343990552307
 30
0.0
 10
-44.36860058223961
 20
-53.25559757051841
 30
0.0
 10
-44.20754032160063
 20
-54.06753011285019
 30
0.0
 10
-44.14057971540963
 20
-54.33581789964884
 30
0.0
 10
-43.97956271601748
 20
-54.86758333871094
 30
0.0
 10
-43.88492650891474
 20
-55.13217912545764
 30
0.0
 10
-43.56567149893303
 20
-55.90231314168451
 30
0.0
 10
-43.30519637878235
 20
-56.38886446830477
 30
0.0
 10
-42.69022547878886
 20
-57.3089328547335
 30
0.0
 10
-42.33200109304002
 20
-57.74478265530604
 30
0.0
 10
-41.5493421978155
 20
-58.52568434355466
 30
0.0
 10
-41.1225362204296
 20
-58.8756514454867
 30
0.0
 10
-40.42804979577218
 20
-59.33866104011108
 30
0.0
 10
-40.18709811510484
 20
-59.48257234916586
 30
0.0
 10
-39.69752306320281
 20
-59.74314715060851
 30
0.0
 10
-39.19773143487681
 20
-59.97831041092035
 30
0.0
 10
-38.67785230737066
 20
-60.16350693674647
 30
0.0
 10
-38.14780975622144
 20
-60.32342063741468
 30
0.0
 10
-37.87637155245545
 20
-60.39098141060354
 30
0.0
 10
-37.05602507411924
 20
-60.55233300143305
 30
0.0
 10
-36.50662748115423
 20
-60.60473072851831
 30
0.0
 10
-35.67889675491507
 20
-60.60301593461757
 30
0.0
 10
-35.40237637805827
 20
-60.58896191008161
 30
0.0
 10
-34.84808066551041
 20
-60.53310655517168
 30
0.0
 10
-34.57153282807815
 20
-60.49127258690554
 30
0.0
 10
-33.75747925402167
 20
-60.32690753728538
 30
0.0
 10
-33.23001097249214
 20
-60.1654173395985
 30
0.0
 10
-32.71788610474707
 20
-59.95164713896331
 30
0.0
  0
CIRCLE
  5
389
330
1F
100
AcDbEntity
  8
0
  6
Continuous
 62
     8
370
     0
100
AcDbCircle
 10
37.9585936396
 20
-21.5296886984
 30
0.0
 40
57.5
  0
INSERT
  5
395
330
1F
100
AcDbEntity
  8
0
  6
Continuous
 62
     7
370
     0
100
AcDbBlockReference
  2
SW_CENTERMARKSYMBOL_0
 10
37.9585936396
 20
-21.5296886984
 30
0.0
  0
ENDSEC
  0
SECTION
  2
OBJECTS
  0
DICTIONARY
  5
C
330
0
100
AcDbDictionary
281
     1
  3
ACAD_GROUP
350
D
  3
ACAD_LAYOUT
350
1A
  3
ACAD_MLINESTYLE
350
17
  3
ACAD_PLOTSETTINGS
350
19
  3
ACAD_PLOTSTYLENAME
350
E
  0
DICTIONARY
  5
D
102
{ACAD_REACTORS
330
C
102
}
330
C
100
AcDbDictionary
281
     1
  0
DICTIONARY
  5
1A
102
{ACAD_REACTORS
330
C
102
}
330
C
100
AcDbDictionary
281
     1
  3
Layout1
350
1E
  3
Layout2
350
26
  3
Model
350
22
  0
DICTIONARY
  5
17
102
{ACAD_REACTORS
330
C
102
}
330
C
100
AcDbDictionary
281
     1
  3
Standard
350
18
  0
DICTIONARY
  5
19
102
{ACAD_REACTORS
330
C
102
}
330
C
100
AcDbDictionary
281
     1
  0
ACDBDICTIONARYWDFLT
  5
E
102
{ACAD_REACTORS
330
C
102
}
330
C
100
AcDbDictionary
281
     1
  3
Normal
350
F
100
AcDbDictionaryWithDefault
340
F
  0
LAYOUT
  5
1E
102
{ACAD_REACTORS
330
1A
102
}
330
1A
100
AcDbPlotSettings
  1

  2
none_device
  4

  6

 40
0.0
 41
0.0
 42
0.0
 43
0.0
 44
0.0
 45
0.0
 46
0.0
 47
0.0
 48
0.0
 49
0.0
140
0.0
141
0.0
142
1.0
143
1.0
 70
   688
 72
     0
 73
     0
 74
     5
  7

 75
    16
147
1.0
148
0.0
149
0.0
100
AcDbLayout
  1
Layout1
 70
     1
 71
     1
 10
0.0
 20
0.0
 11
420.0
 21
297.0
 12
0.0
 22
0.0
 32
0.0
 14
1.0000000000E+20
 24
1.0000000000E+20
 34
1.0000000000E+20
 15
-1.0000000000E+20
 25
-1.0000000000E+20
 35
-1.0000000000E+20
146
0.0
 13
0.0
 23
0.0
 33
0.0
 16
1.0
 26
0.0
 36
0.0
 17
0.0
 27
1.0
 37
0.0
 76
     0
330
1B
  0
LAYOUT
  5
26
102
{ACAD_REACTORS
330
1A
102
}
330
1A
100
AcDbPlotSettings
  1

  2
none_device
  4

  6

 40
0.0
 41
0.0
 42
0.0
 43
0.0
 44
0.0
 45
0.0
 46
0.0
 47
0.0
 48
0.0
 49
0.0
140
0.0
141
0.0
142
1.0
143
1.0
 70
   688
 72
     0
 73
     0
 74
     5
  7

 75
    16
147
1.0
148
0.0
149
0.0
100
AcDbLayout
  1
Layout2
 70
     1
 71
     2
 10
0.0
 20
0.0
 11
0.0
 21
0.0
 12
0.0
 22
0.0
 32
0.0
 14
0.0
 24
0.0
 34
0.0
 15
0.0
 25
0.0
 35
0.0
146
0.0
 13
0.0
 23
0.0
 33
0.0
 16
1.0
 26
0.0
 36
0.0
 17
0.0
 27
1.0
 37
0.0
 76
     0
330
23
  0
LAYOUT
  5
22
102
{ACAD_REACTORS
330
1A
102
}
330
1A
100
AcDbPlotSettings
  1

  2
none_device
  4

  6

 40
0.0
 41
0.0
 42
0.0
 43
0.0
 44
0.0
 45
0.0
 46
0.0
 47
0.0
 48
0.0
 49
0.0
140
0.0
141
0.0
142
1.0
143
1.0
 70
  1712
 72
     0
 73
     0
 74
     0
  7

 75
     0
147
1.0
148
0.0
149
0.0
100
AcDbLayout
  1
Model
 70
     1
 71
     0
 10
0.0
 20
0.0
 11
431.8
 21
279.4
 12
0.0
 22
0.0
 32
0.0
 14
0.0
 24
0.0
 34
0.0
 15
431.8
 25
279.4
 35
0.0
146
0.0
 13
0.0
 23
0.0
 33
0.0
 16
1.0
 26
0.0
 36
0.0
 17
0.0
 27
1.0
 37
0.0
 76
     0
330
1F
331
29
  0
MLINESTYLE
  5
18
102
{ACAD_REACTORS
330
17
102
}
330
17
100
AcDbMlineStyle
  2
Standard
 70
     0
  3

 62
   256
 51
90.0
 52
90.0
 71
     2
 49
0.5
 62
   256
  6
BYLAYER
 49
-0.5
 62
   256
  6
BYLAYER
  0
ACDBPLACEHOLDER
  5
F
102
{ACAD_REACTORS
330
E
102
}
330
E
  0
ENDSEC
  0
EOF
