  0
SECTION
  2
HEADER
  9
$ACADVER
  1
AC1015
  9
$ACADMAINTVER
 70
     6
  9
$DWGCODEPAGE
  3
ANSI_1252
  9
$INSBASE
 10
0.0
 20
0.0
 30
0.0
  9
$EXTMIN
 10
0.0
 20
0.0
 30
0.0
  9
$EXTMAX
 10
841.0
 20
594.0
 30
0.0
  9
$LIMMIN
 10
0.0
 20
0.0
  9
$LIMMAX
 10
841.0
 20
594.0
  9
$ORTHOMODE
 70
     0
  9
$REGENMODE
 70
     1
  9
$FILLMODE
 70
     1
  9
$QTEXTMODE
 70
     0
  9
$MIRRTEXT
 70
     1
  9
$LTSCALE
 40
1.0
  9
$ATTMODE
 70
     1
  9
$TEXTSIZE
 40
2.5
  9
$TRACEWID
 40
1.0
  9
$TEXTSTYLE
  7
Standard
  9
$CLAYER
  8
0
  9
$CELTYPE
  6
ByLayer
  9
$CECOLOR
 62
   256
  9
$CELTSCALE
 40
1.0
  9
$DISPSILH
 70
     0
  9
$DIMSCALE
 40
1.0
  9
$DIMASZ
 40
2.5
  9
$DIMEXO
 40
1.0
  9
$DIMDLI
 40
3.75
  9
$DIMRND
 40
0.0
  9
$DIMDLE
 40
0.0
  9
$DIMEXE
 40
1.0
  9
$DIMTP
 40
0.0
  9
$DIMTM
 40
0.0
  9
$DIMTXT
 40
2.5
  9
$DIMCEN
 40
2.5
  9
$DIMTSZ
 40
0.0
  9
$DIMTOL
 70
     0
  9
$DIMLIM
 70
     0
  9
$DIMTIH
 70
     1
  9
$DIMTOH
 70
     1
  9
$DIMSE1
 70
     0
  9
$DIMSE2
 70
     0
  9
$DIMTAD
 70
     1
  9
$DIMZIN
 70
     0
  9
$DIMBLK
  1

  9
$DIMASO
 70
     1
  9
$DIMSHO
 70
     1
  9
$DIMPOST
  1

  9
$DIMAPOST
  1

  9
$DIMALT
 70
     0
  9
$DIMALTD
 70
     3
  9
$DIMALTF
 40
0.0393700787
  9
$DIMLFAC
 40
1.0
  9
$DIMTOFL
 70
     1
  9
$DIMTVP
 40
0.0
  9
$DIMTIX
 70
     0
  9
$DIMSOXD
 70
     0
  9
$DIMSAH
 70
     0
  9
$DIMBLK1
  1

  9
$DIMBLK2
  1

  9
$DIMSTYLE
  2
ISO-25
  9
$DIMCLRD
 70
     0
  9
$DIMCLRE
 70
     0
  9
$DIMCLRT
 70
     0
  9
$DIMTFAC
 40
1.0
  9
$DIMGAP
 40
1.524
  9
$DIMJUST
 70
     0
  9
$DIMSD1
 70
     0
  9
$DIMSD2
 70
     0
  9
$DIMTOLJ
 70
     0
  9
$DIMTZIN
 70
     0
  9
$DIMALTZ
 70
     0
  9
$DIMALTTZ
 70
     0
  9
$DIMUPT
 70
     0
  9
$DIMDEC
 70
     2
  9
$DIMTDEC
 70
     2
  9
$DIMALTU
 70
     2
  9
$DIMALTTD
 70
     3
  9
$DIMTXSTY
  7
Standard
  9
$DIMAUNIT
 70
     0
  9
$DIMADEC
 70
     2
  9
$DIMALTRND
 40
0.0
  9
$DIMAZIN
 70
     0
  9
$DIMDSEP
 70
    44
  9
$DIMATFIT
 70
     3
  9
$DIMFRAC
 70
     0
  9
$DIMLDRBLK
  1

  9
$DIMLUNIT
 70
     2
  9
$DIMLWD
 70
    -2
  9
$DIMLWE
 70
    -2
  9
$DIMTMOVE
 70
     0
  9
$LUNITS
 70
     2
  9
$LUPREC
 70
     2
  9
$SKETCHINC
 40
1.0
  9
$FILLETRAD
 40
10.0
  9
$AUNITS
 70
     0
  9
$AUPREC
 70
     2
  9
$MENU
  1
.
  9
$ELEVATION
 40
0.0
  9
$PELEVATION
 40
0.0
  9
$THICKNESS
 40
0.0
  9
$LIMCHECK
 70
     0
  9
$CHAMFERA
 40
10.0
  9
$CHAMFERB
 40
10.0
  9
$CHAMFERC
 40
20.0
  9
$CHAMFERD
 40
0.0
  9
$SKPOLY
 70
     0
  9
$TDCREATE
 40
2457457.488250428
  9
$TDUCREATE
 40
2457457.446583761
  9
$TDUPDATE
 40
2457457.488251516
  9
$TDUUPDATE
 40
2457457.44658485
  9
$TDINDWG
 40
0.0000000116
  9
$TDUSRTIMER
 40
0.0000000116
  9
$USRTIMER
 70
     1
  9
$ANGBASE
 50
0.0
  9
$ANGDIR
 70
     0
  9
$PDMODE
 70
     0
  9
$PDSIZE
 40
-1.0
  9
$PLINEWID
 40
0.0
  9
$SPLFRAME
 70
     0
  9
$SPLINETYPE
 70
     6
  9
$SPLINESEGS
 70
     8
  9
$HANDSEED
  5
3B7
  9
$SURFTAB1
 70
     6
  9
$SURFTAB2
 70
     6
  9
$SURFTYPE
 70
     6
  9
$SURFU
 70
     6
  9
$SURFV
 70
     6
  9
$UCSBASE
  2

  9
$UCSNAME
  2

  9
$UCSORG
 10
0.0
 20
0.0
 30
0.0
  9
$UCSXDIR
 10
1.0
 20
0.0
 30
0.0
  9
$UCSYDIR
 10
0.0
 20
1.0
 30
0.0
  9
$UCSORTHOREF
  2

  9
$UCSORTHOVIEW
 70
     0
  9
$UCSORGTOP
 10
0.0
 20
0.0
 30
0.0
  9
$UCSORGBOTTOM
 10
0.0
 20
0.0
 30
0.0
  9
$UCSORGLEFT
 10
0.0
 20
0.0
 30
0.0
  9
$UCSORGRIGHT
 10
0.0
 20
0.0
 30
0.0
  9
$UCSORGFRONT
 10
0.0
 20
0.0
 30
0.0
  9
$UCSORGBACK
 10
0.0
 20
0.0
 30
0.0
  9
$PUCSBASE
  2

  9
$PUCSNAME
  2

  9
$PUCSORG
 10
0.0
 20
0.0
 30
0.0
  9
$PUCSXDIR
 10
1.0
 20
0.0
 30
0.0
  9
$PUCSYDIR
 10
0.0
 20
1.0
 30
0.0
  9
$PUCSORTHOREF
  2

  9
$PUCSORTHOVIEW
 70
     0
  9
$PUCSORGTOP
 10
0.0
 20
0.0
 30
0.0
  9
$PUCSORGBOTTOM
 10
0.0
 20
0.0
 30
0.0
  9
$PUCSORGLEFT
 10
0.0
 20
0.0
 30
0.0
  9
$PUCSORGRIGHT
 10
0.0
 20
0.0
 30
0.0
  9
$PUCSORGFRONT
 10
0.0
 20
0.0
 30
0.0
  9
$PUCSORGBACK
 10
0.0
 20
0.0
 30
0.0
  9
$USERI1
 70
     0
  9
$USERI2
 70
     0
  9
$USERI3
 70
     0
  9
$USERI4
 70
     0
  9
$USERI5
 70
     0
  9
$USERR1
 40
0.0
  9
$USERR2
 40
0.0
  9
$USERR3
 40
0.0
  9
$USERR4
 40
0.0
  9
$USERR5
 40
0.0
  9
$WORLDVIEW
 70
     1
  9
$SHADEDGE
 70
     3
  9
$SHADEDIF
 70
    70
  9
$TILEMODE
 70
     1
  9
$MAXACTVP
 70
    64
  9
$PINSBASE
 10
0.0
 20
0.0
 30
0.0
  9
$PLIMCHECK
 70
     0
  9
$PEXTMIN
 10
1.0000000000E+20
 20
1.0000000000E+20
 30
1.0000000000E+20
  9
$PEXTMAX
 10
-1.0000000000E+20
 20
-1.0000000000E+20
 30
-1.0000000000E+20
  9
$PLIMMIN
 10
0.0
 20
0.0
  9
$PLIMMAX
 10
420.0
 20
297.0
  9
$UNITMODE
 70
     0
  9
$VISRETAIN
 70
     1
  9
$PLINEGEN
 70
     0
  9
$PSLTSCALE
 70
     1
  9
$TREEDEPTH
 70
  3020
  9
$CMLSTYLE
  2
Standard
  9
$CMLJUST
 70
     0
  9
$CMLSCALE
 40
20.0
  9
$PROXYGRAPHICS
 70
     1
  9
$MEASUREMENT
 70
     1
  9
$CELWEIGHT
370
    -1
  9
$ENDCAPS
280
     0
  9
$JOINSTYLE
280
     0
  9
$LWDISPLAY
290
     1
  9
$INSUNITS
 70
     4
  9
$HYPERLINKBASE
  1

  9
$STYLESHEET
  1

  9
$XEDIT
290
     1
  9
$CEPSNTYPE
380
     0
  9
$PSTYLEMODE
290
     1
  9
$FINGERPRINTGUID
  2
{A1F77078-C139-4ED9-AEB1-998EB7DBD256}
  9
$VERSIONGUID
  2
{FAEB1C32-E019-11D5-929B-00C0DF256EC4}
  9
$EXTNAMES
290
     1
  9
$PSVPSCALE
 40
0.0
  9
$OLESTARTUP
290
     0
  0
ENDSEC
  0
SECTION
  2
CLASSES
  0
CLASS
  1
ACDBDICTIONARYWDFLT
  2
AcDbDictionaryWithDefault
  3
ObjectDBX Classes
 90
        0
280
     0
281
     0
  0
CLASS
  1
VISUALSTYLE
  2
AcDbVisualStyle
  3
ObjectDBX Classes
 90
     4095
280
     0
281
     0
  0
CLASS
  1
MATERIAL
  2
AcDbMaterial
  3
ObjectDBX Classes
 90
     1153
280
     0
281
     0
  0
CLASS
  1
ACDBPLACEHOLDER
  2
AcDbPlaceHolder
  3
ObjectDBX Classes
 90
        0
280
     0
281
     0
  0
CLASS
  1
LAYOUT
  2
AcDbLayout
  3
ObjectDBX Classes
 90
        0
280
     0
281
     0
  0
ENDSEC
  0
SECTION
  2
TABLES
  0
TABLE
  2
VPORT
  5
8
330
0
100
AcDbSymbolTable
 70
     1
  0
VPORT
  5
29
330
8
100
AcDbSymbolTableRecord
100
AcDbViewportTableRecord
  2
*Active
 70
     0
 10
0.0
 20
0.0
 11
1.0
 21
1.0
 12
420.5
 22
297.0
 13
0.0
 23
0.0
 14
10.0
 24
10.0
 15
10.0
 25
10.0
 16
0.0
 26
0.0
 36
1.0
 17
0.0
 27
0.0
 37
0.0
 40
594.0
 41
1.4158249158
 42
50.0
 43
0.0
 44
0.0
 50
0.0
 51
0.0
 71
     0
 72
  2000
 73
     1
 74
     3
 75
     0
 76
     0
 77
     0
 78
     0
281
     0
 65
     1
110
0.0
120
0.0
130
0.0
111
1.0
121
0.0
131
0.0
112
0.0
122
1.0
132
0.0
 79
     0
146
0.0
  0
ENDTAB
  0
TABLE
  2
LTYPE
  5
5
330
0
100
AcDbSymbolTable
 70
     6
  0
LTYPE
  5
14
330
5
100
AcDbSymbolTableRecord
100
AcDbLinetypeTableRecord
  2
ByBlock
 70
     0
  3

 72
    65
 73
     0
 40
0.0
  0
LTYPE
  5
15
330
5
100
AcDbSymbolTableRecord
100
AcDbLinetypeTableRecord
  2
ByLayer
 70
     0
  3

 72
    65
 73
     0
 40
0.0
  0
LTYPE
  5
16
330
5
100
AcDbSymbolTableRecord
100
AcDbLinetypeTableRecord
  2
Continuous
 70
     0
  3
Solid line
 72
    65
 73
     0
 40
0.0
  0
LTYPE
  5
3F
330
5
100
AcDbSymbolTableRecord
100
AcDbLinetypeTableRecord
  2
HIDDEN
 70
     0
  3
Hidden __ __ __ __ __ __ __ __ __ __ __ __ __ __
 72
    65
 73
     2
 40
1.905
 49
1.27
 74
     0
 49
-0.635
 74
     0
  0
LTYPE
  5
40
330
5
100
AcDbSymbolTableRecord
100
AcDbLinetypeTableRecord
  2
PHANTOM
 70
     0
  3
Phantom ______  __  __  ______  __  __  ______
 72
    65
 73
     6
 40
12.7
 49
6.35
 74
     0
 49
-1.27
 74
     0
 49
1.27
 74
     0
 49
-1.27
 74
     0
 49
1.27
 74
     0
 49
-1.27
 74
     0
  0
LTYPE
  5
41
330
5
100
AcDbSymbolTableRecord
100
AcDbLinetypeTableRecord
  2
CENTER
 70
     0
  3
Center ____ _ ____ _ ____ _ ____ _ ____ _ ____
 72
    65
 73
     4
 40
10.16
 49
6.35
 74
     0
 49
-1.27
 74
     0
 49
1.27
 74
     0
 49
-1.27
 74
     0
  0
LTYPE
  5
42
330
5
100
AcDbSymbolTableRecord
100
AcDbLinetypeTableRecord
  2
CENTERX2
 70
     0
  3
Center (2x) ________  __  ________  __  _____
 72
    65
 73
     4
 40
20.32
 49
12.7
 74
     0
 49
-2.54
 74
     0
 49
2.54
 74
     0
 49
-2.54
 74
     0
  0
LTYPE
  5
43
330
5
100
AcDbSymbolTableRecord
100
AcDbLinetypeTableRecord
  2
DOT2
 70
     0
  3
Dot (.5x) ........................................
 72
    65
 73
     2
 40
0.635
 49
0.0
 74
     0
 49
-0.635
 74
     0
  0
ENDTAB
  0
TABLE
  2
LAYER
  5
2
330
0
100
AcDbSymbolTable
 70
     5
  0
LAYER
  5
10
330
2
100
AcDbSymbolTableRecord
100
AcDbLayerTableRecord
  2
0
 70
     0
 62
     7
  6
Continuous
370
    -3
390
F
  0
LAYER
  5
44
330
2
100
AcDbSymbolTableRecord
100
AcDbLayerTableRecord
  2
FORMAT
 70
     0
 62
     7
  6
Continuous
370
    -3
390
F
  0
LAYER
  5
45
330
2
100
AcDbSymbolTableRecord
100
AcDbLayerTableRecord
  2
PROTOTYPE
 70
     0
 62
     7
  6
Continuous
370
    -3
390
F
  0
LAYER
  5
46
330
2
100
AcDbSymbolTableRecord
100
AcDbLayerTableRecord
  2
TECH_TEXT
 70
     0
 62
     7
  6
Continuous
370
    -3
390
F
  0
LAYER
  5
47
330
2
100
AcDbSymbolTableRecord
100
AcDbLayerTableRecord
  2
TOOLING_TABLE
 70
     0
 62
    -7
  6
Continuous
370
    -3
390
F
  0
ENDTAB
  0
TABLE
  2
STYLE
  5
3
330
0
100
AcDbSymbolTable
 70
     2
  0
STYLE
  5
11
330
3
100
AcDbSymbolTableRecord
100
AcDbTextStyleTableRecord
  2
Standard
 70
     0
 40
0.0
 41
1.0
 50
0.0
 71
     0
 42
2.5
  3
txt
  4

  0
STYLE
  5
52
330
3
100
AcDbSymbolTableRecord
100
AcDbTextStyleTableRecord
  2
SLDTEXTSTYLE0
 70
     0
 40
0.0
 41
0.605
 50
0.0
 71
     0
 42
0.2
  3
TXT
  4

  0
ENDTAB
  0
TABLE
  2
VIEW
  5
6
330
0
100
AcDbSymbolTable
 70
     0
  0
ENDTAB
  0
TABLE
  2
UCS
  5
7
330
0
100
AcDbSymbolTable
 70
     0
  0
ENDTAB
  0
TABLE
  2
APPID
  5
9
330
0
100
AcDbSymbolTable
 70
     1
  0
APPID
  5
12
330
9
100
AcDbSymbolTableRecord
100
AcDbRegAppTableRecord
  2
ACAD
 70
     0
  0
ENDTAB
  0
TABLE
  2
DIMSTYLE
  5
A
330
0
100
AcDbSymbolTable
 70
     1
100
AcDbDimStyleTable
  0
DIMSTYLE
105
27
330
A
100
AcDbSymbolTableRecord
100
AcDbDimStyleTableRecord
  2
ISO-25
 70
     0
 41
2.5
 42
0.625
 43
3.75
 44
1.25
 73
     0
 74
     0
 77
     1
 78
     8
140
2.5
141
2.5
143
0.0393700787
147
0.625
171
     3
172
     1
178
     0
271
     2
272
     2
274
     3
278
    44
283
     0
284
     8
340
11
  0
ENDTAB
  0
TABLE
  2
BLOCK_RECORD
  5
1
330
0
100
AcDbSymbolTable
 70
    12
  0
BLOCK_RECORD
  5
1F
330
1
100
AcDbSymbolTableRecord
100
AcDbBlockTableRecord
  2
*Model_Space
340
22
  0
BLOCK_RECORD
  5
1B
330
1
100
AcDbSymbolTableRecord
100
AcDbBlockTableRecord
  2
*Paper_Space
340
1E
  0
BLOCK_RECORD
  5
23
330
1
100
AcDbSymbolTableRecord
100
AcDbBlockTableRecord
  2
*Paper_Space0
340
26
  0
BLOCK_RECORD
  5
F0
330
1
100
AcDbSymbolTableRecord
100
AcDbBlockTableRecord
  2
SW_CENTERMARKSYMBOL_0
340
0
102
{BLKREFS
331
14F
102
}
  0
BLOCK_RECORD
  5
1E3
330
1
100
AcDbSymbolTableRecord
100
AcDbBlockTableRecord
  2
SW_CENTERMARKSYMBOL_1
340
0
102
{BLKREFS
331
1EE
102
}
  0
BLOCK_RECORD
  5
1EF
330
1
100
AcDbSymbolTableRecord
100
AcDbBlockTableRecord
  2
SW_CENTERMARKSYMBOL_2
340
0
102
{BLKREFS
331
1FA
102
}
  0
BLOCK_RECORD
  5
1FB
330
1
100
AcDbSymbolTableRecord
100
AcDbBlockTableRecord
  2
SW_CENTERMARKSYMBOL_3
340
0
102
{BLKREFS
331
206
102
}
  0
BLOCK_RECORD
  5
207
330
1
100
AcDbSymbolTableRecord
100
AcDbBlockTableRecord
  2
SW_CENTERMARKSYMBOL_4
340
0
102
{BLKREFS
331
212
102
}
  0
BLOCK_RECORD
  5
353
330
1
100
AcDbSymbolTableRecord
100
AcDbBlockTableRecord
  2
SW_CENTERMARKSYMBOL_5
340
0
102
{BLKREFS
331
35E
102
}
  0
BLOCK_RECORD
  5
35F
330
1
100
AcDbSymbolTableRecord
100
AcDbBlockTableRecord
  2
SW_CENTERMARKSYMBOL_6
340
0
102
{BLKREFS
331
36A
102
}
  0
BLOCK_RECORD
  5
36B
330
1
100
AcDbSymbolTableRecord
100
AcDbBlockTableRecord
  2
SW_CENTERMARKSYMBOL_7
340
0
102
{BLKREFS
331
376
102
}
  0
BLOCK_RECORD
  5
377
330
1
100
AcDbSymbolTableRecord
100
AcDbBlockTableRecord
  2
SW_CENTERMARKSYMBOL_8
340
0
102
{BLKREFS
331
382
102
}
  0
BLOCK_RECORD
  5
383
330
1
100
AcDbSymbolTableRecord
100
AcDbBlockTableRecord
  2
SW_CENTERMARKSYMBOL_9
340
0
102
{BLKREFS
331
38E
102
}
  0
BLOCK_RECORD
  5
38F
330
1
100
AcDbSymbolTableRecord
100
AcDbBlockTableRecord
  2
SW_CENTERMARKSYMBOL_10
340
0
102
{BLKREFS
331
3B6
102
}
  0
ENDTAB
  0
ENDSEC
  0
SECTION
  2
BLOCKS
  0
BLOCK
  5
20
330
1F
100
AcDbEntity
  8
0
100
AcDbBlockBegin
  2
*Model_Space
 70
     0
 10
0.0
 20
0.0
 30
0.0
  3
*Model_Space
  1

  0
ENDBLK
  5
21
330
1F
100
AcDbEntity
  8
0
100
AcDbBlockEnd
  0
BLOCK
  5
1C
330
1B
100
AcDbEntity
 67
     1
  8
0
100
AcDbBlockBegin
  2
*Paper_Space
 70
     0
 10
0.0
 20
0.0
 30
0.0
  3
*Paper_Space
  1

  0
ENDBLK
  5
1D
330
1B
100
AcDbEntity
 67
     1
  8
0
100
AcDbBlockEnd
  0
BLOCK
  5
24
330
23
100
AcDbEntity
  8
0
100
AcDbBlockBegin
  2
*Paper_Space0
 70
     0
 10
0.0
 20
0.0
 30
0.0
  3
*Paper_Space0
  1

  0
ENDBLK
  5
25
330
23
100
AcDbEntity
  8
0
100
AcDbBlockEnd
  0
BLOCK
  5
F1
330
F0
100
AcDbEntity
  8
0
100
AcDbBlockBegin
  2
SW_CENTERMARKSYMBOL_0
 70
     0
 10
0.0
 20
0.0
 30
0.0
  3
SW_CENTERMARKSYMBOL_0
  1

  0
ARC
  5
F3
330
F0
100
AcDbEntity
  8
FORMAT
 62
     0
100
AcDbCircle
 10
-38.1758091526
 20
-142.4740593776
 30
0.0
 40
147.5000000000003
100
AcDbArc
 50
75.0
 51
75.971114907
  0
ARC
  5
F4
330
F0
100
AcDbEntity
  8
FORMAT
 62
     0
100
AcDbCircle
 10
-38.1758091526
 20
-142.4740593776
 30
0.0
 40
147.5000000000003
100
AcDbArc
 50
74.028885093
 51
75.0
  0
ARC
  5
F5
330
F0
100
AcDbEntity
  8
FORMAT
 62
     0
100
AcDbCircle
 10
-38.1758091526
 20
-142.4740593776
 30
0.0
 40
147.5000000000003
100
AcDbArc
 50
45.0
 51
45.971114907
  0
ARC
  5
F6
330
F0
100
AcDbEntity
  8
FORMAT
 62
     0
100
AcDbCircle
 10
-38.1758091526
 20
-142.4740593776
 30
0.0
 40
147.5000000000003
100
AcDbArc
 50
44.028885093
 51
45.0
  0
ARC
  5
F7
330
F0
100
AcDbEntity
  8
FORMAT
 62
     0
100
AcDbCircle
 10
-38.1758091526
 20
-142.4740593776
 30
0.0
 40
147.5000000000002
100
AcDbArc
 50
15.0
 51
15.971114907
  0
ARC
  5
F8
330
F0
100
AcDbEntity
  8
FORMAT
 62
     0
100
AcDbCircle
 10
-38.1758091526
 20
-142.4740593776
 30
0.0
 40
147.5000000000002
100
AcDbArc
 50
14.028885093
 51
15.0
  0
ARC
  5
F9
330
F0
100
AcDbEntity
  8
FORMAT
 62
     0
100
AcDbCircle
 10
-38.1758091526
 20
-142.4740593776
 30
0.0
 40
147.5000000000002
100
AcDbArc
 50
345.0
 51
345.971114907
  0
ARC
  5
FA
330
F0
100
AcDbEntity
  8
FORMAT
 62
     0
100
AcDbCircle
 10
-38.1758091526
 20
-142.4740593776
 30
0.0
 40
147.5000000000002
100
AcDbArc
 50
344.028885093
 51
345.0
  0
ARC
  5
FB
330
F0
100
AcDbEntity
  8
FORMAT
 62
     0
100
AcDbCircle
 10
-38.1758091526
 20
-142.4740593776
 30
0.0
 40
147.5
100
AcDbArc
 50
315.0
 51
315.971114907
  0
ARC
  5
FC
330
F0
100
AcDbEntity
  8
FORMAT
 62
     0
100
AcDbCircle
 10
-38.1758091526
 20
-142.4740593776
 30
0.0
 40
147.5
100
AcDbArc
 50
314.028885093
 51
315.0
  0
ARC
  5
FD
330
F0
100
AcDbEntity
  8
FORMAT
 62
     0
100
AcDbCircle
 10
-38.1758091526
 20
-142.4740593776
 30
0.0
 40
147.4999999999999
100
AcDbArc
 50
285.0
 51
285.971114907
  0
ARC
  5
FE
330
F0
100
AcDbEntity
  8
FORMAT
 62
     0
100
AcDbCircle
 10
-38.1758091526
 20
-142.4740593776
 30
0.0
 40
147.4999999999999
100
AcDbArc
 50
284.028885093
 51
285.0
  0
ARC
  5
FF
330
F0
100
AcDbEntity
  8
FORMAT
 62
     0
100
AcDbCircle
 10
-38.1758091526
 20
-142.4740593776
 30
0.0
 40
147.4999999999998
100
AcDbArc
 50
255.0
 51
255.971114907
  0
ARC
  5
100
330
F0
100
AcDbEntity
  8
FORMAT
 62
     0
100
AcDbCircle
 10
-38.1758091526
 20
-142.4740593776
 30
0.0
 40
147.4999999999998
100
AcDbArc
 50
254.028885093
 51
255.0
  0
ARC
  5
101
330
F0
100
AcDbEntity
  8
FORMAT
 62
     0
100
AcDbCircle
 10
-38.1758091526
 20
-142.4740593776
 30
0.0
 40
147.4999999999997
100
AcDbArc
 50
225.0
 51
225.971114907
  0
ARC
  5
102
330
F0
100
AcDbEntity
  8
FORMAT
 62
     0
100
AcDbCircle
 10
-38.1758091526
 20
-142.4740593776
 30
0.0
 40
147.4999999999997
100
AcDbArc
 50
224.028885093
 51
225.0
  0
ARC
  5
103
330
F0
100
AcDbEntity
  8
FORMAT
 62
     0
100
AcDbCircle
 10
-38.1758091526
 20
-142.4740593776
 30
0.0
 40
147.4999999999997
100
AcDbArc
 50
195.0
 51
195.971114907
  0
ARC
  5
104
330
F0
100
AcDbEntity
  8
FORMAT
 62
     0
100
AcDbCircle
 10
-38.1758091526
 20
-142.4740593776
 30
0.0
 40
147.4999999999997
100
AcDbArc
 50
194.028885093
 51
195.0
  0
ARC
  5
105
330
F0
100
AcDbEntity
  8
FORMAT
 62
     0
100
AcDbCircle
 10
-38.1758091526
 20
-142.4740593776
 30
0.0
 40
147.4999999999999
100
AcDbArc
 50
165.0
 51
165.971114907
  0
ARC
  5
106
330
F0
100
AcDbEntity
  8
FORMAT
 62
     0
100
AcDbCircle
 10
-38.1758091526
 20
-142.4740593776
 30
0.0
 40
147.4999999999999
100
AcDbArc
 50
164.028885093
 51
165.0
  0
ARC
  5
107
330
F0
100
AcDbEntity
  8
FORMAT
 62
     0
100
AcDbCircle
 10
-38.1758091526
 20
-142.4740593776
 30
0.0
 40
147.5
100
AcDbArc
 50
135.0
 51
135.971114907
  0
ARC
  5
108
330
F0
100
AcDbEntity
  8
FORMAT
 62
     0
100
AcDbCircle
 10
-38.1758091526
 20
-142.4740593776
 30
0.0
 40
147.5
100
AcDbArc
 50
134.028885093
 51
135.0
  0
ARC
  5
109
330
F0
100
AcDbEntity
  8
FORMAT
 62
     0
100
AcDbCircle
 10
-38.1758091526
 20
-142.4740593776
 30
0.0
 40
147.5000000000001
100
AcDbArc
 50
105.0
 51
105.971114907
  0
ARC
  5
10A
330
F0
100
AcDbEntity
  8
FORMAT
 62
     0
100
AcDbCircle
 10
-38.1758091526
 20
-142.4740593776
 30
0.0
 40
147.5000000000001
100
AcDbArc
 50
104.028885093
 51
105.0
  0
ARC
  5
10B
330
F0
100
AcDbEntity
  8
FORMAT
 62
     0
100
AcDbCircle
 10
-38.1758091526
 20
-142.4740593776
 30
0.0
 40
147.5000000000003
100
AcDbArc
 50
16.942229814
 51
43.057770186
  0
ARC
  5
10C
330
F0
100
AcDbEntity
  8
FORMAT
 62
     0
100
AcDbCircle
 10
-38.1758091526
 20
-142.4740593776
 30
0.0
 40
147.5000000000003
100
AcDbArc
 50
46.942229814
 51
73.057770186
  0
ARC
  5
10D
330
F0
100
AcDbEntity
  8
FORMAT
 62
     0
100
AcDbCircle
 10
-38.1758091526
 20
-142.4740593776
 30
0.0
 40
147.5000000000002
100
AcDbArc
 50
346.942229814
 51
13.057770186
  0
ARC
  5
10E
330
F0
100
AcDbEntity
  8
FORMAT
 62
     0
100
AcDbCircle
 10
-38.1758091526
 20
-142.4740593776
 30
0.0
 40
147.5000000000001
100
AcDbArc
 50
316.942229814
 51
343.057770186
  0
ARC
  5
10F
330
F0
100
AcDbEntity
  8
FORMAT
 62
     0
100
AcDbCircle
 10
-38.1758091526
 20
-142.4740593776
 30
0.0
 40
147.5
100
AcDbArc
 50
286.942229814
 51
313.057770186
  0
ARC
  5
110
330
F0
100
AcDbEntity
  8
FORMAT
 62
     0
100
AcDbCircle
 10
-38.1758091526
 20
-142.4740593776
 30
0.0
 40
147.4999999999999
100
AcDbArc
 50
256.942229814
 51
283.057770186
  0
ARC
  5
111
330
F0
100
AcDbEntity
  8
FORMAT
 62
     0
100
AcDbCircle
 10
-38.1758091526
 20
-142.4740593776
 30
0.0
 40
147.4999999999998
100
AcDbArc
 50
226.942229814
 51
253.057770186
  0
ARC
  5
112
330
F0
100
AcDbEntity
  8
FORMAT
 62
     0
100
AcDbCircle
 10
-38.1758091526
 20
-142.4740593776
 30
0.0
 40
147.4999999999997
100
AcDbArc
 50
196.942229814
 51
223.057770186
  0
ARC
  5
113
330
F0
100
AcDbEntity
  8
FORMAT
 62
     0
100
AcDbCircle
 10
-38.1758091526
 20
-142.4740593776
 30
0.0
 40
147.4999999999999
100
AcDbArc
 50
166.942229814
 51
193.057770186
  0
ARC
  5
114
330
F0
100
AcDbEntity
  8
FORMAT
 62
     0
100
AcDbCircle
 10
-38.1758091526
 20
-142.4740593776
 30
0.0
 40
147.5
100
AcDbArc
 50
136.942229814
 51
163.057770186
  0
ARC
  5
115
330
F0
100
AcDbEntity
  8
FORMAT
 62
     0
100
AcDbCircle
 10
-38.1758091526
 20
-142.4740593776
 30
0.0
 40
147.5000000000003
100
AcDbArc
 50
76.942229814
 51
103.057770186
  0
ARC
  5
116
330
F0
100
AcDbEntity
  8
FORMAT
 62
     0
100
AcDbCircle
 10
-38.1758091526
 20
-142.4740593776
 30
0.0
 40
147.5000000000002
100
AcDbArc
 50
106.942229814
 51
133.057770186
  0
LINE
  5
117
330
F0
100
AcDbEntity
  8
FORMAT
 62
     0
100
AcDbLine
 10
0.0
 20
0.0
 30
0.0
 11
0.6470476128
 21
2.4148145657
 31
0.0
  0
LINE
  5
118
330
F0
100
AcDbEntity
  8
FORMAT
 62
     0
100
AcDbLine
 10
0.0
 20
0.0
 30
0.0
 11
-0.6470476128
 21
-2.4148145657
 31
0.0
  0
LINE
  5
119
330
F0
100
AcDbEntity
  8
FORMAT
 62
     0
100
AcDbLine
 10
1.2940952255
 20
4.8296291314
 30
0.0
 11
3.8822856765
 21
14.4888873943
 31
0.0
  0
LINE
  5
11A
330
F0
100
AcDbEntity
  8
FORMAT
 62
     0
100
AcDbLine
 10
-1.2940952255
 20
-4.8296291314
 30
0.0
 11
-3.8822856765
 21
-14.4888873943
 31
0.0
  0
LINE
  5
11B
330
F0
100
AcDbEntity
  8
FORMAT
 62
     0
100
AcDbLine
 10
66.1224410724
 20
-38.1758091526
 30
0.0
 11
67.8902080254
 21
-36.4080421997
 31
0.0
  0
LINE
  5
11C
330
F0
100
AcDbEntity
  8
FORMAT
 62
     0
100
AcDbLine
 10
66.1224410724
 20
-38.1758091526
 30
0.0
 11
64.3546741194
 21
-39.9435761056
 31
0.0
  0
LINE
  5
11D
330
F0
100
AcDbEntity
  8
FORMAT
 62
     0
100
AcDbLine
 10
69.6579749783
 20
-34.6402752467
 30
0.0
 11
76.7290427902
 21
-27.5692074348
 31
0.0
  0
LINE
  5
11E
330
F0
100
AcDbEntity
  8
FORMAT
 62
     0
100
AcDbLine
 10
62.5869071665
 20
-41.7113430586
 30
0.0
 11
55.5158393546
 21
-48.7824108704
 31
0.0
  0
LINE
  5
11F
330
F0
100
AcDbEntity
  8
FORMAT
 62
     0
100
AcDbLine
 10
104.298250225
 20
-104.298250225
 30
0.0
 11
106.7130647907
 21
-103.6512026123
 31
0.0
  0
LINE
  5
120
330
F0
100
AcDbEntity
  8
FORMAT
 62
     0
100
AcDbLine
 10
104.298250225
 20
-104.298250225
 30
0.0
 11
101.8834356593
 21
-104.9452978378
 31
0.0
  0
LINE
  5
121
330
F0
100
AcDbEntity
  8
FORMAT
 62
     0
100
AcDbLine
 10
109.1278793565
 20
-103.0041549995
 30
0.0
 11
118.7871376194
 21
-100.4159645485
 31
0.0
  0
LINE
  5
122
330
F0
100
AcDbEntity
  8
FORMAT
 62
     0
100
AcDbLine
 10
99.4686210936
 20
-105.5923454505
 30
0.0
 11
89.8093628307
 21
-108.1805359016
 31
0.0
  0
LINE
  5
123
330
F0
100
AcDbEntity
  8
FORMAT
 62
     0
100
AcDbLine
 10
-38.1758091526
 20
-142.4740593776
 30
0.0
 11
-38.1758091526
 21
-139.9740593776
 31
0.0
  0
LINE
  5
124
330
F0
100
AcDbEntity
  8
FORMAT
 62
     0
100
AcDbLine
 10
-38.1758091526
 20
-142.4740593776
 30
0.0
 11
-40.6758091526
 21
-142.4740593776
 31
0.0
  0
LINE
  5
125
330
F0
100
AcDbEntity
  8
FORMAT
 62
     0
100
AcDbLine
 10
-38.1758091526
 20
-142.4740593776
 30
0.0
 11
-38.1758091526
 21
-144.9740593776
 31
0.0
  0
LINE
  5
126
330
F0
100
AcDbEntity
  8
FORMAT
 62
     0
100
AcDbLine
 10
-38.1758091526
 20
-142.4740593776
 30
0.0
 11
-35.6758091526
 21
-142.4740593776
 31
0.0
  0
LINE
  5
127
330
F0
100
AcDbEntity
  8
FORMAT
 62
     0
100
AcDbLine
 10
-38.1758091526
 20
-137.4740593776
 30
0.0
 11
-38.1758091526
 21
33.3949660379
 31
0.0
  0
LINE
  5
128
330
F0
100
AcDbEntity
  8
FORMAT
 62
     0
100
AcDbLine
 10
-43.1758091526
 20
-142.4740593776
 30
0.0
 11
-208.591847338
 21
-142.4740593776
 31
0.0
  0
LINE
  5
129
330
F0
100
AcDbEntity
  8
FORMAT
 62
     0
100
AcDbLine
 10
-38.1758091526
 20
-147.4740593776
 30
0.0
 11
-38.1758091526
 21
-320.9496850085
 31
0.0
  0
LINE
  5
12A
330
F0
100
AcDbEntity
  8
FORMAT
 62
     0
100
AcDbLine
 10
-33.1758091526
 20
-142.4740593776
 30
0.0
 11
134.7011186855
 21
-142.4740593776
 31
0.0
  0
LINE
  5
12B
330
F0
100
AcDbEntity
  8
FORMAT
 62
     0
100
AcDbLine
 10
104.298250225
 20
-180.6498685303
 30
0.0
 11
106.7130647907
 21
-181.296916143
 31
0.0
  0
LINE
  5
12C
330
F0
100
AcDbEntity
  8
FORMAT
 62
     0
100
AcDbLine
 10
104.298250225
 20
-180.6498685303
 30
0.0
 11
101.8834356593
 21
-180.0028209175
 31
0.0
  0
LINE
  5
12D
330
F0
100
AcDbEntity
  8
FORMAT
 62
     0
100
AcDbLine
 10
109.1278793565
 20
-181.9439637558
 30
0.0
 11
118.7871376193
 21
-184.5321542068
 31
0.0
  0
LINE
  5
12E
330
F0
100
AcDbEntity
  8
FORMAT
 62
     0
100
AcDbLine
 10
99.4686210936
 20
-179.3557733047
 30
0.0
 11
89.8093628307
 21
-176.7675828537
 31
0.0
  0
LINE
  5
12F
330
F0
100
AcDbEntity
  8
FORMAT
 62
     0
100
AcDbLine
 10
66.1224410724
 20
-246.7723096027
 30
0.0
 11
67.8902080254
 21
-248.5400765556
 31
0.0
  0
LINE
  5
130
330
F0
100
AcDbEntity
  8
FORMAT
 62
     0
100
AcDbLine
 10
66.1224410724
 20
-246.7723096027
 30
0.0
 11
64.3546741194
 21
-245.0045426497
 31
0.0
  0
LINE
  5
131
330
F0
100
AcDbEntity
  8
FORMAT
 62
     0
100
AcDbLine
 10
69.6579749783
 20
-250.3078435086
 30
0.0
 11
76.7290427902
 21
-257.3789113205
 31
0.0
  0
LINE
  5
132
330
F0
100
AcDbEntity
  8
FORMAT
 62
     0
100
AcDbLine
 10
62.5869071665
 20
-243.2367756967
 30
0.0
 11
55.5158393546
 21
-236.1657078849
 31
0.0
  0
LINE
  5
133
330
F0
100
AcDbEntity
  8
FORMAT
 62
     0
100
AcDbLine
 10
0.0
 20
-284.9481187553
 30
0.0
 11
0.6470476128
 21
-287.362933321
 31
0.0
  0
LINE
  5
134
330
F0
100
AcDbEntity
  8
FORMAT
 62
     0
100
AcDbLine
 10
0.0
 20
-284.9481187553
 30
0.0
 11
-0.6470476128
 21
-282.5333041896
 31
0.0
  0
LINE
  5
135
330
F0
100
AcDbEntity
  8
FORMAT
 62
     0
100
AcDbLine
 10
1.2940952255
 20
-289.7777478867
 30
0.0
 11
3.8822856765
 21
-299.4370061496
 31
0.0
  0
LINE
  5
136
330
F0
100
AcDbEntity
  8
FORMAT
 62
     0
100
AcDbLine
 10
-1.2940952255
 20
-280.1184896238
 30
0.0
 11
-3.8822856765
 21
-270.4592313609
 31
0.0
  0
LINE
  5
137
330
F0
100
AcDbEntity
  8
FORMAT
 62
     0
100
AcDbLine
 10
-76.3516183052
 20
-284.9481187553
 30
0.0
 11
-76.998665918
 21
-287.362933321
 31
0.0
  0
LINE
  5
138
330
F0
100
AcDbEntity
  8
FORMAT
 62
     0
100
AcDbLine
 10
-76.3516183052
 20
-284.9481187553
 30
0.0
 11
-75.7045706925
 21
-282.5333041896
 31
0.0
  0
LINE
  5
139
330
F0
100
AcDbEntity
  8
FORMAT
 62
     0
100
AcDbLine
 10
-77.6457135308
 20
-289.7777478867
 30
0.0
 11
-80.2339039818
 21
-299.4370061496
 31
0.0
  0
LINE
  5
13A
330
F0
100
AcDbEntity
  8
FORMAT
 62
     0
100
AcDbLine
 10
-75.0575230797
 20
-280.1184896238
 30
0.0
 11
-72.4693326287
 21
-270.4592313609
 31
0.0
  0
LINE
  5
13B
330
F0
100
AcDbEntity
  8
FORMAT
 62
     0
100
AcDbLine
 10
-142.4740593776
 20
-246.7723096027
 30
0.0
 11
-144.2418263306
 21
-248.5400765556
 31
0.0
  0
LINE
  5
13C
330
F0
100
AcDbEntity
  8
FORMAT
 62
     0
100
AcDbLine
 10
-142.4740593776
 20
-246.7723096027
 30
0.0
 11
-140.7062924247
 21
-245.0045426497
 31
0.0
  0
LINE
  5
13D
330
F0
100
AcDbEntity
  8
FORMAT
 62
     0
100
AcDbLine
 10
-146.0095932836
 20
-250.3078435086
 30
0.0
 11
-153.0806610954
 21
-257.3789113205
 31
0.0
  0
LINE
  5
13E
330
F0
100
AcDbEntity
  8
FORMAT
 62
     0
100
AcDbLine
 10
-138.9385254717
 20
-243.2367756967
 30
0.0
 11
-131.8674576598
 21
-236.1657078849
 31
0.0
  0
LINE
  5
13F
330
F0
100
AcDbEntity
  8
FORMAT
 62
     0
100
AcDbLine
 10
-180.6498685303
 20
-180.6498685303
 30
0.0
 11
-183.064683096
 21
-181.296916143
 31
0.0
  0
LINE
  5
140
330
F0
100
AcDbEntity
  8
FORMAT
 62
     0
100
AcDbLine
 10
-180.6498685303
 20
-180.6498685303
 30
0.0
 11
-178.2350539645
 21
-180.0028209175
 31
0.0
  0
LINE
  5
141
330
F0
100
AcDbEntity
  8
FORMAT
 62
     0
100
AcDbLine
 10
-185.4794976617
 20
-181.9439637558
 30
0.0
 11
-195.1387559246
 21
-184.5321542068
 31
0.0
  0
LINE
  5
142
330
F0
100
AcDbEntity
  8
FORMAT
 62
     0
100
AcDbLine
 10
-175.8202393988
 20
-179.3557733047
 30
0.0
 11
-166.1609811359
 21
-176.7675828537
 31
0.0
  0
LINE
  5
143
330
F0
100
AcDbEntity
  8
FORMAT
 62
     0
100
AcDbLine
 10
-180.6498685303
 20
-104.298250225
 30
0.0
 11
-183.064683096
 21
-103.6512026123
 31
0.0
  0
LINE
  5
144
330
F0
100
AcDbEntity
  8
FORMAT
 62
     0
100
AcDbLine
 10
-180.6498685303
 20
-104.298250225
 30
0.0
 11
-178.2350539645
 21
-104.9452978378
 31
0.0
  0
LINE
  5
145
330
F0
100
AcDbEntity
  8
FORMAT
 62
     0
100
AcDbLine
 10
-185.4794976617
 20
-103.0041549995
 30
0.0
 11
-195.1387559246
 21
-100.4159645485
 31
0.0
  0
LINE
  5
146
330
F0
100
AcDbEntity
  8
FORMAT
 62
     0
100
AcDbLine
 10
-175.8202393988
 20
-105.5923454505
 30
0.0
 11
-166.1609811359
 21
-108.1805359016
 31
0.0
  0
LINE
  5
147
330
F0
100
AcDbEntity
  8
FORMAT
 62
     0
100
AcDbLine
 10
-142.4740593776
 20
-38.1758091526
 30
0.0
 11
-144.2418263306
 21
-36.4080421997
 31
0.0
  0
LINE
  5
148
330
F0
100
AcDbEntity
  8
FORMAT
 62
     0
100
AcDbLine
 10
-142.4740593776
 20
-38.1758091526
 30
0.0
 11
-140.7062924247
 21
-39.9435761056
 31
0.0
  0
LINE
  5
149
330
F0
100
AcDbEntity
  8
FORMAT
 62
     0
100
AcDbLine
 10
-146.0095932836
 20
-34.6402752467
 30
0.0
 11
-153.0806610954
 21
-27.5692074348
 31
0.0
  0
LINE
  5
14A
330
F0
100
AcDbEntity
  8
FORMAT
 62
     0
100
AcDbLine
 10
-138.9385254717
 20
-41.7113430586
 30
0.0
 11
-131.8674576598
 21
-48.7824108704
 31
0.0
  0
LINE
  5
14B
330
F0
100
AcDbEntity
  8
FORMAT
 62
     0
100
AcDbLine
 10
-76.3516183052
 20
0.0
 30
0.0
 11
-76.998665918
 21
2.4148145657
 31
0.0
  0
LINE
  5
14C
330
F0
100
AcDbEntity
  8
FORMAT
 62
     0
100
AcDbLine
 10
-76.3516183052
 20
0.0
 30
0.0
 11
-75.7045706925
 21
-2.4148145657
 31
0.0
  0
LINE
  5
14D
330
F0
100
AcDbEntity
  8
FORMAT
 62
     0
100
AcDbLine
 10
-77.6457135308
 20
4.8296291314
 30
0.0
 11
-80.2339039818
 21
14.4888873943
 31
0.0
  0
LINE
  5
14E
330
F0
100
AcDbEntity
  8
FORMAT
 62
     0
100
AcDbLine
 10
-75.0575230797
 20
-4.8296291314
 30
0.0
 11
-72.4693326287
 21
-14.4888873943
 31
0.0
  0
ENDBLK
  5
F2
330
F0
100
AcDbEntity
  8
0
100
AcDbBlockEnd
  0
BLOCK
  5
1E4
330
1E3
100
AcDbEntity
  8
0
100
AcDbBlockBegin
  2
SW_CENTERMARKSYMBOL_1
 70
     0
 10
0.0
 20
0.0
 30
0.0
  3
SW_CENTERMARKSYMBOL_1
  1

  0
LINE
  5
1E6
330
1E3
100
AcDbEntity
  8
FORMAT
 62
     0
100
AcDbLine
 10
0.0
 20
0.0
 30
0.0
 11
0.0
 21
2.5
 31
0.0
  0
LINE
  5
1E7
330
1E3
100
AcDbEntity
  8
FORMAT
 62
     0
100
AcDbLine
 10
0.0
 20
0.0
 30
0.0
 11
-2.5
 21
0.0
 31
0.0
  0
LINE
  5
1E8
330
1E3
100
AcDbEntity
  8
FORMAT
 62
     0
100
AcDbLine
 10
0.0
 20
0.0
 30
0.0
 11
0.0
 21
-2.5
 31
0.0
  0
LINE
  5
1E9
330
1E3
100
AcDbEntity
  8
FORMAT
 62
     0
100
AcDbLine
 10
0.0
 20
0.0
 30
0.0
 11
2.5
 21
0.0
 31
0.0
  0
LINE
  5
1EA
330
1E3
100
AcDbEntity
  8
FORMAT
 62
     0
100
AcDbLine
 10
0.0
 20
5.0
 30
0.0
 11
0.0
 21
9.0
 31
0.0
  0
LINE
  5
1EB
330
1E3
100
AcDbEntity
  8
FORMAT
 62
     0
100
AcDbLine
 10
-5.0
 20
0.0
 30
0.0
 11
-9.0
 21
0.0
 31
0.0
  0
LINE
  5
1EC
330
1E3
100
AcDbEntity
  8
FORMAT
 62
     0
100
AcDbLine
 10
0.0
 20
-5.0
 30
0.0
 11
0.0
 21
-52.860436521
 31
0.0
  0
LINE
  5
1ED
330
1E3
100
AcDbEntity
  8
FORMAT
 62
     0
100
AcDbLine
 10
5.0
 20
0.0
 30
0.0
 11
9.0
 21
0.0
 31
0.0
  0
ENDBLK
  5
1E5
330
1E3
100
AcDbEntity
  8
0
100
AcDbBlockEnd
  0
BLOCK
  5
1F0
330
1EF
100
AcDbEntity
  8
0
100
AcDbBlockBegin
  2
SW_CENTERMARKSYMBOL_2
 70
     0
 10
0.0
 20
0.0
 30
0.0
  3
SW_CENTERMARKSYMBOL_2
  1

  0
LINE
  5
1F2
330
1EF
100
AcDbEntity
  8
FORMAT
 62
     0
100
AcDbLine
 10
0.0
 20
0.0
 30
0.0
 11
0.0
 21
2.5
 31
0.0
  0
LINE
  5
1F3
330
1EF
100
AcDbEntity
  8
FORMAT
 62
     0
100
AcDbLine
 10
0.0
 20
0.0
 30
0.0
 11
-2.5
 21
0.0
 31
0.0
  0
LINE
  5
1F4
330
1EF
100
AcDbEntity
  8
FORMAT
 62
     0
100
AcDbLine
 10
0.0
 20
0.0
 30
0.0
 11
0.0
 21
-2.5
 31
0.0
  0
LINE
  5
1F5
330
1EF
100
AcDbEntity
  8
FORMAT
 62
     0
100
AcDbLine
 10
0.0
 20
0.0
 30
0.0
 11
2.5
 21
0.0
 31
0.0
  0
LINE
  5
1F6
330
1EF
100
AcDbEntity
  8
FORMAT
 62
     0
100
AcDbLine
 10
0.0
 20
5.0
 30
0.0
 11
0.0
 21
9.0
 31
0.0
  0
LINE
  5
1F7
330
1EF
100
AcDbEntity
  8
FORMAT
 62
     0
100
AcDbLine
 10
-5.0
 20
0.0
 30
0.0
 11
-9.0
 21
0.0
 31
0.0
  0
LINE
  5
1F8
330
1EF
100
AcDbEntity
  8
FORMAT
 62
     0
100
AcDbLine
 10
0.0
 20
-5.0
 30
0.0
 11
0.0
 21
-9.0
 31
0.0
  0
LINE
  5
1F9
330
1EF
100
AcDbEntity
  8
FORMAT
 62
     0
100
AcDbLine
 10
5.0
 20
0.0
 30
0.0
 11
58.1658628704
 21
0.0
 31
0.0
  0
ENDBLK
  5
1F1
330
1EF
100
AcDbEntity
  8
0
100
AcDbBlockEnd
  0
BLOCK
  5
1FC
330
1FB
100
AcDbEntity
  8
0
100
AcDbBlockBegin
  2
SW_CENTERMARKSYMBOL_3
 70
     0
 10
0.0
 20
0.0
 30
0.0
  3
SW_CENTERMARKSYMBOL_3
  1

  0
LINE
  5
1FE
330
1FB
100
AcDbEntity
  8
FORMAT
 62
     0
100
AcDbLine
 10
0.0
 20
0.0
 30
0.0
 11
0.0
 21
2.5
 31
0.0
  0
LINE
  5
1FF
330
1FB
100
AcDbEntity
  8
FORMAT
 62
     0
100
AcDbLine
 10
0.0
 20
0.0
 30
0.0
 11
-2.5
 21
0.0
 31
0.0
  0
LINE
  5
200
330
1FB
100
AcDbEntity
  8
FORMAT
 62
     0
100
AcDbLine
 10
0.0
 20
0.0
 30
0.0
 11
0.0
 21
-2.5
 31
0.0
  0
LINE
  5
201
330
1FB
100
AcDbEntity
  8
FORMAT
 62
     0
100
AcDbLine
 10
0.0
 20
0.0
 30
0.0
 11
2.5
 21
0.0
 31
0.0
  0
LINE
  5
202
330
1FB
100
AcDbEntity
  8
FORMAT
 62
     0
100
AcDbLine
 10
0.0
 20
5.0
 30
0.0
 11
0.0
 21
52.4457522671
 31
0.0
  0
LINE
  5
203
330
1FB
100
AcDbEntity
  8
FORMAT
 62
     0
100
AcDbLine
 10
-5.0
 20
0.0
 30
0.0
 11
-9.0
 21
0.0
 31
0.0
  0
LINE
  5
204
330
1FB
100
AcDbEntity
  8
FORMAT
 62
     0
100
AcDbLine
 10
0.0
 20
-5.0
 30
0.0
 11
0.0
 21
-9.0
 31
0.0
  0
LINE
  5
205
330
1FB
100
AcDbEntity
  8
FORMAT
 62
     0
100
AcDbLine
 10
5.0
 20
0.0
 30
0.0
 11
9.0
 21
0.0
 31
0.0
  0
ENDBLK
  5
1FD
330
1FB
100
AcDbEntity
  8
0
100
AcDbBlockEnd
  0
BLOCK
  5
208
330
207
100
AcDbEntity
  8
0
100
AcDbBlockBegin
  2
SW_CENTERMARKSYMBOL_4
 70
     0
 10
0.0
 20
0.0
 30
0.0
  3
SW_CENTERMARKSYMBOL_4
  1

  0
LINE
  5
20A
330
207
100
AcDbEntity
  8
FORMAT
 62
     0
100
AcDbLine
 10
0.0
 20
0.0
 30
0.0
 11
0.0
 21
2.5
 31
0.0
  0
LINE
  5
20B
330
207
100
AcDbEntity
  8
FORMAT
 62
     0
100
AcDbLine
 10
0.0
 20
0.0
 30
0.0
 11
-2.5
 21
0.0
 31
0.0
  0
LINE
  5
20C
330
207
100
AcDbEntity
  8
FORMAT
 62
     0
100
AcDbLine
 10
0.0
 20
0.0
 30
0.0
 11
0.0
 21
-2.5
 31
0.0
  0
LINE
  5
20D
330
207
100
AcDbEntity
  8
FORMAT
 62
     0
100
AcDbLine
 10
0.0
 20
0.0
 30
0.0
 11
2.5
 21
0.0
 31
0.0
  0
LINE
  5
20E
330
207
100
AcDbEntity
  8
FORMAT
 62
     0
100
AcDbLine
 10
0.0
 20
5.0
 30
0.0
 11
0.0
 21
46.0
 31
0.0
  0
LINE
  5
20F
330
207
100
AcDbEntity
  8
FORMAT
 62
     0
100
AcDbLine
 10
-5.0
 20
0.0
 30
0.0
 11
-46.0
 21
0.0
 31
0.0
  0
LINE
  5
210
330
207
100
AcDbEntity
  8
FORMAT
 62
     0
100
AcDbLine
 10
0.0
 20
-5.0
 30
0.0
 11
0.0
 21
-46.0
 31
0.0
  0
LINE
  5
211
330
207
100
AcDbEntity
  8
FORMAT
 62
     0
100
AcDbLine
 10
5.0
 20
0.0
 30
0.0
 11
46.0
 21
0.0
 31
0.0
  0
ENDBLK
  5
209
330
207
100
AcDbEntity
  8
0
100
AcDbBlockEnd
  0
BLOCK
  5
354
330
353
100
AcDbEntity
  8
0
100
AcDbBlockBegin
  2
SW_CENTERMARKSYMBOL_5
 70
     0
 10
0.0
 20
0.0
 30
0.0
  3
SW_CENTERMARKSYMBOL_5
  1

  0
LINE
  5
356
330
353
100
AcDbEntity
  8
FORMAT
 62
     0
100
AcDbLine
 10
0.0
 20
0.0
 30
0.0
 11
0.0
 21
2.5
 31
0.0
  0
LINE
  5
357
330
353
100
AcDbEntity
  8
FORMAT
 62
     0
100
AcDbLine
 10
0.0
 20
0.0
 30
0.0
 11
-2.5
 21
0.0
 31
0.0
  0
LINE
  5
358
330
353
100
AcDbEntity
  8
FORMAT
 62
     0
100
AcDbLine
 10
0.0
 20
0.0
 30
0.0
 11
0.0
 21
-2.5
 31
0.0
  0
LINE
  5
359
330
353
100
AcDbEntity
  8
FORMAT
 62
     0
100
AcDbLine
 10
0.0
 20
0.0
 30
0.0
 11
2.5
 21
0.0
 31
0.0
  0
LINE
  5
35A
330
353
100
AcDbEntity
  8
FORMAT
 62
     0
100
AcDbLine
 10
0.0
 20
5.0
 30
0.0
 11
0.0
 21
20.6561649764
 31
0.0
  0
LINE
  5
35B
330
353
100
AcDbEntity
  8
FORMAT
 62
     0
100
AcDbLine
 10
-5.0
 20
0.0
 30
0.0
 11
-20.6561649764
 21
0.0
 31
0.0
  0
LINE
  5
35C
330
353
100
AcDbEntity
  8
FORMAT
 62
     0
100
AcDbLine
 10
0.0
 20
-5.0
 30
0.0
 11
0.0
 21
-20.6561649764
 31
0.0
  0
LINE
  5
35D
330
353
100
AcDbEntity
  8
FORMAT
 62
     0
100
AcDbLine
 10
5.0
 20
0.0
 30
0.0
 11
20.6561649764
 21
0.0
 31
0.0
  0
ENDBLK
  5
355
330
353
100
AcDbEntity
  8
0
100
AcDbBlockEnd
  0
BLOCK
  5
360
330
35F
100
AcDbEntity
  8
0
100
AcDbBlockBegin
  2
SW_CENTERMARKSYMBOL_6
 70
     0
 10
0.0
 20
0.0
 30
0.0
  3
SW_CENTERMARKSYMBOL_6
  1

  0
LINE
  5
362
330
35F
100
AcDbEntity
  8
FORMAT
 62
     0
100
AcDbLine
 10
0.0
 20
0.0
 30
0.0
 11
0.0
 21
2.5
 31
0.0
  0
LINE
  5
363
330
35F
100
AcDbEntity
  8
FORMAT
 62
     0
100
AcDbLine
 10
0.0
 20
0.0
 30
0.0
 11
-2.5
 21
0.0
 31
0.0
  0
LINE
  5
364
330
35F
100
AcDbEntity
  8
FORMAT
 62
     0
100
AcDbLine
 10
0.0
 20
0.0
 30
0.0
 11
0.0
 21
-2.5
 31
0.0
  0
LINE
  5
365
330
35F
100
AcDbEntity
  8
FORMAT
 62
     0
100
AcDbLine
 10
0.0
 20
0.0
 30
0.0
 11
2.5
 21
0.0
 31
0.0
  0
LINE
  5
366
330
35F
100
AcDbEntity
  8
FORMAT
 62
     0
100
AcDbLine
 10
0.0
 20
5.0
 30
0.0
 11
0.0
 21
20.6561649764
 31
0.0
  0
LINE
  5
367
330
35F
100
AcDbEntity
  8
FORMAT
 62
     0
100
AcDbLine
 10
-5.0
 20
0.0
 30
0.0
 11
-20.6561649764
 21
0.0
 31
0.0
  0
LINE
  5
368
330
35F
100
AcDbEntity
  8
FORMAT
 62
     0
100
AcDbLine
 10
0.0
 20
-5.0
 30
0.0
 11
0.0
 21
-20.6561649764
 31
0.0
  0
LINE
  5
369
330
35F
100
AcDbEntity
  8
FORMAT
 62
     0
100
AcDbLine
 10
5.0
 20
0.0
 30
0.0
 11
20.6561649764
 21
0.0
 31
0.0
  0
ENDBLK
  5
361
330
35F
100
AcDbEntity
  8
0
100
AcDbBlockEnd
  0
BLOCK
  5
36C
330
36B
100
AcDbEntity
  8
0
100
AcDbBlockBegin
  2
SW_CENTERMARKSYMBOL_7
 70
     0
 10
0.0
 20
0.0
 30
0.0
  3
SW_CENTERMARKSYMBOL_7
  1

  0
LINE
  5
36E
330
36B
100
AcDbEntity
  8
FORMAT
 62
     0
100
AcDbLine
 10
0.0
 20
0.0
 30
0.0
 11
0.0
 21
2.5
 31
0.0
  0
LINE
  5
36F
330
36B
100
AcDbEntity
  8
FORMAT
 62
     0
100
AcDbLine
 10
0.0
 20
0.0
 30
0.0
 11
-2.5
 21
0.0
 31
0.0
  0
LINE
  5
370
330
36B
100
AcDbEntity
  8
FORMAT
 62
     0
100
AcDbLine
 10
0.0
 20
0.0
 30
0.0
 11
0.0
 21
-2.5
 31
0.0
  0
LINE
  5
371
330
36B
100
AcDbEntity
  8
FORMAT
 62
     0
100
AcDbLine
 10
0.0
 20
0.0
 30
0.0
 11
2.5
 21
0.0
 31
0.0
  0
LINE
  5
372
330
36B
100
AcDbEntity
  8
FORMAT
 62
     0
100
AcDbLine
 10
0.0
 20
5.0
 30
0.0
 11
0.0
 21
20.6561649764
 31
0.0
  0
LINE
  5
373
330
36B
100
AcDbEntity
  8
FORMAT
 62
     0
100
AcDbLine
 10
-5.0
 20
0.0
 30
0.0
 11
-20.6561649764
 21
0.0
 31
0.0
  0
LINE
  5
374
330
36B
100
AcDbEntity
  8
FORMAT
 62
     0
100
AcDbLine
 10
0.0
 20
-5.0
 30
0.0
 11
0.0
 21
-20.6561649764
 31
0.0
  0
LINE
  5
375
330
36B
100
AcDbEntity
  8
FORMAT
 62
     0
100
AcDbLine
 10
5.0
 20
0.0
 30
0.0
 11
20.6561649764
 21
0.0
 31
0.0
  0
ENDBLK
  5
36D
330
36B
100
AcDbEntity
  8
0
100
AcDbBlockEnd
  0
BLOCK
  5
378
330
377
100
AcDbEntity
  8
0
100
AcDbBlockBegin
  2
SW_CENTERMARKSYMBOL_8
 70
     0
 10
0.0
 20
0.0
 30
0.0
  3
SW_CENTERMARKSYMBOL_8
  1

  0
LINE
  5
37A
330
377
100
AcDbEntity
  8
FORMAT
 62
     0
100
AcDbLine
 10
0.0
 20
0.0
 30
0.0
 11
0.0
 21
2.5
 31
0.0
  0
LINE
  5
37B
330
377
100
AcDbEntity
  8
FORMAT
 62
     0
100
AcDbLine
 10
0.0
 20
0.0
 30
0.0
 11
-2.5
 21
0.0
 31
0.0
  0
LINE
  5
37C
330
377
100
AcDbEntity
  8
FORMAT
 62
     0
100
AcDbLine
 10
0.0
 20
0.0
 30
0.0
 11
0.0
 21
-2.5
 31
0.0
  0
LINE
  5
37D
330
377
100
AcDbEntity
  8
FORMAT
 62
     0
100
AcDbLine
 10
0.0
 20
0.0
 30
0.0
 11
2.5
 21
0.0
 31
0.0
  0
LINE
  5
37E
330
377
100
AcDbEntity
  8
FORMAT
 62
     0
100
AcDbLine
 10
0.0
 20
5.0
 30
0.0
 11
0.0
 21
20.6561649764
 31
0.0
  0
LINE
  5
37F
330
377
100
AcDbEntity
  8
FORMAT
 62
     0
100
AcDbLine
 10
-5.0
 20
0.0
 30
0.0
 11
-20.6561649764
 21
0.0
 31
0.0
  0
LINE
  5
380
330
377
100
AcDbEntity
  8
FORMAT
 62
     0
100
AcDbLine
 10
0.0
 20
-5.0
 30
0.0
 11
0.0
 21
-20.6561649764
 31
0.0
  0
LINE
  5
381
330
377
100
AcDbEntity
  8
FORMAT
 62
     0
100
AcDbLine
 10
5.0
 20
0.0
 30
0.0
 11
20.6561649764
 21
0.0
 31
0.0
  0
ENDBLK
  5
379
330
377
100
AcDbEntity
  8
0
100
AcDbBlockEnd
  0
BLOCK
  5
384
330
383
100
AcDbEntity
  8
0
100
AcDbBlockBegin
  2
SW_CENTERMARKSYMBOL_9
 70
     0
 10
0.0
 20
0.0
 30
0.0
  3
SW_CENTERMARKSYMBOL_9
  1

  0
LINE
  5
386
330
383
100
AcDbEntity
  8
FORMAT
 62
     0
100
AcDbLine
 10
0.0
 20
0.0
 30
0.0
 11
0.0
 21
2.5
 31
0.0
  0
LINE
  5
387
330
383
100
AcDbEntity
  8
FORMAT
 62
     0
100
AcDbLine
 10
0.0
 20
0.0
 30
0.0
 11
-2.5
 21
0.0
 31
0.0
  0
LINE
  5
388
330
383
100
AcDbEntity
  8
FORMAT
 62
     0
100
AcDbLine
 10
0.0
 20
0.0
 30
0.0
 11
0.0
 21
-2.5
 31
0.0
  0
LINE
  5
389
330
383
100
AcDbEntity
  8
FORMAT
 62
     0
100
AcDbLine
 10
0.0
 20
0.0
 30
0.0
 11
2.5
 21
0.0
 31
0.0
  0
LINE
  5
38A
330
383
100
AcDbEntity
  8
FORMAT
 62
     0
100
AcDbLine
 10
0.0
 20
5.0
 30
0.0
 11
0.0
 21
17.5
 31
0.0
  0
LINE
  5
38B
330
383
100
AcDbEntity
  8
FORMAT
 62
     0
100
AcDbLine
 10
-5.0
 20
0.0
 30
0.0
 11
-17.5
 21
0.0
 31
0.0
  0
LINE
  5
38C
330
383
100
AcDbEntity
  8
FORMAT
 62
     0
100
AcDbLine
 10
0.0
 20
-5.0
 30
0.0
 11
0.0
 21
-17.5
 31
0.0
  0
LINE
  5
38D
330
383
100
AcDbEntity
  8
FORMAT
 62
     0
100
AcDbLine
 10
5.0
 20
0.0
 30
0.0
 11
17.5
 21
0.0
 31
0.0
  0
ENDBLK
  5
385
330
383
100
AcDbEntity
  8
0
100
AcDbBlockEnd
  0
BLOCK
  5
390
330
38F
100
AcDbEntity
  8
0
100
AcDbBlockBegin
  2
SW_CENTERMARKSYMBOL_10
 70
     0
 10
0.0
 20
0.0
 30
0.0
  3
SW_CENTERMARKSYMBOL_10
  1

  0
ARC
  5
392
330
38F
100
AcDbEntity
  8
FORMAT
 62
     0
100
AcDbCircle
 10
-36.0624458405
 20
-36.0624458405
 30
0.0
 40
50.99999999999999
100
AcDbArc
 50
45.0
 51
47.8086166428
  0
ARC
  5
393
330
38F
100
AcDbEntity
  8
FORMAT
 62
     0
100
AcDbCircle
 10
-36.0624458405
 20
-36.0624458405
 30
0.0
 40
50.99999999999999
100
AcDbArc
 50
42.1913833572
 51
45.0
  0
ARC
  5
394
330
38F
100
AcDbEntity
  8
FORMAT
 62
     0
100
AcDbCircle
 10
-36.0624458405
 20
-36.0624458405
 30
0.0
 40
50.99999999999999
100
AcDbArc
 50
315.0
 51
317.8086166428
  0
ARC
  5
395
330
38F
100
AcDbEntity
  8
FORMAT
 62
     0
100
AcDbCircle
 10
-36.0624458405
 20
-36.0624458405
 30
0.0
 40
51.00000000000001
100
AcDbArc
 50
312.1913833572
 51
315.0
  0
ARC
  5
396
330
38F
100
AcDbEntity
  8
FORMAT
 62
     0
100
AcDbCircle
 10
-36.0624458405
 20
-36.0624458405
 30
0.0
 40
51.00000000000001
100
AcDbArc
 50
225.0
 51
227.8086166428
  0
ARC
  5
397
330
38F
100
AcDbEntity
  8
FORMAT
 62
     0
100
AcDbCircle
 10
-36.0624458405
 20
-36.0624458405
 30
0.0
 40
50.99999999999999
100
AcDbArc
 50
222.1913833572
 51
225.0
  0
ARC
  5
398
330
38F
100
AcDbEntity
  8
FORMAT
 62
     0
100
AcDbCircle
 10
-36.0624458405
 20
-36.0624458405
 30
0.0
 40
50.99999999999999
100
AcDbArc
 50
135.0
 51
137.8086166428
  0
ARC
  5
399
330
38F
100
AcDbEntity
  8
FORMAT
 62
     0
100
AcDbCircle
 10
-36.0624458405
 20
-36.0624458405
 30
0.0
 40
50.99999999999999
100
AcDbArc
 50
132.1913833572
 51
135.0
  0
ARC
  5
39A
330
38F
100
AcDbEntity
  8
FORMAT
 62
     0
100
AcDbCircle
 10
-36.0624458405
 20
-36.0624458405
 30
0.0
 40
50.99999999999999
100
AcDbArc
 50
230.6172332856
 51
309.3827667144
  0
ARC
  5
39B
330
38F
100
AcDbEntity
  8
FORMAT
 62
     0
100
AcDbCircle
 10
-36.0624458405
 20
-36.0624458405
 30
0.0
 40
51.0
100
AcDbArc
 50
320.6172332856
 51
39.3827667144
  0
ARC
  5
39C
330
38F
100
AcDbEntity
  8
FORMAT
 62
     0
100
AcDbCircle
 10
-36.0624458405
 20
-36.0624458405
 30
0.0
 40
50.99999999999999
100
AcDbArc
 50
50.6172332856
 51
129.3827667144
  0
ARC
  5
39D
330
38F
100
AcDbEntity
  8
FORMAT
 62
     0
100
AcDbCircle
 10
-36.0624458405
 20
-36.0624458405
 30
0.0
 40
50.99999999999999
100
AcDbArc
 50
140.6172332856
 51
219.3827667144
  0
LINE
  5
39E
330
38F
100
AcDbEntity
  8
FORMAT
 62
     0
100
AcDbLine
 10
0.0
 20
0.0
 30
0.0
 11
1.767766953
 21
1.767766953
 31
0.0
  0
LINE
  5
39F
330
38F
100
AcDbEntity
  8
FORMAT
 62
     0
100
AcDbLine
 10
0.0
 20
0.0
 30
0.0
 11
-1.767766953
 21
-1.767766953
 31
0.0
  0
LINE
  5
3A0
330
38F
100
AcDbEntity
  8
FORMAT
 62
     0
100
AcDbLine
 10
3.5355339059
 20
3.5355339059
 30
0.0
 11
5.4800775542
 21
5.4800775542
 31
0.0
  0
LINE
  5
3A1
330
38F
100
AcDbEntity
  8
FORMAT
 62
     0
100
AcDbLine
 10
-3.5355339059
 20
-3.5355339059
 30
0.0
 11
-5.4800775542
 21
-5.4800775542
 31
0.0
  0
LINE
  5
3A2
330
38F
100
AcDbEntity
  8
FORMAT
 62
     0
100
AcDbLine
 10
0.0
 20
-72.124891681
 30
0.0
 11
1.767766953
 21
-73.892658634
 31
0.0
  0
LINE
  5
3A3
330
38F
100
AcDbEntity
  8
FORMAT
 62
     0
100
AcDbLine
 10
0.0
 20
-72.124891681
 30
0.0
 11
-1.767766953
 21
-70.3571247281
 31
0.0
  0
LINE
  5
3A4
330
38F
100
AcDbEntity
  8
FORMAT
 62
     0
100
AcDbLine
 10
3.5355339059
 20
-75.660425587
 30
0.0
 11
5.4800775542
 21
-77.6049692352
 31
0.0
  0
LINE
  5
3A5
330
38F
100
AcDbEntity
  8
FORMAT
 62
     0
100
AcDbLine
 10
-3.5355339059
 20
-68.5893577751
 30
0.0
 11
-5.4800775542
 21
-66.6448141268
 31
0.0
  0
LINE
  5
3A6
330
38F
100
AcDbEntity
  8
FORMAT
 62
     0
100
AcDbLine
 10
-72.124891681
 20
-72.124891681
 30
0.0
 11
-73.892658634
 21
-73.892658634
 31
0.0
  0
LINE
  5
3A7
330
38F
100
AcDbEntity
  8
FORMAT
 62
     0
100
AcDbLine
 10
-72.124891681
 20
-72.124891681
 30
0.0
 11
-70.3571247281
 21
-70.3571247281
 31
0.0
  0
LINE
  5
3A8
330
38F
100
AcDbEntity
  8
FORMAT
 62
     0
100
AcDbLine
 10
-75.660425587
 20
-75.660425587
 30
0.0
 11
-77.6049692352
 21
-77.6049692352
 31
0.0
  0
LINE
  5
3A9
330
38F
100
AcDbEntity
  8
FORMAT
 62
     0
100
AcDbLine
 10
-68.5893577751
 20
-68.5893577751
 30
0.0
 11
-66.6448141268
 21
-66.6448141268
 31
0.0
  0
LINE
  5
3AA
330
38F
100
AcDbEntity
  8
FORMAT
 62
     0
100
AcDbLine
 10
-36.0624458405
 20
-36.0624458405
 30
0.0
 11
-36.0624458405
 21
-33.5624458405
 31
0.0
  0
LINE
  5
3AB
330
38F
100
AcDbEntity
  8
FORMAT
 62
     0
100
AcDbLine
 10
-36.0624458405
 20
-36.0624458405
 30
0.0
 11
-38.5624458405
 21
-36.0624458405
 31
0.0
  0
LINE
  5
3AC
330
38F
100
AcDbEntity
  8
FORMAT
 62
     0
100
AcDbLine
 10
-36.0624458405
 20
-36.0624458405
 30
0.0
 11
-36.0624458405
 21
-38.5624458405
 31
0.0
  0
LINE
  5
3AD
330
38F
100
AcDbEntity
  8
FORMAT
 62
     0
100
AcDbLine
 10
-36.0624458405
 20
-36.0624458405
 30
0.0
 11
-33.5624458405
 21
-36.0624458405
 31
0.0
  0
LINE
  5
3AE
330
38F
100
AcDbEntity
  8
FORMAT
 62
     0
100
AcDbLine
 10
-36.0624458405
 20
-31.0624458405
 30
0.0
 11
-36.0624458405
 21
2.5
 31
0.0
  0
LINE
  5
3AF
330
38F
100
AcDbEntity
  8
FORMAT
 62
     0
100
AcDbLine
 10
-41.0624458405
 20
-36.0624458405
 30
0.0
 11
-74.624891681
 21
-36.0624458405
 31
0.0
  0
LINE
  5
3B0
330
38F
100
AcDbEntity
  8
FORMAT
 62
     0
100
AcDbLine
 10
-36.0624458405
 20
-41.0624458405
 30
0.0
 11
-36.0624458405
 21
-74.624891681
 31
0.0
  0
LINE
  5
3B1
330
38F
100
AcDbEntity
  8
FORMAT
 62
     0
100
AcDbLine
 10
-31.0624458405
 20
-36.0624458405
 30
0.0
 11
2.5
 21
-36.0624458405
 31
0.0
  0
LINE
  5
3B2
330
38F
100
AcDbEntity
  8
FORMAT
 62
     0
100
AcDbLine
 10
-72.124891681
 20
0.0
 30
0.0
 11
-73.892658634
 21
1.767766953
 31
0.0
  0
LINE
  5
3B3
330
38F
100
AcDbEntity
  8
FORMAT
 62
     0
100
AcDbLine
 10
-72.124891681
 20
0.0
 30
0.0
 11
-70.3571247281
 21
-1.767766953
 31
0.0
  0
LINE
  5
3B4
330
38F
100
AcDbEntity
  8
FORMAT
 62
     0
100
AcDbLine
 10
-75.660425587
 20
3.5355339059
 30
0.0
 11
-77.6049692352
 21
5.4800775542
 31
0.0
  0
LINE
  5
3B5
330
38F
100
AcDbEntity
  8
FORMAT
 62
     0
100
AcDbLine
 10
-68.5893577751
 20
-3.5355339059
 30
0.0
 11
-66.6448141268
 21
-5.4800775542
 31
0.0
  0
ENDBLK
  5
391
330
38F
100
AcDbEntity
  8
0
100
AcDbBlockEnd
  0
ENDSEC
  0
SECTION
  2
ENTITIES
  0
LINE
  5
48
330
1F
100
AcDbEntity
  8
TOOLING_TABLE
 62
     7
100
AcDbLine
 10
558.0
 20
36.8671069427
 30
0.0
 11
644.0
 21
36.8671069427
 31
0.0
  0
LINE
  5
49
330
1F
100
AcDbEntity
  8
TOOLING_TABLE
 62
     7
100
AcDbLine
 10
558.0
 20
24.8671069427
 30
0.0
 11
644.0
 21
24.8671069427
 31
0.0
  0
LINE
  5
4A
330
1F
100
AcDbEntity
  8
TOOLING_TABLE
 62
     7
100
AcDbLine
 10
558.0
 20
63.8671069427
 30
0.0
 11
558.0
 21
12.8671069427
 31
0.0
  0
LINE
  5
4B
330
1F
100
AcDbEntity
  8
TOOLING_TABLE
100
AcDbLine
 10
558.0
 20
12.8671069427
 30
0.0
 11
644.0
 21
12.8671069427
 31
0.0
  0
LINE
  5
4C
330
1F
100
AcDbEntity
  8
TOOLING_TABLE
100
AcDbLine
 10
644.0
 20
63.8671069427
 30
0.0
 11
644.0
 21
12.8671069427
 31
0.0
  0
LINE
  5
4D
330
1F
100
AcDbEntity
  8
TOOLING_TABLE
 62
     7
100
AcDbLine
 10
558.0
 20
45.8671069427
 30
0.0
 11
644.0
 21
45.8671069427
 31
0.0
  0
LINE
  5
4E
330
1F
100
AcDbEntity
  8
TOOLING_TABLE
 62
     7
100
AcDbLine
 10
558.0
 20
54.8671069427
 30
0.0
 11
644.0
 21
54.8671069427
 31
0.0
  0
LINE
  5
4F
330
1F
100
AcDbEntity
  8
TOOLING_TABLE
 62
     7
100
AcDbLine
 10
558.0
 20
63.8671069427
 30
0.0
 11
644.0
 21
63.8671069427
 31
0.0
  0
LINE
  5
50
330
1F
100
AcDbEntity
  8
TOOLING_TABLE
 62
     7
100
AcDbLine
 10
601.0
 20
63.8671069427
 30
0.0
 11
601.0
 21
36.8671069427
 31
0.0
  0
LINE
  5
51
330
1F
100
AcDbEntity
  8
TOOLING_TABLE
 62
     7
370
     0
100
AcDbLine
 10
624.0
 20
54.8671069427
 30
0.0
 11
624.0
 21
45.8671069427
 31
0.0
  0
MTEXT
  5
53
330
1F
100
AcDbEntity
  8
TOOLING_TABLE
100
AcDbMText
 10
602.1062783613
 20
54.2702582207
 30
0.0
 40
1.2
 41
0.0
 71
     1
 72
     1
  1
Date:
  7
SLDTEXTSTYLE0
 73
     1
 44
1.0
  0
MTEXT
  5
54
330
1F
100
AcDbEntity
  8
TOOLING_TABLE
100
AcDbMText
 10
603.018097772
 20
49.8283199631
 30
0.0
 40
2.5
 41
0.0
 71
     1
 72
     1
  1
yyyy.mm.dd
  7
SLDTEXTSTYLE0
 73
     1
 44
1.0
  0
MTEXT
  5
55
330
1F
100
AcDbEntity
  8
TOOLING_TABLE
100
AcDbMText
 10
560.201296573
 20
19.1574227188
 30
0.0
 40
2.6458333333
 41
0.0
 71
     1
 72
     1
  1
-
  7
SLDTEXTSTYLE0
 73
     1
 44
1.0
  0
MTEXT
  5
56
330
1F
100
AcDbEntity
  8
TOOLING_TABLE
100
AcDbMText
 10
560.201296573
 20
31.4173726938
 30
0.0
 40
2.6458333333
 41
0.0
 71
     1
 72
     1
  1
-
  7
SLDTEXTSTYLE0
 73
     1
 44
1.0
  0
MTEXT
  5
57
330
1F
100
AcDbEntity
  8
TOOLING_TABLE
100
AcDbMText
 10
560.201296573
 20
41.3865649653
 30
0.0
 40
2.6458333333
 41
0.0
 71
     1
 72
     1
  1
-
  7
SLDTEXTSTYLE0
 73
     1
 44
1.0
  0
MTEXT
  5
58
330
1F
100
AcDbEntity
  8
TOOLING_TABLE
100
AcDbMText
 10
559.8363625628
 20
49.9958228804
 30
0.0
 40
2.6458333333
 41
0.0
 71
     1
 72
     1
  1
-
  7
SLDTEXTSTYLE0
 73
     1
 44
1.0
  0
MTEXT
  5
59
330
1F
100
AcDbEntity
  8
TOOLING_TABLE
100
AcDbMText
 10
603.9499678367
 20
41.662126356
 30
0.0
 40
2.5
 41
0.0
 71
     1
 72
     1
  1
-
  7
SLDTEXTSTYLE0
 73
     1
 44
1.0
  0
MTEXT
  5
5A
330
1F
100
AcDbEntity
  8
TOOLING_TABLE
100
AcDbMText
 10
630.2212650386
 20
50.3962796907
 30
0.0
 40
3.175
 41
0.0
 71
     1
 72
     1
  1
-
  7
SLDTEXTSTYLE0
 73
     1
 44
1.0
  0
MTEXT
  5
5B
330
1F
100
AcDbEntity
  8
TOOLING_TABLE
100
AcDbMText
 10
610.1822179805
 20
60.6243780584
 30
0.0
 40
3.175
 41
0.0
 71
     1
 72
     1
  1
T-
  7
SLDTEXTSTYLE0
 73
     1
 44
1.0
  0
MTEXT
  5
5C
330
1F
100
AcDbEntity
  8
TOOLING_TABLE
 62
     7
100
AcDbMText
 10
559.1184091958
 20
45.4874334828
 30
0.0
 40
1.2
 41
0.0
 71
     1
 72
     1
  1
Not specified chamfer:
  7
SLDTEXTSTYLE0
 73
     1
 44
1.0
  0
MTEXT
  5
5D
330
1F
100
AcDbEntity
  8
TOOLING_TABLE
100
AcDbMText
 10
559.1184091958
 20
54.2702582207
 30
0.0
 40
1.2
 41
0.0
 71
     1
 72
     1
  1
Not specified tolerance:
  7
SLDTEXTSTYLE0
 73
     1
 44
1.0
  0
MTEXT
  5
5E
330
1F
100
AcDbEntity
  8
TOOLING_TABLE
100
AcDbMText
 10
559.1184091958
 20
36.1184577829
 30
0.0
 40
1.2
 41
0.0
 71
     1
 72
     1
  1
Hardening & Surfacing:
  7
SLDTEXTSTYLE0
 73
     1
 44
1.0
  0
MTEXT
  5
5F
330
1F
100
AcDbEntity
  8
TOOLING_TABLE
100
AcDbMText
 10
559.1184091958
 20
24.3382170231
 30
0.0
 40
1.2
 41
0.0
 71
     1
 72
     1
  1
Notes:
  7
SLDTEXTSTYLE0
 73
     1
 44
1.0
  0
MTEXT
  5
60
330
1F
100
AcDbEntity
  8
TOOLING_TABLE
100
AcDbMText
 10
602.1062783613
 20
45.4874334828
 30
0.0
 40
1.2
 41
0.0
 71
     1
 72
     1
  1
Ekstern part no.:
  7
SLDTEXTSTYLE0
 73
     1
 44
1.0
  0
MTEXT
  5
61
330
1F
100
AcDbEntity
  8
TOOLING_TABLE
100
AcDbMText
 10
624.6246212708
 20
54.2702582207
 30
0.0
 40
1.2
 41
0.0
 71
     1
 72
     1
  1
Number:
  7
SLDTEXTSTYLE0
 73
     1
 44
1.0
  0
MTEXT
  5
62
330
1F
100
AcDbEntity
  8
TOOLING_TABLE
100
AcDbMText
 10
601.8747919494
 20
63.2637332969
 30
0.0
 40
1.2
 41
0.0
 71
     1
 72
     1
  1
Order no.:
  7
SLDTEXTSTYLE0
 73
     1
 44
1.0
  0
MTEXT
  5
63
330
1F
100
AcDbEntity
  8
TOOLING_TABLE
100
AcDbMText
 10
561.334242998
 20
60.6243780584
 30
0.0
 40
3.175
 41
0.0
 71
     1
 72
     1
  1
AVK Tech Tooling
  7
SLDTEXTSTYLE0
 73
     1
 44
1.0
  0
LINE
  5
64
330
1F
100
AcDbEntity
  8
0
  6
Continuous
 62
     7
370
    15
100
AcDbLine
 10
2.9661623727
 20
519.0749751516
 30
0.0
 11
2.9661623727
 21
509.0749772378
 31
0.0
  0
LINE
  5
65
330
1F
100
AcDbEntity
  8
0
  6
Continuous
 62
     7
370
    15
100
AcDbLine
 10
128.9661643992
 20
509.0749772378
 30
0.0
 11
128.9661643992
 21
519.0749751516
 31
0.0
  0
LINE
  5
66
330
1F
100
AcDbEntity
  8
0
  6
Continuous
 62
     7
370
    15
100
AcDbLine
 10
30.9661595117
 20
354.0749760457
 30
0.0
 11
30.9661595117
 21
319.0749721714
 31
0.0
  0
LINE
  5
67
330
1F
100
AcDbEntity
  8
0
  6
Continuous
 62
     7
370
    15
100
AcDbLine
 10
100.9661672603
 20
319.0749721714
 30
0.0
 11
100.9661672603
 21
354.0749760457
 31
0.0
  0
LINE
  5
68
330
1F
100
AcDbEntity
  8
0
  6
Continuous
 62
     7
370
    15
100
AcDbLine
 10
100.9661672603
 20
448.074972827
 30
0.0
 11
100.9661672603
 21
483.0749767013
 31
0.0
  0
LINE
  5
69
330
1F
100
AcDbEntity
  8
0
  6
Continuous
 62
     7
370
    15
100
AcDbLine
 10
30.9661595117
 20
483.0749767013
 30
0.0
 11
30.9661595117
 21
448.074972827
 31
0.0
  0
LINE
  5
6A
330
1F
100
AcDbEntity
  8
0
  6
Continuous
 62
     7
370
    15
100
AcDbLine
 10
94.9661551009
 20
439.1370887049
 30
0.0
 11
94.9661551009
 21
448.074972827
 31
0.0
  0
LINE
  5
6B
330
1F
100
AcDbEntity
  8
0
  6
Continuous
 62
     7
370
    15
100
AcDbLine
 10
94.9661551009
 20
354.0749760457
 30
0.0
 11
94.9661551009
 21
363.030816067
 31
0.0
  0
LINE
  5
6C
330
1F
100
AcDbEntity
  8
0
  6
Continuous
 62
     7
370
    15
100
AcDbLine
 10
94.9661551009
 20
483.0749767013
 30
0.0
 11
94.9661551009
 21
509.0749772378
 31
0.0
  0
LINE
  5
6D
330
1F
100
AcDbEntity
  8
0
  6
Continuous
 62
     7
370
    15
100
AcDbLine
 10
36.966171671
 20
509.0749772378
 30
0.0
 11
36.966171671
 21
483.0749767013
 31
0.0
  0
LINE
  5
6E
330
1F
100
AcDbEntity
  8
0
  6
Continuous
 62
     7
370
    15
100
AcDbLine
 10
103.9661584388
 20
486.0749753304
 30
0.0
 11
94.9661551009
 21
486.0749753304
 31
0.0
  0
LINE
  5
6F
330
1F
100
AcDbEntity
  8
0
  6
Continuous
 62
     7
370
    15
100
AcDbLine
 10
74.9661592732
 20
316.0749735423
 30
0.0
 11
89.2161546241
 21
316.0749735423
 31
0.0
  0
LINE
  5
70
330
1F
100
AcDbEntity
  8
0
  6
Continuous
 62
     7
370
    15
100
AcDbLine
 10
95.7161603461
 20
316.0749735423
 30
0.0
 11
103.9661584388
 21
316.0749735423
 31
0.0
  0
LINE
  5
71
330
1F
100
AcDbEntity
  8
0
  6
Continuous
 62
     7
370
    15
100
AcDbLine
 10
73.466163684
 20
519.0749751516
 30
0.0
 11
73.466163684
 21
559.0749817081
 31
0.0
  0
LINE
  5
72
330
1F
100
AcDbEntity
  8
0
  6
Continuous
 62
     7
370
    15
100
AcDbLine
 10
58.4661630879
 20
559.0749817081
 30
0.0
 11
58.4661630879
 21
519.0749751516
 31
0.0
  0
LINE
  5
73
330
1F
100
AcDbEntity
  8
0
  6
Continuous
 62
     7
370
    15
100
AcDbLine
 10
537.9661587964
 20
463.5749744363
 30
0.0
 11
493.4661654721
 21
463.5749744363
 31
0.0
  0
LINE
  5
74
330
1F
100
AcDbEntity
  8
0
  6
Continuous
 62
     7
370
    15
100
AcDbLine
 10
493.4661654721
 20
338.5749744363
 30
0.0
 11
537.9661587964
 21
338.5749744363
 31
0.0
  0
LINE
  5
75
330
1F
100
AcDbEntity
  8
0
  6
Continuous
 62
     7
370
    15
100
AcDbLine
 10
110.9661577235
 20
338.5749744363
 30
0.0
 11
128.4661559354
 21
338.5749744363
 31
0.0
  0
LINE
  5
76
330
1F
100
AcDbEntity
  8
0
  6
Continuous
 62
     7
370
    15
100
AcDbLine
 10
128.4661559354
 20
463.5749744363
 30
0.0
 11
110.9661577235
 21
463.5749744363
 31
0.0
  0
LINE
  5
77
330
1F
100
AcDbEntity
  8
0
  6
Continuous
 62
     7
370
    15
100
AcDbLine
 10
30.9661595117
 20
407.5749745705
 30
0.0
 11
24.0161685239
 21
407.5749745705
 31
0.0
  0
LINE
  5
78
330
1F
100
AcDbEntity
  8
0
  6
Continuous
 62
     7
370
    15
100
AcDbLine
 10
24.0161685239
 20
394.5749743022
 30
0.0
 11
30.9661595117
 21
394.5749743022
 31
0.0
  0
LINE
  5
79
330
1F
100
AcDbEntity
  8
0
  6
Continuous
 62
     7
370
    15
100
AcDbLine
 10
30.9661595117
 20
371.5749742575
 30
0.0
 11
24.0161685239
 21
371.5749742575
 31
0.0
  0
LINE
  5
7A
330
1F
100
AcDbEntity
  8
0
  6
Continuous
 62
     7
370
    15
100
AcDbLine
 10
24.0161685239
 20
358.5749739893
 30
0.0
 11
30.9661595117
 21
358.5749739893
 31
0.0
  0
LINE
  5
7B
330
1F
100
AcDbEntity
  8
0
  6
Continuous
 62
     7
370
    15
100
AcDbLine
 10
30.9661595117
 20
443.5749748834
 30
0.0
 11
24.0161685239
 21
443.5749748834
 31
0.0
  0
LINE
  5
7C
330
1F
100
AcDbEntity
  8
0
  6
Continuous
 62
     7
370
    15
100
AcDbLine
 10
24.0161685239
 20
430.5749746152
 30
0.0
 11
30.9661595117
 21
430.5749746152
 31
0.0
  0
LINE
  5
7D
330
1F
100
AcDbEntity
  8
0
  6
Continuous
 62
     7
370
    15
100
AcDbLine
 10
2.9661623727
 20
519.0749751516
 30
0.0
 11
128.9661643992
 21
519.0749751516
 31
0.0
  0
LINE
  5
7E
330
1F
100
AcDbEntity
  8
0
  6
Continuous
 62
     7
370
    15
100
AcDbLine
 10
2.9661623727
 20
509.0749772378
 30
0.0
 11
128.9661643992
 21
509.0749772378
 31
0.0
  0
CIRCLE
  5
7F
330
1F
100
AcDbEntity
  8
0
  6
Continuous
 62
     7
370
    15
100
AcDbCircle
 10
310.9661607037
 20
396.0749744363
 30
0.0
 40
102.0
  0
CIRCLE
  5
80
330
1F
100
AcDbEntity
  8
0
  6
Continuous
 62
     7
370
    15
100
AcDbCircle
 10
310.9661607037
 20
396.0749744363
 30
0.0
 40
133.0000000000001
  0
CIRCLE
  5
81
330
1F
100
AcDbEntity
  8
0
  6
Continuous
 62
     7
370
    15
100
AcDbCircle
 10
453.4402200814
 20
357.8991652837
 30
0.0
 40
12.50000000000003
  0
CIRCLE
  5
82
330
1F
100
AcDbEntity
  8
0
  6
Continuous
 62
     7
370
    15
100
AcDbCircle
 10
349.1419698564
 20
253.6009150587
 30
0.0
 40
12.50000000000006
  0
CIRCLE
  5
83
330
1F
100
AcDbEntity
  8
0
  6
Continuous
 62
     7
370
    15
100
AcDbCircle
 10
168.4921013261
 20
357.8991652837
 30
0.0
 40
12.5
  0
CIRCLE
  5
84
330
1F
100
AcDbEntity
  8
0
  6
Continuous
 62
     7
370
    15
100
AcDbCircle
 10
415.2644109288
 20
500.3732246614
 30
0.0
 40
12.50000000000006
  0
CIRCLE
  5
85
330
1F
100
AcDbEntity
  8
0
  6
Continuous
 62
     7
370
    15
100
AcDbCircle
 10
168.4921013261
 20
434.250783589
 30
0.0
 40
12.49999999999997
  0
CIRCLE
  5
86
330
1F
100
AcDbEntity
  8
0
  6
Continuous
 62
     7
370
    15
100
AcDbCircle
 10
349.1419698564
 20
538.549033814
 30
0.0
 40
12.5
  0
LINE
  5
87
330
1F
100
AcDbEntity
  8
0
  6
Continuous
 62
     7
370
    15
100
AcDbLine
 10
335.9661610763
 20
568.0749701448
 30
0.0
 11
345.9661608528
 21
578.0749755092
 31
0.0
  0
LINE
  5
88
330
1F
100
AcDbEntity
  8
0
  6
Continuous
 62
     7
370
    15
100
AcDbLine
 10
345.9661608528
 20
578.0749755092
 30
0.0
 11
380.9661610018
 21
578.0749755092
 31
0.0
  0
LINE
  5
89
330
1F
100
AcDbEntity
  8
0
  6
Continuous
 62
     7
370
    15
100
AcDbLine
 10
380.9661610018
 20
578.0749755092
 30
0.0
 11
380.9661610018
 21
550.9943055101
 31
0.0
  0
ARC
  5
8A
330
1F
100
AcDbEntity
  8
0
  6
Continuous
 62
     7
370
    15
100
AcDbCircle
 10
310.9661607037
 20
396.0749744363
 30
0.0
 40
170.0
100
AcDbArc
 50
294.3157391712
 51
65.6842608288
  0
LINE
  5
8B
330
1F
100
AcDbEntity
  8
0
  6
Continuous
 62
     7
370
    15
100
AcDbLine
 10
380.9661610018
 20
214.074967999
 30
0.0
 11
380.9661610018
 21
241.1556379982
 31
0.0
  0
LINE
  5
8C
330
1F
100
AcDbEntity
  8
0
  6
Continuous
 62
     7
370
    15
100
AcDbLine
 10
345.9661608528
 20
214.074967999
 30
0.0
 11
380.9661610018
 21
214.074967999
 31
0.0
  0
LINE
  5
8D
330
1F
100
AcDbEntity
  8
0
  6
Continuous
 62
     7
370
    15
100
AcDbLine
 10
335.9661610763
 20
224.0749733635
 30
0.0
 11
345.9661608528
 21
214.074967999
 31
0.0
  0
LINE
  5
8E
330
1F
100
AcDbEntity
  8
0
  6
Continuous
 62
     7
370
    15
100
AcDbLine
 10
285.9661603312
 20
224.0749733635
 30
0.0
 11
335.9661610763
 21
224.0749733635
 31
0.0
  0
LINE
  5
8F
330
1F
100
AcDbEntity
  8
0
  6
Continuous
 62
     7
370
    15
100
AcDbLine
 10
275.9661605547
 20
214.074967999
 30
0.0
 11
285.9661603312
 21
224.0749733635
 31
0.0
  0
LINE
  5
90
330
1F
100
AcDbEntity
  8
0
  6
Continuous
 62
     7
370
    15
100
AcDbLine
 10
240.9661604057
 20
214.074967999
 30
0.0
 11
275.9661605547
 21
214.074967999
 31
0.0
  0
LINE
  5
91
330
1F
100
AcDbEntity
  8
0
  6
Continuous
 62
     7
370
    15
100
AcDbLine
 10
240.9661604057
 20
241.1556379982
 30
0.0
 11
240.9661604057
 21
214.074967999
 31
0.0
  0
LINE
  5
92
330
1F
100
AcDbEntity
  8
0
  6
Continuous
 62
     7
370
    15
100
AcDbLine
 10
240.9661604057
 20
550.9943055101
 30
0.0
 11
240.9661604057
 21
578.0749755092
 31
0.0
  0
LINE
  5
93
330
1F
100
AcDbEntity
  8
0
  6
Continuous
 62
     7
370
    15
100
AcDbLine
 10
240.9661604057
 20
578.0749755092
 30
0.0
 11
275.9661605547
 21
578.0749755092
 31
0.0
  0
LINE
  5
94
330
1F
100
AcDbEntity
  8
0
  6
Continuous
 62
     7
370
    15
100
AcDbLine
 10
275.9661605547
 20
578.0749755092
 30
0.0
 11
285.9661603312
 21
568.0749701448
 31
0.0
  0
LINE
  5
95
330
1F
100
AcDbEntity
  8
0
  6
Continuous
 62
     7
370
    15
100
AcDbLine
 10
285.9661603312
 20
568.0749701448
 30
0.0
 11
305.9661608155
 21
568.0749701448
 31
0.0
  0
LINE
  5
96
330
1F
100
AcDbEntity
  8
0
  6
Continuous
 62
     7
370
    15
100
AcDbLine
 10
310.9661607037
 20
565.0749789663
 30
0.0
 11
305.9661608155
 21
568.0749701448
 31
0.0
  0
LINE
  5
97
330
1F
100
AcDbEntity
  8
0
  6
Continuous
 62
     7
370
    15
100
AcDbLine
 10
315.966160592
 20
568.0749701448
 30
0.0
 11
310.9661607037
 21
565.0749789663
 31
0.0
  0
LINE
  5
98
330
1F
100
AcDbEntity
  8
0
  6
Continuous
 62
     7
370
    15
100
AcDbLine
 10
315.966160592
 20
568.0749701448
 30
0.0
 11
335.9661610763
 21
568.0749701448
 31
0.0
  0
CIRCLE
  5
99
330
1F
100
AcDbEntity
  8
0
  6
Continuous
 62
     7
370
    15
100
AcDbCircle
 10
453.4402200814
 20
434.250783589
 30
0.0
 40
12.50000000000006
  0
CIRCLE
  5
9A
330
1F
100
AcDbEntity
  8
0
  6
Continuous
 62
     7
370
    15
100
AcDbCircle
 10
206.6679104787
 20
500.3732246614
 30
0.0
 40
12.50000000000001
  0
CIRCLE
  5
9B
330
1F
100
AcDbEntity
  8
0
  6
Continuous
 62
     7
370
    15
100
AcDbCircle
 10
272.7903515511
 20
538.549033814
 30
0.0
 40
12.49999999999989
  0
CIRCLE
  5
9C
330
1F
100
AcDbEntity
  8
0
  6
Continuous
 62
     7
370
    15
100
AcDbCircle
 10
415.2644109288
 20
291.7767242113
 30
0.0
 40
12.50000000000003
  0
CIRCLE
  5
9D
330
1F
100
AcDbEntity
  8
0
  6
Continuous
 62
     7
370
    15
100
AcDbCircle
 10
272.7903515511
 20
253.6009150587
 30
0.0
 40
12.50000000000009
  0
CIRCLE
  5
9E
330
1F
100
AcDbEntity
  8
0
  6
Continuous
 62
     7
370
    15
100
AcDbCircle
 10
206.6679104787
 20
291.7767242113
 30
0.0
 40
12.50000000000002
  0
ARC
  5
9F
330
1F
100
AcDbEntity
  8
0
  6
Continuous
 62
     7
370
    15
100
AcDbCircle
 10
310.9661607037
 20
396.0749744363
 30
0.0
 40
170.0
100
AcDbArc
 50
114.3157391712
 51
245.6842608288
  0
LINE
  5
A0
330
1F
100
AcDbEntity
  8
0
  6
Continuous
 62
     7
370
    15
100
AcDbLine
 10
100.9661672603
 20
354.0749760457
 30
0.0
 11
35.9494952451
 21
354.0749760457
 31
0.0
  0
LINE
  5
A1
330
1F
100
AcDbEntity
  8
0
  6
Continuous
 62
     7
370
    15
100
AcDbLine
 10
65.9661559354
 20
319.0749721714
 30
0.0
 11
30.9661595117
 21
319.0749721714
 31
0.0
  0
LINE
  5
A2
330
1F
100
AcDbEntity
  8
0
  6
Continuous
 62
     7
370
    15
100
AcDbLine
 10
100.9661672603
 20
319.0749721714
 30
0.0
 11
65.9661559354
 21
319.0749721714
 31
0.0
  0
LINE
  5
A3
330
1F
100
AcDbEntity
  8
0
  6
Continuous
 62
     7
370
    15
100
AcDbLine
 10
65.9661559354
 20
483.0749767013
 30
0.0
 11
30.9661595117
 21
483.0749767013
 31
0.0
  0
LINE
  5
A4
330
1F
100
AcDbEntity
  8
0
  6
Continuous
 62
     7
370
    15
100
AcDbLine
 10
100.9661672603
 20
483.0749767013
 30
0.0
 11
65.9661559354
 21
483.0749767013
 31
0.0
  0
LINE
  5
A5
330
1F
100
AcDbEntity
  8
0
  6
Continuous
 62
     7
370
    15
100
AcDbLine
 10
100.9661672603
 20
448.074972827
 30
0.0
 11
35.9494952451
 21
448.074972827
 31
0.0
  0
LINE
  5
A6
330
1F
100
AcDbEntity
  8
0
  6
Continuous
 62
     7
370
    15
100
AcDbLine
 10
64.0897719155
 20
315.0749715157
 30
0.0
 11
64.0897719155
 21
319.0749721714
 31
0.0
  0
LINE
  5
A7
330
1F
100
AcDbEntity
  8
0
  6
Continuous
 62
     7
370
    15
100
AcDbLine
 10
64.0897719155
 20
315.0749715157
 30
0.0
 11
62.2133878957
 21
315.0749715157
 31
0.0
  0
LINE
  5
A8
330
1F
100
AcDbEntity
  8
0
  6
Continuous
 62
     7
370
    15
100
AcDbLine
 10
62.2133878957
 20
315.0749715157
 30
0.0
 11
62.2133878957
 21
319.0749721714
 31
0.0
  0
LINE
  5
A9
330
1F
100
AcDbEntity
  8
0
  6
Continuous
 62
     7
370
    15
100
AcDbLine
 10
67.8425548564
 20
315.0749715157
 30
0.0
 11
67.8425548564
 21
319.0749721714
 31
0.0
  0
LINE
  5
AA
330
1F
100
AcDbEntity
  8
0
  6
Continuous
 62
     7
370
    15
100
AcDbLine
 10
67.8425548564
 20
315.0749715157
 30
0.0
 11
64.0897719155
 21
315.0749715157
 31
0.0
  0
LINE
  5
AB
330
1F
100
AcDbEntity
  8
0
  6
Continuous
 62
     7
370
    15
100
AcDbLine
 10
69.7189388762
 20
315.0749715157
 30
0.0
 11
69.7189388762
 21
319.0749721714
 31
0.0
  0
LINE
  5
AC
330
1F
100
AcDbEntity
  8
0
  6
Continuous
 62
     7
370
    15
100
AcDbLine
 10
69.7189388762
 20
315.0749715157
 30
0.0
 11
67.8425548564
 21
315.0749715157
 31
0.0
  0
SPLINE
  5
AD
330
1F
100
AcDbEntity
  8
0
  6
Continuous
 62
     7
370
    15
100
AcDbSpline
210
0.0
220
0.0
230
1.0
 70
     8
 71
     3
 72
    37
 73
    33
 74
     0
 42
0.00000001
 43
0.00000001
 12
1.0
 22
0.0
 32
0.0
 13
1.0
 23
0.0
 33
0.0
 40
0.0
 40
0.0
 40
0.0
 40
0.0
 40
0.0017223445047139
 40
0.0284189582082597
 40
0.0636610620087489
 40
0.0989332188788432
 40
0.1342180564117844
 40
0.1694949181111126
 40
0.2047409269533037
 40
0.2409819358535552
 40
0.2772545551033569
 40
0.3135368629214313
 40
0.3498076599931889
 40
0.3860471252959852
 40
0.4215312319932757
 40
0.4570471449383864
 40
0.492573433567379
 40
0.5280888164826667
 40
0.5635724744297145
 40
0.6001550917862145
 40
0.636770675766255
 40
0.6733985619795445
 40
0.7100164564329061
 40
0.7466010312410176
 40
0.7812136383260577
 40
0.8158538388109259
 40
0.8505023939404518
 40
0.8851406622752126
 40
0.919751607950444
 40
0.9553868418425421
 40
0.9910646393726801
 40
1.0
 40
1.0
 40
1.0
 40
1.0
 10
94.96521632775404
 20
439.1370887048894
 30
0.0
 10
94.96553773356351
 20
439.0967848560508
 30
0.0
 10
94.97084098052814
 20
438.4317649412542
 30
0.0
 10
94.94902713109202
 20
436.9169455478811
 30
0.0
 10
94.89581845310227
 20
434.5847129837095
 30
0.0
 10
94.79701415891762
 20
432.0075569097472
 30
0.0
 10
94.67251429894021
 20
429.3985685139548
 30
0.0
 10
94.52905947225499
 20
426.7605443945623
 30
0.0
 10
94.37410245090335
 20
424.0715394163599
 30
0.0
 10
94.21613544581547
 20
421.3319045406265
 30
0.0
 10
94.06120134199966
 20
418.5427860177139
 30
0.0
 10
93.91637395435943
 20
415.7326458448702
 30
0.0
 10
93.78764192365213
 20
412.9060412003871
 30
0.0
 10
93.68142258786897
 20
410.0859496825967
 30
0.0
 10
93.60324408851459
 20
407.2746806976558
 30
0.0
 10
93.55332026152158
 20
404.4747471386528
 30
0.0
 10
93.53176763672965
 20
401.6699478651756
 30
0.0
 10
93.53937244048203
 20
398.8652691942081
 30
0.0
 10
93.57733675663324
 20
396.035431132867
 30
0.0
 10
93.64748777072082
 20
393.1829311228885
 30
0.0
 10
93.74600891245935
 20
390.3103681851699
 30
0.0
 10
93.86748943768481
 20
387.4501660072511
 30
0.0
 10
94.00711539060363
 20
384.6072674722627
 30
0.0
 10
94.15753048625025
 20
381.835838784184
 30
0.0
 10
94.31317759264276
 20
379.1366758566767
 30
0.0
 10
94.46582557748958
 20
376.509536225664
 30
0.0
 10
94.61139045696889
 20
373.9066164051287
 30
0.0
 10
94.74207159888768
 20
371.3319439743078
 30
0.0
 10
94.85321787752835
 20
368.7620067905305
 30
0.0
 10
94.9307504549474
 20
366.2037624489222
 30
0.0
 10
94.97116040438011
 20
364.2842410852583
 30
0.0
 10
94.96322866085269
 20
363.2399685293581
 30
0.0
 10
94.96164004906751
 20
363.0308160670453
 30
0.0
  0
LINE
  5
AE
330
1F
100
AcDbEntity
  8
0
  6
Continuous
 62
     7
370
    15
100
AcDbLine
 10
43.2285336743
 20
354.0749760457
 30
0.0
 11
43.2285336743
 21
448.074972827
 31
0.0
  0
LINE
  5
AF
330
1F
100
AcDbEntity
  8
0
  6
Continuous
 62
     7
370
    15
100
AcDbLine
 10
140.9845469485
 20
393.574974604
 30
0.0
 11
128.2914398204
 21
393.574974604
 31
0.0
  0
ELLIPSE
  5
B0
330
1F
100
AcDbEntity
  8
0
  6
Continuous
 62
     7
370
    15
100
AcDbEllipse
 10
104.2862658569
 20
401.0749744363
 30
0.0
 11
0.0
 21
62.5
 31
0.0
210
0.0
220
0.0
230
1.0
 40
0.3868783175
 41
4.592099097989908
 42
4.832678862779483
  0
LINE
  5
B1
330
1F
100
AcDbEntity
  8
0
  6
Continuous
 62
     7
370
    15
100
AcDbLine
 10
141.4263365756
 20
408.5749742687
 30
0.0
 11
128.2914398204
 21
408.5749742687
 31
0.0
  0
LINE
  5
B2
330
1F
100
AcDbEntity
  8
0
  6
Continuous
 62
     7
370
    15
100
AcDbLine
 10
480.5059848319
 20
408.5749742687
 30
0.0
 11
493.6408815871
 21
408.5749742687
 31
0.0
  0
ELLIPSE
  5
B3
330
1F
100
AcDbEntity
  8
0
  6
Continuous
 62
     7
370
    15
100
AcDbEllipse
 10
517.6460555505
 20
401.0749744363
 30
0.0
 11
0.0
 21
62.5
 31
0.0
210
0.0
220
0.0
230
1.0
 40
0.3868783175
 41
1.450506444400109
 42
1.691086209189684
  0
LINE
  5
B4
330
1F
100
AcDbEntity
  8
0
  6
Continuous
 62
     7
370
    15
100
AcDbLine
 10
480.947774459
 20
393.574974604
 30
0.0
 11
493.6408815871
 21
393.574974604
 31
0.0
  0
LINE
  5
B5
330
1F
100
AcDbEntity
  8
0
  6
Continuous
 62
     7
370
    15
100
AcDbLine
 10
35.9494952451
 20
354.0749760457
 30
0.0
 11
30.9661595117
 21
354.0749760457
 31
0.0
  0
LINE
  5
B6
330
1F
100
AcDbEntity
  8
0
  6
Continuous
 62
     7
370
    15
100
AcDbLine
 10
30.9661595117
 20
448.074972827
 30
0.0
 11
35.9494952451
 21
448.074972827
 31
0.0
  0
LINE
  5
B7
330
1F
100
AcDbEntity
  8
0
  6
Continuous
 62
     7
370
    15
100
AcDbLine
 10
30.9661595117
 20
354.0749760457
 30
0.0
 11
30.9661595117
 21
448.074972827
 31
0.0
  0
LINE
  5
B8
330
1F
100
AcDbEntity
  8
0
  6
Continuous
 62
     7
370
    15
100
AcDbLine
 10
74.9661592732
 20
316.0749735423
 30
0.0
 11
74.9661592732
 21
319.0749721714
 31
0.0
  0
LINE
  5
B9
330
1F
100
AcDbEntity
  8
0
  6
Continuous
 62
     7
370
    15
100
AcDbLine
 10
103.9661584388
 20
316.0749735423
 30
0.0
 11
103.9661584388
 21
486.0749753304
 31
0.0
  0
LINE
  5
BA
330
1F
100
AcDbEntity
  8
0
  6
Continuous
 62
     7
370
    15
100
AcDbLine
 10
58.4661630879
 20
559.0749817081
 30
0.0
 11
73.466163684
 21
559.0749817081
 31
0.0
  0
LINE
  5
BB
330
1F
100
AcDbEntity
  8
0
  6
Continuous
 62
     7
370
    15
100
AcDbLine
 10
42.7161721478
 20
315.0749715157
 30
0.0
 11
42.7161721478
 21
319.0749721714
 31
0.0
  0
LINE
  5
BC
330
1F
100
AcDbEntity
  8
0
  6
Continuous
 62
     7
370
    15
100
AcDbLine
 10
42.7161721478
 20
315.0749715157
 30
0.0
 11
39.4661692868
 21
315.0749715157
 31
0.0
  0
LINE
  5
BD
330
1F
100
AcDbEntity
  8
0
  6
Continuous
 62
     7
370
    15
100
AcDbLine
 10
39.4661692868
 20
315.0749715157
 30
0.0
 11
39.4661692868
 21
319.0749721714
 31
0.0
  0
LINE
  5
BE
330
1F
100
AcDbEntity
  8
0
  6
Continuous
 62
     7
370
    15
100
AcDbLine
 10
39.4661692868
 20
315.0749715157
 30
0.0
 11
36.2161664258
 21
315.0749715157
 31
0.0
  0
LINE
  5
BF
330
1F
100
AcDbEntity
  8
0
  6
Continuous
 62
     7
370
    15
100
AcDbLine
 10
36.2161664258
 20
315.0749715157
 30
0.0
 11
36.2161664258
 21
319.0749721714
 31
0.0
  0
LINE
  5
C0
330
1F
100
AcDbEntity
  8
0
  6
Continuous
 62
     7
370
    15
100
AcDbLine
 10
92.4661574851
 20
315.0749715157
 30
0.0
 11
92.4661574851
 21
319.0749721714
 31
0.0
  0
LINE
  5
C1
330
1F
100
AcDbEntity
  8
0
  6
Continuous
 62
     7
370
    15
100
AcDbLine
 10
89.2161546241
 20
315.0749715157
 30
0.0
 11
89.2161546241
 21
319.0749721714
 31
0.0
  0
LINE
  5
C2
330
1F
100
AcDbEntity
  8
0
  6
Continuous
 62
     7
370
    15
100
AcDbLine
 10
92.4661574851
 20
315.0749715157
 30
0.0
 11
89.2161546241
 21
315.0749715157
 31
0.0
  0
LINE
  5
C3
330
1F
100
AcDbEntity
  8
0
  6
Continuous
 62
     7
370
    15
100
AcDbLine
 10
95.7161603461
 20
315.0749715157
 30
0.0
 11
95.7161603461
 21
319.0749721714
 31
0.0
  0
LINE
  5
C4
330
1F
100
AcDbEntity
  8
0
  6
Continuous
 62
     7
370
    15
100
AcDbLine
 10
95.7161603461
 20
315.0749715157
 30
0.0
 11
92.4661574851
 21
315.0749715157
 31
0.0
  0
LINE
  5
C5
330
1F
100
AcDbEntity
  8
0
  6
Continuous
 62
     7
370
    15
100
AcDbLine
 10
537.9661587964
 20
463.5749744363
 30
0.0
 11
537.9661587964
 21
338.5749744363
 31
0.0
  0
LINE
  5
C6
330
1F
100
AcDbEntity
  8
0
  6
Continuous
 62
     7
370
    15
100
AcDbLine
 10
493.4661654721
 20
463.5749744363
 30
0.0
 11
493.4661654721
 21
408.5749742687
 31
0.0
  0
LINE
  5
C7
330
1F
100
AcDbEntity
  8
0
  6
Continuous
 62
     7
370
    15
100
AcDbLine
 10
493.4661654721
 20
393.574974604
 30
0.0
 11
493.4661654721
 21
338.5749744363
 31
0.0
  0
LINE
  5
C8
330
1F
100
AcDbEntity
  8
0
  6
Continuous
 62
     7
370
    15
100
AcDbLine
 10
110.9661577235
 20
463.5749744363
 30
0.0
 11
110.9661577235
 21
460.7055323311
 31
0.0
  0
LINE
  5
C9
330
1F
100
AcDbEntity
  8
0
  6
Continuous
 62
     7
370
    15
100
AcDbLine
 10
110.9661577235
 20
341.4444165416
 30
0.0
 11
110.9661577235
 21
338.5749744363
 31
0.0
  0
LINE
  5
CA
330
1F
100
AcDbEntity
  8
0
  6
Continuous
 62
     7
370
    15
100
AcDbLine
 10
110.9661577235
 20
437.6287261136
 30
0.0
 11
110.9661577235
 21
364.5212227591
 31
0.0
  0
LINE
  5
CB
330
1F
100
AcDbEntity
  8
0
  6
Continuous
 62
     7
370
    15
100
AcDbLine
 10
128.4661559354
 20
463.5749744363
 30
0.0
 11
128.4661559354
 21
408.5749742687
 31
0.0
  0
LINE
  5
CC
330
1F
100
AcDbEntity
  8
0
  6
Continuous
 62
     7
370
    15
100
AcDbLine
 10
128.4661559354
 20
393.574974604
 30
0.0
 11
128.4661559354
 21
338.5749744363
 31
0.0
  0
LINE
  5
CD
330
1F
100
AcDbEntity
  8
0
  6
Continuous
 62
     7
370
    15
100
AcDbLine
 10
110.9661577235
 20
355.5865535625
 30
0.0
 11
103.9661584388
 21
355.5865535625
 31
0.0
  0
LINE
  5
CE
330
1F
100
AcDbEntity
  8
0
  6
Continuous
 62
     7
370
    15
100
AcDbLine
 10
110.9661577235
 20
341.4444165416
 30
0.0
 11
103.9661584388
 21
341.4444165416
 31
0.0
  0
LINE
  5
CF
330
1F
100
AcDbEntity
  8
0
  6
Continuous
 62
     7
370
    15
100
AcDbLine
 10
110.9661577235
 20
355.5865535625
 30
0.0
 11
110.9661577235
 21
341.4444165416
 31
0.0
  0
LINE
  5
D0
330
1F
100
AcDbEntity
  8
0
  6
Continuous
 62
     7
370
    15
100
AcDbLine
 10
110.9661577235
 20
380.7599140443
 30
0.0
 11
103.9661584388
 21
380.7599140443
 31
0.0
  0
LINE
  5
D1
330
1F
100
AcDbEntity
  8
0
  6
Continuous
 62
     7
370
    15
100
AcDbLine
 10
110.9661577235
 20
364.5212227591
 30
0.0
 11
110.9661577235
 21
355.5865535625
 31
0.0
  0
LINE
  5
D2
330
1F
100
AcDbEntity
  8
0
  6
Continuous
 62
     7
370
    15
100
AcDbLine
 10
110.9661577235
 20
460.7055323311
 30
0.0
 11
103.9661584388
 21
460.7055323311
 31
0.0
  0
LINE
  5
D3
330
1F
100
AcDbEntity
  8
0
  6
Continuous
 62
     7
370
    15
100
AcDbLine
 10
110.9661577235
 20
446.5633953102
 30
0.0
 11
103.9661584388
 21
446.5633953102
 31
0.0
  0
LINE
  5
D4
330
1F
100
AcDbEntity
  8
0
  6
Continuous
 62
     7
370
    15
100
AcDbLine
 10
110.9661577235
 20
460.7055323311
 30
0.0
 11
110.9661577235
 21
446.5633953102
 31
0.0
  0
LINE
  5
D5
330
1F
100
AcDbEntity
  8
0
  6
Continuous
 62
     7
370
    15
100
AcDbLine
 10
110.9661577235
 20
421.3900348284
 30
0.0
 11
103.9661584388
 21
421.3900348284
 31
0.0
  0
LINE
  5
D6
330
1F
100
AcDbEntity
  8
0
  6
Continuous
 62
     7
370
    15
100
AcDbLine
 10
110.9661577235
 20
446.5633953102
 30
0.0
 11
110.9661577235
 21
437.6287261136
 31
0.0
  0
LINE
  5
D7
330
1F
100
AcDbEntity
  8
0
  6
Continuous
 62
     7
370
    15
100
AcDbLine
 10
24.0161685239
 20
394.5749743022
 30
0.0
 11
24.0161685239
 21
407.5749745705
 31
0.0
  0
SPLINE
  5
D8
330
1F
100
AcDbEntity
  8
0
  6
Continuous
 62
     7
370
    15
100
AcDbSpline
210
0.0
220
0.0
230
1.0
 70
     8
 71
     3
 72
     8
 73
     4
 74
     0
 42
0.00000001
 43
0.00000001
 12
1.0
 22
0.0
 32
0.0
 13
1.0
 23
0.0
 33
0.0
 40
0.0
 40
0.0
 40
0.0
 40
0.0
 40
1.0
 40
1.0
 40
1.0
 40
1.0
 10
128.4661607037459
 20
439.4998687107634
 30
0.0
 10
133.7570474780331
 20
436.3875294909464
 30
0.0
 10
139.0425780579725
 20
433.2658720543272
 30
0.0
 10
144.314425593001
 20
430.1223495329037
 30
0.0
  0
LINE
  5
D9
330
1F
100
AcDbEntity
  8
0
  6
Continuous
 62
     7
370
    15
100
AcDbLine
 10
144.3144200335
 20
430.1223499813
 30
0.0
 11
144.3144200335
 21
429.6487612762
 31
0.0
  0
SPLINE
  5
DA
330
1F
100
AcDbEntity
  8
0
  6
Continuous
 62
     7
370
    15
100
AcDbSpline
210
0.0
220
0.0
230
1.0
 70
     8
 71
     3
 72
    10
 73
     6
 74
     0
 42
0.00000001
 43
0.00000001
 12
1.0
 22
0.0
 32
0.0
 13
1.0
 23
0.0
 33
0.0
 40
0.0
 40
0.0
 40
0.0
 40
0.0
 40
0.5
 40
0.5
 40
1.0
 40
1.0
 40
1.0
 40
1.0
 10
128.4661607037459
 20
427.5618609335027
 30
0.0
 10
128.6350072798271
 20
427.8885290180942
 30
0.0
 10
128.7258782970339
 20
428.2499735799016
 30
0.0
 10
128.7260582198027
 20
429.0531174671003
 30
0.0
 10
128.6350237546372
 20
429.4724073011736
 30
0.0
 10
128.4661607037459
 20
429.9049474451261
 30
0.0
  0
SPLINE
  5
DB
330
1F
100
AcDbEntity
  8
0
  6
Continuous
 62
     7
370
    15
100
AcDbSpline
210
0.0
220
0.0
230
1.0
 70
     8
 71
     3
 72
     9
 73
     5
 74
     0
 42
0.00000001
 43
0.00000001
 12
1.0
 22
0.0
 32
0.0
 13
1.0
 23
0.0
 33
0.0
 40
0.0
 40
0.0
 40
0.0
 40
0.0
 40
0.6097389601205664
 40
1.0
 40
1.0
 40
1.0
 40
1.0
 10
142.8138134966765
 20
371.137666154688
 30
0.0
 10
139.9010686909381
 20
369.4069052946112
 30
0.0
 10
135.1240329490159
 20
366.5683777061257
 30
0.0
 10
130.3350927265243
 20
363.7499879425789
 30
0.0
 10
128.4661559353742
 20
362.6500802226716
 30
0.0
  0
SPLINE
  5
DC
330
1F
100
AcDbEntity
  8
0
  6
Continuous
 62
     7
370
    15
100
AcDbSpline
210
0.0
220
0.0
230
1.0
 70
     8
 71
     3
 72
    10
 73
     6
 74
     0
 42
0.00000001
 43
0.00000001
 12
1.0
 22
0.0
 32
0.0
 13
1.0
 23
0.0
 33
0.0
 40
0.0
 40
0.0
 40
0.0
 40
0.0
 40
0.5
 40
0.5
 40
1.0
 40
1.0
 40
1.0
 40
1.0
 10
128.4661607037459
 20
372.2450014275703
 30
0.0
 10
128.6350072798271
 20
372.6774993715462
 30
0.0
 10
128.7258782970339
 20
373.095588435787
 30
0.0
 10
128.7260582198027
 20
373.898844663117
 30
0.0
 10
128.6350237546372
 20
374.2613879807271
 30
0.0
 10
128.4661607037459
 20
374.5880879391938
 30
0.0
  0
SPLINE
  5
DD
330
1F
100
AcDbEntity
  8
0
  6
Continuous
 62
     7
370
    15
100
AcDbSpline
210
0.0
220
0.0
230
1.0
 70
     8
 71
     3
 72
     9
 73
     5
 74
     0
 42
0.00000001
 43
0.00000001
 12
1.0
 22
0.0
 32
0.0
 13
1.0
 23
0.0
 33
0.0
 40
0.0
 40
0.0
 40
0.0
 40
0.0
 40
0.9062909918878215
 40
1.0
 40
1.0
 40
1.0
 40
1.0
 10
493.4661654721175
 20
362.6500802226716
 30
0.0
 10
489.1250723374009
 20
365.2068829199526
 30
0.0
 10
484.335117263839
 20
368.0280548395311
 30
0.0
 10
479.5587775021443
 20
370.8721832003957
 30
0.0
 10
479.1111914406691
 20
371.1387036480361
 30
0.0
  0
SPLINE
  5
DE
330
1F
100
AcDbEntity
  8
0
  6
Continuous
 62
     7
370
    15
100
AcDbSpline
210
0.0
220
0.0
230
1.0
 70
     8
 71
     3
 72
    10
 73
     6
 74
     0
 42
0.00000001
 43
0.00000001
 12
1.0
 22
0.0
 32
0.0
 13
1.0
 23
0.0
 33
0.0
 40
0.0
 40
0.0
 40
0.0
 40
0.0
 40
0.5
 40
0.5
 40
1.0
 40
1.0
 40
1.0
 40
1.0
 10
493.4661607037458
 20
372.2450014275703
 30
0.0
 10
493.2973141276647
 20
372.6774993715462
 30
0.0
 10
493.2064431104579
 20
373.095588435787
 30
0.0
 10
493.206263187689
 20
373.898844663117
 30
0.0
 10
493.2972976528545
 20
374.2613879807271
 30
0.0
 10
493.4661607037458
 20
374.5880879391938
 30
0.0
  0
LINE
  5
DF
330
1F
100
AcDbEntity
  8
0
  6
Continuous
 62
     7
370
    15
100
AcDbLine
 10
477.617901374
 20
429.6487612762
 30
0.0
 11
477.617901374
 21
430.1223499813
 31
0.0
  0
SPLINE
  5
E0
330
1F
100
AcDbEntity
  8
0
  6
Continuous
 62
     7
370
    15
100
AcDbSpline
210
0.0
220
0.0
230
1.0
 70
     8
 71
     3
 72
     8
 73
     4
 74
     0
 42
0.00000001
 43
0.00000001
 12
1.0
 22
0.0
 32
0.0
 13
1.0
 23
0.0
 33
0.0
 40
0.0
 40
0.0
 40
0.0
 40
0.0
 40
1.0
 40
1.0
 40
1.0
 40
1.0
 10
477.6178958144907
 20
430.1223495329036
 30
0.0
 10
482.8900201031712
 20
433.2660370783216
 30
0.0
 10
488.1754135365484
 20
436.3876116141593
 30
0.0
 10
493.4661607037458
 20
439.4998687107634
 30
0.0
  0
SPLINE
  5
E1
330
1F
100
AcDbEntity
  8
0
  6
Continuous
 62
     7
370
    15
100
AcDbSpline
210
0.0
220
0.0
230
1.0
 70
     8
 71
     3
 72
    10
 73
     6
 74
     0
 42
0.00000001
 43
0.00000001
 12
1.0
 22
0.0
 32
0.0
 13
1.0
 23
0.0
 33
0.0
 40
0.0
 40
0.0
 40
0.0
 40
0.0
 40
0.5
 40
0.5
 40
1.0
 40
1.0
 40
1.0
 40
1.0
 10
493.4661607037458
 20
427.5618609335027
 30
0.0
 10
493.2973141276647
 20
427.8885290180942
 30
0.0
 10
493.2064431104579
 20
428.2499735799016
 30
0.0
 10
493.206263187689
 20
429.0531174671003
 30
0.0
 10
493.2972976528545
 20
429.4724073011736
 30
0.0
 10
493.4661607037458
 20
429.9049474451261
 30
0.0
  0
LINE
  5
E2
330
1F
100
AcDbEntity
  8
0
  6
Continuous
 62
     7
370
    15
100
AcDbLine
 10
144.3144200335
 20
430.1223499813
 30
0.0
 11
144.4105325232
 21
430.1223499813
 31
0.0
  0
LINE
  5
E3
330
1F
100
AcDbEntity
  8
0
  6
Continuous
 62
     7
370
    15
100
AcDbLine
 10
156.6935447942
 20
430.1223499813
 30
0.0
 11
180.2906660329
 21
430.1223499813
 31
0.0
  0
LINE
  5
E4
330
1F
100
AcDbEntity
  8
0
  6
Continuous
 62
     7
370
    15
100
AcDbLine
 10
441.6416553746
 20
430.1223499813
 30
0.0
 11
465.2387766133
 21
430.1223499813
 31
0.0
  0
LINE
  5
E5
330
1F
100
AcDbEntity
  8
0
  6
Continuous
 62
     7
370
    15
100
AcDbLine
 10
477.5217888842
 20
430.1223499813
 30
0.0
 11
477.617901374
 21
430.1223499813
 31
0.0
  0
LINE
  5
E6
330
1F
100
AcDbEntity
  8
0
  6
Continuous
 62
     7
370
    15
100
AcDbLine
 10
493.4661654721
 20
443.5749748834
 30
0.0
 11
474.1952983628
 21
443.5749748834
 31
0.0
  0
LINE
  5
E7
330
1F
100
AcDbEntity
  8
0
  6
Continuous
 62
     7
370
    15
100
AcDbLine
 10
461.7654500495
 20
443.5749748834
 30
0.0
 11
445.1149968396
 21
443.5749748834
 31
0.0
  0
LINE
  5
E8
330
1F
100
AcDbEntity
  8
0
  6
Continuous
 62
     7
370
    15
100
AcDbLine
 10
128.4661559354
 20
443.5749748834
 30
0.0
 11
147.7370230447
 21
443.5749748834
 31
0.0
  0
LINE
  5
E9
330
1F
100
AcDbEntity
  8
0
  6
Continuous
 62
     7
370
    15
100
AcDbLine
 10
160.166871358
 20
443.5749748834
 30
0.0
 11
176.8173245679
 21
443.5749748834
 31
0.0
  0
LINE
  5
EA
330
1F
100
AcDbEntity
  8
0
  6
Continuous
 62
     7
370
    15
100
AcDbLine
 10
128.4661559354
 20
358.5749739893
 30
0.0
 11
145.1537726413
 21
358.5749739893
 31
0.0
  0
LINE
  5
EB
330
1F
100
AcDbEntity
  8
0
  6
Continuous
 62
     7
370
    15
100
AcDbLine
 10
156.0103861581
 20
358.5749739893
 30
0.0
 11
180.973824669
 21
358.5749739893
 31
0.0
  0
LINE
  5
EC
330
1F
100
AcDbEntity
  8
0
  6
Continuous
 62
     7
370
    15
100
AcDbLine
 10
493.4661654721
 20
358.5749739893
 30
0.0
 11
476.7785487662
 21
358.5749739893
 31
0.0
  0
LINE
  5
ED
330
1F
100
AcDbEntity
  8
0
  6
Continuous
 62
     7
370
    15
100
AcDbLine
 10
465.9219352494
 20
358.5749739893
 30
0.0
 11
440.9584967385
 21
358.5749739893
 31
0.0
  0
LINE
  5
EE
330
1F
100
AcDbEntity
  8
0
  6
Continuous
 62
     7
370
    15
100
AcDbLine
 10
24.0161685239
 20
358.5749739893
 30
0.0
 11
24.0161685239
 21
371.5749742575
 31
0.0
  0
LINE
  5
EF
330
1F
100
AcDbEntity
  8
0
  6
Continuous
 62
     7
370
    15
100
AcDbLine
 10
24.0161685239
 20
430.5749746152
 30
0.0
 11
24.0161685239
 21
443.5749748834
 31
0.0
  0
INSERT
  5
14F
330
1F
100
AcDbEntity
  8
FORMAT
 62
     7
100
AcDbBlockReference
  2
SW_CENTERMARKSYMBOL_0
 10
349.1419698564
 20
538.549033814
 30
0.0
  0
LINE
  5
150
330
1F
100
AcDbEntity
  8
FORMAT
  6
CENTERX2
 62
     7
370
     0
100
AcDbLine
 10
481.0801672861
 20
401.0749744363
 30
0.0
 11
539.9661607037
 21
401.0749744363
 31
0.0
  0
LINE
  5
151
330
1F
100
AcDbEntity
  8
FORMAT
  6
CENTERX2
 62
     7
370
     0
100
AcDbLine
 10
18.2908569526
 20
401.0749744363
 30
0.0
 11
144.6945044019
 21
401.0749744363
 31
0.0
  0
LINE
  5
152
330
1F
100
AcDbEntity
  8
0
  6
Continuous
 62
     7
370
    15
100
AcDbLine
 10
710.4492802738
 20
519.0749751516
 30
0.0
 11
710.4492802738
 21
509.0749772378
 31
0.0
  0
LINE
  5
153
330
1F
100
AcDbEntity
  8
0
  6
Continuous
 62
     7
370
    15
100
AcDbLine
 10
836.4492785751
 20
509.0749772378
 30
0.0
 11
836.4492785751
 21
519.0749751516
 31
0.0
  0
LINE
  5
154
330
1F
100
AcDbEntity
  8
0
  6
Continuous
 62
     7
370
    15
100
AcDbLine
 10
808.4492814361
 20
448.074972827
 30
0.0
 11
808.4492814361
 21
483.0749767013
 31
0.0
  0
LINE
  5
155
330
1F
100
AcDbEntity
  8
0
  6
Continuous
 62
     7
370
    15
100
AcDbLine
 10
738.4492811381
 20
483.0749767013
 30
0.0
 11
738.4492811381
 21
463.8762461134
 31
0.0
  0
LINE
  5
156
330
1F
100
AcDbEntity
  8
0
  6
Continuous
 62
     7
370
    15
100
AcDbLine
 10
738.4492811381
 20
338.2737027593
 30
0.0
 11
738.4492811381
 21
319.0749721714
 31
0.0
  0
LINE
  5
157
330
1F
100
AcDbEntity
  8
0
  6
Continuous
 62
     7
370
    15
100
AcDbLine
 10
808.4492814361
 20
319.0749721714
 30
0.0
 11
808.4492814361
 21
354.0749760457
 31
0.0
  0
LINE
  5
158
330
1F
100
AcDbEntity
  8
0
  6
Continuous
 62
     7
370
    15
100
AcDbLine
 10
802.4492767273
 20
483.0749767013
 30
0.0
 11
802.4492767273
 21
509.0749772378
 31
0.0
  0
LINE
  5
159
330
1F
100
AcDbEntity
  8
0
  6
Continuous
 62
     7
370
    15
100
AcDbLine
 10
744.4492783962
 20
509.0749772378
 30
0.0
 11
744.4492783962
 21
483.0749767013
 31
0.0
  0
LINE
  5
15A
330
1F
100
AcDbEntity
  8
0
  6
Continuous
 62
     7
370
    15
100
AcDbLine
 10
802.4492767273
 20
354.0749760457
 30
0.0
 11
802.4492767273
 21
448.074972827
 31
0.0
  0
LINE
  5
15B
330
1F
100
AcDbEntity
  8
0
  6
Continuous
 62
     7
370
    15
100
AcDbLine
 10
780.9492778598
 20
519.0749751516
 30
0.0
 11
780.9492778598
 21
559.0749817081
 31
0.0
  0
LINE
  5
15C
330
1F
100
AcDbEntity
  8
0
  6
Continuous
 62
     7
370
    15
100
AcDbLine
 10
765.9492772637
 20
559.0749817081
 30
0.0
 11
765.9492772637
 21
519.0749751516
 31
0.0
  0
LINE
  5
15D
330
1F
100
AcDbEntity
  8
0
  6
Continuous
 62
     7
370
    15
100
AcDbLine
 10
582.4492779194
 20
263.0749778934
 30
0.0
 11
585.4492765485
 21
263.0749778934
 31
0.0
  0
LINE
  5
15E
330
1F
100
AcDbEntity
  8
0
  6
Continuous
 62
     7
370
    15
100
AcDbLine
 10
585.4492765485
 20
529.074980516
 30
0.0
 11
582.4492779194
 21
529.074980516
 31
0.0
  0
LINE
  5
15F
330
1F
100
AcDbEntity
  8
0
  6
Continuous
 62
     7
370
    15
100
AcDbLine
 10
809.4492834626
 20
263.0749778934
 30
0.0
 11
812.4492820917
 21
263.0749778934
 31
0.0
  0
LINE
  5
160
330
1F
100
AcDbEntity
  8
0
  6
Continuous
 62
     7
370
    15
100
AcDbLine
 10
812.4492820917
 20
529.074980516
 30
0.0
 11
809.4492834626
 21
529.074980516
 31
0.0
  0
LINE
  5
161
330
1F
100
AcDbEntity
  8
0
  6
Continuous
 62
     7
370
    15
100
AcDbLine
 10
602.4492811977
 20
273.0749683567
 30
0.0
 11
639.5402234613
 21
286.5749733635
 31
0.0
  0
LINE
  5
162
330
1F
100
AcDbEntity
  8
0
  6
Continuous
 62
     7
370
    15
100
AcDbLine
 10
755.3583365499
 20
286.5749733635
 30
0.0
 11
792.4492788135
 21
273.0749683567
 31
0.0
  0
LINE
  5
163
330
1F
100
AcDbEntity
  8
0
  6
Continuous
 62
     7
370
    15
100
AcDbLine
 10
639.5402234613
 20
505.5749775954
 30
0.0
 11
602.4492811977
 21
519.0749751516
 31
0.0
  0
LINE
  5
164
330
1F
100
AcDbEntity
  8
0
  6
Continuous
 62
     7
370
    15
100
AcDbLine
 10
681.6110537021
 20
505.5749775954
 30
0.0
 11
639.5402234613
 21
505.5749775954
 31
0.0
  0
LINE
  5
165
330
1F
100
AcDbEntity
  8
0
  6
Continuous
 62
     7
370
    15
100
AcDbLine
 10
744.4492783962
 20
505.5749775954
 30
0.0
 11
713.2898942201
 21
505.5749775954
 31
0.0
  0
LINE
  5
166
330
1F
100
AcDbEntity
  8
0
  6
Continuous
 62
     7
370
    15
100
AcDbLine
 10
713.2898942201
 20
286.5749733635
 30
0.0
 11
755.3583365499
 21
286.5749733635
 31
0.0
  0
LINE
  5
167
330
1F
100
AcDbEntity
  8
0
  6
Continuous
 62
     7
370
    15
100
AcDbLine
 10
639.5402234613
 20
286.5749733635
 30
0.0
 11
681.6110537021
 21
286.5749733635
 31
0.0
  0
LINE
  5
168
330
1F
100
AcDbEntity
  8
0
  6
Continuous
 62
     7
370
    15
100
AcDbLine
 10
681.5981977253
 20
286.5765081831
 30
0.0
 11
682.4492803408
 21
254.0749745556
 31
0.0
  0
LINE
  5
169
330
1F
100
AcDbEntity
  8
0
  6
Continuous
 62
     7
370
    15
100
AcDbLine
 10
712.4492796703
 20
254.0749745556
 30
0.0
 11
713.3003548353
 21
286.576225061
 31
0.0
  0
LINE
  5
16A
330
1F
100
AcDbEntity
  8
0
  6
Continuous
 62
     7
370
    15
100
AcDbLine
 10
713.3003548353
 20
505.5737258979
 30
0.0
 11
713.2086717157
 21
509.0749772378
 31
0.0
  0
LINE
  5
16B
330
1F
100
AcDbEntity
  8
0
  6
Continuous
 62
     7
370
    15
100
AcDbLine
 10
712.9468126787
 20
519.0749751516
 30
0.0
 11
712.4492796703
 21
538.0749689527
 31
0.0
  0
LINE
  5
16C
330
1F
100
AcDbEntity
  8
0
  6
Continuous
 62
     7
370
    15
100
AcDbLine
 10
682.4492803408
 20
538.0749689527
 30
0.0
 11
681.5981977253
 21
505.5734427758
 31
0.0
  0
LINE
  5
16D
330
1F
100
AcDbEntity
  8
0
  6
Continuous
 62
     7
370
    15
100
AcDbLine
 10
710.4492802738
 20
509.0749772378
 30
0.0
 11
836.4492785751
 21
509.0749772378
 31
0.0
  0
LINE
  5
16E
330
1F
100
AcDbEntity
  8
0
  6
Continuous
 62
     7
370
    15
100
AcDbLine
 10
710.4492802738
 20
519.0749751516
 30
0.0
 11
836.4492785751
 21
519.0749751516
 31
0.0
  0
CIRCLE
  5
16F
330
1F
100
AcDbEntity
  8
0
  6
Continuous
 62
     7
370
    15
100
AcDbCircle
 10
661.4492800056
 20
401.0749744363
 30
0.0
 40
6.500000000000114
  0
CIRCLE
  5
170
330
1F
100
AcDbEntity
  8
0
  6
Continuous
 62
     7
370
    15
100
AcDbCircle
 10
697.4492800056
 20
365.0749744363
 30
0.0
 40
6.500000000000114
  0
CIRCLE
  5
171
330
1F
100
AcDbEntity
  8
0
  6
Continuous
 62
     7
370
    15
100
AcDbCircle
 10
697.4492800056
 20
437.0749744363
 30
0.0
 40
6.5
  0
CIRCLE
  5
172
330
1F
100
AcDbEntity
  8
0
  6
Continuous
 62
     7
370
    15
100
AcDbCircle
 10
733.4492800056
 20
401.0749744363
 30
0.0
 40
6.5
  0
LINE
  5
173
330
1F
100
AcDbEntity
  8
0
  6
Continuous
 62
     7
370
    15
100
AcDbLine
 10
808.4492814361
 20
448.074972827
 30
0.0
 11
791.4492767869
 21
448.074972827
 31
0.0
  0
LINE
  5
174
330
1F
100
AcDbEntity
  8
0
  6
Continuous
 62
     7
370
    15
100
AcDbLine
 10
755.4492783366
 20
448.074972827
 30
0.0
 11
747.5118544518
 21
448.074972827
 31
0.0
  0
LINE
  5
175
330
1F
100
AcDbEntity
  8
0
  6
Continuous
 62
     7
370
    15
100
AcDbLine
 10
747.5118544518
 20
448.074972827
 30
0.0
 11
747.5118544518
 21
456.9206411131
 31
0.0
  0
LINE
  5
176
330
1F
100
AcDbEntity
  8
0
  6
Continuous
 62
     7
370
    15
100
AcDbLine
 10
808.4492814361
 20
483.0749767013
 30
0.0
 11
738.4492811381
 21
483.0749767013
 31
0.0
  0
LINE
  5
177
330
1F
100
AcDbEntity
  8
0
  6
Continuous
 62
     7
370
    15
100
AcDbLine
 10
747.5118544518
 20
354.0749760457
 30
0.0
 11
747.5118544518
 21
345.2293077596
 31
0.0
  0
LINE
  5
178
330
1F
100
AcDbEntity
  8
0
  6
Continuous
 62
     7
370
    15
100
AcDbLine
 10
755.4492783366
 20
354.0749760457
 30
0.0
 11
747.5118544518
 21
354.0749760457
 31
0.0
  0
LINE
  5
179
330
1F
100
AcDbEntity
  8
0
  6
Continuous
 62
     7
370
    15
100
AcDbLine
 10
808.4492814361
 20
354.0749760457
 30
0.0
 11
791.4492767869
 21
354.0749760457
 31
0.0
  0
LINE
  5
17A
330
1F
100
AcDbEntity
  8
0
  6
Continuous
 62
     7
370
    15
100
AcDbLine
 10
808.4492814361
 20
319.0749721714
 30
0.0
 11
738.4492811381
 21
319.0749721714
 31
0.0
  0
LINE
  5
17B
330
1F
100
AcDbEntity
  8
0
  6
Continuous
 62
     7
370
    15
100
AcDbLine
 10
773.4492775618
 20
448.074972827
 30
0.0
 11
791.4492767869
 21
448.074972827
 31
0.0
  0
LINE
  5
17C
330
1F
100
AcDbEntity
  8
0
  6
Continuous
 62
     7
370
    15
100
AcDbLine
 10
791.4492767869
 20
354.0749760457
 30
0.0
 11
791.4492767869
 21
448.074972827
 31
0.0
  0
LINE
  5
17D
330
1F
100
AcDbEntity
  8
0
  6
Continuous
 62
     7
370
    15
100
AcDbLine
 10
791.4492767869
 20
354.0749760457
 30
0.0
 11
773.4492775618
 21
354.0749760457
 31
0.0
  0
LINE
  5
17E
330
1F
100
AcDbEntity
  8
0
  6
Continuous
 62
     7
370
    15
100
AcDbLine
 10
755.4492783366
 20
354.0749760457
 30
0.0
 11
755.4492783366
 21
448.074972827
 31
0.0
  0
LINE
  5
17F
330
1F
100
AcDbEntity
  8
0
  6
Continuous
 62
     7
370
    15
100
AcDbLine
 10
755.4492783366
 20
448.074972827
 30
0.0
 11
773.4492775618
 21
448.074972827
 31
0.0
  0
LINE
  5
180
330
1F
100
AcDbEntity
  8
0
  6
Continuous
 62
     7
370
    15
100
AcDbLine
 10
773.4492775618
 20
354.0749760457
 30
0.0
 11
755.4492783366
 21
354.0749760457
 31
0.0
  0
CIRCLE
  5
181
330
1F
100
AcDbEntity
  8
0
  6
Continuous
 62
     7
370
    15
100
AcDbCircle
 10
697.4492800056
 20
401.0749744363
 30
0.0
 40
43.5
  0
LINE
  5
182
330
1F
100
AcDbEntity
  8
0
  6
Continuous
 62
     7
370
    15
100
AcDbLine
 10
771.5728935419
 20
315.0749715157
 30
0.0
 11
771.5728935419
 21
319.0749721714
 31
0.0
  0
LINE
  5
183
330
1F
100
AcDbEntity
  8
0
  6
Continuous
 62
     7
370
    15
100
AcDbLine
 10
771.5728935419
 20
315.0749715157
 30
0.0
 11
769.6965020715
 21
315.0749715157
 31
0.0
  0
LINE
  5
184
330
1F
100
AcDbEntity
  8
0
  6
Continuous
 62
     7
370
    15
100
AcDbLine
 10
769.6965020715
 20
315.0749715157
 30
0.0
 11
769.6965020715
 21
319.0749721714
 31
0.0
  0
LINE
  5
185
330
1F
100
AcDbEntity
  8
0
  6
Continuous
 62
     7
370
    15
100
AcDbLine
 10
775.3256690322
 20
315.0749715157
 30
0.0
 11
775.3256690322
 21
319.0749721714
 31
0.0
  0
LINE
  5
186
330
1F
100
AcDbEntity
  8
0
  6
Continuous
 62
     7
370
    15
100
AcDbLine
 10
775.3256690322
 20
315.0749715157
 30
0.0
 11
771.5728935419
 21
315.0749715157
 31
0.0
  0
LINE
  5
187
330
1F
100
AcDbEntity
  8
0
  6
Continuous
 62
     7
370
    15
100
AcDbLine
 10
777.2020530521
 20
315.0749715157
 30
0.0
 11
777.2020530521
 21
319.0749721714
 31
0.0
  0
LINE
  5
188
330
1F
100
AcDbEntity
  8
0
  6
Continuous
 62
     7
370
    15
100
AcDbLine
 10
777.2020530521
 20
315.0749715157
 30
0.0
 11
775.3256690322
 21
315.0749715157
 31
0.0
  0
ARC
  5
189
330
1F
100
AcDbEntity
  8
0
  6
Continuous
 62
     7
370
    15
100
AcDbCircle
 10
697.4492800056
 20
401.0749744363
 30
0.0
 40
74.99999999999999
100
AcDbArc
 50
233.8710725281
 51
311.874482856
  0
ARC
  5
18A
330
1F
100
AcDbEntity
  8
0
  6
Continuous
 62
     7
370
    15
100
AcDbCircle
 10
651.4601508553
 20
338.0749744363
 30
0.0
 40
3.000000000000057
100
AcDbArc
 50
53.8710725281
 51
90.0
  0
LINE
  5
18B
330
1F
100
AcDbEntity
  8
0
  6
Continuous
 62
     7
370
    15
100
AcDbLine
 10
651.4601503132
 20
341.0749757775
 30
0.0
 11
644.4492806314
 21
341.0749757775
 31
0.0
  0
ARC
  5
18C
330
1F
100
AcDbEntity
  8
0
  6
Continuous
 62
     7
370
    15
100
AcDbCircle
 10
644.4492800056
 20
344.0749744363
 30
0.0
 40
3.0
100
AcDbArc
 50
180.0
 51
270.0
  0
LINE
  5
18D
330
1F
100
AcDbEntity
  8
0
  6
Continuous
 62
     7
370
    15
100
AcDbLine
 10
641.449278277
 20
344.0749744065
 30
0.0
 11
641.449278277
 21
458.0749744662
 31
0.0
  0
ARC
  5
18E
330
1F
100
AcDbEntity
  8
0
  6
Continuous
 62
     7
370
    15
100
AcDbCircle
 10
644.4492800056
 20
458.0749744363
 30
0.0
 40
3.0
100
AcDbArc
 50
90.0
 51
180.0
  0
LINE
  5
18F
330
1F
100
AcDbEntity
  8
0
  6
Continuous
 62
     7
370
    15
100
AcDbLine
 10
644.4492806314
 20
461.0749730952
 30
0.0
 11
651.4601503132
 21
461.0749730952
 31
0.0
  0
ARC
  5
190
330
1F
100
AcDbEntity
  8
0
  6
Continuous
 62
     7
370
    15
100
AcDbCircle
 10
651.4601508553
 20
464.0749744363
 30
0.0
 40
3.000000000000012
100
AcDbArc
 50
270.0
 51
306.1289274719
  0
ARC
  5
191
330
1F
100
AcDbEntity
  8
0
  6
Continuous
 62
     7
370
    15
100
AcDbCircle
 10
697.4492800056
 20
401.0749744363
 30
0.0
 40
75.00000000000004
100
AcDbArc
 50
48.125517144
 51
126.1289274719
  0
LINE
  5
192
330
1F
100
AcDbEntity
  8
0
  6
Continuous
 62
     7
370
    15
100
AcDbLine
 10
619.4492783962
 20
441.5901476629
 30
0.0
 11
641.449278277
 21
441.5901476629
 31
0.0
  0
LINE
  5
193
330
1F
100
AcDbEntity
  8
0
  6
Continuous
 62
     7
370
    15
100
AcDbLine
 10
619.4492783962
 20
441.5901476629
 30
0.0
 11
619.4492783962
 21
452.5598013886
 31
0.0
  0
LINE
  5
194
330
1F
100
AcDbEntity
  8
0
  6
Continuous
 62
     7
370
    15
100
AcDbLine
 10
619.4492783962
 20
452.5598013886
 30
0.0
 11
641.449278277
 21
452.5598013886
 31
0.0
  0
LINE
  5
195
330
1F
100
AcDbEntity
  8
0
  6
Continuous
 62
     7
370
    15
100
AcDbLine
 10
619.4492783962
 20
452.5598013886
 30
0.0
 11
619.4492783962
 21
458.0446282514
 31
0.0
  0
LINE
  5
196
330
1F
100
AcDbEntity
  8
0
  6
Continuous
 62
     7
370
    15
100
AcDbLine
 10
619.4492783962
 20
458.0446282514
 30
0.0
 11
641.449278277
 21
458.0446282514
 31
0.0
  0
LINE
  5
197
330
1F
100
AcDbEntity
  8
0
  6
Continuous
 62
     7
370
    15
100
AcDbLine
 10
619.4492783962
 20
344.1053206213
 30
0.0
 11
641.449278277
 21
344.1053206213
 31
0.0
  0
LINE
  5
198
330
1F
100
AcDbEntity
  8
0
  6
Continuous
 62
     7
370
    15
100
AcDbLine
 10
619.4492783962
 20
344.1053206213
 30
0.0
 11
619.4492783962
 21
349.5901474841
 31
0.0
  0
LINE
  5
199
330
1F
100
AcDbEntity
  8
0
  6
Continuous
 62
     7
370
    15
100
AcDbLine
 10
619.4492783962
 20
349.5901474841
 30
0.0
 11
641.449278277
 21
349.5901474841
 31
0.0
  0
LINE
  5
19A
330
1F
100
AcDbEntity
  8
0
  6
Continuous
 62
     7
370
    15
100
AcDbLine
 10
619.4492783962
 20
436.1053208001
 30
0.0
 11
641.449278277
 21
436.1053208001
 31
0.0
  0
LINE
  5
19B
330
1F
100
AcDbEntity
  8
0
  6
Continuous
 62
     7
370
    15
100
AcDbLine
 10
619.4492783962
 20
436.1053208001
 30
0.0
 11
619.4492783962
 21
441.5901476629
 31
0.0
  0
LINE
  5
19C
330
1F
100
AcDbEntity
  8
0
  6
Continuous
 62
     7
370
    15
100
AcDbLine
 10
619.4492783962
 20
360.5598012098
 30
0.0
 11
641.449278277
 21
360.5598012098
 31
0.0
  0
LINE
  5
19D
330
1F
100
AcDbEntity
  8
0
  6
Continuous
 62
     7
370
    15
100
AcDbLine
 10
619.4492783962
 20
366.0446280726
 30
0.0
 11
641.449278277
 21
366.0446280726
 31
0.0
  0
LINE
  5
19E
330
1F
100
AcDbEntity
  8
0
  6
Continuous
 62
     7
370
    15
100
AcDbLine
 10
619.4492783962
 20
360.5598012098
 30
0.0
 11
619.4492783962
 21
366.0446280726
 31
0.0
  0
LINE
  5
19F
330
1F
100
AcDbEntity
  8
0
  6
Continuous
 62
     7
370
    15
100
AcDbLine
 10
619.4492783962
 20
349.5901474841
 30
0.0
 11
619.4492783962
 21
360.5598012098
 31
0.0
  0
LINE
  5
1A0
330
1F
100
AcDbEntity
  8
0
  6
Continuous
 62
     7
370
    15
100
AcDbLine
 10
765.9492772637
 20
559.0749817081
 30
0.0
 11
780.9492778598
 21
559.0749817081
 31
0.0
  0
LINE
  5
1A1
330
1F
100
AcDbEntity
  8
0
  6
Continuous
 62
     7
370
    15
100
AcDbLine
 10
750.1992788731
 20
315.0749715157
 30
0.0
 11
750.1992788731
 21
319.0749721714
 31
0.0
  0
LINE
  5
1A2
330
1F
100
AcDbEntity
  8
0
  6
Continuous
 62
     7
370
    15
100
AcDbLine
 10
746.9492797373
 20
315.0749715157
 30
0.0
 11
746.9492797373
 21
319.0749721714
 31
0.0
  0
LINE
  5
1A3
330
1F
100
AcDbEntity
  8
0
  6
Continuous
 62
     7
370
    15
100
AcDbLine
 10
750.1992788731
 20
315.0749715157
 30
0.0
 11
746.9492797373
 21
315.0749715157
 31
0.0
  0
LINE
  5
1A4
330
1F
100
AcDbEntity
  8
0
  6
Continuous
 62
     7
370
    15
100
AcDbLine
 10
743.6992806016
 20
315.0749715157
 30
0.0
 11
743.6992806016
 21
319.0749721714
 31
0.0
  0
LINE
  5
1A5
330
1F
100
AcDbEntity
  8
0
  6
Continuous
 62
     7
370
    15
100
AcDbLine
 10
746.9492797373
 20
315.0749715157
 30
0.0
 11
743.6992806016
 21
315.0749715157
 31
0.0
  0
LINE
  5
1A6
330
1F
100
AcDbEntity
  8
0
  6
Continuous
 62
     7
370
    15
100
AcDbLine
 10
799.9492791115
 20
315.0749715157
 30
0.0
 11
799.9492791115
 21
319.0749721714
 31
0.0
  0
LINE
  5
1A7
330
1F
100
AcDbEntity
  8
0
  6
Continuous
 62
     7
370
    15
100
AcDbLine
 10
799.9492791115
 20
315.0749715157
 30
0.0
 11
796.6992837011
 21
315.0749715157
 31
0.0
  0
LINE
  5
1A8
330
1F
100
AcDbEntity
  8
0
  6
Continuous
 62
     7
370
    15
100
AcDbLine
 10
796.6992837011
 20
315.0749715157
 30
0.0
 11
796.6992837011
 21
319.0749721714
 31
0.0
  0
LINE
  5
1A9
330
1F
100
AcDbEntity
  8
0
  6
Continuous
 62
     7
370
    15
100
AcDbLine
 10
803.1992819725
 20
315.0749715157
 30
0.0
 11
803.1992819725
 21
319.0749721714
 31
0.0
  0
LINE
  5
1AA
330
1F
100
AcDbEntity
  8
0
  6
Continuous
 62
     7
370
    15
100
AcDbLine
 10
803.1992819725
 20
315.0749715157
 30
0.0
 11
799.9492791115
 21
315.0749715157
 31
0.0
  0
ARC
  5
1AB
330
1F
100
AcDbEntity
  8
0
  6
Continuous
 62
     7
370
    15
100
AcDbCircle
 10
697.4492800056
 20
401.0749744363
 30
0.0
 40
85.00000000000013
100
AcDbArc
 50
155.6618131747
 51
204.3381868253
  0
ARC
  5
1AC
330
1F
100
AcDbEntity
  8
0
  6
Continuous
 62
     7
370
    15
100
AcDbCircle
 10
697.4492800056
 20
401.0749744363
 30
0.0
 40
85.00000000000009
100
AcDbArc
 50
61.1608105994
 51
137.9150857348
  0
ARC
  5
1AD
330
1F
100
AcDbEntity
  8
0
  6
Continuous
 62
     7
370
    15
100
AcDbCircle
 10
697.4492800056
 20
401.0749744363
 30
0.0
 40
85.00000000000006
100
AcDbArc
 50
222.0849142652
 51
298.8391894006
  0
LINE
  5
1AE
330
1F
100
AcDbEntity
  8
0
  6
Continuous
 62
     7
370
    15
100
AcDbLine
 10
602.4492811977
 20
393.574974604
 30
0.0
 11
612.7808075963
 21
393.574974604
 31
0.0
  0
ELLIPSE
  5
1AF
330
1F
100
AcDbEntity
  8
0
  6
Continuous
 62
     7
370
    15
100
AcDbEllipse
 10
163.224730653
 20
396.0749744363
 30
0.0
 11
439.4146487120223
 21
0.0
 31
0.0
210
0.0
220
0.0
230
1.0
 40
0.3868783175
 41
0.0294160068079387
 42
0.073595830525171
  0
LINE
  5
1B0
330
1F
100
AcDbEntity
  8
0
  6
Continuous
 62
     7
370
    15
100
AcDbLine
 10
601.4499050199
 20
408.5749742687
 30
0.0
 11
612.7808075963
 21
408.5749742687
 31
0.0
  0
LINE
  5
1B1
330
1F
100
AcDbEntity
  8
0
  6
Continuous
 62
     7
370
    15
100
AcDbLine
 10
602.4492811977
 20
550.9943055101
 30
0.0
 11
585.4492765485
 21
550.9943055101
 31
0.0
  0
LINE
  5
1B2
330
1F
100
AcDbEntity
  8
0
  6
Continuous
 62
     7
370
    15
100
AcDbLine
 10
602.4492811977
 20
408.5749742687
 30
0.0
 11
602.4492811977
 21
550.9943055101
 31
0.0
  0
LINE
  5
1B3
330
1F
100
AcDbEntity
  8
0
  6
Continuous
 62
     7
370
    15
100
AcDbLine
 10
602.4492811977
 20
241.1556379982
 30
0.0
 11
602.4492811977
 21
401.0749744363
 31
0.0
  0
LINE
  5
1B4
330
1F
100
AcDbEntity
  8
0
  6
Continuous
 62
     7
370
    15
100
AcDbLine
 10
602.4492811977
 20
241.1556379982
 30
0.0
 11
585.4492765485
 21
241.1556379982
 31
0.0
  0
LINE
  5
1B5
330
1F
100
AcDbEntity
  8
0
  6
Continuous
 62
     7
370
    15
100
AcDbLine
 10
585.4492765485
 20
241.1556379982
 30
0.0
 11
585.4492765485
 21
550.9943055101
 31
0.0
  0
LINE
  5
1B6
330
1F
100
AcDbEntity
  8
0
  6
Continuous
 62
     7
370
    15
100
AcDbLine
 10
809.4492834626
 20
241.1556379982
 30
0.0
 11
809.4492834626
 21
509.0749772378
 31
0.0
  0
LINE
  5
1B7
330
1F
100
AcDbEntity
  8
0
  6
Continuous
 62
     7
370
    15
100
AcDbLine
 10
809.4492834626
 20
519.0749751516
 30
0.0
 11
809.4492834626
 21
550.9943055101
 31
0.0
  0
LINE
  5
1B8
330
1F
100
AcDbEntity
  8
0
  6
Continuous
 62
     7
370
    15
100
AcDbLine
 10
792.4492788135
 20
241.1556379982
 30
0.0
 11
809.4492834626
 21
241.1556379982
 31
0.0
  0
LINE
  5
1B9
330
1F
100
AcDbEntity
  8
0
  6
Continuous
 62
     7
370
    15
100
AcDbLine
 10
792.4492788135
 20
519.0749751516
 30
0.0
 11
792.4492788135
 21
550.9943055101
 31
0.0
  0
LINE
  5
1BA
330
1F
100
AcDbEntity
  8
0
  6
Continuous
 62
     7
370
    15
100
AcDbLine
 10
792.4492788135
 20
550.9943055101
 30
0.0
 11
809.4492834626
 21
550.9943055101
 31
0.0
  0
LINE
  5
1BB
330
1F
100
AcDbEntity
  8
0
  6
Continuous
 62
     7
370
    15
100
AcDbLine
 10
792.4492788135
 20
241.1556379982
 30
0.0
 11
792.4492788135
 21
319.0749721714
 31
0.0
  0
LINE
  5
1BC
330
1F
100
AcDbEntity
  8
0
  6
Continuous
 62
     7
370
    15
100
AcDbLine
 10
582.4492779194
 20
263.0749778934
 30
0.0
 11
582.4492779194
 21
529.074980516
 31
0.0
  0
LINE
  5
1BD
330
1F
100
AcDbEntity
  8
0
  6
Continuous
 62
     7
370
    15
100
AcDbLine
 10
812.4492820917
 20
263.0749778934
 30
0.0
 11
812.4492820917
 21
509.0749772378
 31
0.0
  0
LINE
  5
1BE
330
1F
100
AcDbEntity
  8
0
  6
Continuous
 62
     7
370
    15
100
AcDbLine
 10
812.4492820917
 20
519.0749751516
 30
0.0
 11
812.4492820917
 21
529.074980516
 31
0.0
  0
LINE
  5
1BF
330
1F
100
AcDbEntity
  8
0
  6
Continuous
 62
     7
370
    15
100
AcDbLine
 10
639.5402234613
 20
286.5749733635
 30
0.0
 11
639.5402234613
 21
338.8532647975
 31
0.0
  0
LINE
  5
1C0
330
1F
100
AcDbEntity
  8
0
  6
Continuous
 62
     7
370
    15
100
AcDbLine
 10
755.3583365499
 20
286.5749733635
 30
0.0
 11
755.3583365499
 21
319.0749721714
 31
0.0
  0
LINE
  5
1C1
330
1F
100
AcDbEntity
  8
0
  6
Continuous
 62
     7
370
    15
100
AcDbLine
 10
639.5402234613
 20
463.2966840752
 30
0.0
 11
639.5402234613
 21
505.5749775954
 31
0.0
  0
SPLINE
  5
1C2
330
1F
100
AcDbEntity
  8
0
  6
Continuous
 62
     7
370
    15
100
AcDbSpline
210
0.0
220
0.0
230
1.0
 70
     8
 71
     3
 72
    17
 73
    13
 74
     0
 42
0.00000001
 43
0.00000001
 12
1.0
 22
0.0
 32
0.0
 13
1.0
 23
0.0
 33
0.0
 40
0.0
 40
0.0
 40
0.0
 40
0.0
 40
0.1054200796501478
 40
0.2108400197294381
 40
0.3193096644100591
 40
0.4277788416887831
 40
0.5332046896658201
 40
0.6386299926603906
 40
0.7471538585863505
 40
0.8556772475895513
 40
0.9604836103902714
 40
1.0
 40
1.0
 40
1.0
 40
1.0
 10
686.2826450361501
 20
504.9933182187729
 30
0.0
 10
685.9784006734501
 20
505.0253972475243
 30
0.0
 10
685.3699123508543
 20
505.0895552625556
 30
0.0
 10
684.5531678227918
 20
505.184114979042
 30
0.0
 10
683.8153191648275
 20
505.2741651499302
 30
0.0
 10
683.1771381058461
 20
505.3562609378221
 30
0.0
 10
682.6458839489335
 20
505.4273147034087
 30
0.0
 10
682.2178638832894
 20
505.4864616351382
 30
0.0
 10
681.8932026028475
 20
505.5323736427124
 30
0.0
 10
681.6886865373766
 20
505.5618548525715
 30
0.0
 10
681.5957312003422
 20
505.5753106789808
 30
0.0
 10
681.6077601165128
 20
505.5735810750483
 30
0.0
 10
681.6110537021052
 20
505.5731074996643
 30
0.0
  0
SPLINE
  5
1C3
330
1F
100
AcDbEntity
  8
0
  6
Continuous
 62
     7
370
    15
100
AcDbSpline
210
0.0
220
0.0
230
1.0
 70
     8
 71
     3
 72
    37
 73
    33
 74
     0
 42
0.00000001
 43
0.00000001
 12
1.0
 22
0.0
 32
0.0
 13
1.0
 23
0.0
 33
0.0
 40
0.0
 40
0.0
 40
0.0
 40
0.0
 40
0.0084624050338565
 40
0.0447900998198221
 40
0.0798469836003409
 40
0.1149039917395356
 40
0.1509735809764871
 40
0.1870433489572876
 40
0.2222130156397258
 40
0.2573828057260039
 40
0.2935583658243717
 40
0.3297339760026207
 40
0.3651737933233876
 40
0.4006135427886559
 40
0.4370845191453759
 40
0.4735552826104019
 40
0.5089498293683832
 40
0.5443441348267124
 40
0.5807886887157873
 40
0.6172330393008937
 40
0.6522567795657012
 40
0.6872804879608907
 40
0.7233328783069699
 40
0.7593853941120122
 40
0.7942361541725073
 40
0.8290871323172789
 40
0.8649353926923292
 40
0.9007839068898986
 40
0.9254192786177874
 40
0.9500547175073959
 40
0.9750273577369583
 40
1.0
 40
1.0
 40
1.0
 40
1.0
 10
713.289894220103
 20
505.5734502263718
 30
0.0
 10
713.2930378704862
 20
505.5739040369272
 30
0.0
 10
713.3096766881627
 20
505.5763059805814
 30
0.0
 10
713.2269497728888
 20
505.5643172434009
 30
0.0
 10
713.0404502784642
 20
505.5374145363646
 30
0.0
 10
712.738894537056
 20
505.4946277760859
 30
0.0
 10
712.3290674798421
 20
505.437732856763
 30
0.0
 10
711.8128183888139
 20
505.368305998925
 30
0.0
 10
711.2006216294668
 20
505.2890492389115
 30
0.0
 10
710.4936957575186
 20
505.2017546813844
 30
0.0
 10
709.6877245066287
 20
505.1077442178691
 30
0.0
 10
708.79249262485
 20
505.0103006677903
 30
0.0
 10
707.8229803641516
 20
504.9130827745776
 30
0.0
 10
706.7783185449509
 20
504.8178096002447
 30
0.0
 10
705.6558281189442
 20
504.7266854607831
 30
0.0
 10
704.4738035569004
 20
504.6432952827616
 30
0.0
 10
703.2527736419836
 20
504.5708144419637
 30
0.0
 10
701.9909097001612
 20
504.510112510842
 30
0.0
 10
700.6830822213666
 20
504.4629258169599
 30
0.0
 10
699.3557992198539
 20
504.4312584908562
 30
0.0
 10
698.0323283362756
 20
504.4161603271793
 30
0.0
 10
696.7096334702898
 20
504.4169542029735
 30
0.0
 10
695.3793657066096
 20
504.4343265919903
 30
0.0
 10
694.0662945797745
 20
504.4675672630624
 30
0.0
 10
692.7922325544972
 20
504.5152619039554
 30
0.0
 10
691.5527459567028
 20
504.5758008070563
 30
0.0
 10
690.3433287650756
 20
504.6486955660671
 30
0.0
 10
689.2954968848126
 20
504.7233103338312
 30
0.0
 10
688.4094124020487
 20
504.7942287543239
 30
0.0
 10
687.6677902422562
 20
504.8587507354667
 30
0.0
 10
686.9535936390024
 20
504.9254132489502
 30
0.0
 10
686.5062945765047
 20
504.9706832282177
 30
0.0
 10
686.2826450361501
 20
504.9933182187729
 30
0.0
  0
SPLINE
  5
1C4
330
1F
100
AcDbEntity
  8
0
  6
Continuous
 62
     7
370
    15
100
AcDbSpline
210
0.0
220
0.0
230
1.0
 70
     8
 71
     3
 72
    17
 73
    13
 74
     0
 42
0.00000001
 43
0.00000001
 12
1.0
 22
0.0
 32
0.0
 13
1.0
 23
0.0
 33
0.0
 40
0.0
 40
0.0
 40
0.0
 40
0.0
 40
0.1054200789040673
 40
0.210840018237278
 40
0.3193096621502361
 40
0.4277788386613004
 40
0.533204685892216
 40
0.638629988140669
 40
0.7471538532985823
 40
0.8556772415337397
 40
0.9604836098079854
 40
1.0
 40
1.0
 40
1.0
 40
1.0
 10
686.2826450361501
 20
287.1566327400857
 30
0.0
 10
685.9784006734502
 20
287.1245537111753
 30
0.0
 10
685.3699123508545
 20
287.0603956958258
 30
0.0
 10
684.5531678227912
 20
286.9658359817486
 30
0.0
 10
683.81531916483
 20
286.8757858014492
 30
0.0
 10
683.1771381058364
 20
286.7936900486018
 30
0.0
 10
682.6458839489685
 20
286.722636155787
 30
0.0
 10
682.2178638831567
 20
286.663489700641
 30
0.0
 10
681.8932026033588
 20
286.6175758632565
 30
0.0
 10
681.6886865315487
 20
286.5881014443146
 30
0.0
 10
681.5957312007378
 20
286.5746261434123
 30
0.0
 10
681.6077601166683
 20
286.5763668451746
 30
0.0
 10
681.6110537021052
 20
286.5768434591943
 30
0.0
  0
SPLINE
  5
1C5
330
1F
100
AcDbEntity
  8
0
  6
Continuous
 62
     7
370
    15
100
AcDbSpline
210
0.0
220
0.0
230
1.0
 70
     8
 71
     3
 72
    37
 73
    33
 74
     0
 42
0.00000001
 43
0.00000001
 12
1.0
 22
0.0
 32
0.0
 13
1.0
 23
0.0
 33
0.0
 40
0.0
 40
0.0
 40
0.0
 40
0.0
 40
0.0084624056878731
 40
0.0447901004664564
 40
0.0798469884206001
 40
0.1149039901638452
 40
0.1509735793934668
 40
0.1870433576843895
 40
0.2222130243596807
 40
0.2573828144388117
 40
0.2935583745298281
 40
0.3297339847007256
 40
0.3651738020142906
 40
0.4006135373258412
 40
0.4370845136751498
 40
0.473555289397102
 40
0.5089498361478905
 40
0.5443441325827911
 40
0.5807886934177399
 40
0.6172330393287863
 40
0.6522567818562915
 40
0.6872804902443637
 40
0.7233328805831164
 40
0.7593854013431486
 40
0.7942361542143218
 40
0.8290871323520113
 40
0.8649353927197766
 40
0.9007839069100609
 40
0.9254192786329434
 40
0.9500547175175457
 40
0.9750273577420331
 40
1.0
 40
1.0
 40
1.0
 40
1.0
 10
713.289894220103
 20
286.5765007324868
 30
0.0
 10
713.2930378706845
 20
286.5760442020775
 30
0.0
 10
713.3096766883658
 20
286.5736278628414
 30
0.0
 10
713.2269497536931
 20
286.5856263425081
 30
0.0
 10
713.0404503263932
 20
286.6125407000313
 30
0.0
 10
712.7388945073885
 20
286.6553131493723
 30
0.0
 10
712.3290673880687
 20
286.7122088208329
 30
0.0
 10
711.8128184964694
 20
286.7816473633529
 30
0.0
 10
711.2006216173551
 20
286.8609010933617
 30
0.0
 10
710.493695758301
 20
286.9481964055241
 30
0.0
 10
709.6877245163299
 20
287.0422068808516
 30
0.0
 10
708.7924925856796
 20
287.1396496092883
 30
0.0
 10
707.8229806359886
 20
287.2368707006514
 30
0.0
 10
706.7783182816116
 20
287.3321317602597
 30
0.0
 10
705.6558278947608
 20
287.42325636092
 30
0.0
 10
704.4738037857131
 20
287.5066570907769
 30
0.0
 10
703.2527738559453
 20
287.5791395165168
 30
0.0
 10
701.9909092912234
 20
287.6398248177911
 30
0.0
 10
700.6830825570781
 20
287.6870321275857
 30
0.0
 10
699.3557990120278
 20
287.7186786092287
 30
0.0
 10
698.0323284128987
 20
287.7337945018721
 30
0.0
 10
696.7096334794101
 20
287.732994841195
 30
0.0
 10
695.379365555552
 20
287.7156281473813
 30
0.0
 10
694.0662948892746
 20
287.6823707268493
 30
0.0
 10
692.7922323582998
 20
287.6346924719171
 30
0.0
 10
691.5527459876575
 20
287.5741492050407
 30
0.0
 10
690.3433287565788
 20
287.5012556526713
 30
0.0
 10
689.2954968863121
 20
287.4266405791602
 30
0.0
 10
688.409412401712
 20
287.3557222148341
 30
0.0
 10
687.6677902423473
 20
287.2912002206034
 30
0.0
 10
686.9535936389794
 20
287.2245377106095
 30
0.0
 10
686.506294576497
 20
287.1792677308746
 30
0.0
 10
686.2826450361501
 20
287.1566327400857
 30
0.0
  0
LINE
  5
1C6
330
1F
100
AcDbEntity
  8
0
  6
Continuous
 62
     7
370
    15
100
AcDbLine
 10
675.4492801248
 20
298.6284108945
 30
0.0
 11
675.4492801248
 21
318.9713792988
 31
0.0
  0
SPLINE
  5
1C7
330
1F
100
AcDbEntity
  8
0
  6
Continuous
 62
     7
370
    15
100
AcDbSpline
210
0.0
220
0.0
230
1.0
 70
     8
 71
     3
 72
    20
 73
    16
 74
     0
 42
0.00000001
 43
0.00000001
 12
1.0
 22
0.0
 32
0.0
 13
1.0
 23
0.0
 33
0.0
 40
0.0
 40
0.0
 40
0.0
 40
0.0
 40
0.1249999999999982
 40
0.1249999999999982
 40
0.2499999999999963
 40
0.2499999999999963
 40
0.3749999999999945
 40
0.3749999999999945
 40
0.4999999999999927
 40
0.4999999999999927
 40
0.7499999999999957
 40
0.7499999999999957
 40
0.8749999999999978
 40
0.8749999999999978
 40
1.0
 40
1.0
 40
1.0
 40
1.0
 10
677.4492800055634
 20
297.6316642430825
 30
0.0
 10
677.314364803714
 20
297.6316642430826
 30
0.0
 10
677.1820349795315
 20
297.638575138346
 30
0.0
 10
676.9220734660233
 20
297.6649835791314
 30
0.0
 10
676.793092536493
 20
297.6848240317153
 30
0.0
 10
676.5488113745898
 20
297.7357104761791
 30
0.0
 10
676.4330697533362
 20
297.766629992325
 30
0.0
 10
676.2144082769935
 20
297.839551900068
 30
0.0
 10
676.112215513607
 20
297.8815166897223
 30
0.0
 10
675.8392826031867
 20
298.0194258799565
 30
0.0
 10
675.695050814576
 20
298.1302084994307
 30
0.0
 10
675.5496740880372
 20
298.3087532887913
 30
0.0
 10
675.5121601088397
 20
298.371334228809
 30
0.0
 10
675.4621103749388
 20
298.4984068742607
 30
0.0
 10
675.4492800055634
 20
298.5629011647604
 30
0.0
 10
675.4492800055634
 20
298.6284079647619
 30
0.0
  0
LINE
  5
1C8
330
1F
100
AcDbEntity
  8
0
  6
Continuous
 62
     7
370
    15
100
AcDbLine
 10
717.4492795585
 20
297.6316647716
 30
0.0
 11
677.4492804526
 21
297.6316647716
 31
0.0
  0
SPLINE
  5
1C9
330
1F
100
AcDbEntity
  8
0
  6
Continuous
 62
     7
370
    15
100
AcDbSpline
210
0.0
220
0.0
230
1.0
 70
     8
 71
     3
 72
    20
 73
    16
 74
     0
 42
0.00000001
 43
0.00000001
 12
1.0
 22
0.0
 32
0.0
 13
1.0
 23
0.0
 33
0.0
 40
0.0
 40
0.0
 40
0.0
 40
0.0
 40
0.1250000000000001
 40
0.1250000000000001
 40
0.2500000000000002
 40
0.2500000000000002
 40
0.3750000000000002
 40
0.3750000000000002
 40
0.5000000000000003
 40
0.5000000000000003
 40
0.6250000000000004
 40
0.6250000000000004
 40
0.7500000000000004
 40
0.7500000000000004
 40
1.0
 40
1.0
 40
1.0
 40
1.0
 10
719.4492800055634
 20
298.6284079647619
 30
0.0
 10
719.4492800055634
 20
298.5628369717525
 30
0.0
 10
719.4365575891997
 20
298.4985413440783
 30
0.0
 10
719.387224658178
 20
298.3723315767239
 30
0.0
 10
719.3501769804549
 20
298.3099073137398
 30
0.0
 10
719.2527553443307
 20
298.1899620769914
 30
0.0
 10
719.1931551789872
 20
298.1330826560023
 30
0.0
 10
719.052115868725
 20
298.0254222178566
 30
0.0
 10
718.9695111386195
 20
297.974125966221
 30
0.0
 10
718.7868642301686
 20
297.8817221126818
 30
0.0
 10
718.6866837760106
 20
297.8405097280383
 30
0.0
 10
718.4691725628506
 20
297.767626753731
 30
0.0
 10
718.3509933820359
 20
297.7359317292134
 30
0.0
 10
717.9858548733399
 20
297.6596907785726
 30
0.0
 10
717.7191987116001
 20
297.6316642430825
 30
0.0
 10
717.4492800055634
 20
297.6316642430825
 30
0.0
  0
LINE
  5
1CA
330
1F
100
AcDbEntity
  8
0
  6
Continuous
 62
     7
370
    15
100
AcDbLine
 10
719.4492798864
 20
318.9713792988
 30
0.0
 11
719.4492798864
 21
298.6284108945
 31
0.0
  0
LINE
  5
1CB
330
1F
100
AcDbEntity
  8
0
  6
Continuous
 62
     7
370
    15
100
AcDbLine
 10
724.4492807059
 20
320.4772086926
 30
0.0
 11
724.4492807059
 21
298.6284108945
 31
0.0
  0
SPLINE
  5
1CC
330
1F
100
AcDbEntity
  8
0
  6
Continuous
 62
     7
370
    15
100
AcDbSpline
210
0.0
220
0.0
230
1.0
 70
     8
 71
     3
 72
    12
 73
     8
 74
     0
 42
0.00000001
 43
0.00000001
 12
1.0
 22
0.0
 32
0.0
 13
1.0
 23
0.0
 33
0.0
 40
0.0
 40
0.0
 40
0.0
 40
0.0
 40
0.5000000000000003
 40
0.5000000000000003
 40
0.7500000000000002
 40
0.7500000000000002
 40
1.0
 40
1.0
 40
1.0
 40
1.0
 10
717.4492800055634
 20
295.2702214229164
 30
0.0
 10
719.346265517076
 20
295.2702214229164
 30
0.0
 10
721.1769213982109
 20
295.6291036562676
 30
0.0
 10
723.0905310755141
 20
296.5470839711816
 30
0.0
 10
723.592517735022
 20
296.9125583269636
 30
0.0
 10
724.2744721244794
 20
297.7279788569698
 30
0.0
 10
724.4492800055633
 20
298.1677762858398
 30
0.0
 10
724.4492800055633
 20
298.6284079647619
 30
0.0
  0
LINE
  5
1CD
330
1F
100
AcDbEntity
  8
0
  6
Continuous
 62
     7
370
    15
100
AcDbLine
 10
717.4492795585
 20
295.2702181526
 30
0.0
 11
677.4492804526
 21
295.2702181526
 31
0.0
  0
SPLINE
  5
1CE
330
1F
100
AcDbEntity
  8
0
  6
Continuous
 62
     7
370
    15
100
AcDbSpline
210
0.0
220
0.0
230
1.0
 70
     8
 71
     3
 72
    12
 73
     8
 74
     0
 42
0.00000001
 43
0.00000001
 12
1.0
 22
0.0
 32
0.0
 13
1.0
 23
0.0
 33
0.0
 40
0.0
 40
0.0
 40
0.0
 40
0.0
 40
0.5000000000000003
 40
0.5000000000000003
 40
0.7500000000000002
 40
0.7500000000000002
 40
1.0
 40
1.0
 40
1.0
 40
1.0
 10
670.4492800055633
 20
298.6284079647619
 30
0.0
 10
670.4492800055633
 20
297.7079250883407
 30
0.0
 10
671.1768032765692
 20
296.8491501486031
 30
0.0
 10
673.0847340094737
 20
295.9350052566359
 30
0.0
 10
673.8609699856214
 20
295.6891882796683
 30
0.0
 10
675.5714129050534
 20
295.3572903253527
 30
0.0
 10
676.5017185482786
 20
295.2702214229164
 30
0.0
 10
677.4492800055634
 20
295.2702214229164
 30
0.0
  0
LINE
  5
1CF
330
1F
100
AcDbEntity
  8
0
  6
Continuous
 62
     7
370
    15
100
AcDbLine
 10
670.4492793052
 20
298.6284108945
 30
0.0
 11
670.4492793052
 21
320.4772086926
 31
0.0
  0
SPLINE
  5
1D0
330
1F
100
AcDbEntity
  8
0
  6
Continuous
 62
     7
370
    15
100
AcDbSpline
210
0.0
220
0.0
230
1.0
 70
     8
 71
     3
 72
    20
 73
    16
 74
     0
 42
0.00000001
 43
0.00000001
 12
1.0
 22
0.0
 32
0.0
 13
1.0
 23
0.0
 33
0.0
 40
0.0
 40
0.0
 40
0.0
 40
0.0
 40
0.1250000000000004
 40
0.1250000000000004
 40
0.2500000000000007
 40
0.2500000000000007
 40
0.3750000000000011
 40
0.3750000000000011
 40
0.5000000000000014
 40
0.5000000000000014
 40
0.6250000000000018
 40
0.6250000000000018
 40
0.7500000000000022
 40
0.7500000000000022
 40
1.0
 40
1.0
 40
1.0
 40
1.0
 10
719.4492800055634
 20
300.3961749177282
 30
0.0
 10
719.4492800055634
 20
300.3306039247189
 30
0.0
 10
719.4365575891998
 20
300.2663082970447
 30
0.0
 10
719.387224658178
 20
300.1400985296903
 30
0.0
 10
719.3501769804549
 20
300.0776742667062
 30
0.0
 10
719.2527553443307
 20
299.9577290299578
 30
0.0
 10
719.1931551789872
 20
299.9008496089686
 30
0.0
 10
719.052115868725
 20
299.793189170823
 30
0.0
 10
718.9695111386195
 20
299.7418929191873
 30
0.0
 10
718.7868642301686
 20
299.6494890656481
 30
0.0
 10
718.6866837760106
 20
299.6082766810047
 30
0.0
 10
718.4691725628506
 20
299.5353937066974
 30
0.0
 10
718.3509933820359
 20
299.5036986821798
 30
0.0
 10
717.9858548733399
 20
299.427457731539
 30
0.0
 10
717.7191987116001
 20
299.3994311960489
 30
0.0
 10
717.4492800055634
 20
299.3994311960489
 30
0.0
  0
LINE
  5
1D1
330
1F
100
AcDbEntity
  8
0
  6
Continuous
 62
     7
370
    15
100
AcDbLine
 10
717.4492795585
 20
299.3994342275
 30
0.0
 11
677.4492804526
 21
299.3994342275
 31
0.0
  0
SPLINE
  5
1D2
330
1F
100
AcDbEntity
  8
0
  6
Continuous
 62
     7
370
    15
100
AcDbSpline
210
0.0
220
0.0
230
1.0
 70
     8
 71
     3
 72
    20
 73
    16
 74
     0
 42
0.00000001
 43
0.00000001
 12
1.0
 22
0.0
 32
0.0
 13
1.0
 23
0.0
 33
0.0
 40
0.0
 40
0.0
 40
0.0
 40
0.0
 40
0.1250000000000001
 40
0.1250000000000001
 40
0.2500000000000002
 40
0.2500000000000002
 40
0.3750000000000003
 40
0.3750000000000003
 40
0.5000000000000004
 40
0.5000000000000004
 40
0.7500000000000029
 40
0.7500000000000029
 40
0.8750000000000014
 40
0.8750000000000014
 40
1.0
 40
1.0
 40
1.0
 40
1.0
 10
677.4492800055634
 20
299.3994311960489
 30
0.0
 10
677.314364803714
 20
299.3994311960489
 30
0.0
 10
677.1820349795315
 20
299.4063420913124
 30
0.0
 10
676.9220734660233
 20
299.4327505320978
 30
0.0
 10
676.793092536493
 20
299.4525909846816
 30
0.0
 10
676.5488113745898
 20
299.5034774291454
 30
0.0
 10
676.4330697533362
 20
299.5343969452913
 30
0.0
 10
676.2144082769935
 20
299.6073188530343
 30
0.0
 10
676.112215513607
 20
299.6492836426887
 30
0.0
 10
675.8392826031867
 20
299.7871928329229
 30
0.0
 10
675.695050814576
 20
299.897975452397
 30
0.0
 10
675.5496740880372
 20
300.0765202417576
 30
0.0
 10
675.5121601088397
 20
300.1391011817753
 30
0.0
 10
675.4621103749388
 20
300.2661738272271
 30
0.0
 10
675.4492800055634
 20
300.3306681177268
 30
0.0
 10
675.4492800055634
 20
300.3961749177282
 30
0.0
  0
LINE
  5
1D3
330
1F
100
AcDbEntity
  8
0
  6
Continuous
 62
     7
370
    15
100
AcDbLine
 10
602.4492811977
 20
578.0749755092
 30
0.0
 11
585.4492765485
 21
578.0749755092
 31
0.0
  0
LINE
  5
1D4
330
1F
100
AcDbEntity
  8
0
  6
Continuous
 62
     7
370
    15
100
AcDbLine
 10
602.4492811977
 20
550.9943055101
 30
0.0
 11
602.4492811977
 21
578.0749755092
 31
0.0
  0
LINE
  5
1D5
330
1F
100
AcDbEntity
  8
0
  6
Continuous
 62
     7
370
    15
100
AcDbLine
 10
585.4492765485
 20
550.9943055101
 30
0.0
 11
585.4492765485
 21
578.0749755092
 31
0.0
  0
LINE
  5
1D6
330
1F
100
AcDbEntity
  8
0
  6
Continuous
 62
     7
370
    15
100
AcDbLine
 10
602.4492811977
 20
214.074967999
 30
0.0
 11
585.4492765485
 21
214.074967999
 31
0.0
  0
LINE
  5
1D7
330
1F
100
AcDbEntity
  8
0
  6
Continuous
 62
     7
370
    15
100
AcDbLine
 10
602.4492811977
 20
241.1556379982
 30
0.0
 11
602.4492811977
 21
214.074967999
 31
0.0
  0
LINE
  5
1D8
330
1F
100
AcDbEntity
  8
0
  6
Continuous
 62
     7
370
    15
100
AcDbLine
 10
585.4492765485
 20
241.1556379982
 30
0.0
 11
585.4492765485
 21
214.074967999
 31
0.0
  0
LINE
  5
1D9
330
1F
100
AcDbEntity
  8
0
  6
Continuous
 62
     7
370
    15
100
AcDbLine
 10
792.4492788135
 20
578.0749755092
 30
0.0
 11
809.4492834626
 21
578.0749755092
 31
0.0
  0
LINE
  5
1DA
330
1F
100
AcDbEntity
  8
0
  6
Continuous
 62
     7
370
    15
100
AcDbLine
 10
792.4492788135
 20
550.9943055101
 30
0.0
 11
792.4492788135
 21
578.0749755092
 31
0.0
  0
LINE
  5
1DB
330
1F
100
AcDbEntity
  8
0
  6
Continuous
 62
     7
370
    15
100
AcDbLine
 10
809.4492834626
 20
550.9943055101
 30
0.0
 11
809.4492834626
 21
578.0749755092
 31
0.0
  0
LINE
  5
1DC
330
1F
100
AcDbEntity
  8
0
  6
Continuous
 62
     7
370
    15
100
AcDbLine
 10
792.4492788135
 20
214.074967999
 30
0.0
 11
809.4492834626
 21
214.074967999
 31
0.0
  0
LINE
  5
1DD
330
1F
100
AcDbEntity
  8
0
  6
Continuous
 62
     7
370
    15
100
AcDbLine
 10
809.4492834626
 20
241.1556379982
 30
0.0
 11
809.4492834626
 21
214.074967999
 31
0.0
  0
LINE
  5
1DE
330
1F
100
AcDbEntity
  8
0
  6
Continuous
 62
     7
370
    15
100
AcDbLine
 10
792.4492788135
 20
241.1556379982
 30
0.0
 11
792.4492788135
 21
214.074967999
 31
0.0
  0
LINE
  5
1DF
330
1F
100
AcDbEntity
  8
0
  6
Continuous
 62
     7
370
    15
100
AcDbLine
 10
682.4492803408
 20
254.0749745556
 30
0.0
 11
712.4492796703
 21
254.0749745556
 31
0.0
  0
LINE
  5
1E0
330
1F
100
AcDbEntity
  8
0
  6
Continuous
 62
     7
370
    15
100
AcDbLine
 10
682.4492803408
 20
538.0749689527
 30
0.0
 11
712.4492796703
 21
538.0749689527
 31
0.0
  0
LINE
  5
1E1
330
1F
100
AcDbEntity
  8
0
  6
Continuous
 62
     8
370
     0
100
AcDbLine
 10
717.4492795585
 20
299.3994342275
 30
0.0
 11
717.4492795585
 21
297.6316647716
 31
0.0
  0
LINE
  5
1E2
330
1F
100
AcDbEntity
  8
0
  6
Continuous
 62
     8
370
     0
100
AcDbLine
 10
677.4492804526
 20
299.3994342275
 30
0.0
 11
677.4492804526
 21
297.6316647716
 31
0.0
  0
INSERT
  5
1EE
330
1F
100
AcDbEntity
  8
FORMAT
 62
     7
100
AcDbBlockReference
  2
SW_CENTERMARKSYMBOL_1
 10
697.4492800056
 20
365.0749744363
 30
0.0
  0
INSERT
  5
1FA
330
1F
100
AcDbEntity
  8
FORMAT
 62
     7
100
AcDbBlockReference
  2
SW_CENTERMARKSYMBOL_2
 10
733.4492800056
 20
401.0749744363
 30
0.0
  0
INSERT
  5
206
330
1F
100
AcDbEntity
  8
FORMAT
 62
     7
100
AcDbBlockReference
  2
SW_CENTERMARKSYMBOL_3
 10
697.4492800056
 20
437.0749744363
 30
0.0
  0
INSERT
  5
212
330
1F
100
AcDbEntity
  8
FORMAT
 62
     7
100
AcDbBlockReference
  2
SW_CENTERMARKSYMBOL_4
 10
697.4492800056
 20
401.0749744363
 30
0.0
  0
LINE
  5
213
330
1F
100
AcDbEntity
  8
0
  6
Continuous
 62
     7
370
    15
100
AcDbLine
 10
480.9661624919
 20
165.7731841958
 30
0.0
 11
480.9661624919
 21
182.7731888449
 31
0.0
  0
LINE
  5
214
330
1F
100
AcDbEntity
  8
0
  6
Continuous
 62
     7
370
    15
100
AcDbLine
 10
140.9661589156
 20
182.7731888449
 30
0.0
 11
140.9661589156
 21
165.7731841958
 31
0.0
  0
LINE
  5
215
330
1F
100
AcDbEntity
  8
0
  6
Continuous
 62
     7
370
    15
100
AcDbLine
 10
480.9661624919
 20
-41.2268180692
 30
0.0
 11
480.9661624919
 21
-24.22681342
 31
0.0
  0
LINE
  5
216
330
1F
100
AcDbEntity
  8
0
  6
Continuous
 62
     7
370
    15
100
AcDbLine
 10
140.9661589156
 20
-24.22681342
 30
0.0
 11
140.9661589156
 21
-41.2268180692
 31
0.0
  0
LINE
  5
217
330
1F
100
AcDbEntity
  8
0
  6
Continuous
 62
     7
370
    15
100
AcDbLine
 10
177.9661593924
 20
185.773187474
 30
0.0
 11
177.9661593924
 21
182.7731888449
 31
0.0
  0
LINE
  5
218
330
1F
100
AcDbEntity
  8
0
  6
Continuous
 62
     7
370
    15
100
AcDbLine
 10
443.966162015
 20
182.7731888449
 30
0.0
 11
443.966162015
 21
185.773187474
 31
0.0
  0
LINE
  5
219
330
1F
100
AcDbEntity
  8
0
  6
Continuous
 62
     7
370
    15
100
AcDbLine
 10
177.9661593924
 20
-41.2268180692
 30
0.0
 11
177.9661593924
 21
-44.2268166983
 31
0.0
  0
LINE
  5
21A
330
1F
100
AcDbEntity
  8
0
  6
Continuous
 62
     7
370
    15
100
AcDbLine
 10
443.966162015
 20
-44.2268166983
 30
0.0
 11
443.966162015
 21
-41.2268180692
 31
0.0
  0
LINE
  5
21B
330
1F
100
AcDbEntity
  8
0
  6
Continuous
 62
     7
370
    15
100
AcDbLine
 10
339.2911111902
 20
90.3773281431
 30
0.0
 11
341.0588787834
 21
90.3773281431
 31
0.0
  0
LINE
  5
21C
330
1F
100
AcDbEntity
  8
0
  6
Continuous
 62
     7
370
    15
100
AcDbLine
 10
341.0583628307
 20
86.7922223813
 30
0.0
 11
339.2905971001
 21
86.7922223813
 31
0.0
  0
LINE
  5
21D
330
1F
100
AcDbEntity
  8
0
  6
Continuous
 62
     7
370
    15
100
AcDbLine
 10
357.7262913774
 20
92.7517164207
 30
0.0
 11
355.9584846686
 21
92.7517164207
 31
0.0
  0
LINE
  5
21E
330
1F
100
AcDbEntity
  8
0
  6
Continuous
 62
     7
370
    15
100
AcDbLine
 10
355.9585330974
 20
75.0135278037
 30
0.0
 11
357.7263621579
 21
75.0135278037
 31
0.0
  0
LINE
  5
21F
330
1F
100
AcDbEntity
  8
0
  6
Continuous
 62
     7
370
    15
100
AcDbLine
 10
357.7263286303
 20
66.5328383154
 30
0.0
 11
355.9584846686
 21
66.5328383154
 31
0.0
  0
LINE
  5
220
330
1F
100
AcDbEntity
  8
0
  6
Continuous
 62
     7
370
    15
100
AcDbLine
 10
355.9585330974
 20
46.1243737197
 30
0.0
 11
357.7263621579
 21
46.1243737197
 31
0.0
  0
LINE
  5
221
330
1F
100
AcDbEntity
  8
0
  6
Continuous
 62
     7
370
    15
100
AcDbLine
 10
103.9661584388
 20
155.7731862819
 30
0.0
 11
74.9661592732
 21
155.7731862819
 31
0.0
  0
LINE
  5
222
330
1F
100
AcDbEntity
  8
0
  6
Continuous
 62
     7
370
    15
100
AcDbLine
 10
127.5027362595
 20
8.2731853879
 30
0.0
 11
128.4661559354
 21
8.2731853879
 31
0.0
  0
LINE
  5
223
330
1F
100
AcDbEntity
  8
0
  6
Continuous
 62
     7
370
    15
100
AcDbLine
 10
128.4661559354
 20
133.2731853879
 30
0.0
 11
110.9661577235
 21
133.2731853879
 31
0.0
  0
LINE
  5
224
330
1F
100
AcDbEntity
  8
0
  6
Continuous
 62
     7
370
    15
100
AcDbLine
 10
537.9661587964
 20
133.2731853879
 30
0.0
 11
493.4661654721
 21
133.2731853879
 31
0.0
  0
LINE
  5
225
330
1F
100
AcDbEntity
  8
0
  6
Continuous
 62
     7
370
    15
100
AcDbLine
 10
493.4661654721
 20
8.2731853879
 30
0.0
 11
537.9661587964
 21
8.2731853879
 31
0.0
  0
LINE
  5
226
330
1F
100
AcDbEntity
  8
0
  6
Continuous
 62
     7
370
    15
100
AcDbLine
 10
42.4661604653
 20
114.2731841362
 30
0.0
 11
34.4661740552
 21
114.2731841362
 31
0.0
  0
LINE
  5
227
330
1F
100
AcDbEntity
  8
0
  6
Continuous
 62
     7
370
    15
100
AcDbLine
 10
34.4661740552
 20
77.273185522
 30
0.0
 11
24.0161685239
 21
77.273185522
 31
0.0
  0
LINE
  5
228
330
1F
100
AcDbEntity
  8
0
  6
Continuous
 62
     7
370
    15
100
AcDbLine
 10
24.0161685239
 20
64.2731852538
 30
0.0
 11
34.4661740552
 21
64.2731852538
 31
0.0
  0
LINE
  5
229
330
1F
100
AcDbEntity
  8
0
  6
Continuous
 62
     7
370
    15
100
AcDbLine
 10
34.4661740552
 20
113.2731858349
 30
0.0
 11
24.0161685239
 21
113.2731858349
 31
0.0
  0
LINE
  5
22A
330
1F
100
AcDbEntity
  8
0
  6
Continuous
 62
     7
370
    15
100
AcDbLine
 10
24.0161685239
 20
100.2731855667
 30
0.0
 11
34.4661740552
 21
100.2731855667
 31
0.0
  0
LINE
  5
22B
330
1F
100
AcDbEntity
  8
0
  6
Continuous
 62
     7
370
    15
100
AcDbLine
 10
25.3215400468
 20
28.2731849408
 30
0.0
 11
34.4661740552
 21
28.2731849408
 31
0.0
  0
LINE
  5
22C
330
1F
100
AcDbEntity
  8
0
  6
Continuous
 62
     7
370
    15
100
AcDbLine
 10
275.9661605547
 20
165.7731841958
 30
0.0
 11
275.9661605547
 21
182.7731888449
 31
0.0
  0
LINE
  5
22D
330
1F
100
AcDbEntity
  8
0
  6
Continuous
 62
     7
370
    15
100
AcDbLine
 10
240.9661604057
 20
165.7731841958
 30
0.0
 11
275.9661605547
 21
165.7731841958
 31
0.0
  0
LINE
  5
22E
330
1F
100
AcDbEntity
  8
0
  6
Continuous
 62
     7
370
    15
100
AcDbLine
 10
240.9661604057
 20
165.7731841958
 30
0.0
 11
240.9661604057
 21
182.7731888449
 31
0.0
  0
LINE
  5
22F
330
1F
100
AcDbEntity
  8
0
  6
Continuous
 62
     7
370
    15
100
AcDbLine
 10
240.9661604057
 20
182.7731888449
 30
0.0
 11
275.9661605547
 21
182.7731888449
 31
0.0
  0
LINE
  5
230
330
1F
100
AcDbEntity
  8
0
  6
Continuous
 62
     7
370
    15
100
AcDbLine
 10
345.9661608528
 20
165.7731841958
 30
0.0
 11
345.9661608528
 21
182.7731888449
 31
0.0
  0
LINE
  5
231
330
1F
100
AcDbEntity
  8
0
  6
Continuous
 62
     7
370
    15
100
AcDbLine
 10
335.9661610763
 20
165.7731841958
 30
0.0
 11
345.9661608528
 21
165.7731841958
 31
0.0
  0
LINE
  5
232
330
1F
100
AcDbEntity
  8
0
  6
Continuous
 62
     7
370
    15
100
AcDbLine
 10
335.9661610763
 20
165.7731841958
 30
0.0
 11
335.9661610763
 21
182.7731888449
 31
0.0
  0
LINE
  5
233
330
1F
100
AcDbEntity
  8
0
  6
Continuous
 62
     7
370
    15
100
AcDbLine
 10
335.9661610763
 20
182.7731888449
 30
0.0
 11
345.9661608528
 21
182.7731888449
 31
0.0
  0
LINE
  5
234
330
1F
100
AcDbEntity
  8
0
  6
Continuous
 62
     7
370
    15
100
AcDbLine
 10
380.9661610018
 20
165.7731841958
 30
0.0
 11
380.9661610018
 21
182.7731888449
 31
0.0
  0
LINE
  5
235
330
1F
100
AcDbEntity
  8
0
  6
Continuous
 62
     7
370
    15
100
AcDbLine
 10
345.9661608528
 20
165.7731841958
 30
0.0
 11
380.9661610018
 21
165.7731841958
 31
0.0
  0
LINE
  5
236
330
1F
100
AcDbEntity
  8
0
  6
Continuous
 62
     7
370
    15
100
AcDbLine
 10
345.9661608528
 20
182.7731888449
 30
0.0
 11
380.9661610018
 21
182.7731888449
 31
0.0
  0
LINE
  5
237
330
1F
100
AcDbEntity
  8
0
  6
Continuous
 62
     7
370
    15
100
AcDbLine
 10
285.9661603312
 20
165.7731841958
 30
0.0
 11
285.9661603312
 21
182.7731888449
 31
0.0
  0
LINE
  5
238
330
1F
100
AcDbEntity
  8
0
  6
Continuous
 62
     7
370
    15
100
AcDbLine
 10
275.9661605547
 20
165.7731841958
 30
0.0
 11
285.9661603312
 21
165.7731841958
 31
0.0
  0
LINE
  5
239
330
1F
100
AcDbEntity
  8
0
  6
Continuous
 62
     7
370
    15
100
AcDbLine
 10
275.9661605547
 20
182.7731888449
 30
0.0
 11
285.9661603312
 21
182.7731888449
 31
0.0
  0
LINE
  5
23A
330
1F
100
AcDbEntity
  8
0
  6
Continuous
 62
     7
370
    15
100
AcDbLine
 10
345.9661608528
 20
-24.22681342
 30
0.0
 11
345.9661608528
 21
-41.2268180692
 31
0.0
  0
LINE
  5
23B
330
1F
100
AcDbEntity
  8
0
  6
Continuous
 62
     7
370
    15
100
AcDbLine
 10
345.9661608528
 20
-24.22681342
 30
0.0
 11
380.9661610018
 21
-24.22681342
 31
0.0
  0
LINE
  5
23C
330
1F
100
AcDbEntity
  8
0
  6
Continuous
 62
     7
370
    15
100
AcDbLine
 10
380.9661610018
 20
-24.22681342
 30
0.0
 11
380.9661610018
 21
-41.2268180692
 31
0.0
  0
LINE
  5
23D
330
1F
100
AcDbEntity
  8
0
  6
Continuous
 62
     7
370
    15
100
AcDbLine
 10
345.9661608528
 20
-41.2268180692
 30
0.0
 11
380.9661610018
 21
-41.2268180692
 31
0.0
  0
LINE
  5
23E
330
1F
100
AcDbEntity
  8
0
  6
Continuous
 62
     7
370
    15
100
AcDbLine
 10
240.9661604057
 20
-24.22681342
 30
0.0
 11
240.9661604057
 21
-41.2268180692
 31
0.0
  0
LINE
  5
23F
330
1F
100
AcDbEntity
  8
0
  6
Continuous
 62
     7
370
    15
100
AcDbLine
 10
240.9661604057
 20
-24.22681342
 30
0.0
 11
275.9661605547
 21
-24.22681342
 31
0.0
  0
LINE
  5
240
330
1F
100
AcDbEntity
  8
0
  6
Continuous
 62
     7
370
    15
100
AcDbLine
 10
275.9661605547
 20
-24.22681342
 30
0.0
 11
275.9661605547
 21
-41.2268180692
 31
0.0
  0
LINE
  5
241
330
1F
100
AcDbEntity
  8
0
  6
Continuous
 62
     7
370
    15
100
AcDbLine
 10
240.9661604057
 20
-41.2268180692
 30
0.0
 11
275.9661605547
 21
-41.2268180692
 31
0.0
  0
LINE
  5
242
330
1F
100
AcDbEntity
  8
0
  6
Continuous
 62
     7
370
    15
100
AcDbLine
 10
335.9661610763
 20
-24.22681342
 30
0.0
 11
335.9661610763
 21
-41.2268180692
 31
0.0
  0
LINE
  5
243
330
1F
100
AcDbEntity
  8
0
  6
Continuous
 62
     7
370
    15
100
AcDbLine
 10
335.9661610763
 20
-24.22681342
 30
0.0
 11
345.9661608528
 21
-24.22681342
 31
0.0
  0
LINE
  5
244
330
1F
100
AcDbEntity
  8
0
  6
Continuous
 62
     7
370
    15
100
AcDbLine
 10
335.9661610763
 20
-41.2268180692
 30
0.0
 11
345.9661608528
 21
-41.2268180692
 31
0.0
  0
LINE
  5
245
330
1F
100
AcDbEntity
  8
0
  6
Continuous
 62
     7
370
    15
100
AcDbLine
 10
285.9661603312
 20
-24.22681342
 30
0.0
 11
285.9661603312
 21
-41.2268180692
 31
0.0
  0
LINE
  5
246
330
1F
100
AcDbEntity
  8
0
  6
Continuous
 62
     7
370
    15
100
AcDbLine
 10
275.9661605547
 20
-41.2268180692
 30
0.0
 11
285.9661603312
 21
-41.2268180692
 31
0.0
  0
LINE
  5
247
330
1F
100
AcDbEntity
  8
0
  6
Continuous
 62
     7
370
    15
100
AcDbLine
 10
275.9661605547
 20
-24.22681342
 30
0.0
 11
285.9661603312
 21
-24.22681342
 31
0.0
  0
LINE
  5
248
330
1F
100
AcDbEntity
  8
0
  6
Continuous
 62
     7
370
    15
100
AcDbLine
 10
315.966160592
 20
182.7731888449
 30
0.0
 11
315.966160592
 21
165.7731841958
 31
0.0
  0
LINE
  5
249
330
1F
100
AcDbEntity
  8
0
  6
Continuous
 62
     7
370
    15
100
AcDbLine
 10
315.966160592
 20
165.7731841958
 30
0.0
 11
335.9661610763
 21
165.7731841958
 31
0.0
  0
LINE
  5
24A
330
1F
100
AcDbEntity
  8
0
  6
Continuous
 62
     7
370
    15
100
AcDbLine
 10
315.966160592
 20
182.7731888449
 30
0.0
 11
335.9661610763
 21
182.7731888449
 31
0.0
  0
LINE
  5
24B
330
1F
100
AcDbEntity
  8
0
  6
Continuous
 62
     7
370
    15
100
AcDbLine
 10
305.9661608155
 20
182.7731888449
 30
0.0
 11
305.9661608155
 21
165.7731841958
 31
0.0
  0
LINE
  5
24C
330
1F
100
AcDbEntity
  8
0
  6
Continuous
 62
     7
370
    15
100
AcDbLine
 10
310.9661607037
 20
182.7731888449
 30
0.0
 11
310.9661607037
 21
165.7731841958
 31
0.0
  0
LINE
  5
24D
330
1F
100
AcDbEntity
  8
0
  6
Continuous
 62
     7
370
    15
100
AcDbLine
 10
310.9661607037
 20
165.7731841958
 30
0.0
 11
305.9661608155
 21
165.7731841958
 31
0.0
  0
LINE
  5
24E
330
1F
100
AcDbEntity
  8
0
  6
Continuous
 62
     7
370
    15
100
AcDbLine
 10
305.9661608155
 20
182.7731888449
 30
0.0
 11
310.9661607037
 21
182.7731888449
 31
0.0
  0
LINE
  5
24F
330
1F
100
AcDbEntity
  8
0
  6
Continuous
 62
     7
370
    15
100
AcDbLine
 10
315.966160592
 20
165.7731841958
 30
0.0
 11
310.9661607037
 21
165.7731841958
 31
0.0
  0
LINE
  5
250
330
1F
100
AcDbEntity
  8
0
  6
Continuous
 62
     7
370
    15
100
AcDbLine
 10
310.9661607037
 20
182.7731888449
 30
0.0
 11
315.966160592
 21
182.7731888449
 31
0.0
  0
LINE
  5
251
330
1F
100
AcDbEntity
  8
0
  6
Continuous
 62
     7
370
    15
100
AcDbLine
 10
285.9661603312
 20
165.7731841958
 30
0.0
 11
305.9661608155
 21
165.7731841958
 31
0.0
  0
LINE
  5
252
330
1F
100
AcDbEntity
  8
0
  6
Continuous
 62
     7
370
    15
100
AcDbLine
 10
285.9661603312
 20
182.7731888449
 30
0.0
 11
305.9661608155
 21
182.7731888449
 31
0.0
  0
LINE
  5
253
330
1F
100
AcDbEntity
  8
0
  6
Continuous
 62
     7
370
    15
100
AcDbLine
 10
305.9661608155
 20
-41.2268180692
 30
0.0
 11
305.9661608155
 21
-24.22681342
 31
0.0
  0
LINE
  5
254
330
1F
100
AcDbEntity
  8
0
  6
Continuous
 62
     7
370
    15
100
AcDbLine
 10
285.9661603312
 20
-41.2268180692
 30
0.0
 11
305.9661608155
 21
-41.2268180692
 31
0.0
  0
LINE
  5
255
330
1F
100
AcDbEntity
  8
0
  6
Continuous
 62
     7
370
    15
100
AcDbLine
 10
285.9661603312
 20
-24.22681342
 30
0.0
 11
305.9661608155
 21
-24.22681342
 31
0.0
  0
LINE
  5
256
330
1F
100
AcDbEntity
  8
0
  6
Continuous
 62
     7
370
    15
100
AcDbLine
 10
310.9661607037
 20
-24.22681342
 30
0.0
 11
310.9661607037
 21
-41.2268180692
 31
0.0
  0
LINE
  5
257
330
1F
100
AcDbEntity
  8
0
  6
Continuous
 62
     7
370
    15
100
AcDbLine
 10
310.9661607037
 20
-41.2268180692
 30
0.0
 11
305.9661608155
 21
-41.2268180692
 31
0.0
  0
LINE
  5
258
330
1F
100
AcDbEntity
  8
0
  6
Continuous
 62
     7
370
    15
100
AcDbLine
 10
305.9661608155
 20
-24.22681342
 30
0.0
 11
310.9661607037
 21
-24.22681342
 31
0.0
  0
LINE
  5
259
330
1F
100
AcDbEntity
  8
0
  6
Continuous
 62
     7
370
    15
100
AcDbLine
 10
315.966160592
 20
-24.22681342
 30
0.0
 11
315.966160592
 21
-41.2268180692
 31
0.0
  0
LINE
  5
25A
330
1F
100
AcDbEntity
  8
0
  6
Continuous
 62
     7
370
    15
100
AcDbLine
 10
315.966160592
 20
-41.2268180692
 30
0.0
 11
335.9661610763
 21
-41.2268180692
 31
0.0
  0
LINE
  5
25B
330
1F
100
AcDbEntity
  8
0
  6
Continuous
 62
     7
370
    15
100
AcDbLine
 10
315.966160592
 20
-24.22681342
 30
0.0
 11
335.9661610763
 21
-24.22681342
 31
0.0
  0
LINE
  5
25C
330
1F
100
AcDbEntity
  8
0
  6
Continuous
 62
     7
370
    15
100
AcDbLine
 10
315.966160592
 20
-41.2268180692
 30
0.0
 11
310.9661607037
 21
-41.2268180692
 31
0.0
  0
LINE
  5
25D
330
1F
100
AcDbEntity
  8
0
  6
Continuous
 62
     7
370
    15
100
AcDbLine
 10
310.9661607037
 20
-24.22681342
 30
0.0
 11
315.966160592
 21
-24.22681342
 31
0.0
  0
CIRCLE
  5
25E
330
1F
100
AcDbEntity
  8
0
  6
Continuous
 62
     7
370
    15
100
AcDbCircle
 10
65.9661607037
 20
-5.2268146121
 30
0.0
 40
7.500000000000007
  0
LINE
  5
25F
330
1F
100
AcDbEntity
  8
0
  6
Continuous
 62
     7
370
    15
100
AcDbLine
 10
480.8926103602
 20
165.7731841958
 30
0.0
 11
480.9661624919
 21
165.7731841958
 31
0.0
  0
LINE
  5
260
330
1F
100
AcDbEntity
  8
0
  6
Continuous
 62
     7
370
    15
100
AcDbLine
 10
480.5059848319
 20
165.7731841958
 30
0.0
 11
480.5059848319
 21
166.7725603736
 31
0.0
  0
LINE
  5
261
330
1F
100
AcDbEntity
  8
0
  6
Continuous
 62
     7
370
    15
100
AcDbLine
 10
380.9661610018
 20
165.7731841958
 30
0.0
 11
480.5059848319
 21
165.7731841958
 31
0.0
  0
LINE
  5
262
330
1F
100
AcDbEntity
  8
0
  6
Continuous
 62
     7
370
    15
100
AcDbLine
 10
380.9661610018
 20
182.7731888449
 30
0.0
 11
480.9661624919
 21
182.7731888449
 31
0.0
  0
LINE
  5
263
330
1F
100
AcDbEntity
  8
0
  6
Continuous
 62
     7
370
    15
100
AcDbLine
 10
141.4263365756
 20
166.7725603736
 30
0.0
 11
141.4263365756
 21
165.7731841958
 31
0.0
  0
LINE
  5
264
330
1F
100
AcDbEntity
  8
0
  6
Continuous
 62
     7
370
    15
100
AcDbLine
 10
140.9661589156
 20
165.7731841958
 30
0.0
 11
141.0397110473
 21
165.7731841958
 31
0.0
  0
LINE
  5
265
330
1F
100
AcDbEntity
  8
0
  6
Continuous
 62
     7
370
    15
100
AcDbLine
 10
141.4263365756
 20
165.7731841958
 30
0.0
 11
240.9661604057
 21
165.7731841958
 31
0.0
  0
LINE
  5
266
330
1F
100
AcDbEntity
  8
0
  6
Continuous
 62
     7
370
    15
100
AcDbLine
 10
140.9661589156
 20
182.7731888449
 30
0.0
 11
240.9661604057
 21
182.7731888449
 31
0.0
  0
LINE
  5
267
330
1F
100
AcDbEntity
  8
0
  6
Continuous
 62
     7
370
    15
100
AcDbLine
 10
480.5059848319
 20
-25.2261895978
 30
0.0
 11
480.5059848319
 21
-24.22681342
 31
0.0
  0
LINE
  5
268
330
1F
100
AcDbEntity
  8
0
  6
Continuous
 62
     7
370
    15
100
AcDbLine
 10
480.8926103602
 20
-24.22681342
 30
0.0
 11
480.9661624919
 21
-24.22681342
 31
0.0
  0
LINE
  5
269
330
1F
100
AcDbEntity
  8
0
  6
Continuous
 62
     7
370
    15
100
AcDbLine
 10
380.9661610018
 20
-41.2268180692
 30
0.0
 11
480.9661624919
 21
-41.2268180692
 31
0.0
  0
LINE
  5
26A
330
1F
100
AcDbEntity
  8
0
  6
Continuous
 62
     7
370
    15
100
AcDbLine
 10
380.9661610018
 20
-24.22681342
 30
0.0
 11
480.5059848319
 21
-24.22681342
 31
0.0
  0
LINE
  5
26B
330
1F
100
AcDbEntity
  8
0
  6
Continuous
 62
     7
370
    15
100
AcDbLine
 10
140.9661589156
 20
-24.22681342
 30
0.0
 11
141.0397110473
 21
-24.22681342
 31
0.0
  0
LINE
  5
26C
330
1F
100
AcDbEntity
  8
0
  6
Continuous
 62
     7
370
    15
100
AcDbLine
 10
141.4263365756
 20
-24.22681342
 30
0.0
 11
141.4263365756
 21
-25.2261895978
 31
0.0
  0
LINE
  5
26D
330
1F
100
AcDbEntity
  8
0
  6
Continuous
 62
     7
370
    15
100
AcDbLine
 10
140.9661589156
 20
-41.2268180692
 30
0.0
 11
240.9661604057
 21
-41.2268180692
 31
0.0
  0
LINE
  5
26E
330
1F
100
AcDbEntity
  8
0
  6
Continuous
 62
     7
370
    15
100
AcDbLine
 10
141.4263365756
 20
-24.22681342
 30
0.0
 11
240.9661604057
 21
-24.22681342
 31
0.0
  0
SPLINE
  5
26F
330
1F
100
AcDbEntity
  8
0
  6
Continuous
 62
     7
370
    15
100
AcDbSpline
210
0.0
220
0.0
230
1.0
 70
     8
 71
     3
 72
   102
 73
    98
 74
     0
 42
0.00000001
 43
0.00000001
 12
1.0
 22
0.0
 32
0.0
 13
1.0
 23
0.0
 33
0.0
 40
-0.03125
 40
-0.03125
 40
0.0
 40
0.0
 40
0.03125
 40
0.03125
 40
0.046875
 40
0.046875
 40
0.0625
 40
0.0625
 40
0.0937500000000001
 40
0.0937500000000001
 40
0.1093750000000001
 40
0.1093750000000001
 40
0.1250000000000001
 40
0.1250000000000001
 40
0.1562500000000001
 40
0.1562500000000001
 40
0.1718750000000001
 40
0.1718750000000001
 40
0.1875000000000001
 40
0.1875000000000001
 40
0.2031250000000001
 40
0.2031250000000001
 40
0.2187500000000001
 40
0.2187500000000001
 40
0.2500000000000002
 40
0.2500000000000002
 40
0.2656250000000002
 40
0.2656250000000002
 40
0.2812500000000002
 40
0.2812500000000002
 40
0.3125000000000002
 40
0.3125000000000002
 40
0.3281250000000002
 40
0.3281250000000002
 40
0.3437500000000002
 40
0.3437500000000002
 40
0.3750000000000002
 40
0.3750000000000002
 40
0.4062500000000002
 40
0.4062500000000002
 40
0.4218750000000002
 40
0.4218750000000002
 40
0.4375000000000001
 40
0.4375000000000001
 40
0.4687500000000002
 40
0.4687500000000002
 40
0.4843750000000003
 40
0.4843750000000003
 40
0.5000000000000003
 40
0.5000000000000003
 40
0.5312500000000004
 40
0.5312500000000004
 40
0.5468750000000004
 40
0.5468750000000004
 40
0.5625000000000004
 40
0.5625000000000004
 40
0.5781250000000004
 40
0.5781250000000004
 40
0.5937500000000004
 40
0.5937500000000004
 40
0.6250000000000003
 40
0.6250000000000003
 40
0.6406250000000003
 40
0.6406250000000003
 40
0.6562500000000003
 40
0.6562500000000003
 40
0.6875000000000003
 40
0.6875000000000003
 40
0.7031250000000003
 40
0.7031250000000003
 40
0.7187500000000003
 40
0.7187500000000003
 40
0.7500000000000002
 40
0.7500000000000002
 40
0.7812500000000001
 40
0.7812500000000001
 40
0.7968750000000001
 40
0.7968750000000001
 40
0.8125000000000001
 40
0.8125000000000001
 40
0.8437500000000001
 40
0.8437500000000001
 40
0.8593750000000001
 40
0.8593750000000001
 40
0.875
 40
0.875
 40
0.90625
 40
0.90625
 40
0.921875
 40
0.921875
 40
0.9375
 40
0.9375
 40
0.953125
 40
0.953125
 40
0.96875
 40
0.96875
 40
1.0
 40
1.0
 40
1.03125
 40
1.03125
 10
298.9566320621514
 20
81.19762732536672
 30
0.0
 10
300.4328502049079
 20
82.68201392483299
 30
0.0
 10
301.2314255366922
 20
83.33957897221798
 30
0.0
 10
302.5166264215445
 20
84.20441590043903
 30
0.0
 10
302.9596920995912
 20
84.47228947031664
 30
0.0
 10
303.8758976177157
 20
84.96630283937435
 30
0.0
 10
304.3506465380932
 20
85.19282754003417
 30
0.0
 10
305.7898196280698
 20
85.79452407772963
 30
0.0
 10
306.7780021876665
 20
86.09813620363029
 30
0.0
 10
308.3031947459064
 20
86.408377295531
 30
0.0
 10
308.8205115902558
 20
86.48758922440103
 30
0.0
 10
309.8625622583213
 20
86.59454854762431
 30
0.0
 10
310.3821519497969
 20
86.6219484387016
 30
0.0
 10
311.9367487404212
 20
86.62837835049751
 30
0.0
 10
312.9676222464214
 20
86.53235582721733
 30
0.0
 10
314.5054627646929
 20
86.23436347803178
 30
0.0
 10
315.0160796076413
 20
86.10892522074873
 30
0.0
 10
316.0118625685185
 20
85.81186949938554
 30
0.0
 10
316.4999420154427
 20
85.63976393466335
 30
0.0
 10
317.4568174774228
 20
85.24912958294712
 30
0.0
 10
317.9256133509907
 20
85.03060061721747
 30
0.0
 10
318.8437050141093
 20
84.5464907704741
 30
0.0
 10
319.2953543732726
 20
84.27927831528822
 30
0.0
 10
320.6003334105652
 20
83.41735637331499
 30
0.0
 10
321.402077038272
 20
82.76599751557345
 30
0.0
 10
322.5051774277579
 20
81.67637859447183
 30
0.0
 10
322.8561707053684
 20
81.29427222598973
 30
0.0
 10
323.5237211645876
 20
80.49098369383289
 30
0.0
 10
323.8373660292756
 20
80.07297707232837
 30
0.0
 10
324.7080966375017
 20
78.78603015065896
 30
0.0
 10
325.2006948246221
 20
77.8784970039592
 30
0.0
 10
325.8064083153951
 20
76.44169250459397
 30
0.0
 10
325.9866670936814
 20
75.94730186153018
 30
0.0
 10
326.2947110746657
 20
74.95152031517848
 30
0.0
 10
326.4232452221131
 20
74.4491403547437
 30
0.0
 10
326.7340764924231
 20
72.9288113273818
 30
0.0
 10
326.8423432518888
 20
71.89780143683737
 30
0.0
 10
326.8523401350512
 20
69.79929861640164
 30
0.0
 10
326.7537331444117
 20
68.76585212492921
 30
0.0
 10
326.457156734995
 20
67.24227698441746
 30
0.0
 10
326.3333352302418
 20
66.73865761452113
 30
0.0
 10
326.0346824569797
 20
65.74006855918933
 30
0.0
 10
325.8590665648425
 20
65.2439467947833
 30
0.0
 10
325.2666522605578
 20
63.80099992957803
 30
0.0
 10
324.782327837382
 20
62.88843668940948
 30
0.0
 10
323.9230202610287
 20
61.59262691410607
 30
0.0
 10
323.6127806386597
 20
61.17114578609004
 30
0.0
 10
322.9530990422432
 20
60.36225814495211
 30
0.0
 10
322.6058111648312
 20
59.97708159808673
 30
0.0
 10
321.5130971450607
 20
58.87753649115578
 30
0.0
 10
320.7173143675611
 20
58.21861028773404
 30
0.0
 10
319.4195335816044
 20
57.34415820056703
 30
0.0
 10
318.9708185820201
 20
57.07309608565512
 30
0.0
 10
318.0578125449842
 20
56.58082563580169
 30
0.0
 10
317.5912998685789
 20
56.35806769494214
 30
0.0
 10
316.638463067878
 20
55.95871362875921
 30
0.0
 10
316.152139156421
 20
55.78211716998174
 30
0.0
 10
315.1593157961041
 20
55.47584531752828
 30
0.0
 10
314.6498812117522
 20
55.34565144105893
 30
0.0
 10
313.1150167251278
 20
55.03336755270664
 30
0.0
 10
312.0851762326938
 20
54.92774551924227
 30
0.0
 10
310.5307326994574
 20
54.91966418033566
 30
0.0
 10
310.010959753182
 20
54.94220820326949
 30
0.0
 10
308.9680586770911
 20
55.03941558606583
 30
0.0
 10
308.4498408365724
 20
55.1138113036117
 30
0.0
 10
306.92144348511
 20
55.40988214212746
 30
0.0
 10
305.9301316304799
 20
55.70437535052022
 30
0.0
 10
304.4847963822242
 20
56.29297181575994
 30
0.0
 10
304.0079092770303
 20
56.5151358282148
 30
0.0
 10
303.0873708866184
 20
57.00053768776196
 30
0.0
 10
302.6418562389738
 20
57.26427690807208
 30
0.0
 10
301.3485265829045
 20
58.11727597148607
 30
0.0
 10
300.542322953293
 20
58.76885689864507
 30
0.0
 10
299.0537197921999
 20
60.2384397512206
 30
0.0
 10
298.3933726533951
 20
61.03422193076661
 30
0.0
 10
297.5239579491684
 20
62.31640885072797
 30
0.0
 10
297.2544889497898
 20
62.75866633459956
 30
0.0
 10
296.7572417491874
 20
63.67373341004676
 30
0.0
 10
296.5293355712303
 20
64.14765324587448
 30
0.0
 10
295.9237848842821
 20
65.5842883545166
 30
0.0
 10
295.6176499098349
 20
66.57150829371369
 30
0.0
 10
295.3042391860644
 20
68.09651975258389
 30
0.0
 10
295.2240330066854
 20
68.61445888619629
 30
0.0
 10
295.1156384193279
 20
69.65570124916538
 30
0.0
 10
295.0876253449899
 20
70.17502982923972
 30
0.0
 10
295.0797579622146
 20
71.72925402755469
 30
0.0
 10
295.175347910533
 20
72.76042326069596
 30
0.0
 10
295.4739434345746
 20
74.29952008691885
 30
0.0
 10
295.5995199343521
 20
74.8094998487053
 30
0.0
 10
295.8971151675964
 20
75.80454887915006
 30
0.0
 10
296.0696184838546
 20
76.29236413366
 30
0.0
 10
296.4613549246435
 20
77.24889257310181
 30
0.0
 10
296.6805879561755
 20
77.71760573119371
 30
0.0
 10
297.166475922174
 20
78.63569299749348
 30
0.0
 10
297.4345673287323
 20
79.08706834943494
 30
0.0
 10
298.2996188183324
 20
80.39152278445694
 30
0.0
 10
298.9566320621514
 20
81.19762732536672
 30
0.0
 10
300.4328502049079
 20
82.68201392483299
 30
0.0
  0
CIRCLE
  5
270
330
1F
100
AcDbEntity
  8
0
  6
Continuous
 62
     7
370
    15
100
AcDbCircle
 10
310.9661607037
 20
70.7731853879
 30
0.0
 40
14.99999999999999
  0
LINE
  5
271
330
1F
100
AcDbEntity
  8
0
  6
Continuous
 62
     7
370
    15
100
AcDbLine
 10
310.9661607037
 20
185.773187474
 30
0.0
 11
443.966162015
 21
185.773187474
 31
0.0
  0
LINE
  5
272
330
1F
100
AcDbEntity
  8
0
  6
Continuous
 62
     7
370
    15
100
AcDbLine
 10
177.9661593924
 20
185.773187474
 30
0.0
 11
310.9661607037
 21
185.773187474
 31
0.0
  0
LINE
  5
273
330
1F
100
AcDbEntity
  8
0
  6
Continuous
 62
     7
370
    15
100
AcDbLine
 10
310.9661607037
 20
-44.2268166983
 30
0.0
 11
443.966162015
 21
-44.2268166983
 31
0.0
  0
LINE
  5
274
330
1F
100
AcDbEntity
  8
0
  6
Continuous
 62
     7
370
    15
100
AcDbLine
 10
177.9661593924
 20
-44.2268166983
 30
0.0
 11
310.9661607037
 21
-44.2268166983
 31
0.0
  0
CIRCLE
  5
275
330
1F
100
AcDbEntity
  8
0
  6
Continuous
 62
     7
370
    15
100
AcDbCircle
 10
65.9661607037
 20
-5.2268146121
 30
0.0
 40
63.00000000000001
  0
CIRCLE
  5
276
330
1F
100
AcDbEntity
  8
0
  6
Continuous
 62
     7
370
    15
100
AcDbCircle
 10
29.9037148632
 20
-41.2892604526
 30
0.0
 40
5.25
  0
CIRCLE
  5
277
330
1F
100
AcDbEntity
  8
0
  6
Continuous
 62
     7
370
    15
100
AcDbCircle
 10
102.0286065443
 20
-41.2892604526
 30
0.0
 40
5.250000000000007
  0
CIRCLE
  5
278
330
1F
100
AcDbEntity
  8
0
  6
Continuous
 62
     7
370
    15
100
AcDbCircle
 10
29.9037148632
 20
30.8356312284
 30
0.0
 40
5.25
  0
CIRCLE
  5
279
330
1F
100
AcDbEntity
  8
0
  6
Continuous
 62
     7
370
    15
100
AcDbCircle
 10
102.0286065443
 20
30.8356312284
 30
0.0
 40
5.250000000000007
  0
SPLINE
  5
27A
330
1F
100
AcDbEntity
  8
0
  6
Continuous
 62
     7
370
    15
100
AcDbSpline
210
0.0
220
0.0
230
1.0
 70
     8
 71
     3
 72
     8
 73
     4
 74
     0
 42
0.00000001
 43
0.00000001
 12
1.0
 22
0.0
 32
0.0
 13
1.0
 23
0.0
 33
0.0
 40
0.0
 40
0.0
 40
0.0
 40
0.0
 40
1.0
 40
1.0
 40
1.0
 40
1.0
 10
419.7503507315251
 20
128.6822402252344
 30
0.0
 10
424.2795733762924
 20
141.0448301907999
 30
0.0
 10
428.8055866347224
 20
153.4085974106269
 30
0.0
 10
433.3293496128291
 20
165.7731853878717
 30
0.0
  0
LINE
  5
27B
330
1F
100
AcDbEntity
  8
0
  6
Continuous
 62
     7
370
    15
100
AcDbLine
 10
202.1819693933
 20
128.6822419322
 30
0.0
 11
419.7503520142
 21
128.6822419322
 31
0.0
  0
SPLINE
  5
27C
330
1F
100
AcDbEntity
  8
0
  6
Continuous
 62
     7
370
    15
100
AcDbSpline
210
0.0
220
0.0
230
1.0
 70
     8
 71
     3
 72
     8
 73
     4
 74
     0
 42
0.00000001
 43
0.00000001
 12
1.0
 22
0.0
 32
0.0
 13
1.0
 23
0.0
 33
0.0
 40
0.0
 40
0.0
 40
0.0
 40
0.0
 40
1.0
 40
1.0
 40
1.0
 40
1.0
 10
188.6029717946626
 20
165.7731853878717
 30
0.0
 10
193.1267349078894
 20
153.4085970413097
 30
0.0
 10
197.6527488254099
 20
141.0448280229888
 30
0.0
 10
202.1819706759665
 20
128.6822402252344
 30
0.0
  0
SPLINE
  5
27D
330
1F
100
AcDbEntity
  8
0
  6
Continuous
 62
     7
370
    15
100
AcDbSpline
210
0.0
220
0.0
230
1.0
 70
     8
 71
     3
 72
     8
 73
     4
 74
     0
 42
0.00000001
 43
0.00000001
 12
1.0
 22
0.0
 32
0.0
 13
1.0
 23
0.0
 33
0.0
 40
0.0
 40
0.0
 40
0.0
 40
0.0
 40
1.0
 40
1.0
 40
1.0
 40
1.0
 10
433.3293496128292
 20
-24.22681461212833
 30
0.0
 10
428.8055864996409
 20
-11.86222626567153
 30
0.0
 10
424.2795725821771
 20
0.501542752494491
 30
0.0
 10
419.7503507315252
 20
12.86413055050896
 30
0.0
  0
SPLINE
  5
27E
330
1F
100
AcDbEntity
  8
0
  6
Continuous
 62
     7
370
    15
100
AcDbSpline
210
0.0
220
0.0
230
1.0
 70
     8
 71
     3
 72
     8
 73
     4
 74
     0
 42
0.00000001
 43
0.00000001
 12
1.0
 22
0.0
 32
0.0
 13
1.0
 23
0.0
 33
0.0
 40
0.0
 40
0.0
 40
0.0
 40
0.0
 40
1.0
 40
1.0
 40
1.0
 40
1.0
 10
202.1819706759665
 20
12.86413055050903
 30
0.0
 10
197.6527480312419
 20
0.5015405850597315
 30
0.0
 10
193.1267347727843
 20
-11.86222663484264
 30
0.0
 10
188.6029717946626
 20
-24.22681461212832
 30
0.0
  0
LINE
  5
27F
330
1F
100
AcDbEntity
  8
0
  6
Continuous
 62
     7
370
    15
100
AcDbLine
 10
202.1819693933
 20
12.8641288436
 30
0.0
 11
419.7503520142
 21
12.8641288436
 31
0.0
  0
SPLINE
  5
280
330
1F
100
AcDbEntity
  8
0
  6
Continuous
 62
     7
370
    15
100
AcDbSpline
210
0.0
220
0.0
230
1.0
 70
     8
 71
     3
 72
    26
 73
    22
 74
     0
 42
0.00000001
 43
0.00000001
 12
1.0
 22
0.0
 32
0.0
 13
1.0
 23
0.0
 33
0.0
 40
0.0
 40
0.0
 40
0.0
 40
0.0
 40
0.0624999999999999
 40
0.0624999999999999
 40
0.1249999999999999
 40
0.1249999999999999
 40
0.2499999999999999
 40
0.2499999999999999
 40
0.3749999999999998
 40
0.3749999999999998
 40
0.4999999999999997
 40
0.4999999999999997
 40
0.6249999999999996
 40
0.6249999999999996
 40
0.6874999999999996
 40
0.6874999999999996
 40
0.7499999999999996
 40
0.7499999999999996
 40
0.8749999999999998
 40
0.8749999999999998
 40
1.0
 40
1.0
 40
1.0
 40
1.0
 10
206.8939441950424
 20
78.27318538787169
 30
0.0
 10
206.8391002610595
 20
78.92245547954751
 30
0.0
 10
206.7774484548409
 20
79.56770592616589
 30
0.0
 10
206.6410159443511
 20
80.85003142533853
 30
0.0
 10
206.5667230387866
 20
81.48229607433844
 30
0.0
 10
206.3288237927905
 20
83.34161571318865
 30
0.0
 10
206.149688818331
 20
84.53644355880733
 30
0.0
 10
205.7596732737497
 20
86.83993583997504
 30
0.0
 10
205.5485342434189
 20
87.94971680342212
 30
0.0
 10
205.1041241920297
 20
90.0769939928545
 30
0.0
 10
204.8753024346815
 20
91.07378420525335
 30
0.0
 10
204.4145605570776
 20
92.94039181560906
 30
0.0
 10
204.1826068784627
 20
93.81018766340335
 30
0.0
 10
203.8393214582122
 20
95.01898538791475
 30
0.0
 10
203.7255633860958
 20
95.4062108164955
 30
0.0
 10
203.5011810179292
 20
96.14638101574788
 30
0.0
 10
203.3916071154106
 20
96.49589902995842
 30
0.0
 10
203.0720949868038
 20
97.48430837478696
 30
0.0
 10
202.87137042367
 20
98.06332957764455
 30
0.0
 10
202.5013663317582
 20
99.06281133054495
 30
0.0
 10
202.3320622488116
 20
99.48329923184924
 30
0.0
 10
202.1819706759665
 20
99.8205604844273
 30
0.0
  0
LINE
  5
281
330
1F
100
AcDbEntity
  8
0
  6
Continuous
 62
     7
370
    15
100
AcDbLine
 10
202.1819693933
 20
128.6822419322
 30
0.0
 11
202.1819693933
 21
99.8205609328
 31
0.0
  0
LINE
  5
282
330
1F
100
AcDbEntity
  8
0
  6
Continuous
 62
     7
370
    15
100
AcDbLine
 10
419.7503520142
 20
99.8205609328
 30
0.0
 11
419.7503520142
 21
128.6822419322
 31
0.0
  0
SPLINE
  5
283
330
1F
100
AcDbEntity
  8
0
  6
Continuous
 62
     7
370
    15
100
AcDbSpline
210
0.0
220
0.0
230
1.0
 70
     8
 71
     3
 72
    30
 73
    26
 74
     0
 42
0.00000001
 43
0.00000001
 12
1.0
 22
0.0
 32
0.0
 13
1.0
 23
0.0
 33
0.0
 40
0.0
 40
0.0
 40
0.0
 40
0.0
 40
0.0625000000000001
 40
0.0625000000000001
 40
0.1250000000000001
 40
0.1250000000000001
 40
0.2500000000000001
 40
0.2500000000000001
 40
0.3125
 40
0.3125
 40
0.3749999999999999
 40
0.3749999999999999
 40
0.4999999999999997
 40
0.4999999999999997
 40
0.6249999999999994
 40
0.6249999999999994
 40
0.6874999999999996
 40
0.6874999999999996
 40
0.7499999999999996
 40
0.7499999999999996
 40
0.875
 40
0.875
 40
0.9375
 40
0.9375
 40
1.0
 40
1.0
 40
1.0
 40
1.0
 10
419.7503507315252
 20
99.8205604844273
 30
0.0
 10
419.6755186521552
 20
99.65241006569998
 30
0.0
 10
419.5949835749881
 20
99.46131228393867
 30
0.0
 10
419.4257970647544
 20
99.03979552368126
 30
0.0
 10
419.3368794199559
 20
98.80881118069415
 30
0.0
 10
419.0585173768932
 20
98.05650437995536
 30
0.0
 10
418.8574578204528
 20
97.47610226645911
 30
0.0
 10
418.5380123738858
 20
96.48735792404433
 30
0.0
 10
418.428554788845
 20
96.13801777701416
 30
0.0
 10
418.2046198343118
 20
95.3989881583661
 30
0.0
 10
418.0903470243622
 20
95.00986079457793
 30
0.0
 10
417.7465543081727
 20
93.79861748520025
 30
0.0
 10
417.5145169546826
 20
92.92786973277714
 30
0.0
 10
417.0541266296187
 20
91.06143817339805
 30
0.0
 10
416.8257407935238
 20
90.06576815242762
 30
0.0
 10
416.4934159676799
 20
88.47421236127795
 30
0.0
 10
416.3844587246549
 20
87.92750113786684
 30
0.0
 10
416.1744697069438
 20
86.81735724012992
 30
0.0
 10
416.0730146605509
 20
86.25195264026257
 30
0.0
 10
415.7808509599112
 20
84.52497125038018
 30
0.0
 10
415.6023165844584
 20
83.33276708078608
 30
0.0
 10
415.3655230580407
 20
81.4815157723243
 30
0.0
 10
415.2917654561728
 20
80.85390668402255
 30
0.0
 10
415.1558062462717
 20
79.5769215600152
 30
0.0
 10
415.0935076515617
 20
78.92584727146
 30
0.0
 10
415.0383772124493
 20
78.27318538787168
 30
0.0
  0
LINE
  5
284
330
1F
100
AcDbEntity
  8
0
  6
Continuous
 62
     7
370
    15
100
AcDbLine
 10
409.627196003
 20
63.2731855555
 30
0.0
 11
409.627196003
 21
78.2731852202
 31
0.0
  0
SPLINE
  5
285
330
1F
100
AcDbEntity
  8
0
  6
Continuous
 62
     7
370
    15
100
AcDbSpline
210
0.0
220
0.0
230
1.0
 70
     8
 71
     3
 72
    26
 73
    22
 74
     0
 42
0.00000001
 43
0.00000001
 12
1.0
 22
0.0
 32
0.0
 13
1.0
 23
0.0
 33
0.0
 40
0.0
 40
0.0
 40
0.0
 40
0.0
 40
0.0625
 40
0.0625
 40
0.125
 40
0.125
 40
0.2499999999999999
 40
0.2499999999999999
 40
0.3749999999999998
 40
0.3749999999999998
 40
0.4999999999999997
 40
0.4999999999999997
 40
0.6249999999999996
 40
0.6249999999999996
 40
0.6874999999999996
 40
0.6874999999999996
 40
0.7499999999999996
 40
0.7499999999999996
 40
0.8749999999999998
 40
0.8749999999999998
 40
1.0
 40
1.0
 40
1.0
 40
1.0
 10
415.0383772124493
 20
63.27318538787168
 30
0.0
 10
415.0932211464321
 20
62.62391529619585
 30
0.0
 10
415.1548729526508
 20
61.97866484957748
 30
0.0
 10
415.2913054631406
 20
60.69633935040483
 30
0.0
 10
415.3655983687052
 20
60.06407470140491
 30
0.0
 10
415.6034976147013
 20
58.20475506255472
 30
0.0
 10
415.7826325891608
 20
57.00992721693603
 30
0.0
 10
416.172648133742
 20
54.70643493576831
 30
0.0
 10
416.3837871640729
 20
53.59665397232123
 30
0.0
 10
416.8281972154621
 20
51.46937678288887
 30
0.0
 10
417.0570189728102
 20
50.47258657049002
 30
0.0
 10
417.5177608504141
 20
48.6059789601343
 30
0.0
 10
417.7497145290291
 20
47.73618311234
 30
0.0
 10
418.0929999492795
 20
46.52738538782859
 30
0.0
 10
418.206758021396
 20
46.14015995924785
 30
0.0
 10
418.4311403895625
 20
45.39998975999547
 30
0.0
 10
418.5407142920812
 20
45.05047174578493
 30
0.0
 10
418.8602264206879
 20
44.06206240095639
 30
0.0
 10
419.0609509838217
 20
43.48304119809882
 30
0.0
 10
419.4309550757335
 20
42.4835594451984
 30
0.0
 10
419.6002591586802
 20
42.0630715438941
 30
0.0
 10
419.7503507315251
 20
41.72581029131605
 30
0.0
  0
LINE
  5
286
330
1F
100
AcDbEntity
  8
0
  6
Continuous
 62
     7
370
    15
100
AcDbLine
 10
419.7503520142
 20
12.8641288436
 30
0.0
 11
419.7503520142
 21
41.725809843
 31
0.0
  0
LINE
  5
287
330
1F
100
AcDbEntity
  8
0
  6
Continuous
 62
     7
370
    15
100
AcDbLine
 10
202.1819693933
 20
41.725809843
 30
0.0
 11
202.1819693933
 21
12.8641288436
 31
0.0
  0
SPLINE
  5
288
330
1F
100
AcDbEntity
  8
0
  6
Continuous
 62
     7
370
    15
100
AcDbSpline
210
0.0
220
0.0
230
1.0
 70
     8
 71
     3
 72
    30
 73
    26
 74
     0
 42
0.00000001
 43
0.00000001
 12
1.0
 22
0.0
 32
0.0
 13
1.0
 23
0.0
 33
0.0
 40
0.0
 40
0.0
 40
0.0
 40
0.0
 40
0.0625000000000001
 40
0.0625000000000001
 40
0.1250000000000001
 40
0.1250000000000001
 40
0.2500000000000001
 40
0.2500000000000001
 40
0.3125
 40
0.3125
 40
0.3749999999999999
 40
0.3749999999999999
 40
0.4999999999999997
 40
0.4999999999999997
 40
0.6249999999999994
 40
0.6249999999999994
 40
0.6874999999999996
 40
0.6874999999999996
 40
0.7499999999999996
 40
0.7499999999999996
 40
0.875
 40
0.875
 40
0.9375
 40
0.9375
 40
1.0
 40
1.0
 40
1.0
 40
1.0
 10
202.1819706759665
 20
41.72581029131605
 30
0.0
 10
202.2568027553365
 20
41.89396071004337
 30
0.0
 10
202.3373378325036
 20
42.08505849180468
 30
0.0
 10
202.5065243427373
 20
42.50657525206208
 30
0.0
 10
202.5954419875358
 20
42.7375595950492
 30
0.0
 10
202.8738040305984
 20
43.489866395788
 30
0.0
 10
203.0748635870389
 20
44.07026850928425
 30
0.0
 10
203.3943090336059
 20
45.05901285169902
 30
0.0
 10
203.5037666186468
 20
45.40835299872919
 30
0.0
 10
203.7277015731799
 20
46.14738261737726
 30
0.0
 10
203.8419743831295
 20
46.53650998116542
 30
0.0
 10
204.185767099319
 20
47.7477532905431
 30
0.0
 10
204.4178044528091
 20
48.61850104296622
 30
0.0
 10
204.878194777873
 20
50.48493260234532
 30
0.0
 10
205.1065806139678
 20
51.48060262331575
 30
0.0
 10
205.4389054398118
 20
53.07215841446541
 30
0.0
 10
205.5478626828368
 20
53.61886963787651
 30
0.0
 10
205.7578517005479
 20
54.72901353561342
 30
0.0
 10
205.8593067469408
 20
55.29441813548078
 30
0.0
 10
206.1514704475805
 20
57.02139952536318
 30
0.0
 10
206.3300048230333
 20
58.21360369495727
 30
0.0
 10
206.566798349451
 20
60.06485500341905
 30
0.0
 10
206.6405559513189
 20
60.69246409172081
 30
0.0
 10
206.7765151612201
 20
61.96944921572816
 30
0.0
 10
206.83881375593
 20
62.62052350428336
 30
0.0
 10
206.8939441950424
 20
63.27318538787169
 30
0.0
  0
LINE
  5
289
330
1F
100
AcDbEntity
  8
0
  6
Continuous
 62
     7
370
    15
100
AcDbLine
 10
212.3051254044
 20
78.2731852202
 30
0.0
 11
212.3051254044
 21
63.2731855555
 31
0.0
  0
SPLINE
  5
28A
330
1F
100
AcDbEntity
  8
0
  6
Continuous
 62
     7
370
    15
100
AcDbSpline
210
0.0
220
0.0
230
1.0
 70
     8
 71
     3
 72
    20
 73
    16
 74
     0
 42
0.00000001
 43
0.00000001
 12
1.0
 22
0.0
 32
0.0
 13
1.0
 23
0.0
 33
0.0
 40
0.0
 40
0.0
 40
0.0
 40
0.0
 40
0.2945910772615289
 40
0.2945910772615289
 40
0.2945910772615289
 40
0.572416511373388
 40
0.572416511373388
 40
0.572416511373388
 40
0.7614685195881445
 40
0.7614685195881445
 40
0.7614685195881445
 40
0.9520892366730355
 40
0.9520892366730355
 40
0.9520892366730355
 40
1.0
 40
1.0
 40
1.0
 40
1.0
 10
331.7366480172327
 20
95.42118538787167
 30
0.0
 10
331.6967466099304
 20
95.42118538787167
 30
0.0
 10
331.6561640565455
 20
95.4139673284932
 30
0.0
 10
331.6188141407275
 20
95.39964693940895
 30
0.0
 10
331.5836441503652
 20
95.38616235892077
 30
0.0
 10
331.5500987779845
 20
95.36580140916716
 30
0.0
 10
331.5227379721979
 20
95.33956353994475
 30
0.0
 10
331.5039669131012
 20
95.32156287879513
 30
0.0
 10
331.4876440476237
 20
95.30032147781495
 30
0.0
 10
331.4756183397033
 20
95.27709708240498
 30
0.0
 10
331.4635334349726
 20
95.25375836440061
 30
0.0
 10
331.4555147250275
 20
95.22765577733605
 30
0.0
 10
331.4528779262351
 20
95.20140991011148
 30
0.0
 10
331.4522032759619
 20
95.19469465313307
 30
0.0
 10
331.4518638008024
 20
95.18793567226018
 30
0.0
 10
331.4518638008024
 20
95.18118538787168
 30
0.0
  0
LINE
  5
28B
330
1F
100
AcDbEntity
  8
0
  6
Continuous
 62
     7
370
    15
100
AcDbLine
 10
331.4518636058
 20
77.4855484894
 30
0.0
 11
331.4518636058
 21
95.1811849779
 31
0.0
  0
SPLINE
  5
28C
330
1F
100
AcDbEntity
  8
0
  6
Continuous
 62
     7
370
    15
100
AcDbSpline
210
0.0
220
0.0
230
1.0
 70
     8
 71
     3
 72
    17
 73
    13
 74
     0
 42
0.00000001
 43
0.00000001
 12
1.0
 22
0.0
 32
0.0
 13
1.0
 23
0.0
 33
0.0
 40
0.0
 40
0.0
 40
0.0
 40
0.0
 40
0.233060774874302
 40
0.233060774874302
 40
0.233060774874302
 40
0.4650305328555684
 40
0.4650305328555684
 40
0.4650305328555684
 40
0.711836300133719
 40
0.711836300133719
 40
0.711836300133719
 40
1.0
 40
1.0
 40
1.0
 40
1.0
 10
331.4518638008023
 20
77.48554826097231
 30
0.0
 10
331.4518638008023
 20
77.46205014295992
 30
0.0
 10
331.4561227860081
 20
77.43822449125939
 30
0.0
 10
331.4640420153669
 20
77.41615256530595
 30
0.0
 10
331.4719403341916
 20
77.39413891974064
 30
0.0
 10
331.4836314217559
 20
77.37327658306434
 30
0.0
 10
331.4978464826584
 20
77.35484241964674
 30
0.0
 10
331.5129850438329
 20
77.33521065637025
 30
0.0
 10
331.5312967987927
 20
77.31784794389606
 30
0.0
 10
331.5512857266884
 20
77.30340018414606
 30
0.0
 10
331.5746009974915
 20
77.2865481832371
 30
0.0
 10
331.6006999585524
 20
77.27325990061054
 30
0.0
 10
331.6277432927847
 20
77.2638171731696
 30
0.0
  0
SPLINE
  5
28D
330
1F
100
AcDbEntity
  8
0
  6
Continuous
 62
     7
370
    15
100
AcDbSpline
210
0.0
220
0.0
230
1.0
 70
     8
 71
     3
 72
    21
 73
    17
 74
     0
 42
0.00000001
 43
0.00000001
 12
1.0
 22
0.0
 32
0.0
 13
1.0
 23
0.0
 33
0.0
 40
0.0
 40
0.0
 40
0.0
 40
0.0
 40
0.055299677264327
 40
0.1106180460651515
 40
0.1659591402804946
 40
0.2213269888213329
 40
0.2767256147614494
 40
0.3321590344736316
 40
0.3876312567731126
 40
0.4431462820691648
 40
0.49870810152571
 40
0.5987790081020588
 40
0.6989205534522693
 40
0.7991558693449856
 40
0.8995080227048664
 40
1.0
 40
1.0
 40
1.0
 40
1.0
 10
331.6277432927848
 20
77.2638171731696
 30
0.0
 10
331.9445341933276
 20
77.15295698347856
 30
0.0
 10
332.5782230711445
 20
76.93119913286004
 30
0.0
 10
333.5260672306527
 20
76.59626935263447
 30
0.0
 10
334.4721112159052
 20
76.25960241362395
 30
0.0
 10
335.4161535360861
 20
75.92103640298579
 30
0.0
 10
336.3582481966586
 20
75.58061475010527
 30
0.0
 10
337.298380703197
 20
75.23832578218529
 30
0.0
 10
338.2365549082072
 20
74.89417276642773
 30
0.0
 10
339.1727698275597
 20
74.54815435143719
 30
0.0
 10
340.3562039867629
 20
74.10748800614347
 30
0.0
 10
341.7837244768772
 20
73.57035375534952
 30
0.0
 10
343.4511264461996
 20
72.93456375839068
 30
0.0
 10
345.1100032851192
 20
72.29338249882531
 30
0.0
 10
346.7613468049071
 20
71.64719627480461
 30
0.0
 10
347.8538986258334
 20
71.21244396419931
 30
0.0
 10
348.40055484339
 20
70.99491647567439
 30
0.0
  0
SPLINE
  5
28E
330
1F
100
AcDbEntity
  8
0
  6
Continuous
 62
     7
370
    15
100
AcDbSpline
210
0.0
220
0.0
230
1.0
 70
     8
 71
     3
 72
    29
 73
    25
 74
     0
 42
0.00000001
 43
0.00000001
 12
1.0
 22
0.0
 32
0.0
 13
1.0
 23
0.0
 33
0.0
 40
0.0
 40
0.0
 40
0.0
 40
0.0
 40
0.1522469061250049
 40
0.1522469061250049
 40
0.1522469061250049
 40
0.3052760049059958
 40
0.3052760049059958
 40
0.3052760049059958
 40
0.4465371940091676
 40
0.4465371940091676
 40
0.4465371940091676
 40
0.5758489395370532
 40
0.5758489395370532
 40
0.5758489395370532
 40
0.7011657864940143
 40
0.7011657864940143
 40
0.7011657864940143
 40
0.8305026150156863
 40
0.8305026150156863
 40
0.8305026150156863
 40
0.9698758808212175
 40
0.9698758808212175
 40
0.9698758808212175
 40
1.0
 40
1.0
 40
1.0
 40
1.0
 10
348.4005548433898
 20
70.99491647567439
 30
0.0
 10
348.426586736065
 20
70.98451820681538
 30
0.0
 10
348.4514084124478
 20
70.96948102204472
 30
0.0
 10
348.4728470937754
 20
70.95064606459634
 30
0.0
 10
348.4943494933074
 20
70.93175512750783
 30
0.0
 10
348.513055054212
 20
70.90842658078844
 30
0.0
 10
348.5267639854578
 20
70.88258707717321
 30
0.0
 10
348.5394282700205
 20
70.85871659297027
 30
0.0
 10
348.5481877933601
 20
70.83195166213149
 30
0.0
 10
348.5519242310335
 20
70.80482701921885
 30
0.0
 10
348.5553522341995
 20
70.77994145443644
 30
0.0
 10
348.5546580371181
 20
70.75404307335697
 30
0.0
 10
348.5499226099099
 20
70.72940178308674
 30
0.0
 10
348.5453264307415
 20
70.70548508454121
 30
0.0
 10
348.5368266464081
 20
70.68211666313051
 30
0.0
 10
348.5252777672462
 20
70.66102654276393
 30
0.0
 10
348.5133526068588
 20
70.63924927204927
 30
0.0
 10
348.4979027924803
 20
70.61934384838727
 30
0.0
 10
348.4802678886595
 20
70.6025189750201
 30
0.0
 10
348.4612712299321
 20
70.58439489673005
 30
0.0
 10
348.4392899486854
 20
70.56938457827482
 30
0.0
 10
348.416022077118
 20
70.558238504429
 30
0.0
 10
348.4109371338944
 20
70.5558026497997
 30
0.0
 10
348.4057758096843
 20
70.55353978082563
 30
0.0
 10
348.4005548433898
 20
70.55145430006895
 30
0.0
  0
SPLINE
  5
28F
330
1F
100
AcDbEntity
  8
0
  6
Continuous
 62
     7
370
    15
100
AcDbSpline
210
0.0
220
0.0
230
1.0
 70
     8
 71
     3
 72
    21
 73
    17
 74
     0
 42
0.00000001
 43
0.00000001
 12
1.0
 22
0.0
 32
0.0
 13
1.0
 23
0.0
 33
0.0
 40
0.0
 40
0.0
 40
0.0
 40
0.0
 40
0.0558419958317874
 40
0.1116391602309752
 40
0.1673954241249802
 40
0.2231147270976587
 40
0.2788010165773828
 40
0.3344582470168623
 40
0.3900903790655481
 40
0.4457013787354574
 40
0.5012952165613014
 40
0.6012625472637141
 40
0.7010933042886593
 40
0.8008108361249457
 40
0.9004385708668678
 40
1.0
 40
1.0
 40
1.0
 40
1.0
 10
348.4005548433898
 20
70.55145430006895
 30
0.0
 10
348.0970476101053
 20
70.43047732663052
 30
0.0
 10
347.4902768071781
 20
70.18862050327066
 30
0.0
 10
346.5762376188888
 20
69.82766109688225
 30
0.0
 10
345.6598505904799
 20
69.4682366289143
 30
0.0
 10
344.7408083961204
 20
69.11046622407983
 30
0.0
 10
343.8191933321445
 20
68.75431800315073
 30
0.0
 10
342.8949833069674
 20
68.39980051213018
 30
0.0
 10
341.968184540218
 20
68.04691145254515
 30
0.0
 10
341.0387943056887
 20
67.6956515137785
 30
0.0
 10
339.8587900204497
 20
67.25297278372216
 30
0.0
 10
338.4256389123145
 20
66.7209115078728
 30
0.0
 10
336.7361990866021
 20
66.10205995419089
 30
0.0
 10
335.0401887179888
 20
65.48933331352426
 30
0.0
 10
333.3382639128174
 20
64.88220724704664
 30
0.0
 10
332.1977902867583
 20
64.48239378775115
 30
0.0
 10
331.6277432927848
 20
64.28255360257377
 30
0.0
  0
SPLINE
  5
290
330
1F
100
AcDbEntity
  8
0
  6
Continuous
 62
     7
370
    15
100
AcDbSpline
210
0.0
220
0.0
230
1.0
 70
     8
 71
     3
 72
    17
 73
    13
 74
     0
 42
0.00000001
 43
0.00000001
 12
1.0
 22
0.0
 32
0.0
 13
1.0
 23
0.0
 33
0.0
 40
0.0
 40
0.0
 40
0.0
 40
0.0
 40
0.3277039730680147
 40
0.3277039730680147
 40
0.3277039730680147
 40
0.6019571452994742
 40
0.6019571452994742
 40
0.6019571452994742
 40
0.8788698412764401
 40
0.8788698412764401
 40
0.8788698412764401
 40
1.0
 40
1.0
 40
1.0
 40
1.0
 10
331.6277432927847
 20
64.28255360257374
 30
0.0
 10
331.5970590820937
 20
64.27183958943446
 30
0.0
 10
331.5675267549015
 20
64.25612485880623
 30
0.0
 10
331.5418960492083
 20
64.23587411045794
 30
0.0
 10
331.5204139675263
 20
64.21890117825134
 30
0.0
 10
331.5011672366816
 20
64.19828315321959
 30
0.0
 10
331.4862691874657
 20
64.17512239243351
 30
0.0
 10
331.4712865330329
 20
64.15183010293761
 30
0.0
 10
331.4603326687482
 20
64.12514884136267
 30
0.0
 10
331.4552660451419
 20
64.09778867234797
 30
0.0
 10
331.4530138917177
 20
64.08562686536864
 30
0.0
 10
331.4518638008022
 20
64.07319853090712
 30
0.0
 10
331.4518638008022
 20
64.06082251477105
 30
0.0
  0
LINE
  5
291
330
1F
100
AcDbEntity
  8
0
  6
Continuous
 62
     7
370
    15
100
AcDbLine
 10
331.4518636058
 20
47.6611844903
 30
0.0
 11
331.4518636058
 21
64.0608222863
 31
0.0
  0
SPLINE
  5
292
330
1F
100
AcDbEntity
  8
0
  6
Continuous
 62
     7
370
    15
100
AcDbSpline
210
0.0
220
0.0
230
1.0
 70
     8
 71
     3
 72
    20
 73
    16
 74
     0
 42
0.00000001
 43
0.00000001
 12
1.0
 22
0.0
 32
0.0
 13
1.0
 23
0.0
 33
0.0
 40
0.0
 40
0.0
 40
0.0
 40
0.0
 40
0.1698166797313738
 40
0.1698166797313738
 40
0.1698166797313738
 40
0.3388384042996136
 40
0.3388384042996136
 40
0.3388384042996136
 40
0.5186701926403929
 40
0.5186701926403929
 40
0.5186701926403929
 40
0.7284881147646343
 40
0.7284881147646343
 40
0.7284881147646343
 40
1.0
 40
1.0
 40
1.0
 40
1.0
 10
331.4518638008024
 20
47.66118538787168
 30
0.0
 10
331.4518638008024
 20
47.6376872698593
 30
0.0
 10
331.4561227860081
 20
47.61386161815877
 30
0.0
 10
331.4640420153669
 20
47.59178969220532
 30
0.0
 10
331.4719403341916
 20
47.56977604664001
 30
0.0
 10
331.4836314217559
 20
47.54891370996368
 30
0.0
 10
331.4978464826584
 20
47.5304795465461
 30
0.0
 10
331.5129850438329
 20
47.5108477832696
 30
0.0
 10
331.5312967987927
 20
47.49348507079543
 30
0.0
 10
331.5512857266885
 20
47.47903731104542
 30
0.0
 10
331.5745848137202
 20
47.4621970075743
 30
0.0
 10
331.6006635963818
 20
47.44891549660449
 30
0.0
 10
331.6276864235838
 20
47.43947416316881
 30
0.0
 10
331.6625079146063
 20
47.42730810426564
 30
0.0
 10
331.699841084752
 20
47.42118538787168
 30
0.0
 10
331.7366480172327
 20
47.42118538787168
 30
0.0
  0
SPLINE
  5
293
330
1F
100
AcDbEntity
  8
0
  6
Continuous
 62
     7
370
    15
100
AcDbSpline
210
0.0
220
0.0
230
1.0
 70
     8
 71
     3
 72
    17
 73
    13
 74
     0
 42
0.00000001
 43
0.00000001
 12
1.0
 22
0.0
 32
0.0
 13
1.0
 23
0.0
 33
0.0
 40
0.0
 40
0.0
 40
0.0
 40
0.0
 40
0.3032608590225437
 40
0.3032608590225437
 40
0.3032608590225437
 40
0.5637856715424642
 40
0.5637856715424642
 40
0.5637856715424642
 40
0.7950633073663453
 40
0.7950633073663453
 40
0.7950633073663453
 40
1.0
 40
1.0
 40
1.0
 40
1.0
 10
339.2908774842356
 20
95.42118538787169
 30
0.0
 10
339.2514958349312
 20
95.42118538787169
 30
0.0
 10
339.2113224335793
 20
95.41318225549334
 30
0.0
 10
339.1749446887581
 20
95.39753860909003
 30
0.0
 10
339.1436140466922
 20
95.38406538559926
 30
0.0
 10
339.1140120857077
 20
95.36440853420098
 30
0.0
 10
339.0898020076879
 20
95.33980386565338
 30
0.0
 10
339.0683026107193
 20
95.31795405848001
 30
0.0
 10
339.0503702056837
 20
95.29136400310155
 30
0.0
 10
339.038772312877
 20
95.26258365799981
 30
0.0
 10
339.0284762857864
 20
95.23703391221564
 30
0.0
 10
339.0228712747272
 20
95.2088667054363
 30
0.0
 10
339.0228712747272
 20
95.18118538787166
 30
0.0
  0
LINE
  5
294
330
1F
100
AcDbEntity
  8
0
  6
Continuous
 62
     7
370
    15
100
AcDbLine
 10
339.0228716622
 20
90.6173243827
 30
0.0
 11
339.0228716622
 21
95.1811849779
 31
0.0
  0
SPLINE
  5
295
330
1F
100
AcDbEntity
  8
0
  6
Continuous
 62
     7
370
    15
100
AcDbSpline
210
0.0
220
0.0
230
1.0
 70
     8
 71
     3
 72
    20
 73
    16
 74
     0
 42
0.00000001
 43
0.00000001
 12
1.0
 22
0.0
 32
0.0
 13
1.0
 23
0.0
 33
0.0
 40
0.0
 40
0.0
 40
0.0
 40
0.0
 40
0.1749280806812176
 40
0.1749280806812176
 40
0.1749280806812176
 40
0.3492159269725948
 40
0.3492159269725948
 40
0.3492159269725948
 40
0.532641800288065
 40
0.532641800288065
 40
0.532641800288065
 40
0.7399408101770336
 40
0.7399408101770336
 40
0.7399408101770336
 40
1.0
 40
1.0
 40
1.0
 40
1.0
 10
339.0228712747272
 20
90.61732525556901
 30
0.0
 10
339.0228712747272
 20
90.59311045797189
 30
0.0
 10
339.0271174811434
 20
90.56856022299947
 30
0.0
 10
339.0350674232402
 20
90.54578501986019
 30
0.0
 10
339.0430010011486
 20
90.52305669727856
 30
0.0
 10
339.0547890301792
 20
90.50148609894956
 30
0.0
 10
339.0692136769641
 20
90.48248076205479
 30
0.0
 10
339.0844058562787
 20
90.46246415503866
 30
0.0
 10
339.1028525122233
 20
90.44478943071458
 30
0.0
 10
339.1230453278981
 20
90.43025939773811
 30
0.0
 10
339.1458464454078
 20
90.41385252339954
 30
0.0
 10
339.1713913843976
 20
90.4010502751484
 30
0.0
 10
339.1978318710409
 20
90.3922749314121
 30
0.0
 10
339.2308598989012
 20
90.3813132459743
 30
0.0
 10
339.2662300780822
 20
90.37633047124564
 30
0.0
 10
339.3008874607071
 20
90.37749308740827
 30
0.0
  0
SPLINE
  5
296
330
1F
100
AcDbEntity
  8
0
  6
Continuous
 62
     7
370
    15
100
AcDbSpline
210
0.0
220
0.0
230
1.0
 70
     8
 71
     3
 72
    21
 73
    17
 74
     0
 42
0.00000001
 43
0.00000001
 12
1.0
 22
0.0
 32
0.0
 13
1.0
 23
0.0
 33
0.0
 40
0.0
 40
0.0
 40
0.0
 40
0.0
 40
0.0628039173103698
 40
0.151638824831335
 40
0.2397415880026398
 40
0.3287536678637348
 40
0.4174588862128199
 40
0.5059948302901336
 40
0.572859881320297
 40
0.6388413878813599
 40
0.7057316169259119
 40
0.771997855321794
 40
0.8387380285818714
 40
0.9052560474219664
 40
0.9718452510959237
 40
1.0
 40
1.0
 40
1.0
 40
1.0
 10
339.5229080657635
 20
90.37231390239995
 30
0.0
 10
339.6998190183774
 20
90.37179025836487
 30
0.0
 10
340.1269670388041
 20
90.37052593012687
 30
0.0
 10
340.7954221386427
 20
90.26903007194169
 30
0.0
 10
341.5195947360345
 20
90.08046377991325
 30
0.0
 10
342.2151620207133
 20
89.80051912154603
 30
0.0
 10
342.871639671918
 20
89.43217814830544
 30
0.0
 10
343.4257880913843
 20
89.0157295833882
 30
0.0
 10
343.8814812917244
 20
88.57977843954944
 30
0.0
 10
344.2497652246447
 20
88.14254665823599
 30
0.0
 10
344.5691540960944
 20
87.66707368614296
 30
0.0
 10
344.8350536238612
 20
87.15430459349652
 30
0.0
 10
345.0429474319341
 20
86.61337919049608
 30
0.0
 10
345.1830020147474
 20
86.04901627790942
 30
0.0
 10
345.2557502391869
 20
85.58258256347531
 30
0.0
 10
345.2560184629538
 20
85.30614588045395
 30
0.0
 10
345.2560981701288
 20
85.22399810018342
 30
0.0
  0
SPLINE
  5
297
330
1F
100
AcDbEntity
  8
0
  6
Continuous
 62
     7
370
    15
100
AcDbSpline
210
0.0
220
0.0
230
1.0
 70
     8
 71
     3
 72
    14
 73
    10
 74
     0
 42
0.00000001
 43
0.00000001
 12
1.0
 22
0.0
 32
0.0
 13
1.0
 23
0.0
 33
0.0
 40
0.0
 40
0.0
 40
0.0
 40
0.0
 40
0.0490199176042591
 40
0.2076670809969014
 40
0.3658199495068324
 40
0.5242981535297111
 40
0.6824434014658882
 40
0.8407082973639611
 40
1.0
 40
1.0
 40
1.0
 40
1.0
 10
339.2905542592678
 20
86.79084029855531
 30
0.0
 10
339.2841572689964
 20
86.79122944739507
 30
0.0
 10
339.2570571765901
 20
86.79287803041136
 30
0.0
 10
339.2095583925808
 20
86.7826050750412
 30
0.0
 10
339.151321479987
 20
86.75989497065198
 30
0.0
 10
339.0993102624967
 20
86.72356568248124
 30
0.0
 10
339.0577012125387
 20
86.67533453930115
 30
0.0
 10
339.0286029077965
 20
86.6169223989642
 30
0.0
 10
339.0247861911509
 20
86.57384047888685
 30
0.0
 10
339.0228716622267
 20
86.55222986700338
 30
0.0
  0
LINE
  5
298
330
1F
100
AcDbEntity
  8
0
  6
Continuous
 62
     7
370
    15
100
AcDbLine
 10
339.0228716622
 20
81.8762957758
 30
0.0
 11
339.0228716622
 21
86.552229867
 31
0.0
  0
SPLINE
  5
299
330
1F
100
AcDbEntity
  8
0
  6
Continuous
 62
     7
370
    15
100
AcDbSpline
210
0.0
220
0.0
230
1.0
 70
     8
 71
     3
 72
    17
 73
    13
 74
     0
 42
0.00000001
 43
0.00000001
 12
1.0
 22
0.0
 32
0.0
 13
1.0
 23
0.0
 33
0.0
 40
0.0
 40
0.0
 40
0.0
 40
0.0
 40
0.2446932873243689
 40
0.2446932873243689
 40
0.2446932873243689
 40
0.4884910005539669
 40
0.4884910005539669
 40
0.4884910005539669
 40
0.7450711890927024
 40
0.7450711890927024
 40
0.7450711890927024
 40
1.0
 40
1.0
 40
1.0
 40
1.0
 10
339.0228712747272
 20
81.87629556136599
 30
0.0
 10
339.0228712747272
 20
81.85208076376887
 30
0.0
 10
339.0271174811434
 20
81.82753052879646
 30
0.0
 10
339.0350674232402
 20
81.80475532565717
 30
0.0
 10
339.0430010011486
 20
81.78202700307554
 30
0.0
 10
339.0547890301792
 20
81.76045640474652
 30
0.0
 10
339.0692136769641
 20
81.74145106785177
 30
0.0
 10
339.0844058562787
 20
81.72143446083562
 30
0.0
 10
339.1028525122233
 20
81.70375973651156
 30
0.0
 10
339.1230453278981
 20
81.68922970353509
 30
0.0
 10
339.1431411495268
 20
81.67476946402918
 30
0.0
 10
339.1653465166984
 20
81.6631117987192
 30
0.0
 10
339.1883837453888
 20
81.65456447356247
 30
0.0
  0
SPLINE
  5
29A
330
1F
100
AcDbEntity
  8
0
  6
Continuous
 62
     7
370
    15
100
AcDbSpline
210
0.0
220
0.0
230
1.0
 70
     8
 71
     3
 72
    21
 73
    17
 74
     0
 42
0.00000001
 43
0.00000001
 12
1.0
 22
0.0
 32
0.0
 13
1.0
 23
0.0
 33
0.0
 40
0.0
 40
0.0
 40
0.0
 40
0.0
 40
0.0553225026441412
 40
0.1106610338174055
 40
0.1660196915423313
 40
0.2214025693737011
 40
0.2768137554984471
 40
0.3322573318414808
 40
0.3877373731784173
 40
0.4432579462561371
 40
0.4988231089221143
 40
0.5988925963844334
 40
0.6990215259878779
 40
0.7992334317904088
 40
0.8995517894529125
 40
1.0
 40
1.0
 40
1.0
 40
1.0
 10
339.1883837453892
 20
81.6545644735624
 30
0.0
 10
339.5054555020815
 20
81.53666473116827
 30
0.0
 10
340.1396908803247
 20
81.30083108741464
 30
0.0
 10
341.087528776455
 20
80.94498415961631
 30
0.0
 10
342.0329323279963
 20
80.58755118137768
 30
0.0
 10
342.975642411434
 20
80.2283839368749
 30
0.0
 10
343.9157284816333
 20
79.8675221804882
 30
0.0
 10
344.8531718947165
 20
79.50495522712822
 30
0.0
 10
345.7879776434278
 20
79.14068607575406
 30
0.0
 10
346.7201443325928
 20
78.77471346129192
 30
0.0
 10
347.8975604503043
 20
78.30898762470115
 30
0.0
 10
349.3163064734285
 20
77.74189757263974
 30
0.0
 10
350.9711977813972
 20
77.0715196180005
 30
0.0
 10
352.6152540903499
 20
76.39635872884386
 30
0.0
 10
354.2496565061664
 20
75.71674832990382
 30
0.0
 10
355.3290910204989
 20
75.26021054003746
 30
0.0
 10
355.8691573589058
 20
75.03179400411639
 30
0.0
  0
SPLINE
  5
29B
330
1F
100
AcDbEntity
  8
0
  6
Continuous
 62
     7
370
    15
100
AcDbSpline
210
0.0
220
0.0
230
1.0
 70
     8
 71
     3
 72
     9
 73
     5
 74
     0
 42
0.00000001
 43
0.00000001
 12
1.0
 22
0.0
 32
0.0
 13
1.0
 23
0.0
 33
0.0
 40
0.0
 40
0.0
 40
0.0
 40
0.0
 40
0.9152886776694941
 40
0.9999999999999999
 40
0.9999999999999999
 40
0.9999999999999999
 40
0.9999999999999999
 10
355.8691559325133
 20
75.03179383339685
 30
0.0
 10
355.8962273846736
 20
75.02109896171099
 30
0.0
 10
355.9258043398146
 20
75.00941426381539
 30
0.0
 10
355.9558534841515
 20
75.01438668614868
 30
0.0
 10
355.9583989869032
 20
75.01480790661972
 30
0.0
  0
SPLINE
  5
29C
330
1F
100
AcDbEntity
  8
0
  6
Continuous
 62
     7
370
    15
100
AcDbSpline
210
0.0
220
0.0
230
1.0
 70
     8
 71
     3
 72
    10
 73
     6
 74
     0
 42
0.00000001
 43
0.00000001
 12
1.0
 22
0.0
 32
0.0
 13
1.0
 23
0.0
 33
0.0
 40
0.0
 40
0.0
 40
0.0
 40
0.0
 40
0.1090396085939482
 40
0.7467765876995693
 40
1.0
 40
1.0
 40
1.0
 40
1.0
 10
355.9583207558069
 20
92.74962653281491
 30
0.0
 10
355.9535847006537
 20
92.75028133933866
 30
0.0
 10
355.9211490091456
 20
92.75476589488422
 30
0.0
 10
355.8770070373971
 20
92.73963789952528
 30
0.0
 10
355.842700292989
 20
92.71978112733908
 30
0.0
 10
355.8329498361025
 20
92.71413755478662
 30
0.0
  0
SPLINE
  5
29D
330
1F
100
AcDbEntity
  8
0
  6
Continuous
 62
     7
370
    15
100
AcDbSpline
210
0.0
220
0.0
230
1.0
 70
     8
 71
     3
 72
     9
 73
     5
 74
     0
 42
0.00000001
 43
0.00000001
 12
1.0
 22
0.0
 32
0.0
 13
1.0
 23
0.0
 33
0.0
 40
0.0
 40
0.0
 40
0.0
 40
0.0
 40
0.6057124962906704
 40
1.0
 40
1.0
 40
1.0
 40
1.0
 10
355.8329498361025
 20
92.71413755478662
 30
0.0
 10
354.7736865539949
 20
92.02618533989926
 30
0.0
 10
353.0248976671971
 20
90.89041181846737
 30
0.0
 10
351.2323304875424
 20
89.77126812651454
 30
0.0
 10
350.525543649045
 20
89.3300037539224
 30
0.0
  0
LINE
  5
29E
330
1F
100
AcDbEntity
  8
0
  6
Continuous
 62
     7
370
    15
100
AcDbLine
 10
339.0228716622
 20
47.6611844903
 30
0.0
 11
339.0228716622
 21
59.670075
 31
0.0
  0
SPLINE
  5
29F
330
1F
100
AcDbEntity
  8
0
  6
Continuous
 62
     7
370
    15
100
AcDbSpline
210
0.0
220
0.0
230
1.0
 70
     8
 71
     3
 72
    20
 73
    16
 74
     0
 42
0.00000001
 43
0.00000001
 12
1.0
 22
0.0
 32
0.0
 13
1.0
 23
0.0
 33
0.0
 40
0.0
 40
0.0
 40
0.0
 40
0.0
 40
0.1794752703477611
 40
0.1794752703477611
 40
0.1794752703477611
 40
0.3582936636535291
 40
0.3582936636535291
 40
0.3582936636535291
 40
0.54648762355902
 40
0.54648762355902
 40
0.54648762355902
 40
0.7591752932445043
 40
0.7591752932445043
 40
0.7591752932445043
 40
1.0
 40
1.0
 40
1.0
 40
1.0
 10
339.0228712747272
 20
47.66118538787168
 30
0.0
 10
339.0228712747272
 20
47.63697059027455
 30
0.0
 10
339.0271174811434
 20
47.61242035530213
 30
0.0
 10
339.0350674232402
 20
47.58964515216285
 30
0.0
 10
339.0430010011485
 20
47.56691682958122
 30
0.0
 10
339.0547890301792
 20
47.54534623125221
 30
0.0
 10
339.0692136769641
 20
47.52634089435745
 30
0.0
 10
339.0844058562787
 20
47.50632428734131
 30
0.0
 10
339.1028525122233
 20
47.48864956301725
 30
0.0
 10
339.1230453278981
 20
47.47411953004078
 30
0.0
 10
339.1458464454078
 20
47.4577126557022
 30
0.0
 10
339.1713913843976
 20
47.44491040745106
 30
0.0
 10
339.1978318710409
 20
47.43613506371477
 30
0.0
 10
339.2277229302396
 20
47.42621450806656
 30
0.0
 10
339.259494566901
 20
47.42118538787168
 30
0.0
 10
339.2908774842356
 20
47.42118538787168
 30
0.0
  0
SPLINE
  5
2A0
330
1F
100
AcDbEntity
  8
0
  6
Continuous
 62
     7
370
    15
100
AcDbSpline
210
0.0
220
0.0
230
1.0
 70
     8
 71
     3
 72
    11
 73
     7
 74
     0
 42
0.00000001
 43
0.00000001
 12
1.0
 22
0.0
 32
0.0
 13
1.0
 23
0.0
 33
0.0
 40
0.0
 40
0.0
 40
0.0
 40
0.0
 40
0.1437694541032885
 40
0.4286783324118962
 40
0.7140240829954889
 40
1.0
 40
1.0
 40
1.0
 40
1.0
 10
346.0446415434752
 20
50.14738363089365
 30
0.0
 10
346.5258868818576
 20
49.95937292370896
 30
0.0
 10
347.9608192910086
 20
49.39878015430464
 30
0.0
 10
350.315819128065
 20
48.4506202356965
 30
0.0
 10
353.1145081051666
 20
47.30477677139853
 30
0.0
 10
354.9502650449059
 20
46.5303028834411
 30
0.0
 10
355.8691559325133
 20
46.14263881804747
 30
0.0
  0
SPLINE
  5
2A1
330
1F
100
AcDbEntity
  8
0
  6
Continuous
 62
     7
370
    15
100
AcDbSpline
210
0.0
220
0.0
230
1.0
 70
     8
 71
     3
 72
     9
 73
     5
 74
     0
 42
0.00000001
 43
0.00000001
 12
1.0
 22
0.0
 32
0.0
 13
1.0
 23
0.0
 33
0.0
 40
0.0
 40
0.0
 40
0.0
 40
0.0
 40
0.915289098925778
 40
1.0
 40
1.0
 40
1.0
 40
1.0
 10
355.8691559325133
 20
46.14263881804747
 30
0.0
 10
355.8962273162572
 20
46.13194515401879
 30
0.0
 10
355.9258041830371
 20
46.12026178092801
 30
0.0
 10
355.9558534835778
 20
46.12523229979923
 30
0.0
 10
355.9583989869032
 20
46.12565335693162
 30
0.0
  0
SPLINE
  5
2A2
330
1F
100
AcDbEntity
  8
0
  6
Continuous
 62
     7
370
    15
100
AcDbSpline
210
0.0
220
0.0
230
1.0
 70
     8
 71
     3
 72
     9
 73
     5
 74
     0
 42
0.00000001
 43
0.00000001
 12
1.0
 22
0.0
 32
0.0
 13
1.0
 23
0.0
 33
0.0
 40
0.0
 40
0.0
 40
0.0
 40
0.0
 40
0.157194868653961
 40
0.9999999999999999
 40
0.9999999999999999
 40
0.9999999999999999
 40
0.9999999999999999
 10
355.9583207558069
 20
66.5307493588547
 30
0.0
 10
355.9535746287897
 20
66.531421302611
 30
0.0
 10
355.923381995545
 20
66.53569589351874
 30
0.0
 10
355.8939561696075
 20
66.52423567408859
 30
0.0
 10
355.8691559325133
 20
66.51457694234651
 30
0.0
  0
SPLINE
  5
2A3
330
1F
100
AcDbEntity
  8
0
  6
Continuous
 62
     7
370
    15
100
AcDbSpline
210
0.0
220
0.0
230
1.0
 70
     8
 71
     3
 72
    21
 73
    17
 74
     0
 42
0.00000001
 43
0.00000001
 12
1.0
 22
0.0
 32
0.0
 13
1.0
 23
0.0
 33
0.0
 40
0.0
 40
0.0
 40
0.0
 40
0.0
 40
0.0558166076658251
 40
0.1115913724534508
 40
0.1673282969840685
 40
0.2230313920360584
 40
0.2787046756991631
 40
0.3343521725208211
 40
0.389977912645541
 40
0.4455859309482249
 40
0.5011802661623703
 40
0.6011553810866467
 40
0.7010011410109773
 40
0.8007412808040228
 40
0.9003996107987103
 40
1.0
 40
1.0
 40
1.0
 40
1.0
 10
355.8691573589058
 20
66.51457677162696
 30
0.0
 10
355.5693672346477
 20
66.38756524961333
 30
0.0
 10
354.9700117235741
 20
66.13363741967855
 30
0.0
 10
354.0662517998059
 20
65.7543408981847
 30
0.0
 10
353.1594904669802
 20
65.37640767031837
 30
0.0
 10
352.2493619291999
 20
64.99994048129189
 30
0.0
 10
351.3359641438279
 20
64.62491183520108
 30
0.0
 10
350.4192708165212
 20
64.25132910244676
 30
0.0
 10
349.4992893251127
 20
63.87919031212573
 30
0.0
 10
348.5760165140658
 20
63.50849601987954
 30
0.0
 10
347.4028538176723
 20
63.04097001230851
 30
0.0
 10
345.9765098211629
 20
62.47846490899398
 30
0.0
 10
344.2928943063559
 20
61.82334580031282
 30
0.0
 10
342.60046800071
 20
61.17381630520357
 30
0.0
 10
340.9000739195255
 20
60.52939663830755
 30
0.0
 10
339.7588365197763
 20
60.10429521031419
 30
0.0
 10
339.1883837453894
 20
59.89180630218005
 30
0.0
  0
SPLINE
  5
2A4
330
1F
100
AcDbEntity
  8
0
  6
Continuous
 62
     7
370
    15
100
AcDbSpline
210
0.0
220
0.0
230
1.0
 70
     8
 71
     3
 72
    17
 73
    13
 74
     0
 42
0.00000001
 43
0.00000001
 12
1.0
 22
0.0
 32
0.0
 13
1.0
 23
0.0
 33
0.0
 40
0.0
 40
0.0
 40
0.0
 40
0.0
 40
0.3153725247568784
 40
0.3153725247568784
 40
0.3153725247568784
 40
0.6332746188973369
 40
0.6332746188973369
 40
0.6332746188973369
 40
0.9132927023718137
 40
0.9132927023718137
 40
0.9132927023718137
 40
1.0
 40
1.0
 40
1.0
 40
1.0
 10
339.1883837453894
 20
59.89180630218005
 30
0.0
 10
339.1599678123882
 20
59.88126335787644
 30
0.0
 10
339.1327354335406
 20
59.865913721502
 30
0.0
 10
339.1091434132276
 20
59.84641693115901
 30
0.0
 10
339.0854430375445
 20
59.82683059435473
 30
0.0
 10
339.0647197983591
 20
59.8023446825181
 30
0.0
 10
339.0498576428618
 20
59.77498367176004
 30
0.0
 10
339.0367476230457
 20
59.75084831714812
 30
0.0
 10
339.0278255206233
 20
59.72365764897688
 30
0.0
 10
339.0244644492605
 20
59.69619132895625
 30
0.0
 10
339.0234055000467
 20
59.68753770787759
 30
0.0
 10
339.0228712747272
 20
59.67879790510982
 30
0.0
 10
339.0228712747272
 20
59.67007521437734
 30
0.0
  0
LINE
  5
2A5
330
1F
100
AcDbEntity
  8
0
  6
Continuous
 62
     7
370
    15
100
AcDbLine
 10
333.2196311991
 20
77.4855484894
 30
0.0
 11
333.2196311991
 21
95.1811849779
 31
0.0
  0
LINE
  5
2A6
330
1F
100
AcDbEntity
  8
0
  6
Continuous
 62
     7
370
    15
100
AcDbLine
 10
357.9602284323
 20
68.7295460782
 30
0.0
 11
357.9602284323
 21
72.8168246976
 31
0.0
  0
SPLINE
  5
2A7
330
1F
100
AcDbEntity
  8
0
  6
Continuous
 62
     7
370
    15
100
AcDbSpline
210
0.0
220
0.0
230
1.0
 70
     8
 71
     3
 72
    20
 73
    16
 74
     0
 42
0.00000001
 43
0.00000001
 12
1.0
 22
0.0
 32
0.0
 13
1.0
 23
0.0
 33
0.0
 40
0.0
 40
0.0
 40
0.0
 40
0.0
 40
0.1248373376559589
 40
0.2498800959418083
 40
0.3744221221105423
 40
0.4994634234190955
 40
0.524461827294068
 40
0.5618890660515407
 40
0.6240953061537936
 40
0.6954794827750611
 40
0.7491507758843529
 40
0.8308127307856262
 40
0.8919492388703335
 40
0.9536999243024845
 40
1.0
 40
1.0
 40
1.0
 40
1.0
 10
357.8159931622927
 20
68.50781508884214
 30
0.0
 10
357.8260762369615
 20
68.51262108714491
 30
0.0
 10
357.8462589780623
 20
68.52224099205112
 30
0.0
 10
357.8738782062812
 20
68.54221912528602
 30
0.0
 10
357.8987671710202
 20
68.56603587843773
 30
0.0
 10
357.9144700697154
 20
68.5863101820373
 30
0.0
 10
357.9239952002441
 20
68.60106964433132
 30
0.0
 10
357.9299878187621
 20
68.61114105262514
 30
0.0
 10
357.9374190116387
 20
68.62550339560225
 30
0.0
 10
357.9443210640258
 20
68.64193461782978
 30
0.0
 10
357.9506360481819
 20
68.66064812595293
 30
0.0
 10
357.9552733579916
 20
68.67894940873528
 30
0.0
 10
357.9584578595233
 20
68.69838917813672
 30
0.0
 10
357.9599892148541
 20
68.71465166931077
 30
0.0
 10
357.96015746333
 20
68.72507832385429
 30
0.0
 10
357.9602295583072
 20
68.72954617664486
 30
0.0
  0
SPLINE
  5
2A8
330
1F
100
AcDbEntity
  8
0
  6
Continuous
 62
     7
370
    15
100
AcDbSpline
210
0.0
220
0.0
230
1.0
 70
     8
 71
     3
 72
    19
 73
    15
 74
     0
 42
0.00000001
 43
0.00000001
 12
1.0
 22
0.0
 32
0.0
 13
1.0
 23
0.0
 33
0.0
 40
0.0
 40
0.0
 40
0.0
 40
0.0
 40
0.0491815436402725
 40
0.0986559519692572
 40
0.148423365148894
 40
0.1984839208794736
 40
0.2488377544558238
 40
0.372732295320554
 40
0.4986533583030067
 40
0.622775462610292
 40
0.7491446556801543
 40
0.8316455025315478
 40
0.915263833314538
 40
1.0
 40
1.0
 40
1.0
 40
1.0
 10
338.9629444141228
 20
61.07529614056108
 30
0.0
 10
339.2824550790025
 20
61.19222625042713
 30
0.0
 10
339.9233790206866
 20
61.42678276185107
 30
0.0
 10
340.8840750272473
 20
61.78180201862555
 30
0.0
 10
341.847745490147
 20
62.14047099816561
 30
0.0
 10
342.8140233657193
 20
62.50294660955591
 30
0.0
 10
344.2526187160597
 20
63.04676776222248
 30
0.0
 10
346.166779097017
 20
63.78011867842859
 30
0.0
 10
348.5306552905467
 20
64.70316681817198
 30
0.0
 10
350.8882507365894
 20
65.64142686225564
 30
0.0
 10
352.9537115590696
 20
66.47906077173978
 30
0.0
 10
354.7521262097125
 20
67.22015544120144
 30
0.0
 10
356.2845119557352
 20
67.85899979359674
 30
0.0
 10
357.3032447081831
 20
68.29058810739743
 30
0.0
 10
357.8159931622927
 20
68.50781508884214
 30
0.0
  0
SPLINE
  5
2A9
330
1F
100
AcDbEntity
  8
0
  6
Continuous
 62
     7
370
    15
100
AcDbSpline
210
0.0
220
0.0
230
1.0
 70
     8
 71
     3
 72
    22
 73
    18
 74
     0
 42
0.00000001
 43
0.00000001
 12
1.0
 22
0.0
 32
0.0
 13
1.0
 23
0.0
 33
0.0
 40
0.0
 40
0.0
 40
0.0
 40
0.0
 40
0.0155544025872354
 40
0.0311337902340249
 40
0.0623528427317575
 40
0.1249257335903065
 40
0.1964072815570719
 40
0.2498091392132394
 40
0.3211847086678559
 40
0.3748722164966981
 40
0.4106671531290993
 40
0.4374833950078376
 40
0.4998628867272654
 40
0.6248977178594762
 40
0.7498540852317392
 40
0.8749340967425435
 40
1.0
 40
1.0
 40
1.0
 40
1.0
 10
338.7947705031885
 20
60.85356505275839
 30
0.0
 10
338.7947808154428
 20
60.85511974943899
 30
0.0
 10
338.794801456516
 20
60.85823164011174
 30
0.0
 10
338.7950209774928
 20
60.86446048117207
 30
0.0
 10
338.7957552366505
 20
60.87536920246436
 30
0.0
 10
338.7979596398617
 20
60.89175490730418
 30
0.0
 10
338.8021511442847
 20
60.9100218597227
 30
0.0
 10
338.8081653304775
 20
60.92865282443365
 30
0.0
 10
338.8150807066733
 20
60.94504223196734
 30
0.0
 10
338.8224773653381
 20
60.95921581631208
 30
0.0
 10
338.8283905236578
 20
60.9691225782079
 30
0.0
 10
338.8351527058324
 20
60.97949775566974
 30
0.0
 10
338.8477236376225
 20
60.996579987029
 30
0.0
 10
338.8687985386406
 20
61.01921032516601
 30
0.0
 10
338.8975802296258
 20
61.04231844121251
 30
0.0
 10
338.9290365158328
 20
61.06150167161284
 30
0.0
 10
338.9516422063468
 20
61.07069815713987
 30
0.0
 10
338.9629444141221
 20
61.07529614056205
 30
0.0
  0
LINE
  5
2AA
330
1F
100
AcDbEntity
  8
0
  6
Continuous
 62
     7
370
    15
100
AcDbLine
 10
338.7947702746
 20
47.6611844903
 30
0.0
 11
338.7947702746
 21
60.8535652688
 31
0.0
  0
SPLINE
  5
2AB
330
1F
100
AcDbEntity
  8
0
  6
Continuous
 62
     7
370
    15
100
AcDbSpline
210
0.0
220
0.0
230
1.0
 70
     8
 71
     3
 72
    25
 73
    21
 74
     0
 42
0.00000001
 43
0.00000001
 12
1.0
 22
0.0
 32
0.0
 13
1.0
 23
0.0
 33
0.0
 40
0.0
 40
0.0
 40
0.0
 40
0.0
 40
0.1245374729631989
 40
0.2493505094961812
 40
0.3737188330692622
 40
0.4987299974679059
 40
0.6234526366069973
 40
0.7488262935130096
 40
0.7800478408818909
 40
0.7956962209491162
 40
0.811372428408897
 40
0.83649138848678
 40
0.8515751341013965
 40
0.8741986371235376
 40
0.8993106120218872
 40
0.9143552820179299
 40
0.9368743237001197
 40
0.951137290445953
 40
0.9728275590676057
 40
1.0
 40
1.0
 40
1.0
 40
1.0
 10
338.5218617694499
 20
47.42118538787167
 30
0.0
 10
338.5383894470799
 20
47.42196280455375
 30
0.0
 10
338.5714813730664
 20
47.42351935810469
 30
0.0
 10
338.6198903983063
 20
47.43580325039114
 30
0.0
 10
338.6658243181125
 20
47.45558185595996
 30
0.0
 10
338.7077570471953
 20
47.48338319282865
 30
0.0
 10
338.7439626591101
 20
47.51891161408514
 30
0.0
 10
338.7652304107203
 20
47.55086918384587
 30
0.0
 10
338.7753070666673
 20
47.57196478385799
 30
0.0
 10
338.7786280641277
 20
47.5797849319528
 30
0.0
 10
338.7814222737089
 20
47.58692923999447
 30
0.0
 10
338.7839242916681
 20
47.59410818536326
 30
0.0
 10
338.7864385727458
 20
47.60228058472008
 30
0.0
 10
338.7886690259942
 20
47.61054072627166
 30
0.0
 10
338.7905310026989
 20
47.61889260800886
 30
0.0
 10
338.7920712833846
 20
47.62729630123355
 30
0.0
 10
338.7930960822102
 20
47.63429111000963
 30
0.0
 10
338.7939594680648
 20
47.64221951442828
 30
0.0
 10
338.7946149076868
 20
47.65081026485782
 30
0.0
 10
338.7947148985168
 20
47.65747766301737
 30
0.0
 10
338.7947705031885
 20
47.66118538787168
 30
0.0
  0
LINE
  5
2AC
330
1F
100
AcDbEntity
  8
0
  6
Continuous
 62
     7
370
    15
100
AcDbLine
 10
333.5044147412
 20
47.4211845255
 30
0.0
 11
338.5218610953
 21
47.4211845255
 31
0.0
  0
SPLINE
  5
2AD
330
1F
100
AcDbEntity
  8
0
  6
Continuous
 62
     7
370
    15
100
AcDbSpline
210
0.0
220
0.0
230
1.0
 70
     8
 71
     3
 72
    26
 73
    22
 74
     0
 42
0.00000001
 43
0.00000001
 12
1.0
 22
0.0
 32
0.0
 13
1.0
 23
0.0
 33
0.0
 40
0.0
 40
0.0
 40
0.0
 40
0.0
 40
0.0089011391085978
 40
0.0133563221085909
 40
0.0178143623845564
 40
0.035671153081848
 40
0.0499814625117758
 40
0.0714738731966685
 40
0.0878611605262943
 40
0.1124371059947263
 40
0.1247155684988147
 40
0.1431079547909557
 40
0.1698492204778955
 40
0.196625833737024
 40
0.2503436521281099
 40
0.3753513944770636
 40
0.5005904984399556
 40
0.6255888912022464
 40
0.7505281328699007
 40
0.875307810454623
 40
1.0
 40
1.0
 40
1.0
 40
1.0
 10
333.2196307537687
 20
47.66118538787169
 30
0.0
 10
333.2196372454493
 20
47.65994902530814
 30
0.0
 10
333.219646986335
 20
47.65809384065816
 30
0.0
 10
333.219707302298
 20
47.65562016520174
 30
0.0
 10
333.2198296602733
 20
47.65190397982777
 30
0.0
 10
333.2201171959473
 20
47.64682380598337
 30
0.0
 10
333.2207835479305
 20
47.63940075173104
 30
0.0
 10
333.2216941330001
 20
47.63220850503652
 30
0.0
 10
333.2231091404295
 20
47.62365278217693
 30
0.0
 10
333.2246120181311
 20
47.61641399605968
 30
0.0
 10
333.2264439898516
 20
47.6089698691073
 30
0.0
 10
333.2285824419235
 20
47.60129650425054
 30
0.0
 10
333.2316922446842
 20
47.59181778693137
 30
0.0
 10
333.2370836818497
 20
47.57796384279317
 30
0.0
 10
333.2494365516357
 20
47.55229046241838
 30
0.0
 10
333.2738032938899
 20
47.51764898546764
 30
0.0
 10
333.3118996442759
 20
47.48234547545722
 30
0.0
 10
333.3557276547048
 20
47.45487716756941
 30
0.0
 10
333.4033550773036
 20
47.43547706649811
 30
0.0
 10
333.45334262351
 20
47.42344486791644
 30
0.0
 10
333.4873948352603
 20
47.4219383717807
 30
0.0
 10
333.504414970199
 20
47.42118538787166
 30
0.0
  0
LINE
  5
2AE
330
1F
100
AcDbEntity
  8
0
  6
Continuous
 62
     7
370
    15
100
AcDbLine
 10
333.2196311991
 20
47.6611844903
 30
0.0
 11
333.2196311991
 21
64.0608222863
 31
0.0
  0
SPLINE
  5
2AF
330
1F
100
AcDbEntity
  8
0
  6
Continuous
 62
     7
370
    15
100
AcDbSpline
210
0.0
220
0.0
230
1.0
 70
     8
 71
     3
 72
    21
 73
    17
 74
     0
 42
0.00000001
 43
0.00000001
 12
1.0
 22
0.0
 32
0.0
 13
1.0
 23
0.0
 33
0.0
 40
0.0
 40
0.0
 40
0.0
 40
0.0
 40
0.1247734956603249
 40
0.2497880955810181
 40
0.4159743193028027
 40
0.49950407364875
 40
0.6241785521644584
 40
0.6553344624710414
 40
0.6865743486428537
 40
0.7491493665235737
 40
0.7818360061084966
 40
0.8307509634475717
 40
0.855137927401417
 40
0.8918396155632327
 40
0.9536578857250176
 40
1.0
 40
1.0
 40
1.0
 40
1.0
 10
333.3955102457511
 20
64.28255360257374
 30
0.0
 10
333.383894383411
 20
64.2780399262604
 30
0.0
 10
333.3606402129871
 20
64.26900385169657
 30
0.0
 10
333.3245196219339
 20
64.24810760612877
 30
0.0
 10
333.2949277175454
 20
64.22462139548485
 30
0.0
 10
333.2692053032179
 20
64.19710464700964
 30
0.0
 10
333.2550036768658
 20
64.17746755200992
 30
0.0
 10
333.2456403207814
 20
64.16107676125388
 30
0.0
 10
333.2398472850394
 20
64.14986569384877
 30
0.0
 10
333.2347047514513
 20
64.13814281493094
 30
0.0
 10
333.2297375523637
 20
64.12443134705961
 30
0.0
 10
333.2266694010832
 20
64.11414360646675
 30
0.0
 10
333.2240620463035
 20
64.1033140244059
 30
0.0
 10
333.2217274306153
 20
64.09108372094079
 30
0.0
 10
333.2199552581091
 20
64.07648190242524
 30
0.0
 10
333.2197280869339
 20
64.0655194558445
 30
0.0
 10
333.2196307537686
 20
64.06082251477106
 30
0.0
  0
SPLINE
  5
2B0
330
1F
100
AcDbEntity
  8
0
  6
Continuous
 62
     7
370
    15
100
AcDbSpline
210
0.0
220
0.0
230
1.0
 70
     8
 71
     3
 72
    19
 73
    15
 74
     0
 42
0.00000001
 43
0.00000001
 12
1.0
 22
0.0
 32
0.0
 13
1.0
 23
0.0
 33
0.0
 40
0.0
 40
0.0
 40
0.0
 40
0.0
 40
0.0507613404445365
 40
0.1012275480400544
 40
0.1513987028643874
 40
0.2012748864169571
 40
0.2508561816522144
 40
0.3769183475867992
 40
0.5012941032695816
 40
0.6269664684835526
 40
0.7510837532745002
 40
0.8346938656817968
 40
0.917665751408635
 40
1.0
 40
1.0
 40
1.0
 40
1.0
 10
350.1683217963562
 20
70.55145430006897
 30
0.0
 10
349.8924571275034
 20
70.44147406682616
 30
0.0
 10
349.3423317018486
 20
70.22215303931692
 30
0.0
 10
348.5160721046656
 20
69.89551572615424
 30
0.0
 10
347.6921859283245
 20
69.5718142586193
 30
0.0
 10
346.8705088105359
 20
69.25114591057198
 30
0.0
 10
345.6283016040093
 20
68.76952314269373
 30
0.0
 10
343.9669035830181
 20
68.13283930238256
 30
0.0
 10
341.8691609382751
 20
67.34223056546426
 30
0.0
 10
339.7680351659442
 20
66.563538627774
 30
0.0
 10
337.8838517940255
 20
65.87688458672156
 30
0.0
 10
336.2326492715414
 20
65.28372700894539
 30
0.0
 10
334.813681643545
 20
64.77937791528605
 30
0.0
 10
333.867016851577
 20
64.44773529058637
 30
0.0
 10
333.3955102457511
 20
64.28255360257377
 30
0.0
  0
SPLINE
  5
2B1
330
1F
100
AcDbEntity
  8
0
  6
Continuous
 62
     7
370
    15
100
AcDbSpline
210
0.0
220
0.0
230
1.0
 70
     8
 71
     3
 72
    61
 73
    57
 74
     0
 42
0.00000001
 43
0.00000001
 12
1.0
 22
0.0
 32
0.0
 13
1.0
 23
0.0
 33
0.0
 40
0.0
 40
0.0
 40
0.0
 40
0.0
 40
0.0624119301157333
 40
0.1249298136653892
 40
0.1871695742000779
 40
0.2496617331421682
 40
0.3119073618659416
 40
0.3743376193751925
 40
0.4056270141992889
 40
0.4134387768994741
 40
0.4212425214557849
 40
0.4274788597119711
 40
0.4321517905918985
 40
0.4368206969602972
 40
0.4445924801761741
 40
0.4523753771902021
 40
0.4586126615833225
 40
0.4632954009041609
 40
0.467981838912588
 40
0.4757997570115959
 40
0.4797117536083489
 40
0.4836254618300545
 40
0.4898903832060625
 40
0.4945910923578196
 40
0.4992930962009772
 40
0.5032121580907604
 40
0.5071316389467388
 40
0.5110513191950391
 40
0.5149709788254204
 40
0.5188903976690982
 40
0.5228093556762995
 40
0.5267276331941114
 40
0.5306450112447657
 40
0.5345612718042033
 40
0.5384761980819198
 40
0.5423895748017754
 40
0.5463011884837866
 40
0.5502108277279846
 40
0.5541182834996813
 40
0.5580233494167476
 40
0.5619258220393815
 40
0.5658255011620013
 40
0.569722190107894
 40
0.5736156960267419
 40
0.5775103977352215
 40
0.5814098988778035
 40
0.5853121180234929
 40
0.5892169044274135
 40
0.5931241016495662
 40
0.6244393729197539
 40
0.6959540201763196
 40
0.7495356334121456
 40
0.8210880096891969
 40
0.8746331632761581
 40
0.9372784209833297
 40
0.9999999999999999
 40
0.9999999999999999
 40
0.9999999999999999
 40
0.9999999999999999
 10
350.1683217963562
 20
70.99491647567439
 30
0.0
 10
350.178897425002
 20
70.99019045869574
 30
0.0
 10
350.2000666359791
 20
70.9807304016293
 30
0.0
 10
350.22920464818
 20
70.96106416712847
 30
0.0
 10
350.2556247029369
 20
70.93752717114266
 30
0.0
 10
350.27847363037
 20
70.91010253573407
 30
0.0
 10
350.2972779584163
 20
70.87934812993296
 30
0.0
 10
350.3088504939097
 20
70.85133229139912
 30
0.0
 10
350.3142699044319
 20
70.83234184417684
 30
0.0
 10
350.3163454931559
 20
70.82345151330156
 30
0.0
 10
350.3172318559132
 20
70.81928926717434
 30
0.0
 10
350.3179278949563
 20
70.81571045925773
 30
0.0
 10
350.3184660907747
 20
70.8127224840139
 30
0.0
 10
350.3190181688377
 20
70.80943228936805
 30
0.0
 10
350.3196083912116
 20
70.8055327080325
 30
0.0
 10
350.3201591049021
 20
70.80131709230396
 30
0.0
 10
350.3205661854291
 20
70.79769013165777
 30
0.0
 10
350.3208635040087
 20
70.79465866657942
 30
0.0
 10
350.3211510514574
 20
70.79131602616891
 30
0.0
 10
350.3213750496224
 20
70.78811859732787
 30
0.0
 10
350.3215434457688
 20
70.78506869559557
 30
0.0
 10
350.3216681134217
 20
70.78232002185325
 30
0.0
 10
350.3217627383165
 20
70.77941575683776
 30
0.0
 10
350.3218204980698
 20
70.77635649084492
 30
0.0
 10
350.3218391322241
 20
70.7737548181526
 30
0.0
 10
350.3218304069711
 20
70.77130568655599
 30
0.0
 10
350.321799855439
 20
70.76900955201504
 30
0.0
 10
350.3217469458463
 20
70.76671376202749
 30
0.0
 10
350.3216716915854
 20
70.76441869111896
 30
0.0
 10
350.3215741060417
 20
70.76212471482857
 30
0.0
 10
350.3214542025922
 20
70.75983220842396
 30
0.0
 10
350.321311994606
 20
70.75754154724557
 30
0.0
 10
350.3211474954441
 20
70.75525310661442
 30
0.0
 10
350.3209607184594
 20
70.75296726185678
 30
0.0
 10
350.320751676997
 20
70.75068438829754
 30
0.0
 10
350.3205203843934
 20
70.74840486126195
 30
0.0
 10
350.3202668539769
 20
70.74612905607539
 30
0.0
 10
350.3199910990709
 20
70.74385734806229
 30
0.0
 10
350.3196931329753
 20
70.74159011255084
 30
0.0
 10
350.3193729690402
 20
70.73932772485531
 30
0.0
 10
350.319030620389
 20
70.73707056034198
 30
0.0
 10
350.3186661009503
 20
70.73481899418348
 30
0.0
 10
350.3182794216112
 20
70.7325734022744
 30
0.0
 10
350.3178704446912
 20
70.73033328217255
 30
0.0
 10
350.3174388108052
 20
70.72809742527447
 30
0.0
 10
350.3169845172872
 20
70.725864922303
 30
0.0
 10
350.3165076378299
 20
70.72363574532896
 30
0.0
 10
350.3160084032584
 20
70.72141057756957
 30
0.0
 10
350.3142678089117
 20
70.7139971953151
 30
0.0
 10
350.3086276888485
 20
70.69401616420632
 30
0.0
 10
350.2967491835648
 20
70.6659883831164
 30
0.0
 10
350.2767838100056
 20
70.63389153242778
 30
0.0
 10
350.254695552909
 20
70.60784178949271
 30
0.0
 10
350.2280202136766
 20
70.58454768548837
 30
0.0
 10
350.2002009348068
 20
70.56568084691474
 30
0.0
 10
350.1789524877438
 20
70.55619840660317
 30
0.0
 10
350.1683217963562
 20
70.55145430006897
 30
0.0
  0
SPLINE
  5
2B2
330
1F
100
AcDbEntity
  8
0
  6
Continuous
 62
     7
370
    15
100
AcDbSpline
210
0.0
220
0.0
230
1.0
 70
     8
 71
     3
 72
    19
 73
    15
 74
     0
 42
0.00000001
 43
0.00000001
 12
1.0
 22
0.0
 32
0.0
 13
1.0
 23
0.0
 33
0.0
 40
0.0
 40
0.0
 40
0.0
 40
0.0
 40
0.0493226044107889
 40
0.0988755111471381
 40
0.1486588493384765
 40
0.1986727463292084
 40
0.2489173277105038
 40
0.3730292495534284
 40
0.4987069714870591
 40
0.6230773508334341
 40
0.749144886859338
 40
0.8319413918402319
 40
0.9155596371505079
 40
1.0
 40
1.0
 40
1.0
 40
1.0
 10
333.3955102457512
 20
77.26381717316958
 30
0.0
 10
333.6780803388031
 20
77.16495631638082
 30
0.0
 10
334.2445399310968
 20
76.96677299122584
 30
0.0
 10
335.0939130505391
 20
76.66701721444502
 30
0.0
 10
335.945478255315
 20
76.36457126706541
 30
0.0
 10
336.7990031195408
 20
76.05930461924703
 30
0.0
 10
338.0723602393003
 20
75.60076429942323
 30
0.0
 10
339.76801293756
 20
74.98284829464768
 30
0.0
 10
341.8691012056804
 20
74.20416250270732
 30
0.0
 10
343.9668645393622
 20
73.41353847836439
 30
0.0
 10
345.8122375499235
 20
72.70638699173465
 30
0.0
 10
347.4215538357561
 20
72.08096144787476
 30
0.0
 10
348.7952112282946
 20
71.5416421373475
 30
0.0
 10
349.7091280256405
 20
71.17775172869058
 30
0.0
 10
350.1683217963563
 20
70.99491647567439
 30
0.0
  0
SPLINE
  5
2B3
330
1F
100
AcDbEntity
  8
0
  6
Continuous
 62
     7
370
    15
100
AcDbSpline
210
0.0
220
0.0
230
1.0
 70
     8
 71
     3
 72
    22
 73
    18
 74
     0
 42
0.00000001
 43
0.00000001
 12
1.0
 22
0.0
 32
0.0
 13
1.0
 23
0.0
 33
0.0
 40
0.0
 40
0.0
 40
0.0
 40
0.0
 40
0.0155580903450377
 40
0.0311421988715246
 40
0.0623727545339226
 40
0.1249681053090144
 40
0.1536000952312429
 40
0.196474246233356
 40
0.2498828298623399
 40
0.3123928798218127
 40
0.3482011017913815
 40
0.3750673204538477
 40
0.499953823243862
 40
0.6251145543189259
 40
0.7500092095371526
 40
0.8750512691286532
 40
1.0
 40
1.0
 40
1.0
 40
1.0
 10
333.2196307537687
 20
77.48554826097232
 30
0.0
 10
333.2196418665874
 20
77.48397146447267
 30
0.0
 10
333.2196641108089
 20
77.48081523455733
 30
0.0
 10
333.2199005291448
 20
77.4744976353463
 30
0.0
 10
333.2206906590743
 20
77.46343541797899
 30
0.0
 10
333.2224456957351
 20
77.45113158412092
 30
0.0
 10
333.2252460878267
 20
77.43784072483226
 30
0.0
 10
333.2284912961229
 20
77.42561022103497
 30
0.0
 10
333.2337041394179
 20
77.41039970598679
 30
0.0
 10
333.2398816805531
 20
77.39634340994495
 30
0.0
 10
333.2457282832934
 20
77.38513397245758
 30
0.0
 10
333.2551696947736
 20
77.36873204136043
 30
0.0
 10
333.2715226289175
 20
77.34596650470131
 30
0.0
 10
333.2980450126628
 20
77.31903165152133
 30
0.0
 10
333.3280398761739
 20
77.29622886408072
 30
0.0
 10
333.3606021976574
 20
77.27737351501054
 30
0.0
 10
333.3838771261189
 20
77.26833482898316
 30
0.0
 10
333.3955102457511
 20
77.26381717316961
 30
0.0
  0
SPLINE
  5
2B4
330
1F
100
AcDbEntity
  8
0
  6
Continuous
 62
     7
370
    15
100
AcDbSpline
210
0.0
220
0.0
230
1.0
 70
     8
 71
     3
 72
    26
 73
    22
 74
     0
 42
0.00000001
 43
0.00000001
 12
1.0
 22
0.0
 32
0.0
 13
1.0
 23
0.0
 33
0.0
 40
0.0
 40
0.0
 40
0.0
 40
0.0
 40
0.1246655110475157
 40
0.2495453154142194
 40
0.3739281685715898
 40
0.4988463173387747
 40
0.6234595715723035
 40
0.7488510656583098
 40
0.8113534593158664
 40
0.8270483403606155
 40
0.8427559698771335
 40
0.8553257986374934
 40
0.8741761522571163
 40
0.8885284017347611
 40
0.9100261005589979
 40
0.9207576456386684
 40
0.936826777302581
 40
0.9510786724731061
 40
0.9728172162526336
 40
0.9836924239013031
 40
1.0
 40
1.0
 40
1.0
 40
1.0
 10
333.504414970199
 20
95.42118538787169
 30
0.0
 10
333.4873993662341
 20
95.42042965385792
 30
0.0
 10
333.4533389093945
 20
95.41891688676422
 30
0.0
 10
333.4034146548635
 20
95.40690742514916
 30
0.0
 10
333.355860609051
 20
95.3875320872049
 30
0.0
 10
333.3121624763358
 20
95.36018792790196
 30
0.0
 10
333.2740605128485
 20
95.32497262909318
 30
0.0
 10
333.248893621193
 20
95.28944372582868
 30
0.0
 10
333.2368576342159
 20
95.26388340430833
 30
0.0
 10
333.2322244014335
 20
95.2517218664637
 30
0.0
 10
333.2302259475518
 20
95.24596208531516
 30
0.0
 10
333.2282529791627
 20
95.23973156962228
 30
0.0
 10
333.2265210311832
 20
95.23362172740124
 30
0.0
 10
333.2246899069588
 20
95.2262556497978
 30
0.0
 10
333.2233539188637
 20
95.21992786883115
 30
0.0
 10
333.2221840106184
 20
95.21332576013776
 30
0.0
 10
333.2213441505893
 20
95.20768707887044
 30
0.0
 10
333.2205072308521
 20
95.20050572398883
 30
0.0
 10
333.2200023375625
 20
95.19401437350952
 30
0.0
 10
333.2196880770914
 20
95.18722625316698
 30
0.0
 10
333.2196522482896
 20
95.18345053055742
 30
0.0
 10
333.2196307537687
 20
95.1811853878717
 30
0.0
  0
LINE
  5
2B5
330
1F
100
AcDbEntity
  8
0
  6
Continuous
 62
     7
370
    15
100
AcDbLine
 10
338.5218610953
 20
95.4211849427
 30
0.0
 11
333.5044147412
 21
95.4211849427
 31
0.0
  0
SPLINE
  5
2B6
330
1F
100
AcDbEntity
  8
0
  6
Continuous
 62
     7
370
    15
100
AcDbSpline
210
0.0
220
0.0
230
1.0
 70
     8
 71
     3
 72
    26
 73
    22
 74
     0
 42
0.00000001
 43
0.00000001
 12
1.0
 22
0.0
 32
0.0
 13
1.0
 23
0.0
 33
0.0
 40
0.0
 40
0.0
 40
0.0
 40
0.0
 40
0.0088994897814476
 40
0.0133536447267545
 40
0.0178105357723139
 40
0.0356618145721844
 40
0.0499668932683894
 40
0.0714513234923387
 40
0.087833295584092
 40
0.1124048763466762
 40
0.1246835259769163
 40
0.1430805034209422
 40
0.1698404673396146
 40
0.1965784175468436
 40
0.2502468532825451
 40
0.3752355508762042
 40
0.5004166599798234
 40
0.6253287124793588
 40
0.7503910493987774
 40
0.8751807452972952
 40
1.0
 40
1.0
 40
1.0
 40
1.0
 10
338.7947705031884
 20
95.1811853878717
 30
0.0
 10
338.7947645270032
 20
95.18239962014272
 30
0.0
 10
338.794755559764
 20
95.18422157025014
 30
0.0
 10
338.7947000036287
 20
95.18665096806835
 30
0.0
 10
338.7945872805755
 20
95.19030047406387
 30
0.0
 10
338.7943222879786
 20
95.19528970721986
 30
0.0
 10
338.793707638676
 20
95.20258159574433
 30
0.0
 10
338.7928670270679
 20
95.20964929312225
 30
0.0
 10
338.7915594863834
 20
95.21806217402798
 30
0.0
 10
338.7901694433979
 20
95.22518584186193
 30
0.0
 10
338.7884734957091
 20
95.23251905714052
 30
0.0
 10
338.7864917687826
 20
95.24008675319902
 30
0.0
 10
338.7836109397734
 20
95.24944161375414
 30
0.0
 10
338.7786087516597
 20
95.2631327846277
 30
0.0
 10
338.7670971174235
 20
95.28857071142463
 30
0.0
 10
338.7442546644175
 20
95.32315599993966
 30
0.0
 10
338.7080884557715
 20
95.35874174510543
 30
0.0
 10
338.6660766584218
 20
95.38667789899426
 30
0.0
 10
338.6200812541296
 20
95.40651771087778
 30
0.0
 10
338.5715561604648
 20
95.41886663790217
 30
0.0
 10
338.5384278741437
 20
95.42041241019815
 30
0.0
 10
338.5218617694499
 20
95.42118538787169
 30
0.0
  0
LINE
  5
2B7
330
1F
100
AcDbEntity
  8
0
  6
Continuous
 62
     7
370
    15
100
AcDbLine
 10
338.7947702746
 20
80.6928055069
 30
0.0
 11
338.7947702746
 21
95.1811849779
 31
0.0
  0
SPLINE
  5
2B8
330
1F
100
AcDbEntity
  8
0
  6
Continuous
 62
     7
370
    15
100
AcDbSpline
210
0.0
220
0.0
230
1.0
 70
     8
 71
     3
 72
    21
 73
    17
 74
     0
 42
0.00000001
 43
0.00000001
 12
1.0
 22
0.0
 32
0.0
 13
1.0
 23
0.0
 33
0.0
 40
0.0
 40
0.0
 40
0.0
 40
0.0
 40
0.1249862430843504
 40
0.2502012042886164
 40
0.4991679358600424
 40
0.5616807013086788
 40
0.5928577629711482
 40
0.6239583241453652
 40
0.6523656864566607
 40
0.695159867698318
 40
0.7488476378878038
 40
0.7816196232832787
 40
0.8307416145430578
 40
0.891937469116799
 40
0.9534930685150541
 40
1.0
 40
1.0
 40
1.0
 40
1.0
 10
338.9629444141228
 20
80.47107463518226
 30
0.0
 10
338.9516567174676
 20
80.47567330742979
 30
0.0
 10
338.929060668278
 20
80.48487906724837
 30
0.0
 10
338.8872499435508
 20
80.51031054538008
 30
0.0
 10
338.8551461983193
 20
80.53983233828066
 30
0.0
 10
338.8350130704285
 20
80.56709537334838
 30
0.0
 10
338.8282618956795
 20
80.57744588152958
 30
0.0
 10
338.8236568633223
 20
80.5851667918017
 30
0.0
 10
338.8188053048892
 20
80.59408373515865
 30
0.0
 10
338.8134070317909
 20
80.6052593416458
 30
0.0
 10
338.8085639514014
 20
80.61718176012045
 30
0.0
 10
338.8042097725426
 20
80.6299643800418
 30
0.0
 10
338.8003507686665
 20
80.6437063331051
 30
0.0
 10
338.7969916792274
 20
80.66054088518443
 30
0.0
 10
338.79507159558
 20
80.67736430823571
 30
0.0
 10
338.7948610960068
 20
80.68815970295763
 30
0.0
 10
338.7947705031885
 20
80.69280572298494
 30
0.0
  0
SPLINE
  5
2B9
330
1F
100
AcDbEntity
  8
0
  6
Continuous
 62
     7
370
    15
100
AcDbSpline
210
0.0
220
0.0
230
1.0
 70
     8
 71
     3
 72
    19
 73
    15
 74
     0
 42
0.00000001
 43
0.00000001
 12
1.0
 22
0.0
 32
0.0
 13
1.0
 23
0.0
 33
0.0
 40
0.0
 40
0.0
 40
0.0
 40
0.0
 40
0.050974594219134
 40
0.1015474888649262
 40
0.151718758236422
 40
0.2014884784329493
 40
0.2508567274123263
 40
0.3772212607370315
 40
0.5013480331852866
 40
0.6272644480192835
 40
0.7511636454046073
 40
0.8349212792319414
 40
0.9178665182985187
 40
0.9999999999999999
 40
0.9999999999999999
 40
0.9999999999999999
 40
0.9999999999999999
 10
357.8159931622927
 20
73.03855568690119
 30
0.0
 10
357.507814145285
 20
73.1693078580417
 30
0.0
 10
356.8938846814532
 20
73.42978182250089
 30
0.0
 10
355.9713281668456
 20
73.81742022111031
 30
0.0
 10
355.0523620095688
 20
74.20084440666767
 30
0.0
 10
354.1367581982265
 20
74.5799479971358
 30
0.0
 10
352.7481853976976
 20
75.15062723040927
 30
0.0
 10
350.8882938084782
 20
75.9049371579974
 30
0.0
 10
348.5307134142323
 20
76.843181074907
 30
0.0
 10
346.1667963528218
 20
77.76623471403019
 30
0.0
 10
344.0396769342512
 20
78.58122131247052
 30
0.0
 10
342.1737349703875
 20
79.28465587993581
 30
0.0
 10
340.5680981384298
 20
79.88276851251209
 30
0.0
 10
339.4962387366783
 20
80.27561652397856
 30
0.0
 10
338.9629444141228
 20
80.47107463518226
 30
0.0
  0
SPLINE
  5
2BA
330
1F
100
AcDbEntity
  8
0
  6
Continuous
 62
     7
370
    15
100
AcDbSpline
210
0.0
220
0.0
230
1.0
 70
     8
 71
     3
 72
    22
 73
    18
 74
     0
 42
0.00000001
 43
0.00000001
 12
1.0
 22
0.0
 32
0.0
 13
1.0
 23
0.0
 33
0.0
 40
0.0
 40
0.0
 40
0.0
 40
0.0
 40
0.015552287582163
 40
0.0311271361215747
 40
0.0623321824091787
 40
0.1248766438992882
 40
0.1963765436356888
 40
0.2498534631938494
 40
0.3210498101314465
 40
0.3746543597241201
 40
0.4372579802885136
 40
0.4730021030697408
 40
0.4997665102919606
 40
0.6244400923826035
 40
0.7495137647452311
 40
0.8745541761316507
 40
1.0
 40
1.0
 40
1.0
 40
1.0
 10
357.9602295583072
 20
72.81682459909851
 30
0.0
 10
357.9602213674758
 20
72.8183252659824
 30
0.0
 10
357.9602049739308
 20
72.8213287766956
 30
0.0
 10
357.9600303368147
 20
72.82734073609483
 30
0.0
 10
357.9594451132432
 20
72.83787227553275
 30
0.0
 10
357.9576820725401
 20
72.85371703373987
 30
0.0
 10
357.9543082202837
 20
72.8714539843537
 30
0.0
 10
357.9494598969849
 20
72.88963228232012
 30
0.0
 10
357.9438462921315
 20
72.90572061787427
 30
0.0
 10
357.9367654581504
 20
72.92205929886221
 30
0.0
 10
357.9301803548833
 20
72.93483272452985
 30
0.0
 10
357.9242027207551
 20
72.94496957297595
 30
0.0
 10
357.9147462443419
 20
72.95975009596201
 30
0.0
 10
357.8989178453145
 20
72.98015675776071
 30
0.0
 10
357.8740426768514
 20
73.00400998817807
 30
0.0
 10
357.8463679596214
 20
73.02410265827045
 30
0.0
 10
357.8261290136607
 20
73.03373281521485
 30
0.0
 10
357.8159931622927
 20
73.03855568690136
 30
0.0
  0
LINE
  5
2BB
330
1F
100
AcDbEntity
  8
0
  6
Continuous
 62
     7
370
    15
100
AcDbLine
 10
331.736647148
 20
47.4211845255
 30
0.0
 11
333.5044147412
 21
47.4211845255
 31
0.0
  0
LINE
  5
2BC
330
1F
100
AcDbEntity
  8
0
  6
Continuous
 62
     7
370
    15
100
AcDbLine
 10
331.736647148
 20
95.4211849427
 30
0.0
 11
333.5044147412
 21
95.4211849427
 31
0.0
  0
SPLINE
  5
2BD
330
1F
100
AcDbEntity
  8
0
  6
Continuous
 62
     7
370
    15
100
AcDbSpline
210
0.0
220
0.0
230
1.0
 70
     8
 71
     3
 72
    13
 73
     9
 74
     0
 42
0.00000001
 43
0.00000001
 12
1.0
 22
0.0
 32
0.0
 13
1.0
 23
0.0
 33
0.0
 40
0.0
 40
0.0
 40
0.0
 40
0.0
 40
0.1234128814258189
 40
0.2477354045564924
 40
0.3729678846834478
 40
0.499110630273184
 40
0.7475756570145782
 40
1.0
 40
1.0
 40
1.0
 40
1.0
 10
351.1015554389492
 20
83.33762604738816
 30
0.0
 10
351.3836766809459
 20
83.51260593988623
 30
0.0
 10
351.9499986014179
 20
83.8638554525501
 30
0.0
 10
352.7981761742508
 20
84.39452650380142
 30
0.0
 10
353.6492554807684
 20
84.93041406840933
 30
0.0
 10
354.7764873839473
 20
85.6453533423928
 30
0.0
 10
356.1823562290555
 20
86.54538433996272
 30
0.0
 10
357.2926170747397
 20
87.26880527005954
 30
0.0
 10
357.8521355661525
 20
87.63337490163546
 30
0.0
  0
SPLINE
  5
2BE
330
1F
100
AcDbEntity
  8
0
  6
Continuous
 62
     7
370
    15
100
AcDbSpline
210
0.0
220
0.0
230
1.0
 70
     8
 71
     3
 72
    58
 73
    54
 74
     0
 42
0.00000001
 43
0.00000001
 12
1.0
 22
0.0
 32
0.0
 13
1.0
 23
0.0
 33
0.0
 40
0.0
 40
0.0
 40
0.0
 40
0.0
 40
0.0624060629841091
 40
0.1249529486710343
 40
0.2493897491801335
 40
0.2993603024625693
 40
0.3740275601622167
 40
0.4053245022537755
 40
0.4209795505683349
 40
0.4288035089439649
 40
0.4366230832016088
 40
0.4423390627203365
 40
0.4509061923147126
 40
0.4594638142713099
 40
0.4722788637955817
 40
0.4829371348016845
 40
0.4893441108418631
 40
0.494154487237362
 40
0.4989689218629392
 40
0.506777840900527
 40
0.5145952688893032
 40
0.5224198251921082
 40
0.5263343806427855
 40
0.5302501854285383
 40
0.5427866008349472
 40
0.546548894916801
 40
0.5503114692642119
 40
0.5615989178240703
 40
0.5673313384643419
 40
0.5716297461429672
 40
0.5759270917613774
 40
0.5812968970211904
 40
0.5866641934603662
 40
0.5920285152625813
 40
0.594709431208948
 40
0.5973894314376116
 40
0.6080988572978739
 40
0.6145156955153392
 40
0.6193233928091104
 40
0.6241280482691214
 40
0.6280260899319604
 40
0.6319266954553698
 40
0.6358297392984075
 40
0.6397350914205044
 40
0.643642617481006
 40
0.6475521790364034
 40
0.6553767472288293
 40
0.6867194607371799
 40
0.7493276145702497
 40
0.8118135905425811
 40
0.874478624770694
 40
0.937143355875868
 40
1.0
 40
1.0
 40
1.0
 40
1.0
 10
351.1397405303188
 20
82.91348101259037
 30
0.0
 10
351.1300266496155
 20
82.9178232438057
 30
0.0
 10
351.1105769683045
 20
82.92651750471914
 30
0.0
 10
351.0746423996032
 20
82.950056275232
 30
0.0
 10
351.0446578228425
 20
82.97908578088402
 30
0.0
 10
351.0195241938505
 20
83.01506611565435
 30
0.0
 10
351.0069101827225
 20
83.03988187899053
 30
0.0
 10
350.9994816589323
 20
83.06029534358863
 30
0.0
 10
350.9966148763673
 20
83.06966743724918
 30
0.0
 10
350.9951181982424
 20
83.07506830379735
 30
0.0
 10
350.9941615067722
 20
83.07877389173399
 30
0.0
 10
350.9932302450721
 20
83.08262496695643
 30
0.0
 10
350.9923324348539
 20
83.08662201058351
 30
0.0
 10
350.9912585303034
 20
83.0918864104167
 30
0.0
 10
350.9902490361104
 20
83.09754954799375
 30
0.0
 10
350.9894537034677
 20
83.10285945699225
 30
0.0
 10
350.9889508175773
 20
83.1067591663017
 30
0.0
 10
350.9886202089162
 20
83.10962234043839
 30
0.0
 10
350.988295973262
 20
83.11274029354576
 30
0.0
 10
350.9879698543539
 20
83.11640215746728
 30
0.0
 10
350.9876720599785
 20
83.12061018477188
 30
0.0
 10
350.9874871462453
 20
83.12412388935606
 30
0.0
 10
350.9873770781452
 20
83.1269384288661
 30
0.0
 10
350.9872667597231
 20
83.13060136451558
 30
0.0
 10
350.9872257100621
 20
83.13423923282441
 30
0.0
 10
350.9872520153506
 20
83.13784897927992
 30
0.0
 10
350.9873056879286
 20
83.14123361789044
 30
0.0
 10
350.9874290326907
 20
83.14497147178476
 30
0.0
 10
350.9876297909362
 20
83.14880159330099
 30
0.0
 10
350.9877941388855
 20
83.1513738843788
 30
0.0
 10
350.9879789079606
 20
83.15387914398572
 30
0.0
 10
350.9882075998203
 20
83.15657349411798
 30
0.0
 10
350.9884879848263
 20
83.15945537394492
 30
0.0
 10
350.9887511173623
 20
83.16185250949958
 30
0.0
 10
350.9889792865889
 20
83.16376700002046
 30
0.0
 10
350.9893389158628
 20
83.16663312277647
 30
0.0
 10
350.9898368709683
 20
83.17015773951589
 30
0.0
 10
350.9904661807998
 20
83.17404711821739
 30
0.0
 10
350.990963509244
 20
83.17688222826236
 30
0.0
 10
350.9914098401489
 20
83.17926622827866
 30
0.0
 10
350.9918490311158
 20
83.18148513566182
 30
0.0
 10
350.9922755935607
 20
83.18354097017833
 30
0.0
 10
350.9927211091526
 20
83.18559357014058
 30
0.0
 10
350.9931854538657
 20
83.18764269178942
 30
0.0
 10
350.9936685086064
 20
83.18968809026026
 30
0.0
 10
350.9943375226402
 20
83.19241062073802
 30
0.0
 10
350.9962803569209
 20
83.19987980957866
 30
0.0
 10
351.0016524248041
 20
83.21728903807218
 30
0.0
 10
351.0126531269518
 20
83.24299381451559
 30
0.0
 10
351.0299665088702
 20
83.27142277284005
 30
0.0
 10
351.0508301855204
 20
83.29695540237272
 30
0.0
 10
351.0746530581947
 20
83.31953812612284
 30
0.0
 10
351.0925788429589
 20
83.33159059784992
 30
0.0
 10
351.1015554389492
 20
83.33762604738816
 30
0.0
  0
SPLINE
  5
2BF
330
1F
100
AcDbEntity
  8
0
  6
Continuous
 62
     7
370
    15
100
AcDbSpline
210
0.0
220
0.0
230
1.0
 70
     8
 71
     3
 72
    13
 73
     9
 74
     0
 42
0.00000001
 43
0.00000001
 12
1.0
 22
0.0
 32
0.0
 13
1.0
 23
0.0
 33
0.0
 40
0.0
 40
0.0
 40
0.0
 40
0.0
 40
0.126492028962731
 40
0.2520624933633432
 40
0.3767115418379273
 40
0.5004393263458221
 40
0.7519002089236658
 40
1.0
 40
1.0
 40
1.0
 40
1.0
 10
357.8159931622927
 20
80.15119048498491
 30
0.0
 10
357.5385702684011
 20
80.26891995707808
 30
0.0
 10
356.9857456602118
 20
80.50352117678734
 30
0.0
 10
356.1552268610683
 20
80.85289864608828
 30
0.0
 10
355.3277761881452
 20
81.19880215072071
 30
0.0
 10
354.217272795665
 20
81.65975393450539
 30
0.0
 10
352.8252281407239
 20
82.23225655628379
 30
0.0
 10
351.6990440427147
 20
82.68742700377409
 30
0.0
 10
351.1397405303189
 20
82.91348101259031
 30
0.0
  0
SPLINE
  5
2C0
330
1F
100
AcDbEntity
  8
0
  6
Continuous
 62
     7
370
    15
100
AcDbSpline
210
0.0
220
0.0
230
1.0
 70
     8
 71
     3
 72
    22
 73
    18
 74
     0
 42
0.00000001
 43
0.00000001
 12
1.0
 22
0.0
 32
0.0
 13
1.0
 23
0.0
 33
0.0
 40
0.0
 40
0.0
 40
0.0
 40
0.0
 40
0.0155522875820685
 40
0.0311271361214786
 40
0.0623321824091818
 40
0.1248766438991903
 40
0.1963765436355976
 40
0.2498534631937357
 40
0.3210498101313576
 40
0.3746543597241195
 40
0.4372579802884933
 40
0.4730021030697226
 40
0.4997665102919546
 40
0.6244400923825422
 40
0.7495137647452369
 40
0.874554176131626
 40
1.0
 40
1.0
 40
1.0
 40
1.0
 10
357.9602295583072
 20
79.92945939718226
 30
0.0
 10
357.9602213674758
 20
79.93096006406614
 30
0.0
 10
357.9602049739308
 20
79.93396357477933
 30
0.0
 10
357.9600303368147
 20
79.93997553417856
 30
0.0
 10
357.9594451132432
 20
79.95050707361646
 30
0.0
 10
357.9576820725401
 20
79.9663518318236
 30
0.0
 10
357.9543082202837
 20
79.98408878243742
 30
0.0
 10
357.9494598969849
 20
80.00226708040384
 30
0.0
 10
357.9438462921314
 20
80.018355415958
 30
0.0
 10
357.9367654581504
 20
80.03469409694596
 30
0.0
 10
357.9301803548834
 20
80.0474675226136
 30
0.0
 10
357.9242027207551
 20
80.0576043710597
 30
0.0
 10
357.9147462443419
 20
80.07238489404575
 30
0.0
 10
357.8989178453145
 20
80.09279155584441
 30
0.0
 10
357.8740426768514
 20
80.11664478626182
 30
0.0
 10
357.8463679596213
 20
80.13673745635415
 30
0.0
 10
357.8261290136607
 20
80.14636761329858
 30
0.0
 10
357.8159931622927
 20
80.15119048498511
 30
0.0
  0
LINE
  5
2C1
330
1F
100
AcDbEntity
  8
0
  6
Continuous
 62
     7
370
    15
100
AcDbLine
 10
357.9602284323
 20
75.2535249746
 30
0.0
 11
357.9602284323
 21
79.9294590658
 31
0.0
  0
SPLINE
  5
2C2
330
1F
100
AcDbEntity
  8
0
  6
Continuous
 62
     7
370
    15
100
AcDbSpline
210
0.0
220
0.0
230
1.0
 70
     8
 71
     3
 72
    31
 73
    27
 74
     0
 42
0.00000001
 43
0.00000001
 12
1.0
 22
0.0
 32
0.0
 13
1.0
 23
0.0
 33
0.0
 40
0.0
 40
0.0
 40
0.0
 40
0.0
 40
0.0622605175877418
 40
0.1250256861668156
 40
0.24966649985108
 40
0.3122826578492632
 40
0.374696337650996
 40
0.43708528862637
 40
0.4996807631570162
 40
0.6242106665140301
 40
0.686812218912982
 40
0.7491467769178183
 40
0.811641739122148
 40
0.8429889886052174
 40
0.8586543464627563
 40
0.8743015050856552
 40
0.8906230721467835
 40
0.9003991221607693
 40
0.9150765221685916
 40
0.9274204469390943
 40
0.9459534808127654
 40
0.9583146550766733
 40
0.9768525192158011
 40
0.9814851763846886
 40
0.986116528370858
 40
1.0
 40
1.0
 40
1.0
 40
1.0
 10
357.6369243118721
 20
75.0317940041164
 30
0.0
 10
357.6456927411261
 20
75.0284390541681
 30
0.0
 10
357.6633006719073
 20
75.02170196081276
 30
0.0
 10
357.6998956121379
 20
75.01384386139165
 30
0.0
 10
357.7374534288658
 20
75.01245501055776
 30
0.0
 10
357.7743473145003
 20
75.01804579867468
 30
0.0
 10
357.8014619951165
 20
75.02556179295048
 30
0.0
 10
357.8275909353275
 20
75.03649774832475
 30
0.0
 10
357.8606243949053
 20
75.05527440998816
 30
0.0
 10
357.8904299795509
 20
75.08043964599888
 30
0.0
 10
357.9152172556077
 20
75.11088801138266
 30
0.0
 10
357.9311187013873
 20
75.13615010831788
 30
0.0
 10
357.9416978627563
 20
75.1589565005273
 30
0.0
 10
357.9476498713727
 20
75.1756213315912
 30
0.0
 10
357.950620595023
 20
75.18532590559113
 30
0.0
 10
357.9526544509947
 20
75.19278166247234
 30
0.0
 10
357.9542313507195
 20
75.19937932316532
 30
0.0
 10
357.9556036904721
 20
75.20586815541394
 30
0.0
 10
357.9566969129927
 20
75.21175961424727
 30
0.0
 10
357.9578523532181
 20
75.21909326587256
 30
0.0
 10
357.9587362404188
 20
75.22609198162023
 30
0.0
 10
357.9595019558163
 20
75.23412410527219
 30
0.0
 10
357.9598768251786
 20
75.23991600668883
 30
0.0
 10
357.9600647282159
 20
75.24445308234733
 30
0.0
 10
357.9601899163929
 20
75.24823217020639
 30
0.0
 10
357.9602125707655
 20
75.25125694392305
 30
0.0
 10
357.9602295583074
 20
75.25352509191909
 30
0.0
  0
SPLINE
  5
2C3
330
1F
100
AcDbEntity
  8
0
  6
Continuous
 62
     7
370
    15
100
AcDbSpline
210
0.0
220
0.0
230
1.0
 70
     8
 71
     3
 72
    19
 73
    15
 74
     0
 42
0.00000001
 43
0.00000001
 12
1.0
 22
0.0
 32
0.0
 13
1.0
 23
0.0
 33
0.0
 40
0.0
 40
0.0
 40
0.0
 40
0.0
 40
0.0492621496926021
 40
0.0987927378008131
 40
0.1485918679629675
 40
0.1986596421494507
 40
0.2489961606976829
 40
0.3729881880230941
 40
0.4988219601913781
 40
0.6230194515649697
 40
0.7492384450358622
 40
0.8318316631453625
 40
0.9154187561310513
 40
1.0
 40
1.0
 40
1.0
 40
1.0
 10
340.9561506983558
 20
81.65456447356327
 30
0.0
 10
341.2385143278974
 20
81.5495959227398
 30
0.0
 10
341.8047802377664
 20
81.33908682836324
 30
0.0
 10
342.6535539774317
 20
81.02083407779853
 30
0.0
 10
343.5046966447728
 20
80.69967529723469
 30
0.0
 10
344.3579165243497
 20
80.37549110649447
 30
0.0
 10
345.6288145330793
 20
79.88931590855773
 30
0.0
 10
347.3199000441795
 20
79.23469197014553
 30
0.0
 10
349.4104042186752
 20
78.41169933310404
 30
0.0
 10
351.4957915664448
 20
77.5767784081299
 30
0.0
 10
353.3254356343759
 20
76.83190616146085
 30
0.0
 10
354.9194352007943
 20
76.17369527868095
 30
0.0
 10
356.2785090104642
 20
75.60667534955111
 30
0.0
 10
357.1823381734708
 20
75.22417485450084
 30
0.0
 10
357.6369243118722
 20
75.03179400411638
 30
0.0
  0
SPLINE
  5
2C4
330
1F
100
AcDbEntity
  8
0
  6
Continuous
 62
     7
370
    15
100
AcDbSpline
210
0.0
220
0.0
230
1.0
 70
     8
 71
     3
 72
    22
 73
    18
 74
     0
 42
0.00000001
 43
0.00000001
 12
1.0
 22
0.0
 32
0.0
 13
1.0
 23
0.0
 33
0.0
 40
0.0
 40
0.0
 40
0.0
 40
0.0
 40
0.0155537540913564
 40
0.0311321658520077
 40
0.0623486090387415
 40
0.124916368530143
 40
0.1963995530355542
 40
0.2498045656175702
 40
0.3211568450850183
 40
0.374834885810683
 40
0.4106293173392842
 40
0.4374492192071455
 40
0.4998330455216969
 40
0.6248236846520542
 40
0.7497950494490203
 40
0.8748900328650333
 40
1.0
 40
1.0
 40
1.0
 40
1.0
 10
340.7906382276935
 20
81.876295561366
 30
0.0
 10
340.790648278053
 20
81.87474799136425
 30
0.0
 10
340.790668394705
 20
81.87165039796781
 30
0.0
 10
340.7908823841794
 20
81.86545016237129
 30
0.0
 10
340.7915983195377
 20
81.85459113971913
 30
0.0
 10
340.7937486623013
 20
81.83827635046481
 30
0.0
 10
340.7978407604977
 20
81.82007874571147
 30
0.0
 10
340.8037128946477
 20
81.80150544447716
 30
0.0
 10
340.8104732059339
 20
81.78515383356103
 30
0.0
 10
340.8177133004982
 20
81.77100018503646
 30
0.0
 10
340.8235068615265
 20
81.76109847944412
 30
0.0
 10
340.8301367751056
 20
81.75072182098559
 30
0.0
 10
340.8424660543212
 20
81.73362494656574
 30
0.0
 10
340.863184413345
 20
81.71094239677355
 30
0.0
 10
340.8915407452861
 20
81.68773347276577
 30
0.0
 10
340.9226023570509
 20
81.6684398467755
 30
0.0
 10
340.9449674714697
 20
81.65918978261591
 30
0.0
 10
340.9561506983553
 20
81.65456447356246
 30
0.0
  0
LINE
  5
2C5
330
1F
100
AcDbEntity
  8
0
  6
Continuous
 62
     7
370
    15
100
AcDbLine
 10
340.7906373928
 20
81.8762957758
 30
0.0
 11
340.7906373928
 21
86.552229867
 31
0.0
  0
SPLINE
  5
2C6
330
1F
100
AcDbEntity
  8
0
  6
Continuous
 62
     7
370
    15
100
AcDbSpline
210
0.0
220
0.0
230
1.0
 70
     8
 71
     3
 72
    36
 73
    32
 74
     0
 42
0.00000001
 43
0.00000001
 12
1.0
 22
0.0
 32
0.0
 13
1.0
 23
0.0
 33
0.0
 40
0.0
 40
0.0
 40
0.0
 40
0.0
 40
0.061941097223823
 40
0.124691905088491
 40
0.2492197764296796
 40
0.3117496084190852
 40
0.3744319775765929
 40
0.4990956233631477
 40
0.5617279287659287
 40
0.6242222258811109
 40
0.748881439747338
 40
0.7989617019955257
 40
0.8739442203773676
 40
0.8818155018683893
 40
0.8896904226991884
 40
0.8959920068173481
 40
0.905445186791904
 40
0.9180470192677518
 40
0.9256049140826491
 40
0.9312707922426481
 40
0.9369339088148073
 40
0.9447938064050704
 40
0.952646201187222
 40
0.9604899085096275
 40
0.9683238115343658
 40
0.9761987000187408
 40
0.980165494786896
 40
0.9841325842821864
 40
0.9904800219314944
 40
0.9952403224496034
 40
1.0
 40
1.0
 40
1.0
 40
1.0
 10
341.1610542890508
 20
86.77396095443187
 30
0.0
 10
341.1512880558082
 20
86.77723810566326
 30
0.0
 10
341.1316279225018
 20
86.78383524792618
 30
0.0
 10
341.090955948873
 20
86.7916045301809
 30
0.0
 10
341.0493167218005
 20
86.79337365057452
 30
0.0
 10
341.0081586442648
 20
86.78845028559252
 30
0.0
 10
340.9676694014439
 20
86.77930499161124
 30
0.0
 10
340.9287135468266
 20
86.7636378200099
 30
0.0
 10
340.8931200728454
 20
86.74163087527647
 30
0.0
 10
340.8601624766503
 20
86.71560598316856
 30
0.0
 10
340.8335846897269
 20
86.68487780083683
 30
0.0
 10
340.81217654503
 20
86.64818094987868
 30
0.0
 10
340.8035662257113
 20
86.6270335706817
 30
0.0
 10
340.7991474095647
 20
86.6121656465047
 30
0.0
 10
340.7981384075955
 20
86.60853212869702
 30
0.0
 10
340.7971207245208
 20
86.60461983689673
 30
0.0
 10
340.7959846001089
 20
86.59990182207633
 30
0.0
 10
340.7949238380415
 20
86.59494375712856
 30
0.0
 10
340.7941004104712
 20
86.59059838392795
 30
0.0
 10
340.793547429152
 20
86.58741100720314
 30
0.0
 10
340.7930287566768
 20
86.5841649766129
 30
0.0
 10
340.7925087953087
 20
86.58053955848133
 30
0.0
 10
340.7920106517583
 20
86.57653358275377
 30
0.0
 10
340.7915886749665
 20
86.57252273012334
 30
0.0
 10
340.7912427204548
 20
86.56850022359627
 30
0.0
 10
340.7910188762545
 20
86.56513450878789
 30
0.0
 10
340.7908773607391
 20
86.5624279758941
 30
0.0
 10
340.790772617261
 20
86.55998176432544
 30
0.0
 10
340.790694570333
 20
86.5573983067387
 30
0.0
 10
340.7906463093196
 20
86.55467816585363
 30
0.0
 10
340.7906409214514
 20
86.55304593076728
 30
0.0
 10
340.7906382276935
 20
86.55222986662915
 30
0.0
  0
SPLINE
  5
2C7
330
1F
100
AcDbEntity
  8
0
  6
Continuous
 62
     7
370
    15
100
AcDbSpline
210
0.0
220
0.0
230
1.0
 70
     8
 71
     3
 72
    13
 73
     9
 74
     0
 42
0.00000001
 43
0.00000001
 12
1.0
 22
0.0
 32
0.0
 13
1.0
 23
0.0
 33
0.0
 40
0.0
 40
0.0
 40
0.0
 40
0.0
 40
0.1691437100151299
 40
0.3372960926749627
 40
0.5044575253782313
 40
0.6706283922772156
 40
0.835809084437108
 40
0.9999999999999999
 40
0.9999999999999999
 40
0.9999999999999999
 40
0.9999999999999999
 10
346.6760571738902
 20
84.67857583606424
 30
0.0
 10
346.3678160526723
 20
84.79803672015596
 30
0.0
 10
345.7531403678404
 20
85.03625834499817
 30
0.0
 10
344.8299028331057
 20
85.3907194363198
 30
0.0
 10
343.9093567053075
 20
85.74175164640329
 30
0.0
 10
342.9912611104906
 20
86.08918936635786
 30
0.0
 10
342.0760433455322
 20
86.4332048881382
 30
0.0
 10
341.4654390099846
 20
86.6606033799225
 30
0.0
 10
341.1610542890508
 20
86.77396095443184
 30
0.0
  0
SPLINE
  5
2C8
330
1F
100
AcDbEntity
  8
0
  6
Continuous
 62
     7
370
    15
100
AcDbSpline
210
0.0
220
0.0
230
1.0
 70
     8
 71
     3
 72
    71
 73
    67
 74
     0
 42
0.00000001
 43
0.00000001
 12
1.0
 22
0.0
 32
0.0
 13
1.0
 23
0.0
 33
0.0
 40
0.0
 40
0.0
 40
0.0
 40
0.0
 40
0.0077878083647568
 40
0.0155857146874214
 40
0.0194881951641736
 40
0.0233928330561088
 40
0.0312079819261287
 40
0.043726147420183
 40
0.0512439552668517
 40
0.0568848912920426
 40
0.0625275175392643
 40
0.0664467762878583
 40
0.0703664771938573
 40
0.0742864648830163
 40
0.0782065827523323
 40
0.082126673114221
 40
0.0860465773399239
 40
0.0899661360029112
 40
0.093885189021499
 40
0.0958444804249534
 40
0.0978035851612375
 40
0.0997624830998412
 40
0.1017211540961093
 40
0.103679577995568
 40
0.1056377346385104
 40
0.1075956038643532
 40
0.1095531655161311
 40
0.1115103994450331
 40
0.1134672855148232
 40
0.1154238036062339
 40
0.1173799336215212
 40
0.1193356554890192
 40
0.1212909491675141
 40
0.1232457946507799
 40
0.125200171972176
 40
0.1271540612090283
 40
0.1291074424872126
 40
0.1310602959857775
 40
0.1330126019413126
 40
0.1349643406528274
 40
0.1369154924859196
 40
0.138866037877637
 40
0.1408159573411115
 40
0.1427652314699007
 40
0.1447138409429996
 40
0.1466617665290546
 40
0.148608989091542
 40
0.1505554895930133
 40
0.1515284637521344
 40
0.1525022548006112
 40
0.1534766110658573
 40
0.1544511077676984
 40
0.1554257436376866
 40
0.1564005173912523
 40
0.1642034140779832
 40
0.1720143470428364
 40
0.1876566445478867
 40
0.2503275133611824
 40
0.3751664739097984
 40
0.5000455619254447
 40
0.5626695282746588
 40
0.6252276929678924
 40
0.7500110897615758
 40
0.8747863411608587
 40
0.9375679129542132
 40
1.0
 40
1.0
 40
1.0
 40
1.0
 10
347.0292649796829
 20
84.89074128272391
 30
0.0
 10
347.0292039991389
 20
84.88945783554433
 30
0.0
 10
347.0290819589816
 20
84.88688927702052
 30
0.0
 10
347.0288576974861
 20
84.88368203458035
 30
0.0
 10
347.0286480066522
 20
84.8811166222158
 30
0.0
 10
347.0284153389877
 20
84.87855051850372
 30
0.0
 10
347.0280032075643
 20
84.8745745823139
 30
0.0
 10
347.0274280910022
 20
84.87001839642646
 30
0.0
 10
347.0268071350174
 20
84.86583218661964
 30
0.0
 10
347.0263091383157
 20
84.8627744444349
 30
0.0
 10
347.0258765983029
 20
84.86030754288792
 30
0.0
 10
347.0254707146326
 20
84.85812444545101
 30
0.0
 10
347.0251007918239
 20
84.85622364988865
 30
0.0
 10
347.0247149923317
 20
84.8543262125781
 30
0.0
 10
347.0243133804426
 20
84.85243235037306
 30
0.0
 10
347.0238960206518
 20
84.85054228129462
 30
0.0
 10
347.0234629773207
 20
84.84865622275393
 30
0.0
 10
347.0230143151189
 20
84.84677439343564
 30
0.0
 10
347.0226274512203
 20
84.84520984062125
 30
0.0
 10
347.0223102101763
 20
84.84396051566783
 30
0.0
 10
347.0220684240173
 20
84.84302475158587
 30
0.0
 10
347.0218227813401
 20
84.84209020812978
 30
0.0
 10
347.0215732901378
 20
84.84115691228432
 30
0.0
 10
347.0213199584799
 20
84.84022489133228
 30
0.0
 10
347.0210627944153
 20
84.83929417247666
 30
0.0
 10
347.0208018059987
 20
84.8383647829418
 30
0.0
 10
347.0205370012825
 20
84.83743674994635
 30
0.0
 10
347.0202683883201
 20
84.83651010071048
 30
0.0
 10
347.0199959751639
 20
84.83558486245398
 30
0.0
 10
347.0197197698668
 20
84.83466106239669
 30
0.0
 10
347.0194397804814
 20
84.83373872775852
 30
0.0
 10
347.0191560150599
 20
84.83281788575928
 30
0.0
 10
347.018868481655
 20
84.83189856361885
 30
0.0
 10
347.0185771883186
 20
84.83098078855716
 30
0.0
 10
347.0182821431028
 20
84.83006458779398
 30
0.0
 10
347.0179833540597
 20
84.82914998854929
 30
0.0
 10
347.017680829241
 20
84.82823701804291
 30
0.0
 10
347.0173745766985
 20
84.82732570349475
 30
0.0
 10
347.0170646044838
 20
84.82641607212472
 30
0.0
 10
347.0167509206483
 20
84.82550815115263
 30
0.0
 10
347.0164335332434
 20
84.82460196779849
 30
0.0
 10
347.0161124503205
 20
84.82369754928199
 30
0.0
 10
347.0157876799304
 20
84.82279492282368
 30
0.0
 10
347.0154592301243
 20
84.82189411564106
 30
0.0
 10
347.0151271089545
 20
84.82099515496301
 30
0.0
 10
347.0147913244651
 20
84.82009806797602
 30
0.0
 10
347.0144518847314
 20
84.81920288202463
 30
0.0
 10
347.0141659517539
 20
84.81845842959116
 30
0.0
 10
347.0139353250008
 20
84.81786369052804
 30
0.0
 10
347.0137613422635
 20
84.81741786383215
 30
0.0
 10
347.0135863357287
 20
84.81697220971807
 30
0.0
 10
347.013410345373
 20
84.81652683434231
 30
0.0
 10
347.013233398926
 20
84.81608180426082
 30
0.0
 10
347.0126401198904
 20
84.81459883626408
 30
0.0
 10
347.0116072514553
 20
84.81208680293487
 30
0.0
 10
347.0095833197934
 20
84.8073900030142
 30
0.0
 10
347.0036889792422
 20
84.79460371863856
 30
0.0
 10
346.9873927933914
 20
84.76569390382721
 30
0.0
 10
346.954295259976
 20
84.72692291409322
 30
0.0
 10
346.9134555807572
 20
84.69763233529126
 30
0.0
 10
346.8777638423693
 20
84.68039943899939
 30
0.0
 10
346.8405440684388
 20
84.66726849025125
 30
0.0
 10
346.7918771655014
 20
84.65877039012362
 30
0.0
 10
346.7426059190836
 20
84.66095490784984
 30
0.0
 10
346.7040029589807
 20
84.66875147086064
 30
0.0
 10
346.6853550861828
 20
84.67530714686127
 30
0.0
 10
346.6760571738901
 20
84.67857583606427
 30
0.0
  0
SPLINE
  5
2C9
330
1F
100
AcDbEntity
  8
0
  6
Continuous
 62
     7
370
    15
100
AcDbSpline
210
0.0
220
0.0
230
1.0
 70
     8
 71
     3
 72
    29
 73
    25
 74
     0
 42
0.00000001
 43
0.00000001
 12
1.0
 22
0.0
 32
0.0
 13
1.0
 23
0.0
 33
0.0
 40
0.0
 40
0.0
 40
0.0
 40
0.0
 40
0.0210094922431438
 40
0.0419705704938931
 40
0.0628991447364428
 40
0.094275859601199
 40
0.1255454382403208
 40
0.1879482572275242
 40
0.2501660999415891
 40
0.3122762227441443
 40
0.3743973993587522
 40
0.4366981958893846
 40
0.4994040346158617
 40
0.5621527573364665
 40
0.6245302193524749
 40
0.6867727336646745
 40
0.7491876473813192
 40
0.7700631037239725
 40
0.8117650762688458
 40
0.8742797313237288
 40
0.9056385815420752
 40
0.9369593346645605
 40
0.9684758782541585
 40
0.9999999999999999
 40
0.9999999999999999
 40
0.9999999999999999
 40
0.9999999999999999
 10
341.0686544136735
 20
90.37749308740827
 30
0.0
 10
341.1316267641815
 20
90.37908957574159
 30
0.0
 10
341.2574263525568
 20
90.38227887348194
 30
0.0
 10
341.44591236941
 20
90.38026067140284
 30
0.0
 10
341.6652116582941
 20
90.37207243528607
 30
0.0
 10
341.9148040930527
 20
90.35362041834904
 30
0.0
 10
342.2865044572807
 20
90.30984024644748
 30
0.0
 10
342.7456066351069
 20
90.2247633373844
 30
0.0
 10
343.2841233421262
 20
90.07370281557705
 30
0.0
 10
343.8060465342875
 20
89.87353362287429
 30
0.0
 10
344.3076218766982
 20
89.62403601318036
 30
0.0
 10
344.7850857499288
 20
89.3249200256876
 30
0.0
 10
345.2332571056227
 20
88.97732206181679
 30
0.0
 10
345.6452658690842
 20
88.5838768809815
 30
0.0
 10
346.0136973152345
 20
88.14772331552302
 30
0.0
 10
346.3333430312954
 20
87.6725965827618
 30
0.0
 10
346.5404215657796
 20
87.27544113337323
 30
0.0
 10
346.6919845602102
 20
86.92162546787473
 30
0.0
 10
346.8233874442485
 20
86.55833090821562
 30
0.0
 10
346.9278419418773
 20
86.15089634738025
 30
0.0
 10
346.9913424977349
 20
85.76784903607194
 30
0.0
 10
347.0219220433814
 20
85.47707294162296
 30
0.0
 10
347.0366466389103
 20
85.18428144636003
 30
0.0
 10
347.0317257299405
 20
84.98859584509717
 30
0.0
 10
347.0292649796829
 20
84.89074128272391
 30
0.0
  0
SPLINE
  5
2CA
330
1F
100
AcDbEntity
  8
0
  6
Continuous
 62
     7
370
    15
100
AcDbSpline
210
0.0
220
0.0
230
1.0
 70
     8
 71
     3
 72
    26
 73
    22
 74
     0
 42
0.00000001
 43
0.00000001
 12
1.0
 22
0.0
 32
0.0
 13
1.0
 23
0.0
 33
0.0
 40
0.0
 40
0.0
 40
0.0
 40
0.0
 40
0.0089038514824168
 40
0.0133602235329036
 40
0.017819350457098
 40
0.0356796727601959
 40
0.0499920030304754
 40
0.07148703605608
 40
0.0878766712115793
 40
0.112458652978257
 40
0.124741901780127
 40
0.1431448460331464
 40
0.1699112262624021
 40
0.1966660640113072
 40
0.2503652287917343
 40
0.3753862721916189
 40
0.5006145010345967
 40
0.6255766965548236
 40
0.75059046420663
 40
0.8753162185487866
 40
1.0
 40
1.0
 40
1.0
 40
1.0
 10
340.7906382276935
 20
90.61732525556903
 30
0.0
 10
340.7906443268428
 20
90.61608844468915
 30
0.0
 10
340.7906534786123
 20
90.61423261074408
 30
0.0
 10
340.7907101796649
 20
90.61175803539089
 30
0.0
 10
340.7908252287011
 20
90.60804064068792
 30
0.0
 10
340.7910956982664
 20
90.60295863813245
 30
0.0
 10
340.7917230943836
 20
90.59553145190371
 30
0.0
 10
340.7925811994955
 20
90.58833306110417
 30
0.0
 10
340.7939160600921
 20
90.57976556059
 30
0.0
 10
340.7953352736388
 20
90.5725119724036
 30
0.0
 10
340.7970669770417
 20
90.5650463607068
 30
0.0
 10
340.799090509058
 20
90.55734363295379
 30
0.0
 10
340.8020331344187
 20
90.54782296997513
 30
0.0
 10
340.8071434080878
 20
90.53389243634494
 30
0.0
 10
340.8188988140957
 20
90.50802593587737
 30
0.0
 10
340.8422374551089
 20
90.47292471413698
 30
0.0
 10
340.8791848944655
 20
90.43699483254883
 30
0.0
 10
340.9220892527406
 20
90.40909529873234
 30
0.0
 10
340.9689865148653
 20
90.3897195850874
 30
0.0
 10
341.0183571498368
 20
90.37828649683632
 30
0.0
 10
341.0518905401619
 20
90.37775752754438
 30
0.0
 10
341.0686544136735
 20
90.37749308740827
 30
0.0
  0
LINE
  5
2CB
330
1F
100
AcDbEntity
  8
0
  6
Continuous
 62
     7
370
    15
100
AcDbLine
 10
340.7906373928
 20
90.6173243827
 30
0.0
 11
340.7906373928
 21
95.1811849779
 31
0.0
  0
SPLINE
  5
2CC
330
1F
100
AcDbEntity
  8
0
  6
Continuous
 62
     7
370
    15
100
AcDbSpline
210
0.0
220
0.0
230
1.0
 70
     8
 71
     3
 72
    25
 73
    21
 74
     0
 42
0.00000001
 43
0.00000001
 12
1.0
 22
0.0
 32
0.0
 13
1.0
 23
0.0
 33
0.0
 40
0.0
 40
0.0
 40
0.0
 40
0.0
 40
0.1246608180780601
 40
0.2496281564868476
 40
0.374175760723132
 40
0.4994179065416013
 40
0.6240922110139586
 40
0.7493659407258361
 40
0.7805833618149669
 40
0.7961513696831698
 40
0.8117589613422624
 40
0.836808120406001
 40
0.851874166529852
 40
0.8745051538016857
 40
0.8909407871596314
 40
0.9155936787841111
 40
0.9463715461897363
 40
0.9678682897893267
 40
0.9807397333982004
 40
0.9999999999999999
 40
0.9999999999999999
 40
0.9999999999999999
 40
0.9999999999999999
 10
341.0586444372019
 20
95.42118538787169
 30
0.0
 10
341.0423173790631
 20
95.4203934696926
 30
0.0
 10
341.0096231172502
 20
95.4188076861386
 30
0.0
 10
340.9618260268365
 20
95.40634516950125
 30
0.0
 10
340.9165437411282
 20
95.3863236468777
 30
0.0
 10
340.8753474014258
 20
95.35827932550664
 30
0.0
 10
340.8399436517661
 20
95.32259725676903
 30
0.0
 10
340.8192826865036
 20
95.29066283321302
 30
0.0
 10
340.8094676091873
 20
95.26967665785507
 30
0.0
 10
340.8062368991633
 20
95.26191257171374
 30
0.0
 10
340.8035306819867
 20
95.25482890643787
 30
0.0
 10
340.8011138634556
 20
95.247703572707
 30
0.0
 10
340.7986887726472
 20
95.23958212140454
 30
0.0
 10
340.7968373526135
 20
95.23250151036724
 30
0.0
 10
340.7949549335976
 20
95.22409171716843
 30
0.0
 10
340.7931875177727
 20
95.21452677693374
 30
0.0
 10
340.7918152927339
 20
95.2041968941581
 30
0.0
 10
340.7910888219883
 20
95.19540239766195
 30
0.0
 10
340.7907129596229
 20
95.18814723154522
 30
0.0
 10
340.7906662351175
 20
95.18379449095562
 30
0.0
 10
340.7906382276935
 20
95.18118538787166
 30
0.0
  0
LINE
  5
2CD
330
1F
100
AcDbEntity
  8
0
  6
Continuous
 62
     7
370
    15
100
AcDbLine
 10
345.7871159504
 20
95.4211849427
 30
0.0
 11
341.0586440901
 21
95.4211849427
 31
0.0
  0
SPLINE
  5
2CE
330
1F
100
AcDbEntity
  8
0
  6
Continuous
 62
     7
370
    15
100
AcDbSpline
210
0.0
220
0.0
230
1.0
 70
     8
 71
     3
 72
    27
 73
    23
 74
     0
 42
0.00000001
 43
0.00000001
 12
1.0
 22
0.0
 32
0.0
 13
1.0
 23
0.0
 33
0.0
 40
0.0
 40
0.0
 40
0.0
 40
0.0
 40
0.008896093399959
 40
0.0133483258742178
 40
0.0178031610105631
 40
0.0356452040504053
 40
0.0499419835452515
 40
0.0714137509452317
 40
0.0877868093396839
 40
0.1123486572687544
 40
0.1430195958387398
 40
0.1644454991777094
 40
0.1965011752573458
 40
0.2232767655272282
 40
0.2501116300862408
 40
0.3217207080659072
 40
0.375263407824948
 40
0.5003021719994986
 40
0.6251297497727363
 40
0.7502051450207234
 40
0.8750379003470238
 40
1.0
 40
1.0
 40
1.0
 40
1.0
 10
346.0446399913624
 20
95.1811853878717
 30
0.0
 10
346.0446346008883
 20
95.18237367791781
 30
0.0
 10
346.0446265126409
 20
95.18415667209914
 30
0.0
 10
346.044576372616
 20
95.18653416134175
 30
0.0
 10
346.0444746187635
 20
95.19010550935903
 30
0.0
 10
346.0442353185319
 20
95.19498809703424
 30
0.0
 10
346.0436797407237
 20
95.20212586863664
 30
0.0
 10
346.0429192760297
 20
95.20904674215639
 30
0.0
 10
346.0417351452355
 20
95.2172904369364
 30
0.0
 10
346.0400396539432
 20
95.22669119612445
 30
0.0
 10
346.0377433186295
 20
95.23664892632847
 30
0.0
 10
346.0347300557971
 20
95.24743766482585
 30
0.0
 10
346.0313706945869
 20
95.25756853479756
 30
0.0
 10
346.0272317822047
 20
95.26815927127116
 30
0.0
 10
346.0204851085231
 20
95.28331641425744
 30
0.0
 10
346.0108001184794
 20
95.30095973984466
 30
0.0
 10
345.9920538025837
 20
95.32801258598398
 30
0.0
 10
345.9647449803402
 20
95.35708807287556
 30
0.0
 10
345.9251579163885
 20
95.38558088392385
 30
0.0
 10
345.8813754239434
 20
95.40598157000068
 30
0.0
 10
345.8348892584661
 20
95.41878372473647
 30
0.0
 10
345.8030464367716
 20
95.42038455718843
 30
0.0
 10
345.7871167817827
 20
95.42118538787169
 30
0.0
  0
LINE
  5
2CF
330
1F
100
AcDbEntity
  8
0
  6
Continuous
 62
     7
370
    15
100
AcDbLine
 10
346.0446415435
 20
93.8031647063
 30
0.0
 11
346.0446415435
 21
95.1811849779
 31
0.0
  0
SPLINE
  5
2D0
330
1F
100
AcDbEntity
  8
0
  6
Continuous
 62
     7
370
    15
100
AcDbSpline
210
0.0
220
0.0
230
1.0
 70
     8
 71
     3
 72
    19
 73
    15
 74
     0
 42
0.00000001
 43
0.00000001
 12
1.0
 22
0.0
 32
0.0
 13
1.0
 23
0.0
 33
0.0
 40
0.0
 40
0.0
 40
0.0
 40
0.0
 40
0.1250006416628563
 40
0.2502623960966813
 40
0.499421620974718
 40
0.5244775300516055
 40
0.5620243107174561
 40
0.6244263663797656
 40
0.6742016968146897
 40
0.7492038498809189
 40
0.8208546615626593
 40
0.8745610378735048
 40
0.9245456457139801
 40
1.0
 40
1.0
 40
1.0
 40
1.0
 10
346.1817271029599
 20
93.59092102697682
 30
0.0
 10
346.1721674436297
 20
93.59607654994738
 30
0.0
 10
346.1530281558787
 20
93.60639836521635
 30
0.0
 10
346.1182266844531
 20
93.6329254438544
 30
0.0
 10
346.0943736955298
 20
93.65954561055572
 30
0.0
 10
346.0793162205716
 20
93.68278592945543
 30
0.0
 10
346.0735920574535
 20
93.69232457504866
 30
0.0
 10
346.0673708449636
 20
93.70415377643262
 30
0.0
 10
346.0605701322056
 20
93.71945544536273
 30
0.0
 10
346.0546347129454
 20
93.73606071492527
 30
0.0
 10
346.050028276064
 20
93.75349126780166
 30
0.0
 10
346.0471462163674
 20
93.76901576758301
 30
0.0
 10
346.045101770638
 20
93.78504332761302
 30
0.0
 10
346.0448134329566
 20
93.79635824244254
 30
0.0
 10
346.0446399913624
 20
93.80316441795443
 30
0.0
  0
SPLINE
  5
2D1
330
1F
100
AcDbEntity
  8
0
  6
Continuous
 62
     7
370
    15
100
AcDbSpline
210
0.0
220
0.0
230
1.0
 70
     8
 71
     3
 72
    20
 73
    16
 74
     0
 42
0.00000001
 43
0.00000001
 12
1.0
 22
0.0
 32
0.0
 13
1.0
 23
0.0
 33
0.0
 40
0.0
 40
0.0
 40
0.0
 40
0.0
 40
0.0418126887354057
 40
0.0836810764807687
 40
0.1256491516878341
 40
0.187945054328475
 40
0.2505154491164961
 40
0.3749880897618426
 40
0.4994116289502078
 40
0.6240041223415586
 40
0.7489081244568806
 40
0.8114610060960962
 40
0.8742349045047375
 40
0.9370343432053391
 40
1.0
 40
1.0
 40
1.0
 40
1.0
 10
350.8093573127028
 20
88.7372038595406
 30
0.0
 10
350.7707918472794
 20
88.82628806610951
 30
0.0
 10
350.6936095430743
 20
89.00457514901619
 30
0.0
 10
350.5673878642415
 20
89.26700898760681
 30
0.0
 10
350.4120065307292
 20
89.56733903430971
 30
0.0
 10
350.2215326941417
 20
89.9023766374886
 30
0.0
 10
349.91481668922
 20
90.38819131372222
 30
0.0
 10
349.4916926230561
 20
90.96579302870595
 30
0.0
 10
348.9265823314707
 20
91.6066999292118
 30
0.0
 10
348.3087451487231
 20
92.1932280349038
 30
0.0
 10
347.7542677249564
 20
92.63425134138647
 30
0.0
 10
347.2892988361052
 20
92.95757716886435
 30
0.0
 10
346.9298892316239
 20
93.18485694370193
 30
0.0
 10
346.5612332774492
 20
93.39801413565856
 30
0.0
 10
346.3083405734431
 20
93.52656209784263
 30
0.0
 10
346.1817271029598
 20
93.59092102697682
 30
0.0
  0
SPLINE
  5
2D2
330
1F
100
AcDbEntity
  8
0
  6
Continuous
 62
     7
370
    15
100
AcDbSpline
210
0.0
220
0.0
230
1.0
 70
     8
 71
     3
 72
    17
 73
    13
 74
     0
 42
0.00000001
 43
0.00000001
 12
1.0
 22
0.0
 32
0.0
 13
1.0
 23
0.0
 33
0.0
 40
0.0
 40
0.0
 40
0.0
 40
0.0
 40
0.0621723318191219
 40
0.1251049378623301
 40
0.2499151775045361
 40
0.3750727763727468
 40
0.4998271154340848
 40
0.624787280432917
 40
0.749563528883285
 40
0.8743572754732691
 40
0.9373792576051517
 40
1.0
 40
1.0
 40
1.0
 40
1.0
 10
351.1710013348983
 20
88.62569037433722
 30
0.0
 10
351.1633098646065
 20
88.62125948792557
 30
0.0
 10
351.1478328688952
 20
88.61234353201745
 30
0.0
 10
351.1149761519123
 20
88.59891814840424
 30
0.0
 10
351.0718413982735
 20
88.58845414345821
 30
0.0
 10
351.0188703778703
 20
88.58702553950623
 30
0.0
 10
350.9666171409368
 20
88.59652004095128
 30
0.0
 10
350.9171178036537
 20
88.61670825785751
 30
0.0
 10
350.8725366638301
 20
88.647382642659
 30
0.0
 10
350.8413859257179
 20
88.68100804628844
 30
0.0
 10
350.8211089568674
 20
88.7118638791867
 30
0.0
 10
350.8132661787934
 20
88.7287752015116
 30
0.0
 10
350.8093573127028
 20
88.73720385954057
 30
0.0
  0
SPLINE
  5
2D3
330
1F
100
AcDbEntity
  8
0
  6
Continuous
 62
     7
370
    15
100
AcDbSpline
210
0.0
220
0.0
230
1.0
 70
     8
 71
     3
 72
    13
 73
     9
 74
     0
 42
0.00000001
 43
0.00000001
 12
1.0
 22
0.0
 32
0.0
 13
1.0
 23
0.0
 33
0.0
 40
0.0
 40
0.0
 40
0.0
 40
0.0
 40
0.1266167745159731
 40
0.252297479005167
 40
0.3770423511981333
 40
0.5008516342179488
 40
0.7521519037574755
 40
1.0
 40
1.0
 40
1.0
 40
1.0
 10
357.600717221735
 20
92.71413710088876
 30
0.0
 10
357.333534284556
 20
92.54004820352593
 30
0.0
 10
356.8011436772202
 20
92.19315743731161
 30
0.0
 10
356.0011281287627
 20
91.67625686982196
 30
0.0
 10
355.2039696340392
 20
91.16431292590269
 30
0.0
 10
354.1346110809502
 20
90.48222937648418
 30
0.0
 10
352.7944141658983
 20
89.63495377465861
 30
0.0
 10
351.7096381290921
 20
88.96055676941889
 30
0.0
 10
351.1710013348983
 20
88.62569037433725
 30
0.0
  0
SPLINE
  5
2D4
330
1F
100
AcDbEntity
  8
0
  6
Continuous
 62
     7
370
    15
100
AcDbSpline
210
0.0
220
0.0
230
1.0
 70
     8
 71
     3
 72
    40
 73
    36
 74
     0
 42
0.00000001
 43
0.00000001
 12
1.0
 22
0.0
 32
0.0
 13
1.0
 23
0.0
 33
0.0
 40
0.0
 40
0.0
 40
0.0
 40
0.0
 40
0.0077881213502354
 40
0.011686244239343
 40
0.0155868609333497
 40
0.0218326414430786
 40
0.0265205842676588
 40
0.0312113140385898
 40
0.0351221991512614
 40
0.0390346790140474
 40
0.0429485952022597
 40
0.0468637873047982
 40
0.0546972662155683
 40
0.0586153063075978
 40
0.0625339642333031
 40
0.0750754590063253
 40
0.0826004286329105
 40
0.0882432361186456
 40
0.0938846607032567
 40
0.097801247923597
 40
0.101716751644736
 40
0.1095437476185504
 40
0.1251766544068135
 40
0.1875809507659406
 40
0.2502289975089567
 40
0.3749775706639354
 40
0.499715975183956
 40
0.5712429669418503
 40
0.6246904751396702
 40
0.6872594477173333
 40
0.749749056783901
 40
0.8120849858315782
 40
0.8746463011136685
 40
0.9374030406596023
 40
1.0
 40
1.0
 40
1.0
 40
1.0
 10
357.9602295583072
 20
92.51172315389368
 30
0.0
 10
357.960222916067
 20
92.51310973437229
 30
0.0
 10
357.9602129492422
 20
92.51519032831813
 30
0.0
 10
357.9601511448788
 20
92.51796458062778
 30
0.0
 10
357.9600759859318
 20
92.52046364711602
 30
0.0
 10
357.9599666399571
 20
92.52310205989556
 30
0.0
 10
357.9598185647434
 20
92.52587904674684
 30
0.0
 10
357.9596685436558
 20
92.52823935829124
 30
0.0
 10
357.9595066295502
 20
92.5304602251449
 30
0.0
 10
357.9593372091607
 20
92.53254159950419
 30
0.0
 10
357.9591502232185
 20
92.53462193216608
 30
0.0
 10
357.9588775204921
 20
92.53739432011531
 30
0.0
 10
357.9585699186303
 20
92.54016319797667
 30
0.0
 10
357.9582276341866
 20
92.54292763338596
 30
0.0
 10
357.9577525740206
 20
92.54651798966053
 30
0.0
 10
357.9571195721421
 20
92.55073196973645
 30
0.0
 10
357.9563453623475
 20
92.55522967280899
 30
0.0
 10
357.9557331350272
 20
92.55851029200278
 30
0.0
 10
357.9552067082567
 20
92.56115419649166
 30
0.0
 10
357.9547163819175
 20
92.56349178328735
 30
0.0
 10
357.9541239759956
 20
92.56620272559462
 30
0.0
 10
357.9530290505008
 20
92.57092624143726
 30
0.0
 10
357.9492283171368
 20
92.58563425604177
 30
0.0
 10
357.9409353143203
 20
92.60907959872142
 30
0.0
 10
357.9210189957484
 20
92.64794573540435
 30
0.0
 10
357.8870373165771
 20
92.69015664313315
 30
0.0
 10
357.8429718486859
 20
92.72183412163142
 30
0.0
 10
357.8052539509962
 20
92.73843835451045
 30
0.0
 10
357.7757665952872
 20
92.74693583991392
 30
0.0
 10
357.7470170631613
 20
92.75144872214474
 30
0.0
 10
357.7165366165493
 20
92.7521916476833
 30
0.0
 10
357.6861901638425
 20
92.74881591854428
 30
0.0
 10
357.6564350214156
 20
92.74136077716457
 30
0.0
 10
357.6275372138772
 20
92.73020776151614
 30
0.0
 10
357.6096496190646
 20
92.71948943377953
 30
0.0
 10
357.600717221735
 20
92.71413710088879
 30
0.0
  0
LINE
  5
2D5
330
1F
100
AcDbEntity
  8
0
  6
Continuous
 62
     7
370
    15
100
AcDbLine
 10
357.9602284323
 20
87.8357879526
 30
0.0
 11
357.9602284323
 21
92.5117239064
 31
0.0
  0
SPLINE
  5
2D6
330
1F
100
AcDbEntity
  8
0
  6
Continuous
 62
     7
370
    15
100
AcDbSpline
210
0.0
220
0.0
230
1.0
 70
     8
 71
     3
 72
    17
 73
    13
 74
     0
 42
0.00000001
 43
0.00000001
 12
1.0
 22
0.0
 32
0.0
 13
1.0
 23
0.0
 33
0.0
 40
0.0
 40
0.0
 40
0.0
 40
0.0
 40
0.1253292819827427
 40
0.2501900092005667
 40
0.3126685577458751
 40
0.3749528748183385
 40
0.4999899402998063
 40
0.5817742126744734
 40
0.6429595014113998
 40
0.7498151516487161
 40
0.8750742076898578
 40
1.0
 40
1.0
 40
1.0
 40
1.0
 10
357.8521355661525
 20
87.63337490163546
 30
0.0
 10
357.8599957387995
 20
87.63892989023746
 30
0.0
 10
357.8756866981329
 20
87.65001909961819
 30
0.0
 10
357.8931849048967
 20
87.66704960559397
 30
0.0
 10
357.9060296648636
 20
87.68181689625827
 30
0.0
 10
357.917980954663
 20
87.6974912265437
 30
0.0
 10
357.9293465371399
 20
87.71570074766295
 30
0.0
 10
357.9388394194744
 20
87.73500546404095
 30
0.0
 10
357.9464502980261
 20
87.75366477461868
 30
0.0
 10
357.9534806869779
 20
87.77641574170215
 30
0.0
 10
357.9590943846923
 20
87.80509369091627
 30
0.0
 10
357.9598515032806
 20
87.82556621967291
 30
0.0
 10
357.9602295583072
 20
87.83578884863054
 30
0.0
  0
LINE
  5
2D7
330
1F
100
AcDbEntity
  8
0
  6
Continuous
 62
     7
370
    15
100
AcDbLine
 10
339.2908783595
 20
95.4211849427
 30
0.0
 11
341.0586440901
 21
95.4211849427
 31
0.0
  0
SPLINE
  5
2D8
330
1F
100
AcDbEntity
  8
0
  6
Continuous
 62
     7
370
    15
100
AcDbSpline
210
0.0
220
0.0
230
1.0
 70
     8
 71
     3
 72
    11
 73
     7
 74
     0
 42
0.00000001
 43
0.00000001
 12
1.0
 22
0.0
 32
0.0
 13
1.0
 23
0.0
 33
0.0
 40
0.0
 40
0.0
 40
0.0
 40
0.0
 40
0.2474762470424426
 40
0.4966348299330003
 40
0.7474759991093511
 40
1.0
 40
1.0
 40
1.0
 40
1.0
 10
354.7941212508645
 20
60.12615915058898
 30
0.0
 10
355.0449537094914
 20
60.23037438189123
 30
0.0
 10
355.5483237780156
 20
60.43951329640429
 30
0.0
 10
356.3024849505193
 20
60.75535331498271
 30
0.0
 10
357.0593705937179
 20
61.07403152906929
 30
0.0
 10
357.5632241512766
 20
61.28789237964827
 30
0.0
 10
357.8159931622926
 20
61.3951802907584
 30
0.0
  0
SPLINE
  5
2D9
330
1F
100
AcDbEntity
  8
0
  6
Continuous
 62
     7
370
    15
100
AcDbSpline
210
0.0
220
0.0
230
1.0
 70
     8
 71
     3
 72
    22
 73
    18
 74
     0
 42
0.00000001
 43
0.00000001
 12
1.0
 22
0.0
 32
0.0
 13
1.0
 23
0.0
 33
0.0
 40
0.0
 40
0.0
 40
0.0
 40
0.0
 40
0.0155520851384165
 40
0.0311270433554302
 40
0.0623329566598027
 40
0.1248793871112215
 40
0.196375668892419
 40
0.2498399714686795
 40
0.3210551715807844
 40
0.3746722311416653
 40
0.4104563627347665
 40
0.4372890081146235
 40
0.4997700659542693
 40
0.6244830128103637
 40
0.7495507511454943
 40
0.8746105829060523
 40
1.0
 40
1.0
 40
1.0
 40
1.0
 10
354.646065156546
 20
59.90442806278627
 30
0.0
 10
354.646073659527
 20
59.90593574246792
 30
0.0
 10
354.6460906779946
 20
59.90895331923653
 30
0.0
 10
354.6462719296691
 20
59.91499343073745
 30
0.0
 10
354.6468791645076
 20
59.92557397007622
 30
0.0
 10
354.6487076000483
 20
59.94148928321551
 30
0.0
 10
354.6522035097815
 20
59.95929563129224
 30
0.0
 10
354.6572251500147
 20
59.9775341086449
 30
0.0
 10
354.6630355986887
 20
59.99366243270669
 30
0.0
 10
354.66930621646
 20
60.00768750959075
 30
0.0
 10
354.6743509830001
 20
60.01754773156032
 30
0.0
 10
354.6801507201242
 20
60.0279253826952
 30
0.0
 10
354.6909550686522
 20
60.04508406226118
 30
0.0
 10
354.709336424711
 20
60.06806763980523
 30
0.0
 10
354.7348445818933
 20
60.09182768020813
 30
0.0
 10
354.7631495517871
 20
60.11179463556352
 30
0.0
 10
354.7837882978035
 20
60.12136678000817
 30
0.0
 10
354.7941212508644
 20
60.1261591505892
 30
0.0
  0
LINE
  5
2DA
330
1F
100
AcDbEntity
  8
0
  6
Continuous
 62
     7
370
    15
100
AcDbLine
 10
354.6460648964
 20
52.7527883357
 30
0.0
 11
354.6460648964
 21
59.904428356
 31
0.0
  0
SPLINE
  5
2DB
330
1F
100
AcDbEntity
  8
0
  6
Continuous
 62
     7
370
    15
100
AcDbSpline
210
0.0
220
0.0
230
1.0
 70
     8
 71
     3
 72
    20
 73
    16
 74
     0
 42
0.00000001
 43
0.00000001
 12
1.0
 22
0.0
 32
0.0
 13
1.0
 23
0.0
 33
0.0
 40
0.0
 40
0.0
 40
0.0
 40
0.0
 40
0.1248466390527492
 40
0.2499018537218946
 40
0.3744340808409843
 40
0.4994690648009617
 40
0.5618928201037214
 40
0.5930085189054161
 40
0.6241016880764633
 40
0.6954634403904659
 40
0.7491355012712554
 40
0.8308162168380469
 40
0.8919060215697294
 40
0.9536785982841942
 40
1.0
 40
1.0
 40
1.0
 40
1.0
 10
354.7941212508645
 20
52.53105730414669
 30
0.0
 10
354.7838362497404
 20
52.53583475078469
 30
0.0
 10
354.7632490648075
 20
52.5453976255241
 30
0.0
 10
354.7350033559625
 20
52.56526263591211
 30
0.0
 10
354.7094818357899
 20
52.58897769419622
 30
0.0
 10
354.6911374006049
 20
52.61195612557834
 30
0.0
 10
354.6800455239142
 20
52.6294337842892
 30
0.0
 10
354.6742699221801
 20
52.63977576005282
 30
0.0
 10
354.6684918622777
 20
52.6511156908192
 30
0.0
 10
354.6625430278971
 20
52.66483906001304
 30
0.0
 10
354.6560112258769
 20
52.68360063560235
 30
0.0
 10
354.6512087695169
 20
52.7019628326668
 30
0.0
 10
354.6479029543461
 20
52.72148164685013
 30
0.0
 10
354.6463147361623
 20
52.73781783811967
 30
0.0
 10
354.6461400252389
 20
52.7482975372353
 30
0.0
 10
354.6460651565461
 20
52.75278839194937
 30
0.0
  0
SPLINE
  5
2DC
330
1F
100
AcDbEntity
  8
0
  6
Continuous
 62
     7
370
    15
100
AcDbSpline
210
0.0
220
0.0
230
1.0
 70
     8
 71
     3
 72
    11
 73
     7
 74
     0
 42
0.00000001
 43
0.00000001
 12
1.0
 22
0.0
 32
0.0
 13
1.0
 23
0.0
 33
0.0
 40
0.0
 40
0.0
 40
0.0
 40
0.0
 40
0.2525240008907028
 40
0.5033651700670676
 40
0.7525237529576062
 40
1.0
 40
1.0
 40
1.0
 40
1.0
 10
357.8159931622927
 20
51.26203616397727
 30
0.0
 10
357.5632241512766
 20
51.36932407508742
 30
0.0
 10
357.0593705937178
 20
51.58318492566643
 30
0.0
 10
356.3024849505192
 20
51.90186313975307
 30
0.0
 10
355.5483237780155
 20
52.21770315833142
 30
0.0
 10
355.0449537094914
 20
52.42684207284444
 30
0.0
 10
354.7941212508645
 20
52.53105730414668
 30
0.0
  0
SPLINE
  5
2DD
330
1F
100
AcDbEntity
  8
0
  6
Continuous
 62
     7
370
    15
100
AcDbSpline
210
0.0
220
0.0
230
1.0
 70
     8
 71
     3
 72
    22
 73
    18
 74
     0
 42
0.00000001
 43
0.00000001
 12
1.0
 22
0.0
 32
0.0
 13
1.0
 23
0.0
 33
0.0
 40
0.0
 40
0.0
 40
0.0
 40
0.0
 40
0.0155522875821646
 40
0.031127136121577
 40
0.0623321824091877
 40
0.1248766438992924
 40
0.1963765436355966
 40
0.2498534631938478
 40
0.3210498101313694
 40
0.3746543597241344
 40
0.4372579802885334
 40
0.4730021030696832
 40
0.4997665102919838
 40
0.6244400923825646
 40
0.7495137647452034
 40
0.874554176131579
 40
1.0
 40
1.0
 40
1.0
 40
1.0
 10
357.9602295583072
 20
51.04030507617453
 30
0.0
 10
357.9602213674758
 20
51.04180574305842
 30
0.0
 10
357.9602049739308
 20
51.04480925377162
 30
0.0
 10
357.9600303368147
 20
51.05082121317085
 30
0.0
 10
357.9594451132431
 20
51.06135275260876
 30
0.0
 10
357.9576820725401
 20
51.07719751081589
 30
0.0
 10
357.9543082202837
 20
51.09493446142972
 30
0.0
 10
357.949459896985
 20
51.11311275939612
 30
0.0
 10
357.9438462921314
 20
51.12920109495028
 30
0.0
 10
357.9367654581504
 20
51.14553977593823
 30
0.0
 10
357.9301803548833
 20
51.15831320160587
 30
0.0
 10
357.9242027207551
 20
51.16845005005196
 30
0.0
 10
357.9147462443419
 20
51.18323057303805
 30
0.0
 10
357.8989178453145
 20
51.20363723483669
 30
0.0
 10
357.8740426768514
 20
51.22749046525407
 30
0.0
 10
357.8463679596214
 20
51.24758313534644
 30
0.0
 10
357.8261290136607
 20
51.25721329229086
 30
0.0
 10
357.8159931622927
 20
51.26203616397738
 30
0.0
  0
LINE
  5
2DE
330
1F
100
AcDbEntity
  8
0
  6
Continuous
 62
     7
370
    15
100
AcDbLine
 10
357.9602284323
 20
46.3643699593
 30
0.0
 11
357.9602284323
 21
51.0403059131
 31
0.0
  0
SPLINE
  5
2DF
330
1F
100
AcDbEntity
  8
0
  6
Continuous
 62
     7
370
    15
100
AcDbSpline
210
0.0
220
0.0
230
1.0
 70
     8
 71
     3
 72
    31
 73
    27
 74
     0
 42
0.00000001
 43
0.00000001
 12
1.0
 22
0.0
 32
0.0
 13
1.0
 23
0.0
 33
0.0
 40
0.0
 40
0.0
 40
0.0
 40
0.0
 40
0.0622605176140012
 40
0.1250256861671116
 40
0.2496664998513233
 40
0.3122826578494915
 40
0.374696337651187
 40
0.4370852886265461
 40
0.4996807631571989
 40
0.624210666514183
 40
0.6868122189131036
 40
0.7491467769178921
 40
0.8116417391222572
 40
0.8429889886053055
 40
0.8586543464627828
 40
0.8743015050856849
 40
0.8906230721468064
 40
0.900399122160793
 40
0.9150765221686117
 40
0.9274204469391737
 40
0.9459534808127773
 40
0.9583146550766836
 40
0.9768525192158051
 40
0.9814851763846919
 40
0.9861165283708607
 40
1.0
 40
1.0
 40
1.0
 40
1.0
 10
357.6369243118721
 20
46.14263968310868
 30
0.0
 10
357.6456927411297
 20
46.13928473315834
 30
0.0
 10
357.6633006719105
 20
46.13254763980172
 30
0.0
 10
357.6998956121421
 20
46.12468954038518
 30
0.0
 10
357.7374534288658
 20
46.12330068954981
 30
0.0
 10
357.7743473145003
 20
46.12889147766698
 30
0.0
 10
357.8014619951165
 20
46.1364074719428
 30
0.0
 10
357.8275909353275
 20
46.14734342731706
 30
0.0
 10
357.8606243949053
 20
46.16612008898046
 30
0.0
 10
357.8904299795509
 20
46.19128532499117
 30
0.0
 10
357.9152172556077
 20
46.22173369037497
 30
0.0
 10
357.9311187013872
 20
46.24699578731018
 30
0.0
 10
357.9416978627563
 20
46.26980217951959
 30
0.0
 10
357.9476498713727
 20
46.28646701058351
 30
0.0
 10
357.9506205950229
 20
46.29617158458342
 30
0.0
 10
357.9526544509947
 20
46.30362734146462
 30
0.0
 10
357.9542313507195
 20
46.3102250021576
 30
0.0
 10
357.9556036904721
 20
46.31671383440621
 30
0.0
 10
357.9566969129926
 20
46.32260529323957
 30
0.0
 10
357.9578523532181
 20
46.32993894486484
 30
0.0
 10
357.9587362404188
 20
46.33693766061252
 30
0.0
 10
357.9595019558163
 20
46.34496978426445
 30
0.0
 10
357.9598768251785
 20
46.35076168568113
 30
0.0
 10
357.9600647282159
 20
46.35529876133962
 30
0.0
 10
357.9601899163929
 20
46.35907784919868
 30
0.0
 10
357.9602125707655
 20
46.36210262291533
 30
0.0
 10
357.9602295583074
 20
46.36437077091136
 30
0.0
  0
SPLINE
  5
2E0
330
1F
100
AcDbEntity
  8
0
  6
Continuous
 62
     7
370
    15
100
AcDbSpline
210
0.0
220
0.0
230
1.0
 70
     8
 71
     3
 72
    16
 73
    12
 74
     0
 42
0.00000001
 43
0.00000001
 12
1.0
 22
0.0
 32
0.0
 13
1.0
 23
0.0
 33
0.0
 40
0.0
 40
0.0
 40
0.0
 40
0.0
 40
0.0817644221378298
 40
0.1641053463437872
 40
0.2470229492989049
 40
0.3305174040217344
 40
0.414588879967763
 40
0.4992375431255247
 40
0.6635129108954905
 40
0.8304333775905185
 40
1.0
 40
1.0
 40
1.0
 40
1.0
 10
346.3998405453448
 20
50.70109897262982
 30
0.0
 10
346.7129578518316
 20
50.57949278541117
 30
0.0
 10
347.3414001826611
 20
50.3354229938162
 30
0.0
 10
348.2831352126509
 20
49.96616433033847
 30
0.0
 10
349.2282308223182
 20
49.59297158114688
 30
0.0
 10
350.1762513359866
 20
49.21570858658468
 30
0.0
 10
351.1271291762871
 20
48.834409237284
 30
0.0
 10
352.3775751015894
 20
48.3291273937753
 30
0.0
 10
353.9294838502112
 20
47.69467855237913
 30
0.0
 10
355.7839589828408
 20
46.925883042208
 30
0.0
 10
357.0160394825806
 20
46.40508599642547
 30
0.0
 10
357.6369243118722
 20
46.14263968310868
 30
0.0
  0
SPLINE
  5
2E1
330
1F
100
AcDbEntity
  8
0
  6
Continuous
 62
     7
370
    15
100
AcDbSpline
210
0.0
220
0.0
230
1.0
 70
     8
 71
     3
 72
    41
 73
    37
 74
     0
 42
0.00000001
 43
0.00000001
 12
1.0
 22
0.0
 32
0.0
 13
1.0
 23
0.0
 33
0.0
 40
0.0
 40
0.0
 40
0.0
 40
0.0
 40
0.0077909115776774
 40
0.0116903899284311
 40
0.015592348391736
 40
0.0312214094834075
 40
0.0437458386924028
 40
0.0512673438263832
 40
0.056910959331805
 40
0.0625561458109331
 40
0.0664770954963574
 40
0.0703984026611705
 40
0.0743199010178485
 40
0.0782414232048713
 40
0.0821628009489713
 40
0.0841233878559925
 40
0.0860838752165254
 40
0.0880442418123705
 40
0.0900044663988953
 40
0.0919645277096002
 40
0.0939244044614407
 40
0.1118297958968525
 40
0.1252381935889596
 40
0.1408483080903367
 40
0.1564411697602019
 40
0.1877212701955983
 40
0.2504166065562475
 40
0.3752965120949718
 40
0.5001874178298066
 40
0.5628545144254524
 40
0.6253309534061997
 40
0.6878120885949061
 40
0.7504226377991481
 40
0.8750654003831624
 40
0.937775362083895
 40
1.0
 40
1.0
 40
1.0
 40
1.0
 10
346.0446399913624
 20
50.47936788482711
 30
0.0
 10
346.0446465720441
 20
50.48068079213616
 30
0.0
 10
346.0446564464645
 20
50.48265083097302
 30
0.0
 10
346.0447176263028
 20
50.48527766846757
 30
0.0
 10
346.0448417710632
 20
50.4892239082024
 30
0.0
 10
346.0451336426246
 20
50.49461852113299
 30
0.0
 10
346.0456480206455
 20
50.50060680757058
 30
0.0
 10
346.0461147566962
 20
50.50490828026619
 30
0.0
 10
346.0465024469114
 20
50.50805194620339
 30
0.0
 10
346.0468476376822
 20
50.51058934741004
 30
0.0
 10
346.0471774535055
 20
50.51283568366141
 30
0.0
 10
346.0474820267738
 20
50.51479212406093
 30
0.0
 10
346.0478034763388
 20
50.51674568396081
 30
0.0
 10
346.0481417452175
 20
50.51869612306814
 30
0.0
 10
346.0484376106459
 20
50.52031872148739
 30
0.0
 10
346.0486826593403
 20
50.52161501607372
 30
0.0
 10
346.0488706122758
 20
50.52258629109796
 30
0.0
 10
346.0490627274559
 20
50.52355660582302
 30
0.0
 10
346.0492589976857
 20
50.52452592979939
 30
0.0
 10
346.0494594162798
 20
50.52549423544195
 30
0.0
 10
346.0502187438306
 20
50.52908469597602
 30
0.0
 10
346.0514957077977
 20
50.53453122670796
 30
0.0
 10
346.0535596855657
 20
50.54213704928309
 30
0.0
 10
346.0557533399373
 20
50.54929522558061
 30
0.0
 10
346.0591751562446
 20
50.55919509188814
 30
0.0
 10
346.0660700827785
 20
50.57619758037667
 30
0.0
 10
346.0831458283865
 20
50.60855295590057
 30
0.0
 10
346.1161868569276
 20
50.64900671297027
 30
0.0
 10
346.1575411929696
 20
50.67967921841415
 30
0.0
 10
346.1938296260382
 20
50.69781335702856
 30
0.0
 10
346.2223181429526
 20
50.70823370078932
 30
0.0
 10
346.2517025069088
 20
50.71532481958465
 30
0.0
 10
346.2915261926681
 20
50.72047508973637
 30
0.0
 10
346.3319096222702
 20
50.71887869315945
 30
0.0
 10
346.3713355200678
 20
50.71107377535962
 30
0.0
 10
346.3903635091053
 20
50.70441528496539
 30
0.0
 10
346.3998405453448
 20
50.70109897262982
 30
0.0
  0
LINE
  5
2E2
330
1F
100
AcDbEntity
  8
0
  6
Continuous
 62
     7
370
    15
100
AcDbLine
 10
346.0446415435
 20
47.6611844903
 30
0.0
 11
346.0446415435
 21
50.4793684638
 31
0.0
  0
SPLINE
  5
2E3
330
1F
100
AcDbEntity
  8
0
  6
Continuous
 62
     7
370
    15
100
AcDbSpline
210
0.0
220
0.0
230
1.0
 70
     8
 71
     3
 72
    26
 73
    22
 74
     0
 42
0.00000001
 43
0.00000001
 12
1.0
 22
0.0
 32
0.0
 13
1.0
 23
0.0
 33
0.0
 40
0.0
 40
0.0
 40
0.0
 40
0.0
 40
0.1249375112674158
 40
0.2498538541306474
 40
0.3746698359440693
 40
0.4994292369911265
 40
0.6242333403219653
 40
0.7488767914289052
 40
0.7801293217551524
 40
0.7957958025738442
 40
0.811478990536571
 40
0.836588640932124
 40
0.851656050442879
 40
0.874242574617893
 40
0.8906129746550964
 40
0.9151208848463553
 40
0.9273492665027804
 40
0.94573287743055
 40
0.9674397812722958
 40
0.9804668420477086
 40
1.0
 40
1.0
 40
1.0
 40
1.0
 10
345.7871167817827
 20
47.42118538787166
 30
0.0
 10
345.8030390183662
 20
47.42199155616832
 30
0.0
 10
345.834880793798
 20
47.42360375617099
 30
0.0
 10
345.8813477268276
 20
47.43635929513883
 30
0.0
 10
345.9250600864699
 20
47.45679481732996
 30
0.0
 10
345.9646629337258
 20
47.48514905903557
 30
0.0
 10
345.9982248409042
 20
47.52103169266198
 30
0.0
 10
346.0177970108688
 20
47.55277813734141
 30
0.0
 10
346.0269461180553
 20
47.57358890389813
 30
0.0
 10
346.0299796419293
 20
47.58132035686838
 30
0.0
 10
346.0325287187882
 20
47.58837041576331
 30
0.0
 10
346.0348086126975
 20
47.59543914068007
 30
0.0
 10
346.0370960891176
 20
47.60347047317652
 30
0.0
 10
346.0388412786219
 20
47.61045120745314
 30
0.0
 10
346.0406124523722
 20
47.61872127360068
 30
0.0
 10
346.0418451982933
 20
47.62569742741789
 30
0.0
 10
346.0428844858055
 20
47.63297768735631
 30
0.0
 10
346.0436772015087
 20
47.63991658941357
 30
0.0
 10
346.0442229497447
 20
47.64698891343664
 30
0.0
 10
346.0445713857193
 20
47.65422800814319
 30
0.0
 10
346.0446142666936
 20
47.65857661866085
 30
0.0
 10
346.0446399913624
 20
47.66118538787169
 30
0.0
  0
LINE
  5
2E4
330
1F
100
AcDbEntity
  8
0
  6
Continuous
 62
     7
370
    15
100
AcDbLine
 10
341.0586440901
 20
47.4211845255
 30
0.0
 11
345.7871159504
 21
47.4211845255
 31
0.0
  0
SPLINE
  5
2E5
330
1F
100
AcDbEntity
  8
0
  6
Continuous
 62
     7
370
    15
100
AcDbSpline
210
0.0
220
0.0
230
1.0
 70
     8
 71
     3
 72
    27
 73
    23
 74
     0
 42
0.00000001
 43
0.00000001
 12
1.0
 22
0.0
 32
0.0
 13
1.0
 23
0.0
 33
0.0
 40
0.0
 40
0.0
 40
0.0
 40
0.0
 40
0.0088986642598488
 40
0.0133523345595268
 40
0.0178086985149305
 40
0.0356575523202551
 40
0.0499604154731622
 40
0.0714414957108385
 40
0.0878211941940454
 40
0.1123906136929622
 40
0.1430638936348312
 40
0.164484619382491
 40
0.1773078714206664
 40
0.1965597631748492
 40
0.2233651666922409
 40
0.2502241759380017
 40
0.3752115492990548
 40
0.5003595164810265
 40
0.625244324821351
 40
0.7503227269953976
 40
0.8751319615200546
 40
0.9999999999999999
 40
0.9999999999999999
 40
0.9999999999999999
 40
0.9999999999999999
 10
340.7906382276935
 20
47.66118538787169
 30
0.0
 10
340.7906440215071
 20
47.65997993345661
 30
0.0
 10
340.7906527150522
 20
47.65817116416538
 30
0.0
 10
340.7907065847627
 20
47.65575933036261
 30
0.0
 10
340.7908158920502
 20
47.65213626700445
 30
0.0
 10
340.7910728833307
 20
47.64718311666682
 30
0.0
 10
340.7916691342951
 20
47.63994338645938
 30
0.0
 10
340.792484772705
 20
47.63292542969801
 30
0.0
 10
340.7937538668061
 20
47.62456983035008
 30
0.0
 10
340.7955696321082
 20
47.61504767653037
 30
0.0
 10
340.79802620882
 20
47.60497197462472
 30
0.0
 10
340.8005117283911
 20
47.59655995608336
 30
0.0
 10
340.8027791402185
 20
47.58970273053053
 30
0.0
 10
340.8055004020575
 20
47.58223820702853
 30
0.0
 10
340.8092550395391
 20
47.57315140195335
 30
0.0
 10
340.8194918652817
 20
47.55138701375051
 30
0.0
 10
340.839799171296
 20
47.51988576681239
 30
0.0
 10
340.87518954571
 20
47.48421439518026
 30
0.0
 10
340.9164344482979
 20
47.45608772426113
 30
0.0
 10
340.9617177221803
 20
47.43605090548201
 30
0.0
 10
341.0095837911459
 20
47.42353742178764
 30
0.0
 10
341.0422883209945
 20
47.42196952226749
 30
0.0
 10
341.058644437202
 20
47.42118538787167
 30
0.0
  0
LINE
  5
2E6
330
1F
100
AcDbEntity
  8
0
  6
Continuous
 62
     7
370
    15
100
AcDbLine
 10
340.7906373928
 20
47.6611844903
 30
0.0
 11
340.7906373928
 21
59.670075
 31
0.0
  0
SPLINE
  5
2E7
330
1F
100
AcDbEntity
  8
0
  6
Continuous
 62
     7
370
    15
100
AcDbSpline
210
0.0
220
0.0
230
1.0
 70
     8
 71
     3
 72
    20
 73
    16
 74
     0
 42
0.00000001
 43
0.00000001
 12
1.0
 22
0.0
 32
0.0
 13
1.0
 23
0.0
 33
0.0
 40
0.0
 40
0.0
 40
0.0
 40
0.0
 40
0.1249788024373204
 40
0.2501828332585156
 40
0.4991663214718849
 40
0.5616727532136218
 40
0.5928443025394075
 40
0.6239379179519762
 40
0.6951621252714584
 40
0.7488574676803563
 40
0.7816251795609848
 40
0.830731885080342
 40
0.891899263731169
 40
0.9535183949157569
 40
1.0
 40
1.0
 40
1.0
 40
1.0
 10
340.9561506983558
 20
59.89180630218006
 30
0.0
 10
340.9449868559641
 20
59.88718204584024
 30
0.0
 10
340.9226390524554
 20
59.87792519963714
 30
0.0
 10
340.8813590060914
 20
59.85235744679686
 30
0.0
 10
340.849762673179
 20
59.82272629050449
 30
0.0
 10
340.8300044844179
 20
59.79544181323615
 30
0.0
 10
340.8233870820179
 20
59.78509169014764
 30
0.0
 10
340.8167463205369
 20
59.77373246118686
 30
0.0
 10
340.8098811738029
 20
59.75991103285355
 30
0.0
 10
340.8041043899809
 20
59.74540185304286
 30
0.0
 10
340.7998482600776
 20
59.73265791348698
 30
0.0
 10
340.7960796238521
 20
59.71896786024386
 30
0.0
 10
340.7928028597879
 20
59.70219775767336
 30
0.0
 10
340.7909322160806
 20
59.68544735192109
 30
0.0
 10
340.7907266275197
 20
59.6746974863675
 30
0.0
 10
340.7906382276935
 20
59.67007521437736
 30
0.0
  0
SPLINE
  5
2E8
330
1F
100
AcDbEntity
  8
0
  6
Continuous
 62
     7
370
    15
100
AcDbSpline
210
0.0
220
0.0
230
1.0
 70
     8
 71
     3
 72
    19
 73
    15
 74
     0
 42
0.00000001
 43
0.00000001
 12
1.0
 22
0.0
 32
0.0
 13
1.0
 23
0.0
 33
0.0
 40
0.0
 40
0.0
 40
0.0
 40
0.0
 40
0.0508665406097119
 40
0.1013760161055711
 40
0.1515284848924873
 40
0.2013240066324329
 40
0.2507626422805291
 40
0.3769763785398034
 40
0.5011791328985725
 40
0.6270076606964012
 40
0.7510049381514808
 40
0.8347471869793519
 40
0.917745383588796
 40
1.0
 40
1.0
 40
1.0
 40
1.0
 10
357.6369243118721
 20
66.51457677162696
 30
0.0
 10
357.3637540820119
 20
66.39882086105388
 30
0.0
 10
356.8193311806323
 20
66.16812160543492
 30
0.0
 10
356.0014126737149
 20
65.82449412297876
 30
0.0
 10
355.1863325416377
 20
65.48418835167955
 30
0.0
 10
354.373899118642
 20
65.1472883546079
 30
0.0
 10
353.1432706417901
 20
64.64032849348925
 30
0.0
 10
351.4958317237878
 20
63.96960025246612
 30
0.0
 10
349.4104623539502
 20
63.13469450253985
 30
0.0
 10
347.319919548039
 20
62.31169485821325
 30
0.0
 10
345.4406737308823
 20
61.58419636423299
 30
0.0
 10
343.79226987265
 20
60.9551358416044
 30
0.0
 10
342.3741012199454
 20
60.41962051514484
 30
0.0
 10
341.4273809014699
 20
60.06721580695113
 30
0.0
 10
340.9561506983558
 20
59.89180630218006
 30
0.0
  0
SPLINE
  5
2E9
330
1F
100
AcDbEntity
  8
0
  6
Continuous
 62
     7
370
    15
100
AcDbSpline
210
0.0
220
0.0
230
1.0
 70
     8
 71
     3
 72
    31
 73
    27
 74
     0
 42
0.00000001
 43
0.00000001
 12
1.0
 22
0.0
 32
0.0
 13
1.0
 23
0.0
 33
0.0
 40
0.0
 40
0.0
 40
0.0
 40
0.0
 40
0.0077888198876474
 40
0.0116869802036604
 40
0.0155874609839364
 40
0.0312094447351653
 40
0.0437272204548441
 40
0.0625262907357968
 40
0.0768601382346414
 40
0.0854617302997017
 40
0.098361448957572
 40
0.1091058105305885
 40
0.1252056762632215
 40
0.1408313831654305
 40
0.1564215907895413
 40
0.1876380216855807
 40
0.2502830382061221
 40
0.3750655843481145
 40
0.437733491655578
 40
0.5001579734696581
 40
0.5627521539298712
 40
0.625347759017523
 40
0.7501131969869126
 40
0.8748517544054883
 40
0.9375034102827764
 40
1.0
 40
1.0
 40
1.0
 40
1.0
 10
357.9602295583072
 20
66.29284568382425
 30
0.0
 10
357.9602239657914
 20
66.2941178313156
 30
0.0
 10
357.9602155743249
 20
66.29602666510068
 30
0.0
 10
357.9601635389541
 20
66.29857195139708
 30
0.0
 10
357.9600579199707
 20
66.30239542671038
 30
0.0
 10
357.9598094633059
 20
66.30762262287811
 30
0.0
 10
357.9592322881402
 20
66.31526352984277
 30
0.0
 10
357.9584418091873
 20
66.32267112659775
 30
0.0
 10
357.9575008800942
 20
66.32940982818312
 30
0.0
 10
357.9565642808243
 20
66.33517191037114
 30
0.0
 10
357.9556133425353
 20
66.34033473336089
 30
0.0
 10
357.9542955018962
 20
66.34666317548663
 30
0.0
 10
357.9527108069151
 20
66.35337941886773
 30
0.0
 10
357.9507135903714
 20
66.36079126456363
 30
0.0
 10
357.9477777331397
 20
66.37046709808723
 30
0.0
 10
357.9418365396922
 20
66.38712607846197
 30
0.0
 10
357.927020639382
 20
66.41901380480151
 30
0.0
 10
357.9037192096234
 20
66.45152668541563
 30
0.0
 10
357.8756659826456
 20
66.47842263816975
 30
0.0
 10
357.8525190796794
 20
66.4957171999417
 30
0.0
 10
357.8276671747263
 20
66.5098416821619
 30
0.0
 10
357.7928398882269
 20
66.52440723518075
 30
0.0
 10
357.7468018389348
 20
66.53423341332704
 30
0.0
 10
357.699971257265
 20
66.53255250224876
 30
0.0
 10
357.6633462644508
 20
66.52467967188797
 30
0.0
 10
357.6457243511969
 20
66.51794162209842
 30
0.0
 10
357.6369243118721
 20
66.51457677162696
 30
0.0
  0
LINE
  5
2EA
330
1F
100
AcDbEntity
  8
0
  6
Continuous
 62
     7
370
    15
100
AcDbLine
 10
357.9602284323
 20
61.6169117099
 30
0.0
 11
357.9602284323
 21
66.2928458011
 31
0.0
  0
SPLINE
  5
2EB
330
1F
100
AcDbEntity
  8
0
  6
Continuous
 62
     7
370
    15
100
AcDbSpline
210
0.0
220
0.0
230
1.0
 70
     8
 71
     3
 72
    20
 73
    16
 74
     0
 42
0.00000001
 43
0.00000001
 12
1.0
 22
0.0
 32
0.0
 13
1.0
 23
0.0
 33
0.0
 40
0.0
 40
0.0
 40
0.0
 40
0.0
 40
0.1248373376559766
 40
0.2498800959417884
 40
0.3744221221105526
 40
0.4994634234191474
 40
0.5244618272941103
 40
0.5618890660515525
 40
0.6240953061537501
 40
0.695479482775035
 40
0.7491507758843331
 40
0.830812730785605
 40
0.8919492388703195
 40
0.9536999243024777
 40
1.0
 40
1.0
 40
1.0
 40
1.0
 10
357.8159931622927
 20
61.3951802907584
 30
0.0
 10
357.8260762369615
 20
61.39998628906118
 30
0.0
 10
357.8462589780623
 20
61.40960619396741
 30
0.0
 10
357.8738782062812
 20
61.42958432720226
 30
0.0
 10
357.8987671710202
 20
61.45340108035403
 30
0.0
 10
357.9144700697154
 20
61.47367538395358
 30
0.0
 10
357.9239952002441
 20
61.48843484624759
 30
0.0
 10
357.929987818762
 20
61.49850625454143
 30
0.0
 10
357.9374190116387
 20
61.5128685975185
 30
0.0
 10
357.9443210640258
 20
61.52929981974603
 30
0.0
 10
357.9506360481818
 20
61.54801332786919
 30
0.0
 10
357.9552733579916
 20
61.56631461065154
 30
0.0
 10
357.9584578595233
 20
61.58575438005298
 30
0.0
 10
357.9599892148541
 20
61.60201687122703
 30
0.0
 10
357.96015746333
 20
61.61244352577054
 30
0.0
 10
357.9602295583072
 20
61.61691137856111
 30
0.0
  0
SPLINE
  5
2EC
330
1F
100
AcDbEntity
  8
0
  6
Continuous
 62
     7
370
    15
100
AcDbSpline
210
0.0
220
0.0
230
1.0
 70
     8
 71
     3
 72
    14
 73
    10
 74
     0
 42
0.00000001
 43
0.00000001
 12
1.0
 22
0.0
 32
0.0
 13
1.0
 23
0.0
 33
0.0
 40
0.0
 40
0.0
 40
0.0
 40
0.0
 40
0.25
 40
0.25
 40
0.5
 40
0.5
 40
0.75
 40
0.75
 40
1.0
 40
1.0
 40
1.0
 40
1.0
 10
345.8559977894046
 20
56.55033931517053
 30
0.0
 10
345.8116025376622
 20
56.53320970752465
 30
0.0
 10
345.771879704175
 20
56.50412235410892
 30
0.0
 10
345.7143082456693
 20
56.42724034636075
 30
0.0
 10
345.696943844473
 20
56.37815386173074
 30
0.0
 10
345.6968022454342
 20
56.28000252622585
 30
0.0
 10
345.7138520754916
 20
56.23079798249811
 30
0.0
 10
345.7715509332933
 20
56.15326672144179
 30
0.0
 10
345.8115548736251
 20
56.12402513805733
 30
0.0
 10
345.8559977894046
 20
56.10687713956511
 30
0.0
  0
SPLINE
  5
2ED
330
1F
100
AcDbEntity
  8
0
  6
Continuous
 62
     7
370
    15
100
AcDbSpline
210
0.0
220
0.0
230
1.0
 70
     8
 71
     3
 72
    11
 73
     7
 74
     0
 42
0.00000001
 43
0.00000001
 12
1.0
 22
0.0
 32
0.0
 13
1.0
 23
0.0
 33
0.0
 40
0.0
 40
0.0
 40
0.0
 40
0.0
 40
0.2502224471591231
 40
0.5002831262791815
 40
0.7502022336750225
 40
1.0
 40
1.0
 40
1.0
 40
1.0
 10
349.7794008106646
 20
54.56898803102229
 30
0.0
 10
349.4542892014561
 20
54.69815415678935
 30
0.0
 10
348.80427616669
 20
54.95640290282221
 30
0.0
 10
347.8246855544203
 20
55.34167970088951
 30
0.0
 10
346.8424848951472
 20
55.72538490578251
 30
0.0
 10
346.1847735895782
 20
55.97973364859423
 30
0.0
 10
345.8559977894046
 20
56.10687713956512
 30
0.0
  0
SPLINE
  5
2EE
330
1F
100
AcDbEntity
  8
0
  6
Continuous
 62
     7
370
    15
100
AcDbSpline
210
0.0
220
0.0
230
1.0
 70
     8
 71
     3
 72
    23
 73
    19
 74
     0
 42
0.00000001
 43
0.00000001
 12
1.0
 22
0.0
 32
0.0
 13
1.0
 23
0.0
 33
0.0
 40
0.0
 40
0.0
 40
0.0
 40
0.0
 40
0.0634795960524255
 40
0.0634795960524255
 40
0.0634795960524255
 40
0.2290583593855843
 40
0.2290583593855843
 40
0.2290583593855843
 40
0.4131309431659799
 40
0.4131309431659799
 40
0.4131309431659799
 40
0.6092501334209492
 40
0.6092501334209492
 40
0.6092501334209492
 40
0.8045732488779724
 40
0.8045732488779724
 40
0.8045732488779724
 40
1.0
 40
1.0
 40
1.0
 40
1.0
 10
350.1241168647032
 20
54.790719118825
 30
0.0
 10
350.1241168647032
 20
54.780026341222
 30
0.0
 10
350.1233708613074
 20
54.76930487508114
 30
0.0
 10
350.1218951531921
 20
54.75872799515061
 30
0.0
 10
350.1181025372809
 20
54.73154508363852
 30
0.0
 10
350.1092550806349
 20
54.70473304102201
 30
0.0
 10
350.0964899702572
 20
54.68084216670727
 30
0.0
 10
350.0823219767975
 20
54.65432569007496
 30
0.0
 10
350.0628697255706
 20
54.63047382708721
 30
0.0
 10
350.0405334445228
 20
54.61134585683499
 30
0.0
 10
350.0167293756257
 20
54.59096092700844
 30
0.0
 10
349.9888720632324
 20
54.57519131443379
 30
0.0
 10
349.9598246773377
 20
54.56506317958666
 30
0.0
 10
349.930853529771
 20
54.55496162723716
 30
0.0
 10
349.8998277383297
 20
54.55012402018797
 30
0.0
 10
349.8693353512547
 20
54.55077890463493
 30
0.0
 10
349.8388290741747
 20
54.5514340873973
 30
0.0
 10
349.8079822396521
 20
54.55760711973455
 30
0.0
 10
349.7794008106646
 20
54.56898803102228
 30
0.0
  0
LINE
  5
2EF
330
1F
100
AcDbEntity
  8
0
  6
Continuous
 62
     7
370
    15
100
AcDbLine
 10
350.1241175424
 20
54.7907195693
 30
0.0
 11
350.1241175424
 21
57.8664971224
 31
0.0
  0
SPLINE
  5
2F0
330
1F
100
AcDbEntity
  8
0
  6
Continuous
 62
     7
370
    15
100
AcDbSpline
210
0.0
220
0.0
230
1.0
 70
     8
 71
     3
 72
    23
 73
    19
 74
     0
 42
0.00000001
 43
0.00000001
 12
1.0
 22
0.0
 32
0.0
 13
1.0
 23
0.0
 33
0.0
 40
0.0
 40
0.0
 40
0.0
 40
0.0
 40
0.1879765485128114
 40
0.1879765485128114
 40
0.1879765485128114
 40
0.373422133550014
 40
0.373422133550014
 40
0.373422133550014
 40
0.5433719215628574
 40
0.5433719215628574
 40
0.5433719215628574
 40
0.699250146428267
 40
0.699250146428267
 40
0.699250146428267
 40
0.8494340021312803
 40
0.8494340021312803
 40
0.8494340021312803
 40
1.0
 40
1.0
 40
1.0
 40
1.0
 10
349.7794008106646
 20
58.08822842371335
 30
0.0
 10
349.8068917191196
 20
58.09917509788012
 30
0.0
 10
349.8364633562081
 20
58.10530654330761
 30
0.0
 10
349.8657959968635
 20
58.10633735711396
 30
0.0
 10
349.894746640237
 20
58.10735474669176
 30
0.0
 10
349.924215238062
 20
58.10343499402374
 30
0.0
 10
349.9519950502116
 20
58.09474245371675
 30
0.0
 10
349.9774852394813
 20
58.08676635594954
 30
0.0
 10
350.0021524912995
 20
58.0745786358619
 30
0.0
 10
350.0241516108215
 20
58.05874248677917
 30
0.0
 10
350.0443428683321
 20
58.0442077339776
 30
0.0
 10
350.0627320118995
 20
58.02625821886502
 30
0.0
 10
350.0778146284876
 20
58.00588657783386
 30
0.0
 10
350.0923386826425
 20
57.98626937044588
 30
0.0
 10
350.1041213419478
 20
57.96391952014156
 30
0.0
 10
350.1120176849737
 20
57.94040417665453
 30
0.0
 10
350.1199252770221
 20
57.91685533353019
 30
0.0
 10
350.1241168647032
 20
57.89150383650232
 30
0.0
 10
350.1241168647032
 20
57.86649733591065
 30
0.0
  0
SPLINE
  5
2F1
330
1F
100
AcDbEntity
  8
0
  6
Continuous
 62
     7
370
    15
100
AcDbSpline
210
0.0
220
0.0
230
1.0
 70
     8
 71
     3
 72
    11
 73
     7
 74
     0
 42
0.00000001
 43
0.00000001
 12
1.0
 22
0.0
 32
0.0
 13
1.0
 23
0.0
 33
0.0
 40
0.0
 40
0.0
 40
0.0
 40
0.0
 40
0.2497977663250158
 40
0.4997168737208714
 40
0.7497775528409186
 40
1.0
 40
1.0
 40
1.0
 40
1.0
 10
345.8559977894046
 20
56.5503393151705
 30
0.0
 10
346.1847735895782
 20
56.67748280614143
 30
0.0
 10
346.8424848951473
 20
56.93183154895317
 30
0.0
 10
347.8246855544205
 20
57.31553675384618
 30
0.0
 10
348.8042761666901
 20
57.70081355191347
 30
0.0
 10
349.4542892014562
 20
57.9590622979463
 30
0.0
 10
349.7794008106646
 20
58.08822842371333
 30
0.0
  0
LINE
  5
2F2
330
1F
100
AcDbEntity
  8
0
  6
Continuous
 62
     7
370
    15
100
AcDbLine
 10
339.2908783595
 20
47.4211845255
 30
0.0
 11
341.0586440901
 21
47.4211845255
 31
0.0
  0
LINE
  5
2F3
330
1F
100
AcDbEntity
  8
0
  6
Continuous
 62
     7
370
    15
100
AcDbLine
 10
348.3563480864
 20
55.1311980641
 30
0.0
 11
348.3563480864
 21
57.5260176963
 31
0.0
  0
LINE
  5
2F4
330
1F
100
AcDbEntity
  8
0
  6
Continuous
 62
     7
370
    15
100
AcDbLine
 10
74.9661592732
 20
57.1270148909
 30
0.0
 11
74.9661592732
 21
138.1861280358
 31
0.0
  0
ELLIPSE
  5
2F5
330
1F
100
AcDbEntity
  8
0
  6
Continuous
 62
     7
370
    15
100
AcDbEllipse
 10
164.6404978519
 20
70.7731853879
 30
0.0
 11
147.2243186433545
 21
-5.258016244624741E-13
 31
0.0
210
0.0
220
0.0
230
1.0
 40
0.5773502692
 41
2.221446479231454
 42
2.225721665528934
  0
LINE
  5
2F6
330
1F
100
AcDbEntity
  8
0
  6
Continuous
 62
     7
370
    15
100
AcDbLine
 10
74.9661592732
 20
148.7731869972
 30
0.0
 11
74.9661592732
 21
155.7731862819
 31
0.0
  0
LINE
  5
2F7
330
1F
100
AcDbEntity
  8
0
  6
Continuous
 62
     7
370
    15
100
AcDbLine
 10
103.9661584388
 20
25.9562480903
 30
0.0
 11
103.9661584388
 21
35.7150148308
 31
0.0
  0
LINE
  5
2F8
330
1F
100
AcDbEntity
  8
0
  6
Continuous
 62
     7
370
    15
100
AcDbLine
 10
103.9661584388
 20
45.0225632346
 30
0.0
 11
103.9661584388
 21
155.7731862819
 31
0.0
  0
LINE
  5
2F9
330
1F
100
AcDbEntity
  8
0
  6
Continuous
 62
     7
370
    15
100
AcDbLine
 10
42.4661604653
 20
114.993502543
 30
0.0
 11
42.4661604653
 21
53.2261572486
 31
0.0
  0
LINE
  5
2FA
330
1F
100
AcDbEntity
  8
0
  6
Continuous
 62
     7
370
    15
100
AcDbLine
 10
110.9661577235
 20
107.3269370651
 30
0.0
 11
110.9661577235
 21
38.8639989948
 31
0.0
  0
LINE
  5
2FB
330
1F
100
AcDbEntity
  8
0
  6
Continuous
 62
     7
370
    15
100
AcDbLine
 10
110.9661577235
 20
133.2731853879
 30
0.0
 11
110.9661577235
 21
130.4037432826
 31
0.0
  0
LINE
  5
2FC
330
1F
100
AcDbEntity
  8
0
  6
Continuous
 62
     7
370
    15
100
AcDbLine
 10
128.4661559354
 20
132.8215535438
 30
0.0
 11
128.2914398204
 21
132.8215535438
 31
0.0
  0
LINE
  5
2FD
330
1F
100
AcDbEntity
  8
0
  6
Continuous
 62
     7
370
    15
100
AcDbLine
 10
128.4661559354
 20
132.8215535438
 30
0.0
 11
128.4661559354
 21
8.7248172319
 31
0.0
  0
LINE
  5
2FE
330
1F
100
AcDbEntity
  8
0
  6
Continuous
 62
     7
370
    15
100
AcDbLine
 10
128.2914398204
 20
8.7248172319
 30
0.0
 11
128.4661559354
 21
8.7248172319
 31
0.0
  0
LINE
  5
2FF
330
1F
100
AcDbEntity
  8
0
  6
Continuous
 62
     7
370
    15
100
AcDbLine
 10
493.6408815871
 20
8.7248172319
 30
0.0
 11
493.4661654721
 21
8.7248172319
 31
0.0
  0
LINE
  5
300
330
1F
100
AcDbEntity
  8
0
  6
Continuous
 62
     7
370
    15
100
AcDbLine
 10
493.4661654721
 20
132.8215535438
 30
0.0
 11
493.6408815871
 21
132.8215535438
 31
0.0
  0
LINE
  5
301
330
1F
100
AcDbEntity
  8
0
  6
Continuous
 62
     7
370
    15
100
AcDbLine
 10
493.4661654721
 20
132.8215535438
 30
0.0
 11
493.4661654721
 21
8.7248172319
 31
0.0
  0
LINE
  5
302
330
1F
100
AcDbEntity
  8
0
  6
Continuous
 62
     7
370
    15
100
AcDbLine
 10
537.9661587964
 20
70.7731853879
 30
0.0
 11
537.9661587964
 21
8.2731853879
 31
0.0
  0
LINE
  5
303
330
1F
100
AcDbEntity
  8
0
  6
Continuous
 62
     7
370
    15
100
AcDbLine
 10
537.9661587964
 20
133.2731853879
 30
0.0
 11
537.9661587964
 21
70.7731853879
 31
0.0
  0
LINE
  5
304
330
1F
100
AcDbEntity
  8
0
  6
Continuous
 62
     7
370
    15
100
AcDbLine
 10
42.4661604653
 20
114.993502543
 30
0.0
 11
42.4661604653
 21
116.7623150802
 31
0.0
  0
LINE
  5
305
330
1F
100
AcDbEntity
  8
0
  6
Continuous
 62
     7
370
    15
100
AcDbLine
 10
42.4661604653
 20
123.773184762
 30
0.0
 11
42.4661604653
 21
116.7623150802
 31
0.0
  0
LINE
  5
306
330
1F
100
AcDbEntity
  8
0
  6
Continuous
 62
     7
370
    15
100
AcDbLine
 10
42.4661604653
 20
126.7731871164
 30
0.0
 11
74.9661592732
 21
126.7731871164
 31
0.0
  0
LINE
  5
307
330
1F
100
AcDbEntity
  8
0
  6
Continuous
 62
     7
370
    15
100
AcDbLine
 10
42.4661604653
 20
123.773184762
 30
0.0
 11
42.4661604653
 21
126.7731871164
 31
0.0
  0
LINE
  5
308
330
1F
100
AcDbEntity
  8
0
  6
Continuous
 62
     7
370
    15
100
AcDbLine
 10
110.9661577235
 20
50.4581249958
 30
0.0
 11
103.9661584388
 21
50.4581249958
 31
0.0
  0
LINE
  5
309
330
1F
100
AcDbEntity
  8
0
  6
Continuous
 62
     7
370
    15
100
AcDbLine
 10
110.9661577235
 20
130.4037432826
 30
0.0
 11
103.9661584388
 21
130.4037432826
 31
0.0
  0
LINE
  5
30A
330
1F
100
AcDbEntity
  8
0
  6
Continuous
 62
     7
370
    15
100
AcDbLine
 10
110.9661577235
 20
116.2616062618
 30
0.0
 11
103.9661584388
 21
116.2616062618
 31
0.0
  0
LINE
  5
30B
330
1F
100
AcDbEntity
  8
0
  6
Continuous
 62
     7
370
    15
100
AcDbLine
 10
110.9661577235
 20
130.4037432826
 30
0.0
 11
110.9661577235
 21
116.2616062618
 31
0.0
  0
LINE
  5
30C
330
1F
100
AcDbEntity
  8
0
  6
Continuous
 62
     7
370
    15
100
AcDbLine
 10
110.9661577235
 20
91.0882457799
 30
0.0
 11
103.9661584388
 21
91.0882457799
 31
0.0
  0
LINE
  5
30D
330
1F
100
AcDbEntity
  8
0
  6
Continuous
 62
     7
370
    15
100
AcDbLine
 10
110.9661577235
 20
116.2616062618
 30
0.0
 11
110.9661577235
 21
107.3269370651
 31
0.0
  0
LINE
  5
30E
330
1F
100
AcDbEntity
  8
0
  6
Continuous
 62
     7
370
    15
100
AcDbLine
 10
65.9661559354
 20
148.7731869972
 30
0.0
 11
65.9661559354
 21
126.7731871164
 31
0.0
  0
LINE
  5
30F
330
1F
100
AcDbEntity
  8
0
  6
Continuous
 62
     7
370
    15
100
AcDbLine
 10
65.9661559354
 20
148.7731869972
 30
0.0
 11
75.4661677371
 21
148.7731869972
 31
0.0
  0
LINE
  5
310
330
1F
100
AcDbEntity
  8
0
  6
Continuous
 62
     7
370
    15
100
AcDbLine
 10
75.4661677371
 20
148.7731869972
 30
0.0
 11
75.4661677371
 21
138.406851486
 31
0.0
  0
LINE
  5
311
330
1F
100
AcDbEntity
  8
0
  6
Continuous
 62
     7
370
    15
100
AcDbLine
 10
56.4661590348
 20
148.7731869972
 30
0.0
 11
56.4661590348
 21
126.7731871164
 31
0.0
  0
LINE
  5
312
330
1F
100
AcDbEntity
  8
0
  6
Continuous
 62
     7
370
    15
100
AcDbLine
 10
56.4661590348
 20
148.7731869972
 30
0.0
 11
65.9661559354
 21
148.7731869972
 31
0.0
  0
LINE
  5
313
330
1F
100
AcDbEntity
  8
0
  6
Continuous
 62
     7
370
    15
100
AcDbLine
 10
34.4661740552
 20
28.2382119155
 30
0.0
 11
34.4661740552
 21
33.4330510056
 31
0.0
  0
LINE
  5
314
330
1F
100
AcDbEntity
  8
0
  6
Continuous
 62
     7
370
    15
100
AcDbLine
 10
34.4661740552
 20
49.3327855772
 30
0.0
 11
34.4661740552
 21
114.2731841362
 31
0.0
  0
LINE
  5
315
330
1F
100
AcDbEntity
  8
0
  6
Continuous
 62
     7
370
    15
100
AcDbLine
 10
128.4661559354
 20
63.2731855555
 30
0.0
 11
212.3051254044
 21
63.2731855555
 31
0.0
  0
LINE
  5
316
330
1F
100
AcDbEntity
  8
0
  6
Continuous
 62
     7
370
    15
100
AcDbLine
 10
128.4661559354
 20
78.2731852202
 30
0.0
 11
212.3051254044
 21
78.2731852202
 31
0.0
  0
LINE
  5
317
330
1F
100
AcDbEntity
  8
0
  6
Continuous
 62
     7
370
    15
100
AcDbLine
 10
24.0161685239
 20
64.2731852538
 30
0.0
 11
24.0161685239
 21
77.273185522
 31
0.0
  0
LINE
  5
318
330
1F
100
AcDbEntity
  8
0
  6
Continuous
 62
     7
370
    15
100
AcDbLine
 10
493.4661654721
 20
63.2731855555
 30
0.0
 11
409.627196003
 21
63.2731855555
 31
0.0
  0
LINE
  5
319
330
1F
100
AcDbEntity
  8
0
  6
Continuous
 62
     7
370
    15
100
AcDbLine
 10
493.4661654721
 20
78.2731852202
 30
0.0
 11
409.627196003
 21
78.2731852202
 31
0.0
  0
SPLINE
  5
31A
330
1F
100
AcDbEntity
  8
0
  6
Continuous
 62
     7
370
    15
100
AcDbSpline
210
0.0
220
0.0
230
1.0
 70
     8
 71
     3
 72
     8
 73
     4
 74
     0
 42
0.00000001
 43
0.00000001
 12
1.0
 22
0.0
 32
0.0
 13
1.0
 23
0.0
 33
0.0
 40
0.0
 40
0.0
 40
0.0
 40
0.0
 40
1.0
 40
1.0
 40
1.0
 40
1.0
 10
128.4661607037459
 20
109.198079662287
 30
0.0
 10
133.7570474780331
 20
106.08574044247
 30
0.0
 10
139.0425780579725
 20
102.9640830058509
 30
0.0
 10
144.314425593001
 20
99.8205604844273
 30
0.0
  0
LINE
  5
31B
330
1F
100
AcDbEntity
  8
0
  6
Continuous
 62
     7
370
    15
100
AcDbLine
 10
144.3144200335
 20
99.8205609328
 30
0.0
 11
144.3144200335
 21
78.2731852202
 31
0.0
  0
SPLINE
  5
31C
330
1F
100
AcDbEntity
  8
0
  6
Continuous
 62
     7
370
    15
100
AcDbSpline
210
0.0
220
0.0
230
1.0
 70
     8
 71
     3
 72
    10
 73
     6
 74
     0
 42
0.00000001
 43
0.00000001
 12
1.0
 22
0.0
 32
0.0
 13
1.0
 23
0.0
 33
0.0
 40
0.0
 40
0.0
 40
0.0
 40
0.0
 40
0.5
 40
0.5
 40
1.0
 40
1.0
 40
1.0
 40
1.0
 10
128.4661607037459
 20
97.26007188502642
 30
0.0
 10
128.6350072798271
 20
97.5867399696179
 30
0.0
 10
128.7258782970339
 20
97.94818453142537
 30
0.0
 10
128.7260582198027
 20
98.75132841862398
 30
0.0
 10
128.6350237546372
 20
99.1706182526974
 30
0.0
 10
128.4661607037459
 20
99.60315839664989
 30
0.0
  0
LINE
  5
31D
330
1F
100
AcDbEntity
  8
0
  6
Continuous
 62
     7
370
    15
100
AcDbLine
 10
477.617901374
 20
78.2731852202
 30
0.0
 11
477.617901374
 21
99.8205609328
 31
0.0
  0
SPLINE
  5
31E
330
1F
100
AcDbEntity
  8
0
  6
Continuous
 62
     7
370
    15
100
AcDbSpline
210
0.0
220
0.0
230
1.0
 70
     8
 71
     3
 72
     8
 73
     4
 74
     0
 42
0.00000001
 43
0.00000001
 12
1.0
 22
0.0
 32
0.0
 13
1.0
 23
0.0
 33
0.0
 40
0.0
 40
0.0
 40
0.0
 40
0.0
 40
1.0
 40
1.0
 40
1.0
 40
1.0
 10
477.6178958144907
 20
99.82056048442728
 30
0.0
 10
482.8900201031712
 20
102.9642480298453
 30
0.0
 10
488.1754135365484
 20
106.0858225656829
 30
0.0
 10
493.4661607037458
 20
109.1980796622871
 30
0.0
  0
SPLINE
  5
31F
330
1F
100
AcDbEntity
  8
0
  6
Continuous
 62
     7
370
    15
100
AcDbSpline
210
0.0
220
0.0
230
1.0
 70
     8
 71
     3
 72
    10
 73
     6
 74
     0
 42
0.00000001
 43
0.00000001
 12
1.0
 22
0.0
 32
0.0
 13
1.0
 23
0.0
 33
0.0
 40
0.0
 40
0.0
 40
0.0
 40
0.0
 40
0.5
 40
0.5
 40
1.0
 40
1.0
 40
1.0
 40
1.0
 10
493.4661607037458
 20
97.26007188502642
 30
0.0
 10
493.2973141276647
 20
97.5867399696179
 30
0.0
 10
493.2064431104579
 20
97.94818453142537
 30
0.0
 10
493.206263187689
 20
98.75132841862398
 30
0.0
 10
493.2972976528545
 20
99.1706182526974
 30
0.0
 10
493.4661607037458
 20
99.60315839664989
 30
0.0
  0
LINE
  5
320
330
1F
100
AcDbEntity
  8
0
  6
Continuous
 62
     7
370
    15
100
AcDbLine
 10
144.3144200335
 20
63.2731855555
 30
0.0
 11
144.3144200335
 21
41.725809843
 31
0.0
  0
SPLINE
  5
321
330
1F
100
AcDbEntity
  8
0
  6
Continuous
 62
     7
370
    15
100
AcDbSpline
210
0.0
220
0.0
230
1.0
 70
     8
 71
     3
 72
     8
 73
     4
 74
     0
 42
0.00000001
 43
0.00000001
 12
1.0
 22
0.0
 32
0.0
 13
1.0
 23
0.0
 33
0.0
 40
0.0
 40
0.0
 40
0.0
 40
0.0
 40
1.0
 40
1.0
 40
1.0
 40
1.0
 10
144.314425593001
 20
41.72581029131606
 30
0.0
 10
139.042354364059
 20
38.58215438461329
 30
0.0
 10
133.7569543635088
 20
35.46057555909302
 30
0.0
 10
128.4661607037459
 20
32.3482911134563
 30
0.0
  0
SPLINE
  5
322
330
1F
100
AcDbEntity
  8
0
  6
Continuous
 62
     7
370
    15
100
AcDbSpline
210
0.0
220
0.0
230
1.0
 70
     8
 71
     3
 72
    10
 73
     6
 74
     0
 42
0.00000001
 43
0.00000001
 12
1.0
 22
0.0
 32
0.0
 13
1.0
 23
0.0
 33
0.0
 40
0.0
 40
0.0
 40
0.0
 40
0.0
 40
0.5
 40
0.5
 40
1.0
 40
1.0
 40
1.0
 40
1.0
 10
128.4661607037459
 20
41.94321237909403
 30
0.0
 10
128.6350072798271
 20
42.37571032306995
 30
0.0
 10
128.7258782970339
 20
42.79379938731075
 30
0.0
 10
128.7260582198027
 20
43.59705561464075
 30
0.0
 10
128.6350237546372
 20
43.95959893225078
 30
0.0
 10
128.4661607037459
 20
44.28629889071756
 30
0.0
  0
SPLINE
  5
323
330
1F
100
AcDbEntity
  8
0
  6
Continuous
 62
     7
370
    15
100
AcDbSpline
210
0.0
220
0.0
230
1.0
 70
     8
 71
     3
 72
     8
 73
     4
 74
     0
 42
0.00000001
 43
0.00000001
 12
1.0
 22
0.0
 32
0.0
 13
1.0
 23
0.0
 33
0.0
 40
0.0
 40
0.0
 40
0.0
 40
0.0
 40
1.0
 40
1.0
 40
1.0
 40
1.0
 10
493.4661607037458
 20
32.3482911134563
 30
0.0
 10
488.1754007931496
 20
35.46055570630474
 30
0.0
 10
482.8898870583862
 20
38.58220207848029
 30
0.0
 10
477.6178958144907
 20
41.72581029131605
 30
0.0
  0
LINE
  5
324
330
1F
100
AcDbEntity
  8
0
  6
Continuous
 62
     7
370
    15
100
AcDbLine
 10
477.617901374
 20
41.725809843
 30
0.0
 11
477.617901374
 21
63.2731855555
 31
0.0
  0
SPLINE
  5
325
330
1F
100
AcDbEntity
  8
0
  6
Continuous
 62
     7
370
    15
100
AcDbSpline
210
0.0
220
0.0
230
1.0
 70
     8
 71
     3
 72
    10
 73
     6
 74
     0
 42
0.00000001
 43
0.00000001
 12
1.0
 22
0.0
 32
0.0
 13
1.0
 23
0.0
 33
0.0
 40
0.0
 40
0.0
 40
0.0
 40
0.0
 40
0.5
 40
0.5
 40
1.0
 40
1.0
 40
1.0
 40
1.0
 10
493.4661607037458
 20
41.94321237909403
 30
0.0
 10
493.2973141276647
 20
42.37571032306995
 30
0.0
 10
493.2064431104579
 20
42.79379938731075
 30
0.0
 10
493.206263187689
 20
43.59705561464075
 30
0.0
 10
493.2972976528545
 20
43.95959893225078
 30
0.0
 10
493.4661607037458
 20
44.28629889071756
 30
0.0
  0
LINE
  5
326
330
1F
100
AcDbEntity
  8
0
  6
Continuous
 62
     7
370
    15
100
AcDbLine
 10
419.7503520142
 20
99.8205609328
 30
0.0
 11
477.617901374
 21
99.8205609328
 31
0.0
  0
LINE
  5
327
330
1F
100
AcDbEntity
  8
0
  6
Continuous
 62
     7
370
    15
100
AcDbLine
 10
144.3144200335
 20
99.8205609328
 30
0.0
 11
202.1819693933
 21
99.8205609328
 31
0.0
  0
LINE
  5
328
330
1F
100
AcDbEntity
  8
0
  6
Continuous
 62
     7
370
    15
100
AcDbLine
 10
202.1819693933
 20
41.725809843
 30
0.0
 11
144.3144200335
 21
41.725809843
 31
0.0
  0
LINE
  5
329
330
1F
100
AcDbEntity
  8
0
  6
Continuous
 62
     7
370
    15
100
AcDbLine
 10
477.617901374
 20
41.725809843
 30
0.0
 11
419.7503520142
 21
41.725809843
 31
0.0
  0
LINE
  5
32A
330
1F
100
AcDbEntity
  8
0
  6
Continuous
 62
     7
370
    15
100
AcDbLine
 10
141.4263365756
 20
166.7725603736
 30
0.0
 11
128.2914398204
 21
132.8215535438
 31
0.0
  0
CIRCLE
  5
32B
330
1F
100
AcDbEntity
  8
0
  6
Continuous
 62
     7
370
    15
100
AcDbCircle
 10
160.9661607037
 20
128.7731853879
 30
0.0
 40
18.1561649764444
  0
LINE
  5
32C
330
1F
100
AcDbEntity
  8
0
  6
Continuous
 62
     7
370
    15
100
AcDbLine
 10
480.5059848319
 20
166.7725603736
 30
0.0
 11
493.6408815871
 21
132.8215535438
 31
0.0
  0
CIRCLE
  5
32D
330
1F
100
AcDbEntity
  8
0
  6
Continuous
 62
     7
370
    15
100
AcDbCircle
 10
460.9661607037
 20
128.7731853879
 30
0.0
 40
18.1561649764444
  0
CIRCLE
  5
32E
330
1F
100
AcDbEntity
  8
0
  6
Continuous
 62
     7
370
    15
100
AcDbCircle
 10
460.9661607037
 20
128.7731853879
 30
0.0
 40
17.50000000000001
  0
CIRCLE
  5
32F
330
1F
100
AcDbEntity
  8
0
  6
Continuous
 62
     7
370
    15
100
AcDbCircle
 10
160.9661607037
 20
128.7731853879
 30
0.0
 40
17.50000000000001
  0
LINE
  5
330
330
1F
100
AcDbEntity
  8
0
  6
Continuous
 62
     7
370
    15
100
AcDbLine
 10
480.5059848319
 20
-25.2261895978
 30
0.0
 11
493.6408815871
 21
8.7248172319
 31
0.0
  0
CIRCLE
  5
331
330
1F
100
AcDbEntity
  8
0
  6
Continuous
 62
     7
370
    15
100
AcDbCircle
 10
460.9661607037
 20
12.7731853879
 30
0.0
 40
18.1561649764444
  0
LINE
  5
332
330
1F
100
AcDbEntity
  8
0
  6
Continuous
 62
     7
370
    15
100
AcDbLine
 10
141.4263365756
 20
-25.2261895978
 30
0.0
 11
128.2914398204
 21
8.7248172319
 31
0.0
  0
CIRCLE
  5
333
330
1F
100
AcDbEntity
  8
0
  6
Continuous
 62
     7
370
    15
100
AcDbCircle
 10
160.9661607037
 20
12.7731853879
 30
0.0
 40
18.1561649764444
  0
CIRCLE
  5
334
330
1F
100
AcDbEntity
  8
0
  6
Continuous
 62
     7
370
    15
100
AcDbCircle
 10
160.9661607037
 20
12.7731853879
 30
0.0
 40
17.50000000000001
  0
CIRCLE
  5
335
330
1F
100
AcDbEntity
  8
0
  6
Continuous
 62
     7
370
    15
100
AcDbCircle
 10
460.9661607037
 20
12.7731853879
 30
0.0
 40
17.50000000000001
  0
LINE
  5
336
330
1F
100
AcDbEntity
  8
0
  6
Continuous
 62
     7
370
    15
100
AcDbLine
 10
24.0161685239
 20
100.2731855667
 30
0.0
 11
24.0161685239
 21
113.2731858349
 31
0.0
  0
LINE
  5
337
330
1F
100
AcDbEntity
  8
0
  6
Continuous
 62
     8
370
     0
100
AcDbLine
 10
331.4518636058
 20
77.4855484894
 30
0.0
 11
333.2196311991
 21
77.4855484894
 31
0.0
  0
LINE
  5
338
330
1F
100
AcDbEntity
  8
0
  6
Continuous
 62
     8
370
     0
100
AcDbLine
 10
331.4518636058
 20
95.1811849779
 30
0.0
 11
333.2196311991
 21
95.1811849779
 31
0.0
  0
LINE
  5
339
330
1F
100
AcDbEntity
  8
0
  6
Continuous
 62
     8
370
     0
100
AcDbLine
 10
331.627743874
 20
77.2638173482
 30
0.0
 11
333.3955096047
 21
77.2638173482
 31
0.0
  0
LINE
  5
33A
330
1F
100
AcDbEntity
  8
0
  6
Continuous
 62
     8
370
     0
100
AcDbLine
 10
331.4518636058
 20
47.6611844903
 30
0.0
 11
333.2196311991
 21
47.6611844903
 31
0.0
  0
LINE
  5
33B
330
1F
100
AcDbEntity
  8
0
  6
Continuous
 62
     8
370
     0
100
AcDbLine
 10
331.4518636058
 20
64.0608222863
 30
0.0
 11
333.2196311991
 21
64.0608222863
 31
0.0
  0
LINE
  5
33C
330
1F
100
AcDbEntity
  8
0
  6
Continuous
 62
     8
370
     0
100
AcDbLine
 10
331.627743874
 20
64.2825534275
 30
0.0
 11
333.3955096047
 21
64.2825534275
 31
0.0
  0
LINE
  5
33D
330
1F
100
AcDbEntity
  8
0
  6
Continuous
 62
     8
370
     0
100
AcDbLine
 10
348.4005561064
 20
70.9949164709
 30
0.0
 11
350.168321837
 21
70.9949164709
 31
0.0
  0
LINE
  5
33E
330
1F
100
AcDbEntity
  8
0
  6
Continuous
 62
     8
370
     0
100
AcDbLine
 10
348.4005561064
 20
70.5514543049
 30
0.0
 11
350.168321837
 21
70.5514543049
 31
0.0
  0
LINE
  5
33F
330
1F
100
AcDbEntity
  8
0
  6
Continuous
 62
     8
370
     0
100
AcDbLine
 10
339.0228716622
 20
81.8762957758
 30
0.0
 11
340.7906373928
 21
81.8762957758
 31
0.0
  0
LINE
  5
340
330
1F
100
AcDbEntity
  8
0
  6
Continuous
 62
     8
370
     0
100
AcDbLine
 10
339.0228716622
 20
86.552229867
 30
0.0
 11
340.7906373928
 21
86.552229867
 31
0.0
  0
LINE
  5
341
330
1F
100
AcDbEntity
  8
0
  6
Continuous
 62
     8
370
     0
100
AcDbLine
 10
339.1883844475
 20
81.6545646346
 30
0.0
 11
340.9561501782
 21
81.6545646346
 31
0.0
  0
LINE
  5
342
330
1F
100
AcDbEntity
  8
0
  6
Continuous
 62
     8
370
     0
100
AcDbLine
 10
339.0228716622
 20
90.6173243827
 30
0.0
 11
340.7906373928
 21
90.6173243827
 31
0.0
  0
LINE
  5
343
330
1F
100
AcDbEntity
  8
0
  6
Continuous
 62
     8
370
     0
100
AcDbLine
 10
339.0228716622
 20
95.1811849779
 30
0.0
 11
340.7906373928
 21
95.1811849779
 31
0.0
  0
LINE
  5
344
330
1F
100
AcDbEntity
  8
0
  6
Continuous
 62
     8
370
     0
100
AcDbLine
 10
339.0228716622
 20
47.6611844903
 30
0.0
 11
340.7906373928
 21
47.6611844903
 31
0.0
  0
LINE
  5
345
330
1F
100
AcDbEntity
  8
0
  6
Continuous
 62
     8
370
     0
100
AcDbLine
 10
339.0228716622
 20
59.670075
 30
0.0
 11
340.7906373928
 21
59.670075
 31
0.0
  0
LINE
  5
346
330
1F
100
AcDbEntity
  8
0
  6
Continuous
 62
     8
370
     0
100
AcDbLine
 10
339.1883844475
 20
59.8918061412
 30
0.0
 11
340.9561501782
 21
59.8918061412
 31
0.0
  0
LINE
  5
347
330
1F
100
AcDbEntity
  8
0
  6
Continuous
 62
     8
370
     0
100
AcDbLine
 10
355.8691559325
 20
75.0317938334
 30
0.0
 11
357.6369253884
 21
75.0317938334
 31
0.0
  0
LINE
  5
348
330
1F
100
AcDbEntity
  8
0
  6
Continuous
 62
     8
370
     0
100
AcDbLine
 10
355.8691559325
 20
66.5145769423
 30
0.0
 11
357.6369253884
 21
66.5145769423
 31
0.0
  0
LINE
  5
349
330
1F
100
AcDbEntity
  8
0
  6
Continuous
 62
     8
370
     0
100
AcDbLine
 10
346.1237033795
 20
84.8907410807
 30
0.0
 11
347.0292655717
 21
84.8907410807
 31
0.0
  0
LINE
  5
34A
330
1F
100
AcDbEntity
  8
0
  6
Continuous
 62
     8
370
     0
100
AcDbLine
 10
346.2072318386
 20
50.701099605
 30
0.0
 11
346.3998405229
 21
50.701099605
 31
0.0
  0
LINE
  5
34B
330
1F
100
AcDbEntity
  8
0
  6
Continuous
 62
     8
370
     0
100
AcDbLine
 10
355.8691559325
 20
46.142638818
 30
0.0
 11
357.6369253884
 21
46.142638818
 31
0.0
  0
LINE
  5
34C
330
1F
100
AcDbEntity
  8
0
  6
Continuous
 62
     8
370
     0
100
AcDbLine
 10
349.2181604694
 20
57.8664971224
 30
0.0
 11
350.1241175424
 21
57.8664971224
 31
0.0
  0
LINE
  5
34D
330
1F
100
AcDbEntity
  8
0
  6
Continuous
 62
     8
370
     0
100
AcDbLine
 10
349.2181604694
 20
54.7907195693
 30
0.0
 11
350.1241175424
 21
54.7907195693
 31
0.0
  0
LINE
  5
34E
330
1F
100
AcDbEntity
  8
0
  6
Continuous
 62
     8
370
     0
100
AcDbLine
 10
350.9074604104
 20
88.6256910569
 30
0.0
 11
351.1710023473
 21
88.6256910569
 31
0.0
  0
LINE
  5
34F
330
1F
100
AcDbEntity
  8
0
  6
Continuous
 62
     8
370
     0
100
AcDbLine
 10
355.8329498361
 20
92.7141375548
 30
0.0
 11
357.6007155667
 21
92.7141375548
 31
0.0
  0
LINE
  5
350
330
1F
100
AcDbEntity
  8
0
  6
Continuous
 62
     8
370
     0
100
AcDbLine
 10
74.9661592732
 20
114.993502543
 30
0.0
 11
42.4661604653
 21
114.993502543
 31
0.0
  0
LINE
  5
351
330
1F
100
AcDbEntity
  8
0
  6
Continuous
 62
     8
370
     0
100
AcDbLine
 10
42.4661604653
 20
116.7623150802
 30
0.0
 11
74.9661592732
 21
116.7623150802
 31
0.0
  0
LINE
  5
352
330
1F
100
AcDbEntity
  8
0
  6
Continuous
 62
     8
370
     0
100
AcDbLine
 10
74.9661592732
 20
123.773184762
 30
0.0
 11
42.4661604653
 21
123.773184762
 31
0.0
  0
INSERT
  5
35E
330
1F
100
AcDbEntity
  8
FORMAT
 62
     7
100
AcDbBlockReference
  2
SW_CENTERMARKSYMBOL_5
 10
160.9661607037
 20
12.7731853879
 30
0.0
  0
INSERT
  5
36A
330
1F
100
AcDbEntity
  8
FORMAT
 62
     7
100
AcDbBlockReference
  2
SW_CENTERMARKSYMBOL_6
 10
160.9661607037
 20
128.7731853879
 30
0.0
  0
INSERT
  5
376
330
1F
100
AcDbEntity
  8
FORMAT
 62
     7
100
AcDbBlockReference
  2
SW_CENTERMARKSYMBOL_7
 10
460.9661607037
 20
12.7731853879
 30
0.0
  0
INSERT
  5
382
330
1F
100
AcDbEntity
  8
FORMAT
 62
     7
100
AcDbBlockReference
  2
SW_CENTERMARKSYMBOL_8
 10
460.9661607037
 20
128.7731853879
 30
0.0
  0
INSERT
  5
38E
330
1F
100
AcDbEntity
  8
FORMAT
 62
     7
100
AcDbBlockReference
  2
SW_CENTERMARKSYMBOL_9
 10
310.9661607037
 20
70.7731853879
 30
0.0
  0
INSERT
  5
3B6
330
1F
100
AcDbEntity
  8
FORMAT
 62
     7
100
AcDbBlockReference
  2
SW_CENTERMARKSYMBOL_10
 10
102.0286065443
 20
30.8356312284
 30
0.0
  0
ENDSEC
  0
SECTION
  2
OBJECTS
  0
DICTIONARY
  5
C
330
0
100
AcDbDictionary
281
     1
  3
ACAD_GROUP
350
D
  3
ACAD_LAYOUT
350
1A
  3
ACAD_MLINESTYLE
350
17
  3
ACAD_PLOTSETTINGS
350
19
  3
ACAD_PLOTSTYLENAME
350
E
  0
DICTIONARY
  5
D
102
{ACAD_REACTORS
330
C
102
}
330
C
100
AcDbDictionary
281
     1
  0
DICTIONARY
  5
1A
102
{ACAD_REACTORS
330
C
102
}
330
C
100
AcDbDictionary
281
     1
  3
Layout1
350
1E
  3
Layout2
350
26
  3
Model
350
22
  0
DICTIONARY
  5
17
102
{ACAD_REACTORS
330
C
102
}
330
C
100
AcDbDictionary
281
     1
  3
Standard
350
18
  0
DICTIONARY
  5
19
102
{ACAD_REACTORS
330
C
102
}
330
C
100
AcDbDictionary
281
     1
  0
ACDBDICTIONARYWDFLT
  5
E
102
{ACAD_REACTORS
330
C
102
}
330
C
100
AcDbDictionary
281
     1
  3
Normal
350
F
100
AcDbDictionaryWithDefault
340
F
  0
LAYOUT
  5
1E
102
{ACAD_REACTORS
330
1A
102
}
330
1A
100
AcDbPlotSettings
  1

  2
none_device
  4

  6

 40
0.0
 41
0.0
 42
0.0
 43
0.0
 44
0.0
 45
0.0
 46
0.0
 47
0.0
 48
0.0
 49
0.0
140
0.0
141
0.0
142
1.0
143
1.0
 70
   688
 72
     0
 73
     0
 74
     5
  7

 75
    16
147
1.0
148
0.0
149
0.0
100
AcDbLayout
  1
Layout1
 70
     1
 71
     1
 10
0.0
 20
0.0
 11
420.0
 21
297.0
 12
0.0
 22
0.0
 32
0.0
 14
1.0000000000E+20
 24
1.0000000000E+20
 34
1.0000000000E+20
 15
-1.0000000000E+20
 25
-1.0000000000E+20
 35
-1.0000000000E+20
146
0.0
 13
0.0
 23
0.0
 33
0.0
 16
1.0
 26
0.0
 36
0.0
 17
0.0
 27
1.0
 37
0.0
 76
     0
330
1B
  0
LAYOUT
  5
26
102
{ACAD_REACTORS
330
1A
102
}
330
1A
100
AcDbPlotSettings
  1

  2
none_device
  4

  6

 40
0.0
 41
0.0
 42
0.0
 43
0.0
 44
0.0
 45
0.0
 46
0.0
 47
0.0
 48
0.0
 49
0.0
140
0.0
141
0.0
142
1.0
143
1.0
 70
   688
 72
     0
 73
     0
 74
     5
  7

 75
    16
147
1.0
148
0.0
149
0.0
100
AcDbLayout
  1
Layout2
 70
     1
 71
     2
 10
0.0
 20
0.0
 11
0.0
 21
0.0
 12
0.0
 22
0.0
 32
0.0
 14
0.0
 24
0.0
 34
0.0
 15
0.0
 25
0.0
 35
0.0
146
0.0
 13
0.0
 23
0.0
 33
0.0
 16
1.0
 26
0.0
 36
0.0
 17
0.0
 27
1.0
 37
0.0
 76
     0
330
23
  0
LAYOUT
  5
22
102
{ACAD_REACTORS
330
1A
102
}
330
1A
100
AcDbPlotSettings
  1

  2
none_device
  4

  6

 40
0.0
 41
0.0
 42
0.0
 43
0.0
 44
0.0
 45
0.0
 46
0.0
 47
0.0
 48
0.0
 49
0.0
140
0.0
141
0.0
142
1.0
143
1.0
 70
  1712
 72
     0
 73
     0
 74
     0
  7

 75
     0
147
1.0
148
0.0
149
0.0
100
AcDbLayout
  1
Model
 70
     1
 71
     0
 10
0.0
 20
0.0
 11
841.0
 21
594.0
 12
0.0
 22
0.0
 32
0.0
 14
0.0
 24
0.0
 34
0.0
 15
841.0
 25
594.0
 35
0.0
146
0.0
 13
0.0
 23
0.0
 33
0.0
 16
1.0
 26
0.0
 36
0.0
 17
0.0
 27
1.0
 37
0.0
 76
     0
330
1F
331
29
  0
MLINESTYLE
  5
18
102
{ACAD_REACTORS
330
17
102
}
330
17
100
AcDbMlineStyle
  2
Standard
 70
     0
  3

 62
   256
 51
90.0
 52
90.0
 71
     2
 49
0.5
 62
   256
  6
BYLAYER
 49
-0.5
 62
   256
  6
BYLAYER
  0
ACDBPLACEHOLDER
  5
F
102
{ACAD_REACTORS
330
E
102
}
330
E
  0
ENDSEC
  0
EOF
