  0
SECTION
  2
HEADER
  9
$ACADVER
  1
AC1015
  9
$ACADMAINTVER
 70
     6
  9
$DWGCODEPAGE
  3
ANSI_1252
  9
$INSBASE
 10
0.0
 20
0.0
 30
0.0
  9
$EXTMIN
 10
0.0
 20
0.0
 30
0.0
  9
$EXTMAX
 10
841.0
 20
594.0
 30
0.0
  9
$LIMMIN
 10
0.0
 20
0.0
  9
$LIMMAX
 10
841.0
 20
594.0
  9
$ORTHOMODE
 70
     0
  9
$REGENMODE
 70
     1
  9
$FILLMODE
 70
     1
  9
$QTEXTMODE
 70
     0
  9
$MIRRTEXT
 70
     1
  9
$LTSCALE
 40
1.0
  9
$ATTMODE
 70
     1
  9
$TEXTSIZE
 40
2.5
  9
$TRACEWID
 40
1.0
  9
$TEXTSTYLE
  7
Standard
  9
$CLAYER
  8
0
  9
$CELTYPE
  6
ByLayer
  9
$CECOLOR
 62
   256
  9
$CELTSCALE
 40
1.0
  9
$DISPSILH
 70
     0
  9
$DIMSCALE
 40
1.0
  9
$DIMASZ
 40
2.5
  9
$DIMEXO
 40
1.0
  9
$DIMDLI
 40
3.75
  9
$DIMRND
 40
0.0
  9
$DIMDLE
 40
0.0
  9
$DIMEXE
 40
1.0
  9
$DIMTP
 40
0.0
  9
$DIMTM
 40
0.0
  9
$DIMTXT
 40
2.5
  9
$DIMCEN
 40
2.5
  9
$DIMTSZ
 40
0.0
  9
$DIMTOL
 70
     0
  9
$DIMLIM
 70
     0
  9
$DIMTIH
 70
     1
  9
$DIMTOH
 70
     1
  9
$DIMSE1
 70
     0
  9
$DIMSE2
 70
     0
  9
$DIMTAD
 70
     1
  9
$DIMZIN
 70
     0
  9
$DIMBLK
  1

  9
$DIMASO
 70
     1
  9
$DIMSHO
 70
     1
  9
$DIMPOST
  1

  9
$DIMAPOST
  1

  9
$DIMALT
 70
     0
  9
$DIMALTD
 70
     3
  9
$DIMALTF
 40
0.0393700787
  9
$DIMLFAC
 40
1.0
  9
$DIMTOFL
 70
     1
  9
$DIMTVP
 40
0.0
  9
$DIMTIX
 70
     0
  9
$DIMSOXD
 70
     0
  9
$DIMSAH
 70
     0
  9
$DIMBLK1
  1

  9
$DIMBLK2
  1

  9
$DIMSTYLE
  2
ISO-25
  9
$DIMCLRD
 70
     0
  9
$DIMCLRE
 70
     0
  9
$DIMCLRT
 70
     0
  9
$DIMTFAC
 40
1.0
  9
$DIMGAP
 40
1.524
  9
$DIMJUST
 70
     0
  9
$DIMSD1
 70
     0
  9
$DIMSD2
 70
     0
  9
$DIMTOLJ
 70
     0
  9
$DIMTZIN
 70
     0
  9
$DIMALTZ
 70
     0
  9
$DIMALTTZ
 70
     0
  9
$DIMUPT
 70
     0
  9
$DIMDEC
 70
     2
  9
$DIMTDEC
 70
     2
  9
$DIMALTU
 70
     2
  9
$DIMALTTD
 70
     3
  9
$DIMTXSTY
  7
Standard
  9
$DIMAUNIT
 70
     0
  9
$DIMADEC
 70
     2
  9
$DIMALTRND
 40
0.0
  9
$DIMAZIN
 70
     0
  9
$DIMDSEP
 70
    44
  9
$DIMATFIT
 70
     3
  9
$DIMFRAC
 70
     0
  9
$DIMLDRBLK
  1

  9
$DIMLUNIT
 70
     2
  9
$DIMLWD
 70
    -2
  9
$DIMLWE
 70
    -2
  9
$DIMTMOVE
 70
     0
  9
$LUNITS
 70
     2
  9
$LUPREC
 70
     2
  9
$SKETCHINC
 40
1.0
  9
$FILLETRAD
 40
10.0
  9
$AUNITS
 70
     0
  9
$AUPREC
 70
     2
  9
$MENU
  1
.
  9
$ELEVATION
 40
0.0
  9
$PELEVATION
 40
0.0
  9
$THICKNESS
 40
0.0
  9
$LIMCHECK
 70
     0
  9
$CHAMFERA
 40
10.0
  9
$CHAMFERB
 40
10.0
  9
$CHAMFERC
 40
20.0
  9
$CHAMFERD
 40
0.0
  9
$SKPOLY
 70
     0
  9
$TDCREATE
 40
2457189.590017824
  9
$TDUCREATE
 40
2457189.256684491
  9
$TDUPDATE
 40
2457189.590018727
  9
$TDUUPDATE
 40
2457189.256685393
  9
$TDINDWG
 40
0.0000000116
  9
$TDUSRTIMER
 40
0.0000000116
  9
$USRTIMER
 70
     1
  9
$ANGBASE
 50
0.0
  9
$ANGDIR
 70
     0
  9
$PDMODE
 70
     0
  9
$PDSIZE
 40
-1.0
  9
$PLINEWID
 40
0.0
  9
$SPLFRAME
 70
     0
  9
$SPLINETYPE
 70
     6
  9
$SPLINESEGS
 70
     8
  9
$HANDSEED
  5
3AD
  9
$SURFTAB1
 70
     6
  9
$SURFTAB2
 70
     6
  9
$SURFTYPE
 70
     6
  9
$SURFU
 70
     6
  9
$SURFV
 70
     6
  9
$UCSBASE
  2

  9
$UCSNAME
  2

  9
$UCSORG
 10
0.0
 20
0.0
 30
0.0
  9
$UCSXDIR
 10
1.0
 20
0.0
 30
0.0
  9
$UCSYDIR
 10
0.0
 20
1.0
 30
0.0
  9
$UCSORTHOREF
  2

  9
$UCSORTHOVIEW
 70
     0
  9
$UCSORGTOP
 10
0.0
 20
0.0
 30
0.0
  9
$UCSORGBOTTOM
 10
0.0
 20
0.0
 30
0.0
  9
$UCSORGLEFT
 10
0.0
 20
0.0
 30
0.0
  9
$UCSORGRIGHT
 10
0.0
 20
0.0
 30
0.0
  9
$UCSORGFRONT
 10
0.0
 20
0.0
 30
0.0
  9
$UCSORGBACK
 10
0.0
 20
0.0
 30
0.0
  9
$PUCSBASE
  2

  9
$PUCSNAME
  2

  9
$PUCSORG
 10
0.0
 20
0.0
 30
0.0
  9
$PUCSXDIR
 10
1.0
 20
0.0
 30
0.0
  9
$PUCSYDIR
 10
0.0
 20
1.0
 30
0.0
  9
$PUCSORTHOREF
  2

  9
$PUCSORTHOVIEW
 70
     0
  9
$PUCSORGTOP
 10
0.0
 20
0.0
 30
0.0
  9
$PUCSORGBOTTOM
 10
0.0
 20
0.0
 30
0.0
  9
$PUCSORGLEFT
 10
0.0
 20
0.0
 30
0.0
  9
$PUCSORGRIGHT
 10
0.0
 20
0.0
 30
0.0
  9
$PUCSORGFRONT
 10
0.0
 20
0.0
 30
0.0
  9
$PUCSORGBACK
 10
0.0
 20
0.0
 30
0.0
  9
$USERI1
 70
     0
  9
$USERI2
 70
     0
  9
$USERI3
 70
     0
  9
$USERI4
 70
     0
  9
$USERI5
 70
     0
  9
$USERR1
 40
0.0
  9
$USERR2
 40
0.0
  9
$USERR3
 40
0.0
  9
$USERR4
 40
0.0
  9
$USERR5
 40
0.0
  9
$WORLDVIEW
 70
     1
  9
$SHADEDGE
 70
     3
  9
$SHADEDIF
 70
    70
  9
$TILEMODE
 70
     1
  9
$MAXACTVP
 70
    64
  9
$PINSBASE
 10
0.0
 20
0.0
 30
0.0
  9
$PLIMCHECK
 70
     0
  9
$PEXTMIN
 10
1.0000000000E+20
 20
1.0000000000E+20
 30
1.0000000000E+20
  9
$PEXTMAX
 10
-1.0000000000E+20
 20
-1.0000000000E+20
 30
-1.0000000000E+20
  9
$PLIMMIN
 10
0.0
 20
0.0
  9
$PLIMMAX
 10
420.0
 20
297.0
  9
$UNITMODE
 70
     0
  9
$VISRETAIN
 70
     1
  9
$PLINEGEN
 70
     0
  9
$PSLTSCALE
 70
     1
  9
$TREEDEPTH
 70
  3020
  9
$CMLSTYLE
  2
Standard
  9
$CMLJUST
 70
     0
  9
$CMLSCALE
 40
20.0
  9
$PROXYGRAPHICS
 70
     1
  9
$MEASUREMENT
 70
     1
  9
$CELWEIGHT
370
    -1
  9
$ENDCAPS
280
     0
  9
$JOINSTYLE
280
     0
  9
$LWDISPLAY
290
     1
  9
$INSUNITS
 70
     4
  9
$HYPERLINKBASE
  1

  9
$STYLESHEET
  1

  9
$XEDIT
290
     1
  9
$CEPSNTYPE
380
     0
  9
$PSTYLEMODE
290
     1
  9
$FINGERPRINTGUID
  2
{CAE3B887-074A-4DC9-9D3B-2197339F0F7E}
  9
$VERSIONGUID
  2
{FAEB1C32-E019-11D5-929B-00C0DF256EC4}
  9
$EXTNAMES
290
     1
  9
$PSVPSCALE
 40
0.0
  9
$OLESTARTUP
290
     0
  0
ENDSEC
  0
SECTION
  2
CLASSES
  0
CLASS
  1
ACDBDICTIONARYWDFLT
  2
AcDbDictionaryWithDefault
  3
ObjectDBX Classes
 90
        0
280
     0
281
     0
  0
CLASS
  1
VISUALSTYLE
  2
AcDbVisualStyle
  3
ObjectDBX Classes
 90
     4095
280
     0
281
     0
  0
CLASS
  1
MATERIAL
  2
AcDbMaterial
  3
ObjectDBX Classes
 90
     1153
280
     0
281
     0
  0
CLASS
  1
ACDBPLACEHOLDER
  2
AcDbPlaceHolder
  3
ObjectDBX Classes
 90
        0
280
     0
281
     0
  0
CLASS
  1
LAYOUT
  2
AcDbLayout
  3
ObjectDBX Classes
 90
        0
280
     0
281
     0
  0
ENDSEC
  0
SECTION
  2
TABLES
  0
TABLE
  2
VPORT
  5
8
330
0
100
AcDbSymbolTable
 70
     1
  0
VPORT
  5
29
330
8
100
AcDbSymbolTableRecord
100
AcDbViewportTableRecord
  2
*Active
 70
     0
 10
0.0
 20
0.0
 11
1.0
 21
1.0
 12
420.5
 22
297.0
 13
0.0
 23
0.0
 14
10.0
 24
10.0
 15
10.0
 25
10.0
 16
0.0
 26
0.0
 36
1.0
 17
0.0
 27
0.0
 37
0.0
 40
594.0
 41
1.4158249158
 42
50.0
 43
0.0
 44
0.0
 50
0.0
 51
0.0
 71
     0
 72
  2000
 73
     1
 74
     3
 75
     0
 76
     0
 77
     0
 78
     0
281
     0
 65
     1
110
0.0
120
0.0
130
0.0
111
1.0
121
0.0
131
0.0
112
0.0
122
1.0
132
0.0
 79
     0
146
0.0
  0
ENDTAB
  0
TABLE
  2
LTYPE
  5
5
330
0
100
AcDbSymbolTable
 70
     6
  0
LTYPE
  5
14
330
5
100
AcDbSymbolTableRecord
100
AcDbLinetypeTableRecord
  2
ByBlock
 70
     0
  3

 72
    65
 73
     0
 40
0.0
  0
LTYPE
  5
15
330
5
100
AcDbSymbolTableRecord
100
AcDbLinetypeTableRecord
  2
ByLayer
 70
     0
  3

 72
    65
 73
     0
 40
0.0
  0
LTYPE
  5
16
330
5
100
AcDbSymbolTableRecord
100
AcDbLinetypeTableRecord
  2
Continuous
 70
     0
  3
Solid line
 72
    65
 73
     0
 40
0.0
  0
LTYPE
  5
3F
330
5
100
AcDbSymbolTableRecord
100
AcDbLinetypeTableRecord
  2
HIDDEN
 70
     0
  3
Hidden __ __ __ __ __ __ __ __ __ __ __ __ __ __
 72
    65
 73
     2
 40
1.905
 49
1.27
 74
     0
 49
-0.635
 74
     0
  0
LTYPE
  5
40
330
5
100
AcDbSymbolTableRecord
100
AcDbLinetypeTableRecord
  2
PHANTOM
 70
     0
  3
Phantom ______  __  __  ______  __  __  ______
 72
    65
 73
     6
 40
12.7
 49
6.35
 74
     0
 49
-1.27
 74
     0
 49
1.27
 74
     0
 49
-1.27
 74
     0
 49
1.27
 74
     0
 49
-1.27
 74
     0
  0
LTYPE
  5
41
330
5
100
AcDbSymbolTableRecord
100
AcDbLinetypeTableRecord
  2
CENTER
 70
     0
  3
Center ____ _ ____ _ ____ _ ____ _ ____ _ ____
 72
    65
 73
     4
 40
10.16
 49
6.35
 74
     0
 49
-1.27
 74
     0
 49
1.27
 74
     0
 49
-1.27
 74
     0
  0
LTYPE
  5
42
330
5
100
AcDbSymbolTableRecord
100
AcDbLinetypeTableRecord
  2
CENTERX2
 70
     0
  3
Center (2x) ________  __  ________  __  _____
 72
    65
 73
     4
 40
20.32
 49
12.7
 74
     0
 49
-2.54
 74
     0
 49
2.54
 74
     0
 49
-2.54
 74
     0
  0
LTYPE
  5
43
330
5
100
AcDbSymbolTableRecord
100
AcDbLinetypeTableRecord
  2
DOT2
 70
     0
  3
Dot (.5x) ........................................
 72
    65
 73
     2
 40
0.635
 49
0.0
 74
     0
 49
-0.635
 74
     0
  0
ENDTAB
  0
TABLE
  2
LAYER
  5
2
330
0
100
AcDbSymbolTable
 70
     3
  0
LAYER
  5
10
330
2
100
AcDbSymbolTableRecord
100
AcDbLayerTableRecord
  2
0
 70
     0
 62
     7
  6
Continuous
370
    -3
390
F
  0
LAYER
  5
44
330
2
100
AcDbSymbolTableRecord
100
AcDbLayerTableRecord
  2
FORMAT
 70
     0
 62
     7
  6
Continuous
370
    -3
390
F
  0
LAYER
  5
45
330
2
100
AcDbSymbolTableRecord
100
AcDbLayerTableRecord
  2
PROTOTYPE
 70
     0
 62
     7
  6
Continuous
370
    -3
390
F
  0
ENDTAB
  0
TABLE
  2
STYLE
  5
3
330
0
100
AcDbSymbolTable
 70
     1
  0
STYLE
  5
11
330
3
100
AcDbSymbolTableRecord
100
AcDbTextStyleTableRecord
  2
Standard
 70
     0
 40
0.0
 41
1.0
 50
0.0
 71
     0
 42
2.5
  3
txt
  4

  0
ENDTAB
  0
TABLE
  2
VIEW
  5
6
330
0
100
AcDbSymbolTable
 70
     0
  0
ENDTAB
  0
TABLE
  2
UCS
  5
7
330
0
100
AcDbSymbolTable
 70
     0
  0
ENDTAB
  0
TABLE
  2
APPID
  5
9
330
0
100
AcDbSymbolTable
 70
     1
  0
APPID
  5
12
330
9
100
AcDbSymbolTableRecord
100
AcDbRegAppTableRecord
  2
ACAD
 70
     0
  0
ENDTAB
  0
TABLE
  2
DIMSTYLE
  5
A
330
0
100
AcDbSymbolTable
 70
     1
100
AcDbDimStyleTable
  0
DIMSTYLE
105
27
330
A
100
AcDbSymbolTableRecord
100
AcDbDimStyleTableRecord
  2
ISO-25
 70
     0
 41
2.5
 42
0.625
 43
3.75
 44
1.25
 73
     0
 74
     0
 77
     1
 78
     8
140
2.5
141
2.5
143
0.0393700787
147
0.625
171
     3
172
     1
178
     0
271
     2
272
     2
274
     3
278
    44
283
     0
284
     8
340
11
  0
ENDTAB
  0
TABLE
  2
BLOCK_RECORD
  5
1
330
0
100
AcDbSymbolTable
 70
     2
  0
BLOCK_RECORD
  5
1F
330
1
100
AcDbSymbolTableRecord
100
AcDbBlockTableRecord
  2
*Model_Space
340
22
  0
BLOCK_RECORD
  5
1B
330
1
100
AcDbSymbolTableRecord
100
AcDbBlockTableRecord
  2
*Paper_Space
340
1E
  0
BLOCK_RECORD
  5
23
330
1
100
AcDbSymbolTableRecord
100
AcDbBlockTableRecord
  2
*Paper_Space0
340
26
  0
BLOCK_RECORD
  5
68
330
1
100
AcDbSymbolTableRecord
100
AcDbBlockTableRecord
  2
SW_CENTERMARKSYMBOL_0
340
0
102
{BLKREFS
331
153
102
}
  0
ENDTAB
  0
ENDSEC
  0
SECTION
  2
BLOCKS
  0
BLOCK
  5
20
330
1F
100
AcDbEntity
  8
0
100
AcDbBlockBegin
  2
*Model_Space
 70
     0
 10
0.0
 20
0.0
 30
0.0
  3
*Model_Space
  1

  0
ENDBLK
  5
21
330
1F
100
AcDbEntity
  8
0
100
AcDbBlockEnd
  0
BLOCK
  5
1C
330
1B
100
AcDbEntity
 67
     1
  8
0
100
AcDbBlockBegin
  2
*Paper_Space
 70
     0
 10
0.0
 20
0.0
 30
0.0
  3
*Paper_Space
  1

  0
ENDBLK
  5
1D
330
1B
100
AcDbEntity
 67
     1
  8
0
100
AcDbBlockEnd
  0
BLOCK
  5
24
330
23
100
AcDbEntity
  8
0
100
AcDbBlockBegin
  2
*Paper_Space0
 70
     0
 10
0.0
 20
0.0
 30
0.0
  3
*Paper_Space0
  1

  0
ENDBLK
  5
25
330
23
100
AcDbEntity
  8
0
100
AcDbBlockEnd
  0
BLOCK
  5
69
330
68
100
AcDbEntity
  8
0
100
AcDbBlockBegin
  2
SW_CENTERMARKSYMBOL_0
 70
     0
 10
0.0
 20
0.0
 30
0.0
  3
SW_CENTERMARKSYMBOL_0
  1

  0
ARC
  5
6B
330
68
100
AcDbEntity
  8
FORMAT
 62
     0
100
AcDbCircle
 10
68.121912529
 20
-691.6533850372
 30
0.0
 40
694.9999999999962
100
AcDbArc
 50
95.625
 51
95.8310999263
  0
ARC
  5
6C
330
68
100
AcDbEntity
  8
FORMAT
 62
     0
100
AcDbCircle
 10
68.121912529
 20
-691.6533850372
 30
0.0
 40
694.9999999999962
100
AcDbArc
 50
95.4189000737
 51
95.625
  0
ARC
  5
6D
330
68
100
AcDbEntity
  8
FORMAT
 62
     0
100
AcDbCircle
 10
68.121912529
 20
-691.6533850372
 30
0.0
 40
694.9999999999964
100
AcDbArc
 50
84.375
 51
84.5810999263
  0
ARC
  5
6E
330
68
100
AcDbEntity
  8
FORMAT
 62
     0
100
AcDbCircle
 10
68.121912529
 20
-691.6533850372
 30
0.0
 40
694.9999999999964
100
AcDbArc
 50
84.1689000737
 51
84.375
  0
ARC
  5
6F
330
68
100
AcDbEntity
  8
FORMAT
 62
     0
100
AcDbCircle
 10
68.121912529
 20
-691.6533850372
 30
0.0
 40
694.9999999999964
100
AcDbArc
 50
73.125
 51
73.3310999263
  0
ARC
  5
70
330
68
100
AcDbEntity
  8
FORMAT
 62
     0
100
AcDbCircle
 10
68.121912529
 20
-691.6533850372
 30
0.0
 40
694.9999999999964
100
AcDbArc
 50
72.9189000737
 51
73.125
  0
ARC
  5
71
330
68
100
AcDbEntity
  8
FORMAT
 62
     0
100
AcDbCircle
 10
68.121912529
 20
-691.6533850372
 30
0.0
 40
694.9999999999969
100
AcDbArc
 50
61.875
 51
62.0810999263
  0
ARC
  5
72
330
68
100
AcDbEntity
  8
FORMAT
 62
     0
100
AcDbCircle
 10
68.121912529
 20
-691.6533850372
 30
0.0
 40
694.9999999999968
100
AcDbArc
 50
61.6689000737
 51
61.875
  0
ARC
  5
73
330
68
100
AcDbEntity
  8
FORMAT
 62
     0
100
AcDbCircle
 10
68.121912529
 20
-691.6533850372
 30
0.0
 40
694.9999999999974
100
AcDbArc
 50
50.625
 51
50.8310999263
  0
ARC
  5
74
330
68
100
AcDbEntity
  8
FORMAT
 62
     0
100
AcDbCircle
 10
68.121912529
 20
-691.6533850372
 30
0.0
 40
694.9999999999974
100
AcDbArc
 50
50.4189000737
 51
50.625
  0
ARC
  5
75
330
68
100
AcDbEntity
  8
FORMAT
 62
     0
100
AcDbCircle
 10
68.121912529
 20
-691.6533850372
 30
0.0
 40
694.999999999998
100
AcDbArc
 50
39.375
 51
39.5810999263
  0
ARC
  5
76
330
68
100
AcDbEntity
  8
FORMAT
 62
     0
100
AcDbCircle
 10
68.121912529
 20
-691.6533850372
 30
0.0
 40
694.999999999998
100
AcDbArc
 50
39.1689000737
 51
39.375
  0
ARC
  5
77
330
68
100
AcDbEntity
  8
FORMAT
 62
     0
100
AcDbCircle
 10
68.121912529
 20
-691.6533850372
 30
0.0
 40
694.999999999999
100
AcDbArc
 50
28.125
 51
28.3310999263
  0
ARC
  5
78
330
68
100
AcDbEntity
  8
FORMAT
 62
     0
100
AcDbCircle
 10
68.121912529
 20
-691.6533850372
 30
0.0
 40
694.999999999999
100
AcDbArc
 50
27.9189000737
 51
28.125
  0
ARC
  5
79
330
68
100
AcDbEntity
  8
FORMAT
 62
     0
100
AcDbCircle
 10
68.121912529
 20
-691.6533850372
 30
0.0
 40
695.0
100
AcDbArc
 50
16.875
 51
17.0810999263
  0
ARC
  5
7A
330
68
100
AcDbEntity
  8
FORMAT
 62
     0
100
AcDbCircle
 10
68.121912529
 20
-691.6533850372
 30
0.0
 40
695.0
100
AcDbArc
 50
16.6689000737
 51
16.875
  0
ARC
  5
7B
330
68
100
AcDbEntity
  8
FORMAT
 62
     0
100
AcDbCircle
 10
68.121912529
 20
-691.6533850372
 30
0.0
 40
695.0000000000009
100
AcDbArc
 50
5.625
 51
5.8310999263
  0
ARC
  5
7C
330
68
100
AcDbEntity
  8
FORMAT
 62
     0
100
AcDbCircle
 10
68.121912529
 20
-691.6533850372
 30
0.0
 40
695.0000000000009
100
AcDbArc
 50
5.4189000737
 51
5.625
  0
ARC
  5
7D
330
68
100
AcDbEntity
  8
FORMAT
 62
     0
100
AcDbCircle
 10
68.121912529
 20
-691.6533850372
 30
0.0
 40
695.0000000000019
100
AcDbArc
 50
354.375
 51
354.5810999263
  0
ARC
  5
7E
330
68
100
AcDbEntity
  8
FORMAT
 62
     0
100
AcDbCircle
 10
68.121912529
 20
-691.6533850372
 30
0.0
 40
695.0000000000019
100
AcDbArc
 50
354.1689000737
 51
354.375
  0
ARC
  5
7F
330
68
100
AcDbEntity
  8
FORMAT
 62
     0
100
AcDbCircle
 10
68.121912529
 20
-691.6533850372
 30
0.0
 40
695.0000000000031
100
AcDbArc
 50
343.125
 51
343.3310999263
  0
ARC
  5
80
330
68
100
AcDbEntity
  8
FORMAT
 62
     0
100
AcDbCircle
 10
68.121912529
 20
-691.6533850372
 30
0.0
 40
695.0000000000031
100
AcDbArc
 50
342.9189000737
 51
343.125
  0
ARC
  5
81
330
68
100
AcDbEntity
  8
FORMAT
 62
     0
100
AcDbCircle
 10
68.121912529
 20
-691.6533850372
 30
0.0
 40
695.0000000000039
100
AcDbArc
 50
331.875
 51
332.0810999263
  0
ARC
  5
82
330
68
100
AcDbEntity
  8
FORMAT
 62
     0
100
AcDbCircle
 10
68.121912529
 20
-691.6533850372
 30
0.0
 40
695.0000000000039
100
AcDbArc
 50
331.6689000737
 51
331.875
  0
ARC
  5
83
330
68
100
AcDbEntity
  8
FORMAT
 62
     0
100
AcDbCircle
 10
68.121912529
 20
-691.6533850372
 30
0.0
 40
695.0000000000049
100
AcDbArc
 50
320.625
 51
320.8310999263
  0
ARC
  5
84
330
68
100
AcDbEntity
  8
FORMAT
 62
     0
100
AcDbCircle
 10
68.121912529
 20
-691.6533850372
 30
0.0
 40
695.0000000000049
100
AcDbArc
 50
320.4189000737
 51
320.625
  0
ARC
  5
85
330
68
100
AcDbEntity
  8
FORMAT
 62
     0
100
AcDbCircle
 10
68.121912529
 20
-691.6533850372
 30
0.0
 40
695.0000000000056
100
AcDbArc
 50
309.375
 51
309.5810999263
  0
ARC
  5
86
330
68
100
AcDbEntity
  8
FORMAT
 62
     0
100
AcDbCircle
 10
68.121912529
 20
-691.6533850372
 30
0.0
 40
695.0000000000056
100
AcDbArc
 50
309.1689000737
 51
309.375
  0
ARC
  5
87
330
68
100
AcDbEntity
  8
FORMAT
 62
     0
100
AcDbCircle
 10
68.121912529
 20
-691.6533850372
 30
0.0
 40
695.0000000000064
100
AcDbArc
 50
298.125
 51
298.3310999263
  0
ARC
  5
88
330
68
100
AcDbEntity
  8
FORMAT
 62
     0
100
AcDbCircle
 10
68.121912529
 20
-691.6533850372
 30
0.0
 40
695.0000000000064
100
AcDbArc
 50
297.9189000737
 51
298.125
  0
ARC
  5
89
330
68
100
AcDbEntity
  8
FORMAT
 62
     0
100
AcDbCircle
 10
68.121912529
 20
-691.6533850372
 30
0.0
 40
695.0000000000066
100
AcDbArc
 50
286.875
 51
287.0810999263
  0
ARC
  5
8A
330
68
100
AcDbEntity
  8
FORMAT
 62
     0
100
AcDbCircle
 10
68.121912529
 20
-691.6533850372
 30
0.0
 40
695.0000000000067
100
AcDbArc
 50
286.6689000737
 51
286.875
  0
ARC
  5
8B
330
68
100
AcDbEntity
  8
FORMAT
 62
     0
100
AcDbCircle
 10
68.121912529
 20
-691.6533850372
 30
0.0
 40
695.0000000000066
100
AcDbArc
 50
275.625
 51
275.8310999263
  0
ARC
  5
8C
330
68
100
AcDbEntity
  8
FORMAT
 62
     0
100
AcDbCircle
 10
68.121912529
 20
-691.6533850372
 30
0.0
 40
695.0000000000068
100
AcDbArc
 50
275.4189000737
 51
275.625
  0
ARC
  5
8D
330
68
100
AcDbEntity
  8
FORMAT
 62
     0
100
AcDbCircle
 10
68.121912529
 20
-691.6533850372
 30
0.0
 40
695.0000000000066
100
AcDbArc
 50
264.375
 51
264.5810999263
  0
ARC
  5
8E
330
68
100
AcDbEntity
  8
FORMAT
 62
     0
100
AcDbCircle
 10
68.121912529
 20
-691.6533850372
 30
0.0
 40
695.0000000000066
100
AcDbArc
 50
264.1689000737
 51
264.375
  0
ARC
  5
8F
330
68
100
AcDbEntity
  8
FORMAT
 62
     0
100
AcDbCircle
 10
68.121912529
 20
-691.6533850372
 30
0.0
 40
695.0000000000065
100
AcDbArc
 50
253.125
 51
253.3310999263
  0
ARC
  5
90
330
68
100
AcDbEntity
  8
FORMAT
 62
     0
100
AcDbCircle
 10
68.121912529
 20
-691.6533850372
 30
0.0
 40
695.0000000000065
100
AcDbArc
 50
252.9189000737
 51
253.125
  0
ARC
  5
91
330
68
100
AcDbEntity
  8
FORMAT
 62
     0
100
AcDbCircle
 10
68.121912529
 20
-691.6533850372
 30
0.0
 40
695.0000000000064
100
AcDbArc
 50
241.875
 51
242.0810999263
  0
ARC
  5
92
330
68
100
AcDbEntity
  8
FORMAT
 62
     0
100
AcDbCircle
 10
68.121912529
 20
-691.6533850372
 30
0.0
 40
695.0000000000064
100
AcDbArc
 50
241.6689000737
 51
241.875
  0
ARC
  5
93
330
68
100
AcDbEntity
  8
FORMAT
 62
     0
100
AcDbCircle
 10
68.121912529
 20
-691.6533850372
 30
0.0
 40
695.0000000000057
100
AcDbArc
 50
230.625
 51
230.8310999263
  0
ARC
  5
94
330
68
100
AcDbEntity
  8
FORMAT
 62
     0
100
AcDbCircle
 10
68.121912529
 20
-691.6533850372
 30
0.0
 40
695.0000000000057
100
AcDbArc
 50
230.4189000737
 51
230.625
  0
ARC
  5
95
330
68
100
AcDbEntity
  8
FORMAT
 62
     0
100
AcDbCircle
 10
68.121912529
 20
-691.6533850372
 30
0.0
 40
695.0000000000048
100
AcDbArc
 50
219.375
 51
219.5810999263
  0
ARC
  5
96
330
68
100
AcDbEntity
  8
FORMAT
 62
     0
100
AcDbCircle
 10
68.121912529
 20
-691.6533850372
 30
0.0
 40
695.0000000000049
100
AcDbArc
 50
219.1689000737
 51
219.375
  0
ARC
  5
97
330
68
100
AcDbEntity
  8
FORMAT
 62
     0
100
AcDbCircle
 10
68.121912529
 20
-691.6533850372
 30
0.0
 40
695.0000000000036
100
AcDbArc
 50
208.125
 51
208.3310999263
  0
ARC
  5
98
330
68
100
AcDbEntity
  8
FORMAT
 62
     0
100
AcDbCircle
 10
68.121912529
 20
-691.6533850372
 30
0.0
 40
695.0000000000039
100
AcDbArc
 50
207.9189000737
 51
208.125
  0
ARC
  5
99
330
68
100
AcDbEntity
  8
FORMAT
 62
     0
100
AcDbCircle
 10
68.121912529
 20
-691.6533850372
 30
0.0
 40
695.000000000003
100
AcDbArc
 50
196.875
 51
197.0810999263
  0
ARC
  5
9A
330
68
100
AcDbEntity
  8
FORMAT
 62
     0
100
AcDbCircle
 10
68.121912529
 20
-691.6533850372
 30
0.0
 40
695.0000000000031
100
AcDbArc
 50
196.6689000737
 51
196.875
  0
ARC
  5
9B
330
68
100
AcDbEntity
  8
FORMAT
 62
     0
100
AcDbCircle
 10
68.121912529
 20
-691.6533850372
 30
0.0
 40
695.000000000002
100
AcDbArc
 50
185.625
 51
185.8310999263
  0
ARC
  5
9C
330
68
100
AcDbEntity
  8
FORMAT
 62
     0
100
AcDbCircle
 10
68.121912529
 20
-691.6533850372
 30
0.0
 40
695.0000000000019
100
AcDbArc
 50
185.4189000737
 51
185.625
  0
ARC
  5
9D
330
68
100
AcDbEntity
  8
FORMAT
 62
     0
100
AcDbCircle
 10
68.121912529
 20
-691.6533850372
 30
0.0
 40
695.0000000000009
100
AcDbArc
 50
174.375
 51
174.5810999263
  0
ARC
  5
9E
330
68
100
AcDbEntity
  8
FORMAT
 62
     0
100
AcDbCircle
 10
68.121912529
 20
-691.6533850372
 30
0.0
 40
695.0000000000009
100
AcDbArc
 50
174.1689000737
 51
174.375
  0
ARC
  5
9F
330
68
100
AcDbEntity
  8
FORMAT
 62
     0
100
AcDbCircle
 10
68.121912529
 20
-691.6533850372
 30
0.0
 40
695.0
100
AcDbArc
 50
163.125
 51
163.3310999263
  0
ARC
  5
A0
330
68
100
AcDbEntity
  8
FORMAT
 62
     0
100
AcDbCircle
 10
68.121912529
 20
-691.6533850372
 30
0.0
 40
695.0
100
AcDbArc
 50
162.9189000737
 51
163.125
  0
ARC
  5
A1
330
68
100
AcDbEntity
  8
FORMAT
 62
     0
100
AcDbCircle
 10
68.121912529
 20
-691.6533850372
 30
0.0
 40
694.9999999999991
100
AcDbArc
 50
151.875
 51
152.0810999263
  0
ARC
  5
A2
330
68
100
AcDbEntity
  8
FORMAT
 62
     0
100
AcDbCircle
 10
68.121912529
 20
-691.6533850372
 30
0.0
 40
694.999999999999
100
AcDbArc
 50
151.6689000737
 51
151.875
  0
ARC
  5
A3
330
68
100
AcDbEntity
  8
FORMAT
 62
     0
100
AcDbCircle
 10
68.121912529
 20
-691.6533850372
 30
0.0
 40
694.9999999999983
100
AcDbArc
 50
140.625
 51
140.8310999263
  0
ARC
  5
A4
330
68
100
AcDbEntity
  8
FORMAT
 62
     0
100
AcDbCircle
 10
68.121912529
 20
-691.6533850372
 30
0.0
 40
694.9999999999983
100
AcDbArc
 50
140.4189000737
 51
140.625
  0
ARC
  5
A5
330
68
100
AcDbEntity
  8
FORMAT
 62
     0
100
AcDbCircle
 10
68.121912529
 20
-691.6533850372
 30
0.0
 40
694.9999999999975
100
AcDbArc
 50
129.375
 51
129.5810999263
  0
ARC
  5
A6
330
68
100
AcDbEntity
  8
FORMAT
 62
     0
100
AcDbCircle
 10
68.121912529
 20
-691.6533850372
 30
0.0
 40
694.9999999999975
100
AcDbArc
 50
129.1689000737
 51
129.375
  0
ARC
  5
A7
330
68
100
AcDbEntity
  8
FORMAT
 62
     0
100
AcDbCircle
 10
68.121912529
 20
-691.6533850372
 30
0.0
 40
694.9999999999967
100
AcDbArc
 50
118.125
 51
118.3310999263
  0
ARC
  5
A8
330
68
100
AcDbEntity
  8
FORMAT
 62
     0
100
AcDbCircle
 10
68.121912529
 20
-691.6533850372
 30
0.0
 40
694.9999999999967
100
AcDbArc
 50
117.9189000737
 51
118.125
  0
ARC
  5
A9
330
68
100
AcDbEntity
  8
FORMAT
 62
     0
100
AcDbCircle
 10
68.121912529
 20
-691.6533850372
 30
0.0
 40
694.9999999999966
100
AcDbArc
 50
106.875
 51
107.0810999263
  0
ARC
  5
AA
330
68
100
AcDbEntity
  8
FORMAT
 62
     0
100
AcDbCircle
 10
68.121912529
 20
-691.6533850372
 30
0.0
 40
694.9999999999966
100
AcDbArc
 50
106.6689000737
 51
106.875
  0
ARC
  5
AB
330
68
100
AcDbEntity
  8
FORMAT
 62
     0
100
AcDbCircle
 10
68.121912529
 20
-691.6533850372
 30
0.0
 40
694.9999999999965
100
AcDbArc
 50
73.5371998526
 51
83.9628001474
  0
ARC
  5
AC
330
68
100
AcDbEntity
  8
FORMAT
 62
     0
100
AcDbCircle
 10
68.121912529
 20
-691.6533850372
 30
0.0
 40
694.9999999999962
100
AcDbArc
 50
84.7871998526
 51
95.2128001474
  0
ARC
  5
AD
330
68
100
AcDbEntity
  8
FORMAT
 62
     0
100
AcDbCircle
 10
68.121912529
 20
-691.6533850372
 30
0.0
 40
694.9999999999968
100
AcDbArc
 50
62.2871998526
 51
72.7128001474
  0
ARC
  5
AE
330
68
100
AcDbEntity
  8
FORMAT
 62
     0
100
AcDbCircle
 10
68.121912529
 20
-691.6533850372
 30
0.0
 40
694.9999999999973
100
AcDbArc
 50
51.0371998526
 51
61.4628001474
  0
ARC
  5
AF
330
68
100
AcDbEntity
  8
FORMAT
 62
     0
100
AcDbCircle
 10
68.121912529
 20
-691.6533850372
 30
0.0
 40
694.999999999998
100
AcDbArc
 50
39.7871998526
 51
50.2128001474
  0
ARC
  5
B0
330
68
100
AcDbEntity
  8
FORMAT
 62
     0
100
AcDbCircle
 10
68.121912529
 20
-691.6533850372
 30
0.0
 40
694.9999999999989
100
AcDbArc
 50
28.5371998526
 51
38.9628001474
  0
ARC
  5
B1
330
68
100
AcDbEntity
  8
FORMAT
 62
     0
100
AcDbCircle
 10
68.121912529
 20
-691.6533850372
 30
0.0
 40
695.0
100
AcDbArc
 50
17.2871998526
 51
27.7128001474
  0
ARC
  5
B2
330
68
100
AcDbEntity
  8
FORMAT
 62
     0
100
AcDbCircle
 10
68.121912529
 20
-691.6533850372
 30
0.0
 40
695.0000000000009
100
AcDbArc
 50
6.0371998526
 51
16.4628001474
  0
ARC
  5
B3
330
68
100
AcDbEntity
  8
FORMAT
 62
     0
100
AcDbCircle
 10
68.121912529
 20
-691.6533850372
 30
0.0
 40
695.0000000000018
100
AcDbArc
 50
354.7871998526
 51
5.2128001474
  0
ARC
  5
B4
330
68
100
AcDbEntity
  8
FORMAT
 62
     0
100
AcDbCircle
 10
68.121912529
 20
-691.6533850372
 30
0.0
 40
695.000000000003
100
AcDbArc
 50
343.5371998526
 51
353.9628001474
  0
ARC
  5
B5
330
68
100
AcDbEntity
  8
FORMAT
 62
     0
100
AcDbCircle
 10
68.121912529
 20
-691.6533850372
 30
0.0
 40
695.0000000000039
100
AcDbArc
 50
332.2871998526
 51
342.7128001474
  0
ARC
  5
B6
330
68
100
AcDbEntity
  8
FORMAT
 62
     0
100
AcDbCircle
 10
68.121912529
 20
-691.6533850372
 30
0.0
 40
695.0000000000048
100
AcDbArc
 50
321.0371998526
 51
331.4628001474
  0
ARC
  5
B7
330
68
100
AcDbEntity
  8
FORMAT
 62
     0
100
AcDbCircle
 10
68.121912529
 20
-691.6533850372
 30
0.0
 40
695.0000000000056
100
AcDbArc
 50
309.7871998526
 51
320.2128001474
  0
ARC
  5
B8
330
68
100
AcDbEntity
  8
FORMAT
 62
     0
100
AcDbCircle
 10
68.121912529
 20
-691.6533850372
 30
0.0
 40
695.0000000000061
100
AcDbArc
 50
298.5371998526
 51
308.9628001474
  0
ARC
  5
B9
330
68
100
AcDbEntity
  8
FORMAT
 62
     0
100
AcDbCircle
 10
68.121912529
 20
-691.6533850372
 30
0.0
 40
695.0000000000066
100
AcDbArc
 50
287.2871998526
 51
297.7128001474
  0
ARC
  5
BA
330
68
100
AcDbEntity
  8
FORMAT
 62
     0
100
AcDbCircle
 10
68.121912529
 20
-691.6533850372
 30
0.0
 40
695.0000000000066
100
AcDbArc
 50
276.0371998526
 51
286.4628001474
  0
ARC
  5
BB
330
68
100
AcDbEntity
  8
FORMAT
 62
     0
100
AcDbCircle
 10
68.121912529
 20
-691.6533850372
 30
0.0
 40
695.0000000000068
100
AcDbArc
 50
264.7871998526
 51
275.2128001474
  0
ARC
  5
BC
330
68
100
AcDbEntity
  8
FORMAT
 62
     0
100
AcDbCircle
 10
68.121912529
 20
-691.6533850372
 30
0.0
 40
695.0000000000068
100
AcDbArc
 50
253.5371998526
 51
263.9628001474
  0
ARC
  5
BD
330
68
100
AcDbEntity
  8
FORMAT
 62
     0
100
AcDbCircle
 10
68.121912529
 20
-691.6533850372
 30
0.0
 40
695.0000000000064
100
AcDbArc
 50
242.2871998526
 51
252.7128001474
  0
ARC
  5
BE
330
68
100
AcDbEntity
  8
FORMAT
 62
     0
100
AcDbCircle
 10
68.121912529
 20
-691.6533850372
 30
0.0
 40
695.0000000000064
100
AcDbArc
 50
231.0371998526
 51
241.4628001474
  0
ARC
  5
BF
330
68
100
AcDbEntity
  8
FORMAT
 62
     0
100
AcDbCircle
 10
68.121912529
 20
-691.6533850372
 30
0.0
 40
695.0000000000056
100
AcDbArc
 50
219.7871998526
 51
230.2128001474
  0
ARC
  5
C0
330
68
100
AcDbEntity
  8
FORMAT
 62
     0
100
AcDbCircle
 10
68.121912529
 20
-691.6533850372
 30
0.0
 40
695.0000000000049
100
AcDbArc
 50
208.5371998526
 51
218.9628001474
  0
ARC
  5
C1
330
68
100
AcDbEntity
  8
FORMAT
 62
     0
100
AcDbCircle
 10
68.121912529
 20
-691.6533850372
 30
0.0
 40
695.0000000000039
100
AcDbArc
 50
197.2871998526
 51
207.7128001474
  0
ARC
  5
C2
330
68
100
AcDbEntity
  8
FORMAT
 62
     0
100
AcDbCircle
 10
68.121912529
 20
-691.6533850372
 30
0.0
 40
695.0000000000031
100
AcDbArc
 50
186.0371998526
 51
196.4628001474
  0
ARC
  5
C3
330
68
100
AcDbEntity
  8
FORMAT
 62
     0
100
AcDbCircle
 10
68.121912529
 20
-691.6533850372
 30
0.0
 40
695.000000000002
100
AcDbArc
 50
174.7871998526
 51
185.2128001474
  0
ARC
  5
C4
330
68
100
AcDbEntity
  8
FORMAT
 62
     0
100
AcDbCircle
 10
68.121912529
 20
-691.6533850372
 30
0.0
 40
695.000000000001
100
AcDbArc
 50
163.5371998526
 51
173.9628001474
  0
ARC
  5
C5
330
68
100
AcDbEntity
  8
FORMAT
 62
     0
100
AcDbCircle
 10
68.121912529
 20
-691.6533850372
 30
0.0
 40
695.0
100
AcDbArc
 50
152.2871998526
 51
162.7128001474
  0
ARC
  5
C6
330
68
100
AcDbEntity
  8
FORMAT
 62
     0
100
AcDbCircle
 10
68.121912529
 20
-691.6533850372
 30
0.0
 40
694.9999999999991
100
AcDbArc
 50
141.0371998526
 51
151.4628001474
  0
ARC
  5
C7
330
68
100
AcDbEntity
  8
FORMAT
 62
     0
100
AcDbCircle
 10
68.121912529
 20
-691.6533850372
 30
0.0
 40
694.9999999999982
100
AcDbArc
 50
129.7871998526
 51
140.2128001474
  0
ARC
  5
C8
330
68
100
AcDbEntity
  8
FORMAT
 62
     0
100
AcDbCircle
 10
68.121912529
 20
-691.6533850372
 30
0.0
 40
694.9999999999976
100
AcDbArc
 50
118.5371998526
 51
128.9628001474
  0
ARC
  5
C9
330
68
100
AcDbEntity
  8
FORMAT
 62
     0
100
AcDbCircle
 10
68.121912529
 20
-691.6533850372
 30
0.0
 40
694.9999999999966
100
AcDbArc
 50
96.0371998526
 51
106.4628001474
  0
ARC
  5
CA
330
68
100
AcDbEntity
  8
FORMAT
 62
     0
100
AcDbCircle
 10
68.121912529
 20
-691.6533850372
 30
0.0
 40
694.9999999999968
100
AcDbArc
 50
107.2871998526
 51
117.7128001474
  0
LINE
  5
CB
330
68
100
AcDbEntity
  8
FORMAT
 62
     0
100
AcDbLine
 10
0.0
 20
0.0
 30
0.0
 11
-0.2450428508
 21
2.4879618167
 31
0.0
  0
LINE
  5
CC
330
68
100
AcDbEntity
  8
FORMAT
 62
     0
100
AcDbLine
 10
0.0
 20
0.0
 30
0.0
 11
0.2450428508
 21
-2.4879618167
 31
0.0
  0
LINE
  5
CD
330
68
100
AcDbEntity
  8
FORMAT
 62
     0
100
AcDbLine
 10
-0.4900857016
 20
4.9759236334
 30
0.0
 11
-2.6464627889
 21
26.8699876201
 31
0.0
  0
LINE
  5
CE
330
68
100
AcDbEntity
  8
FORMAT
 62
     0
100
AcDbLine
 10
0.4900857016
 20
-4.9759236334
 30
0.0
 11
2.6464627889
 21
-26.8699876201
 31
0.0
  0
LINE
  5
CF
330
68
100
AcDbEntity
  8
FORMAT
 62
     0
100
AcDbLine
 10
136.2438250581
 20
0.0
 30
0.0
 11
136.4888679089
 21
2.4879618167
 31
0.0
  0
LINE
  5
D0
330
68
100
AcDbEntity
  8
FORMAT
 62
     0
100
AcDbLine
 10
136.2438250581
 20
0.0
 30
0.0
 11
135.9987822073
 21
-2.4879618167
 31
0.0
  0
LINE
  5
D1
330
68
100
AcDbEntity
  8
FORMAT
 62
     0
100
AcDbLine
 10
136.7339107597
 20
4.9759236334
 30
0.0
 11
138.890287847
 21
26.8699876201
 31
0.0
  0
LINE
  5
D2
330
68
100
AcDbEntity
  8
FORMAT
 62
     0
100
AcDbLine
 10
135.7537393564
 20
-4.9759236334
 30
0.0
 11
133.5973622692
 21
-26.8699876202
 31
0.0
  0
LINE
  5
D3
330
68
100
AcDbEntity
  8
FORMAT
 62
     0
100
AcDbLine
 10
269.8697632209
 20
-26.5798517033
 30
0.0
 11
270.595474914
 21
-24.187500864
 31
0.0
  0
LINE
  5
D4
330
68
100
AcDbEntity
  8
FORMAT
 62
     0
100
AcDbLine
 10
269.8697632209
 20
-26.5798517033
 30
0.0
 11
269.1440515278
 21
-28.9722025426
 31
0.0
  0
LINE
  5
D5
330
68
100
AcDbEntity
  8
FORMAT
 62
     0
100
AcDbLine
 10
271.3211866072
 20
-21.7951500246
 30
0.0
 11
277.7074495068
 21
-0.7424626385
 31
0.0
  0
LINE
  5
D6
330
68
100
AcDbEntity
  8
FORMAT
 62
     0
100
AcDbLine
 10
268.4183398346
 20
-31.364553382
 30
0.0
 11
262.032076935
 21
-52.4172407681
 31
0.0
  0
LINE
  5
D7
330
68
100
AcDbEntity
  8
FORMAT
 62
     0
100
AcDbLine
 10
68.121912529
 20
-691.6533850372
 30
0.0
 11
68.121912529
 21
-689.1533850372
 31
0.0
  0
LINE
  5
D8
330
68
100
AcDbEntity
  8
FORMAT
 62
     0
100
AcDbLine
 10
68.121912529
 20
-691.6533850372
 30
0.0
 11
65.621912529
 21
-691.6533850372
 31
0.0
  0
LINE
  5
D9
330
68
100
AcDbEntity
  8
FORMAT
 62
     0
100
AcDbLine
 10
68.121912529
 20
-691.6533850372
 30
0.0
 11
68.121912529
 21
-694.1533850372
 31
0.0
  0
LINE
  5
DA
330
68
100
AcDbEntity
  8
FORMAT
 62
     0
100
AcDbLine
 10
68.121912529
 20
-691.6533850372
 30
0.0
 11
70.621912529
 21
-691.6533850372
 31
0.0
  0
LINE
  5
DB
330
68
100
AcDbEntity
  8
FORMAT
 62
     0
100
AcDbLine
 10
68.121912529
 20
-686.6533850372
 30
0.0
 11
68.121912529
 21
67.5563322761
 31
0.0
  0
LINE
  5
DC
330
68
100
AcDbEntity
  8
FORMAT
 62
     0
100
AcDbLine
 10
63.121912529
 20
-691.6533850372
 30
0.0
 11
-692.0119833621
 21
-691.6533850372
 31
0.0
  0
LINE
  5
DD
330
68
100
AcDbEntity
  8
FORMAT
 62
     0
100
AcDbLine
 10
68.121912529
 20
-696.6533850372
 30
0.0
 11
68.121912529
 21
-1453.6436683905
 31
0.0
  0
LINE
  5
DE
330
68
100
AcDbEntity
  8
FORMAT
 62
     0
100
AcDbLine
 10
73.121912529
 20
-691.6533850372
 30
0.0
 11
826.4908541828
 21
-691.6533850372
 31
0.0
  0
LINE
  5
DF
330
68
100
AcDbEntity
  8
FORMAT
 62
     0
100
AcDbLine
 10
395.7426446231
 20
-78.7181063151
 30
0.0
 11
396.9211364652
 21
-76.5133031542
 31
0.0
  0
LINE
  5
E0
330
68
100
AcDbEntity
  8
FORMAT
 62
     0
100
AcDbLine
 10
395.7426446231
 20
-78.7181063151
 30
0.0
 11
394.564152781
 21
-80.9229094759
 31
0.0
  0
LINE
  5
E1
330
68
100
AcDbEntity
  8
FORMAT
 62
     0
100
AcDbLine
 10
398.0996283072
 20
-74.3084999933
 30
0.0
 11
408.4703565174
 21
-54.9062321777
 31
0.0
  0
LINE
  5
E2
330
68
100
AcDbEntity
  8
FORMAT
 62
     0
100
AcDbLine
 10
393.385660939
 20
-83.1277126368
 30
0.0
 11
383.0149327288
 21
-102.5299804525
 31
0.0
  0
LINE
  5
E3
330
68
100
AcDbEntity
  8
FORMAT
 62
     0
100
AcDbLine
 10
509.0252450228
 20
-154.4111199501
 30
0.0
 11
510.6112282332
 21
-152.4785938167
 31
0.0
  0
LINE
  5
E4
330
68
100
AcDbEntity
  8
FORMAT
 62
     0
100
AcDbLine
 10
509.0252450228
 20
-154.4111199501
 30
0.0
 11
507.4392618124
 21
-156.3436460835
 31
0.0
  0
LINE
  5
E5
330
68
100
AcDbEntity
  8
FORMAT
 62
     0
100
AcDbLine
 10
512.1972114436
 20
-150.5460676833
 30
0.0
 11
526.1538636952
 21
-133.5398377093
 31
0.0
  0
LINE
  5
E6
330
68
100
AcDbEntity
  8
FORMAT
 62
     0
100
AcDbLine
 10
505.853278602
 20
-158.2761722169
 30
0.0
 11
491.8966263504
 21
-175.2824021909
 31
0.0
  0
LINE
  5
E7
330
68
100
AcDbEntity
  8
FORMAT
 62
     0
100
AcDbLine
 10
605.3641776161
 20
-250.7500525435
 30
0.0
 11
607.2967037496
 21
-249.164069333
 31
0.0
  0
LINE
  5
E8
330
68
100
AcDbEntity
  8
FORMAT
 62
     0
100
AcDbLine
 10
605.3641776161
 20
-250.7500525435
 30
0.0
 11
603.4316514827
 21
-252.3360357539
 31
0.0
  0
LINE
  5
E9
330
68
100
AcDbEntity
  8
FORMAT
 62
     0
100
AcDbLine
 10
609.229229883
 20
-247.5780861226
 30
0.0
 11
626.2354598569
 21
-233.621433871
 31
0.0
  0
LINE
  5
EA
330
68
100
AcDbEntity
  8
FORMAT
 62
     0
100
AcDbLine
 10
601.4991253493
 20
-253.9220189643
 30
0.0
 11
584.4928953754
 21
-267.8786712159
 31
0.0
  0
LINE
  5
EB
330
68
100
AcDbEntity
  8
FORMAT
 62
     0
100
AcDbLine
 10
681.0571912511
 20
-364.0326529431
 30
0.0
 11
683.261994412
 21
-362.8541611011
 31
0.0
  0
LINE
  5
EC
330
68
100
AcDbEntity
  8
FORMAT
 62
     0
100
AcDbLine
 10
681.0571912511
 20
-364.0326529431
 30
0.0
 11
678.8523880903
 21
-365.2111447852
 31
0.0
  0
LINE
  5
ED
330
68
100
AcDbEntity
  8
FORMAT
 62
     0
100
AcDbLine
 10
685.4667975729
 20
-361.675669259
 30
0.0
 11
704.8690653886
 21
-351.3049410488
 31
0.0
  0
LINE
  5
EE
330
68
100
AcDbEntity
  8
FORMAT
 62
     0
100
AcDbLine
 10
676.6475849294
 20
-366.3896366272
 30
0.0
 11
657.2453171137
 21
-376.7603648374
 31
0.0
  0
LINE
  5
EF
330
68
100
AcDbEntity
  8
FORMAT
 62
     0
100
AcDbLine
 10
733.1954458629
 20
-489.9055343453
 30
0.0
 11
735.5877967023
 21
-489.1798226522
 31
0.0
  0
LINE
  5
F0
330
68
100
AcDbEntity
  8
FORMAT
 62
     0
100
AcDbLine
 10
733.1954458629
 20
-489.9055343453
 30
0.0
 11
730.8030950236
 21
-490.6312460385
 31
0.0
  0
LINE
  5
F1
330
68
100
AcDbEntity
  8
FORMAT
 62
     0
100
AcDbLine
 10
737.9801475416
 20
-488.4541109591
 30
0.0
 11
759.0328349277
 21
-482.0678480595
 31
0.0
  0
LINE
  5
F2
330
68
100
AcDbEntity
  8
FORMAT
 62
     0
100
AcDbLine
 10
728.4107441843
 20
-491.3569577316
 30
0.0
 11
707.3580567982
 21
-497.7432206312
 31
0.0
  0
LINE
  5
F3
330
68
100
AcDbEntity
  8
FORMAT
 62
     0
100
AcDbLine
 10
759.7752975662
 20
-623.5314725081
 30
0.0
 11
762.2632593829
 21
-623.2864296573
 31
0.0
  0
LINE
  5
F4
330
68
100
AcDbEntity
  8
FORMAT
 62
     0
100
AcDbLine
 10
759.7752975662
 20
-623.5314725081
 30
0.0
 11
757.2873357495
 21
-623.776515359
 31
0.0
  0
LINE
  5
F5
330
68
100
AcDbEntity
  8
FORMAT
 62
     0
100
AcDbLine
 10
764.7512211996
 20
-623.0413868065
 30
0.0
 11
786.6452851864
 21
-620.8850097192
 31
0.0
  0
LINE
  5
F6
330
68
100
AcDbEntity
  8
FORMAT
 62
     0
100
AcDbLine
 10
754.7993739329
 20
-624.0215582098
 30
0.0
 11
732.9053099461
 21
-626.177935297
 31
0.0
  0
LINE
  5
F7
330
68
100
AcDbEntity
  8
FORMAT
 62
     0
100
AcDbLine
 10
759.7752975662
 20
-759.7752975662
 30
0.0
 11
762.2632593829
 21
-760.0203404171
 31
0.0
  0
LINE
  5
F8
330
68
100
AcDbEntity
  8
FORMAT
 62
     0
100
AcDbLine
 10
759.7752975662
 20
-759.7752975662
 30
0.0
 11
757.2873357495
 21
-759.5302547154
 31
0.0
  0
LINE
  5
F9
330
68
100
AcDbEntity
  8
FORMAT
 62
     0
100
AcDbLine
 10
764.7512211996
 20
-760.2653832679
 30
0.0
 11
786.6452851864
 21
-762.4217603551
 31
0.0
  0
LINE
  5
FA
330
68
100
AcDbEntity
  8
FORMAT
 62
     0
100
AcDbLine
 10
754.7993739329
 20
-759.2852118646
 30
0.0
 11
732.9053099461
 21
-757.1288347773
 31
0.0
  0
LINE
  5
FB
330
68
100
AcDbEntity
  8
FORMAT
 62
     0
100
AcDbLine
 10
733.1954458629
 20
-893.401235729
 30
0.0
 11
735.5877967023
 21
-894.1269474222
 31
0.0
  0
LINE
  5
FC
330
68
100
AcDbEntity
  8
FORMAT
 62
     0
100
AcDbLine
 10
733.1954458629
 20
-893.401235729
 30
0.0
 11
730.8030950236
 21
-892.6755240359
 31
0.0
  0
LINE
  5
FD
330
68
100
AcDbEntity
  8
FORMAT
 62
     0
100
AcDbLine
 10
737.9801475416
 20
-894.8526591153
 30
0.0
 11
759.0328349277
 21
-901.2389220149
 31
0.0
  0
LINE
  5
FE
330
68
100
AcDbEntity
  8
FORMAT
 62
     0
100
AcDbLine
 10
728.4107441843
 20
-891.9498123428
 30
0.0
 11
707.3580567982
 21
-885.5635494432
 31
0.0
  0
LINE
  5
FF
330
68
100
AcDbEntity
  8
FORMAT
 62
     0
100
AcDbLine
 10
681.0571912511
 20
-1019.2741171313
 30
0.0
 11
683.261994412
 21
-1020.4526089733
 31
0.0
  0
LINE
  5
100
330
68
100
AcDbEntity
  8
FORMAT
 62
     0
100
AcDbLine
 10
681.0571912511
 20
-1019.2741171313
 30
0.0
 11
678.8523880903
 21
-1018.0956252892
 31
0.0
  0
LINE
  5
101
330
68
100
AcDbEntity
  8
FORMAT
 62
     0
100
AcDbLine
 10
685.4667975729
 20
-1021.6311008154
 30
0.0
 11
704.8690653885
 21
-1032.0018290256
 31
0.0
  0
LINE
  5
102
330
68
100
AcDbEntity
  8
FORMAT
 62
     0
100
AcDbLine
 10
676.6475849294
 20
-1016.9171334471
 30
0.0
 11
657.2453171137
 21
-1006.546405237
 31
0.0
  0
LINE
  5
103
330
68
100
AcDbEntity
  8
FORMAT
 62
     0
100
AcDbLine
 10
605.3641776161
 20
-1132.5567175309
 30
0.0
 11
607.2967037495
 21
-1134.1427007413
 31
0.0
  0
LINE
  5
104
330
68
100
AcDbEntity
  8
FORMAT
 62
     0
100
AcDbLine
 10
605.3641776161
 20
-1132.5567175309
 30
0.0
 11
603.4316514827
 21
-1130.9707343205
 31
0.0
  0
LINE
  5
105
330
68
100
AcDbEntity
  8
FORMAT
 62
     0
100
AcDbLine
 10
609.2292298829
 20
-1135.7286839517
 30
0.0
 11
626.2354598569
 21
-1149.6853362033
 31
0.0
  0
LINE
  5
106
330
68
100
AcDbEntity
  8
FORMAT
 62
     0
100
AcDbLine
 10
601.4991253493
 20
-1129.3847511101
 30
0.0
 11
584.4928953753
 21
-1115.4280988585
 31
0.0
  0
LINE
  5
107
330
68
100
AcDbEntity
  8
FORMAT
 62
     0
100
AcDbLine
 10
509.0252450228
 20
-1228.8956501243
 30
0.0
 11
510.6112282332
 21
-1230.8281762577
 31
0.0
  0
LINE
  5
108
330
68
100
AcDbEntity
  8
FORMAT
 62
     0
100
AcDbLine
 10
509.0252450228
 20
-1228.8956501243
 30
0.0
 11
507.4392618124
 21
-1226.9631239909
 31
0.0
  0
LINE
  5
109
330
68
100
AcDbEntity
  8
FORMAT
 62
     0
100
AcDbLine
 10
512.1972114436
 20
-1232.7607023911
 30
0.0
 11
526.1538636952
 21
-1249.7669323651
 31
0.0
  0
LINE
  5
10A
330
68
100
AcDbEntity
  8
FORMAT
 62
     0
100
AcDbLine
 10
505.8532786019
 20
-1225.0305978575
 30
0.0
 11
491.8966263503
 21
-1208.0243678835
 31
0.0
  0
LINE
  5
10B
330
68
100
AcDbEntity
  8
FORMAT
 62
     0
100
AcDbLine
 10
395.7426446231
 20
-1304.5886637593
 30
0.0
 11
396.9211364652
 21
-1306.7934669202
 31
0.0
  0
LINE
  5
10C
330
68
100
AcDbEntity
  8
FORMAT
 62
     0
100
AcDbLine
 10
395.7426446231
 20
-1304.5886637593
 30
0.0
 11
394.564152781
 21
-1302.3838605984
 31
0.0
  0
LINE
  5
10D
330
68
100
AcDbEntity
  8
FORMAT
 62
     0
100
AcDbLine
 10
398.0996283072
 20
-1308.998270081
 30
0.0
 11
408.4703565174
 21
-1328.4005378967
 31
0.0
  0
LINE
  5
10E
330
68
100
AcDbEntity
  8
FORMAT
 62
     0
100
AcDbLine
 10
393.385660939
 20
-1300.1790574375
 30
0.0
 11
383.0149327288
 21
-1280.7767896219
 31
0.0
  0
LINE
  5
10F
330
68
100
AcDbEntity
  8
FORMAT
 62
     0
100
AcDbLine
 10
269.8697632209
 20
-1356.7269183711
 30
0.0
 11
270.595474914
 21
-1359.1192692104
 31
0.0
  0
LINE
  5
110
330
68
100
AcDbEntity
  8
FORMAT
 62
     0
100
AcDbLine
 10
269.8697632209
 20
-1356.7269183711
 30
0.0
 11
269.1440515277
 21
-1354.3345675317
 31
0.0
  0
LINE
  5
111
330
68
100
AcDbEntity
  8
FORMAT
 62
     0
100
AcDbLine
 10
271.3211866072
 20
-1361.5116200497
 30
0.0
 11
277.7074495068
 21
-1382.5643074358
 31
0.0
  0
LINE
  5
112
330
68
100
AcDbEntity
  8
FORMAT
 62
     0
100
AcDbLine
 10
268.4183398346
 20
-1351.9422166924
 30
0.0
 11
262.032076935
 21
-1330.8895293063
 31
0.0
  0
LINE
  5
113
330
68
100
AcDbEntity
  8
FORMAT
 62
     0
100
AcDbLine
 10
136.2438250581
 20
-1383.3067700744
 30
0.0
 11
136.4888679089
 21
-1385.794731891
 31
0.0
  0
LINE
  5
114
330
68
100
AcDbEntity
  8
FORMAT
 62
     0
100
AcDbLine
 10
136.2438250581
 20
-1383.3067700744
 30
0.0
 11
135.9987822072
 21
-1380.8188082577
 31
0.0
  0
LINE
  5
115
330
68
100
AcDbEntity
  8
FORMAT
 62
     0
100
AcDbLine
 10
136.7339107597
 20
-1388.2826937077
 30
0.0
 11
138.890287847
 21
-1410.1767576945
 31
0.0
  0
LINE
  5
116
330
68
100
AcDbEntity
  8
FORMAT
 62
     0
100
AcDbLine
 10
135.7537393564
 20
-1378.330846441
 30
0.0
 11
133.5973622692
 21
-1356.4367824542
 31
0.0
  0
LINE
  5
117
330
68
100
AcDbEntity
  8
FORMAT
 62
     0
100
AcDbLine
 10
0.0
 20
-1383.3067700744
 30
0.0
 11
-0.2450428508
 21
-1385.794731891
 31
0.0
  0
LINE
  5
118
330
68
100
AcDbEntity
  8
FORMAT
 62
     0
100
AcDbLine
 10
0.0
 20
-1383.3067700744
 30
0.0
 11
0.2450428508
 21
-1380.8188082577
 31
0.0
  0
LINE
  5
119
330
68
100
AcDbEntity
  8
FORMAT
 62
     0
100
AcDbLine
 10
-0.4900857017
 20
-1388.2826937077
 30
0.0
 11
-2.6464627889
 21
-1410.1767576945
 31
0.0
  0
LINE
  5
11A
330
68
100
AcDbEntity
  8
FORMAT
 62
     0
100
AcDbLine
 10
0.4900857016
 20
-1378.330846441
 30
0.0
 11
2.6464627889
 21
-1356.4367824542
 31
0.0
  0
LINE
  5
11B
330
68
100
AcDbEntity
  8
FORMAT
 62
     0
100
AcDbLine
 10
-133.6259381628
 20
-1356.7269183711
 30
0.0
 11
-134.351649856
 21
-1359.1192692104
 31
0.0
  0
LINE
  5
11C
330
68
100
AcDbEntity
  8
FORMAT
 62
     0
100
AcDbLine
 10
-133.6259381628
 20
-1356.7269183711
 30
0.0
 11
-132.9002264697
 21
-1354.3345675317
 31
0.0
  0
LINE
  5
11D
330
68
100
AcDbEntity
  8
FORMAT
 62
     0
100
AcDbLine
 10
-135.0773615491
 20
-1361.5116200497
 30
0.0
 11
-141.4636244487
 21
-1382.5643074358
 31
0.0
  0
LINE
  5
11E
330
68
100
AcDbEntity
  8
FORMAT
 62
     0
100
AcDbLine
 10
-132.1745147766
 20
-1351.9422166924
 30
0.0
 11
-125.788251877
 21
-1330.8895293063
 31
0.0
  0
LINE
  5
11F
330
68
100
AcDbEntity
  8
FORMAT
 62
     0
100
AcDbLine
 10
-259.498819565
 20
-1304.5886637593
 30
0.0
 11
-260.6773114071
 21
-1306.7934669202
 31
0.0
  0
LINE
  5
120
330
68
100
AcDbEntity
  8
FORMAT
 62
     0
100
AcDbLine
 10
-259.498819565
 20
-1304.5886637593
 30
0.0
 11
-258.320327723
 21
-1302.3838605984
 31
0.0
  0
LINE
  5
121
330
68
100
AcDbEntity
  8
FORMAT
 62
     0
100
AcDbLine
 10
-261.8558032492
 20
-1308.998270081
 30
0.0
 11
-272.2265314593
 21
-1328.4005378967
 31
0.0
  0
LINE
  5
122
330
68
100
AcDbEntity
  8
FORMAT
 62
     0
100
AcDbLine
 10
-257.1418358809
 20
-1300.1790574375
 30
0.0
 11
-246.7711076707
 21
-1280.7767896219
 31
0.0
  0
LINE
  5
123
330
68
100
AcDbEntity
  8
FORMAT
 62
     0
100
AcDbLine
 10
-372.7814199647
 20
-1228.8956501243
 30
0.0
 11
-374.3674031751
 21
-1230.8281762577
 31
0.0
  0
LINE
  5
124
330
68
100
AcDbEntity
  8
FORMAT
 62
     0
100
AcDbLine
 10
-372.7814199647
 20
-1228.8956501243
 30
0.0
 11
-371.1954367543
 21
-1226.9631239909
 31
0.0
  0
LINE
  5
125
330
68
100
AcDbEntity
  8
FORMAT
 62
     0
100
AcDbLine
 10
-375.9533863855
 20
-1232.7607023911
 30
0.0
 11
-389.9100386371
 21
-1249.7669323651
 31
0.0
  0
LINE
  5
126
330
68
100
AcDbEntity
  8
FORMAT
 62
     0
100
AcDbLine
 10
-369.6094535439
 20
-1225.0305978575
 30
0.0
 11
-355.6528012923
 21
-1208.0243678835
 31
0.0
  0
LINE
  5
127
330
68
100
AcDbEntity
  8
FORMAT
 62
     0
100
AcDbLine
 10
-469.1203525581
 20
-1132.5567175309
 30
0.0
 11
-471.0528786915
 21
-1134.1427007413
 31
0.0
  0
LINE
  5
128
330
68
100
AcDbEntity
  8
FORMAT
 62
     0
100
AcDbLine
 10
-469.1203525581
 20
-1132.5567175309
 30
0.0
 11
-467.1878264247
 21
-1130.9707343205
 31
0.0
  0
LINE
  5
129
330
68
100
AcDbEntity
  8
FORMAT
 62
     0
100
AcDbLine
 10
-472.9854048249
 20
-1135.7286839517
 30
0.0
 11
-489.9916347989
 21
-1149.6853362033
 31
0.0
  0
LINE
  5
12A
330
68
100
AcDbEntity
  8
FORMAT
 62
     0
100
AcDbLine
 10
-465.2553002913
 20
-1129.3847511101
 30
0.0
 11
-448.2490703173
 21
-1115.4280988585
 31
0.0
  0
LINE
  5
12B
330
68
100
AcDbEntity
  8
FORMAT
 62
     0
100
AcDbLine
 10
-544.8133661931
 20
-1019.2741171312
 30
0.0
 11
-547.0181693539
 21
-1020.4526089733
 31
0.0
  0
LINE
  5
12C
330
68
100
AcDbEntity
  8
FORMAT
 62
     0
100
AcDbLine
 10
-544.8133661931
 20
-1019.2741171312
 30
0.0
 11
-542.6085630322
 21
-1018.0956252892
 31
0.0
  0
LINE
  5
12D
330
68
100
AcDbEntity
  8
FORMAT
 62
     0
100
AcDbLine
 10
-549.2229725148
 20
-1021.6311008154
 30
0.0
 11
-568.6252403305
 21
-1032.0018290255
 31
0.0
  0
LINE
  5
12E
330
68
100
AcDbEntity
  8
FORMAT
 62
     0
100
AcDbLine
 10
-540.4037598713
 20
-1016.9171334471
 30
0.0
 11
-521.0014920557
 21
-1006.5464052369
 31
0.0
  0
LINE
  5
12F
330
68
100
AcDbEntity
  8
FORMAT
 62
     0
100
AcDbLine
 10
-596.9516208049
 20
-893.401235729
 30
0.0
 11
-599.3439716442
 21
-894.1269474222
 31
0.0
  0
LINE
  5
130
330
68
100
AcDbEntity
  8
FORMAT
 62
     0
100
AcDbLine
 10
-596.9516208049
 20
-893.401235729
 30
0.0
 11
-594.5592699655
 21
-892.6755240359
 31
0.0
  0
LINE
  5
131
330
68
100
AcDbEntity
  8
FORMAT
 62
     0
100
AcDbLine
 10
-601.7363224835
 20
-894.8526591153
 30
0.0
 11
-622.7890098696
 21
-901.2389220149
 31
0.0
  0
LINE
  5
132
330
68
100
AcDbEntity
  8
FORMAT
 62
     0
100
AcDbLine
 10
-592.1669191262
 20
-891.9498123428
 30
0.0
 11
-571.1142317401
 21
-885.5635494432
 31
0.0
  0
LINE
  5
133
330
68
100
AcDbEntity
  8
FORMAT
 62
     0
100
AcDbLine
 10
-623.5314725081
 20
-759.7752975662
 30
0.0
 11
-626.0194343248
 21
-760.020340417
 31
0.0
  0
LINE
  5
134
330
68
100
AcDbEntity
  8
FORMAT
 62
     0
100
AcDbLine
 10
-623.5314725081
 20
-759.7752975662
 30
0.0
 11
-621.0435106915
 21
-759.5302547154
 31
0.0
  0
LINE
  5
135
330
68
100
AcDbEntity
  8
FORMAT
 62
     0
100
AcDbLine
 10
-628.5073961415
 20
-760.2653832679
 30
0.0
 11
-650.4014601283
 21
-762.4217603551
 31
0.0
  0
LINE
  5
136
330
68
100
AcDbEntity
  8
FORMAT
 62
     0
100
AcDbLine
 10
-618.5555488748
 20
-759.2852118646
 30
0.0
 11
-596.661484888
 21
-757.1288347773
 31
0.0
  0
LINE
  5
137
330
68
100
AcDbEntity
  8
FORMAT
 62
     0
100
AcDbLine
 10
-623.5314725081
 20
-623.5314725081
 30
0.0
 11
-626.0194343248
 21
-623.2864296573
 31
0.0
  0
LINE
  5
138
330
68
100
AcDbEntity
  8
FORMAT
 62
     0
100
AcDbLine
 10
-623.5314725081
 20
-623.5314725081
 30
0.0
 11
-621.0435106915
 21
-623.7765153589
 31
0.0
  0
LINE
  5
139
330
68
100
AcDbEntity
  8
FORMAT
 62
     0
100
AcDbLine
 10
-628.5073961415
 20
-623.0413868065
 30
0.0
 11
-650.4014601283
 21
-620.8850097192
 31
0.0
  0
LINE
  5
13A
330
68
100
AcDbEntity
  8
FORMAT
 62
     0
100
AcDbLine
 10
-618.5555488748
 20
-624.0215582098
 30
0.0
 11
-596.661484888
 21
-626.177935297
 31
0.0
  0
LINE
  5
13B
330
68
100
AcDbEntity
  8
FORMAT
 62
     0
100
AcDbLine
 10
-596.9516208048
 20
-489.9055343453
 30
0.0
 11
-599.3439716442
 21
-489.1798226522
 31
0.0
  0
LINE
  5
13C
330
68
100
AcDbEntity
  8
FORMAT
 62
     0
100
AcDbLine
 10
-596.9516208048
 20
-489.9055343453
 30
0.0
 11
-594.5592699655
 21
-490.6312460385
 31
0.0
  0
LINE
  5
13D
330
68
100
AcDbEntity
  8
FORMAT
 62
     0
100
AcDbLine
 10
-601.7363224835
 20
-488.454110959
 30
0.0
 11
-622.7890098696
 21
-482.0678480594
 31
0.0
  0
LINE
  5
13E
330
68
100
AcDbEntity
  8
FORMAT
 62
     0
100
AcDbLine
 10
-592.1669191262
 20
-491.3569577316
 30
0.0
 11
-571.1142317401
 21
-497.7432206312
 31
0.0
  0
LINE
  5
13F
330
68
100
AcDbEntity
  8
FORMAT
 62
     0
100
AcDbLine
 10
-544.8133661931
 20
-364.0326529431
 30
0.0
 11
-547.0181693539
 21
-362.854161101
 31
0.0
  0
LINE
  5
140
330
68
100
AcDbEntity
  8
FORMAT
 62
     0
100
AcDbLine
 10
-544.8133661931
 20
-364.0326529431
 30
0.0
 11
-542.6085630322
 21
-365.2111447852
 31
0.0
  0
LINE
  5
141
330
68
100
AcDbEntity
  8
FORMAT
 62
     0
100
AcDbLine
 10
-549.2229725148
 20
-361.675669259
 30
0.0
 11
-568.6252403305
 21
-351.3049410488
 31
0.0
  0
LINE
  5
142
330
68
100
AcDbEntity
  8
FORMAT
 62
     0
100
AcDbLine
 10
-540.4037598713
 20
-366.3896366272
 30
0.0
 11
-521.0014920557
 21
-376.7603648374
 31
0.0
  0
LINE
  5
143
330
68
100
AcDbEntity
  8
FORMAT
 62
     0
100
AcDbLine
 10
-469.1203525581
 20
-250.7500525434
 30
0.0
 11
-471.0528786915
 21
-249.164069333
 31
0.0
  0
LINE
  5
144
330
68
100
AcDbEntity
  8
FORMAT
 62
     0
100
AcDbLine
 10
-469.1203525581
 20
-250.7500525434
 30
0.0
 11
-467.1878264247
 21
-252.3360357538
 31
0.0
  0
LINE
  5
145
330
68
100
AcDbEntity
  8
FORMAT
 62
     0
100
AcDbLine
 10
-472.9854048249
 20
-247.5780861226
 30
0.0
 11
-489.9916347989
 21
-233.621433871
 31
0.0
  0
LINE
  5
146
330
68
100
AcDbEntity
  8
FORMAT
 62
     0
100
AcDbLine
 10
-465.2553002912
 20
-253.9220189643
 30
0.0
 11
-448.2490703173
 21
-267.8786712159
 31
0.0
  0
LINE
  5
147
330
68
100
AcDbEntity
  8
FORMAT
 62
     0
100
AcDbLine
 10
-372.7814199647
 20
-154.4111199501
 30
0.0
 11
-374.3674031751
 21
-152.4785938167
 31
0.0
  0
LINE
  5
148
330
68
100
AcDbEntity
  8
FORMAT
 62
     0
100
AcDbLine
 10
-372.7814199647
 20
-154.4111199501
 30
0.0
 11
-371.1954367543
 21
-156.3436460835
 31
0.0
  0
LINE
  5
149
330
68
100
AcDbEntity
  8
FORMAT
 62
     0
100
AcDbLine
 10
-375.9533863855
 20
-150.5460676833
 30
0.0
 11
-389.9100386371
 21
-133.5398377093
 31
0.0
  0
LINE
  5
14A
330
68
100
AcDbEntity
  8
FORMAT
 62
     0
100
AcDbLine
 10
-369.6094535439
 20
-158.2761722169
 30
0.0
 11
-355.6528012923
 21
-175.2824021909
 31
0.0
  0
LINE
  5
14B
330
68
100
AcDbEntity
  8
FORMAT
 62
     0
100
AcDbLine
 10
-259.498819565
 20
-78.7181063151
 30
0.0
 11
-260.6773114071
 21
-76.5133031542
 31
0.0
  0
LINE
  5
14C
330
68
100
AcDbEntity
  8
FORMAT
 62
     0
100
AcDbLine
 10
-259.498819565
 20
-78.7181063151
 30
0.0
 11
-258.320327723
 21
-80.9229094759
 31
0.0
  0
LINE
  5
14D
330
68
100
AcDbEntity
  8
FORMAT
 62
     0
100
AcDbLine
 10
-261.8558032492
 20
-74.3084999933
 30
0.0
 11
-272.2265314593
 21
-54.9062321777
 31
0.0
  0
LINE
  5
14E
330
68
100
AcDbEntity
  8
FORMAT
 62
     0
100
AcDbLine
 10
-257.1418358809
 20
-83.1277126368
 30
0.0
 11
-246.7711076707
 21
-102.5299804525
 31
0.0
  0
LINE
  5
14F
330
68
100
AcDbEntity
  8
FORMAT
 62
     0
100
AcDbLine
 10
-133.6259381628
 20
-26.5798517033
 30
0.0
 11
-134.3516498559
 21
-24.187500864
 31
0.0
  0
LINE
  5
150
330
68
100
AcDbEntity
  8
FORMAT
 62
     0
100
AcDbLine
 10
-133.6259381628
 20
-26.5798517033
 30
0.0
 11
-132.9002264697
 21
-28.9722025426
 31
0.0
  0
LINE
  5
151
330
68
100
AcDbEntity
  8
FORMAT
 62
     0
100
AcDbLine
 10
-135.0773615491
 20
-21.7951500246
 30
0.0
 11
-141.4636244487
 21
-0.7424626385
 31
0.0
  0
LINE
  5
152
330
68
100
AcDbEntity
  8
FORMAT
 62
     0
100
AcDbLine
 10
-132.1745147765
 20
-31.364553382
 30
0.0
 11
-125.7882518769
 21
-52.4172407681
 31
0.0
  0
ENDBLK
  5
6A
330
68
100
AcDbEntity
  8
0
100
AcDbBlockEnd
  0
ENDSEC
  0
SECTION
  2
ENTITIES
  0
CIRCLE
  5
46
330
1F
100
AcDbEntity
  8
0
  6
Continuous
 62
     7
370
    15
100
AcDbCircle
 10
-228.6987098088
 20
1649.0448246855
 30
0.0
 40
24.49999999999994
  0
CIRCLE
  5
47
330
1F
100
AcDbEntity
  8
0
  6
Continuous
 62
     7
370
    15
100
AcDbCircle
 10
30.8001097562
 20
1570.3267183704
 30
0.0
 40
24.50000000000002
  0
CIRCLE
  5
48
330
1F
100
AcDbEntity
  8
0
  6
Continuous
 62
     7
370
    15
100
AcDbCircle
 10
240.4216427492
 20
1398.2947721421
 30
0.0
 40
24.49999999999994
  0
CIRCLE
  5
49
330
1F
100
AcDbEntity
  8
0
  6
Continuous
 62
     7
370
    15
100
AcDbCircle
 10
368.252910996
 20
1159.1392903402
 30
0.0
 40
24.50000000000006
  0
CIRCLE
  5
4A
330
1F
100
AcDbEntity
  8
0
  6
Continuous
 62
     7
370
    15
100
AcDbCircle
 10
394.8327626993
 20
889.2695271193
 30
0.0
 40
24.49999999999994
  0
CIRCLE
  5
4B
330
1F
100
AcDbEntity
  8
0
  6
Continuous
 62
     7
370
    15
100
AcDbCircle
 10
316.1146563842
 20
629.7707075543
 30
0.0
 40
24.5
  0
CIRCLE
  5
4C
330
1F
100
AcDbEntity
  8
0
  6
Continuous
 62
     7
370
    15
100
AcDbCircle
 10
144.0827101558
 20
420.1491745612
 30
0.0
 40
24.49999999999996
  0
CIRCLE
  5
4D
330
1F
100
AcDbEntity
  8
0
  6
Continuous
 62
     7
370
    15
100
AcDbCircle
 10
-95.072771646
 20
292.3179063145
 30
0.0
 40
24.50000000000001
  0
CIRCLE
  5
4E
330
1F
100
AcDbEntity
  8
0
  6
Continuous
 62
     7
370
    15
100
AcDbCircle
 10
-364.9425348669
 20
265.7380546112
 30
0.0
 40
24.5
  0
CIRCLE
  5
4F
330
1F
100
AcDbEntity
  8
0
  6
Continuous
 62
     7
370
    15
100
AcDbCircle
 10
-624.441354432
 20
344.4561609262
 30
0.0
 40
24.49999999999989
  0
CIRCLE
  5
50
330
1F
100
AcDbEntity
  8
0
  6
Continuous
 62
     7
370
    15
100
AcDbCircle
 10
-909.75590106
 20
629.7707075543
 30
0.0
 40
24.5
  0
CIRCLE
  5
51
330
1F
100
AcDbEntity
  8
0
  6
Continuous
 62
     7
370
    15
100
AcDbCircle
 10
-988.4740073751
 20
889.2695271193
 30
0.0
 40
24.5
  0
CIRCLE
  5
52
330
1F
100
AcDbEntity
  8
0
  6
Continuous
 62
     7
370
    15
100
AcDbCircle
 10
-961.8941556718
 20
1159.1392903402
 30
0.0
 40
24.5
  0
CIRCLE
  5
53
330
1F
100
AcDbEntity
  8
0
  6
Continuous
 62
     7
370
    15
100
AcDbCircle
 10
-834.062887425
 20
1398.2947721421
 30
0.0
 40
24.49999999999989
  0
CIRCLE
  5
54
330
1F
100
AcDbEntity
  8
0
  6
Continuous
 62
     7
370
    15
100
AcDbCircle
 10
-624.4413544319
 20
1570.3267183705
 30
0.0
 40
24.50000000000011
  0
CIRCLE
  5
55
330
1F
100
AcDbEntity
  8
0
  6
Continuous
 62
     7
370
    15
100
AcDbCircle
 10
-737.7239548316
 20
420.1491745612
 30
0.0
 40
24.5
  0
CIRCLE
  5
56
330
1F
100
AcDbEntity
  8
0
  6
Continuous
 62
     7
370
    15
100
AcDbCircle
 10
-296.8206223379
 20
957.3914396483
 30
0.0
 40
600.0
  0
CIRCLE
  5
57
330
1F
100
AcDbEntity
  8
0
  6
Continuous
 62
     7
370
    15
100
AcDbCircle
 10
-296.8206223379
 20
957.3914396483
 30
0.0
 40
742.5000000000002
  0
CIRCLE
  5
58
330
1F
100
AcDbEntity
  8
0
  6
Continuous
 62
     7
370
    15
100
AcDbCircle
 10
-364.9425348669
 20
1649.0448246855
 30
0.0
 40
24.5
  0
CIRCLE
  5
59
330
1F
100
AcDbEntity
  8
0
  6
Continuous
 62
     7
370
    15
100
AcDbCircle
 10
-498.5684730297
 20
1622.4649729822
 30
0.0
 40
24.50000000000011
  0
CIRCLE
  5
5A
330
1F
100
AcDbEntity
  8
0
  6
Continuous
 62
     7
370
    15
100
AcDbCircle
 10
-737.7239548316
 20
1494.6337047354
 30
0.0
 40
24.50000000000011
  0
CIRCLE
  5
5B
330
1F
100
AcDbEntity
  8
0
  6
Continuous
 62
     7
370
    15
100
AcDbCircle
 10
-909.75590106
 20
1285.0121717424
 30
0.0
 40
24.5
  0
CIRCLE
  5
5C
330
1F
100
AcDbEntity
  8
0
  6
Continuous
 62
     7
370
    15
100
AcDbCircle
 10
-988.4740073751
 20
1025.5133521774
 30
0.0
 40
24.5
  0
CIRCLE
  5
5D
330
1F
100
AcDbEntity
  8
0
  6
Continuous
 62
     7
370
    15
100
AcDbCircle
 10
-961.8941556718
 20
755.6435889565
 30
0.0
 40
24.5
  0
CIRCLE
  5
5E
330
1F
100
AcDbEntity
  8
0
  6
Continuous
 62
     7
370
    15
100
AcDbCircle
 10
-834.062887425
 20
516.4881071546
 30
0.0
 40
24.5
  0
CIRCLE
  5
5F
330
1F
100
AcDbEntity
  8
0
  6
Continuous
 62
     7
370
    15
100
AcDbCircle
 10
-498.5684730297
 20
292.3179063145
 30
0.0
 40
24.5
  0
CIRCLE
  5
60
330
1F
100
AcDbEntity
  8
0
  6
Continuous
 62
     7
370
    15
100
AcDbCircle
 10
-228.6987098088
 20
265.7380546112
 30
0.0
 40
24.50000000000003
  0
CIRCLE
  5
61
330
1F
100
AcDbEntity
  8
0
  6
Continuous
 62
     7
370
    15
100
AcDbCircle
 10
30.8001097562
 20
344.4561609262
 30
0.0
 40
24.49999999999996
  0
CIRCLE
  5
62
330
1F
100
AcDbEntity
  8
0
  6
Continuous
 62
     7
370
    15
100
AcDbCircle
 10
240.4216427492
 20
516.4881071546
 30
0.0
 40
24.49999999999997
  0
CIRCLE
  5
63
330
1F
100
AcDbEntity
  8
0
  6
Continuous
 62
     7
370
    15
100
AcDbCircle
 10
368.252910996
 20
755.6435889565
 30
0.0
 40
24.49999999999994
  0
CIRCLE
  5
64
330
1F
100
AcDbEntity
  8
0
  6
Continuous
 62
     7
370
    15
100
AcDbCircle
 10
394.8327626993
 20
1025.5133521774
 30
0.0
 40
24.50000000000011
  0
CIRCLE
  5
65
330
1F
100
AcDbEntity
  8
0
  6
Continuous
 62
     7
370
    15
100
AcDbCircle
 10
316.1146563842
 20
1285.0121717424
 30
0.0
 40
24.49999999999994
  0
CIRCLE
  5
66
330
1F
100
AcDbEntity
  8
0
  6
Continuous
 62
     7
370
    15
100
AcDbCircle
 10
144.0827101559
 20
1494.6337047354
 30
0.0
 40
24.50000000000001
  0
CIRCLE
  5
67
330
1F
100
AcDbEntity
  8
0
  6
Continuous
 62
     7
370
    15
100
AcDbCircle
 10
-95.072771646
 20
1622.4649729822
 30
0.0
 40
24.50000000000001
  0
INSERT
  5
153
330
1F
100
AcDbEntity
  8
FORMAT
100
AcDbBlockReference
  2
SW_CENTERMARKSYMBOL_0
 10
-364.9425348669
 20
1649.0448246855
 30
0.0
  0
LINE
  5
154
330
1F
100
AcDbEntity
  8
0
  6
Continuous
 62
     7
370
    15
100
AcDbLine
 10
909.3100493986
 20
1699.8914468009
 30
0.0
 11
879.3100500692
 21
1699.8914468009
 31
0.0
  0
LINE
  5
155
330
1F
100
AcDbEntity
  8
0
  6
Continuous
 62
     7
370
    15
100
AcDbLine
 10
879.3100500692
 20
214.8914324958
 30
0.0
 11
909.3100493986
 21
214.8914324958
 31
0.0
  0
LINE
  5
156
330
1F
100
AcDbEntity
  8
0
  6
Continuous
 62
     7
370
    15
100
AcDbLine
 10
759.3100434382
 20
296.3914262969
 30
0.0
 11
762.5610595781
 21
296.3914262969
 31
0.0
  0
LINE
  5
157
330
1F
100
AcDbEntity
  8
0
  6
Continuous
 62
     7
370
    15
100
AcDbLine
 10
762.5610595781
 20
1618.3914529998
 30
0.0
 11
759.3100434382
 21
1618.3914529998
 31
0.0
  0
ARC
  5
158
330
1F
100
AcDbEntity
  8
0
  6
Continuous
 62
     7
370
    15
100
AcDbCircle
 10
762.5610558766
 20
299.3914396483
 30
0.0
 40
3.000000000000067
100
AcDbArc
 50
270.0
 51
355.0
  0
ARC
  5
159
330
1F
100
AcDbEntity
  8
0
  6
Continuous
 62
     7
370
    15
100
AcDbCircle
 10
762.5610558766
 20
1615.3914396483
 30
0.0
 40
3.000000000000227
100
AcDbArc
 50
5.0
 51
90.0
  0
LINE
  5
15A
330
1F
100
AcDbEntity
  8
0
  6
Continuous
 62
     7
370
    15
100
AcDbLine
 10
756.8100458223
 20
945.391439544
 30
0.0
 11
759.3100434382
 21
945.391439544
 31
0.0
  0
LINE
  5
15B
330
1F
100
AcDbEntity
  8
0
  6
Continuous
 62
     7
370
    15
100
AcDbLine
 10
759.3100434382
 20
969.3914397526
 30
0.0
 11
756.8100458223
 21
969.3914397526
 31
0.0
  0
LINE
  5
15C
330
1F
100
AcDbEntity
  8
0
  6
Continuous
 62
     7
370
    15
100
AcDbLine
 10
765.5496364672
 20
299.1299617011
 30
0.0
 11
766.0109317143
 21
304.4026481826
 31
0.0
  0
LINE
  5
15D
330
1F
100
AcDbEntity
  8
0
  6
Continuous
 62
     7
370
    15
100
AcDbLine
 10
766.0109317143
 20
1610.3802311141
 30
0.0
 11
765.5496364672
 21
1615.6529175956
 31
0.0
  0
LINE
  5
15E
330
1F
100
AcDbEntity
  8
0
  6
Continuous
 62
     7
370
    15
100
AcDbLine
 10
747.6469045717
 20
967.7837441582
 30
0.0
 11
746.410048588
 21
965.6414396036
 31
0.0
  0
LINE
  5
15F
330
1F
100
AcDbEntity
  8
0
  6
Continuous
 62
     7
370
    15
100
AcDbLine
 10
746.410048588
 20
949.141439693
 30
0.0
 11
747.6469045717
 21
946.9991351385
 31
0.0
  0
LINE
  5
160
330
1F
100
AcDbEntity
  8
0
  6
Continuous
 62
     7
370
    15
100
AcDbLine
 10
755.5731898386
 20
946.9991351385
 30
0.0
 11
756.8100458223
 21
949.141439693
 31
0.0
  0
LINE
  5
161
330
1F
100
AcDbEntity
  8
0
  6
Continuous
 62
     7
370
    15
100
AcDbLine
 10
756.8100458223
 20
965.6414396036
 30
0.0
 11
755.5731898386
 21
967.7837441582
 31
0.0
  0
LINE
  5
162
330
1F
100
AcDbEntity
  8
0
  6
Continuous
 62
     7
370
    15
100
AcDbLine
 10
746.410048588
 20
963.3914397005
 30
0.0
 11
711.3100504715
 21
963.3914397005
 31
0.0
  0
LINE
  5
163
330
1F
100
AcDbEntity
  8
0
  6
Continuous
 62
     7
370
    15
100
AcDbLine
 10
711.3100504715
 20
951.3914395962
 30
0.0
 11
746.410048588
 21
951.3914395962
 31
0.0
  0
LINE
  5
164
330
1F
100
AcDbEntity
  8
0
  6
Continuous
 62
     7
370
    15
100
AcDbLine
 10
879.3100500692
 20
963.3914397005
 30
0.0
 11
766.5324127514
 21
963.3914397005
 31
0.0
  0
LINE
  5
165
330
1F
100
AcDbEntity
  8
0
  6
Continuous
 62
     7
370
    15
100
AcDbLine
 10
766.5324574549
 20
951.3914395962
 30
0.0
 11
879.3100500692
 21
951.3914395962
 31
0.0
  0
ARC
  5
166
330
1F
100
AcDbEntity
  8
0
  6
Continuous
 62
     7
370
    15
100
AcDbCircle
 10
771.9528865735
 20
314.9508497672
 30
0.0
 40
5.000000000000037
100
AcDbArc
 50
93.0
 51
163.5194402099
  0
ARC
  5
167
330
1F
100
AcDbEntity
  8
0
  6
Continuous
 62
     7
370
    15
100
AcDbCircle
 10
771.9528865735
 20
1599.8320295295
 30
0.0
 40
5.000000000000099
100
AcDbArc
 50
196.4885200447
 51
267.0
  0
LINE
  5
168
330
1F
100
AcDbEntity
  8
0
  6
Continuous
 62
     7
370
    15
100
AcDbLine
 10
771.6912096579
 20
319.944022866
 30
0.0
 11
796.9408920247
 21
321.2673055846
 31
0.0
  0
LINE
  5
169
330
1F
100
AcDbEntity
  8
0
  6
Continuous
 62
     7
370
    15
100
AcDbLine
 10
796.9408920247
 20
1593.5155737121
 30
0.0
 11
771.6912096579
 21
1594.8388564307
 31
0.0
  0
ARC
  5
16A
330
1F
100
AcDbEntity
  8
0
  6
Continuous
 62
     7
370
    15
100
AcDbCircle
 10
796.8100493986
 20
323.7638510651
 30
0.0
 40
2.5
100
AcDbArc
 50
273.0
 51
0.0
  0
ARC
  5
16B
330
1F
100
AcDbEntity
  8
0
  6
Continuous
 62
     7
370
    15
100
AcDbCircle
 10
796.8100493986
 20
1591.0190282316
 30
0.0
 40
2.5
100
AcDbArc
 50
0.0
 51
87.0
  0
LINE
  5
16C
330
1F
100
AcDbEntity
  8
0
  6
Continuous
 62
     7
370
    15
100
AcDbLine
 10
879.3100500692
 20
1577.8914677817
 30
0.0
 11
799.3100499947
 21
1577.8914677817
 31
0.0
  0
LINE
  5
16D
330
1F
100
AcDbEntity
  8
0
  6
Continuous
 62
     7
370
    15
100
AcDbLine
 10
799.3100499947
 20
336.8914115149
 30
0.0
 11
879.3100500692
 21
336.8914115149
 31
0.0
  0
LINE
  5
16E
330
1F
100
AcDbEntity
  8
0
  6
Continuous
 62
     7
370
    15
100
AcDbLine
 10
756.8100458223
 20
1192.9876196105
 30
0.0
 11
759.3100434382
 21
1192.9876196105
 31
0.0
  0
LINE
  5
16F
330
1F
100
AcDbEntity
  8
0
  6
Continuous
 62
     7
370
    15
100
AcDbLine
 10
759.3100434382
 20
1216.9876086432
 30
0.0
 11
756.8100458223
 21
1216.9876086432
 31
0.0
  0
LINE
  5
170
330
1F
100
AcDbEntity
  8
0
  6
Continuous
 62
     7
370
    15
100
AcDbLine
 10
756.8100458223
 20
697.7952706534
 30
0.0
 11
759.3100434382
 21
697.7952706534
 31
0.0
  0
LINE
  5
171
330
1F
100
AcDbEntity
  8
0
  6
Continuous
 62
     7
370
    15
100
AcDbLine
 10
759.3100434382
 20
721.7952596862
 30
0.0
 11
756.8100458223
 21
721.7952596862
 31
0.0
  0
LINE
  5
172
330
1F
100
AcDbEntity
  8
0
  6
Continuous
 62
     7
370
    15
100
AcDbLine
 10
756.3308095772
 20
1195.9075617511
 30
0.0
 11
756.8100458223
 21
1196.7376160342
 31
0.0
  0
LINE
  5
173
330
1F
100
AcDbEntity
  8
0
  6
Continuous
 62
     7
370
    15
100
AcDbLine
 10
756.8100458223
 20
1213.2376122195
 30
0.0
 11
756.3308095772
 21
1214.067696305
 31
0.0
  0
LINE
  5
174
330
1F
100
AcDbEntity
  8
0
  6
Continuous
 62
     7
370
    15
100
AcDbLine
 10
746.8978828032
 20
1214.0825676639
 30
0.0
 11
746.410048588
 21
1213.2376122195
 31
0.0
  0
LINE
  5
175
330
1F
100
AcDbEntity
  8
0
  6
Continuous
 62
     7
370
    15
100
AcDbLine
 10
746.410048588
 20
1196.7376160342
 30
0.0
 11
746.8978828032
 21
1195.892675491
 31
0.0
  0
LINE
  5
176
330
1F
100
AcDbEntity
  8
0
  6
Continuous
 62
     7
370
    15
100
AcDbLine
 10
756.3222116072
 20
700.7003116328
 30
0.0
 11
756.8100458223
 21
701.5452670772
 31
0.0
  0
LINE
  5
177
330
1F
100
AcDbEntity
  8
0
  6
Continuous
 62
     7
370
    15
100
AcDbLine
 10
756.8100458223
 20
718.0452632625
 30
0.0
 11
756.3222116072
 21
718.8902038056
 31
0.0
  0
LINE
  5
178
330
1F
100
AcDbEntity
  8
0
  6
Continuous
 62
     7
370
    15
100
AcDbLine
 10
746.8892848332
 20
718.8753175456
 30
0.0
 11
746.410048588
 21
718.0452632625
 31
0.0
  0
LINE
  5
179
330
1F
100
AcDbEntity
  8
0
  6
Continuous
 62
     7
370
    15
100
AcDbLine
 10
746.410048588
 20
701.5452670772
 30
0.0
 11
746.8892848332
 21
700.7151829917
 31
0.0
  0
LINE
  5
17A
330
1F
100
AcDbEntity
  8
0
  6
Continuous
 62
     7
370
    15
100
AcDbLine
 10
746.410048588
 20
1210.9876262862
 30
0.0
 11
711.3100504715
 21
1210.9876262862
 31
0.0
  0
LINE
  5
17B
330
1F
100
AcDbEntity
  8
0
  6
Continuous
 62
     7
370
    15
100
AcDbLine
 10
711.3100504715
 20
1198.9876168687
 30
0.0
 11
746.410048588
 21
1198.9876168687
 31
0.0
  0
LINE
  5
17C
330
1F
100
AcDbEntity
  8
0
  6
Continuous
 62
     7
370
    15
100
AcDbLine
 10
879.3100500692
 20
1210.9876262862
 30
0.0
 11
766.332513674
 21
1210.9876262862
 31
0.0
  0
LINE
  5
17D
330
1F
100
AcDbEntity
  8
0
  6
Continuous
 62
     7
370
    15
100
AcDbLine
 10
766.7333698113
 20
1198.9876168687
 30
0.0
 11
879.3100500692
 21
1198.9876168687
 31
0.0
  0
LINE
  5
17E
330
1F
100
AcDbEntity
  8
0
  6
Continuous
 62
     7
370
    15
100
AcDbLine
 10
746.410048588
 20
715.795262428
 30
0.0
 11
711.3100504715
 21
715.795262428
 31
0.0
  0
LINE
  5
17F
330
1F
100
AcDbEntity
  8
0
  6
Continuous
 62
     7
370
    15
100
AcDbLine
 10
711.3100504715
 20
703.7952530105
 30
0.0
 11
746.410048588
 21
703.7952530105
 31
0.0
  0
LINE
  5
180
330
1F
100
AcDbEntity
  8
0
  6
Continuous
 62
     7
370
    15
100
AcDbLine
 10
879.3100500692
 20
715.795262428
 30
0.0
 11
766.7330121834
 21
715.795262428
 31
0.0
  0
LINE
  5
181
330
1F
100
AcDbEntity
  8
0
  6
Continuous
 62
     7
370
    15
100
AcDbLine
 10
766.3320666391
 20
703.7952530105
 30
0.0
 11
879.3100500692
 21
703.7952530105
 31
0.0
  0
LINE
  5
182
330
1F
100
AcDbEntity
  8
0
  6
Continuous
 62
     7
370
    15
100
AcDbLine
 10
756.8100458223
 20
1402.8895187098
 30
0.0
 11
759.3100434382
 21
1402.8895187098
 31
0.0
  0
LINE
  5
183
330
1F
100
AcDbEntity
  8
0
  6
Continuous
 62
     7
370
    15
100
AcDbLine
 10
759.3100434382
 20
1426.8895375449
 30
0.0
 11
756.8100458223
 21
1426.8895375449
 31
0.0
  0
LINE
  5
184
330
1F
100
AcDbEntity
  8
0
  6
Continuous
 62
     7
370
    15
100
AcDbLine
 10
756.8100458223
 20
487.8933417518
 30
0.0
 11
759.3100434382
 21
487.8933417518
 31
0.0
  0
LINE
  5
185
330
1F
100
AcDbEntity
  8
0
  6
Continuous
 62
     7
370
    15
100
AcDbLine
 10
759.3100434382
 20
511.8933605868
 30
0.0
 11
756.8100458223
 21
511.8933605868
 31
0.0
  0
LINE
  5
186
330
1F
100
AcDbEntity
  8
0
  6
Continuous
 62
     7
370
    15
100
AcDbLine
 10
747.0270162661
 20
1424.2081331927
 30
0.0
 11
746.410048588
 21
1423.1395411212
 31
0.0
  0
LINE
  5
187
330
1F
100
AcDbEntity
  8
0
  6
Continuous
 62
     7
370
    15
100
AcDbLine
 10
746.410048588
 20
1406.6395151336
 30
0.0
 11
747.0270162661
 21
1405.570923062
 31
0.0
  0
LINE
  5
188
330
1F
100
AcDbEntity
  8
0
  6
Continuous
 62
     7
370
    15
100
AcDbLine
 10
756.1878627379
 20
1405.561863156
 30
0.0
 11
756.8100458223
 21
1406.6395151336
 31
0.0
  0
LINE
  5
189
330
1F
100
AcDbEntity
  8
0
  6
Continuous
 62
     7
370
    15
100
AcDbLine
 10
756.8100458223
 20
1423.1395411212
 30
0.0
 11
756.1878627379
 21
1424.2171930987
 31
0.0
  0
LINE
  5
18A
330
1F
100
AcDbEntity
  8
0
  6
Continuous
 62
     7
370
    15
100
AcDbLine
 10
747.0322316725
 20
509.2210161407
 30
0.0
 11
746.410048588
 21
508.1433641631
 31
0.0
  0
LINE
  5
18B
330
1F
100
AcDbEntity
  8
0
  6
Continuous
 62
     7
370
    15
100
AcDbLine
 10
746.410048588
 20
491.6433381755
 30
0.0
 11
747.0322316725
 21
490.5656861979
 31
0.0
  0
LINE
  5
18C
330
1F
100
AcDbEntity
  8
0
  6
Continuous
 62
     7
370
    15
100
AcDbLine
 10
756.1930781443
 20
490.574746104
 30
0.0
 11
756.8100458223
 21
491.6433381755
 31
0.0
  0
LINE
  5
18D
330
1F
100
AcDbEntity
  8
0
  6
Continuous
 62
     7
370
    15
100
AcDbLine
 10
756.8100458223
 20
508.1433641631
 30
0.0
 11
756.1930781443
 21
509.2119562346
 31
0.0
  0
LINE
  5
18E
330
1F
100
AcDbEntity
  8
0
  6
Continuous
 62
     7
370
    15
100
AcDbLine
 10
746.410048588
 20
1420.8895253856
 30
0.0
 11
711.3100504715
 21
1420.8895253856
 31
0.0
  0
LINE
  5
18F
330
1F
100
AcDbEntity
  8
0
  6
Continuous
 62
     7
370
    15
100
AcDbLine
 10
711.3100504715
 20
1408.8895308692
 30
0.0
 11
746.410048588
 21
1408.8895308692
 31
0.0
  0
LINE
  5
190
330
1F
100
AcDbEntity
  8
0
  6
Continuous
 62
     7
370
    15
100
AcDbLine
 10
879.3100500692
 20
1420.8895253856
 30
0.0
 11
766.1626404364
 21
1420.8895253856
 31
0.0
  0
LINE
  5
191
330
1F
100
AcDbEntity
  8
0
  6
Continuous
 62
     7
370
    15
100
AcDbLine
 10
766.9039285023
 20
1408.8895308692
 30
0.0
 11
879.3100500692
 21
1408.8895308692
 31
0.0
  0
LINE
  5
192
330
1F
100
AcDbEntity
  8
0
  6
Continuous
 62
     7
370
    15
100
AcDbLine
 10
746.410048588
 20
505.8933484275
 30
0.0
 11
711.3100504715
 21
505.8933484275
 31
0.0
  0
LINE
  5
193
330
1F
100
AcDbEntity
  8
0
  6
Continuous
 62
     7
370
    15
100
AcDbLine
 10
711.3100504715
 20
493.8933539111
 30
0.0
 11
746.410048588
 21
493.8933539111
 31
0.0
  0
LINE
  5
194
330
1F
100
AcDbEntity
  8
0
  6
Continuous
 62
     7
370
    15
100
AcDbLine
 10
879.3100500692
 20
505.8933484275
 30
0.0
 11
766.9036304791
 21
505.8933484275
 31
0.0
  0
LINE
  5
195
330
1F
100
AcDbEntity
  8
0
  6
Continuous
 62
     7
370
    15
100
AcDbLine
 10
766.1635792095
 20
493.8933539111
 30
0.0
 11
879.3100500692
 21
493.8933539111
 31
0.0
  0
LINE
  5
196
330
1F
100
AcDbEntity
  8
0
  6
Continuous
 62
     7
370
    15
100
AcDbLine
 10
756.8100458223
 20
1543.1414830405
 30
0.0
 11
759.3100434382
 21
1543.1414830405
 31
0.0
  0
LINE
  5
197
330
1F
100
AcDbEntity
  8
0
  6
Continuous
 62
     7
370
    15
100
AcDbLine
 10
759.3100434382
 20
1567.1414720733
 30
0.0
 11
756.8100458223
 21
1567.1414720733
 31
0.0
  0
LINE
  5
198
330
1F
100
AcDbEntity
  8
0
  6
Continuous
 62
     7
370
    15
100
AcDbLine
 10
756.8100458223
 20
347.6414072234
 30
0.0
 11
759.3100434382
 21
347.6414072234
 31
0.0
  0
LINE
  5
199
330
1F
100
AcDbEntity
  8
0
  6
Continuous
 62
     7
370
    15
100
AcDbLine
 10
759.3100434382
 20
371.6413962562
 30
0.0
 11
756.8100458223
 21
371.6413962562
 31
0.0
  0
LINE
  5
19A
330
1F
100
AcDbEntity
  8
0
  6
Continuous
 62
     7
370
    15
100
AcDbLine
 10
747.2720807631
 20
1564.8845421988
 30
0.0
 11
746.410048588
 21
1563.3915054519
 31
0.0
  0
LINE
  5
19B
330
1F
100
AcDbEntity
  8
0
  6
Continuous
 62
     7
370
    15
100
AcDbLine
 10
746.410048588
 20
1546.8915092666
 30
0.0
 11
747.2746288616
 21
1545.3940021712
 31
0.0
  0
LINE
  5
19C
330
1F
100
AcDbEntity
  8
0
  6
Continuous
 62
     7
370
    15
100
AcDbLine
 10
755.9456294615
 20
1545.3942405898
 30
0.0
 11
756.8100458223
 21
1546.8915092666
 31
0.0
  0
LINE
  5
19D
330
1F
100
AcDbEntity
  8
0
  6
Continuous
 62
     7
370
    15
100
AcDbLine
 10
756.8100458223
 20
1563.3915054519
 30
0.0
 11
755.9480434496
 21
1564.8845421988
 31
0.0
  0
LINE
  5
19E
330
1F
100
AcDbEntity
  8
0
  6
Continuous
 62
     7
370
    15
100
AcDbLine
 10
747.2720509607
 20
369.3844067771
 30
0.0
 11
746.410048588
 21
367.8913700301
 31
0.0
  0
LINE
  5
19F
330
1F
100
AcDbEntity
  8
0
  6
Continuous
 62
     7
370
    15
100
AcDbLine
 10
746.410048588
 20
351.3913738448
 30
0.0
 11
747.27447985
 21
349.8941647727
 31
0.0
  0
LINE
  5
1A0
330
1F
100
AcDbEntity
  8
0
  6
Continuous
 62
     7
370
    15
100
AcDbLine
 10
755.9454804499
 20
349.8938667495
 30
0.0
 11
756.8100458223
 21
351.3913738448
 31
0.0
  0
LINE
  5
1A1
330
1F
100
AcDbEntity
  8
0
  6
Continuous
 62
     7
370
    15
100
AcDbLine
 10
756.8100458223
 20
367.8913700301
 30
0.0
 11
755.9480285484
 21
369.3844663817
 31
0.0
  0
LINE
  5
1A2
330
1F
100
AcDbEntity
  8
0
  6
Continuous
 62
     7
370
    15
100
AcDbLine
 10
746.410048588
 20
1561.1414897162
 30
0.0
 11
711.3100504715
 21
1561.1414897162
 31
0.0
  0
LINE
  5
1A3
330
1F
100
AcDbEntity
  8
0
  6
Continuous
 62
     7
370
    15
100
AcDbLine
 10
711.3100504715
 20
1549.1415250022
 30
0.0
 11
746.410048588
 21
1549.1415250022
 31
0.0
  0
LINE
  5
1A4
330
1F
100
AcDbEntity
  8
0
  6
Continuous
 62
     7
370
    15
100
AcDbLine
 10
879.3100500692
 20
1561.1414897162
 30
0.0
 11
766.0099631388
 21
1561.1414897162
 31
0.0
  0
LINE
  5
1A5
330
1F
100
AcDbEntity
  8
0
  6
Continuous
 62
     7
370
    15
100
AcDbLine
 10
767.0492595274
 20
1549.1415250022
 30
0.0
 11
879.3100500692
 21
1549.1415250022
 31
0.0
  0
LINE
  5
1A6
330
1F
100
AcDbEntity
  8
0
  6
Continuous
 62
     7
370
    15
100
AcDbLine
 10
746.410048588
 20
365.6413542945
 30
0.0
 11
711.3100504715
 21
365.6413542945
 31
0.0
  0
LINE
  5
1A7
330
1F
100
AcDbEntity
  8
0
  6
Continuous
 62
     7
370
    15
100
AcDbLine
 10
711.3100504715
 20
353.6413895804
 30
0.0
 11
746.410048588
 21
353.6413895804
 31
0.0
  0
LINE
  5
1A8
330
1F
100
AcDbEntity
  8
0
  6
Continuous
 62
     7
370
    15
100
AcDbLine
 10
879.3100500692
 20
365.6413542945
 30
0.0
 11
767.0493489344
 21
365.6413542945
 31
0.0
  0
LINE
  5
1A9
330
1F
100
AcDbEntity
  8
0
  6
Continuous
 62
     7
370
    15
100
AcDbLine
 10
766.0099631388
 20
353.6413895804
 30
0.0
 11
879.3100500692
 21
353.6413895804
 31
0.0
  0
LINE
  5
1AA
330
1F
100
AcDbEntity
  8
0
  6
Continuous
 62
     7
370
    15
100
AcDbLine
 10
756.8100458223
 20
1592.3914301116
 30
0.0
 11
759.3100434382
 21
1592.3914301116
 31
0.0
  0
LINE
  5
1AB
330
1F
100
AcDbEntity
  8
0
  6
Continuous
 62
     7
370
    15
100
AcDbLine
 10
759.3100434382
 20
1616.3914191443
 30
0.0
 11
756.8100458223
 21
1616.3914191443
 31
0.0
  0
LINE
  5
1AC
330
1F
100
AcDbEntity
  8
0
  6
Continuous
 62
     7
370
    15
100
AcDbLine
 10
756.8100458223
 20
298.3914601523
 30
0.0
 11
759.3100434382
 21
298.3914601523
 31
0.0
  0
LINE
  5
1AD
330
1F
100
AcDbEntity
  8
0
  6
Continuous
 62
     7
370
    15
100
AcDbLine
 10
759.3100434382
 20
322.3914491851
 30
0.0
 11
756.8100458223
 21
322.3914491851
 31
0.0
  0
LINE
  5
1AE
330
1F
100
AcDbEntity
  8
0
  6
Continuous
 62
     7
370
    15
100
AcDbLine
 10
746.8430614311
 20
1613.3914577682
 30
0.0
 11
746.410048588
 21
1612.6414525229
 31
0.0
  0
LINE
  5
1AF
330
1F
100
AcDbEntity
  8
0
  6
Continuous
 62
     7
370
    15
100
AcDbLine
 10
746.410048588
 20
1596.1414563376
 30
0.0
 11
746.8430614311
 21
1595.3914510924
 31
0.0
  0
LINE
  5
1B0
330
1F
100
AcDbEntity
  8
0
  6
Continuous
 62
     7
370
    15
100
AcDbLine
 10
756.3770329792
 20
1595.3914510924
 30
0.0
 11
756.8100458223
 21
1596.1414563376
 31
0.0
  0
LINE
  5
1B1
330
1F
100
AcDbEntity
  8
0
  6
Continuous
 62
     7
370
    15
100
AcDbLine
 10
756.8100458223
 20
1612.6414525229
 30
0.0
 11
756.3770329792
 21
1613.3914577682
 31
0.0
  0
LINE
  5
1B2
330
1F
100
AcDbEntity
  8
0
  6
Continuous
 62
     7
370
    15
100
AcDbLine
 10
746.8430614311
 20
319.3914282042
 30
0.0
 11
746.410048588
 21
318.641422959
 31
0.0
  0
LINE
  5
1B3
330
1F
100
AcDbEntity
  8
0
  6
Continuous
 62
     7
370
    15
100
AcDbLine
 10
746.410048588
 20
302.1414267737
 30
0.0
 11
746.8430614311
 21
301.3914215285
 31
0.0
  0
LINE
  5
1B4
330
1F
100
AcDbEntity
  8
0
  6
Continuous
 62
     7
370
    15
100
AcDbLine
 10
756.3770329792
 20
301.3914215285
 30
0.0
 11
756.8100458223
 21
302.1414267737
 31
0.0
  0
LINE
  5
1B5
330
1F
100
AcDbEntity
  8
0
  6
Continuous
 62
     7
370
    15
100
AcDbLine
 10
756.8100458223
 20
318.641422959
 30
0.0
 11
756.3770329792
 21
319.3914282042
 31
0.0
  0
LINE
  5
1B6
330
1F
100
AcDbEntity
  8
0
  6
Continuous
 62
     7
370
    15
100
AcDbLine
 10
746.410048588
 20
1610.3914367873
 30
0.0
 11
711.3100504715
 21
1610.3914367873
 31
0.0
  0
LINE
  5
1B7
330
1F
100
AcDbEntity
  8
0
  6
Continuous
 62
     7
370
    15
100
AcDbLine
 10
711.3100504715
 20
1598.3914124686
 30
0.0
 11
746.410048588
 21
1598.3914124686
 31
0.0
  0
LINE
  5
1B8
330
1F
100
AcDbEntity
  8
0
  6
Continuous
 62
     7
370
    15
100
AcDbLine
 10
879.3100500692
 20
1610.3914367873
 30
0.0
 11
766.0099631388
 21
1610.3914367873
 31
0.0
  0
LINE
  5
1B9
330
1F
100
AcDbEntity
  8
0
  6
Continuous
 62
     7
370
    15
100
AcDbLine
 10
767.1649074394
 20
1598.3914124686
 30
0.0
 11
879.3100500692
 21
1598.3914124686
 31
0.0
  0
LINE
  5
1BA
330
1F
100
AcDbEntity
  8
0
  6
Continuous
 62
     7
370
    15
100
AcDbLine
 10
746.410048588
 20
316.3914668281
 30
0.0
 11
711.3100504715
 21
316.3914668281
 31
0.0
  0
LINE
  5
1BB
330
1F
100
AcDbEntity
  8
0
  6
Continuous
 62
     7
370
    15
100
AcDbLine
 10
711.3100504715
 20
304.3914425094
 30
0.0
 11
746.410048588
 21
304.3914425094
 31
0.0
  0
LINE
  5
1BC
330
1F
100
AcDbEntity
  8
0
  6
Continuous
 62
     7
370
    15
100
AcDbLine
 10
879.3100500692
 20
316.3914668281
 30
0.0
 11
767.1649074394
 21
316.3914668281
 31
0.0
  0
LINE
  5
1BD
330
1F
100
AcDbEntity
  8
0
  6
Continuous
 62
     7
370
    15
100
AcDbLine
 10
766.0099631388
 20
304.3914425094
 30
0.0
 11
879.3100500692
 21
304.3914425094
 31
0.0
  0
LINE
  5
1BE
330
1F
100
AcDbEntity
  8
0
  6
Continuous
 62
     7
370
    15
100
AcDbLine
 10
755.9480285484
 20
369.3844663817
 30
0.0
 11
755.9456294615
 21
369.3886387069
 31
0.0
  0
LINE
  5
1BF
330
1F
100
AcDbEntity
  8
0
  6
Continuous
 62
     7
370
    15
100
AcDbLine
 10
747.2746288616
 20
369.3888771255
 30
0.0
 11
747.2720509607
 21
369.3844067771
 31
0.0
  0
LINE
  5
1C0
330
1F
100
AcDbEntity
  8
0
  6
Continuous
 62
     7
370
    15
100
AcDbLine
 10
747.0322316725
 20
1424.2171930987
 30
0.0
 11
747.0270162661
 21
1424.2081331927
 31
0.0
  0
LINE
  5
1C1
330
1F
100
AcDbEntity
  8
0
  6
Continuous
 62
     7
370
    15
100
AcDbLine
 10
756.1878627379
 20
490.5656861979
 30
0.0
 11
756.1930781443
 21
490.574746104
 31
0.0
  0
LINE
  5
1C2
330
1F
100
AcDbEntity
  8
0
  6
Continuous
 62
     7
370
    15
100
AcDbLine
 10
756.3222116072
 20
1195.892675491
 30
0.0
 11
756.3308095772
 21
1195.9075617511
 31
0.0
  0
LINE
  5
1C3
330
1F
100
AcDbEntity
  8
0
  6
Continuous
 62
     7
370
    15
100
AcDbLine
 10
746.8978828032
 20
718.8902038056
 30
0.0
 11
746.8892848332
 21
718.8753175456
 31
0.0
  0
LINE
  5
1C4
330
1F
100
AcDbEntity
  8
0
  6
Continuous
 62
     7
370
    15
100
AcDbLine
 10
909.3100493986
 20
957.3914396483
 30
0.0
 11
909.3100493986
 21
1699.8914468009
 31
0.0
  0
LINE
  5
1C5
330
1F
100
AcDbEntity
  8
0
  6
Continuous
 62
     7
370
    15
100
AcDbLine
 10
909.3100493986
 20
214.8914324958
 30
0.0
 11
909.3100493986
 21
957.3914396483
 31
0.0
  0
LINE
  5
1C6
330
1F
100
AcDbEntity
  8
0
  6
Continuous
 62
     7
370
    15
100
AcDbLine
 10
879.3100500692
 20
957.3914396483
 30
0.0
 11
879.3100500692
 21
1699.8914468009
 31
0.0
  0
LINE
  5
1C7
330
1F
100
AcDbEntity
  8
0
  6
Continuous
 62
     7
370
    15
100
AcDbLine
 10
879.3100500692
 20
214.8914324958
 30
0.0
 11
879.3100500692
 21
957.3914396483
 31
0.0
  0
LINE
  5
1C8
330
1F
100
AcDbEntity
  8
0
  6
Continuous
 62
     7
370
    15
100
AcDbLine
 10
759.3100434382
 20
957.3914396483
 30
0.0
 11
759.3100434382
 21
1618.3914529998
 31
0.0
  0
LINE
  5
1C9
330
1F
100
AcDbEntity
  8
0
  6
Continuous
 62
     7
370
    15
100
AcDbLine
 10
759.3100434382
 20
296.3914262969
 30
0.0
 11
759.3100434382
 21
957.3914396483
 31
0.0
  0
LINE
  5
1CA
330
1F
100
AcDbEntity
  8
0
  6
Continuous
 62
     7
370
    15
100
AcDbLine
 10
756.8100458223
 20
945.391439544
 30
0.0
 11
756.8100458223
 21
969.3914397526
 31
0.0
  0
SPLINE
  5
1CB
330
1F
100
AcDbEntity
  8
0
  6
Continuous
 62
     7
370
    15
100
AcDbSpline
210
0.0
220
0.0
230
1.0
 70
     8
 71
     3
 72
    23
 73
    19
 74
     0
 42
0.00000001
 43
0.00000001
 12
1.0
 22
0.0
 32
0.0
 13
1.0
 23
0.0
 33
0.0
 40
0.0
 40
0.0
 40
0.0
 40
0.0
 40
0.056549642910513
 40
0.1211952099702531
 40
0.187710631142603
 40
0.2524220635750084
 40
0.3189982278502035
 40
0.383899775398673
 40
0.4506708757439157
 40
0.5158133320397271
 40
0.5828337543079369
 40
0.6481540564175272
 40
0.7153685862410533
 40
0.7807313790844166
 40
0.8479990992094744
 40
0.9132510110323815
 40
0.9804057372028598
 40
0.9999999999999999
 40
0.9999999999999999
 40
0.9999999999999999
 40
0.9999999999999999
 10
766.0109317142601
 20
1610.380231114101
 30
0.0
 10
766.0115903400942
 20
1610.372628101845
 30
0.0
 10
766.0130018838662
 20
1610.356333592819
 30
0.0
 10
766.0330398260747
 20
1610.12530350884
 30
0.0
 10
766.0663839941827
 20
1609.74072465266
 30
0.0
 10
766.1136120348493
 20
1609.196587412348
 30
0.0
 10
766.1721058629378
 20
1608.523507370506
 30
0.0
 10
766.2414031667986
 20
1607.726655432523
 30
0.0
 10
766.3184666452885
 20
1606.841885712058
 30
0.0
 10
766.4024892643096
 20
1605.878623428585
 30
0.0
 10
766.489679435803
 20
1604.880184511753
 30
0.0
 10
766.5791346591925
 20
1603.857839865991
 30
0.0
 10
766.6667045689921
 20
1602.858553594187
 30
0.0
 10
766.7513645046191
 20
1601.893716073717
 30
0.0
 10
766.8292019384317
 20
1601.008216440905
 30
0.0
 10
766.8991700575494
 20
1600.213217877326
 30
0.0
 10
766.9448314902293
 20
1599.694826656757
 30
0.0
 10
766.9669186944341
 20
1599.444292933917
 30
0.0
 10
766.9719075996513
 20
1599.387704106044
 30
0.0
  0
SPLINE
  5
1CC
330
1F
100
AcDbEntity
  8
0
  6
Continuous
 62
     7
370
    15
100
AcDbSpline
210
0.0
220
0.0
230
1.0
 70
     8
 71
     3
 72
    26
 73
    22
 74
     0
 42
0.00000001
 43
0.00000001
 12
1.0
 22
0.0
 32
0.0
 13
1.0
 23
0.0
 33
0.0
 40
0.0
 40
0.0
 40
0.0
 40
0.0
 40
0.0159296524053243
 40
0.0730524489398152
 40
0.1299944632020767
 40
0.1869358166465297
 40
0.2437994842216749
 40
0.300662797481861
 40
0.3575886289743756
 40
0.4145125506667787
 40
0.4716082823201831
 40
0.5287054107732461
 40
0.5860103417114848
 40
0.6433178228233613
 40
0.7007843835142077
 40
0.7582492335612007
 40
0.8157493129876973
 40
0.8732527552953565
 40
0.9306482170352799
 40
0.9880454363080303
 40
1.0
 40
1.0
 40
1.0
 40
1.0
 10
766.0509562332268
 20
1561.123906346035
 30
0.0
 10
766.0474369480216
 20
1561.128848632165
 30
0.0
 10
766.0312977130778
 20
1561.15151366565
 30
0.0
 10
766.0162553941094
 20
1561.022867693152
 30
0.0
 10
766.0074361215042
 20
1560.731475114483
 30
0.0
 10
766.014142880908
 20
1560.273204897089
 30
0.0
 10
766.0354232212798
 20
1559.670858739114
 30
0.0
 10
766.0704215656118
 20
1558.943035868014
 30
0.0
 10
766.1186423058567
 20
1558.10626418134
 30
0.0
 10
766.1783505937161
 20
1557.187018595513
 30
0.0
 10
766.2483234612087
 20
1556.208537720602
 30
0.0
 10
766.3263250468783
 20
1555.198898371783
 30
0.0
 10
766.4104975214597
 20
1554.186796254174
 30
0.0
 10
766.4983124187348
 20
1553.199415825962
 30
0.0
 10
766.5873644374967
 20
1552.267653108843
 30
0.0
 10
766.6751027551147
 20
1551.415124086372
 30
0.0
 10
766.7588728407845
 20
1550.67100205034
 30
0.0
 10
766.8364105462641
 20
1550.051703790936
 30
0.0
 10
766.9050516292182
 20
1549.58238074642
 30
0.0
 10
766.9482197664294
 20
1549.348115114185
 30
0.0
 10
766.9684247508625
 20
1549.265803333718
 30
0.0
 10
766.9719075996513
 20
1549.251614781093
 30
0.0
  0
SPLINE
  5
1CD
330
1F
100
AcDbEntity
  8
0
  6
Continuous
 62
     7
370
    15
100
AcDbSpline
210
0.0
220
0.0
230
1.0
 70
     8
 71
     3
 72
    27
 73
    23
 74
     0
 42
0.00000001
 43
0.00000001
 12
1.0
 22
0.0
 32
0.0
 13
1.0
 23
0.0
 33
0.0
 40
0.0
 40
0.0
 40
0.0
 40
0.0
 40
0.0016409653020611
 40
0.0554366023933188
 40
0.1092308042515305
 40
0.1628281957855731
 40
0.2164240493720797
 40
0.269866038006116
 40
0.3233070252912366
 40
0.3767033382410986
 40
0.4301005606528491
 40
0.4835785067914795
 40
0.5370585808235979
 40
0.5907132134361248
 40
0.6443680294335878
 40
0.6982168846156701
 40
0.7520662033852883
 40
0.8060439943091263
 40
0.8600207664618584
 40
0.9140043802308012
 40
0.9679872721785933
 40
1.0
 40
1.0
 40
1.0
 40
1.0
 10
766.1626404363747
 20
1420.886962385845
 30
0.0
 10
766.1619585545825
 20
1420.887810603451
 30
0.0
 10
766.1389225953552
 20
1420.91646587249
 30
0.0
 10
766.1029471196586
 20
1420.81313048649
 30
0.0
 10
766.0575374586659
 20
1420.57053209733
 30
0.0
 10
766.0270567858832
 20
1420.142987454742
 30
0.0
 10
766.0102981840387
 20
1419.575754087167
 30
0.0
 10
766.0086678347894
 20
1418.872218727098
 30
0.0
 10
766.0214231896416
 20
1418.059929236155
 30
0.0
 10
766.048795858536
 20
1417.156775737209
 30
0.0
 10
766.0895026267408
 20
1416.191354855671
 30
0.0
 10
766.1429106259276
 20
1415.188551136294
 30
0.0
 10
766.2071536659174
 20
1414.176530575123
 30
0.0
 10
766.280841915563
 20
1413.184544021313
 30
0.0
 10
766.36173852065
 20
1412.238125470134
 30
0.0
 10
766.4477868646537
 20
1411.36770213969
 30
0.0
 10
766.53643803001
 20
1410.593835726441
 30
0.0
 10
766.6252127330542
 20
1409.94476431279
 30
0.0
 10
766.7116704292424
 20
1409.431838435321
 30
0.0
 10
766.7927179116759
 20
1409.084224743289
 30
0.0
 10
766.8577649458465
 20
1408.904341337011
 30
0.0
 10
766.891405478298
 20
1408.904733192945
 30
0.0
 10
766.903928502285
 20
1408.904879065227
 30
0.0
  0
SPLINE
  5
1CE
330
1F
100
AcDbEntity
  8
0
  6
Continuous
 62
     7
370
    15
100
AcDbSpline
210
0.0
220
0.0
230
1.0
 70
     8
 71
     3
 72
    26
 73
    22
 74
     0
 42
0.00000001
 43
0.00000001
 12
1.0
 22
0.0
 32
0.0
 13
1.0
 23
0.0
 33
0.0
 40
0.0
 40
0.0
 40
0.0
 40
0.0
 40
0.0419620771256018
 40
0.0958900377150405
 40
0.149813996243575
 40
0.2035671089874437
 40
0.2573190594770183
 40
0.3108767146168002
 40
0.3644318073542538
 40
0.4178523362465575
 40
0.4712731609552196
 40
0.5246764963075722
 40
0.57807981354045
 40
0.6315895875526271
 40
0.6851013063232898
 40
0.7387975211930292
 40
0.7924957452772843
 40
0.8463795353407492
 40
0.9002650130274911
 40
0.9542535047239692
 40
1.0
 40
1.0
 40
1.0
 40
1.0
 10
766.3325136739845
 20
1210.972248287868
 30
0.0
 10
766.3114174827024
 20
1210.968456512039
 30
0.0
 10
766.2632093215185
 20
1210.959791699613
 30
0.0
 10
766.1964284804466
 20
1210.74096666775
 30
0.0
 10
766.1331116289355
 20
1210.363588810942
 30
0.0
 10
766.0816339766337
 20
1209.82443386468
 30
0.0
 10
766.0427993907051
 20
1209.152626723345
 30
0.0
 10
766.0181272200895
 20
1208.360310075517
 30
0.0
 10
766.007721765896
 20
1207.475926425815
 30
0.0
 10
766.0123908430133
 20
1206.52043993217
 30
0.0
 10
766.0313663097679
 20
1205.523722786035
 30
0.0
 10
766.0646857302684
 20
1204.512067428871
 30
0.0
 10
766.1108735908263
 20
1203.513485696764
 30
0.0
 10
766.1691973458358
 20
1202.557207355272
 30
0.0
 10
766.2376549530876
 20
1201.66703965052
 30
0.0
 10
766.3147328997024
 20
1200.871916321916
 30
0.0
 10
766.3981039622711
 20
1200.19008156927
 30
0.0
 10
766.4855898125335
 20
1199.645359432398
 30
0.0
 10
766.5745119221821
 20
1199.253654537364
 30
0.0
 10
766.6584992167581
 20
1199.023318161588
 30
0.0
 10
766.7098268335233
 20
1199.006525163109
 30
0.0
 10
766.7333698112602
 20
1198.998822541904
 30
0.0
  0
SPLINE
  5
1CF
330
1F
100
AcDbEntity
  8
0
  6
Continuous
 62
     7
370
    15
100
AcDbSpline
210
0.0
220
0.0
230
1.0
 70
     8
 71
     3
 72
    27
 73
    23
 74
     0
 42
0.00000001
 43
0.00000001
 12
1.0
 22
0.0
 32
0.0
 13
1.0
 23
0.0
 33
0.0
 40
0.0
 40
0.0
 40
0.0
 40
0.0
 40
0.00819854202036
 40
0.0621847571972871
 40
0.1161702691799399
 40
0.1701476564292756
 40
0.2241247144911898
 40
0.2779700173515015
 40
0.3318141132872079
 40
0.3854637940531392
 40
0.4391119140387502
 40
0.492586686603409
 40
0.5460613600589906
 40
0.5994583238443886
 40
0.6528560523565121
 40
0.706304426232941
 40
0.7597536052825876
 40
0.8133582005439677
 40
0.8669646245754498
 40
0.9207699877096088
 40
0.9745747777631014
 40
1.0
 40
1.0
 40
1.0
 40
1.0
 10
766.5324127514
 20
963.3803225029224
 30
0.0
 10
766.5279222569911
 20
963.3838829560683
 30
0.0
 10
766.4938625054143
 20
963.4108884789828
 30
0.0
 10
766.4303234626312
 20
963.2945307332059
 30
0.0
 10
766.3447963388544
 20
963.0277431185875
 30
0.0
 10
766.2648173946014
 20
962.5799681761961
 30
0.0
 10
766.1924145157209
 20
961.991268544048
 30
0.0
 10
766.1300430965642
 20
961.2672592428187
 30
0.0
 10
766.0790138380879
 20
960.4362268998253
 30
0.0
 10
766.0411532627703
 20
959.5171863582583
 30
0.0
 10
766.0170337789632
 20
958.5407351022537
 30
0.0
 10
766.0077478092918
 20
957.5319161498309
 30
0.0
 10
766.0129236307909
 20
956.5207510075668
 30
0.0
 10
766.0330166569304
 20
955.5353509645179
 30
0.0
 10
766.0667822471463
 20
954.6016721983492
 30
0.0
 10
766.1139535004295
 20
953.7484093271976
 30
0.0
 10
766.1726715208991
 20
952.994939490434
 30
0.0
 10
766.2418216899441
 20
952.368393962775
 30
0.0
 10
766.319207924703
 20
951.8774914959077
 30
0.0
 10
766.402917613733
 20
951.5550302138627
 30
0.0
 10
766.4750342636701
 20
951.3939244004276
 30
0.0
 10
766.5185069114181
 20
951.4084458835688
 30
0.0
 10
766.5324574548836
 20
951.4131058845633
 30
0.0
  0
SPLINE
  5
1D0
330
1F
100
AcDbEntity
  8
0
  6
Continuous
 62
     7
370
    15
100
AcDbSpline
210
0.0
220
0.0
230
1.0
 70
     8
 71
     3
 72
    27
 73
    23
 74
     0
 42
0.00000001
 43
0.00000001
 12
1.0
 22
0.0
 32
0.0
 13
1.0
 23
0.0
 33
0.0
 40
0.0
 40
0.0
 40
0.0
 40
0.0
 40
0.0304196406756527
 40
0.0842924601514391
 40
0.1381660008848147
 40
0.1921559058566653
 40
0.2461423350612329
 40
0.3001159186238872
 40
0.3540891962058138
 40
0.4079262267138345
 40
0.4617616323564643
 40
0.5154010139546394
 40
0.569039911933792
 40
0.6225090534856538
 40
0.6759775745227447
 40
0.7293731477234018
 40
0.7827683882186405
 40
0.8362223339819881
 40
0.8896744864232374
 40
0.9432879701985434
 40
0.9969027655832057
 40
0.9999999999999999
 40
0.9999999999999999
 40
0.9999999999999999
 40
0.9999999999999999
 10
766.7330121833916
 20
715.7740431744569
 30
0.0
 10
766.7176254449996
 20
715.7770724156118
 30
0.0
 10
766.6749889771143
 20
715.7854664065881
 30
0.0
 10
766.5998061136982
 20
715.6083309818686
 30
0.0
 10
766.5110174670353
 20
715.2683514604178
 30
0.0
 10
766.4226617739475
 20
714.7608809706084
 30
0.0
 10
766.3375045510849
 20
714.1158689940826
 30
0.0
 10
766.2581231037611
 20
713.3439667689901
 30
0.0
 10
766.1865220920276
 20
712.4729728041083
 30
0.0
 10
766.1250888896318
 20
711.5240369469662
 30
0.0
 10
766.0751305071643
 20
710.5281032811072
 30
0.0
 10
766.0384777236237
 20
709.5116065717662
 30
0.0
 10
766.0156110010636
 20
708.5048524124454
 30
0.0
 10
766.0076086856184
 20
707.5363563847317
 30
0.0
 10
766.0140962454869
 20
706.631709566391
 30
0.0
 10
766.0354374515308
 20
705.8189084019589
 30
0.0
 10
766.0704112430644
 20
705.1157349847166
 30
0.0
 10
766.1186693818631
 20
704.5486234933791
 30
0.0
 10
766.1782525035643
 20
704.1207602691222
 30
0.0
 10
766.2486899419494
 20
703.8752084315385
 30
0.0
 10
766.3009386704828
 20
703.7701536529186
 30
0.0
 10
766.3304546712179
 20
703.7983898988549
 30
0.0
 10
766.3320666391487
 20
703.7999319750778
 30
0.0
  0
SPLINE
  5
1D1
330
1F
100
AcDbEntity
  8
0
  6
Continuous
 62
     7
370
    15
100
AcDbSpline
210
0.0
220
0.0
230
1.0
 70
     8
 71
     3
 72
    27
 73
    23
 74
     0
 42
0.00000001
 43
0.00000001
 12
1.0
 22
0.0
 32
0.0
 13
1.0
 23
0.0
 33
0.0
 40
0.0
 40
0.0
 40
0.0
 40
0.0
 40
0.0175538232987094
 40
0.0710817039507411
 40
0.1248074509735656
 40
0.1785325216407086
 40
0.2324419301573368
 40
0.2863498493483734
 40
0.3403467499111983
 40
0.3943437047537908
 40
0.4482988239302586
 40
0.5022510858139881
 40
0.5560485089332811
 40
0.6098444967718778
 40
0.6634436677521557
 40
0.7170413007338372
 40
0.7704850636546953
 40
0.8239278251933926
 40
0.8773259109136328
 40
0.9307249061259555
 40
0.9842046277452056
 40
1.0
 40
1.0
 40
1.0
 40
1.0
 10
766.9036304790611
 20
505.8742749411576
 30
0.0
 10
766.8970902020765
 20
505.879378021666
 30
0.0
 10
766.8706062831911
 20
505.9000422183906
 30
0.0
 10
766.8136934647573
 20
505.7649815510578
 30
0.0
 10
766.7351247197427
 20
505.4658035074411
 30
0.0
 10
766.6501267865214
 20
504.9992650463798
 30
0.0
 10
766.5619655041296
 20
504.3874236351704
 30
0.0
 10
766.4729226123251
 20
503.6481802936574
 30
0.0
 10
766.3857153702698
 20
502.7991967996335
 30
0.0
 10
766.3026562781218
 20
501.8681778172776
 30
0.0
 10
766.2264208818399
 20
500.8792443492812
 30
0.0
 10
766.1588409988642
 20
499.8633058081815
 30
0.0
 10
766.1022270697058
 20
498.8485981502233
 30
0.0
 10
766.0577297713827
 20
497.8646643324969
 30
0.0
 10
766.0270047296781
 20
496.9403942533744
 30
0.0
 10
766.0103143354409
 20
496.0998884505771
 30
0.0
 10
766.0086551532046
 20
495.3694466053936
 30
0.0
 10
766.0214577786437
 20
494.7658854886345
 30
0.0
 10
766.0486702931119
 20
494.3068958861967
 30
0.0
 10
766.0899706516677
 20
494.0144969443134
 30
0.0
 10
766.1291308694265
 20
493.8844528846931
 30
0.0
 10
766.157183049026
 20
493.9063838500184
 30
0.0
 10
766.1635792095299
 20
493.9113843161576
 30
0.0
  0
SPLINE
  5
1D2
330
1F
100
AcDbEntity
  8
0
  6
Continuous
 62
     7
370
    15
100
AcDbSpline
210
0.0
220
0.0
230
1.0
 70
     8
 71
     3
 72
    25
 73
    21
 74
     0
 42
0.00000001
 43
0.00000001
 12
1.0
 22
0.0
 32
0.0
 13
1.0
 23
0.0
 33
0.0
 40
0.0
 40
0.0
 40
0.0
 40
0.0
 40
0.0541566097542656
 40
0.1112005037888904
 40
0.1682462945515274
 40
0.2255061014089354
 40
0.2827640631797864
 40
0.3402034467352521
 40
0.3976438063248527
 40
0.4551509160695632
 40
0.5126538155329221
 40
0.5700855254663204
 40
0.6275129733212259
 40
0.6847584753832436
 40
0.7420027396782338
 40
0.7990400850753323
 40
0.8560747015884598
 40
0.9129660115192927
 40
0.9698576364859459
 40
1.0
 40
1.0
 40
1.0
 40
1.0
 10
766.9719075996513
 20
365.53126451559
 30
0.0
 10
766.9552717255144
 20
365.4558336773924
 30
0.0
 10
766.9211130587629
 20
365.3009505108344
 30
0.0
 10
766.855766449409
 20
364.8702534475871
 30
0.0
 10
766.7811621456934
 20
364.2983474811329
 30
0.0
 10
766.6992320992623
 20
363.5884913650992
 30
0.0
 10
766.6126393885235
 20
362.7683392490658
 30
0.0
 10
766.5237975988802
 20
361.8563948240404
 30
0.0
 10
766.4351956652623
 20
360.8812341684198
 30
0.0
 10
766.3494998556383
 20
359.8692694465032
 30
0.0
 10
766.2690107620205
 20
358.8505384764208
 30
0.0
 10
766.1963113908571
 20
357.8547897723791
 30
0.0
 10
766.1331423448423
 20
356.9099272026058
 30
0.0
 10
766.0816277894615
 20
356.0451209782388
 30
0.0
 10
766.0427934631532
 20
355.2819981300271
 30
0.0
 10
766.0181569648868
 20
354.6464484915895
 30
0.0
 10
766.0076087967847
 20
354.1483711158883
 30
0.0
 10
766.0128118276953
 20
353.8176929372009
 30
0.0
 10
766.0271349309294
 20
353.6482794951891
 30
0.0
 10
766.0450719538762
 20
353.65905558077
 30
0.0
 10
766.051284058773
 20
353.6627876479142
 30
0.0
  0
SPLINE
  5
1D3
330
1F
100
AcDbEntity
  8
0
  6
Continuous
 62
     7
370
    15
100
AcDbSpline
210
0.0
220
0.0
230
1.0
 70
     8
 71
     3
 72
    23
 73
    19
 74
     0
 42
0.00000001
 43
0.00000001
 12
1.0
 22
0.0
 32
0.0
 13
1.0
 23
0.0
 33
0.0
 40
0.0
 40
0.0
 40
0.0
 40
0.0
 40
0.0649164428188418
 40
0.1317135264778498
 40
0.1967586320297721
 40
0.2636778193781755
 40
0.3288918257135643
 40
0.3959884818527274
 40
0.4613408807983381
 40
0.528590439078262
 40
0.5939301732350597
 40
0.6611714261802852
 40
0.7263488717092922
 40
0.7934270715452073
 40
0.8583657406648837
 40
0.9252010065875796
 40
0.9899329052392806
 40
0.9999999999999999
 40
0.9999999999999999
 40
0.9999999999999999
 40
0.9999999999999999
 10
766.9719075996513
 20
315.3951751906388
 30
0.0
 10
766.9545701403848
 20
315.1984688060921
 30
0.0
 10
766.9193929525877
 20
314.7993574182165
 30
0.0
 10
766.8526851255726
 20
314.0417046123972
 30
0.0
 10
766.7772245335527
 20
313.1834503289578
 30
0.0
 10
766.6953276963055
 20
312.2505852354727
 30
0.0
 10
766.6081544597976
 20
311.2564418116974
 30
0.0
 10
766.5196305368545
 20
310.2451237227313
 30
0.0
 10
766.4307398226997
 20
309.2280311034684
 30
0.0
 10
766.3456058566372
 20
308.2522677192494
 30
0.0
 10
766.2651176610893
 20
307.3286700577365
 30
0.0
 10
766.1931027663607
 20
306.5010558873411
 30
0.0
 10
766.1302183257122
 20
305.7774207710756
 30
0.0
 10
766.0795500631597
 20
305.1936778489396
 30
0.0
 10
766.0409745252456
 20
304.7493411319094
 30
0.0
 10
766.0181501239513
 20
304.4856905302073
 30
0.0
 10
766.0082868001834
 20
304.3722758923034
 30
0.0
 10
766.0106179658451
 20
304.3990453215231
 30
0.0
 10
766.0109317142601
 20
304.4026481825822
 30
0.0
  0
LINE
  5
1D4
330
1F
100
AcDbEntity
  8
0
  6
Continuous
 62
     7
370
    15
100
AcDbLine
 10
747.6469045717
 20
967.7837441582
 30
0.0
 11
755.5731898386
 21
967.7837441582
 31
0.0
  0
SPLINE
  5
1D5
330
1F
100
AcDbEntity
  8
0
  6
Continuous
 62
     7
370
    15
100
AcDbSpline
210
0.0
220
0.0
230
1.0
 70
     8
 71
     3
 72
    13
 73
     9
 74
     0
 42
0.00000001
 43
0.00000001
 12
1.0
 22
0.0
 32
0.0
 13
1.0
 23
0.0
 33
0.0
 40
0.0
 40
0.0
 40
0.0
 40
0.0
 40
0.1323377546249013
 40
0.2646388603021
 40
0.3998958079809735
 40
0.5351320001044431
 40
0.7654369225803587
 40
0.9999999999999999
 40
0.9999999999999999
 40
0.9999999999999999
 40
0.9999999999999999
 10
755.5731898386116
 20
967.7837441582196
 30
0.0
 10
755.6955605009315
 20
967.5592468389474
 30
0.0
 10
755.9402679368594
 20
967.1103143715535
 30
0.0
 10
756.2034815606356
 20
966.4190476987517
 30
0.0
 10
756.3621209623957
 20
965.7146015466059
 30
0.0
 10
756.4012663121745
 20
964.8336256084565
 30
0.0
 10
756.1940958680328
 20
963.7785370602609
 30
0.0
 10
755.7814185458753
 20
962.986990457505
 30
0.0
 10
755.5731898386116
 20
962.5875919032806
 30
0.0
  0
LINE
  5
1D6
330
1F
100
AcDbEntity
  8
0
  6
Continuous
 62
     7
370
    15
100
AcDbLine
 10
747.6469045717
 20
962.5875919033
 30
0.0
 11
755.5731898386
 21
962.5875919033
 31
0.0
  0
SPLINE
  5
1D7
330
1F
100
AcDbEntity
  8
0
  6
Continuous
 62
     7
370
    15
100
AcDbSpline
210
0.0
220
0.0
230
1.0
 70
     8
 71
     3
 72
    13
 73
     9
 74
     0
 42
0.00000001
 43
0.00000001
 12
1.0
 22
0.0
 32
0.0
 13
1.0
 23
0.0
 33
0.0
 40
0.0
 40
0.0
 40
0.0
 40
0.0
 40
0.1323377793672738
 40
0.2646389531497364
 40
0.3999007690026704
 40
0.5351369864104155
 40
0.7654372203303534
 40
0.9999999999999999
 40
0.9999999999999999
 40
0.9999999999999999
 40
0.9999999999999999
 10
747.6469045717354
 20
962.5875919032806
 30
0.0
 10
747.524534052452
 20
962.8120884073237
 30
0.0
 10
747.2798268624539
 20
963.2610193180567
 30
0.0
 10
747.0166078791902
 20
963.9523067547639
 30
0.0
 10
746.8579773248389
 20
964.656718138373
 30
0.0
 10
746.8188222809775
 20
965.5377021560878
 30
0.0
 10
747.0260282356402
 20
966.5928144547329
 30
0.0
 10
747.4386845137548
 20
967.38434827615
 30
0.0
 10
747.6469045717354
 20
967.7837441582196
 30
0.0
  0
SPLINE
  5
1D8
330
1F
100
AcDbEntity
  8
0
  6
Continuous
 62
     7
370
    15
100
AcDbSpline
210
0.0
220
0.0
230
1.0
 70
     8
 71
     3
 72
    14
 73
    10
 74
     0
 42
0.00000001
 43
0.00000001
 12
1.0
 22
0.0
 32
0.0
 13
1.0
 23
0.0
 33
0.0
 40
0.0
 40
0.0
 40
0.0
 40
0.0
 40
0.1803118717664186
 40
0.3621157255874037
 40
0.4866234438851454
 40
0.6111286644915345
 40
0.7389516199586981
 40
0.8668084257222287
 40
1.0
 40
1.0
 40
1.0
 40
1.0
 10
747.6469045717354
 20
952.1952873934024
 30
0.0
 10
747.4833099798403
 20
952.8081727974728
 30
0.0
 10
747.1547671403372
 20
954.0390148969016
 30
0.0
 10
746.9036942804355
 20
955.7362222440893
 30
0.0
 10
746.8257975072269
 20
957.2503712929198
 30
0.0
 10
746.8689299454014
 20
958.5764263426848
 30
0.0
 10
747.0261919471735
 20
959.9051918857004
 30
0.0
 10
747.2821016356137
 20
961.2498158638905
 30
0.0
 10
747.5236581152793
 20
962.135632392923
 30
0.0
 10
747.6469045717354
 20
962.5875919032806
 30
0.0
  0
SPLINE
  5
1D9
330
1F
100
AcDbEntity
  8
0
  6
Continuous
 62
     7
370
    15
100
AcDbSpline
210
0.0
220
0.0
230
1.0
 70
     8
 71
     3
 72
    13
 73
     9
 74
     0
 42
0.00000001
 43
0.00000001
 12
1.0
 22
0.0
 32
0.0
 13
1.0
 23
0.0
 33
0.0
 40
0.0
 40
0.0
 40
0.0
 40
0.0
 40
0.1323377785889752
 40
0.2646389082236114
 40
0.3998958803951741
 40
0.5351320970075744
 40
0.7654372002074727
 40
1.0
 40
1.0
 40
1.0
 40
1.0
 10
747.6469045717354
 20
946.9991351384633
 30
0.0
 10
747.5245339250001
 20
947.2236324568004
 30
0.0
 10
747.2798265202372
 20
947.6725649223241
 30
0.0
 10
747.0166126610333
 20
948.3638316092541
 30
0.0
 10
746.8579741731296
 20
949.0682777065585
 30
0.0
 10
746.8188245787082
 20
949.9492541433365
 30
0.0
 10
747.0260224269542
 20
951.0043407304373
 30
0.0
 10
747.4386840094393
 20
951.7958885929833
 30
0.0
 10
747.6469045717354
 20
952.1952873934024
 30
0.0
  0
LINE
  5
1DA
330
1F
100
AcDbEntity
  8
0
  6
Continuous
 62
     7
370
    15
100
AcDbLine
 10
746.410048588
 20
949.141439693
 30
0.0
 11
746.410048588
 21
965.6414396036
 31
0.0
  0
SPLINE
  5
1DB
330
1F
100
AcDbEntity
  8
0
  6
Continuous
 62
     7
370
    15
100
AcDbSpline
210
0.0
220
0.0
230
1.0
 70
     8
 71
     3
 72
    13
 73
     9
 74
     0
 42
0.00000001
 43
0.00000001
 12
1.0
 22
0.0
 32
0.0
 13
1.0
 23
0.0
 33
0.0
 40
0.0
 40
0.0
 40
0.0
 40
0.0
 40
0.1323377554035849
 40
0.264638905228987
 40
0.3999006965887483
 40
0.535136889507956
 40
0.7654369427025219
 40
1.0
 40
1.0
 40
1.0
 40
1.0
 10
755.5731898386116
 20
952.1952873934024
 30
0.0
 10
755.6955603734799
 20
951.9707908884241
 30
0.0
 10
755.9402675946438
 20
951.5218599758206
 30
0.0
 10
756.2034863424707
 20
950.8305725532426
 30
0.0
 10
756.3621178107345
 20
950.1261611147875
 30
0.0
 10
756.4012686098582
 20
949.2451775957204
 30
0.0
 10
756.194090059364
 20
948.190063335941
 30
0.0
 10
755.7814180416207
 20
947.3985307743244
 30
0.0
 10
755.5731898386116
 20
946.9991351384633
 30
0.0
  0
SPLINE
  5
1DC
330
1F
100
AcDbEntity
  8
0
  6
Continuous
 62
     7
370
    15
100
AcDbSpline
210
0.0
220
0.0
230
1.0
 70
     8
 71
     3
 72
    14
 73
    10
 74
     0
 42
0.00000001
 43
0.00000001
 12
1.0
 22
0.0
 32
0.0
 13
1.0
 23
0.0
 33
0.0
 40
0.0
 40
0.0
 40
0.0
 40
0.0
 40
0.1331916138185806
 40
0.2578379294071408
 40
0.3824531906620325
 40
0.5101672731060233
 40
0.6378834715350534
 40
0.8180583519511615
 40
1.0
 40
1.0
 40
1.0
 40
1.0
 10
755.5731898386116
 20
962.5875919032806
 30
0.0
 10
755.696444018527
 20
962.1356338230942
 30
0.0
 10
755.9350446453161
 20
961.2607143575727
 30
0.0
 10
756.1878810083703
 20
959.9385666172656
 30
0.0
 10
756.3476409775362
 20
958.6215662494739
 30
0.0
 10
756.3954804134657
 20
957.2842759988239
 30
0.0
 10
756.318374928392
 20
955.7531239399538
 30
0.0
 10
756.0665229263981
 20
954.0446706570222
 30
0.0
 10
755.7381682157477
 20
952.8137503692059
 30
0.0
 10
755.5731898386116
 20
952.1952873934024
 30
0.0
  0
LINE
  5
1DD
330
1F
100
AcDbEntity
  8
0
  6
Continuous
 62
     7
370
    15
100
AcDbLine
 10
747.6469045717
 20
952.1952873934
 30
0.0
 11
755.5731898386
 21
952.1952873934
 31
0.0
  0
LINE
  5
1DE
330
1F
100
AcDbEntity
  8
0
  6
Continuous
 62
     7
370
    15
100
AcDbLine
 10
747.6469045717
 20
946.9991351385
 30
0.0
 11
755.5731898386
 21
946.9991351385
 31
0.0
  0
LINE
  5
1DF
330
1F
100
AcDbEntity
  8
0
  6
Continuous
 62
     7
370
    15
100
AcDbLine
 10
711.3100504715
 20
951.3914395962
 30
0.0
 11
711.3100504715
 21
963.3914397005
 31
0.0
  0
SPLINE
  5
1E0
330
1F
100
AcDbEntity
  8
0
  6
Continuous
 62
     7
370
    15
100
AcDbSpline
210
0.0
220
0.0
230
1.0
 70
     8
 71
     3
 72
    11
 73
     7
 74
     0
 42
0.00000001
 43
0.00000001
 12
1.0
 22
0.0
 32
0.0
 13
1.0
 23
0.0
 33
0.0
 40
0.0
 40
0.0
 40
0.0
 40
0.0
 40
0.1510319011026806
 40
0.4255498251130205
 40
0.7076978437449232
 40
1.0
 40
1.0
 40
1.0
 40
1.0
 10
767.158291323864
 20
316.3694727141373
 30
0.0
 10
767.1594744285148
 20
316.3735527175099
 30
0.0
 10
767.162807962514
 20
316.3850485982411
 30
0.0
 10
767.1157860606817
 20
316.2228925093215
 30
0.0
 10
767.0365259663464
 20
315.9139416744192
 30
0.0
 10
766.9936993932699
 20
315.5701231617646
 30
0.0
 10
766.9719075996513
 20
315.3951751906388
 30
0.0
  0
SPLINE
  5
1E1
330
1F
100
AcDbEntity
  8
0
  6
Continuous
 62
     7
370
    15
100
AcDbSpline
210
0.0
220
0.0
230
1.0
 70
     8
 71
     3
 72
     9
 73
     5
 74
     0
 42
0.00000001
 43
0.00000001
 12
1.0
 22
0.0
 32
0.0
 13
1.0
 23
0.0
 33
0.0
 40
0.0
 40
0.0
 40
0.0
 40
0.0
 40
0.1097321226777488
 40
1.0
 40
1.0
 40
1.0
 40
1.0
 10
767.0493489343758
 20
365.6322943884843
 30
0.0
 10
767.0462435941238
 20
365.6352641784426
 30
0.0
 10
767.0179443124165
 20
365.6623281765304
 30
0.0
 10
766.9935897152097
 20
365.5929921514556
 30
0.0
 10
766.9719075996513
 20
365.53126451559
 30
0.0
  0
SPLINE
  5
1E2
330
1F
100
AcDbEntity
  8
0
  6
Continuous
 62
     7
370
    15
100
AcDbSpline
210
0.0
220
0.0
230
1.0
 70
     8
 71
     3
 72
     9
 73
     5
 74
     0
 42
0.00000001
 43
0.00000001
 12
1.0
 22
0.0
 32
0.0
 13
1.0
 23
0.0
 33
0.0
 40
0.0
 40
0.0
 40
0.0
 40
0.0
 40
0.8626470795519157
 40
1.0
 40
1.0
 40
1.0
 40
1.0
 10
766.9719075996513
 20
1549.251614781093
 30
0.0
 10
766.9927927686394
 20
1549.191743047522
 30
0.0
 10
767.0170033287667
 20
1549.122338380201
 30
0.0
 10
767.0453640935407
 20
1549.14916514958
 30
0.0
 10
767.0492595274086
 20
1549.1528498847
 30
0.0
  0
SPLINE
  5
1E3
330
1F
100
AcDbEntity
  8
0
  6
Continuous
 62
     7
370
    15
100
AcDbSpline
210
0.0
220
0.0
230
1.0
 70
     8
 71
     3
 72
    11
 73
     7
 74
     0
 42
0.00000001
 43
0.00000001
 12
1.0
 22
0.0
 32
0.0
 13
1.0
 23
0.0
 33
0.0
 40
0.0
 40
0.0
 40
0.0
 40
0.0
 40
0.2832410374020584
 40
0.5746226444640977
 40
0.8584290710066886
 40
1.0
 40
1.0
 40
1.0
 40
1.0
 10
766.9719075996513
 20
1599.387704106044
 30
0.0
 10
766.9929075335658
 20
1599.217805955547
 30
0.0
 10
767.0355109559733
 20
1598.873126648396
 30
0.0
 10
767.1160286802844
 20
1598.558769797947
 30
0.0
 10
767.1636144978077
 20
1598.395204323224
 30
0.0
 10
767.1596205574132
 20
1598.408861351821
 30
0.0
 10
767.158291323864
 20
1598.413406582546
 30
0.0
  0
LINE
  5
1E4
330
1F
100
AcDbEntity
  8
0
  6
Continuous
 62
     7
370
    15
100
AcDbLine
 10
799.3100499947
 20
963.3914397005
 30
0.0
 11
799.3100499947
 21
1198.9876168687
 31
0.0
  0
LINE
  5
1E5
330
1F
100
AcDbEntity
  8
0
  6
Continuous
 62
     7
370
    15
100
AcDbLine
 10
799.3100499947
 20
1210.9876262862
 30
0.0
 11
799.3100499947
 21
1408.8895308692
 31
0.0
  0
LINE
  5
1E6
330
1F
100
AcDbEntity
  8
0
  6
Continuous
 62
     7
370
    15
100
AcDbLine
 10
799.3100499947
 20
1420.8895253856
 30
0.0
 11
799.3100499947
 21
1549.1415250022
 31
0.0
  0
LINE
  5
1E7
330
1F
100
AcDbEntity
  8
0
  6
Continuous
 62
     7
370
    15
100
AcDbLine
 10
799.3100499947
 20
1561.1414897162
 30
0.0
 11
799.3100499947
 21
1591.0190331656
 31
0.0
  0
LINE
  5
1E8
330
1F
100
AcDbEntity
  8
0
  6
Continuous
 62
     7
370
    15
100
AcDbLine
 10
799.3100499947
 20
323.763846131
 30
0.0
 11
799.3100499947
 21
353.6413895804
 31
0.0
  0
LINE
  5
1E9
330
1F
100
AcDbEntity
  8
0
  6
Continuous
 62
     7
370
    15
100
AcDbLine
 10
799.3100499947
 20
365.6413542945
 30
0.0
 11
799.3100499947
 21
493.8933539111
 31
0.0
  0
LINE
  5
1EA
330
1F
100
AcDbEntity
  8
0
  6
Continuous
 62
     7
370
    15
100
AcDbLine
 10
799.3100499947
 20
505.8933484275
 30
0.0
 11
799.3100499947
 21
703.7952530105
 31
0.0
  0
LINE
  5
1EB
330
1F
100
AcDbEntity
  8
0
  6
Continuous
 62
     7
370
    15
100
AcDbLine
 10
799.3100499947
 20
715.795262428
 30
0.0
 11
799.3100499947
 21
951.3914395962
 31
0.0
  0
LINE
  5
1EC
330
1F
100
AcDbEntity
  8
0
  6
Continuous
 62
     7
370
    15
100
AcDbLine
 10
756.8100458223
 20
1192.9876196105
 30
0.0
 11
756.8100458223
 21
1216.9876086432
 31
0.0
  0
LINE
  5
1ED
330
1F
100
AcDbEntity
  8
0
  6
Continuous
 62
     7
370
    15
100
AcDbLine
 10
756.8100458223
 20
720.881818505
 30
0.0
 11
756.8100458223
 21
721.7952596862
 31
0.0
  0
LINE
  5
1EE
330
1F
100
AcDbEntity
  8
0
  6
Continuous
 62
     7
370
    15
100
AcDbLine
 10
756.8100458223
 20
697.7952706534
 30
0.0
 11
756.8100458223
 21
720.881818505
 31
0.0
  0
LINE
  5
1EF
330
1F
100
AcDbEntity
  8
0
  6
Continuous
 62
     7
370
    15
100
AcDbLine
 10
747.6469045717
 20
1213.2323968131
 30
0.0
 11
755.5731898386
 21
1213.2323968131
 31
0.0
  0
SPLINE
  5
1F0
330
1F
100
AcDbEntity
  8
0
  6
Continuous
 62
     7
370
    15
100
AcDbSpline
210
0.0
220
0.0
230
1.0
 70
     8
 71
     3
 72
    14
 73
    10
 74
     0
 42
0.00000001
 43
0.00000001
 12
1.0
 22
0.0
 32
0.0
 13
1.0
 23
0.0
 33
0.0
 40
0.0
 40
0.0
 40
0.0
 40
0.0
 40
0.1331924338848018
 40
0.2578391677893253
 40
0.3824530361111874
 40
0.5101671822453216
 40
0.6378820849833808
 40
0.8180579101658076
 40
1.0
 40
1.0
 40
1.0
 40
1.0
 10
755.5731898386116
 20
1213.232396813106
 30
0.0
 10
755.696444010652
 20
1212.814834318191
 30
0.0
 10
755.9350442991109
 20
1212.006500368216
 30
0.0
 10
756.1878792488618
 20
1210.785004172169
 30
0.0
 10
756.3476418900744
 20
1209.568278324186
 30
0.0
 10
756.3954804759813
 20
1208.332751809529
 30
0.0
 10
756.3183736204016
 20
1206.918162339682
 30
0.0
 10
756.0665236550436
 20
1205.339773000338
 30
0.0
 10
755.7381683055955
 20
1204.202537672844
 30
0.0
 10
755.5731898386116
 20
1203.631146522235
 30
0.0
  0
LINE
  5
1F1
330
1F
100
AcDbEntity
  8
0
  6
Continuous
 62
     7
370
    15
100
AcDbLine
 10
747.6469045717
 20
1203.6311465222
 30
0.0
 11
755.5731898386
 21
1203.6311465222
 31
0.0
  0
SPLINE
  5
1F2
330
1F
100
AcDbEntity
  8
0
  6
Continuous
 62
     7
370
    15
100
AcDbSpline
210
0.0
220
0.0
230
1.0
 70
     8
 71
     3
 72
    14
 73
    10
 74
     0
 42
0.00000001
 43
0.00000001
 12
1.0
 22
0.0
 32
0.0
 13
1.0
 23
0.0
 33
0.0
 40
0.0
 40
0.0
 40
0.0
 40
0.0
 40
0.1803127299004884
 40
0.3621171055319634
 40
0.4866227617977438
 40
0.6111286673853858
 40
0.7389508101080602
 40
0.866807605149581
 40
1.0
 40
1.0
 40
1.0
 40
1.0
 10
747.6469045717354
 20
1203.631146522235
 30
0.0
 10
747.4833099964742
 20
1204.197383501167
 30
0.0
 10
747.1547675019592
 20
1205.334541681676
 30
0.0
 10
746.9036957826982
 20
1206.90253686558
 30
0.0
 10
746.8257972615576
 20
1208.301452496774
 30
0.0
 10
746.8689293356791
 20
1209.526535332385
 30
0.0
 10
747.0261925627584
 20
1210.754181868879
 30
0.0
 10
747.2821027373242
 20
1211.996429888558
 30
0.0
 10
747.5236582378844
 20
1212.814832048232
 30
0.0
 10
747.6469045717354
 20
1213.232396813106
 30
0.0
  0
SPLINE
  5
1F3
330
1F
100
AcDbEntity
  8
0
  6
Continuous
 62
     7
370
    15
100
AcDbSpline
210
0.0
220
0.0
230
1.0
 70
     8
 71
     3
 72
    16
 73
    12
 74
     0
 42
0.00000001
 43
0.00000001
 12
1.0
 22
0.0
 32
0.0
 13
1.0
 23
0.0
 33
0.0
 40
0.0
 40
0.0
 40
0.0
 40
0.0
 40
0.2500000000000128
 40
0.2500000000000128
 40
0.5000000000000255
 40
0.5000000000000255
 40
0.6250000000000254
 40
0.6250000000000254
 40
0.7500000000000254
 40
0.7500000000000254
 40
1.0
 40
1.0
 40
1.0
 40
1.0
 10
755.5731891194392
 20
1203.631152408689
 30
0.0
 10
755.8181108643756
 20
1202.958044609751
 30
0.0
 10
756.0199707337189
 20
1202.280029278567
 30
0.0
 10
756.2996120350202
 20
1200.909858058592
 30
0.0
 10
756.3764710455981
 20
1200.217597046357
 30
0.0
 10
756.3773147837078
 20
1199.166162867193
 30
0.0
 10
756.3585255191789
 20
1198.814035762449
 30
0.0
 10
756.2852576248581
 20
1198.117491198068
 30
0.0
 10
756.2308533473457
 20
1197.771554172217
 30
0.0
 10
756.0207735638569
 20
1196.739902031619
 30
0.0
 10
755.8184137264344
 20
1196.060321855209
 30
0.0
 10
755.5731863517433
 20
1195.386375039923
 30
0.0
  0
SPLINE
  5
1F4
330
1F
100
AcDbEntity
  8
0
  6
Continuous
 62
     7
370
    15
100
AcDbSpline
210
0.0
220
0.0
230
1.0
 70
     8
 71
     3
 72
    13
 73
     9
 74
     0
 42
0.00000001
 43
0.00000001
 12
1.0
 22
0.0
 32
0.0
 13
1.0
 23
0.0
 33
0.0
 40
0.0
 40
0.0
 40
0.0
 40
0.0
 40
0.1323412111298868
 40
0.2646423321714919
 40
0.3999008089885474
 40
0.5351343765452753
 40
0.7654381261754172
 40
1.0
 40
1.0
 40
1.0
 40
1.0
 10
755.5731898386116
 20
1214.588849516582
 30
0.0
 10
755.6955598737769
 20
1214.530246638949
 30
0.0
 10
755.9402628745851
 20
1214.413058636238
 30
0.0
 10
756.2034837743118
 20
1214.232582975271
 30
0.0
 10
756.3621188602018
 20
1214.048698718082
 30
0.0
 10
756.4012668645462
 20
1213.818713576882
 30
0.0
 10
756.1940955015698
 20
1213.543299040704
 30
0.0
 10
755.7814184203278
 20
1213.336661814647
 30
0.0
 10
755.5731898386116
 20
1213.232396813106
 30
0.0
  0
SPLINE
  5
1F5
330
1F
100
AcDbEntity
  8
0
  6
Continuous
 62
     7
370
    15
100
AcDbSpline
210
0.0
220
0.0
230
1.0
 70
     8
 71
     3
 72
    10
 73
     6
 74
     0
 42
0.00000001
 43
0.00000001
 12
1.0
 22
0.0
 32
0.0
 13
1.0
 23
0.0
 33
0.0
 40
0.0
 40
0.0
 40
0.0
 40
0.0
 40
0.3413733363431549
 40
0.6826572498653306
 40
1.0
 40
1.0
 40
1.0
 40
1.0
 10
755.5731898386116
 20
1195.386378737163
 30
0.0
 10
755.6950047867292
 20
1195.444987796637
 30
0.0
 10
755.938602773512
 20
1195.562190562928
 30
0.0
 10
756.2019019231492
 20
1195.737057319721
 30
0.0
 10
756.2860686993363
 20
1195.853750199735
 30
0.0
 10
756.3266223508949
 20
1195.909975739193
 30
0.0
  0
SPLINE
  5
1F6
330
1F
100
AcDbEntity
  8
0
  6
Continuous
 62
     7
370
    15
100
AcDbSpline
210
0.0
220
0.0
230
1.0
 70
     8
 71
     3
 72
    13
 73
     9
 74
     0
 42
0.00000001
 43
0.00000001
 12
1.0
 22
0.0
 32
0.0
 13
1.0
 23
0.0
 33
0.0
 40
0.0
 40
0.0
 40
0.0
 40
0.0
 40
0.1323358026400602
 40
0.2646369398873413
 40
0.3998954332723217
 40
0.5351346191861664
 40
0.7654329600463955
 40
1.0
 40
1.0
 40
1.0
 40
1.0
 10
747.6469045717354
 20
1213.232396813106
 30
0.0
 10
747.5245336400402
 20
1213.291000411509
 30
0.0
 10
747.2798238317426
 20
1213.40819225709
 30
0.0
 10
747.0166114400605
 20
1213.588662048872
 30
0.0
 10
746.8579743955406
 20
1213.772553300252
 30
0.0
 10
746.8188221733864
 20
1214.002520874334
 30
0.0
 10
747.0260346058919
 20
1214.27795821694
 30
0.0
 10
747.438684841337
 20
1214.484586617495
 30
0.0
 10
747.6469045717354
 20
1214.588849516582
 30
0.0
  0
SPLINE
  5
1F7
330
1F
100
AcDbEntity
  8
0
  6
Continuous
 62
     7
370
    15
100
AcDbSpline
210
0.0
220
0.0
230
1.0
 70
     8
 71
     3
 72
    13
 73
     9
 74
     0
 42
0.00000001
 43
0.00000001
 12
1.0
 22
0.0
 32
0.0
 13
1.0
 23
0.0
 33
0.0
 40
0.0
 40
0.0
 40
0.0
 40
0.0
 40
0.1323386316836632
 40
0.2646383218692526
 40
0.3999002706096831
 40
0.5351342598285281
 40
0.7654375677287021
 40
1.0
 40
1.0
 40
1.0
 40
1.0
 10
747.6469045717354
 20
1195.386378737163
 30
0.0
 10
747.524534488286
 20
1195.742588013863
 30
0.0
 10
747.2798303295758
 20
1196.45490175038
 30
0.0
 10
747.0166058452565
 20
1197.551787183981
 30
0.0
 10
746.8579783862835
 20
1198.669475037218
 30
0.0
 10
746.81882285175
 20
1200.067372959046
 30
0.0
 10
747.026024683
 20
1201.741466689649
 30
0.0
 10
747.4386843389965
 20
1202.997417548755
 30
0.0
 10
747.6469045717354
 20
1203.631146522235
 30
0.0
  0
SPLINE
  5
1F8
330
1F
100
AcDbEntity
  8
0
  6
Continuous
 62
     7
370
    15
100
AcDbSpline
210
0.0
220
0.0
230
1.0
 70
     8
 71
     3
 72
     9
 73
     5
 74
     0
 42
0.00000001
 43
0.00000001
 12
1.0
 22
0.0
 32
0.0
 13
1.0
 23
0.0
 33
0.0
 40
0.0
 40
0.0
 40
0.0
 40
0.0
 40
0.3942800803519788
 40
1.0
 40
1.0
 40
1.0
 40
1.0
 10
746.927983148777
 20
1195.910050244999
 30
0.0
 10
746.9672420741445
 20
1195.840035406516
 30
0.0
 10
747.0668132351639
 20
1195.662459003416
 30
0.0
 10
747.4280788142187
 20
1195.490523497806
 30
0.0
 10
747.6469045717354
 20
1195.386378737163
 30
0.0
  0
LINE
  5
1F9
330
1F
100
AcDbEntity
  8
0
  6
Continuous
 62
     7
370
    15
100
AcDbLine
 10
746.410048588
 20
1196.7376160342
 30
0.0
 11
746.410048588
 21
1213.2376122195
 31
0.0
  0
SPLINE
  5
1FA
330
1F
100
AcDbEntity
  8
0
  6
Continuous
 62
     7
370
    15
100
AcDbSpline
210
0.0
220
0.0
230
1.0
 70
     8
 71
     3
 72
    13
 73
     9
 74
     0
 42
0.00000001
 43
0.00000001
 12
1.0
 22
0.0
 32
0.0
 13
1.0
 23
0.0
 33
0.0
 40
0.0
 40
0.0
 40
0.0
 40
0.0
 40
0.132335778677807
 40
0.2646368919691118
 40
0.3998953608626228
 40
0.5351345222884941
 40
0.7654326824253391
 40
1.0
 40
1.0
 40
1.0
 40
1.0
 10
755.5731898386116
 20
701.5504824835771
 30
0.0
 10
755.6955607858915
 20
701.4918788849299
 30
0.0
 10
755.9402706253546
 20
701.374687038861
 30
0.0
 10
756.203482781601
 20
701.194217250767
 30
0.0
 10
756.3621207400246
 20
701.0103259850697
 30
0.0
 10
756.4012687173605
 20
700.7803585411565
 30
0.0
 10
756.1940836891588
 20
700.5049206866117
 30
0.0
 10
755.7814177141172
 20
700.2982926149152
 30
0.0
 10
755.5731898386116
 20
700.1940297801011
 30
0.0
  0
SPLINE
  5
1FB
330
1F
100
AcDbEntity
  8
0
  6
Continuous
 62
     7
370
    15
100
AcDbSpline
210
0.0
220
0.0
230
1.0
 70
     8
 71
     3
 72
    14
 73
    10
 74
     0
 42
0.00000001
 43
0.00000001
 12
1.0
 22
0.0
 32
0.0
 13
1.0
 23
0.0
 33
0.0
 40
0.0
 40
0.0
 40
0.0
 40
0.0
 40
0.1331911644239293
 40
0.2578378928429333
 40
0.3824543477114502
 40
0.5101658796244898
 40
0.6378842401296463
 40
0.8180579181728116
 40
1.0
 40
1.0
 40
1.0
 40
1.0
 10
755.5731898386116
 20
711.1517327744477
 30
0.0
 10
755.6964441509125
 20
710.7341753586942
 30
0.0
 10
755.935045805196
 20
709.925847533913
 30
0.0
 10
756.1878816319827
 20
708.7043481185158
 30
0.0
 10
756.3476392853519
 20
707.4876149602927
 30
0.0
 10
756.3954802230851
 20
706.252077283545
 30
0.0
 10
756.318376901248
 20
704.8375306362947
 30
0.0
 10
756.0665207359274
 20
703.2590921660495
 30
0.0
 10
755.7381679780815
 20
702.1218702641286
 30
0.0
 10
755.5731898386116
 20
701.550482483577
 30
0.0
  0
SPLINE
  5
1FC
330
1F
100
AcDbEntity
  8
0
  6
Continuous
 62
     7
370
    15
100
AcDbSpline
210
0.0
220
0.0
230
1.0
 70
     8
 71
     3
 72
    16
 73
    12
 74
     0
 42
0.00000001
 43
0.00000001
 12
1.0
 22
0.0
 32
0.0
 13
1.0
 23
0.0
 33
0.0
 40
0.0
 40
0.0
 40
0.0
 40
0.0
 40
0.2500000000000003
 40
0.2500000000000003
 40
0.5000000000000007
 40
0.5000000000000007
 40
0.6250000000000009
 40
0.6250000000000009
 40
0.750000000000001
 40
0.750000000000001
 40
1.0
 40
1.0
 40
1.0
 40
1.0
 10
755.5731863304857
 20
719.3965043151735
 30
0.0
 10
755.8181084054189
 20
718.7233965479512
 30
0.0
 10
756.0199686741769
 20
718.0453812563941
 30
0.0
 10
756.299610917301
 20
716.6752101319689
 30
0.0
 10
756.3764704715503
 20
715.9829491758007
 30
0.0
 10
756.3773150611618
 20
714.93151508484
 30
0.0
 10
756.3585260816169
 20
714.5793879299887
 30
0.0
 10
756.2852587217961
 20
713.8828432894323
 30
0.0
 10
756.2308546971468
 20
713.5369062273838
 30
0.0
 10
756.0207756168676
 20
712.5052539854713
 30
0.0
 10
755.8184161723213
 20
711.825673751497
 30
0.0
 10
755.573189119439
 20
711.1517268879853
 30
0.0
  0
SPLINE
  5
1FD
330
1F
100
AcDbEntity
  8
0
  6
Continuous
 62
     7
370
    15
100
AcDbSpline
210
0.0
220
0.0
230
1.0
 70
     8
 71
     3
 72
     9
 73
     5
 74
     0
 42
0.00000001
 43
0.00000001
 12
1.0
 22
0.0
 32
0.0
 13
1.0
 23
0.0
 33
0.0
 40
0.0
 40
0.0
 40
0.0
 40
0.0
 40
0.3942795369706712
 40
0.9999999999999999
 40
0.9999999999999999
 40
0.9999999999999999
 40
0.9999999999999999
 10
756.29211126157
 20
718.8728290516847
 30
0.0
 10
756.2528588466153
 20
718.9428439203729
 30
0.0
 10
756.1533040605459
 20
719.1204206448108
 30
0.0
 10
755.7920243513493
 20
719.2923558733053
 30
0.0
 10
755.5731898386116
 20
719.3965005595201
 30
0.0
  0
LINE
  5
1FE
330
1F
100
AcDbEntity
  8
0
  6
Continuous
 62
     7
370
    15
100
AcDbLine
 10
747.6469045717
 20
711.1517327744
 30
0.0
 11
755.5731898386
 21
711.1517327744
 31
0.0
  0
LINE
  5
1FF
330
1F
100
AcDbEntity
  8
0
  6
Continuous
 62
     7
370
    15
100
AcDbLine
 10
747.6469045717
 20
701.5504824836
 30
0.0
 11
755.5731898386
 21
701.5504824836
 31
0.0
  0
SPLINE
  5
200
330
1F
100
AcDbEntity
  8
0
  6
Continuous
 62
     7
370
    15
100
AcDbSpline
210
0.0
220
0.0
230
1.0
 70
     8
 71
     3
 72
    14
 73
    10
 74
     0
 42
0.00000001
 43
0.00000001
 12
1.0
 22
0.0
 32
0.0
 13
1.0
 23
0.0
 33
0.0
 40
0.0
 40
0.0
 40
0.0
 40
0.0
 40
0.1803127216357555
 40
0.3621149499205152
 40
0.4866240635730956
 40
0.6111299634539411
 40
0.7389508038323992
 40
0.8668088748534243
 40
1.0
 40
1.0
 40
1.0
 40
1.0
 10
747.6469045717354
 20
701.5504824835771
 30
0.0
 10
747.4833103694169
 20
702.1167160372324
 30
0.0
 10
747.1547705645578
 20
703.2538606217361
 30
0.0
 10
746.9036919798674
 20
704.8219062860917
 30
0.0
 10
746.825798316764
 20
706.2207841874948
 30
0.0
 10
746.8689278582165
 20
707.445885225582
 30
0.0
 10
747.02619576285
 20
708.6735235382844
 30
0.0
 10
747.2820988286131
 20
709.9157747635131
 30
0.0
 10
747.5236576972796
 20
710.7341736633919
 30
0.0
 10
747.6469045717354
 20
711.1517327744477
 30
0.0
  0
SPLINE
  5
201
330
1F
100
AcDbEntity
  8
0
  6
Continuous
 62
     7
370
    15
100
AcDbSpline
210
0.0
220
0.0
230
1.0
 70
     8
 71
     3
 72
    10
 73
     6
 74
     0
 42
0.00000001
 43
0.00000001
 12
1.0
 22
0.0
 32
0.0
 13
1.0
 23
0.0
 33
0.0
 40
0.0
 40
0.0
 40
0.0
 40
0.0
 40
0.3413734728728933
 40
0.6826575228890434
 40
1.0
 40
1.0
 40
1.0
 40
1.0
 10
747.6469045717354
 20
719.3965005595201
 30
0.0
 10
747.525089990561
 20
719.3378914947552
 30
0.0
 10
747.2814927375688
 20
719.2206887178834
 30
0.0
 10
747.0181883195661
 20
719.04582210851
 30
0.0
 10
746.9340343939615
 20
718.9291291149425
 30
0.0
 10
746.8934869606132
 20
718.8729035574906
 30
0.0
  0
SPLINE
  5
202
330
1F
100
AcDbEntity
  8
0
  6
Continuous
 62
     7
370
    15
100
AcDbSpline
210
0.0
220
0.0
230
1.0
 70
     8
 71
     3
 72
    13
 73
     9
 74
     0
 42
0.00000001
 43
0.00000001
 12
1.0
 22
0.0
 32
0.0
 13
1.0
 23
0.0
 33
0.0
 40
0.0
 40
0.0
 40
0.0
 40
0.0
 40
0.1323375415643496
 40
0.26463832789031
 40
0.3998957378003086
 40
0.5351331616178575
 40
0.7654375764423291
 40
1.0
 40
1.0
 40
1.0
 40
1.0
 10
747.6469045717354
 20
711.1517327744477
 30
0.0
 10
747.5245339653682
 20
711.5079367819279
 30
0.0
 10
747.2798267396698
 20
712.2202458652995
 30
0.0
 10
747.016611850251
 20
713.317117625822
 30
0.0
 10
746.8579740832961
 20
714.4348538872247
 30
0.0
 10
746.8188243067139
 20
715.8326822948691
 30
0.0
 10
747.0260226947528
 20
717.50682660979
 30
0.0
 10
747.4386840042914
 20
718.7627745696277
 30
0.0
 10
747.6469045717354
 20
719.3965005595201
 30
0.0
  0
SPLINE
  5
203
330
1F
100
AcDbEntity
  8
0
  6
Continuous
 62
     7
370
    15
100
AcDbSpline
210
0.0
220
0.0
230
1.0
 70
     8
 71
     3
 72
    13
 73
     9
 74
     0
 42
0.00000001
 43
0.00000001
 12
1.0
 22
0.0
 32
0.0
 13
1.0
 23
0.0
 33
0.0
 40
0.0
 40
0.0
 40
0.0
 40
0.0
 40
0.1323412350945561
 40
0.2646423800935711
 40
0.3999008814035613
 40
0.5351344734487136
 40
0.7654384038023864
 40
1.0
 40
1.0
 40
1.0
 40
1.0
 10
747.6469045717354
 20
700.1940297801011
 30
0.0
 10
747.5245345521553
 20
700.2526326574898
 30
0.0
 10
747.2798315825132
 20
700.3698206597131
 30
0.0
 10
747.0166104473551
 20
700.5502963243673
 30
0.0
 10
746.8579762753309
 20
700.7341805672405
 30
0.0
 10
746.8188240263955
 20
700.9641658386076
 30
0.0
 10
747.0260227934237
 20
701.2395798628461
 30
0.0
 10
747.4386841349893
 20
701.4462174177701
 30
0.0
 10
747.6469045717354
 20
701.5504824835771
 30
0.0
  0
LINE
  5
204
330
1F
100
AcDbEntity
  8
0
  6
Continuous
 62
     7
370
    15
100
AcDbLine
 10
746.410048588
 20
701.5452670772
 30
0.0
 11
746.410048588
 21
718.0452632625
 31
0.0
  0
LINE
  5
205
330
1F
100
AcDbEntity
  8
0
  6
Continuous
 62
     7
370
    15
100
AcDbLine
 10
747.6469045717
 20
1195.3863787372
 30
0.0
 11
755.5731898386
 21
1195.3863787372
 31
0.0
  0
LINE
  5
206
330
1F
100
AcDbEntity
  8
0
  6
Continuous
 62
     7
370
    15
100
AcDbLine
 10
747.6469045717
 20
719.3965005595
 30
0.0
 11
755.5731898386
 21
719.3965005595
 31
0.0
  0
LINE
  5
207
330
1F
100
AcDbEntity
  8
0
  6
Continuous
 62
     7
370
    15
100
AcDbLine
 10
747.6469045717
 20
1214.5888495166
 30
0.0
 11
755.5731898386
 21
1214.5888495166
 31
0.0
  0
LINE
  5
208
330
1F
100
AcDbEntity
  8
0
  6
Continuous
 62
     7
370
    15
100
AcDbLine
 10
747.6469045717
 20
700.1940297801
 30
0.0
 11
755.5731898386
 21
700.1940297801
 31
0.0
  0
LINE
  5
209
330
1F
100
AcDbEntity
  8
0
  6
Continuous
 62
     7
370
    15
100
AcDbLine
 10
711.3100504715
 20
1198.9876168687
 30
0.0
 11
711.3100504715
 21
1210.9876262862
 31
0.0
  0
LINE
  5
20A
330
1F
100
AcDbEntity
  8
0
  6
Continuous
 62
     7
370
    15
100
AcDbLine
 10
711.3100504715
 20
703.7952530105
 30
0.0
 11
711.3100504715
 21
715.795262428
 31
0.0
  0
LINE
  5
20B
330
1F
100
AcDbEntity
  8
0
  6
Continuous
 62
     7
370
    15
100
AcDbLine
 10
756.8100458223
 20
1402.8895187098
 30
0.0
 11
756.8100458223
 21
1426.8895375449
 31
0.0
  0
LINE
  5
20C
330
1F
100
AcDbEntity
  8
0
  6
Continuous
 62
     7
370
    15
100
AcDbLine
 10
756.8100458223
 20
508.378623696
 30
0.0
 11
756.8100458223
 21
511.8933605868
 31
0.0
  0
LINE
  5
20D
330
1F
100
AcDbEntity
  8
0
  6
Continuous
 62
     7
370
    15
100
AcDbLine
 10
756.8100458223
 20
487.8933417518
 30
0.0
 11
756.8100458223
 21
508.378623696
 31
0.0
  0
LINE
  5
20E
330
1F
100
AcDbEntity
  8
0
  6
Continuous
 62
     7
370
    15
100
AcDbLine
 10
747.6469045717
 20
1417.5792622287
 30
0.0
 11
755.5731898386
 21
1417.5792622287
 31
0.0
  0
SPLINE
  5
20F
330
1F
100
AcDbEntity
  8
0
  6
Continuous
 62
     7
370
    15
100
AcDbSpline
210
0.0
220
0.0
230
1.0
 70
     8
 71
     3
 72
    13
 73
     9
 74
     0
 42
0.00000001
 43
0.00000001
 12
1.0
 22
0.0
 32
0.0
 13
1.0
 23
0.0
 33
0.0
 40
0.0
 40
0.0
 40
0.0
 40
0.0
 40
0.1323391194338495
 40
0.2646389162478455
 40
0.3998983345457269
 40
0.535132844405416
 40
0.7654363399934315
 40
1.0
 40
1.0
 40
1.0
 40
1.0
 10
755.5731898386116
 20
1417.579262228679
 30
0.0
 10
755.6955599427091
 20
1417.145563391477
 30
0.0
 10
755.9402637904302
 20
1416.278294584293
 30
0.0
 10
756.2034858717242
 20
1414.942824664404
 30
0.0
 10
756.3621184254206
 20
1413.582000399525
 30
0.0
 10
756.4012674575579
 20
1411.880072217125
 30
0.0
 10
756.1940931972837
 20
1409.841780123486
 30
0.0
 10
755.7814182452987
 20
1408.312641309495
 30
0.0
 10
755.5731898386116
 20
1407.541065188121
 30
0.0
  0
LINE
  5
210
330
1F
100
AcDbEntity
  8
0
  6
Continuous
 62
     7
370
    15
100
AcDbLine
 10
747.6469045717
 20
1407.5410651881
 30
0.0
 11
755.5731898386
 21
1407.5410651881
 31
0.0
  0
SPLINE
  5
211
330
1F
100
AcDbEntity
  8
0
  6
Continuous
 62
     7
370
    15
100
AcDbSpline
210
0.0
220
0.0
230
1.0
 70
     8
 71
     3
 72
    13
 73
     9
 74
     0
 42
0.00000001
 43
0.00000001
 12
1.0
 22
0.0
 32
0.0
 13
1.0
 23
0.0
 33
0.0
 40
0.0
 40
0.0
 40
0.0
 40
0.0
 40
0.1323364890878311
 40
0.2646370164745152
 40
0.3998964472378827
 40
0.535132967182744
 40
0.7654373508267818
 40
1.0
 40
1.0
 40
1.0
 40
1.0
 10
747.6469045717354
 20
1407.541065188121
 30
0.0
 10
747.5245338904342
 20
1407.974754534923
 30
0.0
 10
747.2798257813806
 20
1408.842015375871
 30
0.0
 10
747.0166097830655
 20
1410.177469131612
 30
0.0
 10
746.8579756091098
 20
1411.538300931164
 30
0.0
 10
746.8188237936096
 20
1413.240259337431
 30
0.0
 10
747.0260232288654
 20
1415.278533159151
 30
0.0
 10
747.4386841081837
 20
1416.807683441742
 30
0.0
 10
747.6469045717354
 20
1417.579262228679
 30
0.0
  0
SPLINE
  5
212
330
1F
100
AcDbEntity
  8
0
  6
Continuous
 62
     7
370
    15
100
AcDbSpline
210
0.0
220
0.0
230
1.0
 70
     8
 71
     3
 72
    10
 73
     6
 74
     0
 42
0.00000001
 43
0.00000001
 12
1.0
 22
0.0
 32
0.0
 13
1.0
 23
0.0
 33
0.0
 40
0.0
 40
0.0
 40
0.0
 40
0.0
 40
0.4890221681243299
 40
0.977899030515182
 40
1.0
 40
1.0
 40
1.0
 40
1.0
 10
747.6469045717354
 20
1424.92771026678
 30
0.0
 10
747.5270193114505
 20
1424.811407438838
 30
0.0
 10
747.2872844130197
 20
1424.578836340625
 30
0.0
 10
747.083754600843
 20
1424.337648659906
 30
0.0
 10
747.0312111416353
 20
1424.2124458184
 30
0.0
 10
747.0289385158653
 20
1424.207030506801
 30
0.0
  0
SPLINE
  5
213
330
1F
100
AcDbEntity
  8
0
  6
Continuous
 62
     7
370
    15
100
AcDbSpline
210
0.0
220
0.0
230
1.0
 70
     8
 71
     3
 72
    16
 73
    12
 74
     0
 42
0.00000001
 43
0.00000001
 12
1.0
 22
0.0
 32
0.0
 13
1.0
 23
0.0
 33
0.0
 40
0.0
 40
0.0
 40
0.0
 40
0.0
 40
0.2499999999999945
 40
0.2499999999999945
 40
0.499999999999989
 40
0.499999999999989
 40
0.6249999999999862
 40
0.6249999999999862
 40
0.7499999999999836
 40
0.7499999999999836
 40
1.0
 40
1.0
 40
1.0
 40
1.0
 10
747.646905273928
 20
1424.927711933614
 30
0.0
 10
747.4029311951203
 20
1424.330098614157
 30
0.0
 10
747.1982383611314
 20
1423.717867594145
 30
0.0
 10
746.9183861941151
 20
1422.490414954025
 30
0.0
 10
746.8429780800418
 20
1421.873367042113
 30
0.0
 10
746.8431042179681
 20
1420.941965303154
 30
0.0
 10
746.8617955708476
 20
1420.630537930743
 30
0.0
 10
746.9359699836426
 20
1420.005789030919
 30
0.0
 10
746.991145912645
 20
1419.695294395069
 30
0.0
 10
747.2024817620515
 20
1418.774924663001
 30
0.0
 10
747.4044437341016
 20
1418.173172636084
 30
0.0
 10
747.646905295173
 20
1417.579264227775
 30
0.0
  0
SPLINE
  5
214
330
1F
100
AcDbEntity
  8
0
  6
Continuous
 62
     7
370
    15
100
AcDbSpline
210
0.0
220
0.0
230
1.0
 70
     8
 71
     3
 72
    13
 73
     9
 74
     0
 42
0.00000001
 43
0.00000001
 12
1.0
 22
0.0
 32
0.0
 13
1.0
 23
0.0
 33
0.0
 40
0.0
 40
0.0
 40
0.0
 40
0.0
 40
0.132338433995059
 40
0.2646389717772522
 40
0.3998984131686244
 40
0.5351329461175516
 40
0.7654366200471011
 40
1.0
 40
1.0
 40
1.0
 40
1.0
 10
747.6469045717354
 20
1404.851345987987
 30
0.0
 10
747.5245342207663
 20
1404.967541129473
 30
0.0
 10
747.2798285605976
 20
1405.199898139
 30
0.0
 10
747.0166093677745
 20
1405.557752756047
 30
0.0
 10
746.8579765149317
 20
1405.922376888718
 30
0.0
 10
746.8188235274346
 20
1406.378455433896
 30
0.0
 10
747.0260250687171
 20
1406.924558812085
 30
0.0
 10
747.438684300317
 20
1407.334311503509
 30
0.0
 10
747.6469045717354
 20
1407.541065188121
 30
0.0
  0
LINE
  5
215
330
1F
100
AcDbEntity
  8
0
  6
Continuous
 62
     7
370
    15
100
AcDbLine
 10
746.410048588
 20
1406.6395151336
 30
0.0
 11
746.410048588
 21
1423.1395411212
 31
0.0
  0
SPLINE
  5
216
330
1F
100
AcDbEntity
  8
0
  6
Continuous
 62
     7
370
    15
100
AcDbSpline
210
0.0
220
0.0
230
1.0
 70
     8
 71
     3
 72
    16
 73
    12
 74
     0
 42
0.00000001
 43
0.00000001
 12
1.0
 22
0.0
 32
0.0
 13
1.0
 23
0.0
 33
0.0
 40
0.0
 40
0.0
 40
0.0
 40
0.0
 40
0.2500000000000056
 40
0.2500000000000056
 40
0.5000000000000112
 40
0.5000000000000112
 40
0.6250000000000084
 40
0.6250000000000084
 40
0.7500000000000057
 40
0.7500000000000057
 40
1.0
 40
1.0
 40
1.0
 40
1.0
 10
755.5731930824821
 20
1424.927713013446
 30
0.0
 10
755.8171672733531
 20
1424.330099551217
 30
0.0
 10
756.0218602130473
 20
1423.717868380431
 30
0.0
 10
756.3017125397059
 20
1422.49041542434
 30
0.0
 10
756.3771207053479
 20
1421.873367352986
 30
0.0
 10
756.3769945852407
 20
1420.941965371801
 30
0.0
 10
756.358303228567
 20
1420.630537918145
 30
0.0
 10
756.2841287890408
 20
1420.00578885485
 30
0.0
 10
756.2289528376377
 20
1419.695294140098
 30
0.0
 10
756.017616899799
 20
1418.774924174206
 30
0.0
 10
755.8156548411164
 20
1418.173171996767
 30
0.0
 10
755.5731931806362
 20
1417.579263440411
 30
0.0
  0
SPLINE
  5
217
330
1F
100
AcDbEntity
  8
0
  6
Continuous
 62
     7
370
    15
100
AcDbSpline
210
0.0
220
0.0
230
1.0
 70
     8
 71
     3
 72
     9
 73
     5
 74
     0
 42
0.00000001
 43
0.00000001
 12
1.0
 22
0.0
 32
0.0
 13
1.0
 23
0.0
 33
0.0
 40
0.0
 40
0.0
 40
0.0
 40
0.0
 40
0.1319342355743021
 40
1.0
 40
1.0
 40
1.0
 40
1.0
 10
756.1706518966789
 20
1424.207239123058
 30
0.0
 10
756.159383547292
 20
1424.239570637607
 30
0.0
 10
756.0739747120663
 20
1424.484628445451
 30
0.0
 10
755.805898029226
 20
1424.721815930906
 30
0.0
 10
755.5731898386116
 20
1424.92771026678
 30
0.0
  0
SPLINE
  5
218
330
1F
100
AcDbEntity
  8
0
  6
Continuous
 62
     7
370
    15
100
AcDbSpline
210
0.0
220
0.0
230
1.0
 70
     8
 71
     3
 72
    13
 73
     9
 74
     0
 42
0.00000001
 43
0.00000001
 12
1.0
 22
0.0
 32
0.0
 13
1.0
 23
0.0
 33
0.0
 40
0.0
 40
0.0
 40
0.0
 40
0.0
 40
0.1323364651240083
 40
0.2646369685533815
 40
0.3998963748236325
 40
0.5351328702795262
 40
0.7654370731992338
 40
1.0
 40
1.0
 40
1.0
 40
1.0
 10
755.5731898386116
 20
1407.541065188121
 30
0.0
 10
755.6955605354972
 20
1407.42485670029
 30
0.0
 10
755.9402686757155
 20
1407.192471303633
 30
0.0
 10
756.203484438602
 20
1406.834634665652
 30
0.0
 10
756.3621195264344
 20
1406.469988592418
 30
0.0
 10
756.4012670972584
 20
1406.013986935536
 30
0.0
 10
756.1940950661201
 20
1405.467798185515
 30
0.0
 10
755.781418447137
 20
1405.058081215244
 30
0.0
 10
755.5731898386116
 20
1404.851345987987
 30
0.0
  0
SPLINE
  5
219
330
1F
100
AcDbEntity
  8
0
  6
Continuous
 62
     7
370
    15
100
AcDbSpline
210
0.0
220
0.0
230
1.0
 70
     8
 71
     3
 72
    13
 73
     9
 74
     0
 42
0.00000001
 43
0.00000001
 12
1.0
 22
0.0
 32
0.0
 13
1.0
 23
0.0
 33
0.0
 40
0.0
 40
0.0
 40
0.0
 40
0.0
 40
0.1323364890878311
 40
0.2646370164745152
 40
0.3998964472378827
 40
0.535132967182744
 40
0.7654373508267818
 40
1.0
 40
1.0
 40
1.0
 40
1.0
 10
747.6469045717354
 20
507.2418141085618
 30
0.0
 10
747.5245338904342
 20
507.3580225959093
 30
0.0
 10
747.2798257813806
 20
507.5904079915976
 30
0.0
 10
747.0166097830655
 20
507.9482446368921
 30
0.0
 10
746.8579756091098
 20
508.3128906817376
 30
0.0
 10
746.8188237936096
 20
508.768892596725
 30
0.0
 10
747.0260232288654
 20
509.3150803316059
 30
0.0
 10
747.4386841081837
 20
509.7247979539918
 30
0.0
 10
747.6469045717354
 20
509.9315333086961
 30
0.0
  0
SPLINE
  5
21A
330
1F
100
AcDbEntity
  8
0
  6
Continuous
 62
     7
370
    15
100
AcDbSpline
210
0.0
220
0.0
230
1.0
 70
     8
 71
     3
 72
    13
 73
     9
 74
     0
 42
0.00000001
 43
0.00000001
 12
1.0
 22
0.0
 32
0.0
 13
1.0
 23
0.0
 33
0.0
 40
0.0
 40
0.0
 40
0.0
 40
0.0
 40
0.1323391433979684
 40
0.2646389641689626
 40
0.399898406959774
 40
0.5351329413078825
 40
0.7654366176202304
 40
1.0
 40
1.0
 40
1.0
 40
1.0
 10
747.6469045717354
 20
497.203617068004
 30
0.0
 10
747.5245344832227
 20
497.6373159033997
 30
0.0
 10
747.2798306666668
 20
498.504584706971
 30
0.0
 10
747.0166083499444
 20
499.8400546541524
 30
0.0
 10
746.8579767101198
 20
501.2008788130844
 30
0.0
 10
746.8188234333642
 20
502.9028079587683
 30
0.0
 10
747.0260250977226
 20
504.9410962638465
 30
0.0
 10
747.4386843100444
 20
506.4702375115655
 30
0.0
 10
747.6469045717354
 20
507.2418141085618
 30
0.0
  0
SPLINE
  5
21B
330
1F
100
AcDbEntity
  8
0
  6
Continuous
 62
     7
370
    15
100
AcDbSpline
210
0.0
220
0.0
230
1.0
 70
     8
 71
     3
 72
    16
 73
    12
 74
     0
 42
0.00000001
 43
0.00000001
 12
1.0
 22
0.0
 32
0.0
 13
1.0
 23
0.0
 33
0.0
 40
0.0
 40
0.0
 40
0.0
 40
0.0
 40
0.25
 40
0.25
 40
0.5
 40
0.5
 40
0.625
 40
0.625
 40
0.75
 40
0.75
 40
1.0
 40
1.0
 40
1.0
 40
1.0
 10
747.6469052739287
 20
497.2036150168632
 30
0.0
 10
747.4029311951209
 20
496.6060016974067
 30
0.0
 10
747.1982383611318
 20
495.9937706773939
 30
0.0
 10
746.9183861941153
 20
494.7663180372751
 30
0.0
 10
746.842978080042
 20
494.1492701253625
 30
0.0
 10
746.843104217968
 20
493.2178683864036
 30
0.0
 10
746.8617955708474
 20
492.9064410139919
 30
0.0
 10
746.9359699836422
 20
492.2816921141687
 30
0.0
 10
746.9911459126446
 20
491.9711974783185
 30
0.0
 10
747.2024817620511
 20
491.05082774625
 30
0.0
 10
747.4044437341012
 20
490.4490757193337
 30
0.0
 10
747.6469052951724
 20
489.855167311025
 30
0.0
  0
SPLINE
  5
21C
330
1F
100
AcDbEntity
  8
0
  6
Continuous
 62
     7
370
    15
100
AcDbSpline
210
0.0
220
0.0
230
1.0
 70
     8
 71
     3
 72
     9
 73
     5
 74
     0
 42
0.00000001
 43
0.00000001
 12
1.0
 22
0.0
 32
0.0
 13
1.0
 23
0.0
 33
0.0
 40
0.0
 40
0.0
 40
0.0
 40
0.0
 40
0.1319348384346089
 40
1.0
 40
1.0
 40
1.0
 40
1.0
 10
747.049442513668
 20
490.5756401736253
 30
0.0
 10
747.0607161928699
 20
490.543308669838
 30
0.0
 10
747.1461650351597
 20
490.2982520633267
 30
0.0
 10
747.4142175350822
 20
490.0610638524761
 30
0.0
 10
747.6469045717354
 20
489.8551690299028
 30
0.0
  0
LINE
  5
21D
330
1F
100
AcDbEntity
  8
0
  6
Continuous
 62
     7
370
    15
100
AcDbLine
 10
746.410048588
 20
491.6433381755
 30
0.0
 11
746.410048588
 21
508.1433641631
 31
0.0
  0
LINE
  5
21E
330
1F
100
AcDbEntity
  8
0
  6
Continuous
 62
     7
370
    15
100
AcDbLine
 10
747.6469045717
 20
507.2418141086
 30
0.0
 11
755.5731898386
 21
507.2418141086
 31
0.0
  0
SPLINE
  5
21F
330
1F
100
AcDbEntity
  8
0
  6
Continuous
 62
     7
370
    15
100
AcDbSpline
210
0.0
220
0.0
230
1.0
 70
     8
 71
     3
 72
    13
 73
     9
 74
     0
 42
0.00000001
 43
0.00000001
 12
1.0
 22
0.0
 32
0.0
 13
1.0
 23
0.0
 33
0.0
 40
0.0
 40
0.0
 40
0.0
 40
0.0
 40
0.1323364651240083
 40
0.2646369685533815
 40
0.3998963748236325
 40
0.5351328702795262
 40
0.7654370731992338
 40
1.0
 40
1.0
 40
1.0
 40
1.0
 10
755.5731898386116
 20
507.2418141085618
 30
0.0
 10
755.6955605354972
 20
506.8081247599532
 30
0.0
 10
755.9402686757155
 20
505.940863915392
 30
0.0
 10
756.203484438602
 20
504.6054101869455
 30
0.0
 10
756.3621195264344
 20
503.2445782814453
 30
0.0
 10
756.4012670972584
 20
501.5426208384712
 30
0.0
 10
756.1940950661201
 20
499.5043432281811
 30
0.0
 10
755.781418447137
 20
497.9751953793256
 30
0.0
 10
755.5731898386116
 20
497.203617068004
 30
0.0
  0
LINE
  5
220
330
1F
100
AcDbEntity
  8
0
  6
Continuous
 62
     7
370
    15
100
AcDbLine
 10
747.6469045717
 20
497.203617068
 30
0.0
 11
755.5731898386
 21
497.203617068
 31
0.0
  0
SPLINE
  5
221
330
1F
100
AcDbEntity
  8
0
  6
Continuous
 62
     7
370
    15
100
AcDbSpline
210
0.0
220
0.0
230
1.0
 70
     8
 71
     3
 72
    10
 73
     6
 74
     0
 42
0.00000001
 43
0.00000001
 12
1.0
 22
0.0
 32
0.0
 13
1.0
 23
0.0
 33
0.0
 40
0.0
 40
0.0
 40
0.0
 40
0.0
 40
0.4890218879721416
 40
0.9778984702940486
 40
1.0
 40
1.0
 40
1.0
 40
1.0
 10
755.5731898386116
 20
489.8551690299028
 30
0.0
 10
755.6930898551565
 20
489.971471435798
 30
0.0
 10
755.9328542617225
 20
490.2040416900417
 30
0.0
 10
756.1362333421455
 20
490.4452338233822
 30
0.0
 10
756.188893083899
 20
490.5704334816691
 30
0.0
 10
756.1911707956428
 20
490.575848789882
 30
0.0
  0
SPLINE
  5
222
330
1F
100
AcDbEntity
  8
0
  6
Continuous
 62
     7
370
    15
100
AcDbSpline
210
0.0
220
0.0
230
1.0
 70
     8
 71
     3
 72
    16
 73
    12
 74
     0
 42
0.00000001
 43
0.00000001
 12
1.0
 22
0.0
 32
0.0
 13
1.0
 23
0.0
 33
0.0
 40
0.0
 40
0.0
 40
0.0
 40
0.0
 40
0.2500000000000115
 40
0.2500000000000115
 40
0.500000000000023
 40
0.500000000000023
 40
0.6250000000000175
 40
0.6250000000000175
 40
0.750000000000012
 40
0.750000000000012
 40
1.0
 40
1.0
 40
1.0
 40
1.0
 10
755.5731930824816
 20
497.203616096695
 30
0.0
 10
755.8171672733525
 20
496.6060026344665
 30
0.0
 10
756.0218602130468
 20
495.9937714636809
 30
0.0
 10
756.3017125397058
 20
494.7663185075892
 30
0.0
 10
756.3771207053478
 20
494.1492704362353
 30
0.0
 10
756.3769945852408
 20
493.2178684550502
 30
0.0
 10
756.3583032285671
 20
492.9064410013949
 30
0.0
 10
756.2841287890411
 20
492.2816919380996
 30
0.0
 10
756.2289528376381
 20
491.9711972233475
 30
0.0
 10
756.0176168997995
 20
491.0508272574555
 30
0.0
 10
755.815654841117
 20
490.449075080017
 30
0.0
 10
755.5731931806368
 20
489.8551665236606
 30
0.0
  0
SPLINE
  5
223
330
1F
100
AcDbEntity
  8
0
  6
Continuous
 62
     7
370
    15
100
AcDbSpline
210
0.0
220
0.0
230
1.0
 70
     8
 71
     3
 72
    13
 73
     9
 74
     0
 42
0.00000001
 43
0.00000001
 12
1.0
 22
0.0
 32
0.0
 13
1.0
 23
0.0
 33
0.0
 40
0.0
 40
0.0
 40
0.0
 40
0.0
 40
0.1323384100310688
 40
0.2646389238561341
 40
0.399898340754577
 40
0.5351328492150852
 40
0.7654363424203047
 40
1.0
 40
1.0
 40
1.0
 40
1.0
 10
755.5731898386116
 20
509.9315333086961
 30
0.0
 10
755.6955602051655
 20
509.8153381667254
 30
0.0
 10
755.9402658964996
 20
509.5829811562309
 30
0.0
 10
756.2034848538925
 20
509.2251265464967
 30
0.0
 10
756.3621186206085
 20
508.8605023854386
 30
0.0
 10
756.4012673634875
 20
508.4044240983802
 30
0.0
 10
756.1940932262892
 20
507.8583197050525
 30
0.0
 10
755.7814182550261
 20
507.4485676657425
 30
0.0
 10
755.5731898386116
 20
507.2418141085618
 30
0.0
  0
LINE
  5
224
330
1F
100
AcDbEntity
  8
0
  6
Continuous
 62
     7
370
    15
100
AcDbLine
 10
747.6469045717
 20
1424.9277102668
 30
0.0
 11
755.5731898386
 21
1424.9277102668
 31
0.0
  0
LINE
  5
225
330
1F
100
AcDbEntity
  8
0
  6
Continuous
 62
     7
370
    15
100
AcDbLine
 10
747.6469045717
 20
489.8551690299
 30
0.0
 11
755.5731898386
 21
489.8551690299
 31
0.0
  0
LINE
  5
226
330
1F
100
AcDbEntity
  8
0
  6
Continuous
 62
     7
370
    15
100
AcDbLine
 10
747.6469045717
 20
1404.851345988
 30
0.0
 11
755.5731898386
 21
1404.851345988
 31
0.0
  0
LINE
  5
227
330
1F
100
AcDbEntity
  8
0
  6
Continuous
 62
     7
370
    15
100
AcDbLine
 10
747.6469045717
 20
509.9315333087
 30
0.0
 11
755.5731898386
 21
509.9315333087
 31
0.0
  0
LINE
  5
228
330
1F
100
AcDbEntity
  8
0
  6
Continuous
 62
     7
370
    15
100
AcDbLine
 10
711.3100504715
 20
1408.8895308692
 30
0.0
 11
711.3100504715
 21
1420.8895253856
 31
0.0
  0
LINE
  5
229
330
1F
100
AcDbEntity
  8
0
  6
Continuous
 62
     7
370
    15
100
AcDbLine
 10
711.3100504715
 20
493.8933539111
 30
0.0
 11
711.3100504715
 21
505.8933484275
 31
0.0
  0
LINE
  5
22A
330
1F
100
AcDbEntity
  8
0
  6
Continuous
 62
     7
370
    15
100
AcDbLine
 10
756.8100458223
 20
1543.1414830405
 30
0.0
 11
756.8100458223
 21
1567.1414720733
 31
0.0
  0
LINE
  5
22B
330
1F
100
AcDbEntity
  8
0
  6
Continuous
 62
     7
370
    15
100
AcDbLine
 10
756.8100458223
 20
364.2336117942
 30
0.0
 11
756.8100458223
 21
371.6413962562
 31
0.0
  0
LINE
  5
22C
330
1F
100
AcDbEntity
  8
0
  6
Continuous
 62
     7
370
    15
100
AcDbLine
 10
756.8100458223
 20
347.6414072234
 30
0.0
 11
756.8100458223
 21
364.2336117942
 31
0.0
  0
LINE
  5
22D
330
1F
100
AcDbEntity
  8
0
  6
Continuous
 62
     7
370
    15
100
AcDbLine
 10
747.6469045717
 20
1561.4679443557
 30
0.0
 11
755.5731898386
 21
1561.4679443557
 31
0.0
  0
SPLINE
  5
22E
330
1F
100
AcDbEntity
  8
0
  6
Continuous
 62
     7
370
    15
100
AcDbSpline
210
0.0
220
0.0
230
1.0
 70
     8
 71
     3
 72
    13
 73
     9
 74
     0
 42
0.00000001
 43
0.00000001
 12
1.0
 22
0.0
 32
0.0
 13
1.0
 23
0.0
 33
0.0
 40
0.0
 40
0.0
 40
0.0
 40
0.0
 40
0.132335778677807
 40
0.2646368919691118
 40
0.3998953608626228
 40
0.5351345222884941
 40
0.7654326824253391
 40
1.0
 40
1.0
 40
1.0
 40
1.0
 10
755.5731898386116
 20
1561.467944355678
 30
0.0
 10
755.6955607858915
 20
1561.02279749786
 30
0.0
 10
755.9402706253546
 20
1560.132620388543
 30
0.0
 10
756.203482781601
 20
1558.761883209635
 30
0.0
 10
756.3621207400246
 20
1557.365083204889
 30
0.0
 10
756.4012687173605
 20
1555.618176839522
 30
0.0
 10
756.1940836891588
 20
1553.526032191792
 30
0.0
 10
755.7814177141172
 20
1551.956486542186
 30
0.0
 10
755.5731898386116
 20
1551.16450664587
 30
0.0
  0
LINE
  5
22F
330
1F
100
AcDbEntity
  8
0
  6
Continuous
 62
     7
370
    15
100
AcDbLine
 10
747.6469045717
 20
1551.1645066459
 30
0.0
 11
755.5731898386
 21
1551.1645066459
 31
0.0
  0
SPLINE
  5
230
330
1F
100
AcDbEntity
  8
0
  6
Continuous
 62
     7
370
    15
100
AcDbSpline
210
0.0
220
0.0
230
1.0
 70
     8
 71
     3
 72
    13
 73
     9
 74
     0
 42
0.00000001
 43
0.00000001
 12
1.0
 22
0.0
 32
0.0
 13
1.0
 23
0.0
 33
0.0
 40
0.0
 40
0.0
 40
0.0
 40
0.0
 40
0.1323412350945561
 40
0.2646423800935711
 40
0.3999008814035613
 40
0.5351344734487136
 40
0.7654384038023864
 40
1.0
 40
1.0
 40
1.0
 40
1.0
 10
747.6469045717354
 20
1551.16450664587
 30
0.0
 10
747.5245345521553
 20
1551.6096737132
 30
0.0
 10
747.2798315825132
 20
1552.499872993518
 30
0.0
 10
747.0166104473551
 20
1553.870626935994
 30
0.0
 10
746.8579762753309
 20
1555.267408423433
 30
0.0
 10
746.8188240263955
 20
1557.014312785036
 30
0.0
 10
747.0260227934237
 20
1559.106439482036
 30
0.0
 10
747.4386841349893
 20
1560.675984286396
 30
0.0
 10
747.6469045717354
 20
1561.467944355678
 30
0.0
  0
LINE
  5
231
330
1F
100
AcDbEntity
  8
0
  6
Continuous
 62
     7
370
    15
100
AcDbLine
 10
747.2851490814
 20
1545.400081845
 30
0.0
 11
747.6469045717
 21
1544.8381292541
 31
0.0
  0
SPLINE
  5
232
330
1F
100
AcDbEntity
  8
0
  6
Continuous
 62
     7
370
    15
100
AcDbSpline
210
0.0
220
0.0
230
1.0
 70
     8
 71
     3
 72
    14
 73
    10
 74
     0
 42
0.00000001
 43
0.00000001
 12
1.0
 22
0.0
 32
0.0
 13
1.0
 23
0.0
 33
0.0
 40
0.0
 40
0.0
 40
0.0
 40
0.0
 40
0.1803127216357555
 40
0.3621149499205152
 40
0.4866240635730956
 40
0.6111299634539411
 40
0.7389508038323992
 40
0.8668088748534243
 40
1.0
 40
1.0
 40
1.0
 40
1.0
 10
747.6469045717354
 20
1561.467944355678
 30
0.0
 10
747.4833103694169
 20
1561.702491141452
 30
0.0
 10
747.1547705645578
 20
1562.173522230185
 30
0.0
 10
746.9036919798674
 20
1562.822946682844
 30
0.0
 10
746.825798316764
 20
1563.402424719495
 30
0.0
 10
746.8689278582165
 20
1563.909919268624
 30
0.0
 10
747.02619576285
 20
1564.418367500489
 30
0.0
 10
747.2820988286131
 20
1564.932971733149
 30
0.0
 10
747.5236576972796
 20
1565.271939263411
 30
0.0
 10
747.6469045717354
 20
1565.444885464382
 30
0.0
  0
SPLINE
  5
233
330
1F
100
AcDbEntity
  8
0
  6
Continuous
 62
     7
370
    15
100
AcDbSpline
210
0.0
220
0.0
230
1.0
 70
     8
 71
     3
 72
    13
 73
     9
 74
     0
 42
0.00000001
 43
0.00000001
 12
1.0
 22
0.0
 32
0.0
 13
1.0
 23
0.0
 33
0.0
 40
0.0
 40
0.0
 40
0.0
 40
0.0
 40
0.1323368251689773
 40
0.2646358532401072
 40
0.3998982507470022
 40
0.5351338092950022
 40
0.7654378812859068
 40
1.0
 40
1.0
 40
1.0
 40
1.0
 10
747.6469045717354
 20
1544.838129254055
 30
0.0
 10
747.5245343222175
 20
1545.111441235402
 30
0.0
 10
747.2798287736977
 20
1545.657987136682
 30
0.0
 10
747.016604994964
 20
1546.499647630995
 30
0.0
 10
746.8579780593973
 20
1547.357313221977
 30
0.0
 10
746.8188229048387
 20
1548.429902188617
 30
0.0
 10
747.0260233526507
 20
1549.714519808245
 30
0.0
 10
747.4386842119686
 20
1550.678235243696
 30
0.0
 10
747.6469045717354
 20
1551.16450664587
 30
0.0
  0
LINE
  5
234
330
1F
100
AcDbEntity
  8
0
  6
Continuous
 62
     7
370
    15
100
AcDbLine
 10
746.410048588
 20
1546.8915092666
 30
0.0
 11
746.410048588
 21
1563.3915054519
 31
0.0
  0
SPLINE
  5
235
330
1F
100
AcDbEntity
  8
0
  6
Continuous
 62
     7
370
    15
100
AcDbSpline
210
0.0
220
0.0
230
1.0
 70
     8
 71
     3
 72
    14
 73
    10
 74
     0
 42
0.00000001
 43
0.00000001
 12
1.0
 22
0.0
 32
0.0
 13
1.0
 23
0.0
 33
0.0
 40
0.0
 40
0.0
 40
0.0
 40
0.0
 40
0.1331911644239293
 40
0.2578378928429333
 40
0.3824543477114502
 40
0.5101658796244898
 40
0.6378842401296463
 40
0.8180579181728116
 40
1.0
 40
1.0
 40
1.0
 40
1.0
 10
755.5731898386116
 20
1565.444885464382
 30
0.0
 10
755.6964441509125
 20
1565.271938790981
 30
0.0
 10
755.935045805196
 20
1564.93714026259
 30
0.0
 10
756.1878816319827
 20
1564.431149708315
 30
0.0
 10
756.3476392853519
 20
1563.927122482712
 30
0.0
 10
756.3954802230851
 20
1563.415458449853
 30
0.0
 10
756.318376901248
 20
1562.829395556381
 30
0.0
 10
756.0665207359274
 20
1562.175666873057
 30
0.0
 10
755.7381679780815
 20
1561.704618654437
 30
0.0
 10
755.5731898386116
 20
1561.467944355678
 30
0.0
  0
LINE
  5
236
330
1F
100
AcDbEntity
  8
0
  6
Continuous
 62
     7
370
    15
100
AcDbLine
 10
755.5731898386
 20
1544.8381292541
 30
0.0
 11
755.9355562765
 21
1545.400081845
 31
0.0
  0
SPLINE
  5
237
330
1F
100
AcDbEntity
  8
0
  6
Continuous
 62
     7
370
    15
100
AcDbSpline
210
0.0
220
0.0
230
1.0
 70
     8
 71
     3
 72
    13
 73
     9
 74
     0
 42
0.00000001
 43
0.00000001
 12
1.0
 22
0.0
 32
0.0
 13
1.0
 23
0.0
 33
0.0
 40
0.0
 40
0.0
 40
0.0
 40
0.0
 40
0.1323357150997125
 40
0.2646347183487464
 40
0.3998970904775547
 40
0.5351326236525035
 40
0.765436513412146
 40
1.0
 40
1.0
 40
1.0
 40
1.0
 10
755.5731898386116
 20
1551.16450664587
 30
0.0
 10
755.6955602883571
 20
1550.891194049716
 30
0.0
 10
755.9402672405071
 20
1550.344644678296
 30
0.0
 10
756.2034890018731
 20
1549.502988788984
 30
0.0
 10
756.3621171116424
 20
1548.645322439457
 30
0.0
 10
756.4012680823606
 20
1547.572734593646
 30
0.0
 10
756.1940937179763
 20
1546.288110097563
 30
0.0
 10
755.7814182518796
 20
1545.32439970645
 30
0.0
 10
755.5731898386116
 20
1544.838129254055
 30
0.0
  0
SPLINE
  5
238
330
1F
100
AcDbEntity
  8
0
  6
Continuous
 62
     7
370
    15
100
AcDbSpline
210
0.0
220
0.0
230
1.0
 70
     8
 71
     3
 72
     9
 73
     5
 74
     0
 42
0.00000001
 43
0.00000001
 12
1.0
 22
0.0
 32
0.0
 13
1.0
 23
0.0
 33
0.0
 40
0.0
 40
0.0
 40
0.0
 40
0.0
 40
0.9274698245057704
 40
1.0
 40
1.0
 40
1.0
 40
1.0
 10
747.6469045717354
 20
369.9447500426286
 30
0.0
 10
747.5163660559548
 20
369.7724261933286
 30
0.0
 10
747.3756191417896
 20
369.5866262408699
 30
0.0
 10
747.2814166792834
 20
369.3966925825462
 30
0.0
 10
747.2745841581459
 20
369.3829166609757
 30
0.0
  0
SPLINE
  5
239
330
1F
100
AcDbEntity
  8
0
  6
Continuous
 62
     7
370
    15
100
AcDbSpline
210
0.0
220
0.0
230
1.0
 70
     8
 71
     3
 72
    13
 73
     9
 74
     0
 42
0.00000001
 43
0.00000001
 12
1.0
 22
0.0
 32
0.0
 13
1.0
 23
0.0
 33
0.0
 40
0.0
 40
0.0
 40
0.0
 40
0.0
 40
0.1323357390634323
 40
0.2646347662695382
 40
0.3998971628920336
 40
0.5351327205558094
 40
0.7654367910408939
 40
1.0
 40
1.0
 40
1.0
 40
1.0
 10
747.6469045717354
 20
363.6183726508134
 30
0.0
 10
747.5245341375742
 20
363.8916852458282
 30
0.0
 10
747.2798272165885
 20
364.4382346149713
 30
0.0
 10
747.016605219795
 20
365.2798905214846
 30
0.0
 10
746.8579780239174
 20
366.1375568042374
 30
0.0
 10
746.818822808538
 20
367.2101452571428
 30
0.0
 10
747.0260245770166
 20
368.494767365531
 30
0.0
 10
747.4386843034537
 20
369.4584792904748
 30
0.0
 10
747.6469045717354
 20
369.9447500426286
 30
0.0
  0
SPLINE
  5
23A
330
1F
100
AcDbEntity
  8
0
  6
Continuous
 62
     7
370
    15
100
AcDbSpline
210
0.0
220
0.0
230
1.0
 70
     8
 71
     3
 72
    13
 73
     9
 74
     0
 42
0.00000001
 43
0.00000001
 12
1.0
 22
0.0
 32
0.0
 13
1.0
 23
0.0
 33
0.0
 40
0.0
 40
0.0
 40
0.0
 40
0.0
 40
0.1323358026400602
 40
0.2646369398873413
 40
0.3998954332723217
 40
0.5351346191861664
 40
0.7654329600463955
 40
1.0
 40
1.0
 40
1.0
 40
1.0
 10
747.6469045717354
 20
353.314934941005
 30
0.0
 10
747.5245336400402
 20
353.7600817969682
 30
0.0
 10
747.2798238317426
 20
354.6502589025769
 30
0.0
 10
747.0166114400605
 20
356.0209961094999
 30
0.0
 10
746.8579743955406
 20
357.4177960054968
 30
0.0
 10
746.8188221733864
 20
359.1647033596323
 30
0.0
 10
747.0260346058919
 20
361.2568441187158
 30
0.0
 10
747.438684841337
 20
362.8263922663007
 30
0.0
 10
747.6469045717354
 20
363.6183726508134
 30
0.0
  0
SPLINE
  5
23B
330
1F
100
AcDbEntity
  8
0
  6
Continuous
 62
     7
370
    15
100
AcDbSpline
210
0.0
220
0.0
230
1.0
 70
     8
 71
     3
 72
    14
 73
    10
 74
     0
 42
0.00000001
 43
0.00000001
 12
1.0
 22
0.0
 32
0.0
 13
1.0
 23
0.0
 33
0.0
 40
0.0
 40
0.0
 40
0.0
 40
0.0
 40
0.1803127299004884
 40
0.3621171055319634
 40
0.4866227617977438
 40
0.6111286673853858
 40
0.7389508101080602
 40
0.866807605149581
 40
1.0
 40
1.0
 40
1.0
 40
1.0
 10
747.6469045717354
 20
349.3379938323014
 30
0.0
 10
747.4833099964742
 20
349.5725322374197
 30
0.0
 10
747.1547675019592
 20
350.0435492778936
 30
0.0
 10
746.9036957826982
 20
350.6930857092415
 30
0.0
 10
746.8257972615576
 20
351.2724596623747
 30
0.0
 10
746.8689293356791
 20
351.7799780092507
 30
0.0
 10
747.0261925627584
 20
352.288408125942
 30
0.0
 10
747.2821027373242
 20
352.8030284807534
 30
0.0
 10
747.5236582378844
 20
353.141990102056
 30
0.0
 10
747.6469045717354
 20
353.314934941005
 30
0.0
  0
LINE
  5
23C
330
1F
100
AcDbEntity
  8
0
  6
Continuous
 62
     7
370
    15
100
AcDbLine
 10
746.410048588
 20
351.3913738448
 30
0.0
 11
746.410048588
 21
367.8913700301
 31
0.0
  0
LINE
  5
23D
330
1F
100
AcDbEntity
  8
0
  6
Continuous
 62
     7
370
    15
100
AcDbLine
 10
747.6469045717
 20
363.6183726508
 30
0.0
 11
755.5731898386
 21
363.6183726508
 31
0.0
  0
SPLINE
  5
23E
330
1F
100
AcDbEntity
  8
0
  6
Continuous
 62
     7
370
    15
100
AcDbSpline
210
0.0
220
0.0
230
1.0
 70
     8
 71
     3
 72
    13
 73
     9
 74
     0
 42
0.00000001
 43
0.00000001
 12
1.0
 22
0.0
 32
0.0
 13
1.0
 23
0.0
 33
0.0
 40
0.0
 40
0.0
 40
0.0
 40
0.0
 40
0.1323412111298868
 40
0.2646423321714919
 40
0.3999008089885474
 40
0.5351343765452753
 40
0.7654381261754172
 40
1.0
 40
1.0
 40
1.0
 40
1.0
 10
755.5731898386116
 20
363.6183726508134
 30
0.0
 10
755.6955598737769
 20
363.1732055816285
 30
0.0
 10
755.9402628745851
 20
362.2830062976017
 30
0.0
 10
756.2034837743118
 20
360.9122523831413
 30
0.0
 10
756.3621188602018
 20
359.5154707869558
 30
0.0
 10
756.4012668645462
 20
357.7685674140835
 30
0.0
 10
756.1940955015698
 20
355.6764368284285
 30
0.0
 10
755.7814184203278
 20
354.1068945221037
 30
0.0
 10
755.5731898386116
 20
353.314934941005
 30
0.0
  0
LINE
  5
23F
330
1F
100
AcDbEntity
  8
0
  6
Continuous
 62
     7
370
    15
100
AcDbLine
 10
747.6469045717
 20
353.314934941
 30
0.0
 11
755.5731898386
 21
353.314934941
 31
0.0
  0
SPLINE
  5
240
330
1F
100
AcDbEntity
  8
0
  6
Continuous
 62
     7
370
    15
100
AcDbSpline
210
0.0
220
0.0
230
1.0
 70
     8
 71
     3
 72
    14
 73
    10
 74
     0
 42
0.00000001
 43
0.00000001
 12
1.0
 22
0.0
 32
0.0
 13
1.0
 23
0.0
 33
0.0
 40
0.0
 40
0.0
 40
0.0
 40
0.0
 40
0.1331924338848018
 40
0.2578391677893253
 40
0.3824530361111874
 40
0.5101671822453216
 40
0.6378820849833808
 40
0.8180579101658076
 40
1.0
 40
1.0
 40
1.0
 40
1.0
 10
755.5731898386116
 20
353.314934941005
 30
0.0
 10
755.696444010652
 20
353.1419884109387
 30
0.0
 10
755.9350442991109
 20
352.8071916955118
 30
0.0
 10
756.1878792488618
 20
352.3012057634557
 30
0.0
 10
756.3476418900744
 20
351.7971623465899
 30
0.0
 10
756.3954804759813
 20
351.2855021077499
 30
0.0
 10
756.3183736204016
 20
350.6995319565449
 30
0.0
 10
756.0665236550436
 20
350.0456944417959
 30
0.0
 10
755.7381683055955
 20
349.5746598741358
 30
0.0
 10
755.5731898386116
 20
349.3379938323014
 30
0.0
  0
SPLINE
  5
241
330
1F
100
AcDbEntity
  8
0
  6
Continuous
 62
     7
370
    15
100
AcDbSpline
210
0.0
220
0.0
230
1.0
 70
     8
 71
     3
 72
    13
 73
     9
 74
     0
 42
0.00000001
 43
0.00000001
 12
1.0
 22
0.0
 32
0.0
 13
1.0
 23
0.0
 33
0.0
 40
0.0
 40
0.0
 40
0.0
 40
0.0
 40
0.1323368012048634
 40
0.2646358053187239
 40
0.39989817833173
 40
0.5351337123907011
 40
0.7654376036558193
 40
1.0
 40
1.0
 40
1.0
 40
1.0
 10
755.5731898386116
 20
369.9447500426286
 30
0.0
 10
755.695560103714
 20
369.6714380601429
 30
0.0
 10
755.9402656833985
 20
369.1248921565856
 30
0.0
 10
756.2034892267039
 20
368.2832316794737
 30
0.0
 10
756.3621170761638
 20
367.4255660217169
 30
0.0
 10
756.4012679860546
 20
366.3529776621728
 30
0.0
 10
756.1940949423298
 20
365.0683576548379
 30
0.0
 10
755.7814183433495
 20
364.1046437532289
 30
0.0
 10
755.5731898386116
 20
363.6183726508134
 30
0.0
  0
SPLINE
  5
242
330
1F
100
AcDbEntity
  8
0
  6
Continuous
 62
     7
370
    15
100
AcDbSpline
210
0.0
220
0.0
230
1.0
 70
     8
 71
     3
 72
     9
 73
     5
 74
     0
 42
0.00000001
 43
0.00000001
 12
1.0
 22
0.0
 32
0.0
 13
1.0
 23
0.0
 33
0.0
 40
0.0
 40
0.0
 40
0.0
 40
0.0
 40
0.0725061480262325
 40
1.0
 40
1.0
 40
1.0
 40
1.0
 10
755.9454208452339
 20
369.3829762656205
 30
0.0
 10
755.9386190611361
 20
369.396731771988
 30
0.0
 10
755.844809304545
 20
369.5864468063926
 30
0.0
 10
755.7038908442057
 20
369.7723375348477
 30
0.0
 10
755.5731898386116
 20
369.9447500426285
 30
0.0
  0
LINE
  5
243
330
1F
100
AcDbEntity
  8
0
  6
Continuous
 62
     7
370
    15
100
AcDbLine
 10
747.6469045717
 20
1544.8381292541
 30
0.0
 11
755.5731898386
 21
1544.8381292541
 31
0.0
  0
LINE
  5
244
330
1F
100
AcDbEntity
  8
0
  6
Continuous
 62
     7
370
    15
100
AcDbLine
 10
747.6469045717
 20
369.9447500426
 30
0.0
 11
755.5731898386
 21
369.9447500426
 31
0.0
  0
LINE
  5
245
330
1F
100
AcDbEntity
  8
0
  6
Continuous
 62
     7
370
    15
100
AcDbLine
 10
747.6469045717
 20
1565.4448854644
 30
0.0
 11
755.5731898386
 21
1565.4448854644
 31
0.0
  0
LINE
  5
246
330
1F
100
AcDbEntity
  8
0
  6
Continuous
 62
     7
370
    15
100
AcDbLine
 10
747.6469045717
 20
349.3379938323
 30
0.0
 11
755.5731898386
 21
349.3379938323
 31
0.0
  0
LINE
  5
247
330
1F
100
AcDbEntity
  8
0
  6
Continuous
 62
     7
370
    15
100
AcDbLine
 10
711.3100504715
 20
1549.1415250022
 30
0.0
 11
711.3100504715
 21
1561.1414897162
 31
0.0
  0
LINE
  5
248
330
1F
100
AcDbEntity
  8
0
  6
Continuous
 62
     7
370
    15
100
AcDbLine
 10
711.3100504715
 20
353.6413895804
 30
0.0
 11
711.3100504715
 21
365.6413542945
 31
0.0
  0
LINE
  5
249
330
1F
100
AcDbEntity
  8
0
  6
Continuous
 62
     7
370
    15
100
AcDbLine
 10
756.8100458223
 20
1592.3914301116
 30
0.0
 11
756.8100458223
 21
1616.3914191443
 31
0.0
  0
LINE
  5
24A
330
1F
100
AcDbEntity
  8
0
  6
Continuous
 62
     7
370
    15
100
AcDbLine
 10
756.8100458223
 20
310.3914248664
 30
0.0
 11
756.8100458223
 21
322.3914491851
 31
0.0
  0
LINE
  5
24B
330
1F
100
AcDbEntity
  8
0
  6
Continuous
 62
     7
370
    15
100
AcDbLine
 10
756.8100458223
 20
298.3914601523
 30
0.0
 11
756.8100458223
 21
310.3914248664
 31
0.0
  0
SPLINE
  5
24C
330
1F
100
AcDbEntity
  8
0
  6
Continuous
 62
     7
370
    15
100
AcDbSpline
210
0.0
220
0.0
230
1.0
 70
    24
 71
     3
 72
    11
 73
     7
 74
     0
 42
0.00000001
 43
0.00000001
 12
1.0
 22
0.0
 32
0.0
 13
1.0
 23
0.0
 33
0.0
 40
0.0
 40
0.0
 40
0.0
 40
0.0
 40
0.02017512072314
 40
0.2756491538956259
 40
0.6360580656082087
 40
1.0
 40
1.0
 40
1.0
 40
1.0
 10
746.8477552969093
 20
1595.391451092433
 30
0.0
 10
746.846389537691
 20
1595.391451092433
 30
0.0
 10
746.8277294078148
 20
1595.391451092434
 30
0.0
 10
746.9128102733284
 20
1595.391451092433
 30
0.0
 10
747.1504026036334
 20
1595.391451092433
 30
0.0
 10
747.480866636045
 20
1595.391451092433
 30
0.0
 10
747.6469045717354
 20
1595.391451092433
 30
0.0
  0
SPLINE
  5
24D
330
1F
100
AcDbEntity
  8
0
  6
Continuous
 62
     7
370
    15
100
AcDbSpline
210
0.0
220
0.0
230
1.0
 70
    24
 71
     3
 72
    11
 73
     7
 74
     0
 42
0.00000001
 43
0.00000001
 12
1.0
 22
0.0
 32
0.0
 13
1.0
 23
0.0
 33
0.0
 40
0.0
 40
0.0
 40
0.0
 40
0.0
 40
0.3606787494559272
 40
0.7243419181648965
 40
0.9733953370735228
 40
1.0
 40
1.0
 40
1.0
 40
1.0
 10
747.6469045717354
 20
1613.391457768154
 30
0.0
 10
747.482321450368
 20
1613.391457768154
 30
0.0
 10
747.1517933723799
 20
1613.391457768154
 30
0.0
 10
746.9141258924212
 20
1613.391457768153
 30
0.0
 10
746.8295676790686
 20
1613.391457768154
 30
0.0
 10
746.8470513657699
 20
1613.391457768154
 30
0.0
 10
746.8487387735481
 20
1613.391457768154
 30
0.0
  0
SPLINE
  5
24E
330
1F
100
AcDbEntity
  8
0
  6
Continuous
 62
     7
370
    15
100
AcDbSpline
210
0.0
220
0.0
230
1.0
 70
     8
 71
     3
 72
    13
 73
     9
 74
     0
 42
0.00000001
 43
0.00000001
 12
1.0
 22
0.0
 32
0.0
 13
1.0
 23
0.0
 33
0.0
 40
0.0
 40
0.0
 40
0.0
 40
0.0
 40
0.1323377785889752
 40
0.2646389082236114
 40
0.3998958803951741
 40
0.5351320970075744
 40
0.7654372002074727
 40
1.0
 40
1.0
 40
1.0
 40
1.0
 10
747.6469045717354
 20
1604.391454430294
 30
0.0
 10
747.5245339250001
 20
1604.780293937232
 30
0.0
 10
747.2798265202372
 20
1605.557865267866
 30
0.0
 10
747.0166126610333
 20
1606.755208268655
 30
0.0
 10
746.8579741731296
 20
1607.97527538704
 30
0.0
 10
746.8188245787082
 20
1609.501203839825
 30
0.0
 10
747.0260224269542
 20
1611.328684178645
 30
0.0
 10
747.4386840094393
 20
1612.699680946566
 30
0.0
 10
747.6469045717354
 20
1613.391457768154
 30
0.0
  0
SPLINE
  5
24F
330
1F
100
AcDbEntity
  8
0
  6
Continuous
 62
     7
370
    15
100
AcDbSpline
210
0.0
220
0.0
230
1.0
 70
     8
 71
     3
 72
    13
 73
     9
 74
     0
 42
0.00000001
 43
0.00000001
 12
1.0
 22
0.0
 32
0.0
 13
1.0
 23
0.0
 33
0.0
 40
0.0
 40
0.0
 40
0.0
 40
0.0
 40
0.1323377785990579
 40
0.264638951613517
 40
0.3998959018518329
 40
0.5351321184745368
 40
0.7654372216919818
 40
1.0
 40
1.0
 40
1.0
 40
1.0
 10
747.6469045717354
 20
1595.391451092433
 30
0.0
 10
747.5245339158529
 20
1595.780290649336
 30
0.0
 10
747.2798264526948
 20
1596.557862207313
 30
0.0
 10
747.0166127350333
 20
1597.755204521149
 30
0.0
 10
746.8579741503285
 20
1598.975272223778
 30
0.0
 10
746.8188245911041
 20
1600.501200456732
 30
0.0
 10
747.0260223996034
 20
1602.328680740998
 30
0.0
 10
747.4386840065519
 20
1603.699677596122
 30
0.0
 10
747.6469045717354
 20
1604.391454430294
 30
0.0
  0
LINE
  5
250
330
1F
100
AcDbEntity
  8
0
  6
Continuous
 62
     7
370
    15
100
AcDbLine
 10
746.410048588
 20
1596.1414563376
 30
0.0
 11
746.410048588
 21
1612.6414525229
 31
0.0
  0
LINE
  5
251
330
1F
100
AcDbEntity
  8
0
  6
Continuous
 62
     7
370
    15
100
AcDbLine
 10
747.6469045717
 20
1604.3914544303
 30
0.0
 11
755.5731898386
 21
1604.3914544303
 31
0.0
  0
SPLINE
  5
252
330
1F
100
AcDbEntity
  8
0
  6
Continuous
 62
     7
370
    15
100
AcDbSpline
210
0.0
220
0.0
230
1.0
 70
     8
 71
     3
 72
    13
 73
     9
 74
     0
 42
0.00000001
 43
0.00000001
 12
1.0
 22
0.0
 32
0.0
 13
1.0
 23
0.0
 33
0.0
 40
0.0
 40
0.0
 40
0.0
 40
0.0
 40
0.1323377553936105
 40
0.2646388618393057
 40
0.399900675131631
 40
0.535136868040646
 40
0.7654369212178541
 40
0.9999999999999999
 40
0.9999999999999999
 40
0.9999999999999999
 40
0.9999999999999999
 10
755.5731898386116
 20
1604.391454430294
 30
0.0
 10
755.6955603643329
 20
1604.002614488379
 30
0.0
 10
755.9402675271018
 20
1603.225042287915
 30
0.0
 10
756.2034864164701
 20
1602.027691292157
 30
0.0
 10
756.3621177879343
 20
1600.807583675658
 30
0.0
 10
756.4012686222532
 20
1599.281660625797
 30
0.0
 10
756.1940900320136
 20
1597.454212451932
 30
0.0
 10
755.7814180387336
 20
1596.083229078225
 30
0.0
 10
755.5731898386116
 20
1595.391451092433
 30
0.0
  0
LINE
  5
253
330
1F
100
AcDbEntity
  8
0
  6
Continuous
 62
     7
370
    15
100
AcDbLine
 10
747.6469045717
 20
1595.3914510924
 30
0.0
 11
755.5731898386
 21
1595.3914510924
 31
0.0
  0
LINE
  5
254
330
1F
100
AcDbEntity
  8
0
  6
Continuous
 62
     7
370
    15
100
AcDbLine
 10
747.6469045717
 20
1613.3914577682
 30
0.0
 11
755.5731898386
 21
1613.3914577682
 31
0.0
  0
SPLINE
  5
255
330
1F
100
AcDbEntity
  8
0
  6
Continuous
 62
     7
370
    15
100
AcDbSpline
210
0.0
220
0.0
230
1.0
 70
     8
 71
     3
 72
    13
 73
     9
 74
     0
 42
0.00000001
 43
0.00000001
 12
1.0
 22
0.0
 32
0.0
 13
1.0
 23
0.0
 33
0.0
 40
0.0
 40
0.0
 40
0.0
 40
0.0
 40
0.1323377554035849
 40
0.264638905228987
 40
0.3999006965887483
 40
0.535136889507956
 40
0.7654369427025219
 40
1.0
 40
1.0
 40
1.0
 40
1.0
 10
755.5731898386116
 20
1613.391457768154
 30
0.0
 10
755.6955603734799
 20
1613.002617776276
 30
0.0
 10
755.9402675946438
 20
1612.225045348469
 30
0.0
 10
756.2034863424707
 20
1611.027695039664
 30
0.0
 10
756.3621178107345
 20
1609.807586838926
 30
0.0
 10
756.4012686098582
 20
1608.281664008886
 30
0.0
 10
756.194090059364
 20
1606.454215889577
 30
0.0
 10
755.7814180416207
 20
1605.083232428669
 30
0.0
 10
755.5731898386116
 20
1604.391454430294
 30
0.0
  0
SPLINE
  5
256
330
1F
100
AcDbEntity
  8
0
  6
Continuous
 62
     7
370
    15
100
AcDbSpline
210
0.0
220
0.0
230
1.0
 70
    24
 71
     3
 72
    11
 73
     7
 74
     0
 42
0.00000001
 43
0.00000001
 12
1.0
 22
0.0
 32
0.0
 13
1.0
 23
0.0
 33
0.0
 40
0.0
 40
0.0
 40
0.0
 40
0.0
 40
0.0201751154134992
 40
0.2756490813509309
 40
0.6360574855188936
 40
1.0
 40
1.0
 40
1.0
 40
1.0
 10
756.3723391134376
 20
1613.391457768154
 30
0.0
 10
756.3737048763314
 20
1613.391457768154
 30
0.0
 10
756.3923650564255
 20
1613.391457768153
 30
0.0
 10
756.3072796123342
 20
1613.391457768154
 30
0.0
 10
756.069715428738
 20
1613.391457768153
 30
0.0
 10
755.7392358389583
 20
1613.391457768153
 30
0.0
 10
755.5731898386116
 20
1613.391457768154
 30
0.0
  0
SPLINE
  5
257
330
1F
100
AcDbEntity
  8
0
  6
Continuous
 62
     7
370
    15
100
AcDbSpline
210
0.0
220
0.0
230
1.0
 70
    24
 71
     3
 72
    11
 73
     7
 74
     0
 42
0.00000001
 43
0.00000001
 12
1.0
 22
0.0
 32
0.0
 13
1.0
 23
0.0
 33
0.0
 40
0.0
 40
0.0
 40
0.0
 40
0.0
 40
0.3606786649651705
 40
0.7243417484842685
 40
0.9733952513179416
 40
1.0
 40
1.0
 40
1.0
 40
1.0
 10
755.5731898386116
 20
1595.391451092433
 30
0.0
 10
755.7377765760563
 20
1595.391451092433
 30
0.0
 10
756.0683119161197
 20
1595.391451092433
 30
0.0
 10
756.305930393434
 20
1595.391451092433
 30
0.0
 10
756.390586541768
 20
1595.391451092433
 30
0.0
 10
756.3730483130222
 20
1595.391451092433
 30
0.0
 10
756.3713556367989
 20
1595.391451092433
 30
0.0
  0
SPLINE
  5
258
330
1F
100
AcDbEntity
  8
0
  6
Continuous
 62
     7
370
    15
100
AcDbSpline
210
0.0
220
0.0
230
1.0
 70
    24
 71
     3
 72
    11
 73
     7
 74
     0
 42
0.00000001
 43
0.00000001
 12
1.0
 22
0.0
 32
0.0
 13
1.0
 23
0.0
 33
0.0
 40
0.0
 40
0.0
 40
0.0
 40
0.0
 40
0.2663399439722628
 40
0.5155915349370194
 40
0.7647818937212292
 40
1.0
 40
1.0
 40
1.0
 40
1.0
 10
747.6469045717354
 20
319.3914282042497
 30
0.0
 10
747.523500459924
 20
319.3914282042498
 30
0.0
 10
747.284609835869
 20
319.3914282042498
 30
0.0
 10
747.0338431776617
 20
319.3914282042496
 30
0.0
 10
746.8708352508213
 20
319.39142820425
 30
0.0
 10
746.8552992415999
 20
319.3914282042497
 30
0.0
 10
746.8477552969093
 20
319.3914282042496
 30
0.0
  0
SPLINE
  5
259
330
1F
100
AcDbEntity
  8
0
  6
Continuous
 62
     7
370
    15
100
AcDbSpline
210
0.0
220
0.0
230
1.0
 70
     8
 71
     3
 72
    13
 73
     9
 74
     0
 42
0.00000001
 43
0.00000001
 12
1.0
 22
0.0
 32
0.0
 13
1.0
 23
0.0
 33
0.0
 40
0.0
 40
0.0
 40
0.0
 40
0.0
 40
0.1323377793572956
 40
0.2646389097600395
 40
0.3999007475455375
 40
0.5351369649430858
 40
0.7654371988456592
 40
1.0
 40
1.0
 40
1.0
 40
1.0
 10
747.6469045717354
 20
310.3914248663896
 30
0.0
 10
747.5245340615991
 20
310.7802648066842
 30
0.0
 10
747.2798269299959
 20
311.557837003909
 30
0.0
 10
747.0166078051908
 20
312.7551880241385
 30
0.0
 10
746.8579773476393
 20
313.9752955456428
 30
0.0
 10
746.8188222685826
 20
315.5012194591831
 30
0.0
 10
747.0260282629906
 20
317.3286642363004
 30
0.0
 10
747.4386845166421
 20
318.6996497920259
 30
0.0
 10
747.6469045717354
 20
319.3914282042497
 30
0.0
  0
SPLINE
  5
25A
330
1F
100
AcDbEntity
  8
0
  6
Continuous
 62
     7
370
    15
100
AcDbSpline
210
0.0
220
0.0
230
1.0
 70
     8
 71
     3
 72
    13
 73
     9
 74
     0
 42
0.00000001
 43
0.00000001
 12
1.0
 22
0.0
 32
0.0
 13
1.0
 23
0.0
 33
0.0
 40
0.0
 40
0.0
 40
0.0
 40
0.0
 40
0.1323377793672738
 40
0.2646389531497364
 40
0.3999007690026704
 40
0.5351369864104155
 40
0.7654372203303534
 40
0.9999999999999999
 40
0.9999999999999999
 40
0.9999999999999999
 40
0.9999999999999999
 10
747.6469045717354
 20
301.3914215285295
 30
0.0
 10
747.524534052452
 20
301.7802615187873
 30
0.0
 10
747.2798268624539
 20
302.5578339433548
 30
0.0
 10
747.0166078791902
 20
303.7551842766308
 30
0.0
 10
746.8579773248389
 20
304.9752923823758
 30
0.0
 10
746.8188222809775
 20
306.5012160760942
 30
0.0
 10
747.0260282356402
 20
308.3286607986544
 30
0.0
 10
747.4386845137548
 20
309.6996464415821
 30
0.0
 10
747.6469045717354
 20
310.3914248663896
 30
0.0
  0
SPLINE
  5
25B
330
1F
100
AcDbEntity
  8
0
  6
Continuous
 62
     7
370
    15
100
AcDbSpline
210
0.0
220
0.0
230
1.0
 70
    24
 71
     3
 72
    11
 73
     7
 74
     0
 42
0.00000001
 43
0.00000001
 12
1.0
 22
0.0
 32
0.0
 13
1.0
 23
0.0
 33
0.0
 40
0.0
 40
0.0
 40
0.0
 40
0.0
 40
0.2223759218894734
 40
0.4779828510465135
 40
0.7336574704730662
 40
1.0
 40
1.0
 40
1.0
 40
1.0
 10
746.8487387735481
 20
301.3914215285295
 30
0.0
 10
746.8549188339621
 20
301.3914215285294
 30
0.0
 10
746.868202479382
 20
301.3914215285293
 30
0.0
 10
747.0279476093765
 20
301.3914215285296
 30
0.0
 10
747.281641241291
 20
301.3914215285294
 30
0.0
 10
747.5235025738535
 20
301.3914215285295
 30
0.0
 10
747.6469045717354
 20
301.3914215285295
 30
0.0
  0
LINE
  5
25C
330
1F
100
AcDbEntity
  8
0
  6
Continuous
 62
     7
370
    15
100
AcDbLine
 10
746.410048588
 20
302.1414267737
 30
0.0
 11
746.410048588
 21
318.641422959
 31
0.0
  0
LINE
  5
25D
330
1F
100
AcDbEntity
  8
0
  6
Continuous
 62
     7
370
    15
100
AcDbLine
 10
747.6469045717
 20
310.3914248664
 30
0.0
 11
755.5731898386
 21
310.3914248664
 31
0.0
  0
SPLINE
  5
25E
330
1F
100
AcDbEntity
  8
0
  6
Continuous
 62
     7
370
    15
100
AcDbSpline
210
0.0
220
0.0
230
1.0
 70
     8
 71
     3
 72
    13
 73
     9
 74
     0
 42
0.00000001
 43
0.00000001
 12
1.0
 22
0.0
 32
0.0
 13
1.0
 23
0.0
 33
0.0
 40
0.0
 40
0.0
 40
0.0
 40
0.0
 40
0.1323377546249013
 40
0.2646388603021
 40
0.3998958079809735
 40
0.5351320001044431
 40
0.7654369225803587
 40
0.9999999999999999
 40
0.9999999999999999
 40
0.9999999999999999
 40
0.9999999999999999
 10
755.5731898386116
 20
310.3914248663896
 30
0.0
 10
755.6955605009315
 20
310.0025853578306
 30
0.0
 10
755.9402679368594
 20
309.2250140239576
 30
0.0
 10
756.2034815606356
 20
308.0276710476397
 30
0.0
 10
756.3621209623957
 20
306.8076038342668
 30
0.0
 10
756.4012663121745
 20
305.2816762451416
 30
0.0
 10
756.1940958680328
 20
303.4541925095859
 30
0.0
 10
755.7814185458753
 20
302.0831979236902
 30
0.0
 10
755.5731898386116
 20
301.3914215285295
 30
0.0
  0
LINE
  5
25F
330
1F
100
AcDbEntity
  8
0
  6
Continuous
 62
     7
370
    15
100
AcDbLine
 10
747.6469045717
 20
301.3914215285
 30
0.0
 11
755.5731898386
 21
301.3914215285
 31
0.0
  0
LINE
  5
260
330
1F
100
AcDbEntity
  8
0
  6
Continuous
 62
     7
370
    15
100
AcDbLine
 10
747.6469045717
 20
319.3914282042
 30
0.0
 11
755.5731898386
 21
319.3914282042
 31
0.0
  0
SPLINE
  5
261
330
1F
100
AcDbEntity
  8
0
  6
Continuous
 62
     7
370
    15
100
AcDbSpline
210
0.0
220
0.0
230
1.0
 70
     8
 71
     3
 72
    13
 73
     9
 74
     0
 42
0.00000001
 43
0.00000001
 12
1.0
 22
0.0
 32
0.0
 13
1.0
 23
0.0
 33
0.0
 40
0.0
 40
0.0
 40
0.0
 40
0.0
 40
0.1323377546349801
 40
0.26463890369199
 40
0.3998958294376168
 40
0.535132021571386
 40
0.7654369440648414
 40
1.0
 40
1.0
 40
1.0
 40
1.0
 10
755.5731898386116
 20
319.3914282042497
 30
0.0
 10
755.6955605100786
 20
319.0025886457273
 30
0.0
 10
755.9402680044018
 20
318.2250170845102
 30
0.0
 10
756.2034814866355
 20
317.0276747951461
 30
0.0
 10
756.3621209851968
 20
315.807606997528
 30
0.0
 10
756.4012662997786
 20
314.281679628234
 30
0.0
 10
756.1940958953836
 20
312.4541959472328
 30
0.0
 10
755.7814185487624
 20
311.0832012741339
 30
0.0
 10
755.5731898386116
 20
310.3914248663895
 30
0.0
  0
SPLINE
  5
262
330
1F
100
AcDbEntity
  8
0
  6
Continuous
 62
     7
370
    15
100
AcDbSpline
210
0.0
220
0.0
230
1.0
 70
    24
 71
     3
 72
    11
 73
     7
 74
     0
 42
0.00000001
 43
0.00000001
 12
1.0
 22
0.0
 32
0.0
 13
1.0
 23
0.0
 33
0.0
 40
0.0
 40
0.0
 40
0.0
 40
0.0
 40
0.2663398905230034
 40
0.5155919650055006
 40
0.7647819409249396
 40
1.0
 40
1.0
 40
1.0
 40
1.0
 10
755.5731898386116
 20
301.3914215285295
 30
0.0
 10
755.6965916654568
 20
301.3914215285295
 30
0.0
 10
755.9354781133843
 20
301.3914215285296
 30
0.0
 10
756.1862762731929
 20
301.3914215285294
 30
0.0
 10
756.3492533329713
 20
301.3914215285295
 30
0.0
 10
756.3647932607813
 20
301.3914215285296
 30
0.0
 10
756.3723391134376
 20
301.3914215285295
 30
0.0
  0
SPLINE
  5
263
330
1F
100
AcDbEntity
  8
0
  6
Continuous
 62
     7
370
    15
100
AcDbSpline
210
0.0
220
0.0
230
1.0
 70
    24
 71
     3
 72
    11
 73
     7
 74
     0
 42
0.00000001
 43
0.00000001
 12
1.0
 22
0.0
 32
0.0
 13
1.0
 23
0.0
 33
0.0
 40
0.0
 40
0.0
 40
0.0
 40
0.0
 40
0.2223757322941837
 40
0.4779825492185676
 40
0.7336575874195422
 40
1.0
 40
1.0
 40
1.0
 40
1.0
 10
756.3713556367989
 20
319.3914282042497
 30
0.0
 10
756.3651814374097
 20
319.3914282042497
 30
0.0
 10
756.3519103869537
 20
319.3914282042497
 30
0.0
 10
756.1921653825981
 20
319.3914282042496
 30
0.0
 10
755.9384486238845
 20
319.3914282042498
 30
0.0
 10
755.6965902178126
 20
319.3914282042498
 30
0.0
 10
755.5731898386116
 20
319.3914282042497
 30
0.0
  0
LINE
  5
264
330
1F
100
AcDbEntity
  8
0
  6
Continuous
 62
     7
370
    15
100
AcDbLine
 10
711.3100504715
 20
1598.3914124686
 30
0.0
 11
711.3100504715
 21
1610.3914367873
 31
0.0
  0
LINE
  5
265
330
1F
100
AcDbEntity
  8
0
  6
Continuous
 62
     7
370
    15
100
AcDbLine
 10
711.3100504715
 20
304.3914425094
 30
0.0
 11
711.3100504715
 21
316.3914668281
 31
0.0
  0
LINE
  5
266
330
1F
100
AcDbEntity
  8
0
  6
Continuous
 62
     7
370
     0
100
AcDbLine
 10
762.5610595781
 20
957.3914396483
 30
0.0
 11
762.5610595781
 21
1618.3914529998
 31
0.0
  0
LINE
  5
267
330
1F
100
AcDbEntity
  8
0
  6
Continuous
 62
     7
370
     0
100
AcDbLine
 10
762.5610595781
 20
296.3914262969
 30
0.0
 11
762.5610595781
 21
957.3914396483
 31
0.0
  0
LINE
  5
268
330
1F
100
AcDbEntity
  8
0
  6
Continuous
 62
     7
370
     0
100
AcDbLine
 10
765.5496364672
 20
957.3914396483
 30
0.0
 11
765.5496364672
 21
1615.6529175956
 31
0.0
  0
LINE
  5
269
330
1F
100
AcDbEntity
  8
0
  6
Continuous
 62
     7
370
     0
100
AcDbLine
 10
765.5496364672
 20
299.1299617011
 30
0.0
 11
765.5496364672
 21
957.3914396483
 31
0.0
  0
LINE
  5
26A
330
1F
100
AcDbEntity
  8
0
  6
Continuous
 62
     7
370
     0
100
AcDbLine
 10
766.9719075997
 20
1561.1414897162
 30
0.0
 11
766.9719075997
 21
1599.387704106
 31
0.0
  0
LINE
  5
26B
330
1F
100
AcDbEntity
  8
0
  6
Continuous
 62
     7
370
     0
100
AcDbLine
 10
766.9719075997
 20
1420.8895253856
 30
0.0
 11
766.9719075997
 21
1549.2516147811
 31
0.0
  0
LINE
  5
26C
330
1F
100
AcDbEntity
  8
0
  6
Continuous
 62
     7
370
     0
100
AcDbLine
 10
766.9719075997
 20
1210.9876262862
 30
0.0
 11
766.9719075997
 21
1408.8895308692
 31
0.0
  0
LINE
  5
26D
330
1F
100
AcDbEntity
  8
0
  6
Continuous
 62
     7
370
     0
100
AcDbLine
 10
766.9719075997
 20
963.3914397005
 30
0.0
 11
766.9719075997
 21
1198.9876168687
 31
0.0
  0
LINE
  5
26E
330
1F
100
AcDbEntity
  8
0
  6
Continuous
 62
     7
370
     0
100
AcDbLine
 10
766.9719075997
 20
715.795262428
 30
0.0
 11
766.9719075997
 21
951.3914395962
 31
0.0
  0
LINE
  5
26F
330
1F
100
AcDbEntity
  8
0
  6
Continuous
 62
     7
370
     0
100
AcDbLine
 10
766.9719075997
 20
505.8933484275
 30
0.0
 11
766.9719075997
 21
703.7952530105
 31
0.0
  0
LINE
  5
270
330
1F
100
AcDbEntity
  8
0
  6
Continuous
 62
     7
370
     0
100
AcDbLine
 10
766.9719075997
 20
365.5312645156
 30
0.0
 11
766.9719075997
 21
493.8933539111
 31
0.0
  0
LINE
  5
271
330
1F
100
AcDbEntity
  8
0
  6
Continuous
 62
     7
370
     0
100
AcDbLine
 10
766.9719075997
 20
315.3951751906
 30
0.0
 11
766.9719075997
 21
353.6413895804
 31
0.0
  0
LINE
  5
272
330
1F
100
AcDbEntity
  8
0
  6
Continuous
 62
     7
370
     0
100
AcDbLine
 10
771.6912096579
 20
963.3914397005
 30
0.0
 11
771.6912096579
 21
1198.9876168687
 31
0.0
  0
LINE
  5
273
330
1F
100
AcDbEntity
  8
0
  6
Continuous
 62
     7
370
     0
100
AcDbLine
 10
771.6912096579
 20
1210.9876262862
 30
0.0
 11
771.6912096579
 21
1408.8895308692
 31
0.0
  0
LINE
  5
274
330
1F
100
AcDbEntity
  8
0
  6
Continuous
 62
     7
370
     0
100
AcDbLine
 10
771.6912096579
 20
1420.8895253856
 30
0.0
 11
771.6912096579
 21
1549.1415250022
 31
0.0
  0
LINE
  5
275
330
1F
100
AcDbEntity
  8
0
  6
Continuous
 62
     7
370
     0
100
AcDbLine
 10
771.6912096579
 20
1561.1414897162
 30
0.0
 11
771.6912096579
 21
1594.8388564307
 31
0.0
  0
LINE
  5
276
330
1F
100
AcDbEntity
  8
0
  6
Continuous
 62
     7
370
     0
100
AcDbLine
 10
771.6912096579
 20
319.944022866
 30
0.0
 11
771.6912096579
 21
353.6413895804
 31
0.0
  0
LINE
  5
277
330
1F
100
AcDbEntity
  8
0
  6
Continuous
 62
     7
370
     0
100
AcDbLine
 10
771.6912096579
 20
365.6413542945
 30
0.0
 11
771.6912096579
 21
493.8933539111
 31
0.0
  0
LINE
  5
278
330
1F
100
AcDbEntity
  8
0
  6
Continuous
 62
     7
370
     0
100
AcDbLine
 10
771.6912096579
 20
505.8933484275
 30
0.0
 11
771.6912096579
 21
703.7952530105
 31
0.0
  0
LINE
  5
279
330
1F
100
AcDbEntity
  8
0
  6
Continuous
 62
     7
370
     0
100
AcDbLine
 10
771.6912096579
 20
715.795262428
 30
0.0
 11
771.6912096579
 21
951.3914395962
 31
0.0
  0
LINE
  5
27A
330
1F
100
AcDbEntity
  8
0
  6
Continuous
 62
     7
370
     0
100
AcDbLine
 10
796.9408920247
 20
963.3914397005
 30
0.0
 11
796.9408920247
 21
1198.9876168687
 31
0.0
  0
LINE
  5
27B
330
1F
100
AcDbEntity
  8
0
  6
Continuous
 62
     7
370
     0
100
AcDbLine
 10
796.9408920247
 20
1210.9876262862
 30
0.0
 11
796.9408920247
 21
1408.8895308692
 31
0.0
  0
LINE
  5
27C
330
1F
100
AcDbEntity
  8
0
  6
Continuous
 62
     7
370
     0
100
AcDbLine
 10
796.9408920247
 20
1420.8895253856
 30
0.0
 11
796.9408920247
 21
1549.1415250022
 31
0.0
  0
LINE
  5
27D
330
1F
100
AcDbEntity
  8
0
  6
Continuous
 62
     7
370
     0
100
AcDbLine
 10
796.9408920247
 20
1561.1414897162
 30
0.0
 11
796.9408920247
 21
1593.5155737121
 31
0.0
  0
LINE
  5
27E
330
1F
100
AcDbEntity
  8
0
  6
Continuous
 62
     7
370
     0
100
AcDbLine
 10
796.9408920247
 20
321.2673055846
 30
0.0
 11
796.9408920247
 21
353.6413895804
 31
0.0
  0
LINE
  5
27F
330
1F
100
AcDbEntity
  8
0
  6
Continuous
 62
     7
370
     0
100
AcDbLine
 10
796.9408920247
 20
365.6413542945
 30
0.0
 11
796.9408920247
 21
493.8933539111
 31
0.0
  0
LINE
  5
280
330
1F
100
AcDbEntity
  8
0
  6
Continuous
 62
     7
370
     0
100
AcDbLine
 10
796.9408920247
 20
505.8933484275
 30
0.0
 11
796.9408920247
 21
703.7952530105
 31
0.0
  0
LINE
  5
281
330
1F
100
AcDbEntity
  8
0
  6
Continuous
 62
     7
370
     0
100
AcDbLine
 10
796.9408920247
 20
715.795262428
 30
0.0
 11
796.9408920247
 21
951.3914395962
 31
0.0
  0
LINE
  5
282
330
1F
100
AcDbEntity
  8
FORMAT
  6
CENTERX2
370
     0
100
AcDbLine
 10
699.2942345967
 20
957.3914396483
 30
0.0
 11
911.3100493986
 21
957.3914396483
 31
0.0
  0
LINE
  5
283
330
1F
100
AcDbEntity
  8
0
  6
Continuous
 62
     7
370
    15
100
AcDbLine
 10
445.6793848147
 20
-161.389703868
 30
0.0
 11
445.6793848147
 21
-131.3897045385
 31
0.0
  0
LINE
  5
284
330
1F
100
AcDbEntity
  8
0
  6
Continuous
 62
     7
370
    15
100
AcDbLine
 10
-1039.3206294904
 20
-131.3897045385
 30
0.0
 11
-1039.3206294904
 21
-161.389703868
 31
0.0
  0
LINE
  5
285
330
1F
100
AcDbEntity
  8
0
  6
Continuous
 62
     7
370
    15
100
AcDbLine
 10
-957.8206356893
 20
-11.3896979075
 30
0.0
 11
-957.8206356893
 21
-14.6407140475
 31
0.0
  0
LINE
  5
286
330
1F
100
AcDbEntity
  8
0
  6
Continuous
 62
     7
370
    15
100
AcDbLine
 10
364.1793910136
 20
-14.6407140475
 30
0.0
 11
364.1793910136
 21
-11.3896979075
 31
0.0
  0
ARC
  5
287
330
1F
100
AcDbEntity
  8
0
  6
Continuous
 62
     7
370
    15
100
AcDbCircle
 10
-954.8206223379
 20
-14.6407103459
 30
0.0
 40
3.000000000000004
100
AcDbArc
 50
180.0
 51
265.0
  0
ARC
  5
288
330
1F
100
AcDbEntity
  8
0
  6
Continuous
 62
     7
370
    15
100
AcDbCircle
 10
361.1793776621
 20
-14.6407103459
 30
0.0
 40
3.000000000000014
100
AcDbArc
 50
275.0
 51
0.0
  0
LINE
  5
289
330
1F
100
AcDbEntity
  8
0
  6
Continuous
 62
     7
370
    15
100
AcDbLine
 10
-308.8206224422
 20
-8.8897002917
 30
0.0
 11
-308.8206224422
 21
-11.3896979075
 31
0.0
  0
LINE
  5
28A
330
1F
100
AcDbEntity
  8
0
  6
Continuous
 62
     7
370
    15
100
AcDbLine
 10
-284.8206222336
 20
-11.3896979075
 30
0.0
 11
-284.8206222336
 21
-8.8897002917
 31
0.0
  0
LINE
  5
28B
330
1F
100
AcDbEntity
  8
0
  6
Continuous
 62
     7
370
    15
100
AcDbLine
 10
-955.0821002851
 20
-17.6292909365
 30
0.0
 11
-949.8094138036
 21
-18.0905861836
 31
0.0
  0
LINE
  5
28C
330
1F
100
AcDbEntity
  8
0
  6
Continuous
 62
     7
370
    15
100
AcDbLine
 10
356.1681691279
 20
-18.0905861836
 30
0.0
 11
361.4408556094
 21
-17.6292909365
 31
0.0
  0
LINE
  5
28D
330
1F
100
AcDbEntity
  8
0
  6
Continuous
 62
     7
370
    15
100
AcDbLine
 10
-286.428317828
 20
0.2734409589
 30
0.0
 11
-288.5706223826
 21
1.5102969426
 31
0.0
  0
LINE
  5
28E
330
1F
100
AcDbEntity
  8
0
  6
Continuous
 62
     7
370
    15
100
AcDbLine
 10
-305.0706222932
 20
1.5102969426
 30
0.0
 11
-307.2129268478
 21
0.2734409589
 31
0.0
  0
LINE
  5
28F
330
1F
100
AcDbEntity
  8
0
  6
Continuous
 62
     7
370
    15
100
AcDbLine
 10
-307.2129268478
 20
-7.652844308
 30
0.0
 11
-305.0706222932
 21
-8.8897002917
 31
0.0
  0
LINE
  5
290
330
1F
100
AcDbEntity
  8
0
  6
Continuous
 62
     7
370
    15
100
AcDbLine
 10
-288.5706223826
 20
-8.8897002917
 30
0.0
 11
-286.428317828
 21
-7.652844308
 31
0.0
  0
LINE
  5
291
330
1F
100
AcDbEntity
  8
0
  6
Continuous
 62
     7
370
    15
100
AcDbLine
 10
-290.8206222857
 20
1.5102969426
 30
0.0
 11
-290.8206222857
 21
36.6102950591
 31
0.0
  0
LINE
  5
292
330
1F
100
AcDbEntity
  8
0
  6
Continuous
 62
     7
370
    15
100
AcDbLine
 10
-302.82062239
 20
36.6102950591
 30
0.0
 11
-302.82062239
 21
1.5102969426
 31
0.0
  0
LINE
  5
293
330
1F
100
AcDbEntity
  8
0
  6
Continuous
 62
     7
370
    15
100
AcDbLine
 10
-290.8206222857
 20
-131.3897045385
 30
0.0
 11
-290.8206222857
 21
-18.6120672208
 31
0.0
  0
LINE
  5
294
330
1F
100
AcDbEntity
  8
0
  6
Continuous
 62
     7
370
    15
100
AcDbLine
 10
-302.82062239
 20
-18.6121119242
 30
0.0
 11
-302.82062239
 21
-131.3897045385
 31
0.0
  0
ARC
  5
295
330
1F
100
AcDbEntity
  8
0
  6
Continuous
 62
     7
370
    15
100
AcDbCircle
 10
-939.261212219
 20
-24.0325410428
 30
0.0
 40
5.000000000000153
100
AcDbArc
 50
3.0
 51
73.5194402099
  0
ARC
  5
296
330
1F
100
AcDbEntity
  8
0
  6
Continuous
 62
     7
370
    15
100
AcDbCircle
 10
345.6199675433
 20
-24.0325410428
 30
0.0
 40
5.000000000000096
100
AcDbArc
 50
106.4885200447
 51
177.0
  0
LINE
  5
297
330
1F
100
AcDbEntity
  8
0
  6
Continuous
 62
     7
370
    15
100
AcDbLine
 10
-934.2680391203
 20
-23.7708641272
 30
0.0
 11
-932.9447564016
 21
-49.0205464941
 31
0.0
  0
LINE
  5
298
330
1F
100
AcDbEntity
  8
0
  6
Continuous
 62
     7
370
    15
100
AcDbLine
 10
339.3035117258
 20
-49.0205464941
 30
0.0
 11
340.6267944445
 21
-23.7708641272
 31
0.0
  0
ARC
  5
299
330
1F
100
AcDbEntity
  8
0
  6
Continuous
 62
     7
370
    15
100
AcDbCircle
 10
-930.4482109211
 20
-48.889703868
 30
0.0
 40
2.499999999999936
100
AcDbArc
 50
183.0
 51
270.0
  0
ARC
  5
29A
330
1F
100
AcDbEntity
  8
0
  6
Continuous
 62
     7
370
    15
100
AcDbCircle
 10
336.8069662453
 20
-48.889703868
 30
0.0
 40
2.499999999999936
100
AcDbArc
 50
270.0
 51
357.0
  0
LINE
  5
29B
330
1F
100
AcDbEntity
  8
0
  6
Continuous
 62
     7
370
    15
100
AcDbLine
 10
323.6794057955
 20
-131.3897045385
 30
0.0
 11
323.6794057955
 21
-51.389704464
 31
0.0
  0
LINE
  5
29C
330
1F
100
AcDbEntity
  8
0
  6
Continuous
 62
     7
370
    15
100
AcDbLine
 10
-917.3206504713
 20
-51.389704464
 30
0.0
 11
-917.3206504713
 21
-131.3897045385
 31
0.0
  0
LINE
  5
29D
330
1F
100
AcDbEntity
  8
0
  6
Continuous
 62
     7
370
    15
100
AcDbLine
 10
-61.2244423757
 20
-8.8897002917
 30
0.0
 11
-61.2244423757
 21
-11.3896979075
 31
0.0
  0
LINE
  5
29E
330
1F
100
AcDbEntity
  8
0
  6
Continuous
 62
     7
370
    15
100
AcDbLine
 10
-37.224453343
 20
-11.3896979075
 30
0.0
 11
-37.224453343
 21
-8.8897002917
 31
0.0
  0
LINE
  5
29F
330
1F
100
AcDbEntity
  8
0
  6
Continuous
 62
     7
370
    15
100
AcDbLine
 10
-556.4167913328
 20
-8.8897002917
 30
0.0
 11
-556.4167913328
 21
-11.3896979075
 31
0.0
  0
LINE
  5
2A0
330
1F
100
AcDbEntity
  8
0
  6
Continuous
 62
     7
370
    15
100
AcDbLine
 10
-532.4168023
 20
-11.3896979075
 30
0.0
 11
-532.4168023
 21
-8.8897002917
 31
0.0
  0
LINE
  5
2A1
330
1F
100
AcDbEntity
  8
0
  6
Continuous
 62
     7
370
    15
100
AcDbLine
 10
-58.3045002351
 20
-8.4104640466
 30
0.0
 11
-57.474445952
 21
-8.8897002917
 31
0.0
  0
LINE
  5
2A2
330
1F
100
AcDbEntity
  8
0
  6
Continuous
 62
     7
370
    15
100
AcDbLine
 10
-40.9744497667
 20
-8.8897002917
 30
0.0
 11
-40.1443656812
 21
-8.4104640466
 31
0.0
  0
LINE
  5
2A3
330
1F
100
AcDbEntity
  8
0
  6
Continuous
 62
     7
370
    15
100
AcDbLine
 10
-40.1294943224
 20
1.0224627275
 30
0.0
 11
-40.9744497667
 21
1.5102969426
 31
0.0
  0
LINE
  5
2A4
330
1F
100
AcDbEntity
  8
0
  6
Continuous
 62
     7
370
    15
100
AcDbLine
 10
-57.474445952
 20
1.5102969426
 30
0.0
 11
-58.3193864952
 21
1.0224627275
 31
0.0
  0
LINE
  5
2A5
330
1F
100
AcDbEntity
  8
0
  6
Continuous
 62
     7
370
    15
100
AcDbLine
 10
-553.5117503534
 20
-8.4018660765
 30
0.0
 11
-552.6667949091
 21
-8.8897002917
 31
0.0
  0
LINE
  5
2A6
330
1F
100
AcDbEntity
  8
0
  6
Continuous
 62
     7
370
    15
100
AcDbLine
 10
-536.1667987238
 20
-8.8897002917
 30
0.0
 11
-535.3218581806
 21
-8.4018660765
 31
0.0
  0
LINE
  5
2A7
330
1F
100
AcDbEntity
  8
0
  6
Continuous
 62
     7
370
    15
100
AcDbLine
 10
-535.3367444406
 20
1.0310606975
 30
0.0
 11
-536.1667987238
 21
1.5102969426
 31
0.0
  0
LINE
  5
2A8
330
1F
100
AcDbEntity
  8
0
  6
Continuous
 62
     7
370
    15
100
AcDbLine
 10
-552.6667949091
 20
1.5102969426
 30
0.0
 11
-553.4968789945
 21
1.0310606975
 31
0.0
  0
LINE
  5
2A9
330
1F
100
AcDbEntity
  8
0
  6
Continuous
 62
     7
370
    15
100
AcDbLine
 10
-43.2244357
 20
1.5102969426
 30
0.0
 11
-43.2244357
 21
36.6102950591
 31
0.0
  0
LINE
  5
2AA
330
1F
100
AcDbEntity
  8
0
  6
Continuous
 62
     7
370
    15
100
AcDbLine
 10
-55.2244451175
 20
36.6102950591
 30
0.0
 11
-55.2244451175
 21
1.5102969426
 31
0.0
  0
LINE
  5
2AB
330
1F
100
AcDbEntity
  8
0
  6
Continuous
 62
     7
370
    15
100
AcDbLine
 10
-43.2244357
 20
-131.3897045385
 30
0.0
 11
-43.2244357
 21
-18.4121681433
 31
0.0
  0
LINE
  5
2AC
330
1F
100
AcDbEntity
  8
0
  6
Continuous
 62
     7
370
    15
100
AcDbLine
 10
-55.2244451175
 20
-18.8130242806
 30
0.0
 11
-55.2244451175
 21
-131.3897045385
 31
0.0
  0
LINE
  5
2AD
330
1F
100
AcDbEntity
  8
0
  6
Continuous
 62
     7
370
    15
100
AcDbLine
 10
-538.4167995582
 20
1.5102969426
 30
0.0
 11
-538.4167995582
 21
36.6102950591
 31
0.0
  0
LINE
  5
2AE
330
1F
100
AcDbEntity
  8
0
  6
Continuous
 62
     7
370
    15
100
AcDbLine
 10
-550.4168089758
 20
36.6102950591
 30
0.0
 11
-550.4168089758
 21
1.5102969426
 31
0.0
  0
LINE
  5
2AF
330
1F
100
AcDbEntity
  8
0
  6
Continuous
 62
     7
370
    15
100
AcDbLine
 10
-538.4167995582
 20
-131.3897045385
 30
0.0
 11
-538.4167995582
 21
-18.8126666528
 31
0.0
  0
LINE
  5
2B0
330
1F
100
AcDbEntity
  8
0
  6
Continuous
 62
     7
370
    15
100
AcDbLine
 10
-550.4168089758
 20
-18.4117211085
 30
0.0
 11
-550.4168089758
 21
-131.3897045385
 31
0.0
  0
LINE
  5
2B1
330
1F
100
AcDbEntity
  8
0
  6
Continuous
 62
     7
370
    15
100
AcDbLine
 10
148.6774567236
 20
-8.8897002917
 30
0.0
 11
148.6774567236
 21
-11.3896979075
 31
0.0
  0
LINE
  5
2B2
330
1F
100
AcDbEntity
  8
0
  6
Continuous
 62
     7
370
    15
100
AcDbLine
 10
172.6774755587
 20
-11.3896979075
 30
0.0
 11
172.6774755587
 21
-8.8897002917
 31
0.0
  0
LINE
  5
2B3
330
1F
100
AcDbEntity
  8
0
  6
Continuous
 62
     7
370
    15
100
AcDbLine
 10
-766.3187202344
 20
-8.8897002917
 30
0.0
 11
-766.3187202344
 21
-11.3896979075
 31
0.0
  0
LINE
  5
2B4
330
1F
100
AcDbEntity
  8
0
  6
Continuous
 62
     7
370
    15
100
AcDbLine
 10
-742.3187013994
 20
-11.3896979075
 30
0.0
 11
-742.3187013994
 21
-8.8897002917
 31
0.0
  0
LINE
  5
2B5
330
1F
100
AcDbEntity
  8
0
  6
Continuous
 62
     7
370
    15
100
AcDbLine
 10
169.9960712065
 20
0.8933292646
 30
0.0
 11
168.927479135
 21
1.5102969426
 31
0.0
  0
LINE
  5
2B6
330
1F
100
AcDbEntity
  8
0
  6
Continuous
 62
     7
370
    15
100
AcDbLine
 10
152.4274531474
 20
1.5102969426
 30
0.0
 11
151.3588610758
 21
0.8933292646
 31
0.0
  0
LINE
  5
2B7
330
1F
100
AcDbEntity
  8
0
  6
Continuous
 62
     7
370
    15
100
AcDbLine
 10
151.3498011698
 20
-8.2675172072
 30
0.0
 11
152.4274531474
 21
-8.8897002917
 31
0.0
  0
LINE
  5
2B8
330
1F
100
AcDbEntity
  8
0
  6
Continuous
 62
     7
370
    15
100
AcDbLine
 10
168.927479135
 20
-8.8897002917
 30
0.0
 11
170.0051311125
 21
-8.2675172072
 31
0.0
  0
LINE
  5
2B9
330
1F
100
AcDbEntity
  8
0
  6
Continuous
 62
     7
370
    15
100
AcDbLine
 10
-744.9910458456
 20
0.8881138581
 30
0.0
 11
-746.0686978231
 21
1.5102969426
 31
0.0
  0
LINE
  5
2BA
330
1F
100
AcDbEntity
  8
0
  6
Continuous
 62
     7
370
    15
100
AcDbLine
 10
-762.5687238107
 20
1.5102969426
 30
0.0
 11
-763.6463757883
 21
0.8881138581
 31
0.0
  0
LINE
  5
2BB
330
1F
100
AcDbEntity
  8
0
  6
Continuous
 62
     7
370
    15
100
AcDbLine
 10
-763.6373158823
 20
-8.2727326136
 30
0.0
 11
-762.5687238107
 21
-8.8897002917
 31
0.0
  0
LINE
  5
2BC
330
1F
100
AcDbEntity
  8
0
  6
Continuous
 62
     7
370
    15
100
AcDbLine
 10
-746.0686978231
 20
-8.8897002917
 30
0.0
 11
-745.0001057516
 21
-8.2727326136
 31
0.0
  0
LINE
  5
2BD
330
1F
100
AcDbEntity
  8
0
  6
Continuous
 62
     7
370
    15
100
AcDbLine
 10
166.6774633994
 20
1.5102969426
 30
0.0
 11
166.6774633994
 21
36.6102950591
 31
0.0
  0
LINE
  5
2BE
330
1F
100
AcDbEntity
  8
0
  6
Continuous
 62
     7
370
    15
100
AcDbLine
 10
154.677468883
 20
36.6102950591
 30
0.0
 11
154.677468883
 21
1.5102969426
 31
0.0
  0
LINE
  5
2BF
330
1F
100
AcDbEntity
  8
0
  6
Continuous
 62
     7
370
    15
100
AcDbLine
 10
166.6774633994
 20
-131.3897045385
 30
0.0
 11
166.6774633994
 21
-18.2422949057
 31
0.0
  0
LINE
  5
2C0
330
1F
100
AcDbEntity
  8
0
  6
Continuous
 62
     7
370
    15
100
AcDbLine
 10
154.677468883
 20
-18.9835829716
 30
0.0
 11
154.677468883
 21
-131.3897045385
 31
0.0
  0
LINE
  5
2C1
330
1F
100
AcDbEntity
  8
0
  6
Continuous
 62
     7
370
    15
100
AcDbLine
 10
-748.3187135587
 20
1.5102969426
 30
0.0
 11
-748.3187135587
 21
36.6102950591
 31
0.0
  0
LINE
  5
2C2
330
1F
100
AcDbEntity
  8
0
  6
Continuous
 62
     7
370
    15
100
AcDbLine
 10
-760.3187080751
 20
36.6102950591
 30
0.0
 11
-760.3187080751
 21
1.5102969426
 31
0.0
  0
LINE
  5
2C3
330
1F
100
AcDbEntity
  8
0
  6
Continuous
 62
     7
370
    15
100
AcDbLine
 10
-748.3187135587
 20
-131.3897045385
 30
0.0
 11
-748.3187135587
 21
-18.9832849484
 31
0.0
  0
LINE
  5
2C4
330
1F
100
AcDbEntity
  8
0
  6
Continuous
 62
     7
370
    15
100
AcDbLine
 10
-760.3187080751
 20
-18.2432336789
 30
0.0
 11
-760.3187080751
 21
-131.3897045385
 31
0.0
  0
LINE
  5
2C5
330
1F
100
AcDbEntity
  8
0
  6
Continuous
 62
     7
370
    15
100
AcDbLine
 10
288.9294210543
 20
-8.8897002917
 30
0.0
 11
288.9294210543
 21
-11.3896979075
 31
0.0
  0
LINE
  5
2C6
330
1F
100
AcDbEntity
  8
0
  6
Continuous
 62
     7
370
    15
100
AcDbLine
 10
312.9294100871
 20
-11.3896979075
 30
0.0
 11
312.9294100871
 21
-8.8897002917
 31
0.0
  0
LINE
  5
2C7
330
1F
100
AcDbEntity
  8
0
  6
Continuous
 62
     7
370
    15
100
AcDbLine
 10
-906.5706547628
 20
-8.8897002917
 30
0.0
 11
-906.5706547628
 21
-11.3896979075
 31
0.0
  0
LINE
  5
2C8
330
1F
100
AcDbEntity
  8
0
  6
Continuous
 62
     7
370
    15
100
AcDbLine
 10
-882.5706657301
 20
-11.3896979075
 30
0.0
 11
-882.5706657301
 21
-8.8897002917
 31
0.0
  0
LINE
  5
2C9
330
1F
100
AcDbEntity
  8
0
  6
Continuous
 62
     7
370
    15
100
AcDbLine
 10
310.6724802126
 20
0.6482647676
 30
0.0
 11
309.1794434657
 21
1.5102969426
 31
0.0
  0
LINE
  5
2CA
330
1F
100
AcDbEntity
  8
0
  6
Continuous
 62
     7
370
    15
100
AcDbLine
 10
292.6794472804
 20
1.5102969426
 30
0.0
 11
291.181940185
 21
0.645716669
 31
0.0
  0
LINE
  5
2CB
330
1F
100
AcDbEntity
  8
0
  6
Continuous
 62
     7
370
    15
100
AcDbLine
 10
291.1821786036
 20
-8.0252839309
 30
0.0
 11
292.6794472804
 21
-8.8897002917
 31
0.0
  0
LINE
  5
2CC
330
1F
100
AcDbEntity
  8
0
  6
Continuous
 62
     7
370
    15
100
AcDbLine
 10
309.1794434657
 20
-8.8897002917
 30
0.0
 11
310.6724802126
 21
-8.027697919
 31
0.0
  0
LINE
  5
2CD
330
1F
100
AcDbEntity
  8
0
  6
Continuous
 62
     7
370
    15
100
AcDbLine
 10
-884.8276552091
 20
0.6482945699
 30
0.0
 11
-886.3206919561
 21
1.5102969426
 31
0.0
  0
LINE
  5
2CE
330
1F
100
AcDbEntity
  8
0
  6
Continuous
 62
     7
370
    15
100
AcDbLine
 10
-902.8206881414
 20
1.5102969426
 30
0.0
 11
-904.3178972135
 21
0.6458656806
 31
0.0
  0
LINE
  5
2CF
330
1F
100
AcDbEntity
  8
0
  6
Continuous
 62
     7
370
    15
100
AcDbLine
 10
-904.3181952367
 20
-8.0251349192
 30
0.0
 11
-902.8206881414
 21
-8.8897002917
 31
0.0
  0
LINE
  5
2D0
330
1F
100
AcDbEntity
  8
0
  6
Continuous
 62
     7
370
    15
100
AcDbLine
 10
-886.3206919561
 20
-8.8897002917
 30
0.0
 11
-884.8275956045
 21
-8.0276830178
 31
0.0
  0
LINE
  5
2D1
330
1F
100
AcDbEntity
  8
0
  6
Continuous
 62
     7
370
    15
100
AcDbLine
 10
306.92942773
 20
1.5102969426
 30
0.0
 11
306.92942773
 21
36.6102950591
 31
0.0
  0
LINE
  5
2D2
330
1F
100
AcDbEntity
  8
0
  6
Continuous
 62
     7
370
    15
100
AcDbLine
 10
294.929463016
 20
36.6102950591
 30
0.0
 11
294.929463016
 21
1.5102969426
 31
0.0
  0
LINE
  5
2D3
330
1F
100
AcDbEntity
  8
0
  6
Continuous
 62
     7
370
    15
100
AcDbLine
 10
306.92942773
 20
-131.3897045385
 30
0.0
 11
306.92942773
 21
-18.0896176081
 31
0.0
  0
LINE
  5
2D4
330
1F
100
AcDbEntity
  8
0
  6
Continuous
 62
     7
370
    15
100
AcDbLine
 10
294.929463016
 20
-19.1289139968
 30
0.0
 11
294.929463016
 21
-131.3897045385
 31
0.0
  0
LINE
  5
2D5
330
1F
100
AcDbEntity
  8
0
  6
Continuous
 62
     7
370
    15
100
AcDbLine
 10
-888.5707076917
 20
1.5102969426
 30
0.0
 11
-888.5707076917
 21
36.6102950591
 31
0.0
  0
LINE
  5
2D6
330
1F
100
AcDbEntity
  8
0
  6
Continuous
 62
     7
370
    15
100
AcDbLine
 10
-900.5706724058
 20
36.6102950591
 30
0.0
 11
-900.5706724058
 21
1.5102969426
 31
0.0
  0
LINE
  5
2D7
330
1F
100
AcDbEntity
  8
0
  6
Continuous
 62
     7
370
    15
100
AcDbLine
 10
-888.5707076917
 20
-131.3897045385
 30
0.0
 11
-888.5707076917
 21
-19.1290034037
 31
0.0
  0
LINE
  5
2D8
330
1F
100
AcDbEntity
  8
0
  6
Continuous
 62
     7
370
    15
100
AcDbLine
 10
-900.5706724058
 20
-18.0896176081
 30
0.0
 11
-900.5706724058
 21
-131.3897045385
 31
0.0
  0
LINE
  5
2D9
330
1F
100
AcDbEntity
  8
0
  6
Continuous
 62
     7
370
    15
100
AcDbLine
 10
338.1793681254
 20
-8.8897002917
 30
0.0
 11
338.1793681254
 21
-11.3896979075
 31
0.0
  0
LINE
  5
2DA
330
1F
100
AcDbEntity
  8
0
  6
Continuous
 62
     7
370
    15
100
AcDbLine
 10
362.1793571581
 20
-11.3896979075
 30
0.0
 11
362.1793571581
 21
-8.8897002917
 31
0.0
  0
LINE
  5
2DB
330
1F
100
AcDbEntity
  8
0
  6
Continuous
 62
     7
370
    15
100
AcDbLine
 10
-955.8206018339
 20
-8.8897002917
 30
0.0
 11
-955.8206018339
 21
-11.3896979075
 31
0.0
  0
LINE
  5
2DC
330
1F
100
AcDbEntity
  8
0
  6
Continuous
 62
     7
370
    15
100
AcDbLine
 10
-931.8206128011
 20
-11.3896979075
 30
0.0
 11
-931.8206128011
 21
-8.8897002917
 31
0.0
  0
LINE
  5
2DD
330
1F
100
AcDbEntity
  8
0
  6
Continuous
 62
     7
370
    15
100
AcDbLine
 10
359.1793957819
 20
1.0772840995
 30
0.0
 11
358.4293905367
 21
1.5102969426
 31
0.0
  0
LINE
  5
2DE
330
1F
100
AcDbEntity
  8
0
  6
Continuous
 62
     7
370
    15
100
AcDbLine
 10
341.9293943514
 20
1.5102969426
 30
0.0
 11
341.1793891062
 21
1.0772840995
 31
0.0
  0
LINE
  5
2DF
330
1F
100
AcDbEntity
  8
0
  6
Continuous
 62
     7
370
    15
100
AcDbLine
 10
341.1793891062
 20
-8.4566874486
 30
0.0
 11
341.9293943514
 21
-8.8897002917
 31
0.0
  0
LINE
  5
2E0
330
1F
100
AcDbEntity
  8
0
  6
Continuous
 62
     7
370
    15
100
AcDbLine
 10
358.4293905367
 20
-8.8897002917
 30
0.0
 11
359.1793957819
 21
-8.4566874486
 31
0.0
  0
LINE
  5
2E1
330
1F
100
AcDbEntity
  8
0
  6
Continuous
 62
     7
370
    15
100
AcDbLine
 10
-934.820633782
 20
1.0772840995
 30
0.0
 11
-935.5706390272
 21
1.5102969426
 31
0.0
  0
LINE
  5
2E2
330
1F
100
AcDbEntity
  8
0
  6
Continuous
 62
     7
370
    15
100
AcDbLine
 10
-952.0706352125
 20
1.5102969426
 30
0.0
 11
-952.8206404577
 21
1.0772840995
 31
0.0
  0
LINE
  5
2E3
330
1F
100
AcDbEntity
  8
0
  6
Continuous
 62
     7
370
    15
100
AcDbLine
 10
-952.8206404577
 20
-8.4566874486
 30
0.0
 11
-952.0706352125
 21
-8.8897002917
 31
0.0
  0
LINE
  5
2E4
330
1F
100
AcDbEntity
  8
0
  6
Continuous
 62
     7
370
    15
100
AcDbLine
 10
-935.5706390272
 20
-8.8897002917
 30
0.0
 11
-934.820633782
 21
-8.4566874486
 31
0.0
  0
LINE
  5
2E5
330
1F
100
AcDbEntity
  8
0
  6
Continuous
 62
     7
370
    15
100
AcDbLine
 10
356.1793748011
 20
1.5102969426
 30
0.0
 11
356.1793748011
 21
36.6102950591
 31
0.0
  0
LINE
  5
2E6
330
1F
100
AcDbEntity
  8
0
  6
Continuous
 62
     7
370
    15
100
AcDbLine
 10
344.1793504824
 20
36.6102950591
 30
0.0
 11
344.1793504824
 21
1.5102969426
 31
0.0
  0
LINE
  5
2E7
330
1F
100
AcDbEntity
  8
0
  6
Continuous
 62
     7
370
    15
100
AcDbLine
 10
356.1793748011
 20
-131.3897045385
 30
0.0
 11
356.1793748011
 21
-18.0896176081
 31
0.0
  0
LINE
  5
2E8
330
1F
100
AcDbEntity
  8
0
  6
Continuous
 62
     7
370
    15
100
AcDbLine
 10
344.1793504824
 20
-19.2445619088
 30
0.0
 11
344.1793504824
 21
-131.3897045385
 31
0.0
  0
LINE
  5
2E9
330
1F
100
AcDbEntity
  8
0
  6
Continuous
 62
     7
370
    15
100
AcDbLine
 10
-937.8205951582
 20
1.5102969426
 30
0.0
 11
-937.8205951582
 21
36.6102950591
 31
0.0
  0
LINE
  5
2EA
330
1F
100
AcDbEntity
  8
0
  6
Continuous
 62
     7
370
    15
100
AcDbLine
 10
-949.8206194768
 20
36.6102950591
 30
0.0
 11
-949.8206194768
 21
1.5102969426
 31
0.0
  0
LINE
  5
2EB
330
1F
100
AcDbEntity
  8
0
  6
Continuous
 62
     7
370
    15
100
AcDbLine
 10
-937.8205951582
 20
-131.3897045385
 30
0.0
 11
-937.8205951582
 21
-19.2445619088
 31
0.0
  0
LINE
  5
2EC
330
1F
100
AcDbEntity
  8
0
  6
Continuous
 62
     7
370
    15
100
AcDbLine
 10
-949.8206194768
 20
-18.0896176081
 30
0.0
 11
-949.8206194768
 21
-131.3897045385
 31
0.0
  0
LINE
  5
2ED
330
1F
100
AcDbEntity
  8
0
  6
Continuous
 62
     7
370
    15
100
AcDbLine
 10
-884.8275956045
 20
-8.0276830178
 30
0.0
 11
-884.8234232793
 21
-8.0252839309
 31
0.0
  0
LINE
  5
2EE
330
1F
100
AcDbEntity
  8
0
  6
Continuous
 62
     7
370
    15
100
AcDbLine
 10
-884.8231848608
 20
0.645716669
 30
0.0
 11
-884.8276552091
 21
0.6482945699
 31
0.0
  0
LINE
  5
2EF
330
1F
100
AcDbEntity
  8
0
  6
Continuous
 62
     7
370
    15
100
AcDbLine
 10
170.0051311125
 20
0.8881138581
 30
0.0
 11
169.9960712065
 21
0.8933292646
 31
0.0
  0
LINE
  5
2F0
330
1F
100
AcDbEntity
  8
0
  6
Continuous
 62
     7
370
    15
100
AcDbLine
 10
-763.6463757883
 20
-8.2675172072
 30
0.0
 11
-763.6373158823
 21
-8.2727326136
 31
0.0
  0
LINE
  5
2F1
330
1F
100
AcDbEntity
  8
0
  6
Continuous
 62
     7
370
    15
100
AcDbLine
 10
-58.3193864952
 20
-8.4018660765
 30
0.0
 11
-58.3045002351
 21
-8.4104640466
 31
0.0
  0
LINE
  5
2F2
330
1F
100
AcDbEntity
  8
0
  6
Continuous
 62
     7
370
    15
100
AcDbLine
 10
-535.3218581806
 20
1.0224627275
 30
0.0
 11
-535.3367444406
 21
1.0310606975
 31
0.0
  0
LINE
  5
2F3
330
1F
100
AcDbEntity
  8
0
  6
Continuous
 62
     7
370
    15
100
AcDbLine
 10
-1039.3206294904
 20
-161.389703868
 30
0.0
 11
445.6793848147
 21
-161.389703868
 31
0.0
  0
LINE
  5
2F4
330
1F
100
AcDbEntity
  8
0
  6
Continuous
 62
     7
370
    15
100
AcDbLine
 10
-1039.3206294904
 20
-131.3897045385
 30
0.0
 11
445.6793848147
 21
-131.3897045385
 31
0.0
  0
LINE
  5
2F5
330
1F
100
AcDbEntity
  8
0
  6
Continuous
 62
     7
370
    15
100
AcDbLine
 10
-957.8206356893
 20
-11.3896979075
 30
0.0
 11
364.1793910136
 21
-11.3896979075
 31
0.0
  0
LINE
  5
2F6
330
1F
100
AcDbEntity
  8
0
  6
Continuous
 62
     7
370
    15
100
AcDbLine
 10
-308.8206224422
 20
-8.8897002917
 30
0.0
 11
-284.8206222336
 21
-8.8897002917
 31
0.0
  0
SPLINE
  5
2F7
330
1F
100
AcDbEntity
  8
0
  6
Continuous
 62
     7
370
    15
100
AcDbSpline
210
0.0
220
0.0
230
1.0
 70
     8
 71
     3
 72
    23
 73
    19
 74
     0
 42
0.00000001
 43
0.00000001
 12
1.0
 22
0.0
 32
0.0
 13
1.0
 23
0.0
 33
0.0
 40
0.0
 40
0.0
 40
0.0
 40
0.0
 40
0.0565496429105131
 40
0.1211952099702533
 40
0.1877106311426032
 40
0.2524220635750086
 40
0.3189982278502037
 40
0.3838997753986731
 40
0.4506708757439158
 40
0.5158133320397272
 40
0.582833754307937
 40
0.6481540564175273
 40
0.7153685862410533
 40
0.7807313790844166
 40
0.8479990992094744
 40
0.9132510110323815
 40
0.9804057372028598
 40
0.9999999999999999
 40
0.9999999999999999
 40
0.9999999999999999
 40
0.9999999999999999
 10
356.1681691278867
 20
-18.0905861836213
 30
0.0
 10
356.1605661156307
 20
-18.09124480945543
 30
0.0
 10
356.1442716066053
 20
-18.09265635322746
 30
0.0
 10
355.9132415226255
 20
-18.11269429543602
 30
0.0
 10
355.5286626664453
 20
-18.1460384635439
 30
0.0
 10
354.9845254261343
 20
-18.19326650421052
 30
0.0
 10
354.311445384292
 20
-18.25176033229908
 30
0.0
 10
353.5145934463088
 20
-18.32105763615982
 30
0.0
 10
352.6298237258439
 20
-18.39812111464975
 30
0.0
 10
351.6665614423704
 20
-18.48214373367074
 30
0.0
 10
350.6681225255392
 20
-18.5693339051643
 30
0.0
 10
349.6457778797769
 20
-18.6587891285537
 30
0.0
 10
348.6464916079725
 20
-18.74635903835336
 30
0.0
 10
347.6816540875033
 20
-18.83101897398035
 30
0.0
 10
346.7961544546908
 20
-18.90885640779286
 30
0.0
 10
346.0011558911113
 20
-18.97882452691074
 30
0.0
 10
345.4827646705423
 20
-19.02448595959058
 30
0.0
 10
345.232230947703
 20
-19.0465731637954
 30
0.0
 10
345.1756421198299
 20
-19.05156206901257
 30
0.0
  0
SPLINE
  5
2F8
330
1F
100
AcDbEntity
  8
0
  6
Continuous
 62
     7
370
    15
100
AcDbSpline
210
0.0
220
0.0
230
1.0
 70
     8
 71
     3
 72
    26
 73
    22
 74
     0
 42
0.00000001
 43
0.00000001
 12
1.0
 22
0.0
 32
0.0
 13
1.0
 23
0.0
 33
0.0
 40
0.0
 40
0.0
 40
0.0
 40
0.0
 40
0.0159296524053243
 40
0.0730524489398152
 40
0.1299944632020767
 40
0.1869358166465297
 40
0.2437994842216749
 40
0.300662797481861
 40
0.3575886289743756
 40
0.4145125506667787
 40
0.4716082823201831
 40
0.5287054107732461
 40
0.5860103417114848
 40
0.6433178228233613
 40
0.7007843835142077
 40
0.7582492335612007
 40
0.8157493129876973
 40
0.8732527552953565
 40
0.9306482170352799
 40
0.9880454363080303
 40
1.0
 40
1.0
 40
1.0
 40
1.0
 10
306.9118443598202
 20
-18.13061070258801
 30
0.0
 10
306.9167866459503
 20
-18.127091417383
 30
0.0
 10
306.9394516794355
 20
-18.11095218243908
 30
0.0
 10
306.8108057069376
 20
-18.09590986347071
 30
0.0
 10
306.5194131282691
 20
-18.08709059086538
 30
0.0
 10
306.0611429108747
 20
-18.09379735026936
 30
0.0
 10
305.4587967528994
 20
-18.11507769064099
 30
0.0
 10
304.7309738817997
 20
-18.15007603497307
 30
0.0
 10
303.8942021951255
 20
-18.19829677521792
 30
0.0
 10
302.9749566092984
 20
-18.2580050630774
 30
0.0
 10
301.9964757343873
 20
-18.32797793056989
 30
0.0
 10
300.9868363855683
 20
-18.40597951623957
 30
0.0
 10
299.9747342679599
 20
-18.49015199082082
 30
0.0
 10
298.9873538397472
 20
-18.57796688809607
 30
0.0
 10
298.0555911226286
 20
-18.66701890685807
 30
0.0
 10
297.2030621001576
 20
-18.75475722447598
 30
0.0
 10
296.4589400641261
 20
-18.83852731014571
 30
0.0
 10
295.839641804722
 20
-18.91606501562546
 30
0.0
 10
295.3703187602062
 20
-18.98470609857949
 30
0.0
 10
295.136053127971
 20
-19.02787423579058
 30
0.0
 10
295.0537413475035
 20
-19.04807922022369
 30
0.0
 10
295.0395527948788
 20
-19.05156206901257
 30
0.0
  0
SPLINE
  5
2F9
330
1F
100
AcDbEntity
  8
0
  6
Continuous
 62
     7
370
    15
100
AcDbSpline
210
0.0
220
0.0
230
1.0
 70
     8
 71
     3
 72
    27
 73
    23
 74
     0
 42
0.00000001
 43
0.00000001
 12
1.0
 22
0.0
 32
0.0
 13
1.0
 23
0.0
 33
0.0
 40
0.0
 40
0.0
 40
0.0
 40
0.0
 40
0.0016409653020611
 40
0.0554366023933188
 40
0.1092308042515305
 40
0.1628281957855731
 40
0.2164240493720797
 40
0.269866038006116
 40
0.3233070252912366
 40
0.3767033382410986
 40
0.4301005606528491
 40
0.4835785067914795
 40
0.5370585808235979
 40
0.5907132134361248
 40
0.6443680294335878
 40
0.6982168846156701
 40
0.7520662033852883
 40
0.8060439943091263
 40
0.8600207664618584
 40
0.9140043802308012
 40
0.9679872721785933
 40
1.0
 40
1.0
 40
1.0
 40
1.0
 10
166.6749003996303
 20
-18.2422949057359
 30
0.0
 10
166.6757486172373
 20
-18.2416130239437
 30
0.0
 10
166.7044038862759
 20
-18.21857706471641
 30
0.0
 10
166.601068500276
 20
-18.18260158901985
 30
0.0
 10
166.3584701111155
 20
-18.13719192802718
 30
0.0
 10
165.9309254685277
 20
-18.10671125524452
 30
0.0
 10
165.3636921009529
 20
-18.08995265339991
 30
0.0
 10
164.6601567408842
 20
-18.08832230415061
 30
0.0
 10
163.8478672499404
 20
-18.1010776590029
 30
0.0
 10
162.9447137509946
 20
-18.12845032789728
 30
0.0
 10
161.9792928694565
 20
-18.16915709610203
 30
0.0
 10
160.9764891500794
 20
-18.22256509528877
 30
0.0
 10
159.9644685889088
 20
-18.28680813527872
 30
0.0
 10
158.9724820350989
 20
-18.36049638492424
 30
0.0
 10
158.0260634839197
 20
-18.44139299001121
 30
0.0
 10
157.1556401534757
 20
-18.52744133401504
 30
0.0
 10
156.3817737402273
 20
-18.61609249937129
 30
0.0
 10
155.732702326576
 20
-18.70486720241554
 30
0.0
 10
155.2197764491068
 20
-18.79132489860361
 30
0.0
 10
154.8721627570749
 20
-18.8723723810372
 30
0.0
 10
154.692279350797
 20
-18.93741941520771
 30
0.0
 10
154.6926712067302
 20
-18.97105994765932
 30
0.0
 10
154.6928170790127
 20
-18.98358297164624
 30
0.0
  0
SPLINE
  5
2FA
330
1F
100
AcDbEntity
  8
0
  6
Continuous
 62
     7
370
    15
100
AcDbSpline
210
0.0
220
0.0
230
1.0
 70
     8
 71
     3
 72
    26
 73
    22
 74
     0
 42
0.00000001
 43
0.00000001
 12
1.0
 22
0.0
 32
0.0
 13
1.0
 23
0.0
 33
0.0
 40
0.0
 40
0.0
 40
0.0
 40
0.0
 40
0.0419620771256018
 40
0.0958900377150405
 40
0.149813996243575
 40
0.2035671089874437
 40
0.2573190594770183
 40
0.3108767146168002
 40
0.3644318073542538
 40
0.4178523362465575
 40
0.4712731609552196
 40
0.5246764963075722
 40
0.57807981354045
 40
0.6315895875526271
 40
0.6851013063232898
 40
0.7387975211930292
 40
0.7924957452772843
 40
0.8463795353407492
 40
0.9002650130274911
 40
0.9542535047239692
 40
1.0
 40
1.0
 40
1.0
 40
1.0
 10
-43.23981369834634
 20
-18.41216814334576
 30
0.0
 10
-43.2436054741755
 20
-18.39107195206361
 30
0.0
 10
-43.25227028660089
 20
-18.34286379087968
 30
0.0
 10
-43.47109531846455
 20
-18.27608294980787
 30
0.0
 10
-43.84847317527185
 20
-18.21276609829678
 30
0.0
 10
-44.38762812153379
 20
-18.16128844599504
 30
0.0
 10
-45.05943526286954
 20
-18.12245386006633
 30
0.0
 10
-45.85175191069779
 20
-18.0977816894507
 30
0.0
 10
-46.7361355603994
 20
-18.08737623525733
 30
0.0
 10
-47.69162205404437
 20
-18.0920453123746
 30
0.0
 10
-48.68833920017968
 20
-18.11102077912913
 30
0.0
 10
-49.699994557343
 20
-18.1443401996296
 30
0.0
 10
-50.6985762894501
 20
-18.19052806018756
 30
0.0
 10
-51.65485463094216
 20
-18.24885181519706
 30
0.0
 10
-52.54502233569389
 20
-18.31730942244889
 30
0.0
 10
-53.34014566429776
 20
-18.39438736906365
 30
0.0
 10
-54.02198041694403
 20
-18.47775843163232
 30
0.0
 10
-54.56670255381613
 20
-18.56524428189471
 30
0.0
 10
-54.95840744884975
 20
-18.6541663915433
 30
0.0
 10
-55.18874382462638
 20
-18.73815368611939
 30
0.0
 10
-55.20553682310503
 20
-18.78948130288457
 30
0.0
 10
-55.21323944431036
 20
-18.81302428062143
 30
0.0
  0
SPLINE
  5
2FB
330
1F
100
AcDbEntity
  8
0
  6
Continuous
 62
     7
370
    15
100
AcDbSpline
210
0.0
220
0.0
230
1.0
 70
     8
 71
     3
 72
    27
 73
    23
 74
     0
 42
0.00000001
 43
0.00000001
 12
1.0
 22
0.0
 32
0.0
 13
1.0
 23
0.0
 33
0.0
 40
0.0
 40
0.0
 40
0.0
 40
0.0
 40
0.00819854202036
 40
0.0621847571972871
 40
0.1161702691799399
 40
0.1701476564292756
 40
0.2241247144911898
 40
0.2779700173515015
 40
0.3318141132872079
 40
0.3854637940531392
 40
0.4391119140387502
 40
0.492586686603409
 40
0.5460613600589906
 40
0.5994583238443886
 40
0.6528560523565121
 40
0.706304426232941
 40
0.7597536052825876
 40
0.8133582005439677
 40
0.8669646245754498
 40
0.9207699877096088
 40
0.9745747777631014
 40
1.0
 40
1.0
 40
1.0
 40
1.0
 10
-290.8317394832918
 20
-18.61206722076123
 30
0.0
 10
-290.8281790301459
 20
-18.60757672635247
 30
0.0
 10
-290.8011735072313
 20
-18.57351697477555
 30
0.0
 10
-290.9175312530083
 20
-18.50997793199244
 30
0.0
 10
-291.1843188676268
 20
-18.42445080821572
 30
0.0
 10
-291.6320938100181
 20
-18.34447186396268
 30
0.0
 10
-292.2207934421662
 20
-18.27206898508213
 30
0.0
 10
-292.9448027433956
 20
-18.20969756592541
 30
0.0
 10
-293.7758350863888
 20
-18.15866830744919
 30
0.0
 10
-294.6948756279558
 20
-18.12080773213162
 30
0.0
 10
-295.6713268839606
 20
-18.0966882483245
 30
0.0
 10
-296.6801458363833
 20
-18.08740227865308
 30
0.0
 10
-297.6913109786473
 20
-18.09257810015214
 30
0.0
 10
-298.6767110216963
 20
-18.11267112629164
 30
0.0
 10
-299.610389787865
 20
-18.14643671650756
 30
0.0
 10
-300.4636526590166
 20
-18.19360796979075
 30
0.0
 10
-301.2171224957802
 20
-18.2523259902605
 30
0.0
 10
-301.8436680234391
 20
-18.3214761593054
 30
0.0
 10
-302.3345704903065
 20
-18.39886239406438
 30
0.0
 10
-302.6570317723516
 20
-18.48257208309434
 30
0.0
 10
-302.8181375857866
 20
-18.55468873303126
 30
0.0
 10
-302.8036161026455
 20
-18.59816138077938
 30
0.0
 10
-302.7989561016509
 20
-18.61211192424481
 30
0.0
  0
SPLINE
  5
2FC
330
1F
100
AcDbEntity
  8
0
  6
Continuous
 62
     7
370
    15
100
AcDbSpline
210
0.0
220
0.0
230
1.0
 70
     8
 71
     3
 72
    27
 73
    23
 74
     0
 42
0.00000001
 43
0.00000001
 12
1.0
 22
0.0
 32
0.0
 13
1.0
 23
0.0
 33
0.0
 40
0.0
 40
0.0
 40
0.0
 40
0.0
 40
0.0304196406756527
 40
0.0842924601514391
 40
0.1381660008848147
 40
0.1921559058566653
 40
0.2461423350612329
 40
0.3001159186238872
 40
0.3540891962058138
 40
0.4079262267138345
 40
0.4617616323564643
 40
0.5154010139546394
 40
0.569039911933792
 40
0.6225090534856538
 40
0.6759775745227447
 40
0.7293731477234018
 40
0.7827683882186405
 40
0.8362223339819881
 40
0.8896744864232374
 40
0.9432879701985434
 40
0.9969027655832057
 40
0.9999999999999999
 40
0.9999999999999999
 40
0.9999999999999999
 40
0.9999999999999999
 10
-538.4380188117574
 20
-18.81266665275277
 30
0.0
 10
-538.4349895706024
 20
-18.79727991436098
 30
0.0
 10
-538.4265955796261
 20
-18.75464344647557
 30
0.0
 10
-538.6037310043457
 20
-18.67946058305944
 30
0.0
 10
-538.9437105257964
 20
-18.59067193639663
 30
0.0
 10
-539.4511810156059
 20
-18.50231624330884
 30
0.0
 10
-540.0961929921317
 20
-18.41715902044613
 30
0.0
 10
-540.8680952172242
 20
-18.33777757312247
 30
0.0
 10
-541.739089182106
 20
-18.2661765613889
 30
0.0
 10
-542.688025039248
 20
-18.20474335899308
 30
0.0
 10
-543.6839587051071
 20
-18.15478497652564
 30
0.0
 10
-544.7004554144481
 20
-18.11813219298508
 30
0.0
 10
-545.7072095737689
 20
-18.09526547042475
 30
0.0
 10
-546.6757056014825
 20
-18.08726315497958
 30
0.0
 10
-547.5803524198232
 20
-18.09375071484809
 30
0.0
 10
-548.3931535842554
 20
-18.11509192089208
 30
0.0
 10
-549.0963270014977
 20
-18.15006571242569
 30
0.0
 10
-549.6634384928351
 20
-18.19832385122438
 30
0.0
 10
-550.0913017170919
 20
-18.25790697292556
 30
0.0
 10
-550.3368535546757
 20
-18.32834441131068
 30
0.0
 10
-550.4419083332955
 20
-18.38059313984403
 30
0.0
 10
-550.4136720873594
 20
-18.41010914057925
 30
0.0
 10
-550.4121300111364
 20
-18.41172110850992
 30
0.0
  0
SPLINE
  5
2FD
330
1F
100
AcDbEntity
  8
0
  6
Continuous
 62
     7
370
    15
100
AcDbSpline
210
0.0
220
0.0
230
1.0
 70
     8
 71
     3
 72
    27
 73
    23
 74
     0
 42
0.00000001
 43
0.00000001
 12
1.0
 22
0.0
 32
0.0
 13
1.0
 23
0.0
 33
0.0
 40
0.0
 40
0.0
 40
0.0
 40
0.0
 40
0.0175538232987094
 40
0.0710817039507411
 40
0.1248074509735656
 40
0.1785325216407086
 40
0.2324419301573368
 40
0.2863498493483734
 40
0.3403467499111983
 40
0.3943437047537908
 40
0.4482988239302586
 40
0.5022510858139881
 40
0.5560485089332811
 40
0.6098444967718778
 40
0.6634436677521557
 40
0.7170413007338372
 40
0.7704850636546953
 40
0.8239278251933926
 40
0.8773259109136328
 40
0.9307249061259555
 40
0.9842046277452056
 40
1.0
 40
1.0
 40
1.0
 40
1.0
 10
-748.3377870450565
 20
-18.98328494842236
 30
0.0
 10
-748.3326839645483
 20
-18.97674467143781
 30
0.0
 10
-748.3120197678236
 20
-18.95026075255243
 30
0.0
 10
-748.4470804351564
 20
-18.89334793411865
 30
0.0
 10
-748.7462584787731
 20
-18.81477918910396
 30
0.0
 10
-749.2127969398343
 20
-18.72978125588259
 30
0.0
 10
-749.8246383510437
 20
-18.64161997349084
 30
0.0
 10
-750.5638816925568
 20
-18.55257708168626
 30
0.0
 10
-751.4128651865808
 20
-18.46536983963118
 30
0.0
 10
-752.3438841689366
 20
-18.38231074748317
 30
0.0
 10
-753.332817636933
 20
-18.30607535120121
 30
0.0
 10
-754.3487561780327
 20
-18.23849546822551
 30
0.0
 10
-755.363463835991
 20
-18.18188153906708
 30
0.0
 10
-756.3473976537174
 20
-18.13738424074388
 30
0.0
 10
-757.2716677328398
 20
-18.10665919903937
 30
0.0
 10
-758.1121735356371
 20
-18.0899688048021
 30
0.0
 10
-758.8426153808206
 20
-18.08830962256583
 30
0.0
 10
-759.4461764975797
 20
-18.10111224800492
 30
0.0
 10
-759.9051661000175
 20
-18.12832476247308
 30
0.0
 10
-760.1975650419008
 20
-18.16962512102896
 30
0.0
 10
-760.3276091015211
 20
-18.2087853387877
 30
0.0
 10
-760.3056781361959
 20
-18.23683751838728
 30
0.0
 10
-760.3006776700565
 20
-18.24323367889111
 30
0.0
  0
SPLINE
  5
2FE
330
1F
100
AcDbEntity
  8
0
  6
Continuous
 62
     7
370
    15
100
AcDbSpline
210
0.0
220
0.0
230
1.0
 70
     8
 71
     3
 72
    25
 73
    21
 74
     0
 42
0.00000001
 43
0.00000001
 12
1.0
 22
0.0
 32
0.0
 13
1.0
 23
0.0
 33
0.0
 40
0.0
 40
0.0
 40
0.0
 40
0.0
 40
0.0541566097542656
 40
0.1112005037888904
 40
0.1682462945515274
 40
0.2255061014089354
 40
0.2827640631797864
 40
0.3402034467352521
 40
0.3976438063248527
 40
0.4551509160695632
 40
0.5126538155329221
 40
0.5700855254663204
 40
0.6275129733212259
 40
0.6847584753832436
 40
0.7420027396782338
 40
0.7990400850753323
 40
0.8560747015884598
 40
0.9129660115192927
 40
0.9698576364859459
 40
1.0
 40
1.0
 40
1.0
 40
1.0
 10
-888.6807974706242
 20
-19.05156206901257
 30
0.0
 10
-888.7562283088217
 20
-19.03492619487571
 30
0.0
 10
-888.9111114753798
 20
-19.00076752812416
 30
0.0
 10
-889.3418085386271
 20
-18.93542091877026
 30
0.0
 10
-889.9137145050813
 20
-18.86081661505473
 30
0.0
 10
-890.6235706211149
 20
-18.77888656862356
 30
0.0
 10
-891.4437227371484
 20
-18.69229385788468
 30
0.0
 10
-892.3556671621737
 20
-18.60345206824141
 30
0.0
 10
-893.3308278177944
 20
-18.51485013462359
 30
0.0
 10
-894.3427925397109
 20
-18.4291543249997
 30
0.0
 10
-895.3615235097934
 20
-18.34866523138179
 30
0.0
 10
-896.3572722138351
 20
-18.27596586021832
 30
0.0
 10
-897.3021347836083
 20
-18.21279681420357
 30
0.0
 10
-898.1669410079753
 20
-18.16128225882277
 30
0.0
 10
-898.930063856187
 20
-18.12244793251447
 30
0.0
 10
-899.5656134946246
 20
-18.09781143424799
 30
0.0
 10
-900.0636908703259
 20
-18.08726326614596
 30
0.0
 10
-900.3943690490132
 20
-18.09246629705649
 30
0.0
 10
-900.5637824910251
 20
-18.10678940029059
 30
0.0
 10
-900.5530064054441
 20
-18.12472642323754
 30
0.0
 10
-900.5492743382999
 20
-18.13093852813427
 30
0.0
  0
SPLINE
  5
2FF
330
1F
100
AcDbEntity
  8
0
  6
Continuous
 62
     7
370
    15
100
AcDbSpline
210
0.0
220
0.0
230
1.0
 70
     8
 71
     3
 72
    23
 73
    19
 74
     0
 42
0.00000001
 43
0.00000001
 12
1.0
 22
0.0
 32
0.0
 13
1.0
 23
0.0
 33
0.0
 40
0.0
 40
0.0
 40
0.0
 40
0.0
 40
0.0649164428188418
 40
0.1317135264778498
 40
0.1967586320297721
 40
0.2636778193781755
 40
0.3288918257135643
 40
0.3959884818527274
 40
0.4613408807983381
 40
0.528590439078262
 40
0.5939301732350597
 40
0.6611714261802852
 40
0.7263488717092922
 40
0.7934270715452073
 40
0.8583657406648837
 40
0.9252010065875796
 40
0.9899329052392806
 40
0.9999999999999999
 40
0.9999999999999999
 40
0.9999999999999999
 40
0.9999999999999999
 10
-938.8168867955753
 20
-19.05156206901257
 30
0.0
 10
-939.013593180122
 20
-19.03422460974608
 30
0.0
 10
-939.4127045679976
 20
-18.99904742194897
 30
0.0
 10
-940.170357373817
 20
-18.93233959493384
 30
0.0
 10
-941.0286116572564
 20
-18.85687900291389
 30
0.0
 10
-941.9614767507416
 20
-18.77498216566678
 30
0.0
 10
-942.9556201745169
 20
-18.68780892915883
 30
0.0
 10
-943.966938263483
 20
-18.59928500621569
 30
0.0
 10
-944.9840308827457
 20
-18.510394292061
 30
0.0
 10
-945.9597942669649
 20
-18.42526032599848
 30
0.0
 10
-946.8833919284779
 20
-18.34477213045055
 30
0.0
 10
-947.7110060988731
 20
-18.27275723572186
 30
0.0
 10
-948.4346412151385
 20
-18.20987279507352
 30
0.0
 10
-949.0183841372746
 20
-18.15920453252087
 30
0.0
 10
-949.4627208543047
 20
-18.12062899460679
 30
0.0
 10
-949.7263714560069
 20
-18.09780459331248
 30
0.0
 10
-949.8397860939108
 20
-18.0879412695446
 30
0.0
 10
-949.8130166646912
 20
-18.09027243520639
 30
0.0
 10
-949.809413803632
 20
-18.09058618362133
 30
0.0
  0
LINE
  5
300
330
1F
100
AcDbEntity
  8
0
  6
Continuous
 62
     7
370
    15
100
AcDbLine
 10
-286.428317828
 20
0.2734409589
 30
0.0
 11
-286.428317828
 21
-7.652844308
 31
0.0
  0
SPLINE
  5
301
330
1F
100
AcDbEntity
  8
0
  6
Continuous
 62
     7
370
    15
100
AcDbSpline
210
0.0
220
0.0
230
1.0
 70
     8
 71
     3
 72
    13
 73
     9
 74
     0
 42
0.00000001
 43
0.00000001
 12
1.0
 22
0.0
 32
0.0
 13
1.0
 23
0.0
 33
0.0
 40
0.0
 40
0.0
 40
0.0
 40
0.0
 40
0.1323377546249013
 40
0.2646388603021
 40
0.3998958079809735
 40
0.5351320001044431
 40
0.7654369225803587
 40
0.9999999999999999
 40
0.9999999999999999
 40
0.9999999999999999
 40
0.9999999999999999
 10
-286.4283178279945
 20
-7.652844307972834
 30
0.0
 10
-286.6528151472669
 20
-7.775214970292654
 30
0.0
 10
-287.1017476146607
 20
-8.019922406220626
 30
0.0
 10
-287.7930142874625
 20
-8.283136029996891
 30
0.0
 10
-288.4974604396085
 20
-8.441775431757032
 30
0.0
 10
-289.3784363777577
 20
-8.480920781535783
 30
0.0
 10
-290.4335249259534
 20
-8.273750337394164
 30
0.0
 10
-291.2250715287092
 20
-7.861073015236641
 30
0.0
 10
-291.6244700829336
 20
-7.652844307972834
 30
0.0
  0
LINE
  5
302
330
1F
100
AcDbEntity
  8
0
  6
Continuous
 62
     7
370
    15
100
AcDbLine
 10
-291.6244700829
 20
0.2734409589
 30
0.0
 11
-291.6244700829
 21
-7.652844308
 31
0.0
  0
SPLINE
  5
303
330
1F
100
AcDbEntity
  8
0
  6
Continuous
 62
     7
370
    15
100
AcDbSpline
210
0.0
220
0.0
230
1.0
 70
     8
 71
     3
 72
    13
 73
     9
 74
     0
 42
0.00000001
 43
0.00000001
 12
1.0
 22
0.0
 32
0.0
 13
1.0
 23
0.0
 33
0.0
 40
0.0
 40
0.0
 40
0.0
 40
0.0
 40
0.1323377793672738
 40
0.2646389531497364
 40
0.3999007690026704
 40
0.5351369864104155
 40
0.7654372203303534
 40
0.9999999999999999
 40
0.9999999999999999
 40
0.9999999999999999
 40
0.9999999999999999
 10
-291.6244700829336
 20
0.273440958903387
 30
0.0
 10
-291.3999735788905
 20
0.3958114781867639
 30
0.0
 10
-290.9510426681575
 20
0.6405186681848196
 30
0.0
 10
-290.2597552314504
 20
0.9037376514485773
 30
0.0
 10
-289.5553438478412
 20
1.062368205799746
 30
0.0
 10
-288.6743598301264
 20
1.101523249661285
 30
0.0
 10
-287.6192475314814
 20
0.8943172949986422
 30
0.0
 10
-286.8277137100641
 20
0.4816610168840163
 30
0.0
 10
-286.4283178279945
 20
0.273440958903387
 30
0.0
  0
SPLINE
  5
304
330
1F
100
AcDbEntity
  8
0
  6
Continuous
 62
     7
370
    15
100
AcDbSpline
210
0.0
220
0.0
230
1.0
 70
     8
 71
     3
 72
    14
 73
    10
 74
     0
 42
0.00000001
 43
0.00000001
 12
1.0
 22
0.0
 32
0.0
 13
1.0
 23
0.0
 33
0.0
 40
0.0
 40
0.0
 40
0.0
 40
0.0
 40
0.1803118717664186
 40
0.3621157255874037
 40
0.4866234438851454
 40
0.6111286644915345
 40
0.7389516199586981
 40
0.8668084257222287
 40
1.0
 40
1.0
 40
1.0
 40
1.0
 10
-302.0167745928118
 20
0.273440958903387
 30
0.0
 10
-301.4038891887413
 20
0.4370355507984369
 30
0.0
 10
-300.1730470893126
 20
0.7655783903015301
 30
0.0
 10
-298.4758397421249
 20
1.01665125020331
 30
0.0
 10
-296.9616906932945
 20
1.094548023411884
 30
0.0
 10
-295.6356356435293
 20
1.051415585237359
 30
0.0
 10
-294.3068701005138
 20
0.894153583465146
 30
0.0
 10
-292.9622461223238
 20
0.6382438950249814
 30
0.0
 10
-292.0764295932913
 20
0.3966874153593647
 30
0.0
 10
-291.6244700829336
 20
0.273440958903387
 30
0.0
  0
SPLINE
  5
305
330
1F
100
AcDbEntity
  8
0
  6
Continuous
 62
     7
370
    15
100
AcDbSpline
210
0.0
220
0.0
230
1.0
 70
     8
 71
     3
 72
    13
 73
     9
 74
     0
 42
0.00000001
 43
0.00000001
 12
1.0
 22
0.0
 32
0.0
 13
1.0
 23
0.0
 33
0.0
 40
0.0
 40
0.0
 40
0.0
 40
0.0
 40
0.1323377785889752
 40
0.2646389082236114
 40
0.3998958803951741
 40
0.5351320970075744
 40
0.7654372002074727
 40
1.0
 40
1.0
 40
1.0
 40
1.0
 10
-307.2129268477509
 20
0.273440958903387
 30
0.0
 10
-306.9884295294137
 20
0.395811605638563
 30
0.0
 10
-306.5394970638902
 20
0.6405190104016301
 30
0.0
 10
-305.8482303769601
 20
0.9037328696054892
 30
0.0
 10
-305.1437842796556
 20
1.062371357509168
 30
0.0
 10
-304.2628078428777
 20
1.101520951930418
 30
0.0
 10
-303.207721255777
 20
0.8943231036844801
 30
0.0
 10
-302.416173393231
 20
0.4816615211994946
 30
0.0
 10
-302.0167745928118
 20
0.273440958903387
 30
0.0
  0
LINE
  5
306
330
1F
100
AcDbEntity
  8
0
  6
Continuous
 62
     7
370
    15
100
AcDbLine
 10
-305.0706222932
 20
1.5102969426
 30
0.0
 11
-288.5706223826
 21
1.5102969426
 31
0.0
  0
SPLINE
  5
307
330
1F
100
AcDbEntity
  8
0
  6
Continuous
 62
     7
370
    15
100
AcDbSpline
210
0.0
220
0.0
230
1.0
 70
     8
 71
     3
 72
    13
 73
     9
 74
     0
 42
0.00000001
 43
0.00000001
 12
1.0
 22
0.0
 32
0.0
 13
1.0
 23
0.0
 33
0.0
 40
0.0
 40
0.0
 40
0.0
 40
0.0
 40
0.1323377554035849
 40
0.264638905228987
 40
0.3999006965887483
 40
0.535136889507956
 40
0.7654369427025219
 40
1.0
 40
1.0
 40
1.0
 40
1.0
 10
-302.0167745928118
 20
-7.652844307972834
 30
0.0
 10
-302.2412710977902
 20
-7.775214842841244
 30
0.0
 10
-302.6902020103935
 20
-8.019922064005064
 30
0.0
 10
-303.3814894329715
 20
-8.283140811832013
 30
0.0
 10
-304.0859008714268
 20
-8.44177228009571
 30
0.0
 10
-304.9668843904939
 20
-8.480923079219549
 30
0.0
 10
-306.0219986502731
 20
-8.273744528725203
 30
0.0
 10
-306.8135312118898
 20
-7.861072510981948
 30
0.0
 10
-307.2129268477509
 20
-7.652844307972834
 30
0.0
  0
SPLINE
  5
308
330
1F
100
AcDbEntity
  8
0
  6
Continuous
 62
     7
370
    15
100
AcDbSpline
210
0.0
220
0.0
230
1.0
 70
     8
 71
     3
 72
    14
 73
    10
 74
     0
 42
0.00000001
 43
0.00000001
 12
1.0
 22
0.0
 32
0.0
 13
1.0
 23
0.0
 33
0.0
 40
0.0
 40
0.0
 40
0.0
 40
0.0
 40
0.1331916138185806
 40
0.2578379294071408
 40
0.3824531906620325
 40
0.5101672731060233
 40
0.6378834715350534
 40
0.8180583519511615
 40
1.0
 40
1.0
 40
1.0
 40
1.0
 10
-291.6244700829336
 20
-7.652844307972834
 30
0.0
 10
-292.07642816312
 20
-7.776098487888211
 30
0.0
 10
-292.9513476286414
 20
-8.014699114677338
 30
0.0
 10
-294.2734953689486
 20
-8.267535477731485
 30
0.0
 10
-295.5904957367404
 20
-8.427295446897492
 30
0.0
 10
-296.9277859873902
 20
-8.475134882827001
 30
0.0
 10
-298.4589380462606
 20
-8.398029397753303
 30
0.0
 10
-300.167391329192
 20
-8.146177395759292
 30
0.0
 10
-301.3983116170083
 20
-7.817822685108972
 30
0.0
 10
-302.0167745928118
 20
-7.652844307972834
 30
0.0
  0
LINE
  5
309
330
1F
100
AcDbEntity
  8
0
  6
Continuous
 62
     7
370
    15
100
AcDbLine
 10
-302.0167745928
 20
0.2734409589
 30
0.0
 11
-302.0167745928
 21
-7.652844308
 31
0.0
  0
LINE
  5
30A
330
1F
100
AcDbEntity
  8
0
  6
Continuous
 62
     7
370
    15
100
AcDbLine
 10
-307.2129268478
 20
0.2734409589
 30
0.0
 11
-307.2129268478
 21
-7.652844308
 31
0.0
  0
LINE
  5
30B
330
1F
100
AcDbEntity
  8
0
  6
Continuous
 62
     7
370
    15
100
AcDbLine
 10
-302.82062239
 20
36.6102950591
 30
0.0
 11
-290.8206222857
 21
36.6102950591
 31
0.0
  0
SPLINE
  5
30C
330
1F
100
AcDbEntity
  8
0
  6
Continuous
 62
     7
370
    15
100
AcDbSpline
210
0.0
220
0.0
230
1.0
 70
     8
 71
     3
 72
    11
 73
     7
 74
     0
 42
0.00000001
 43
0.00000001
 12
1.0
 22
0.0
 32
0.0
 13
1.0
 23
0.0
 33
0.0
 40
0.0
 40
0.0
 40
0.0
 40
0.0
 40
0.1510319011026806
 40
0.4255498251130205
 40
0.7076978437449232
 40
1.0
 40
1.0
 40
1.0
 40
1.0
 10
-937.842589272077
 20
-19.23794579322519
 30
0.0
 10
-937.8385092687042
 20
-19.2391288978761
 30
0.0
 10
-937.8270133879731
 20
-19.24246243187527
 30
0.0
 10
-937.9891694768927
 20
-19.19544053004293
 30
0.0
 10
-938.2981203117951
 20
-19.11618043570765
 30
0.0
 10
-938.6419388244495
 20
-19.07335386263112
 30
0.0
 10
-938.8168867955753
 20
-19.05156206901257
 30
0.0
  0
SPLINE
  5
30D
330
1F
100
AcDbEntity
  8
0
  6
Continuous
 62
     7
370
    15
100
AcDbSpline
210
0.0
220
0.0
230
1.0
 70
     8
 71
     3
 72
     9
 73
     5
 74
     0
 42
0.00000001
 43
0.00000001
 12
1.0
 22
0.0
 32
0.0
 13
1.0
 23
0.0
 33
0.0
 40
0.0
 40
0.0
 40
0.0
 40
0.0
 40
0.1097321226777488
 40
1.0
 40
1.0
 40
1.0
 40
1.0
 10
-888.5797675977299
 20
-19.12900340373699
 30
0.0
 10
-888.5767978077716
 20
-19.125898063485
 30
0.0
 10
-888.5497338096837
 20
-19.0975987817778
 30
0.0
 10
-888.6190698347586
 20
-19.07324418457096
 30
0.0
 10
-888.6807974706242
 20
-19.05156206901257
 30
0.0
  0
SPLINE
  5
30E
330
1F
100
AcDbEntity
  8
0
  6
Continuous
 62
     7
370
    15
100
AcDbSpline
210
0.0
220
0.0
230
1.0
 70
     8
 71
     3
 72
     9
 73
     5
 74
     0
 42
0.00000001
 43
0.00000001
 12
1.0
 22
0.0
 32
0.0
 13
1.0
 23
0.0
 33
0.0
 40
0.0
 40
0.0
 40
0.0
 40
0.0
 40
0.8626470795519157
 40
1.0
 40
1.0
 40
1.0
 40
1.0
 10
295.0395527948788
 20
-19.05156206901257
 30
0.0
 10
294.9796810613076
 20
-19.07244723800067
 30
0.0
 10
294.9102763939872
 20
-19.09665779812794
 30
0.0
 10
294.9371031633656
 20
-19.12501856290197
 30
0.0
 10
294.940787898486
 20
-19.12891399676983
 30
0.0
  0
SPLINE
  5
30F
330
1F
100
AcDbEntity
  8
0
  6
Continuous
 62
     7
370
    15
100
AcDbSpline
210
0.0
220
0.0
230
1.0
 70
     8
 71
     3
 72
    11
 73
     7
 74
     0
 42
0.00000001
 43
0.00000001
 12
1.0
 22
0.0
 32
0.0
 13
1.0
 23
0.0
 33
0.0
 40
0.0
 40
0.0
 40
0.0
 40
0.0
 40
0.2832410374020584
 40
0.5746226444640977
 40
0.8584290710066886
 40
1.0
 40
1.0
 40
1.0
 40
1.0
 10
345.1756421198299
 20
-19.05156206901257
 30
0.0
 10
345.0057439693326
 20
-19.07256200292715
 30
0.0
 10
344.6610646621822
 20
-19.11516542533456
 30
0.0
 10
344.3467078117324
 20
-19.19568314964565
 30
0.0
 10
344.1831423370102
 20
-19.24326896716896
 30
0.0
 10
344.196799365607
 20
-19.23927502677436
 30
0.0
 10
344.2013445963314
 20
-19.23794579322522
 30
0.0
  0
LINE
  5
310
330
1F
100
AcDbEntity
  8
0
  6
Continuous
 62
     7
370
    15
100
AcDbLine
 10
-930.4482158552
 20
-51.389704464
 30
0.0
 11
-900.5706724058
 21
-51.389704464
 31
0.0
  0
LINE
  5
311
330
1F
100
AcDbEntity
  8
0
  6
Continuous
 62
     7
370
    15
100
AcDbLine
 10
-888.5707076917
 20
-51.389704464
 30
0.0
 11
-760.3187080751
 21
-51.389704464
 31
0.0
  0
LINE
  5
312
330
1F
100
AcDbEntity
  8
0
  6
Continuous
 62
     7
370
    15
100
AcDbLine
 10
-748.3187135587
 20
-51.389704464
 30
0.0
 11
-550.4168089758
 21
-51.389704464
 31
0.0
  0
LINE
  5
313
330
1F
100
AcDbEntity
  8
0
  6
Continuous
 62
     7
370
    15
100
AcDbLine
 10
-538.4167995582
 20
-51.389704464
 30
0.0
 11
-302.82062239
 21
-51.389704464
 31
0.0
  0
LINE
  5
314
330
1F
100
AcDbEntity
  8
0
  6
Continuous
 62
     7
370
    15
100
AcDbLine
 10
-290.8206222857
 20
-51.389704464
 30
0.0
 11
-55.2244451175
 21
-51.389704464
 31
0.0
  0
LINE
  5
315
330
1F
100
AcDbEntity
  8
0
  6
Continuous
 62
     7
370
    15
100
AcDbLine
 10
-43.2244357
 20
-51.389704464
 30
0.0
 11
154.677468883
 21
-51.389704464
 31
0.0
  0
LINE
  5
316
330
1F
100
AcDbEntity
  8
0
  6
Continuous
 62
     7
370
    15
100
AcDbLine
 10
166.6774633994
 20
-51.389704464
 30
0.0
 11
294.929463016
 21
-51.389704464
 31
0.0
  0
LINE
  5
317
330
1F
100
AcDbEntity
  8
0
  6
Continuous
 62
     7
370
    15
100
AcDbLine
 10
306.92942773
 20
-51.389704464
 30
0.0
 11
336.8069711794
 21
-51.389704464
 31
0.0
  0
LINE
  5
318
330
1F
100
AcDbEntity
  8
0
  6
Continuous
 62
     7
370
    15
100
AcDbLine
 10
-61.2244423757
 20
-8.8897002917
 30
0.0
 11
-37.224453343
 21
-8.8897002917
 31
0.0
  0
LINE
  5
319
330
1F
100
AcDbEntity
  8
0
  6
Continuous
 62
     7
370
    15
100
AcDbLine
 10
-533.3302434812
 20
-8.8897002917
 30
0.0
 11
-532.4168023
 21
-8.8897002917
 31
0.0
  0
LINE
  5
31A
330
1F
100
AcDbEntity
  8
0
  6
Continuous
 62
     7
370
    15
100
AcDbLine
 10
-556.4167913328
 20
-8.8897002917
 30
0.0
 11
-533.3302434812
 21
-8.8897002917
 31
0.0
  0
SPLINE
  5
31B
330
1F
100
AcDbEntity
  8
0
  6
Continuous
 62
     7
370
    15
100
AcDbSpline
210
0.0
220
0.0
230
1.0
 70
     8
 71
     3
 72
    16
 73
    12
 74
     0
 42
0.00000001
 43
0.00000001
 12
1.0
 22
0.0
 32
0.0
 13
1.0
 23
0.0
 33
0.0
 40
0.0
 40
0.0
 40
0.0
 40
0.0
 40
0.2499999999999983
 40
0.2499999999999983
 40
0.4999999999999967
 40
0.4999999999999967
 40
0.6249999999999928
 40
0.6249999999999928
 40
0.7499999999999888
 40
0.7499999999999888
 40
1.0
 40
1.0
 40
1.0
 40
1.0
 10
-50.58090957752292
 20
-7.652843588800501
 30
0.0
 10
-51.25401737646104
 20
-7.897765333736984
 30
0.0
 10
-51.93203270764513
 20
-8.09962520308019
 30
0.0
 10
-53.30220392762048
 20
-8.379266504381533
 30
0.0
 10
-53.9944649398558
 20
-8.456125514959473
 30
0.0
 10
-55.04589911901917
 20
-8.456969253069158
 30
0.0
 10
-55.39802622376419
 20
-8.438179988540211
 30
0.0
 10
-56.09457078814476
 20
-8.364912094219301
 30
0.0
 10
-56.44050781399596
 20
-8.310507816706947
 30
0.0
 10
-57.4721599545942
 20
-8.100428033217922
 30
0.0
 10
-58.15174013100377
 20
-7.898068195795443
 30
0.0
 10
-58.82568694628998
 20
-7.652840821104262
 30
0.0
  0
SPLINE
  5
31C
330
1F
100
AcDbEntity
  8
0
  6
Continuous
 62
     7
370
    15
100
AcDbSpline
210
0.0
220
0.0
230
1.0
 70
     8
 71
     3
 72
    14
 73
    10
 74
     0
 42
0.00000001
 43
0.00000001
 12
1.0
 22
0.0
 32
0.0
 13
1.0
 23
0.0
 33
0.0
 40
0.0
 40
0.0
 40
0.0
 40
0.0
 40
0.1331924338848018
 40
0.2578391677893253
 40
0.3824530361111874
 40
0.5101671822453216
 40
0.6378820849833808
 40
0.8180579101658076
 40
1.0
 40
1.0
 40
1.0
 40
1.0
 10
-40.9796651731083
 20
-7.652844307972834
 30
0.0
 10
-41.39722766802317
 20
-7.776098480013288
 30
0.0
 10
-42.2055616179981
 20
-8.014698768472245
 30
0.0
 10
-43.42705781404466
 20
-8.267533718223058
 30
0.0
 10
-44.64378366202843
 20
-8.42729635943565
 30
0.0
 10
-45.87931017668567
 20
-8.475134945342688
 30
0.0
 10
-47.29389964653249
 20
-8.398028089762894
 30
0.0
 10
-48.87228898587651
 20
-8.146178124404962
 30
0.0
 10
-50.00952431337011
 20
-7.81782277495674
 30
0.0
 10
-50.58091546397897
 20
-7.652844307972834
 30
0.0
  0
SPLINE
  5
31D
330
1F
100
AcDbEntity
  8
0
  6
Continuous
 62
     7
370
    15
100
AcDbSpline
210
0.0
220
0.0
230
1.0
 70
     8
 71
     3
 72
    13
 73
     9
 74
     0
 42
0.00000001
 43
0.00000001
 12
1.0
 22
0.0
 32
0.0
 13
1.0
 23
0.0
 33
0.0
 40
0.0
 40
0.0
 40
0.0
 40
0.0
 40
0.1323412111298868
 40
0.2646423321714919
 40
0.3999008089885474
 40
0.5351343765452753
 40
0.7654381261754172
 40
1.0
 40
1.0
 40
1.0
 40
1.0
 10
-39.62321246963235
 20
-7.652844307972834
 30
0.0
 10
-39.68181534726517
 20
-7.775214343138187
 30
0.0
 10
-39.7990033499766
 20
-8.01991734394633
 30
0.0
 10
-39.97947901094284
 20
-8.28313824367316
 30
0.0
 10
-40.16336326813214
 20
-8.441773329563029
 30
0.0
 10
-40.39334840933251
 20
-8.480921333907487
 30
0.0
 10
-40.66876294551031
 20
-8.27374997093111
 30
0.0
 10
-40.87540017156726
 20
-7.861072889689014
 30
0.0
 10
-40.9796651731083
 20
-7.652844307972834
 30
0.0
  0
SPLINE
  5
31E
330
1F
100
AcDbEntity
  8
0
  6
Continuous
 62
     7
370
    15
100
AcDbSpline
210
0.0
220
0.0
230
1.0
 70
     8
 71
     3
 72
    10
 73
     6
 74
     0
 42
0.00000001
 43
0.00000001
 12
1.0
 22
0.0
 32
0.0
 13
1.0
 23
0.0
 33
0.0
 40
0.0
 40
0.0
 40
0.0
 40
0.0
 40
0.3413733363431549
 40
0.6826572498653306
 40
1.0
 40
1.0
 40
1.0
 40
1.0
 10
-58.82568324905129
 20
-7.652844307972834
 30
0.0
 10
-58.76707418957749
 20
-7.774659256090527
 30
0.0
 10
-58.64987142328593
 20
-8.018257242873222
 30
0.0
 10
-58.47500466649335
 20
-8.281556392510463
 30
0.0
 10
-58.35831178647891
 20
-8.365723168697492
 30
0.0
 10
-58.30208624702188
 20
-8.406276820256158
 30
0.0
  0
LINE
  5
31F
330
1F
100
AcDbEntity
  8
0
  6
Continuous
 62
     7
370
    15
100
AcDbLine
 10
-40.9796651731
 20
0.2734409589
 30
0.0
 11
-40.9796651731
 21
-7.652844308
 31
0.0
  0
LINE
  5
320
330
1F
100
AcDbEntity
  8
0
  6
Continuous
 62
     7
370
    15
100
AcDbLine
 10
-50.580915464
 20
0.2734409589
 30
0.0
 11
-50.580915464
 21
-7.652844308
 31
0.0
  0
SPLINE
  5
321
330
1F
100
AcDbEntity
  8
0
  6
Continuous
 62
     7
370
    15
100
AcDbSpline
210
0.0
220
0.0
230
1.0
 70
     8
 71
     3
 72
    14
 73
    10
 74
     0
 42
0.00000001
 43
0.00000001
 12
1.0
 22
0.0
 32
0.0
 13
1.0
 23
0.0
 33
0.0
 40
0.0
 40
0.0
 40
0.0
 40
0.0
 40
0.1803127299004884
 40
0.3621171055319634
 40
0.4866227617977438
 40
0.6111286673853858
 40
0.7389508101080602
 40
0.866807605149581
 40
1.0
 40
1.0
 40
1.0
 40
1.0
 10
-50.58091546397897
 20
0.273440958903387
 30
0.0
 10
-50.01467848504665
 20
0.4370355341645482
 30
0.0
 10
-48.87752030453818
 20
0.76557802867952
 30
0.0
 10
-47.30952512063455
 20
1.016649747940634
 30
0.0
 10
-45.91060948944003
 20
1.094548269081119
 30
0.0
 10
-44.68552665382963
 20
1.05141619495952
 30
0.0
 10
-43.45788011733575
 20
0.8941529678804239
 30
0.0
 10
-42.21563209765661
 20
0.638242793314564
 30
0.0
 10
-41.39722993798228
 20
0.3966872927542719
 30
0.0
 10
-40.9796651731083
 20
0.273440958903387
 30
0.0
  0
SPLINE
  5
322
330
1F
100
AcDbEntity
  8
0
  6
Continuous
 62
     7
370
    15
100
AcDbSpline
210
0.0
220
0.0
230
1.0
 70
     8
 71
     3
 72
    13
 73
     9
 74
     0
 42
0.00000001
 43
0.00000001
 12
1.0
 22
0.0
 32
0.0
 13
1.0
 23
0.0
 33
0.0
 40
0.0
 40
0.0
 40
0.0
 40
0.0
 40
0.1323358026400602
 40
0.2646369398873413
 40
0.3998954332723217
 40
0.5351346191861664
 40
0.7654329600463955
 40
1.0
 40
1.0
 40
1.0
 40
1.0
 10
-40.9796651731083
 20
0.273440958903387
 30
0.0
 10
-40.92106157470521
 20
0.3958118905985075
 30
0.0
 10
-40.80386972912464
 20
0.6405216988960849
 30
0.0
 10
-40.62339993734221
 20
0.9037340905782287
 30
0.0
 10
-40.43950868596219
 20
1.062371135098106
 30
0.0
 10
-40.20954111188024
 20
1.10152335725236
 30
0.0
 10
-39.93410376927403
 20
0.8943109247468717
 30
0.0
 10
-39.72747536871879
 20
0.4816606893016939
 30
0.0
 10
-39.62321246963235
 20
0.273440958903387
 30
0.0
  0
SPLINE
  5
323
330
1F
100
AcDbEntity
  8
0
  6
Continuous
 62
     7
370
    15
100
AcDbSpline
210
0.0
220
0.0
230
1.0
 70
     8
 71
     3
 72
    13
 73
     9
 74
     0
 42
0.00000001
 43
0.00000001
 12
1.0
 22
0.0
 32
0.0
 13
1.0
 23
0.0
 33
0.0
 40
0.0
 40
0.0
 40
0.0
 40
0.0
 40
0.1323386316836632
 40
0.2646383218692526
 40
0.3999002706096831
 40
0.5351342598285281
 40
0.7654375677287021
 40
1.0
 40
1.0
 40
1.0
 40
1.0
 10
-58.82568324905129
 20
0.273440958903387
 30
0.0
 10
-58.46947397235147
 20
0.3958110423526728
 30
0.0
 10
-57.75716023583466
 20
0.6405152010630077
 30
0.0
 10
-56.66027480223288
 20
0.90373968538221
 30
0.0
 10
-55.54258694899583
 20
1.062367144355175
 30
0.0
 10
-54.14468902716768
 20
1.101522678888661
 30
0.0
 10
-52.47059529656506
 20
0.8943208476387965
 30
0.0
 10
-51.21464443745935
 20
0.4816611916421965
 30
0.0
 10
-50.58091546397897
 20
0.273440958903387
 30
0.0
  0
SPLINE
  5
324
330
1F
100
AcDbEntity
  8
0
  6
Continuous
 62
     7
370
    15
100
AcDbSpline
210
0.0
220
0.0
230
1.0
 70
     8
 71
     3
 72
     9
 73
     5
 74
     0
 42
0.00000001
 43
0.00000001
 12
1.0
 22
0.0
 32
0.0
 13
1.0
 23
0.0
 33
0.0
 40
0.0
 40
0.0
 40
0.0
 40
0.0
 40
0.3942800803519788
 40
1.0
 40
1.0
 40
1.0
 40
1.0
 10
-58.30201174121588
 20
0.9923623818617888
 30
0.0
 10
-58.37202657969848
 20
0.9531034564942975
 30
0.0
 10
-58.54960298279791
 20
0.8535322954749125
 30
0.0
 10
-58.72153848840831
 20
0.4922667164200534
 30
0.0
 10
-58.82568324905129
 20
0.273440958903387
 30
0.0
  0
LINE
  5
325
330
1F
100
AcDbEntity
  8
0
  6
Continuous
 62
     7
370
    15
100
AcDbLine
 10
-57.474445952
 20
1.5102969426
 30
0.0
 11
-40.9744497667
 21
1.5102969426
 31
0.0
  0
LINE
  5
326
330
1F
100
AcDbEntity
  8
0
  6
Continuous
 62
     7
370
    15
100
AcDbLine
 10
-543.0603292118
 20
0.2734409589
 30
0.0
 11
-543.0603292118
 21
-7.652844308
 31
0.0
  0
SPLINE
  5
327
330
1F
100
AcDbEntity
  8
0
  6
Continuous
 62
     7
370
    15
100
AcDbSpline
210
0.0
220
0.0
230
1.0
 70
     8
 71
     3
 72
    14
 73
    10
 74
     0
 42
0.00000001
 43
0.00000001
 12
1.0
 22
0.0
 32
0.0
 13
1.0
 23
0.0
 33
0.0
 40
0.0
 40
0.0
 40
0.0
 40
0.0
 40
0.1331911644239293
 40
0.2578378928429333
 40
0.3824543477114502
 40
0.5101658796244898
 40
0.6378842401296463
 40
0.8180579181728116
 40
1.0
 40
1.0
 40
1.0
 40
1.0
 10
-543.0603292117664
 20
-7.652844307972834
 30
0.0
 10
-543.4778866275201
 20
-7.776098620273814
 30
0.0
 10
-544.2862144523012
 20
-8.014700274557251
 30
0.0
 10
-545.5077138676984
 20
-8.267536101343897
 30
0.0
 10
-546.7244470259216
 20
-8.4272937547131
 30
0.0
 10
-547.9599847026693
 20
-8.475134692446401
 30
0.0
 10
-549.3745313499196
 20
-8.398031370609294
 30
0.0
 10
-550.9529698201646
 20
-8.146175205288625
 30
0.0
 10
-552.0901917220857
 20
-7.817822447442779
 30
0.0
 10
-552.6615795026372
 20
-7.652844307972806
 30
0.0
  0
LINE
  5
328
330
1F
100
AcDbEntity
  8
0
  6
Continuous
 62
     7
370
    15
100
AcDbLine
 10
-552.6615795026
 20
0.2734409589
 30
0.0
 11
-552.6615795026
 21
-7.652844308
 31
0.0
  0
SPLINE
  5
329
330
1F
100
AcDbEntity
  8
0
  6
Continuous
 62
     7
370
    15
100
AcDbSpline
210
0.0
220
0.0
230
1.0
 70
     8
 71
     3
 72
    14
 73
    10
 74
     0
 42
0.00000001
 43
0.00000001
 12
1.0
 22
0.0
 32
0.0
 13
1.0
 23
0.0
 33
0.0
 40
0.0
 40
0.0
 40
0.0
 40
0.0
 40
0.1803127216357555
 40
0.3621149499205152
 40
0.4866240635730956
 40
0.6111299634539411
 40
0.7389508038323992
 40
0.8668088748534243
 40
1.0
 40
1.0
 40
1.0
 40
1.0
 10
-552.6615795026371
 20
0.273440958903387
 30
0.0
 10
-552.0953459489817
 20
0.437035161221816
 30
0.0
 10
-550.958201364478
 20
0.7655749660809008
 30
0.0
 10
-549.3901557001226
 20
1.016653550771351
 30
0.0
 10
-547.9912777987194
 20
1.094547213874753
 30
0.0
 10
-546.7661767606322
 20
1.051417672422256
 30
0.0
 10
-545.5385384479299
 20
0.89414976778876
 30
0.0
 10
-544.296287222701
 20
0.6382467020255855
 30
0.0
 10
-543.4778883228223
 20
0.3966878333590829
 30
0.0
 10
-543.0603292117664
 20
0.273440958903387
 30
0.0
  0
SPLINE
  5
32A
330
1F
100
AcDbEntity
  8
0
  6
Continuous
 62
     7
370
    15
100
AcDbSpline
210
0.0
220
0.0
230
1.0
 70
     8
 71
     3
 72
    13
 73
     9
 74
     0
 42
0.00000001
 43
0.00000001
 12
1.0
 22
0.0
 32
0.0
 13
1.0
 23
0.0
 33
0.0
 40
0.0
 40
0.0
 40
0.0
 40
0.0
 40
0.132335778677807
 40
0.2646368919691118
 40
0.3998953608626228
 40
0.5351345222884941
 40
0.7654326824253391
 40
1.0
 40
1.0
 40
1.0
 40
1.0
 10
-552.6615795026371
 20
-7.652844307972834
 30
0.0
 10
-552.7201831012844
 20
-7.775215255252737
 30
0.0
 10
-552.8373749473532
 20
-8.019925094715912
 30
0.0
 10
-553.0178447354472
 20
-8.283137250962275
 30
0.0
 10
-553.2017360011445
 20
-8.441775209385938
 30
0.0
 10
-553.4317034450578
 20
-8.480923186721778
 30
0.0
 10
-553.7071412996024
 20
-8.27373815851995
 30
0.0
 10
-553.9137693712988
 20
-7.861072183478507
 30
0.0
 10
-554.018032206113
 20
-7.652844307972834
 30
0.0
  0
SPLINE
  5
32B
330
1F
100
AcDbEntity
  8
0
  6
Continuous
 62
     7
370
    15
100
AcDbSpline
210
0.0
220
0.0
230
1.0
 70
     8
 71
     3
 72
    16
 73
    12
 74
     0
 42
0.00000001
 43
0.00000001
 12
1.0
 22
0.0
 32
0.0
 13
1.0
 23
0.0
 33
0.0
 40
0.0
 40
0.0
 40
0.0
 40
0.0
 40
0.2500000000000029
 40
0.2500000000000029
 40
0.5000000000000058
 40
0.5000000000000058
 40
0.6250000000000072
 40
0.6250000000000072
 40
0.7500000000000087
 40
0.7500000000000087
 40
1.0
 40
1.0
 40
1.0
 40
1.0
 10
-534.8155576710395
 20
-7.652840799847239
 30
0.0
 10
-535.4886654382618
 20
-7.897762874780473
 30
0.0
 10
-536.1666807298187
 20
-8.099623143538349
 30
0.0
 10
-537.5368518542439
 20
-8.379265386662421
 30
0.0
 10
-538.2291128104118
 20
-8.45612494091169
 30
0.0
 10
-539.2805469013724
 20
-8.45696953052305
 30
0.0
 10
-539.6326740562238
 20
-8.438180550978197
 30
0.0
 10
-540.3292186967801
 20
-8.364913191157397
 30
0.0
 10
-540.6751557588286
 20
-8.310509166507913
 30
0.0
 10
-541.706808000741
 20
-8.100430086228737
 30
0.0
 10
-542.3863882347152
 20
-7.898070641682631
 30
0.0
 10
-543.0603350982268
 20
-7.652843588800307
 30
0.0
  0
SPLINE
  5
32C
330
1F
100
AcDbEntity
  8
0
  6
Continuous
 62
     7
370
    15
100
AcDbSpline
210
0.0
220
0.0
230
1.0
 70
     8
 71
     3
 72
     9
 73
     5
 74
     0
 42
0.00000001
 43
0.00000001
 12
1.0
 22
0.0
 32
0.0
 13
1.0
 23
0.0
 33
0.0
 40
0.0
 40
0.0
 40
0.0
 40
0.0
 40
0.3942795369706712
 40
0.9999999999999999
 40
0.9999999999999999
 40
0.9999999999999999
 40
0.9999999999999999
 10
-535.3392329345295
 20
-8.371765730931207
 30
0.0
 10
-535.2692180658414
 20
-8.332513315976536
 30
0.0
 10
-535.0916413414035
 20
-8.232958529907187
 30
0.0
 10
-534.9197061129089
 20
-7.871678820710548
 30
0.0
 10
-534.8155614266941
 20
-7.652844307972834
 30
0.0
  0
SPLINE
  5
32D
330
1F
100
AcDbEntity
  8
0
  6
Continuous
 62
     7
370
    15
100
AcDbSpline
210
0.0
220
0.0
230
1.0
 70
     8
 71
     3
 72
    10
 73
     6
 74
     0
 42
0.00000001
 43
0.00000001
 12
1.0
 22
0.0
 32
0.0
 13
1.0
 23
0.0
 33
0.0
 40
0.0
 40
0.0
 40
0.0
 40
0.0
 40
0.3413734728728933
 40
0.6826575228890434
 40
1.0
 40
1.0
 40
1.0
 40
1.0
 10
-534.8155614266941
 20
0.273440958903387
 30
0.0
 10
-534.8741704914589
 20
0.3952555400777158
 30
0.0
 10
-534.9913732683309
 20
0.6388527930698829
 30
0.0
 10
-535.1662398777041
 20
0.9021572110726184
 30
0.0
 10
-535.2829328712718
 20
0.9863111366773258
 30
0.0
 10
-535.3391584287235
 20
1.026858570025518
 30
0.0
  0
SPLINE
  5
32E
330
1F
100
AcDbEntity
  8
0
  6
Continuous
 62
     7
370
    15
100
AcDbSpline
210
0.0
220
0.0
230
1.0
 70
     8
 71
     3
 72
    13
 73
     9
 74
     0
 42
0.00000001
 43
0.00000001
 12
1.0
 22
0.0
 32
0.0
 13
1.0
 23
0.0
 33
0.0
 40
0.0
 40
0.0
 40
0.0
 40
0.0
 40
0.1323375415643496
 40
0.26463832789031
 40
0.3998957378003086
 40
0.5351331616178575
 40
0.7654375764423291
 40
1.0
 40
1.0
 40
1.0
 40
1.0
 10
-543.0603292117664
 20
0.273440958903387
 30
0.0
 10
-542.7041252042864
 20
0.3958115652705763
 30
0.0
 10
-541.9918161209148
 20
0.6405187909688248
 30
0.0
 10
-540.8949443603922
 20
0.9037336803876805
 30
0.0
 10
-539.7772080989895
 20
1.062371447342586
 30
0.0
 10
-538.3793796913452
 20
1.101521223924901
 30
0.0
 10
-536.7052353764242
 20
0.8943228358859467
 30
0.0
 10
-535.4492874165865
 20
0.4816615263474044
 30
0.0
 10
-534.8155614266941
 20
0.273440958903387
 30
0.0
  0
SPLINE
  5
32F
330
1F
100
AcDbEntity
  8
0
  6
Continuous
 62
     7
370
    15
100
AcDbSpline
210
0.0
220
0.0
230
1.0
 70
     8
 71
     3
 72
    13
 73
     9
 74
     0
 42
0.00000001
 43
0.00000001
 12
1.0
 22
0.0
 32
0.0
 13
1.0
 23
0.0
 33
0.0
 40
0.0
 40
0.0
 40
0.0
 40
0.0
 40
0.1323412350945561
 40
0.2646423800935711
 40
0.3999008814035613
 40
0.5351344734487136
 40
0.7654384038023864
 40
1.0
 40
1.0
 40
1.0
 40
1.0
 10
-554.018032206113
 20
0.273440958903387
 30
0.0
 10
-553.9594293287245
 20
0.3958109784834019
 30
0.0
 10
-553.8422413265012
 20
0.6405139481255595
 30
0.0
 10
-553.6617656618469
 20
0.9037350832836188
 30
0.0
 10
-553.4778814189737
 20
1.06236925530781
 30
0.0
 10
-553.2478961476066
 20
1.101521504243169
 30
0.0
 10
-552.9724821233681
 20
0.8943227372149587
 30
0.0
 10
-552.7658445684442
 20
0.4816613956494242
 30
0.0
 10
-552.6615795026371
 20
0.273440958903387
 30
0.0
  0
LINE
  5
330
330
1F
100
AcDbEntity
  8
0
  6
Continuous
 62
     7
370
    15
100
AcDbLine
 10
-552.6667949091
 20
1.5102969426
 30
0.0
 11
-536.1667987238
 21
1.5102969426
 31
0.0
  0
LINE
  5
331
330
1F
100
AcDbEntity
  8
0
  6
Continuous
 62
     7
370
    15
100
AcDbLine
 10
-58.8256832491
 20
0.2734409589
 30
0.0
 11
-58.8256832491
 21
-7.652844308
 31
0.0
  0
LINE
  5
332
330
1F
100
AcDbEntity
  8
0
  6
Continuous
 62
     7
370
    15
100
AcDbLine
 10
-534.8155614267
 20
0.2734409589
 30
0.0
 11
-534.8155614267
 21
-7.652844308
 31
0.0
  0
LINE
  5
333
330
1F
100
AcDbEntity
  8
0
  6
Continuous
 62
     7
370
    15
100
AcDbLine
 10
-39.6232124696
 20
0.2734409589
 30
0.0
 11
-39.6232124696
 21
-7.652844308
 31
0.0
  0
LINE
  5
334
330
1F
100
AcDbEntity
  8
0
  6
Continuous
 62
     7
370
    15
100
AcDbLine
 10
-554.0180322061
 20
0.2734409589
 30
0.0
 11
-554.0180322061
 21
-7.652844308
 31
0.0
  0
LINE
  5
335
330
1F
100
AcDbEntity
  8
0
  6
Continuous
 62
     7
370
    15
100
AcDbLine
 10
-55.2244451175
 20
36.6102950591
 30
0.0
 11
-43.2244357
 21
36.6102950591
 31
0.0
  0
LINE
  5
336
330
1F
100
AcDbEntity
  8
0
  6
Continuous
 62
     7
370
    15
100
AcDbLine
 10
-550.4168089758
 20
36.6102950591
 30
0.0
 11
-538.4167995582
 21
36.6102950591
 31
0.0
  0
LINE
  5
337
330
1F
100
AcDbEntity
  8
0
  6
Continuous
 62
     7
370
    15
100
AcDbLine
 10
148.6774567236
 20
-8.8897002917
 30
0.0
 11
172.6774755587
 21
-8.8897002917
 31
0.0
  0
LINE
  5
338
330
1F
100
AcDbEntity
  8
0
  6
Continuous
 62
     7
370
    15
100
AcDbLine
 10
-745.8334382902
 20
-8.8897002917
 30
0.0
 11
-742.3187013994
 21
-8.8897002917
 31
0.0
  0
LINE
  5
339
330
1F
100
AcDbEntity
  8
0
  6
Continuous
 62
     7
370
    15
100
AcDbLine
 10
-766.3187202344
 20
-8.8897002917
 30
0.0
 11
-745.8334382902
 21
-8.8897002917
 31
0.0
  0
LINE
  5
33A
330
1F
100
AcDbEntity
  8
0
  6
Continuous
 62
     7
370
    15
100
AcDbLine
 10
163.3672002425
 20
0.2734409589
 30
0.0
 11
163.3672002425
 21
-7.652844308
 31
0.0
  0
SPLINE
  5
33B
330
1F
100
AcDbEntity
  8
0
  6
Continuous
 62
     7
370
    15
100
AcDbSpline
210
0.0
220
0.0
230
1.0
 70
     8
 71
     3
 72
    13
 73
     9
 74
     0
 42
0.00000001
 43
0.00000001
 12
1.0
 22
0.0
 32
0.0
 13
1.0
 23
0.0
 33
0.0
 40
0.0
 40
0.0
 40
0.0
 40
0.0
 40
0.1323391194338495
 40
0.2646389162478455
 40
0.3998983345457269
 40
0.535132844405416
 40
0.7654363399934315
 40
1.0
 40
1.0
 40
1.0
 40
1.0
 10
163.3672002424648
 20
-7.652844307972834
 30
0.0
 10
162.9335014052623
 20
-7.775214412070325
 30
0.0
 10
162.0662325980782
 20
-8.019918259791508
 30
0.0
 10
160.7307626781902
 20
-8.28314034108546
 30
0.0
 10
159.3699384133108
 20
-8.441772894781819
 30
0.0
 10
157.6680102309107
 20
-8.480921926919127
 30
0.0
 10
155.6297181372717
 20
-8.273747666644905
 30
0.0
 10
154.1005793232809
 20
-7.861072714659939
 30
0.0
 10
153.329003201907
 20
-7.652844307972806
 30
0.0
  0
LINE
  5
33C
330
1F
100
AcDbEntity
  8
0
  6
Continuous
 62
     7
370
    15
100
AcDbLine
 10
153.3290032019
 20
0.2734409589
 30
0.0
 11
153.3290032019
 21
-7.652844308
 31
0.0
  0
SPLINE
  5
33D
330
1F
100
AcDbEntity
  8
0
  6
Continuous
 62
     7
370
    15
100
AcDbSpline
210
0.0
220
0.0
230
1.0
 70
     8
 71
     3
 72
    13
 73
     9
 74
     0
 42
0.00000001
 43
0.00000001
 12
1.0
 22
0.0
 32
0.0
 13
1.0
 23
0.0
 33
0.0
 40
0.0
 40
0.0
 40
0.0
 40
0.0
 40
0.1323364890878311
 40
0.2646370164745152
 40
0.3998964472378827
 40
0.535132967182744
 40
0.7654373508267818
 40
1.0
 40
1.0
 40
1.0
 40
1.0
 10
153.3290032019069
 20
0.273440958903387
 30
0.0
 10
153.7626925487089
 20
0.3958116402045242
 30
0.0
 10
154.629953389657
 20
0.6405197492581616
 30
0.0
 10
155.9654071453977
 20
0.9037357475732977
 30
0.0
 10
157.3262389449495
 20
1.062369921529055
 30
0.0
 10
159.0281973512167
 20
1.101521737029154
 30
0.0
 10
161.0664711729374
 20
0.8943223017734148
 30
0.0
 10
162.5956214555275
 20
0.4816614224550098
 30
0.0
 10
163.3672002424648
 20
0.273440958903387
 30
0.0
  0
SPLINE
  5
33E
330
1F
100
AcDbEntity
  8
0
  6
Continuous
 62
     7
370
    15
100
AcDbSpline
210
0.0
220
0.0
230
1.0
 70
     8
 71
     3
 72
    10
 73
     6
 74
     0
 42
0.00000001
 43
0.00000001
 12
1.0
 22
0.0
 32
0.0
 13
1.0
 23
0.0
 33
0.0
 40
0.0
 40
0.0
 40
0.0
 40
0.0
 40
0.4890221681243299
 40
0.977899030515182
 40
1.0
 40
1.0
 40
1.0
 40
1.0
 10
170.715648280566
 20
0.273440958903387
 30
0.0
 10
170.5993454526235
 20
0.3933262191883058
 30
0.0
 10
170.3667743544104
 20
0.6330611176190437
 30
0.0
 10
170.1255866736919
 20
0.8365909297957941
 30
0.0
 10
170.0003838321853
 20
0.889134389003482
 30
0.0
 10
169.9949685205868
 20
0.8914070147734432
 30
0.0
  0
SPLINE
  5
33F
330
1F
100
AcDbEntity
  8
0
  6
Continuous
 62
     7
370
    15
100
AcDbSpline
210
0.0
220
0.0
230
1.0
 70
     8
 71
     3
 72
    16
 73
    12
 74
     0
 42
0.00000001
 43
0.00000001
 12
1.0
 22
0.0
 32
0.0
 13
1.0
 23
0.0
 33
0.0
 40
0.0
 40
0.0
 40
0.0
 40
0.0
 40
0.2499999999999997
 40
0.2499999999999997
 40
0.4999999999999993
 40
0.4999999999999993
 40
0.6249999999999991
 40
0.6249999999999991
 40
0.749999999999999
 40
0.749999999999999
 40
1.0
 40
1.0
 40
1.0
 40
1.0
 10
170.7156499473997
 20
0.2734402567112493
 30
0.0
 10
170.118036627943
 20
0.517414335518912
 30
0.0
 10
169.5058056079303
 20
0.722107169507713
 30
0.0
 10
168.2783529678114
 20
1.001959336523889
 30
0.0
 10
167.6613050558988
 20
1.077367450596972
 30
0.0
 10
166.7299033169401
 20
1.077241312670618
 30
0.0
 10
166.4184759445281
 20
1.058549959791016
 30
0.0
 10
165.793727044705
 20
0.9843755469960414
 30
0.0
 10
165.4832324088549
 20
0.9291996179934814
 30
0.0
 10
164.5628626767866
 20
0.7178637685867351
 30
0.0
 10
163.9611106498701
 20
0.5159017965364887
 30
0.0
 10
163.3672022415613
 20
0.2734402354650778
 30
0.0
  0
SPLINE
  5
340
330
1F
100
AcDbEntity
  8
0
  6
Continuous
 62
     7
370
    15
100
AcDbSpline
210
0.0
220
0.0
230
1.0
 70
     8
 71
     3
 72
    13
 73
     9
 74
     0
 42
0.00000001
 43
0.00000001
 12
1.0
 22
0.0
 32
0.0
 13
1.0
 23
0.0
 33
0.0
 40
0.0
 40
0.0
 40
0.0
 40
0.0
 40
0.132338433995059
 40
0.2646389717772522
 40
0.3998984131686244
 40
0.5351329461175516
 40
0.7654366200471011
 40
1.0
 40
1.0
 40
1.0
 40
1.0
 10
150.6392840017727
 20
0.273440958903387
 30
0.0
 10
150.7554791432592
 20
0.3958113098723737
 30
0.0
 10
150.9878361527858
 20
0.6405169700411661
 30
0.0
 10
151.3456907698332
 20
0.9037361628641272
 30
0.0
 10
151.7103149025035
 20
1.062369015707026
 30
0.0
 10
152.1663934476818
 20
1.101522003204181
 30
0.0
 10
152.7124968258713
 20
0.8943204619216716
 30
0.0
 10
153.1222495172946
 20
0.481661230321756
 30
0.0
 10
153.3290032019069
 20
0.273440958903387
 30
0.0
  0
LINE
  5
341
330
1F
100
AcDbEntity
  8
0
  6
Continuous
 62
     7
370
    15
100
AcDbLine
 10
152.4274531474
 20
1.5102969426
 30
0.0
 11
168.927479135
 21
1.5102969426
 31
0.0
  0
SPLINE
  5
342
330
1F
100
AcDbEntity
  8
0
  6
Continuous
 62
     7
370
    15
100
AcDbSpline
210
0.0
220
0.0
230
1.0
 70
     8
 71
     3
 72
    16
 73
    12
 74
     0
 42
0.00000001
 43
0.00000001
 12
1.0
 22
0.0
 32
0.0
 13
1.0
 23
0.0
 33
0.0
 40
0.0
 40
0.0
 40
0.0
 40
0.0
 40
0.25
 40
0.25
 40
0.5
 40
0.5
 40
0.625
 40
0.625
 40
0.75
 40
0.75
 40
1.0
 40
1.0
 40
1.0
 40
1.0
 10
170.7156510272315
 20
-7.652847551844006
 30
0.0
 10
170.1180375650031
 20
-7.89682174271486
 30
0.0
 10
169.5058063942172
 20
-8.101514682408995
 30
0.0
 10
168.2783534381253
 20
-8.381367009067443
 30
0.0
 10
167.6613053667716
 20
-8.456775174709247
 30
0.0
 10
166.7299033855865
 20
-8.456649054601833
 30
0.0
 10
166.4184759319311
 20
-8.437957697928184
 30
0.0
 10
165.7937268686358
 20
-8.363783258401813
 30
0.0
 10
165.4832321538837
 20
-8.308607306998672
 30
0.0
 10
164.5628621879919
 20
-8.097271369159802
 30
0.0
 10
163.9611100105534
 20
-7.89530931047705
 30
0.0
 10
163.3672014541969
 20
-7.652847649996907
 30
0.0
  0
SPLINE
  5
343
330
1F
100
AcDbEntity
  8
0
  6
Continuous
 62
     7
370
    15
100
AcDbSpline
210
0.0
220
0.0
230
1.0
 70
     8
 71
     3
 72
     9
 73
     5
 74
     0
 42
0.00000001
 43
0.00000001
 12
1.0
 22
0.0
 32
0.0
 13
1.0
 23
0.0
 33
0.0
 40
0.0
 40
0.0
 40
0.0
 40
0.0
 40
0.1319342355743021
 40
1.0
 40
1.0
 40
1.0
 40
1.0
 10
169.9951771368435
 20
-8.250306366040155
 30
0.0
 10
170.0275086513929
 20
-8.23903801665335
 30
0.0
 10
170.272566459237
 20
-8.153629181427563
 30
0.0
 10
170.5097539446921
 20
-7.8855524985873
 30
0.0
 10
170.715648280566
 20
-7.652844307972834
 30
0.0
  0
SPLINE
  5
344
330
1F
100
AcDbEntity
  8
0
  6
Continuous
 62
     7
370
    15
100
AcDbSpline
210
0.0
220
0.0
230
1.0
 70
     8
 71
     3
 72
    13
 73
     9
 74
     0
 42
0.00000001
 43
0.00000001
 12
1.0
 22
0.0
 32
0.0
 13
1.0
 23
0.0
 33
0.0
 40
0.0
 40
0.0
 40
0.0
 40
0.0
 40
0.1323364651240083
 40
0.2646369685533815
 40
0.3998963748236325
 40
0.5351328702795262
 40
0.7654370731992338
 40
1.0
 40
1.0
 40
1.0
 40
1.0
 10
153.3290032019069
 20
-7.652844307972834
 30
0.0
 10
153.2127947140754
 20
-7.775215004858449
 30
0.0
 10
152.9804093174191
 20
-8.019923145076795
 30
0.0
 10
152.6225726794377
 20
-8.283138907963227
 30
0.0
 10
152.2579266062033
 20
-8.441773995795682
 30
0.0
 10
151.8019249493218
 20
-8.480921566619697
 30
0.0
 10
151.2557361993011
 20
-8.273749535481379
 30
0.0
 10
150.8460192290293
 20
-7.861072916498291
 30
0.0
 10
150.6392840017727
 20
-7.652844307972834
 30
0.0
  0
SPLINE
  5
345
330
1F
100
AcDbEntity
  8
0
  6
Continuous
 62
     7
370
    15
100
AcDbSpline
210
0.0
220
0.0
230
1.0
 70
     8
 71
     3
 72
    13
 73
     9
 74
     0
 42
0.00000001
 43
0.00000001
 12
1.0
 22
0.0
 32
0.0
 13
1.0
 23
0.0
 33
0.0
 40
0.0
 40
0.0
 40
0.0
 40
0.0
 40
0.1323364890878311
 40
0.2646370164745152
 40
0.3998964472378827
 40
0.535132967182744
 40
0.7654373508267818
 40
1.0
 40
1.0
 40
1.0
 40
1.0
 10
-746.9702478776524
 20
0.273440958903387
 30
0.0
 10
-746.8540393903049
 20
0.3958116402045242
 30
0.0
 10
-746.6216539946166
 20
0.6405197492581616
 30
0.0
 10
-746.2638173493222
 20
0.9037357475732977
 30
0.0
 10
-745.8991713044767
 20
1.062369921529055
 30
0.0
 10
-745.4431693894892
 20
1.101521737029154
 30
0.0
 10
-744.8969816546082
 20
0.8943223017734148
 30
0.0
 10
-744.4872640322225
 20
0.4816614224550098
 30
0.0
 10
-744.2805286775181
 20
0.273440958903387
 30
0.0
  0
SPLINE
  5
346
330
1F
100
AcDbEntity
  8
0
  6
Continuous
 62
     7
370
    15
100
AcDbSpline
210
0.0
220
0.0
230
1.0
 70
     8
 71
     3
 72
    13
 73
     9
 74
     0
 42
0.00000001
 43
0.00000001
 12
1.0
 22
0.0
 32
0.0
 13
1.0
 23
0.0
 33
0.0
 40
0.0
 40
0.0
 40
0.0
 40
0.0
 40
0.1323391433979684
 40
0.2646389641689626
 40
0.399898406959774
 40
0.5351329413078825
 40
0.7654366176202304
 40
1.0
 40
1.0
 40
1.0
 40
1.0
 10
-757.0084449182102
 20
0.273440958903387
 30
0.0
 10
-756.5747460828145
 20
0.3958110474159837
 30
0.0
 10
-755.7074772792431
 20
0.6405148639719027
 30
0.0
 10
-754.3720073320619
 20
0.9037371806943639
 30
0.0
 10
-753.0111831731299
 20
1.062368820518966
 30
0.0
 10
-751.309254027446
 20
1.101522097274626
 30
0.0
 10
-749.2709657223677
 20
0.8943204329161236
 30
0.0
 10
-747.7418244746488
 20
0.4816612205943427
 30
0.0
 10
-746.9702478776525
 20
0.2734409589034148
 30
0.0
  0
SPLINE
  5
347
330
1F
100
AcDbEntity
  8
0
  6
Continuous
 62
     7
370
    15
100
AcDbSpline
210
0.0
220
0.0
230
1.0
 70
     8
 71
     3
 72
    16
 73
    12
 74
     0
 42
0.00000001
 43
0.00000001
 12
1.0
 22
0.0
 32
0.0
 13
1.0
 23
0.0
 33
0.0
 40
0.0
 40
0.0
 40
0.0
 40
0.0
 40
0.2499999999999945
 40
0.2499999999999945
 40
0.499999999999989
 40
0.499999999999989
 40
0.6249999999999862
 40
0.6249999999999862
 40
0.7499999999999836
 40
0.7499999999999836
 40
1.0
 40
1.0
 40
1.0
 40
1.0
 10
-757.0084469693508
 20
0.2734402567106664
 30
0.0
 10
-757.6060602888073
 20
0.5174143355184124
 30
0.0
 10
-758.2182913088202
 20
0.7221071695073522
 30
0.0
 10
-759.4457439489388
 20
1.001959336523667
 30
0.0
 10
-760.0627918608516
 20
1.077367450596833
 30
0.0
 10
-760.9941935998104
 20
1.077241312670701
 30
0.0
 10
-761.3056209722223
 20
1.058549959791238
 30
0.0
 10
-761.9303698720454
 20
0.9843755469961524
 30
0.0
 10
-762.2408645078957
 20
0.9291996179937589
 30
0.0
 10
-763.1612342399641
 20
0.7178637685872347
 30
0.0
 10
-763.7629862668805
 20
0.5159017965370716
 30
0.0
 10
-764.3568946751891
 20
0.2734402354656884
 30
0.0
  0
SPLINE
  5
348
330
1F
100
AcDbEntity
  8
0
  6
Continuous
 62
     7
370
    15
100
AcDbSpline
210
0.0
220
0.0
230
1.0
 70
     8
 71
     3
 72
     9
 73
     5
 74
     0
 42
0.00000001
 43
0.00000001
 12
1.0
 22
0.0
 32
0.0
 13
1.0
 23
0.0
 33
0.0
 40
0.0
 40
0.0
 40
0.0
 40
0.0
 40
0.1319348384346089
 40
1.0
 40
1.0
 40
1.0
 40
1.0
 10
-763.6364218125889
 20
0.8709030169707088
 30
0.0
 10
-763.6687533163762
 20
0.859629337768758
 30
0.0
 10
-763.9138099228875
 20
0.7741804954790044
 30
0.0
 10
-764.1509981337381
 20
0.5061279955565212
 30
0.0
 10
-764.3568929563114
 20
0.273440958903387
 30
0.0
  0
LINE
  5
349
330
1F
100
AcDbEntity
  8
0
  6
Continuous
 62
     7
370
    15
100
AcDbLine
 10
-762.5687238107
 20
1.5102969426
 30
0.0
 11
-746.0686978231
 21
1.5102969426
 31
0.0
  0
LINE
  5
34A
330
1F
100
AcDbEntity
  8
0
  6
Continuous
 62
     7
370
    15
100
AcDbLine
 10
-746.9702478777
 20
0.2734409589
 30
0.0
 11
-746.9702478777
 21
-7.652844308
 31
0.0
  0
SPLINE
  5
34B
330
1F
100
AcDbEntity
  8
0
  6
Continuous
 62
     7
370
    15
100
AcDbSpline
210
0.0
220
0.0
230
1.0
 70
     8
 71
     3
 72
    13
 73
     9
 74
     0
 42
0.00000001
 43
0.00000001
 12
1.0
 22
0.0
 32
0.0
 13
1.0
 23
0.0
 33
0.0
 40
0.0
 40
0.0
 40
0.0
 40
0.0
 40
0.1323364651240083
 40
0.2646369685533815
 40
0.3998963748236325
 40
0.5351328702795262
 40
0.7654370731992338
 40
1.0
 40
1.0
 40
1.0
 40
1.0
 10
-746.9702478776524
 20
-7.652844307972834
 30
0.0
 10
-747.4039372262611
 20
-7.775215004858449
 30
0.0
 10
-748.2711980708223
 20
-8.019923145076795
 30
0.0
 10
-749.6066517992687
 20
-8.283138907963227
 30
0.0
 10
-750.9674837047688
 20
-8.441773995795682
 30
0.0
 10
-752.669441147743
 20
-8.480921566619697
 30
0.0
 10
-754.7077187580331
 20
-8.273749535481379
 30
0.0
 10
-756.2368666068886
 20
-7.861072916498291
 30
0.0
 10
-757.0084449182102
 20
-7.652844307972834
 30
0.0
  0
LINE
  5
34C
330
1F
100
AcDbEntity
  8
0
  6
Continuous
 62
     7
370
    15
100
AcDbLine
 10
-757.0084449182
 20
0.2734409589
 30
0.0
 11
-757.0084449182
 21
-7.652844308
 31
0.0
  0
SPLINE
  5
34D
330
1F
100
AcDbEntity
  8
0
  6
Continuous
 62
     7
370
    15
100
AcDbSpline
210
0.0
220
0.0
230
1.0
 70
     8
 71
     3
 72
    10
 73
     6
 74
     0
 42
0.00000001
 43
0.00000001
 12
1.0
 22
0.0
 32
0.0
 13
1.0
 23
0.0
 33
0.0
 40
0.0
 40
0.0
 40
0.0
 40
0.0
 40
0.4890218879721416
 40
0.9778984702940486
 40
1.0
 40
1.0
 40
1.0
 40
1.0
 10
-764.3568929563115
 20
-7.652844307972806
 30
0.0
 10
-764.2405905504162
 20
-7.772744324517716
 30
0.0
 10
-764.0080202961725
 20
-8.012508731083834
 30
0.0
 10
-763.766828162832
 20
-8.215887811506784
 30
0.0
 10
-763.6416285045451
 20
-8.268547553260147
 30
0.0
 10
-763.6362131963322
 20
-8.270825265004083
 30
0.0
  0
SPLINE
  5
34E
330
1F
100
AcDbEntity
  8
0
  6
Continuous
 62
     7
370
    15
100
AcDbSpline
210
0.0
220
0.0
230
1.0
 70
     8
 71
     3
 72
    16
 73
    12
 74
     0
 42
0.00000001
 43
0.00000001
 12
1.0
 22
0.0
 32
0.0
 13
1.0
 23
0.0
 33
0.0
 40
0.0
 40
0.0
 40
0.0
 40
0.0
 40
0.2500000000000056
 40
0.2500000000000056
 40
0.5000000000000112
 40
0.5000000000000112
 40
0.6250000000000084
 40
0.6250000000000084
 40
0.7500000000000057
 40
0.7500000000000057
 40
1.0
 40
1.0
 40
1.0
 40
1.0
 10
-757.008445889519
 20
-7.65284755184345
 30
0.0
 10
-757.6060593517475
 20
-7.896821742714389
 30
0.0
 10
-758.2182905225333
 20
-8.101514682408578
 30
0.0
 10
-759.445743478625
 20
-8.381367009067192
 30
0.0
 10
-760.0627915499787
 20
-8.456775174709136
 30
0.0
 10
-760.9941935311641
 20
-8.456649054601916
 30
0.0
 10
-761.3056209848193
 20
-8.437957697928322
 30
0.0
 10
-761.9303700481146
 20
-8.36378325840209
 30
0.0
 10
-762.2408647628666
 20
-8.30860730699895
 30
0.0
 10
-763.1612347287585
 20
-8.097271369160275
 30
0.0
 10
-763.7629869061972
 20
-7.89530931047755
 30
0.0
 10
-764.3568954625536
 20
-7.652847649997518
 30
0.0
  0
SPLINE
  5
34F
330
1F
100
AcDbEntity
  8
0
  6
Continuous
 62
     7
370
    15
100
AcDbSpline
210
0.0
220
0.0
230
1.0
 70
     8
 71
     3
 72
    13
 73
     9
 74
     0
 42
0.00000001
 43
0.00000001
 12
1.0
 22
0.0
 32
0.0
 13
1.0
 23
0.0
 33
0.0
 40
0.0
 40
0.0
 40
0.0
 40
0.0
 40
0.1323384100310688
 40
0.2646389238561341
 40
0.399898340754577
 40
0.5351328492150852
 40
0.7654363424203047
 40
1.0
 40
1.0
 40
1.0
 40
1.0
 10
-744.2805286775181
 20
-7.652844307972834
 30
0.0
 10
-744.3967238194888
 20
-7.775214674526715
 30
0.0
 10
-744.6290808299833
 20
-8.019920365860745
 30
0.0
 10
-744.9869354397175
 20
-8.283139323253863
 30
0.0
 10
-745.3515596007755
 20
-8.441773089969823
 30
0.0
 10
-745.807637887834
 20
-8.480921832848765
 30
0.0
 10
-746.3537422811617
 20
-8.273747695650451
 30
0.0
 10
-746.7634943204718
 20
-7.861072724387352
 30
0.0
 10
-746.9702478776525
 20
-7.652844307972806
 30
0.0
  0
LINE
  5
350
330
1F
100
AcDbEntity
  8
0
  6
Continuous
 62
     7
370
    15
100
AcDbLine
 10
170.7156482806
 20
0.2734409589
 30
0.0
 11
170.7156482806
 21
-7.652844308
 31
0.0
  0
LINE
  5
351
330
1F
100
AcDbEntity
  8
0
  6
Continuous
 62
     7
370
    15
100
AcDbLine
 10
-764.3568929563
 20
0.2734409589
 30
0.0
 11
-764.3568929563
 21
-7.652844308
 31
0.0
  0
LINE
  5
352
330
1F
100
AcDbEntity
  8
0
  6
Continuous
 62
     7
370
    15
100
AcDbLine
 10
150.6392840018
 20
0.2734409589
 30
0.0
 11
150.6392840018
 21
-7.652844308
 31
0.0
  0
LINE
  5
353
330
1F
100
AcDbEntity
  8
0
  6
Continuous
 62
     7
370
    15
100
AcDbLine
 10
-744.2805286775
 20
0.2734409589
 30
0.0
 11
-744.2805286775
 21
-7.652844308
 31
0.0
  0
LINE
  5
354
330
1F
100
AcDbEntity
  8
0
  6
Continuous
 62
     7
370
    15
100
AcDbLine
 10
154.677468883
 20
36.6102950591
 30
0.0
 11
166.6774633994
 21
36.6102950591
 31
0.0
  0
LINE
  5
355
330
1F
100
AcDbEntity
  8
0
  6
Continuous
 62
     7
370
    15
100
AcDbLine
 10
-760.3187080751
 20
36.6102950591
 30
0.0
 11
-748.3187135587
 21
36.6102950591
 31
0.0
  0
LINE
  5
356
330
1F
100
AcDbEntity
  8
0
  6
Continuous
 62
     7
370
    15
100
AcDbLine
 10
288.9294210543
 20
-8.8897002917
 30
0.0
 11
312.9294100871
 21
-8.8897002917
 31
0.0
  0
LINE
  5
357
330
1F
100
AcDbEntity
  8
0
  6
Continuous
 62
     7
370
    15
100
AcDbLine
 10
-889.978450192
 20
-8.8897002917
 30
0.0
 11
-882.5706657301
 21
-8.8897002917
 31
0.0
  0
LINE
  5
358
330
1F
100
AcDbEntity
  8
0
  6
Continuous
 62
     7
370
    15
100
AcDbLine
 10
-906.5706547628
 20
-8.8897002917
 30
0.0
 11
-889.978450192
 21
-8.8897002917
 31
0.0
  0
LINE
  5
359
330
1F
100
AcDbEntity
  8
0
  6
Continuous
 62
     7
370
    15
100
AcDbLine
 10
291.1880198588
 20
0.6351964492
 30
0.0
 11
290.6260672678
 21
0.2734409589
 31
0.0
  0
SPLINE
  5
35A
330
1F
100
AcDbEntity
  8
0
  6
Continuous
 62
     7
370
    15
100
AcDbSpline
210
0.0
220
0.0
230
1.0
 70
     8
 71
     3
 72
    14
 73
    10
 74
     0
 42
0.00000001
 43
0.00000001
 12
1.0
 22
0.0
 32
0.0
 13
1.0
 23
0.0
 33
0.0
 40
0.0
 40
0.0
 40
0.0
 40
0.0
 40
0.1803127216357555
 40
0.3621149499205152
 40
0.4866240635730956
 40
0.6111299634539411
 40
0.7389508038323992
 40
0.8668088748534243
 40
1.0
 40
1.0
 40
1.0
 40
1.0
 10
307.2558823694637
 20
0.273440958903387
 30
0.0
 10
307.4904291552375
 20
0.437035161221816
 30
0.0
 10
307.9614602439701
 20
0.7655749660809008
 30
0.0
 10
308.6108846966295
 20
1.016653550771351
 30
0.0
 10
309.1903627332814
 20
1.094547213874753
 30
0.0
 10
309.6978572824099
 20
1.051417672422256
 30
0.0
 10
310.206305514275
 20
0.89414976778876
 30
0.0
 10
310.7209097469346
 20
0.6382467020255855
 30
0.0
 10
311.0598772771963
 20
0.3966878333590829
 30
0.0
 10
311.2328234781673
 20
0.273440958903387
 30
0.0
  0
SPLINE
  5
35B
330
1F
100
AcDbEntity
  8
0
  6
Continuous
 62
     7
370
    15
100
AcDbSpline
210
0.0
220
0.0
230
1.0
 70
     8
 71
     3
 72
    13
 73
     9
 74
     0
 42
0.00000001
 43
0.00000001
 12
1.0
 22
0.0
 32
0.0
 13
1.0
 23
0.0
 33
0.0
 40
0.0
 40
0.0
 40
0.0
 40
0.0
 40
0.1323412350945561
 40
0.2646423800935711
 40
0.3999008814035613
 40
0.5351344734487136
 40
0.7654384038023864
 40
1.0
 40
1.0
 40
1.0
 40
1.0
 10
296.9524446596554
 20
0.273440958903387
 30
0.0
 10
297.3976117269857
 20
0.3958109784834019
 30
0.0
 10
298.2878110073038
 20
0.6405139481255595
 30
0.0
 10
299.6585649497796
 20
0.9037350832836188
 30
0.0
 10
301.0553464372189
 20
1.06236925530781
 30
0.0
 10
302.8022507988217
 20
1.101521504243169
 30
0.0
 10
304.894377495822
 20
0.8943227372149587
 30
0.0
 10
306.4639223001819
 20
0.4816613956494242
 30
0.0
 10
307.2558823694637
 20
0.273440958903387
 30
0.0
  0
SPLINE
  5
35C
330
1F
100
AcDbEntity
  8
0
  6
Continuous
 62
     7
370
    15
100
AcDbSpline
210
0.0
220
0.0
230
1.0
 70
     8
 71
     3
 72
    13
 73
     9
 74
     0
 42
0.00000001
 43
0.00000001
 12
1.0
 22
0.0
 32
0.0
 13
1.0
 23
0.0
 33
0.0
 40
0.0
 40
0.0
 40
0.0
 40
0.0
 40
0.1323368251689773
 40
0.2646358532401072
 40
0.3998982507470022
 40
0.5351338092950022
 40
0.7654378812859068
 40
1.0
 40
1.0
 40
1.0
 40
1.0
 10
290.6260672678402
 20
0.273440958903387
 30
0.0
 10
290.8993792491875
 20
0.3958112084211929
 30
0.0
 10
291.4459251504675
 20
0.6405167569410175
 30
0.0
 10
292.2875856447812
 20
0.9037405356747408
 30
0.0
 10
293.145251235763
 20
1.062367471241527
 30
0.0
 10
294.2178402024031
 20
1.101522625800072
 30
0.0
 10
295.5024578220307
 20
0.8943221779880439
 30
0.0
 10
296.4661732574823
 20
0.4816613186701402
 30
0.0
 10
296.9524446596554
 20
0.273440958903387
 30
0.0
  0
LINE
  5
35D
330
1F
100
AcDbEntity
  8
0
  6
Continuous
 62
     7
370
    15
100
AcDbLine
 10
292.6794472804
 20
1.5102969426
 30
0.0
 11
309.1794434657
 21
1.5102969426
 31
0.0
  0
LINE
  5
35E
330
1F
100
AcDbEntity
  8
0
  6
Continuous
 62
     7
370
    15
100
AcDbLine
 10
307.2558823695
 20
0.2734409589
 30
0.0
 11
307.2558823695
 21
-7.652844308
 31
0.0
  0
SPLINE
  5
35F
330
1F
100
AcDbEntity
  8
0
  6
Continuous
 62
     7
370
    15
100
AcDbSpline
210
0.0
220
0.0
230
1.0
 70
     8
 71
     3
 72
    13
 73
     9
 74
     0
 42
0.00000001
 43
0.00000001
 12
1.0
 22
0.0
 32
0.0
 13
1.0
 23
0.0
 33
0.0
 40
0.0
 40
0.0
 40
0.0
 40
0.0
 40
0.132335778677807
 40
0.2646368919691118
 40
0.3998953608626228
 40
0.5351345222884941
 40
0.7654326824253391
 40
1.0
 40
1.0
 40
1.0
 40
1.0
 10
307.2558823694637
 20
-7.652844307972834
 30
0.0
 10
306.8107355116463
 20
-7.775215255252737
 30
0.0
 10
305.920558402329
 20
-8.019925094715912
 30
0.0
 10
304.5498212234212
 20
-8.283137250962275
 30
0.0
 10
303.1530212186743
 20
-8.441775209385938
 30
0.0
 10
301.4061148533081
 20
-8.480923186721778
 30
0.0
 10
299.3139702055776
 20
-8.27373815851995
 30
0.0
 10
297.7444245559718
 20
-7.861072183478507
 30
0.0
 10
296.9524446596554
 20
-7.652844307972834
 30
0.0
  0
LINE
  5
360
330
1F
100
AcDbEntity
  8
0
  6
Continuous
 62
     7
370
    15
100
AcDbLine
 10
296.9524446597
 20
0.2734409589
 30
0.0
 11
296.9524446597
 21
-7.652844308
 31
0.0
  0
SPLINE
  5
361
330
1F
100
AcDbEntity
  8
0
  6
Continuous
 62
     7
370
    15
100
AcDbSpline
210
0.0
220
0.0
230
1.0
 70
     8
 71
     3
 72
    14
 73
    10
 74
     0
 42
0.00000001
 43
0.00000001
 12
1.0
 22
0.0
 32
0.0
 13
1.0
 23
0.0
 33
0.0
 40
0.0
 40
0.0
 40
0.0
 40
0.0
 40
0.1331911644239293
 40
0.2578378928429333
 40
0.3824543477114502
 40
0.5101658796244898
 40
0.6378842401296463
 40
0.8180579181728116
 40
1.0
 40
1.0
 40
1.0
 40
1.0
 10
311.2328234781673
 20
-7.652844307972834
 30
0.0
 10
311.0598768047669
 20
-7.776098620273814
 30
0.0
 10
310.7250782763763
 20
-8.014700274557251
 30
0.0
 10
310.2190877221008
 20
-8.267536101343897
 30
0.0
 10
309.7150604964977
 20
-8.4272937547131
 30
0.0
 10
309.2033964636383
 20
-8.475134692446401
 30
0.0
 10
308.6173335701664
 20
-8.398031370609294
 30
0.0
 10
307.9636048868429
 20
-8.146175205288625
 30
0.0
 10
307.4925566682224
 20
-7.817822447442779
 30
0.0
 10
307.2558823694638
 20
-7.652844307972806
 30
0.0
  0
LINE
  5
362
330
1F
100
AcDbEntity
  8
0
  6
Continuous
 62
     7
370
    15
100
AcDbLine
 10
290.6260672678
 20
-7.652844308
 30
0.0
 11
291.1880198588
 21
-8.0152107459
 31
0.0
  0
SPLINE
  5
363
330
1F
100
AcDbEntity
  8
0
  6
Continuous
 62
     7
370
    15
100
AcDbSpline
210
0.0
220
0.0
230
1.0
 70
     8
 71
     3
 72
    13
 73
     9
 74
     0
 42
0.00000001
 43
0.00000001
 12
1.0
 22
0.0
 32
0.0
 13
1.0
 23
0.0
 33
0.0
 40
0.0
 40
0.0
 40
0.0
 40
0.0
 40
0.1323357150997125
 40
0.2646347183487464
 40
0.3998970904775547
 40
0.5351326236525035
 40
0.765436513412146
 40
1.0
 40
1.0
 40
1.0
 40
1.0
 10
296.9524446596554
 20
-7.652844307972834
 30
0.0
 10
296.6791320635022
 20
-7.775214757718418
 30
0.0
 10
296.1325826920817
 20
-8.019921709868372
 30
0.0
 10
295.2909268027702
 20
-8.28314347123435
 30
0.0
 10
294.433260453243
 20
-8.44177158100376
 30
0.0
 10
293.3606726074313
 20
-8.48092255172192
 30
0.0
 10
292.0760481113484
 20
-8.273748187337587
 30
0.0
 10
291.1123377202358
 20
-7.861072721240841
 30
0.0
 10
290.6260672678402
 20
-7.652844307972834
 30
0.0
  0
LINE
  5
364
330
1F
100
AcDbEntity
  8
0
  6
Continuous
 62
     7
370
    15
100
AcDbLine
 10
-890.5936893354
 20
0.2734409589
 30
0.0
 11
-890.5936893354
 21
-7.652844308
 31
0.0
  0
SPLINE
  5
365
330
1F
100
AcDbEntity
  8
0
  6
Continuous
 62
     7
370
    15
100
AcDbSpline
210
0.0
220
0.0
230
1.0
 70
     8
 71
     3
 72
    13
 73
     9
 74
     0
 42
0.00000001
 43
0.00000001
 12
1.0
 22
0.0
 32
0.0
 13
1.0
 23
0.0
 33
0.0
 40
0.0
 40
0.0
 40
0.0
 40
0.0
 40
0.1323412111298868
 40
0.2646423321714919
 40
0.3999008089885474
 40
0.5351343765452753
 40
0.7654381261754172
 40
1.0
 40
1.0
 40
1.0
 40
1.0
 10
-890.5936893354008
 20
-7.652844307972834
 30
0.0
 10
-891.0388564045857
 20
-7.775214343138187
 30
0.0
 10
-891.9290556886126
 20
-8.01991734394633
 30
0.0
 10
-893.2998096030728
 20
-8.28313824367316
 30
0.0
 10
-894.6965911992584
 20
-8.441773329563029
 30
0.0
 10
-896.4434945721307
 20
-8.480921333907487
 30
0.0
 10
-898.5356251577858
 20
-8.27374997093111
 30
0.0
 10
-900.1051674641105
 20
-7.861072889689014
 30
0.0
 10
-900.8971270452091
 20
-7.652844307972834
 30
0.0
  0
LINE
  5
366
330
1F
100
AcDbEntity
  8
0
  6
Continuous
 62
     7
370
    15
100
AcDbLine
 10
-900.8971270452
 20
0.2734409589
 30
0.0
 11
-900.8971270452
 21
-7.652844308
 31
0.0
  0
SPLINE
  5
367
330
1F
100
AcDbEntity
  8
0
  6
Continuous
 62
     7
370
    15
100
AcDbSpline
210
0.0
220
0.0
230
1.0
 70
     8
 71
     3
 72
    13
 73
     9
 74
     0
 42
0.00000001
 43
0.00000001
 12
1.0
 22
0.0
 32
0.0
 13
1.0
 23
0.0
 33
0.0
 40
0.0
 40
0.0
 40
0.0
 40
0.0
 40
0.1323358026400602
 40
0.2646369398873413
 40
0.3998954332723217
 40
0.5351346191861664
 40
0.7654329600463955
 40
1.0
 40
1.0
 40
1.0
 40
1.0
 10
-900.8971270452091
 20
0.273440958903387
 30
0.0
 10
-900.4519801892461
 20
0.3958118905985075
 30
0.0
 10
-899.5618030836374
 20
0.6405216988960849
 30
0.0
 10
-898.1910658767142
 20
0.9037340905782287
 30
0.0
 10
-896.7942659807173
 20
1.062371135098106
 30
0.0
 10
-895.047358626582
 20
1.10152335725236
 30
0.0
 10
-892.9552178674984
 20
0.8943109247468717
 30
0.0
 10
-891.3856697199136
 20
0.4816606893016939
 30
0.0
 10
-890.5936893354008
 20
0.273440958903387
 30
0.0
  0
SPLINE
  5
368
330
1F
100
AcDbEntity
  8
0
  6
Continuous
 62
     7
370
    15
100
AcDbSpline
210
0.0
220
0.0
230
1.0
 70
     8
 71
     3
 72
     9
 73
     5
 74
     0
 42
0.00000001
 43
0.00000001
 12
1.0
 22
0.0
 32
0.0
 13
1.0
 23
0.0
 33
0.0
 40
0.0
 40
0.0
 40
0.0
 40
0.0
 40
0.9274698245057704
 40
1.0
 40
1.0
 40
1.0
 40
1.0
 10
-884.2673119435856
 20
0.273440958903387
 30
0.0
 10
-884.4396357928856
 20
0.4039794746839021
 30
0.0
 10
-884.6254357453442
 20
0.5447263888490872
 30
0.0
 10
-884.815369403668
 20
0.6389288513553582
 30
0.0
 10
-884.8291453252386
 20
0.6457613724928923
 30
0.0
  0
SPLINE
  5
369
330
1F
100
AcDbEntity
  8
0
  6
Continuous
 62
     7
370
    15
100
AcDbSpline
210
0.0
220
0.0
230
1.0
 70
     8
 71
     3
 72
    13
 73
     9
 74
     0
 42
0.00000001
 43
0.00000001
 12
1.0
 22
0.0
 32
0.0
 13
1.0
 23
0.0
 33
0.0
 40
0.0
 40
0.0
 40
0.0
 40
0.0
 40
0.1323357390634323
 40
0.2646347662695382
 40
0.3998971628920336
 40
0.5351327205558094
 40
0.7654367910408939
 40
1.0
 40
1.0
 40
1.0
 40
1.0
 10
-890.5936893354008
 20
0.273440958903387
 30
0.0
 10
-890.320376740386
 20
0.3958113930646323
 30
0.0
 10
-889.773827371243
 20
0.6405183140502368
 30
0.0
 10
-888.9321714647295
 20
0.9037403108437814
 30
0.0
 10
-888.0745051819767
 20
1.062367506721368
 30
0.0
 10
-887.0019167290715
 20
1.101522722100651
 30
0.0
 10
-885.7172946206832
 20
0.8943209536220742
 30
0.0
 10
-884.7535826957393
 20
0.4816612271850984
 30
0.0
 10
-884.2673119435856
 20
0.273440958903387
 30
0.0
  0
SPLINE
  5
36A
330
1F
100
AcDbEntity
  8
0
  6
Continuous
 62
     7
370
    15
100
AcDbSpline
210
0.0
220
0.0
230
1.0
 70
     8
 71
     3
 72
    14
 73
    10
 74
     0
 42
0.00000001
 43
0.00000001
 12
1.0
 22
0.0
 32
0.0
 13
1.0
 23
0.0
 33
0.0
 40
0.0
 40
0.0
 40
0.0
 40
0.0
 40
0.1803127299004884
 40
0.3621171055319634
 40
0.4866227617977438
 40
0.6111286673853858
 40
0.7389508101080602
 40
0.866807605149581
 40
1.0
 40
1.0
 40
1.0
 40
1.0
 10
-904.8740681539127
 20
0.273440958903387
 30
0.0
 10
-904.6395297487945
 20
0.4370355341645482
 30
0.0
 10
-904.1685127083206
 20
0.76557802867952
 30
0.0
 10
-903.5189762769727
 20
1.016649747940634
 30
0.0
 10
-902.9396023238394
 20
1.094548269081119
 30
0.0
 10
-902.4320839769636
 20
1.05141619495952
 30
0.0
 10
-901.9236538602722
 20
0.8941529678804239
 30
0.0
 10
-901.4090335054608
 20
0.638242793314564
 30
0.0
 10
-901.0700718841582
 20
0.3966872927542719
 30
0.0
 10
-900.8971270452091
 20
0.273440958903387
 30
0.0
  0
LINE
  5
36B
330
1F
100
AcDbEntity
  8
0
  6
Continuous
 62
     7
370
    15
100
AcDbLine
 10
-902.8206881414
 20
1.5102969426
 30
0.0
 11
-886.3206919561
 21
1.5102969426
 31
0.0
  0
SPLINE
  5
36C
330
1F
100
AcDbEntity
  8
0
  6
Continuous
 62
     7
370
    15
100
AcDbSpline
210
0.0
220
0.0
230
1.0
 70
     8
 71
     3
 72
    14
 73
    10
 74
     0
 42
0.00000001
 43
0.00000001
 12
1.0
 22
0.0
 32
0.0
 13
1.0
 23
0.0
 33
0.0
 40
0.0
 40
0.0
 40
0.0
 40
0.0
 40
0.1331924338848018
 40
0.2578391677893253
 40
0.3824530361111874
 40
0.5101671822453216
 40
0.6378820849833808
 40
0.8180579101658076
 40
1.0
 40
1.0
 40
1.0
 40
1.0
 10
-900.8971270452091
 20
-7.652844307972834
 30
0.0
 10
-901.0700735752755
 20
-7.776098480013288
 30
0.0
 10
-901.4048702907024
 20
-8.014698768472245
 30
0.0
 10
-901.9108562227584
 20
-8.267533718223058
 30
0.0
 10
-902.4148996396244
 20
-8.42729635943565
 30
0.0
 10
-902.9265598784643
 20
-8.475134945342688
 30
0.0
 10
-903.5125300296694
 20
-8.398028089762894
 30
0.0
 10
-904.1663675444182
 20
-8.146178124404962
 30
0.0
 10
-904.6374021120785
 20
-7.81782277495674
 30
0.0
 10
-904.8740681539127
 20
-7.652844307972834
 30
0.0
  0
SPLINE
  5
36D
330
1F
100
AcDbEntity
  8
0
  6
Continuous
 62
     7
370
    15
100
AcDbSpline
210
0.0
220
0.0
230
1.0
 70
     8
 71
     3
 72
    13
 73
     9
 74
     0
 42
0.00000001
 43
0.00000001
 12
1.0
 22
0.0
 32
0.0
 13
1.0
 23
0.0
 33
0.0
 40
0.0
 40
0.0
 40
0.0
 40
0.0
 40
0.1323368012048634
 40
0.2646358053187239
 40
0.39989817833173
 40
0.5351337123907011
 40
0.7654376036558193
 40
1.0
 40
1.0
 40
1.0
 40
1.0
 10
-884.2673119435856
 20
-7.652844307972834
 30
0.0
 10
-884.5406239260714
 20
-7.775214573075201
 30
0.0
 10
-885.0871698296286
 20
-8.01992015275968
 30
0.0
 10
-885.9288303067406
 20
-8.283143696065116
 30
0.0
 10
-886.7864959644974
 20
-8.441771545525084
 30
0.0
 10
-887.8590843240415
 20
-8.48092245541579
 30
0.0
 10
-889.1437043313764
 20
-8.273749411691067
 30
0.0
 10
-890.1074182329853
 20
-7.861072812710784
 30
0.0
 10
-890.5936893354008
 20
-7.652844307972834
 30
0.0
  0
SPLINE
  5
36E
330
1F
100
AcDbEntity
  8
0
  6
Continuous
 62
     7
370
    15
100
AcDbSpline
210
0.0
220
0.0
230
1.0
 70
     8
 71
     3
 72
     9
 73
     5
 74
     0
 42
0.00000001
 43
0.00000001
 12
1.0
 22
0.0
 32
0.0
 13
1.0
 23
0.0
 33
0.0
 40
0.0
 40
0.0
 40
0.0
 40
0.0
 40
0.0725061480262325
 40
1.0
 40
1.0
 40
1.0
 40
1.0
 10
-884.8290857205936
 20
-8.025075314595147
 30
0.0
 10
-884.8153302142263
 20
-8.018273530497444
 30
0.0
 10
-884.6256151798216
 20
-7.924463773906237
 30
0.0
 10
-884.4397244513664
 20
-7.783545313567036
 30
0.0
 10
-884.2673119435858
 20
-7.652844307972806
 30
0.0
  0
LINE
  5
36F
330
1F
100
AcDbEntity
  8
0
  6
Continuous
 62
     7
370
    15
100
AcDbLine
 10
290.6260672678
 20
0.2734409589
 30
0.0
 11
290.6260672678
 21
-7.652844308
 31
0.0
  0
LINE
  5
370
330
1F
100
AcDbEntity
  8
0
  6
Continuous
 62
     7
370
    15
100
AcDbLine
 10
-884.2673119436
 20
0.2734409589
 30
0.0
 11
-884.2673119436
 21
-7.652844308
 31
0.0
  0
LINE
  5
371
330
1F
100
AcDbEntity
  8
0
  6
Continuous
 62
     7
370
    15
100
AcDbLine
 10
311.2328234782
 20
0.2734409589
 30
0.0
 11
311.2328234782
 21
-7.652844308
 31
0.0
  0
LINE
  5
372
330
1F
100
AcDbEntity
  8
0
  6
Continuous
 62
     7
370
    15
100
AcDbLine
 10
-904.8740681539
 20
0.2734409589
 30
0.0
 11
-904.8740681539
 21
-7.652844308
 31
0.0
  0
LINE
  5
373
330
1F
100
AcDbEntity
  8
0
  6
Continuous
 62
     7
370
    15
100
AcDbLine
 10
294.929463016
 20
36.6102950591
 30
0.0
 11
306.92942773
 21
36.6102950591
 31
0.0
  0
LINE
  5
374
330
1F
100
AcDbEntity
  8
0
  6
Continuous
 62
     7
370
    15
100
AcDbLine
 10
-900.5706724058
 20
36.6102950591
 30
0.0
 11
-888.5707076917
 21
36.6102950591
 31
0.0
  0
LINE
  5
375
330
1F
100
AcDbEntity
  8
0
  6
Continuous
 62
     7
370
    15
100
AcDbLine
 10
338.1793681254
 20
-8.8897002917
 30
0.0
 11
362.1793571581
 21
-8.8897002917
 31
0.0
  0
LINE
  5
376
330
1F
100
AcDbEntity
  8
0
  6
Continuous
 62
     7
370
    15
100
AcDbLine
 10
-943.8206371198
 20
-8.8897002917
 30
0.0
 11
-931.8206128011
 21
-8.8897002917
 31
0.0
  0
LINE
  5
377
330
1F
100
AcDbEntity
  8
0
  6
Continuous
 62
     7
370
    15
100
AcDbLine
 10
-955.8206018339
 20
-8.8897002917
 30
0.0
 11
-943.8206371198
 21
-8.8897002917
 31
0.0
  0
SPLINE
  5
378
330
1F
100
AcDbEntity
  8
0
  6
Continuous
 62
     7
370
    15
100
AcDbSpline
210
0.0
220
0.0
230
1.0
 70
    24
 71
     3
 72
    11
 73
     7
 74
     0
 42
0.00000001
 43
0.00000001
 12
1.0
 22
0.0
 32
0.0
 13
1.0
 23
0.0
 33
0.0
 40
0.0
 40
0.0
 40
0.0
 40
0.0
 40
0.02017512072314
 40
0.2756491538956259
 40
0.6360580656082087
 40
1.0
 40
1.0
 40
1.0
 40
1.0
 10
341.1793891062191
 20
1.072590233729437
 30
0.0
 10
341.1793891062191
 20
1.073955992947767
 30
0.0
 10
341.1793891062196
 20
1.092616122823881
 30
0.0
 10
341.1793891062188
 20
1.007535257310288
 30
0.0
 10
341.1793891062191
 20
0.7699429270053293
 30
0.0
 10
341.1793891062191
 20
0.4394788945937811
 30
0.0
 10
341.1793891062192
 20
0.2734409589034148
 30
0.0
  0
SPLINE
  5
379
330
1F
100
AcDbEntity
  8
0
  6
Continuous
 62
     7
370
    15
100
AcDbSpline
210
0.0
220
0.0
230
1.0
 70
    24
 71
     3
 72
    11
 73
     7
 74
     0
 42
0.00000001
 43
0.00000001
 12
1.0
 22
0.0
 32
0.0
 13
1.0
 23
0.0
 33
0.0
 40
0.0
 40
0.0
 40
0.0
 40
0.0
 40
0.3606787494559272
 40
0.7243419181648965
 40
0.9733953370735228
 40
1.0
 40
1.0
 40
1.0
 40
1.0
 10
359.1793957819393
 20
0.273440958903387
 30
0.0
 10
359.1793957819394
 20
0.4380240802707436
 30
0.0
 10
359.1793957819395
 20
0.7685521582588006
 30
0.0
 10
359.179395781939
 20
1.006219638217482
 30
0.0
 10
359.1793957819394
 20
1.090777851570135
 30
0.0
 10
359.1793957819393
 20
1.073294164868788
 30
0.0
 10
359.1793957819393
 20
1.071606757090643
 30
0.0
  0
SPLINE
  5
37A
330
1F
100
AcDbEntity
  8
0
  6
Continuous
 62
     7
370
    15
100
AcDbSpline
210
0.0
220
0.0
230
1.0
 70
     8
 71
     3
 72
    13
 73
     9
 74
     0
 42
0.00000001
 43
0.00000001
 12
1.0
 22
0.0
 32
0.0
 13
1.0
 23
0.0
 33
0.0
 40
0.0
 40
0.0
 40
0.0
 40
0.0
 40
0.1323377785889752
 40
0.2646389082236114
 40
0.3998958803951741
 40
0.5351320970075744
 40
0.7654372002074727
 40
1.0
 40
1.0
 40
1.0
 40
1.0
 10
350.1793924440792
 20
0.273440958903387
 30
0.0
 10
350.5682319510182
 20
0.395811605638563
 30
0.0
 10
351.345803281652
 20
0.6405190104016301
 30
0.0
 10
352.5431462824403
 20
0.9037328696054892
 30
0.0
 10
353.7632134008255
 20
1.062371357509168
 30
0.0
 10
355.2891418536105
 20
1.101520951930418
 30
0.0
 10
357.1166221924303
 20
0.8943231036844801
 30
0.0
 10
358.4876189603517
 20
0.4816615211994946
 30
0.0
 10
359.1793957819393
 20
0.273440958903387
 30
0.0
  0
SPLINE
  5
37B
330
1F
100
AcDbEntity
  8
0
  6
Continuous
 62
     7
370
    15
100
AcDbSpline
210
0.0
220
0.0
230
1.0
 70
     8
 71
     3
 72
    13
 73
     9
 74
     0
 42
0.00000001
 43
0.00000001
 12
1.0
 22
0.0
 32
0.0
 13
1.0
 23
0.0
 33
0.0
 40
0.0
 40
0.0
 40
0.0
 40
0.0
 40
0.1323377785990579
 40
0.264638951613517
 40
0.3998959018518329
 40
0.5351321184745368
 40
0.7654372216919818
 40
1.0
 40
1.0
 40
1.0
 40
1.0
 10
341.1793891062191
 20
0.273440958903387
 30
0.0
 10
341.5682286631217
 20
0.3958116147858015
 30
0.0
 10
342.3458002210989
 20
0.6405190779439351
 30
0.0
 10
343.5431425349345
 20
0.9037327956054608
 30
0.0
 10
344.7632102375642
 20
1.06237138031029
 30
0.0
 10
346.2891384705182
 20
1.101520939534667
 30
0.0
 10
348.1166187547836
 20
0.8943231310353239
 30
0.0
 10
349.4876156099081
 20
0.4816615240869071
 30
0.0
 10
350.1793924440792
 20
0.273440958903387
 30
0.0
  0
LINE
  5
37C
330
1F
100
AcDbEntity
  8
0
  6
Continuous
 62
     7
370
    15
100
AcDbLine
 10
341.9293943514
 20
1.5102969426
 30
0.0
 11
358.4293905367
 21
1.5102969426
 31
0.0
  0
LINE
  5
37D
330
1F
100
AcDbEntity
  8
0
  6
Continuous
 62
     7
370
    15
100
AcDbLine
 10
350.1793924441
 20
0.2734409589
 30
0.0
 11
350.1793924441
 21
-7.652844308
 31
0.0
  0
SPLINE
  5
37E
330
1F
100
AcDbEntity
  8
0
  6
Continuous
 62
     7
370
    15
100
AcDbSpline
210
0.0
220
0.0
230
1.0
 70
     8
 71
     3
 72
    13
 73
     9
 74
     0
 42
0.00000001
 43
0.00000001
 12
1.0
 22
0.0
 32
0.0
 13
1.0
 23
0.0
 33
0.0
 40
0.0
 40
0.0
 40
0.0
 40
0.0
 40
0.1323377553936105
 40
0.2646388618393057
 40
0.399900675131631
 40
0.535136868040646
 40
0.7654369212178541
 40
0.9999999999999999
 40
0.9999999999999999
 40
0.9999999999999999
 40
0.9999999999999999
 10
350.1793924440792
 20
-7.652844307972834
 30
0.0
 10
349.7905525021647
 20
-7.7752148336942
 30
0.0
 10
349.0129803017004
 20
-8.019921996463092
 30
0.0
 10
347.8156293059432
 20
-8.283140885831402
 30
0.0
 10
346.5955216894437
 20
-8.44177225729556
 30
0.0
 10
345.0695986395835
 20
-8.480923091614494
 30
0.0
 10
343.2421504657177
 20
-8.273744501374857
 30
0.0
 10
341.8711670920109
 20
-7.861072508094813
 30
0.0
 10
341.1793891062191
 20
-7.652844307972834
 30
0.0
  0
LINE
  5
37F
330
1F
100
AcDbEntity
  8
0
  6
Continuous
 62
     7
370
    15
100
AcDbLine
 10
341.1793891062
 20
0.2734409589
 30
0.0
 11
341.1793891062
 21
-7.652844308
 31
0.0
  0
LINE
  5
380
330
1F
100
AcDbEntity
  8
0
  6
Continuous
 62
     7
370
    15
100
AcDbLine
 10
359.1793957819
 20
0.2734409589
 30
0.0
 11
359.1793957819
 21
-7.652844308
 31
0.0
  0
SPLINE
  5
381
330
1F
100
AcDbEntity
  8
0
  6
Continuous
 62
     7
370
    15
100
AcDbSpline
210
0.0
220
0.0
230
1.0
 70
     8
 71
     3
 72
    13
 73
     9
 74
     0
 42
0.00000001
 43
0.00000001
 12
1.0
 22
0.0
 32
0.0
 13
1.0
 23
0.0
 33
0.0
 40
0.0
 40
0.0
 40
0.0
 40
0.0
 40
0.1323377554035849
 40
0.264638905228987
 40
0.3999006965887483
 40
0.535136889507956
 40
0.7654369427025219
 40
1.0
 40
1.0
 40
1.0
 40
1.0
 10
359.1793957819393
 20
-7.652844307972834
 30
0.0
 10
358.7905557900619
 20
-7.775214842841244
 30
0.0
 10
358.0129833622548
 20
-8.019922064005064
 30
0.0
 10
356.8156330534501
 20
-8.283140811832013
 30
0.0
 10
355.5955248527111
 20
-8.44177228009571
 30
0.0
 10
354.0696020226723
 20
-8.480923079219549
 30
0.0
 10
352.2421539033629
 20
-8.273744528725203
 30
0.0
 10
350.8711704424548
 20
-7.861072510981948
 30
0.0
 10
350.1793924440792
 20
-7.652844307972834
 30
0.0
  0
SPLINE
  5
382
330
1F
100
AcDbEntity
  8
0
  6
Continuous
 62
     7
370
    15
100
AcDbSpline
210
0.0
220
0.0
230
1.0
 70
    24
 71
     3
 72
    11
 73
     7
 74
     0
 42
0.00000001
 43
0.00000001
 12
1.0
 22
0.0
 32
0.0
 13
1.0
 23
0.0
 33
0.0
 40
0.0
 40
0.0
 40
0.0
 40
0.0
 40
0.0201751154134992
 40
0.2756490813509309
 40
0.6360574855188936
 40
1.0
 40
1.0
 40
1.0
 40
1.0
 10
359.1793957819393
 20
-8.451993582798883
 30
0.0
 10
359.1793957819394
 20
-8.453359345692718
 30
0.0
 10
359.179395781939
 20
-8.472019525786855
 30
0.0
 10
359.1793957819397
 20
-8.386934081695468
 30
0.0
 10
359.1793957819392
 20
-8.149369898099252
 30
0.0
 10
359.1793957819392
 20
-7.818890308319531
 30
0.0
 10
359.1793957819394
 20
-7.652844307972806
 30
0.0
  0
SPLINE
  5
383
330
1F
100
AcDbEntity
  8
0
  6
Continuous
 62
     7
370
    15
100
AcDbSpline
210
0.0
220
0.0
230
1.0
 70
    24
 71
     3
 72
    11
 73
     7
 74
     0
 42
0.00000001
 43
0.00000001
 12
1.0
 22
0.0
 32
0.0
 13
1.0
 23
0.0
 33
0.0
 40
0.0
 40
0.0
 40
0.0
 40
0.0
 40
0.3606786649651705
 40
0.7243417484842685
 40
0.9733952513179416
 40
1.0
 40
1.0
 40
1.0
 40
1.0
 10
341.1793891062191
 20
-7.652844307972834
 30
0.0
 10
341.179389106219
 20
-7.817431045417433
 30
0.0
 10
341.1793891062191
 20
-8.14796638548096
 30
0.0
 10
341.1793891062191
 20
-8.385584862795225
 30
0.0
 10
341.1793891062193
 20
-8.470241011129309
 30
0.0
 10
341.1793891062192
 20
-8.452702782383415
 30
0.0
 10
341.1793891062191
 20
-8.451010106160089
 30
0.0
  0
SPLINE
  5
384
330
1F
100
AcDbEntity
  8
0
  6
Continuous
 62
     7
370
    15
100
AcDbSpline
210
0.0
220
0.0
230
1.0
 70
    24
 71
     3
 72
    11
 73
     7
 74
     0
 42
0.00000001
 43
0.00000001
 12
1.0
 22
0.0
 32
0.0
 13
1.0
 23
0.0
 33
0.0
 40
0.0
 40
0.0
 40
0.0
 40
0.0
 40
0.2663399439722628
 40
0.5155915349370194
 40
0.7647818937212292
 40
1.0
 40
1.0
 40
1.0
 40
1.0
 10
-934.8206337819645
 20
0.273440958903387
 30
0.0
 10
-934.8206337819645
 20
0.3968450707147186
 30
0.0
 10
-934.8206337819645
 20
0.6357356947697956
 30
0.0
 10
-934.8206337819647
 20
0.8865023529771032
 30
0.0
 10
-934.8206337819643
 20
1.049510279817367
 30
0.0
 10
-934.8206337819645
 20
1.065046289038696
 30
0.0
 10
-934.8206337819647
 20
1.072590233729465
 30
0.0
  0
SPLINE
  5
385
330
1F
100
AcDbEntity
  8
0
  6
Continuous
 62
     7
370
    15
100
AcDbSpline
210
0.0
220
0.0
230
1.0
 70
     8
 71
     3
 72
    13
 73
     9
 74
     0
 42
0.00000001
 43
0.00000001
 12
1.0
 22
0.0
 32
0.0
 13
1.0
 23
0.0
 33
0.0
 40
0.0
 40
0.0
 40
0.0
 40
0.0
 40
0.1323377793572956
 40
0.2646389097600395
 40
0.3999007475455375
 40
0.5351369649430858
 40
0.7654371988456592
 40
1.0
 40
1.0
 40
1.0
 40
1.0
 10
-943.8206371198246
 20
0.273440958903387
 30
0.0
 10
-943.4317971795301
 20
0.3958114690396641
 30
0.0
 10
-942.6542249823053
 20
0.6405186006428198
 30
0.0
 10
-941.4568739620756
 20
0.9037377254479673
 30
0.0
 10
-940.2367664405713
 20
1.062368182999374
 30
0.0
 10
-938.7108425270312
 20
1.101523262056092
 30
0.0
 10
-936.8833977499138
 20
0.8943172676481315
 30
0.0
 10
-935.5124121941882
 20
0.4816610139966038
 30
0.0
 10
-934.8206337819645
 20
0.273440958903387
 30
0.0
  0
SPLINE
  5
386
330
1F
100
AcDbEntity
  8
0
  6
Continuous
 62
     7
370
    15
100
AcDbSpline
210
0.0
220
0.0
230
1.0
 70
     8
 71
     3
 72
    13
 73
     9
 74
     0
 42
0.00000001
 43
0.00000001
 12
1.0
 22
0.0
 32
0.0
 13
1.0
 23
0.0
 33
0.0
 40
0.0
 40
0.0
 40
0.0
 40
0.0
 40
0.1323377793672738
 40
0.2646389531497364
 40
0.3999007690026704
 40
0.5351369864104155
 40
0.7654372203303534
 40
0.9999999999999999
 40
0.9999999999999999
 40
0.9999999999999999
 40
0.9999999999999999
 10
-952.8206404576847
 20
0.273440958903387
 30
0.0
 10
-952.431800467427
 20
0.3958114781867639
 30
0.0
 10
-951.6542280428595
 20
0.6405186681848196
 30
0.0
 10
-950.4568777095834
 20
0.9037376514485773
 30
0.0
 10
-949.2367696038384
 20
1.062368205799746
 30
0.0
 10
-947.71084591012
 20
1.101523249661285
 30
0.0
 10
-945.8834011875599
 20
0.8943172949986422
 30
0.0
 10
-944.5124155446321
 20
0.4816610168840163
 30
0.0
 10
-943.8206371198246
 20
0.273440958903387
 30
0.0
  0
SPLINE
  5
387
330
1F
100
AcDbEntity
  8
0
  6
Continuous
 62
     7
370
    15
100
AcDbSpline
210
0.0
220
0.0
230
1.0
 70
    24
 71
     3
 72
    11
 73
     7
 74
     0
 42
0.00000001
 43
0.00000001
 12
1.0
 22
0.0
 32
0.0
 13
1.0
 23
0.0
 33
0.0
 40
0.0
 40
0.0
 40
0.0
 40
0.0
 40
0.2223759218894734
 40
0.4779828510465135
 40
0.7336574704730662
 40
1.0
 40
1.0
 40
1.0
 40
1.0
 10
-952.8206404576847
 20
1.071606757090643
 30
0.0
 10
-952.8206404576849
 20
1.065426696676669
 30
0.0
 10
-952.8206404576849
 20
1.052143051256726
 30
0.0
 10
-952.8206404576847
 20
0.8923979212622224
 30
0.0
 10
-952.8206404576849
 20
0.6387042893476746
 30
0.0
 10
-952.8206404576847
 20
0.3968429567851872
 30
0.0
 10
-952.8206404576847
 20
0.273440958903387
 30
0.0
  0
LINE
  5
388
330
1F
100
AcDbEntity
  8
0
  6
Continuous
 62
     7
370
    15
100
AcDbLine
 10
-952.0706352125
 20
1.5102969426
 30
0.0
 11
-935.5706390272
 21
1.5102969426
 31
0.0
  0
LINE
  5
389
330
1F
100
AcDbEntity
  8
0
  6
Continuous
 62
     7
370
    15
100
AcDbLine
 10
-934.820633782
 20
0.2734409589
 30
0.0
 11
-934.820633782
 21
-7.652844308
 31
0.0
  0
SPLINE
  5
38A
330
1F
100
AcDbEntity
  8
0
  6
Continuous
 62
     7
370
    15
100
AcDbSpline
210
0.0
220
0.0
230
1.0
 70
     8
 71
     3
 72
    13
 73
     9
 74
     0
 42
0.00000001
 43
0.00000001
 12
1.0
 22
0.0
 32
0.0
 13
1.0
 23
0.0
 33
0.0
 40
0.0
 40
0.0
 40
0.0
 40
0.0
 40
0.1323377546349801
 40
0.26463890369199
 40
0.3998958294376168
 40
0.535132021571386
 40
0.7654369440648414
 40
1.0
 40
1.0
 40
1.0
 40
1.0
 10
-934.8206337819645
 20
-7.652844307972834
 30
0.0
 10
-935.209473340487
 20
-7.775214979439838
 30
0.0
 10
-935.987044901704
 20
-8.019922473763042
 30
0.0
 10
-937.1843871910681
 20
-8.283135955996752
 30
0.0
 10
-938.4044549886863
 20
-8.441775454558071
 30
0.0
 10
-939.9303823579803
 20
-8.48092076913995
 30
0.0
 10
-941.7578660389813
 20
-8.273750364744814
 30
0.0
 10
-943.1288607120803
 20
-7.861073018123721
 30
0.0
 10
-943.8206371198248
 20
-7.652844307972806
 30
0.0
  0
LINE
  5
38B
330
1F
100
AcDbEntity
  8
0
  6
Continuous
 62
     7
370
    15
100
AcDbLine
 10
-943.8206371198
 20
0.2734409589
 30
0.0
 11
-943.8206371198
 21
-7.652844308
 31
0.0
  0
SPLINE
  5
38C
330
1F
100
AcDbEntity
  8
0
  6
Continuous
 62
     7
370
    15
100
AcDbSpline
210
0.0
220
0.0
230
1.0
 70
     8
 71
     3
 72
    13
 73
     9
 74
     0
 42
0.00000001
 43
0.00000001
 12
1.0
 22
0.0
 32
0.0
 13
1.0
 23
0.0
 33
0.0
 40
0.0
 40
0.0
 40
0.0
 40
0.0
 40
0.1323377546249013
 40
0.2646388603021
 40
0.3998958079809735
 40
0.5351320001044431
 40
0.7654369225803587
 40
0.9999999999999999
 40
0.9999999999999999
 40
0.9999999999999999
 40
0.9999999999999999
 10
-943.8206371198246
 20
-7.652844307972834
 30
0.0
 10
-944.2094766283835
 20
-7.775214970292654
 30
0.0
 10
-944.9870479622566
 20
-8.019922406220626
 30
0.0
 10
-946.1843909385746
 20
-8.283136029996891
 30
0.0
 10
-947.4044581519474
 20
-8.441775431757032
 30
0.0
 10
-948.9303857410727
 20
-8.480920781535783
 30
0.0
 10
-950.7578694766283
 20
-8.273750337394164
 30
0.0
 10
-952.128864062524
 20
-7.861073015236641
 30
0.0
 10
-952.8206404576847
 20
-7.652844307972834
 30
0.0
  0
LINE
  5
38D
330
1F
100
AcDbEntity
  8
0
  6
Continuous
 62
     7
370
    15
100
AcDbLine
 10
-952.8206404577
 20
0.2734409589
 30
0.0
 11
-952.8206404577
 21
-7.652844308
 31
0.0
  0
SPLINE
  5
38E
330
1F
100
AcDbEntity
  8
0
  6
Continuous
 62
     7
370
    15
100
AcDbSpline
210
0.0
220
0.0
230
1.0
 70
    24
 71
     3
 72
    11
 73
     7
 74
     0
 42
0.00000001
 43
0.00000001
 12
1.0
 22
0.0
 32
0.0
 13
1.0
 23
0.0
 33
0.0
 40
0.0
 40
0.0
 40
0.0
 40
0.0
 40
0.2663398905230034
 40
0.5155919650055006
 40
0.7647819409249396
 40
1.0
 40
1.0
 40
1.0
 40
1.0
 10
-952.8206404576847
 20
-7.652844307972834
 30
0.0
 10
-952.8206404576847
 20
-7.776246134818088
 30
0.0
 10
-952.8206404576847
 20
-8.015132582745583
 30
0.0
 10
-952.8206404576849
 20
-8.26593074255419
 30
0.0
 10
-952.8206404576847
 20
-8.428907802332548
 30
0.0
 10
-952.8206404576847
 20
-8.444447730142524
 30
0.0
 10
-952.8206404576847
 20
-8.451993582798883
 30
0.0
  0
SPLINE
  5
38F
330
1F
100
AcDbEntity
  8
0
  6
Continuous
 62
     7
370
    15
100
AcDbSpline
210
0.0
220
0.0
230
1.0
 70
    24
 71
     3
 72
    11
 73
     7
 74
     0
 42
0.00000001
 43
0.00000001
 12
1.0
 22
0.0
 32
0.0
 13
1.0
 23
0.0
 33
0.0
 40
0.0
 40
0.0
 40
0.0
 40
0.0
 40
0.2223757322941837
 40
0.4779825492185676
 40
0.7336575874195422
 40
1.0
 40
1.0
 40
1.0
 40
1.0
 10
-934.8206337819645
 20
-8.451010106160089
 30
0.0
 10
-934.8206337819645
 20
-8.444835906770837
 30
0.0
 10
-934.8206337819645
 20
-8.431564856314939
 30
0.0
 10
-934.8206337819647
 20
-8.271819851959433
 30
0.0
 10
-934.8206337819645
 20
-8.018103093245715
 30
0.0
 10
-934.8206337819645
 20
-7.776244687173945
 30
0.0
 10
-934.8206337819645
 20
-7.652844307972834
 30
0.0
  0
LINE
  5
390
330
1F
100
AcDbEntity
  8
0
  6
Continuous
 62
     7
370
    15
100
AcDbLine
 10
344.1793504824
 20
36.6102950591
 30
0.0
 11
356.1793748011
 21
36.6102950591
 31
0.0
  0
LINE
  5
391
330
1F
100
AcDbEntity
  8
0
  6
Continuous
 62
     7
370
    15
100
AcDbLine
 10
-949.8206194768
 20
36.6102950591
 30
0.0
 11
-937.8205951582
 21
36.6102950591
 31
0.0
  0
LINE
  5
392
330
1F
100
AcDbEntity
  8
0
  6
Continuous
 62
     7
370
     0
100
AcDbLine
 10
-957.8206356893
 20
-14.6407140475
 30
0.0
 11
364.1793910136
 21
-14.6407140475
 31
0.0
  0
LINE
  5
393
330
1F
100
AcDbEntity
  8
0
  6
Continuous
 62
     7
370
     0
100
AcDbLine
 10
-955.0821002851
 20
-17.6292909365
 30
0.0
 11
361.4408556094
 21
-17.6292909365
 31
0.0
  0
LINE
  5
394
330
1F
100
AcDbEntity
  8
0
  6
Continuous
 62
     7
370
     0
100
AcDbLine
 10
306.92942773
 20
-19.051562069
 30
0.0
 11
345.1756421198
 21
-19.051562069
 31
0.0
  0
LINE
  5
395
330
1F
100
AcDbEntity
  8
0
  6
Continuous
 62
     7
370
     0
100
AcDbLine
 10
166.6774633994
 20
-19.051562069
 30
0.0
 11
295.0395527949
 21
-19.051562069
 31
0.0
  0
LINE
  5
396
330
1F
100
AcDbEntity
  8
0
  6
Continuous
 62
     7
370
     0
100
AcDbLine
 10
-43.2244357
 20
-19.051562069
 30
0.0
 11
154.677468883
 21
-19.051562069
 31
0.0
  0
LINE
  5
397
330
1F
100
AcDbEntity
  8
0
  6
Continuous
 62
     7
370
     0
100
AcDbLine
 10
-290.8206222857
 20
-19.051562069
 30
0.0
 11
-55.2244451175
 21
-19.051562069
 31
0.0
  0
LINE
  5
398
330
1F
100
AcDbEntity
  8
0
  6
Continuous
 62
     7
370
     0
100
AcDbLine
 10
-538.4167995582
 20
-19.051562069
 30
0.0
 11
-302.82062239
 21
-19.051562069
 31
0.0
  0
LINE
  5
399
330
1F
100
AcDbEntity
  8
0
  6
Continuous
 62
     7
370
     0
100
AcDbLine
 10
-748.3187135587
 20
-19.051562069
 30
0.0
 11
-550.4168089758
 21
-19.051562069
 31
0.0
  0
LINE
  5
39A
330
1F
100
AcDbEntity
  8
0
  6
Continuous
 62
     7
370
     0
100
AcDbLine
 10
-888.6807974706
 20
-19.051562069
 30
0.0
 11
-760.3187080751
 21
-19.051562069
 31
0.0
  0
LINE
  5
39B
330
1F
100
AcDbEntity
  8
0
  6
Continuous
 62
     7
370
     0
100
AcDbLine
 10
-938.8168867956
 20
-19.051562069
 30
0.0
 11
-900.5706724058
 21
-19.051562069
 31
0.0
  0
LINE
  5
39C
330
1F
100
AcDbEntity
  8
0
  6
Continuous
 62
     7
370
     0
100
AcDbLine
 10
-934.2680391203
 20
-23.7708641272
 30
0.0
 11
-900.5706724058
 21
-23.7708641272
 31
0.0
  0
LINE
  5
39D
330
1F
100
AcDbEntity
  8
0
  6
Continuous
 62
     7
370
     0
100
AcDbLine
 10
-888.5707076917
 20
-23.7708641272
 30
0.0
 11
-760.3187080751
 21
-23.7708641272
 31
0.0
  0
LINE
  5
39E
330
1F
100
AcDbEntity
  8
0
  6
Continuous
 62
     7
370
     0
100
AcDbLine
 10
-748.3187135587
 20
-23.7708641272
 30
0.0
 11
-550.4168089758
 21
-23.7708641272
 31
0.0
  0
LINE
  5
39F
330
1F
100
AcDbEntity
  8
0
  6
Continuous
 62
     7
370
     0
100
AcDbLine
 10
-538.4167995582
 20
-23.7708641272
 30
0.0
 11
-302.82062239
 21
-23.7708641272
 31
0.0
  0
LINE
  5
3A0
330
1F
100
AcDbEntity
  8
0
  6
Continuous
 62
     7
370
     0
100
AcDbLine
 10
-290.8206222857
 20
-23.7708641272
 30
0.0
 11
-55.2244451175
 21
-23.7708641272
 31
0.0
  0
LINE
  5
3A1
330
1F
100
AcDbEntity
  8
0
  6
Continuous
 62
     7
370
     0
100
AcDbLine
 10
-43.2244357
 20
-23.7708641272
 30
0.0
 11
154.677468883
 21
-23.7708641272
 31
0.0
  0
LINE
  5
3A2
330
1F
100
AcDbEntity
  8
0
  6
Continuous
 62
     7
370
     0
100
AcDbLine
 10
166.6774633994
 20
-23.7708641272
 30
0.0
 11
294.929463016
 21
-23.7708641272
 31
0.0
  0
LINE
  5
3A3
330
1F
100
AcDbEntity
  8
0
  6
Continuous
 62
     7
370
     0
100
AcDbLine
 10
306.92942773
 20
-23.7708641272
 30
0.0
 11
340.6267944445
 21
-23.7708641272
 31
0.0
  0
LINE
  5
3A4
330
1F
100
AcDbEntity
  8
0
  6
Continuous
 62
     7
370
     0
100
AcDbLine
 10
-932.9447564016
 20
-49.0205464941
 30
0.0
 11
-900.5706724058
 21
-49.0205464941
 31
0.0
  0
LINE
  5
3A5
330
1F
100
AcDbEntity
  8
0
  6
Continuous
 62
     7
370
     0
100
AcDbLine
 10
-888.5707076917
 20
-49.0205464941
 30
0.0
 11
-760.3187080751
 21
-49.0205464941
 31
0.0
  0
LINE
  5
3A6
330
1F
100
AcDbEntity
  8
0
  6
Continuous
 62
     7
370
     0
100
AcDbLine
 10
-748.3187135587
 20
-49.0205464941
 30
0.0
 11
-550.4168089758
 21
-49.0205464941
 31
0.0
  0
LINE
  5
3A7
330
1F
100
AcDbEntity
  8
0
  6
Continuous
 62
     7
370
     0
100
AcDbLine
 10
-538.4167995582
 20
-49.0205464941
 30
0.0
 11
-302.82062239
 21
-49.0205464941
 31
0.0
  0
LINE
  5
3A8
330
1F
100
AcDbEntity
  8
0
  6
Continuous
 62
     7
370
     0
100
AcDbLine
 10
-290.8206222857
 20
-49.0205464941
 30
0.0
 11
-55.2244451175
 21
-49.0205464941
 31
0.0
  0
LINE
  5
3A9
330
1F
100
AcDbEntity
  8
0
  6
Continuous
 62
     7
370
     0
100
AcDbLine
 10
-43.2244357
 20
-49.0205464941
 30
0.0
 11
154.677468883
 21
-49.0205464941
 31
0.0
  0
LINE
  5
3AA
330
1F
100
AcDbEntity
  8
0
  6
Continuous
 62
     7
370
     0
100
AcDbLine
 10
166.6774633994
 20
-49.0205464941
 30
0.0
 11
294.929463016
 21
-49.0205464941
 31
0.0
  0
LINE
  5
3AB
330
1F
100
AcDbEntity
  8
0
  6
Continuous
 62
     7
370
     0
100
AcDbLine
 10
306.92942773
 20
-49.0205464941
 30
0.0
 11
339.3035117258
 21
-49.0205464941
 31
0.0
  0
LINE
  5
3AC
330
1F
100
AcDbEntity
  8
FORMAT
  6
CENTERX2
370
     0
100
AcDbLine
 10
-296.8206223379
 20
-163.389703868
 30
0.0
 11
-296.8206223379
 21
41.2026665159
 31
0.0
  0
ENDSEC
  0
SECTION
  2
OBJECTS
  0
DICTIONARY
  5
C
330
0
100
AcDbDictionary
281
     1
  3
ACAD_GROUP
350
D
  3
ACAD_LAYOUT
350
1A
  3
ACAD_MLINESTYLE
350
17
  3
ACAD_PLOTSETTINGS
350
19
  3
ACAD_PLOTSTYLENAME
350
E
  0
DICTIONARY
  5
D
102
{ACAD_REACTORS
330
C
102
}
330
C
100
AcDbDictionary
281
     1
  0
DICTIONARY
  5
1A
102
{ACAD_REACTORS
330
C
102
}
330
C
100
AcDbDictionary
281
     1
  3
Layout1
350
1E
  3
Layout2
350
26
  3
Model
350
22
  0
DICTIONARY
  5
17
102
{ACAD_REACTORS
330
C
102
}
330
C
100
AcDbDictionary
281
     1
  3
Standard
350
18
  0
DICTIONARY
  5
19
102
{ACAD_REACTORS
330
C
102
}
330
C
100
AcDbDictionary
281
     1
  0
ACDBDICTIONARYWDFLT
  5
E
102
{ACAD_REACTORS
330
C
102
}
330
C
100
AcDbDictionary
281
     1
  3
Normal
350
F
100
AcDbDictionaryWithDefault
340
F
  0
LAYOUT
  5
1E
102
{ACAD_REACTORS
330
1A
102
}
330
1A
100
AcDbPlotSettings
  1

  2
none_device
  4

  6

 40
0.0
 41
0.0
 42
0.0
 43
0.0
 44
0.0
 45
0.0
 46
0.0
 47
0.0
 48
0.0
 49
0.0
140
0.0
141
0.0
142
1.0
143
1.0
 70
   688
 72
     0
 73
     0
 74
     5
  7

 75
    16
147
1.0
148
0.0
149
0.0
100
AcDbLayout
  1
Layout1
 70
     1
 71
     1
 10
0.0
 20
0.0
 11
420.0
 21
297.0
 12
0.0
 22
0.0
 32
0.0
 14
1.0000000000E+20
 24
1.0000000000E+20
 34
1.0000000000E+20
 15
-1.0000000000E+20
 25
-1.0000000000E+20
 35
-1.0000000000E+20
146
0.0
 13
0.0
 23
0.0
 33
0.0
 16
1.0
 26
0.0
 36
0.0
 17
0.0
 27
1.0
 37
0.0
 76
     0
330
1B
  0
LAYOUT
  5
26
102
{ACAD_REACTORS
330
1A
102
}
330
1A
100
AcDbPlotSettings
  1

  2
none_device
  4

  6

 40
0.0
 41
0.0
 42
0.0
 43
0.0
 44
0.0
 45
0.0
 46
0.0
 47
0.0
 48
0.0
 49
0.0
140
0.0
141
0.0
142
1.0
143
1.0
 70
   688
 72
     0
 73
     0
 74
     5
  7

 75
    16
147
1.0
148
0.0
149
0.0
100
AcDbLayout
  1
Layout2
 70
     1
 71
     2
 10
0.0
 20
0.0
 11
0.0
 21
0.0
 12
0.0
 22
0.0
 32
0.0
 14
0.0
 24
0.0
 34
0.0
 15
0.0
 25
0.0
 35
0.0
146
0.0
 13
0.0
 23
0.0
 33
0.0
 16
1.0
 26
0.0
 36
0.0
 17
0.0
 27
1.0
 37
0.0
 76
     0
330
23
  0
LAYOUT
  5
22
102
{ACAD_REACTORS
330
1A
102
}
330
1A
100
AcDbPlotSettings
  1

  2
none_device
  4

  6

 40
0.0
 41
0.0
 42
0.0
 43
0.0
 44
0.0
 45
0.0
 46
0.0
 47
0.0
 48
0.0
 49
0.0
140
0.0
141
0.0
142
1.0
143
1.0
 70
  1712
 72
     0
 73
     0
 74
     0
  7

 75
     0
147
1.0
148
0.0
149
0.0
100
AcDbLayout
  1
Model
 70
     1
 71
     0
 10
0.0
 20
0.0
 11
841.0
 21
594.0
 12
0.0
 22
0.0
 32
0.0
 14
0.0
 24
0.0
 34
0.0
 15
841.0
 25
594.0
 35
0.0
146
0.0
 13
0.0
 23
0.0
 33
0.0
 16
1.0
 26
0.0
 36
0.0
 17
0.0
 27
1.0
 37
0.0
 76
     0
330
1F
331
29
  0
MLINESTYLE
  5
18
102
{ACAD_REACTORS
330
17
102
}
330
17
100
AcDbMlineStyle
  2
Standard
 70
     0
  3

 62
   256
 51
90.0
 52
90.0
 71
     2
 49
0.5
 62
   256
  6
BYLAYER
 49
-0.5
 62
   256
  6
BYLAYER
  0
ACDBPLACEHOLDER
  5
F
102
{ACAD_REACTORS
330
E
102
}
330
E
  0
ENDSEC
  0
EOF
