  0
SECTION
  2
HEADER
  9
$ACADVER
  1
AC1009
  9
$DWGCODEPAGE
  3
ansi_1252
  9
$INSBASE
 10
0.0
 20
0.0
 30
0.0
  9
$EXTMIN
 10
0.0
 20
0.0
 30
0.0
  9
$EXTMAX
 10
594.0
 20
420.0
 30
0.0
  9
$LIMMIN
 10
0.0
 20
0.0
  9
$LIMMAX
 10
594.0
 20
420.0
  9
$ORTHOMODE
 70
     0
  9
$REGENMODE
 70
     1
  9
$FILLMODE
 70
     1
  9
$QTEXTMODE
 70
     0
  9
$MIRRTEXT
 70
     1
  9
$DRAGMODE
 70
     2
  9
$LTSCALE
 40
1.0
  9
$OSMODE
 70
    37
  9
$ATTMODE
 70
     1
  9
$TEXTSIZE
 40
3.5
  9
$TRACEWID
 40
1.0
  9
$TEXTSTYLE
  7
STANDARD
  9
$CLAYER
  8
0
  9
$CELTYPE
  6
BYLAYER
  9
$CECOLOR
 62
   256
  9
$DIMSCALE
 40
1.0
  9
$DIMASZ
 40
3.302
  9
$DIMEXO
 40
1.0
  9
$DIMDLI
 40
3.75
  9
$DIMRND
 40
0.0
  9
$DIMDLE
 40
0.0
  9
$DIMEXE
 40
1.0
  9
$DIMTP
 40
0.0
  9
$DIMTM
 40
0.0
  9
$DIMTXT
 40
3.5
  9
$DIMCEN
 40
2.5
  9
$DIMTSZ
 40
0.0
  9
$DIMTOL
 70
     0
  9
$DIMLIM
 70
     0
  9
$DIMTIH
 70
     1
  9
$DIMTOH
 70
     1
  9
$DIMSE1
 70
     0
  9
$DIMSE2
 70
     0
  9
$DIMTAD
 70
     1
  9
$DIMZIN
 70
     0
  9
$DIMBLK
  1

  9
$DIMASO
 70
     1
  9
$DIMSHO
 70
     1
  9
$DIMPOST
  1

  9
$DIMAPOST
  1

  9
$DIMALT
 70
     0
  9
$DIMALTD
 70
     3
  9
$DIMALTF
 40
0.0393700787
  9
$DIMLFAC
 40
1.0
  9
$DIMTOFL
 70
     1
  9
$DIMTVP
 40
0.0
  9
$DIMTIX
 70
     0
  9
$DIMSOXD
 70
     0
  9
$DIMSAH
 70
     0
  9
$DIMBLK1
  1

  9
$DIMBLK2
  1

  9
$DIMSTYLE
  2
ISO-25
  9
$DIMCLRD
 70
     0
  9
$DIMCLRE
 70
     0
  9
$DIMCLRT
 70
     0
  9
$DIMTFAC
 40
1.0
  9
$DIMGAP
 40
1.524
  9
$LUNITS
 70
     2
  9
$LUPREC
 70
     2
  9
$SKETCHINC
 40
1.0
  9
$FILLETRAD
 40
10.0
  9
$AUNITS
 70
     0
  9
$AUPREC
 70
     2
  9
$MENU
  1
.
  9
$ELEVATION
 40
0.0
  9
$PELEVATION
 40
0.0
  9
$THICKNESS
 40
0.0
  9
$LIMCHECK
 70
     0
  9
$CHAMFERA
 40
10.0
  9
$CHAMFERB
 40
10.0
  9
$SKPOLY
 70
     0
  9
$TDCREATE
 40
2457816.356402129
  9
$TDUPDATE
 40
2457816.356403032
  9
$TDINDWG
 40
0.0000000116
  9
$TDUSRTIMER
 40
0.0000000116
  9
$USRTIMER
 70
     1
  9
$ANGBASE
 50
0.0
  9
$ANGDIR
 70
     0
  9
$PDMODE
 70
     0
  9
$PDSIZE
 40
-1.0
  9
$PLINEWID
 40
0.0
  9
$COORDS
 70
     1
  9
$SPLFRAME
 70
     0
  9
$SPLINETYPE
 70
     6
  9
$SPLINESEGS
 70
     8
  9
$ATTDIA
 70
     0
  9
$ATTREQ
 70
     1
  9
$HANDLING
 70
     1
  9
$HANDSEED
  5
5BD
  9
$SURFTAB1
 70
     6
  9
$SURFTAB2
 70
     6
  9
$SURFTYPE
 70
     6
  9
$SURFU
 70
     6
  9
$SURFV
 70
     6
  9
$UCSNAME
  2

  9
$UCSORG
 10
0.0
 20
0.0
 30
0.0
  9
$UCSXDIR
 10
1.0
 20
0.0
 30
0.0
  9
$UCSYDIR
 10
0.0
 20
1.0
 30
0.0
  9
$PUCSNAME
  2

  9
$PUCSORG
 10
0.0
 20
0.0
 30
0.0
  9
$PUCSXDIR
 10
1.0
 20
0.0
 30
0.0
  9
$PUCSYDIR
 10
0.0
 20
1.0
 30
0.0
  9
$USERI1
 70
     0
  9
$USERI2
 70
     0
  9
$USERI3
 70
     0
  9
$USERI4
 70
     0
  9
$USERI5
 70
     0
  9
$USERR1
 40
0.0
  9
$USERR2
 40
0.0
  9
$USERR3
 40
0.0
  9
$USERR4
 40
0.0
  9
$USERR5
 40
0.0
  9
$WORLDVIEW
 70
     1
  9
$SHADEDGE
 70
     3
  9
$SHADEDIF
 70
    70
  9
$TILEMODE
 70
     1
  9
$MAXACTVP
 70
    64
  9
$PLIMCHECK
 70
     0
  9
$PEXTMIN
 10
1.0000000000E+20
 20
1.0000000000E+20
 30
1.0000000000E+20
  9
$PEXTMAX
 10
-1.0000000000E+20
 20
-1.0000000000E+20
 30
-1.0000000000E+20
  9
$PLIMMIN
 10
0.0
 20
0.0
  9
$PLIMMAX
 10
420.0
 20
297.0
  9
$UNITMODE
 70
     0
  9
$VISRETAIN
 70
     1
  9
$PLINEGEN
 70
     0
  9
$PSLTSCALE
 70
     1
  0
ENDSEC
  0
SECTION
  2
TABLES
  0
TABLE
  2
VPORT
 70
     1
  0
VPORT
  2
*ACTIVE
 70
     0
 10
0.0
 20
0.0
 11
1.0
 21
1.0
 12
297.0
 22
210.0
 13
0.0
 23
0.0
 14
10.0
 24
10.0
 15
10.0
 25
10.0
 16
0.0
 26
0.0
 36
1.0
 17
0.0
 27
0.0
 37
0.0
 40
420.0
 41
1.4142857143
 42
50.0
 43
0.0
 44
0.0
 50
0.0
 51
0.0
 71
     0
 72
  2000
 73
     1
 74
     3
 75
     0
 76
     0
 77
     0
 78
     0
  0
ENDTAB
  0
TABLE
  2
LTYPE
 70
     6
  0
LTYPE
  2
CONTINUOUS
 70
     0
  3
Solid line
 72
    65
 73
     0
 40
0.0
  0
LTYPE
  2
HIDDEN
 70
     0
  3
Hidden __ __ __ __ __ __ __ __ __ __ __ __ __ __
 72
    65
 73
     2
 40
1.905
 49
1.27
 49
-0.635
  0
LTYPE
  2
PHANTOM
 70
     0
  3
Phantom ______  __  __  ______  __  __  ______
 72
    65
 73
     6
 40
12.7
 49
6.35
 49
-1.27
 49
1.27
 49
-1.27
 49
1.27
 49
-1.27
  0
LTYPE
  2
CENTER
 70
     0
  3
Center ____ _ ____ _ ____ _ ____ _ ____ _ ____
 72
    65
 73
     4
 40
10.16
 49
6.35
 49
-1.27
 49
1.27
 49
-1.27
  0
LTYPE
  2
CENTERX2
 70
     0
  3
Center (2x) ________  __  ________  __  _____
 72
    65
 73
     4
 40
20.32
 49
12.7
 49
-2.54
 49
2.54
 49
-2.54
  0
LTYPE
  2
DOT2
 70
     0
  3
Dot (.5x) ........................................
 72
    65
 73
     2
 40
0.635
 49
0.0
 49
-0.635
  0
ENDTAB
  0
TABLE
  2
LAYER
 70
     3
  0
LAYER
  2
0
 70
     0
 62
     7
  6
CONTINUOUS
  0
LAYER
  2
FORMAT
 70
     0
 62
     7
  6
CONTINUOUS
  0
LAYER
  2
PROTOTYPE
 70
     0
 62
    -7
  6
CONTINUOUS
  0
ENDTAB
  0
TABLE
  2
STYLE
 70
     1
  0
STYLE
  2
STANDARD
 70
     0
 40
0.0
 41
1.0
 50
0.0
 71
     0
 42
3.5
  3
txt
  4

  0
ENDTAB
  0
TABLE
  2
VIEW
 70
     0
  0
ENDTAB
  0
TABLE
  2
UCS
 70
     0
  0
ENDTAB
  0
TABLE
  2
APPID
 70
     1
  0
APPID
  2
ACAD
 70
     0
  0
ENDTAB
  0
TABLE
  2
DIMSTYLE
 70
     1
  0
DIMSTYLE
  2
ISO-25
 70
     0
  3

  4

  5

  6

  7

 40
1.0
 41
2.5
 42
0.625
 43
3.75
 44
1.25
 45
0.0
 46
0.0
 47
0.0
 48
0.0
140
2.5
141
2.5
142
0.0
143
0.0393700787
144
1.0
145
0.0
146
1.0
147
0.625
 71
     0
 72
     0
 73
     0
 74
     0
 75
     0
 76
     0
 77
     1
 78
     8
170
     0
171
     3
172
     1
173
     0
174
     0
175
     0
176
     0
177
     0
178
     0
  0
ENDTAB
  0
ENDSEC
  0
SECTION
  2
BLOCKS
  0
BLOCK
  8
0
  2
$MODEL_SPACE
 70
     0
 10
0.0
 20
0.0
 30
0.0
  3
$MODEL_SPACE
  1

  0
ENDBLK
  5
21
  8
0
  0
BLOCK
 67
     1
  8
0
  2
$PAPER_SPACE
 70
     0
 10
0.0
 20
0.0
 30
0.0
  3
$PAPER_SPACE
  1

  0
ENDBLK
  5
1D
 67
     1
  8
0
  0
BLOCK
  8
0
  2
SW_CENTERMARKSYMBOL_0
 70
     0
 10
0.0
 20
0.0
 30
0.0
  3
SW_CENTERMARKSYMBOL_0
  1

  0
LINE
  5
294
  8
FORMAT
 62
     0
 10
0.0
 20
0.0
 30
0.0
 11
0.0
 21
2.5
 31
0.0
  0
LINE
  5
295
  8
FORMAT
 62
     0
 10
0.0
 20
0.0
 30
0.0
 11
2.5
 21
0.0
 31
0.0
  0
LINE
  5
296
  8
FORMAT
 62
     0
 10
0.0
 20
0.0
 30
0.0
 11
0.0
 21
-2.5
 31
0.0
  0
LINE
  5
297
  8
FORMAT
 62
     0
 10
0.0
 20
0.0
 30
0.0
 11
-2.5
 21
0.0
 31
0.0
  0
LINE
  5
298
  8
FORMAT
 62
     0
 10
0.0
 20
5.0
 30
0.0
 11
0.0
 21
297.2525967804
 31
0.0
  0
LINE
  5
299
  8
FORMAT
 62
     0
 10
5.0
 20
0.0
 30
0.0
 11
90.607381076
 21
0.0
 31
0.0
  0
LINE
  5
29A
  8
FORMAT
 62
     0
 10
0.0
 20
-5.0
 30
0.0
 11
0.0
 21
-88.9369922009
 31
0.0
  0
LINE
  5
29B
  8
FORMAT
 62
     0
 10
-5.0
 20
0.0
 30
0.0
 11
-90.1841818984
 21
0.0
 31
0.0
  0
ENDBLK
  5
293
  8
0
  0
ENDSEC
  0
SECTION
  2
ENTITIES
  0
LINE
  5
46
  8
0
  6
CONTINUOUS
 62
     7
 10
-24.2007107131
 20
511.2654366556
 30
0.0
 11
-38.7007102958
 21
511.2654366556
 31
0.0
  0
LINE
  5
47
  8
0
  6
CONTINUOUS
 62
     7
 10
-38.7007102958
 20
346.2654300991
 30
0.0
 11
-34.2007086269
 21
346.2654300991
 31
0.0
  0
LINE
  5
48
  8
0
  6
CONTINUOUS
 62
     7
 10
125.7992877968
 20
346.2654300991
 30
0.0
 11
130.2992894657
 21
346.2654300991
 31
0.0
  0
LINE
  5
49
  8
0
  6
CONTINUOUS
 62
     7
 10
130.2992894657
 20
511.2654366556
 30
0.0
 11
115.799289883
 21
511.2654366556
 31
0.0
  0
LINE
  5
4A
  8
0
  6
CONTINUOUS
 62
     7
 10
19.7992890485
 20
571.5129398766
 30
0.0
 11
19.7992890485
 21
579.7654264632
 31
0.0
  0
LINE
  5
4B
  8
0
  6
CONTINUOUS
 62
     7
 10
71.7992901214
 20
579.7654264632
 30
0.0
 11
71.7992901214
 21
571.5141170684
 31
0.0
  0
LINE
  5
4C
  8
0
  6
CONTINUOUS
 62
     7
 10
-2.2007108323
 20
519.7654315296
 30
0.0
 11
6.7992887803
 21
514.569277412
 31
0.0
  0
LINE
  5
4D
  8
0
  6
CONTINUOUS
 62
     7
 10
6.7992887803
 20
514.569277412
 30
0.0
 11
13.1767361768
 21
518.251302189
 31
0.0
  0
LINE
  5
4E
  8
0
  6
CONTINUOUS
 62
     7
 10
78.4218429931
 20
518.251302189
 30
0.0
 11
84.7992903896
 21
514.569277412
 31
0.0
  0
LINE
  5
4F
  8
0
  6
CONTINUOUS
 62
     7
 10
84.7992903896
 20
514.569277412
 30
0.0
 11
93.7992900022
 21
519.7654315296
 31
0.0
  0
POLYLINE
  5
50
  8
0
  6
CONTINUOUS
 62
     7
 66
     1
 10
0.0
 20
0.0
 30
0.0
  0
VERTEX
  5
345
  8
0
  6
CONTINUOUS
 62
     7
 10
90.3261087247
 20
579.7654264632
 30
0.0
  0
VERTEX
  5
346
  8
0
  6
CONTINUOUS
 62
     7
 10
89.8873105057
 20
582.0123874608
 30
0.0
  0
VERTEX
  5
347
  8
0
  6
CONTINUOUS
 62
     7
 10
88.3269726642
 20
586.9408571187
 30
0.0
  0
VERTEX
  5
348
  8
0
  6
CONTINUOUS
 62
     7
 10
86.2135595985
 20
591.6684591237
 30
0.0
  0
VERTEX
  5
349
  8
0
  6
CONTINUOUS
 62
     7
 10
83.8280364283
 20
596.2756299439
 30
0.0
  0
VERTEX
  5
34A
  8
0
  6
CONTINUOUS
 62
     7
 10
82.081627787
 20
601.130711383
 30
0.0
  0
VERTEX
  5
34B
  8
0
  6
CONTINUOUS
 62
     7
 10
81.0682258912
 20
606.187316126
 30
0.0
  0
VERTEX
  5
34C
  8
0
  6
CONTINUOUS
 62
     7
 10
80.799289734
 20
611.362802333
 30
0.0
  0
VERTEX
  5
34D
  8
0
  6
CONTINUOUS
 62
     7
 10
80.799289734
 20
616.5641122523
 30
0.0
  0
VERTEX
  5
34E
  8
0
  6
CONTINUOUS
 62
     7
 10
80.799289734
 20
621.7654370728
 30
0.0
  0
SEQEND
  5
5BC
  8
0
  6
CONTINUOUS
 62
     7
  0
POLYLINE
  5
51
  8
0
  6
CONTINUOUS
 62
     7
 66
     1
 10
0.0
 20
0.0
 30
0.0
  0
VERTEX
  5
34F
  8
0
  6
CONTINUOUS
 62
     7
 10
10.7992894359
 20
621.7654370728
 30
0.0
  0
VERTEX
  5
350
  8
0
  6
CONTINUOUS
 62
     7
 10
10.7992894359
 20
616.5641122523
 30
0.0
  0
VERTEX
  5
351
  8
0
  6
CONTINUOUS
 62
     7
 10
10.7992894359
 20
611.362802333
 30
0.0
  0
VERTEX
  5
352
  8
0
  6
CONTINUOUS
 62
     7
 10
10.5303532787
 20
606.187316126
 30
0.0
  0
VERTEX
  5
353
  8
0
  6
CONTINUOUS
 62
     7
 10
9.516951383
 20
601.130711383
 30
0.0
  0
VERTEX
  5
354
  8
0
  6
CONTINUOUS
 62
     7
 10
7.7705427416
 20
596.2756299439
 30
0.0
  0
VERTEX
  5
355
  8
0
  6
CONTINUOUS
 62
     7
 10
5.3850195714
 20
591.6684591237
 30
0.0
  0
VERTEX
  5
356
  8
0
  6
CONTINUOUS
 62
     7
 10
3.2716065057
 20
586.9408571187
 30
0.0
  0
VERTEX
  5
357
  8
0
  6
CONTINUOUS
 62
     7
 10
1.7112686642
 20
582.0123874608
 30
0.0
  0
VERTEX
  5
358
  8
0
  6
CONTINUOUS
 62
     7
 10
1.2724704452
 20
579.7654264632
 30
0.0
  0
SEQEND
  5
5BB
  8
0
  6
CONTINUOUS
 62
     7
  0
LINE
  5
52
  8
0
  6
CONTINUOUS
 62
     7
 10
-11.7007114581
 20
539.7654348079
 30
0.0
 11
-2.2007108323
 21
534.2806079451
 31
0.0
  0
LINE
  5
53
  8
0
  6
CONTINUOUS
 62
     7
 10
-11.3864794962
 20
561.7654346887
 30
0.0
 11
-11.7007114581
 21
549.7654327217
 31
0.0
  0
LINE
  5
54
  8
0
  6
CONTINUOUS
 62
     7
 10
-11.7007114581
 20
549.7654327217
 30
0.0
 11
-11.2640999846
 21
539.7654348079
 31
0.0
  0
LINE
  5
55
  8
0
  6
CONTINUOUS
 62
     7
 10
103.299290628
 20
549.7654327217
 30
0.0
 11
102.9850586661
 21
561.7654346887
 31
0.0
  0
LINE
  5
56
  8
0
  6
CONTINUOUS
 62
     7
 10
102.8626791545
 20
539.7654348079
 30
0.0
 11
103.299290628
 21
549.7654327217
 31
0.0
  0
LINE
  5
57
  8
0
  6
CONTINUOUS
 62
     7
 10
93.7992900022
 20
534.2806079451
 30
0.0
 11
103.299290628
 21
539.7654348079
 31
0.0
  0
LINE
  5
58
  8
0
  6
CONTINUOUS
 62
     7
 10
59.7992900171
 20
640.2654373113
 30
0.0
 11
58.2992897712
 21
641.7654329005
 31
0.0
  0
LINE
  5
59
  8
0
  6
CONTINUOUS
 62
     7
 10
33.2992893987
 20
641.7654329005
 30
0.0
 11
31.7992891528
 21
640.2654373113
 31
0.0
  0
LINE
  5
5A
  8
0
  6
CONTINUOUS
 62
     7
 10
2.7992881246
 20
516.8786817256
 30
0.0
 11
2.7992881246
 21
511.2654366556
 31
0.0
  0
LINE
  5
5B
  8
0
  6
CONTINUOUS
 62
     7
 10
88.7992910453
 20
511.2654366556
 30
0.0
 11
88.7992910453
 21
516.8786817256
 31
0.0
  0
LINE
  5
5C
  8
0
  6
CONTINUOUS
 62
     7
 10
91.7992896744
 20
667.1654307309
 30
0.0
 11
71.1208160379
 21
674.6917837325
 31
0.0
  0
LINE
  5
5D
  8
0
  6
CONTINUOUS
 62
     7
 10
20.4777631321
 20
674.6917837325
 30
0.0
 11
-0.2007105045
 21
667.1654307309
 31
0.0
  0
LINE
  5
5E
  8
0
  6
CONTINUOUS
 62
     7
 10
-0.2007105045
 20
667.1654307309
 30
0.0
 11
-0.2007105045
 21
663.7654327813
 31
0.0
  0
LINE
  5
5F
  8
0
  6
CONTINUOUS
 62
     7
 10
91.7992896744
 20
663.7654327813
 30
0.0
 11
91.7992896744
 21
667.1654307309
 31
0.0
  0
LINE
  5
60
  8
0
  6
CONTINUOUS
 62
     7
 10
59.7992900171
 20
660.7654267016
 30
0.0
 11
59.7992900171
 21
660.924556202
 31
0.0
  0
LINE
  5
61
  8
0
  6
CONTINUOUS
 62
     7
 10
31.7992891528
 20
660.924556202
 30
0.0
 11
31.7992891528
 21
660.7654267016
 31
0.0
  0
LINE
  5
62
  8
0
  6
CONTINUOUS
 62
     7
 10
-24.2007107131
 20
511.1684077445
 30
0.0
 11
-24.2007107131
 21
359.5018708173
 31
0.0
  0
LINE
  5
63
  8
0
  6
CONTINUOUS
 62
     7
 10
-34.2007086269
 20
359.5018708173
 30
0.0
 11
-24.2007107131
 21
359.5018708173
 31
0.0
  0
LINE
  5
64
  8
0
  6
CONTINUOUS
 62
     7
 10
-38.7007102958
 20
428.7654333774
 30
0.0
 11
-38.7007102958
 21
346.2654300991
 31
0.0
  0
LINE
  5
65
  8
0
  6
CONTINUOUS
 62
     7
 10
-38.7007102958
 20
511.2654366556
 30
0.0
 11
-38.7007102958
 21
428.7654333774
 31
0.0
  0
LINE
  5
66
  8
0
  6
CONTINUOUS
 62
     7
 10
125.7992877968
 20
359.5018708173
 30
0.0
 11
115.799289883
 21
359.5018708173
 31
0.0
  0
LINE
  5
67
  8
0
  6
CONTINUOUS
 62
     7
 10
115.799289883
 20
511.1684077445
 30
0.0
 11
115.799289883
 21
359.5018708173
 31
0.0
  0
LINE
  5
68
  8
0
  6
CONTINUOUS
 62
     7
 10
130.2992894657
 20
346.2654300991
 30
0.0
 11
130.2992894657
 21
511.2654366556
 31
0.0
  0
LINE
  5
69
  8
0
  6
CONTINUOUS
 62
     7
 10
4.2142055341
 20
549.7654327217
 30
0.0
 11
87.3843736358
 21
549.7654327217
 31
0.0
  0
LINE
  5
6A
  8
0
  6
CONTINUOUS
 62
     7
 10
4.3075426825
 20
561.7654346887
 30
0.0
 11
9.1356716462
 21
561.7654346887
 31
0.0
  0
LINE
  5
6B
  8
0
  6
CONTINUOUS
 62
     7
 10
82.4629075237
 20
561.7654346887
 30
0.0
 11
9.1356716462
 21
561.7654346887
 31
0.0
  0
LINE
  5
6C
  8
0
  6
CONTINUOUS
 62
     7
 10
87.2910364874
 20
561.7654346887
 30
0.0
 11
82.4629075237
 21
561.7654346887
 31
0.0
  0
LINE
  5
6D
  8
0
  6
CONTINUOUS
 62
     7
 10
71.3904804893
 20
532.8372293178
 30
0.0
 11
20.2080986806
 21
532.8372293178
 31
0.0
  0
POLYLINE
  5
6E
  8
0
  6
CONTINUOUS
 62
     7
 66
     1
 10
0.0
 20
0.0
 30
0.0
  0
VERTEX
  5
359
  8
0
  6
CONTINUOUS
 62
     7
 10
20.2080986806
 20
532.8372293178
 30
0.0
  0
VERTEX
  5
35A
  8
0
  6
CONTINUOUS
 62
     7
 10
17.8826253273
 20
532.744901723
 30
0.0
  0
VERTEX
  5
35B
  8
0
  6
CONTINUOUS
 62
     7
 10
15.6328088947
 20
532.4605726663
 30
0.0
  0
SEQEND
  5
5BA
  8
0
  6
CONTINUOUS
 62
     7
  0
POLYLINE
  5
6F
  8
0
  6
CONTINUOUS
 62
     7
 66
     1
 10
0.0
 20
0.0
 30
0.0
  0
VERTEX
  5
35C
  8
0
  6
CONTINUOUS
 62
     7
 10
5.0987161108
 20
538.0462058845
 30
0.0
  0
VERTEX
  5
35D
  8
0
  6
CONTINUOUS
 62
     7
 10
6.939199508
 20
537.826234943
 30
0.0
  0
VERTEX
  5
35E
  8
0
  6
CONTINUOUS
 62
     7
 10
9.5795697876
 20
537.1619858805
 30
0.0
  0
VERTEX
  5
35F
  8
0
  6
CONTINUOUS
 62
     7
 10
11.9935914286
 20
536.1248874131
 30
0.0
  0
VERTEX
  5
360
  8
0
  6
CONTINUOUS
 62
     7
 10
14.057711453
 20
534.6952625576
 30
0.0
  0
VERTEX
  5
361
  8
0
  6
CONTINUOUS
 62
     7
 10
15.4484684922
 20
532.9150208298
 30
0.0
  0
VERTEX
  5
362
  8
0
  6
CONTINUOUS
 62
     7
 10
15.6328088947
 20
532.4605726663
 30
0.0
  0
SEQEND
  5
5B9
  8
0
  6
CONTINUOUS
 62
     7
  0
POLYLINE
  5
70
  8
0
  6
CONTINUOUS
 62
     7
 66
     1
 10
0.0
 20
0.0
 30
0.0
  0
VERTEX
  5
363
  8
0
  6
CONTINUOUS
 62
     7
 10
75.9657702752
 20
532.4605726663
 30
0.0
  0
VERTEX
  5
364
  8
0
  6
CONTINUOUS
 62
     7
 10
76.4381706127
 20
533.4267863098
 30
0.0
  0
VERTEX
  5
365
  8
0
  6
CONTINUOUS
 62
     7
 10
77.2451020189
 20
534.4126843873
 30
0.0
  0
VERTEX
  5
366
  8
0
  6
CONTINUOUS
 62
     7
 10
78.3562704333
 20
535.3491329614
 30
0.0
  0
VERTEX
  5
367
  8
0
  6
CONTINUOUS
 62
     7
 10
79.7036297031
 20
536.1767360035
 30
0.0
  0
VERTEX
  5
368
  8
0
  6
CONTINUOUS
 62
     7
 10
81.2856189318
 20
536.8972071472
 30
0.0
  0
VERTEX
  5
369
  8
0
  6
CONTINUOUS
 62
     7
 10
82.8497044154
 20
537.4165424171
 30
0.0
  0
VERTEX
  5
36A
  8
0
  6
CONTINUOUS
 62
     7
 10
84.5135717996
 20
537.8004261318
 30
0.0
  0
VERTEX
  5
36B
  8
0
  6
CONTINUOUS
 62
     7
 10
86.4998630591
 20
538.0462058845
 30
0.0
  0
SEQEND
  5
5B8
  8
0
  6
CONTINUOUS
 62
     7
  0
POLYLINE
  5
71
  8
0
  6
CONTINUOUS
 62
     7
 66
     1
 10
0.0
 20
0.0
 30
0.0
  0
VERTEX
  5
36C
  8
0
  6
CONTINUOUS
 62
     7
 10
75.9657702752
 20
532.4605726663
 30
0.0
  0
VERTEX
  5
36D
  8
0
  6
CONTINUOUS
 62
     7
 10
74.2392565467
 20
532.6971956554
 30
0.0
  0
VERTEX
  5
36E
  8
0
  6
CONTINUOUS
 62
     7
 10
71.3904804893
 20
532.8372293178
 30
0.0
  0
SEQEND
  5
5B7
  8
0
  6
CONTINUOUS
 62
     7
  0
LINE
  5
72
  8
0
  6
CONTINUOUS
 62
     7
 10
87.3843736358
 20
539.7654348079
 30
0.0
 11
4.2142055341
 21
539.7654348079
 31
0.0
  0
LINE
  5
73
  8
0
  6
CONTINUOUS
 62
     7
 10
60.5842543178
 20
580.4232084218
 30
0.0
 11
60.5842543178
 21
577.6010626021
 31
0.0
  0
ARC
  5
74
  8
0
  6
CONTINUOUS
 62
     7
 10
422.4750922182
 20
560.4124913428
 30
0.0
 40
362.2988069787352
 50
177.2806909771
 51
179.7860381478
  0
ARC
  5
75
  8
0
  6
CONTINUOUS
 62
     7
 10
-323.3706609571
 20
560.4245724747
 30
0.0
 40
354.7905568775703
 50
0.2165388203
 51
2.7398479844
  0
LINE
  5
76
  8
0
  6
CONTINUOUS
 62
     7
 10
31.0143248521
 20
580.6747102204
 30
0.0
 11
31.0143248521
 21
577.3839675847
 31
0.0
  0
POLYLINE
  5
77
  8
0
  6
CONTINUOUS
 62
     7
 66
     1
 10
0.0
 20
0.0
 30
0.0
  0
VERTEX
  5
36F
  8
0
  6
CONTINUOUS
 62
     7
 10
31.0143248521
 20
580.6747102204
 30
0.0
  0
VERTEX
  5
370
  8
0
  6
CONTINUOUS
 62
     7
 10
31.4079352998
 20
585.9695249263
 30
0.0
  0
VERTEX
  5
371
  8
0
  6
CONTINUOUS
 62
     7
 10
32.4043470778
 20
591.3908504907
 30
0.0
  0
VERTEX
  5
372
  8
0
  6
CONTINUOUS
 62
     7
 10
33.1478628673
 20
594.0770083133
 30
0.0
  0
VERTEX
  5
373
  8
0
  6
CONTINUOUS
 62
     7
 10
34.1614258819
 20
596.6995530787
 30
0.0
  0
VERTEX
  5
374
  8
0
  6
CONTINUOUS
 62
     7
 10
35.2016861894
 20
598.6144416991
 30
0.0
  0
VERTEX
  5
375
  8
0
  6
CONTINUOUS
 62
     7
 10
36.5496983164
 20
600.376295394
 30
0.0
  0
VERTEX
  5
376
  8
0
  6
CONTINUOUS
 62
     7
 10
38.158589729
 20
601.8130504552
 30
0.0
  0
VERTEX
  5
377
  8
0
  6
CONTINUOUS
 62
     7
 10
40.0997253478
 20
602.9384159509
 30
0.0
  0
VERTEX
  5
378
  8
0
  6
CONTINUOUS
 62
     7
 10
41.8464981363
 20
603.5694503251
 30
0.0
  0
VERTEX
  5
379
  8
0
  6
CONTINUOUS
 62
     7
 10
43.7237599276
 20
603.9525144759
 30
0.0
  0
VERTEX
  5
37A
  8
0
  6
CONTINUOUS
 62
     7
 10
45.7814796996
 20
604.0885322753
 30
0.0
  0
VERTEX
  5
37B
  8
0
  6
CONTINUOUS
 62
     7
 10
47.8890533437
 20
603.9501749936
 30
0.0
  0
VERTEX
  5
37C
  8
0
  6
CONTINUOUS
 62
     7
 10
50.0653365039
 20
603.4745150271
 30
0.0
  0
VERTEX
  5
37D
  8
0
  6
CONTINUOUS
 62
     7
 10
52.1758778364
 20
602.5954061213
 30
0.0
  0
VERTEX
  5
37E
  8
0
  6
CONTINUOUS
 62
     7
 10
53.8385889836
 20
601.4904552165
 30
0.0
  0
VERTEX
  5
37F
  8
0
  6
CONTINUOUS
 62
     7
 10
55.3193043329
 20
600.0441187087
 30
0.0
  0
VERTEX
  5
380
  8
0
  6
CONTINUOUS
 62
     7
 10
56.6477009438
 20
598.1680178109
 30
0.0
  0
VERTEX
  5
381
  8
0
  6
CONTINUOUS
 62
     7
 10
57.708678522
 20
596.0383140508
 30
0.0
  0
VERTEX
  5
382
  8
0
  6
CONTINUOUS
 62
     7
 10
58.6841364734
 20
593.270512766
 30
0.0
  0
VERTEX
  5
383
  8
0
  6
CONTINUOUS
 62
     7
 10
59.401650668
 20
590.417923874
 30
0.0
  0
VERTEX
  5
384
  8
0
  6
CONTINUOUS
 62
     7
 10
59.9652489059
 20
587.4472134772
 30
0.0
  0
VERTEX
  5
385
  8
0
  6
CONTINUOUS
 62
     7
 10
60.3521417238
 20
584.4579064313
 30
0.0
  0
VERTEX
  5
386
  8
0
  6
CONTINUOUS
 62
     7
 10
60.5842543178
 20
580.4232084218
 30
0.0
  0
SEQEND
  5
5B6
  8
0
  6
CONTINUOUS
 62
     7
  0
LINE
  5
78
  8
0
  6
CONTINUOUS
 62
     7
 10
4.3075426825
 20
579.7654264632
 30
0.0
 11
9.1356716462
 21
579.7654264632
 31
0.0
  0
LINE
  5
79
  8
0
  6
CONTINUOUS
 62
     7
 10
9.1356716462
 20
579.7654264632
 30
0.0
 11
9.1356716462
 21
561.7654346887
 31
0.0
  0
ARC
  5
7A
  8
0
  6
CONTINUOUS
 62
     7
 10
-137.0440971363
 20
571.0413556306
 30
0.0
 40
156.8416532274904
 50
356.6094374415
 51
0.1722745657
  0
LINE
  5
7B
  8
0
  6
CONTINUOUS
 62
     7
 10
9.1356716462
 20
579.7654264632
 30
0.0
 11
19.7992890485
 21
579.7654264632
 31
0.0
  0
LINE
  5
7C
  8
0
  6
CONTINUOUS
 62
     7
 10
71.7992901214
 20
579.7654264632
 30
0.0
 11
82.4629075237
 21
579.7654264632
 31
0.0
  0
LINE
  5
7D
  8
0
  6
CONTINUOUS
 62
     7
 10
82.4629075237
 20
579.7654264632
 30
0.0
 11
82.4629075237
 21
561.7654346887
 31
0.0
  0
POLYLINE
  5
7E
  8
0
  6
CONTINUOUS
 62
     7
 66
     1
 10
0.0
 20
0.0
 30
0.0
  0
VERTEX
  5
387
  8
0
  6
CONTINUOUS
 62
     7
 10
72.0768968918
 20
561.7654346887
 30
0.0
  0
VERTEX
  5
388
  8
0
  6
CONTINUOUS
 62
     7
 10
71.8399814673
 20
568.4354626599
 30
0.0
  0
VERTEX
  5
389
  8
0
  6
CONTINUOUS
 62
     7
 10
71.7998060741
 20
571.5141170684
 30
0.0
  0
SEQEND
  5
5B5
  8
0
  6
CONTINUOUS
 62
     7
  0
LINE
  5
7F
  8
0
  6
CONTINUOUS
 62
     7
 10
82.4629075237
 20
579.7654264632
 30
0.0
 11
87.2910364874
 21
579.7654264632
 31
0.0
  0
ARC
  5
80
  8
0
  6
CONTINUOUS
 62
     7
 10
-0.4452959819
 20
474.2135152108
 30
0.0
 40
64.07299328686753
 50
85.036189458
 51
91.4183582215
  0
LINE
  5
81
  8
0
  6
CONTINUOUS
 62
     7
 10
4.2142055341
 20
539.7654348079
 30
0.0
 11
-4.5526207081
 21
539.7654348079
 31
0.0
  0
ARC
  5
82
  8
0
  6
CONTINUOUS
 62
     7
 10
91.9552673493
 20
477.0764689705
 30
0.0
 40
61.21331763057461
 50
88.4323999537
 51
95.1130523667
  0
LINE
  5
83
  8
0
  6
CONTINUOUS
 62
     7
 10
96.1511998781
 20
539.7654348079
 30
0.0
 11
87.3843736358
 21
539.7654348079
 31
0.0
  0
LINE
  5
84
  8
0
  6
CONTINUOUS
 62
     7
 10
87.3843736358
 20
549.7654327217
 30
0.0
 11
96.1511998781
 21
549.7654327217
 31
0.0
  0
LINE
  5
85
  8
0
  6
CONTINUOUS
 62
     7
 10
95.8459533163
 20
561.7654346887
 30
0.0
 11
87.2910364874
 21
561.7654346887
 31
0.0
  0
LINE
  5
86
  8
0
  6
CONTINUOUS
 62
     7
 10
-4.5526207081
 20
549.7654327217
 30
0.0
 11
4.2142055341
 21
549.7654327217
 31
0.0
  0
LINE
  5
87
  8
0
  6
CONTINUOUS
 62
     7
 10
4.3075426825
 20
561.7654346887
 30
0.0
 11
-4.2473741464
 21
561.7654346887
 31
0.0
  0
LINE
  5
88
  8
0
  6
CONTINUOUS
 62
     7
 10
-4.2473741464
 20
579.7654264632
 30
0.0
 11
4.3075426825
 21
579.7654264632
 31
0.0
  0
LINE
  5
89
  8
0
  6
CONTINUOUS
 62
     7
 10
87.2910364874
 20
579.7654264632
 30
0.0
 11
95.8459533163
 21
579.7654264632
 31
0.0
  0
LINE
  5
8A
  8
0
  6
CONTINUOUS
 62
     7
 10
15.6328088947
 20
519.7654315296
 30
0.0
 11
15.6328088947
 21
532.4605726663
 31
0.0
  0
LINE
  5
8B
  8
0
  6
CONTINUOUS
 62
     7
 10
-2.2007108323
 20
519.7654315296
 30
0.0
 11
15.6328088947
 21
519.7654315296
 31
0.0
  0
LINE
  5
8C
  8
0
  6
CONTINUOUS
 62
     7
 10
-2.2007108323
 20
519.7654315296
 30
0.0
 11
-2.2007108323
 21
538.1271415416
 31
0.0
  0
LINE
  5
8D
  8
0
  6
CONTINUOUS
 62
     7
 10
-2.2007108323
 20
538.1271415416
 30
0.0
 11
-2.0312622778
 21
538.2668771807
 31
0.0
  0
LINE
  5
8E
  8
0
  6
CONTINUOUS
 62
     7
 10
75.9657702752
 20
519.7654315296
 30
0.0
 11
93.7992900022
 21
519.7654315296
 31
0.0
  0
LINE
  5
8F
  8
0
  6
CONTINUOUS
 62
     7
 10
75.9657702752
 20
532.4605726663
 30
0.0
 11
75.9657702752
 21
519.7654315296
 31
0.0
  0
LINE
  5
90
  8
0
  6
CONTINUOUS
 62
     7
 10
93.6298414477
 20
538.2668771807
 30
0.0
 11
93.7992900022
 21
538.1271415416
 31
0.0
  0
LINE
  5
91
  8
0
  6
CONTINUOUS
 62
     7
 10
93.7992900022
 20
519.7654315296
 30
0.0
 11
93.7992900022
 21
538.1271415416
 31
0.0
  0
ARC
  5
92
  8
0
  6
CONTINUOUS
 62
     7
 10
-15.1308091125
 20
567.5113298348
 30
0.0
 40
56.79851228560654
 50
299.884034071
 51
302.7944768451
  0
ARC
  5
93
  8
0
  6
CONTINUOUS
 62
     7
 10
106.7293882824
 20
567.5113298348
 30
0.0
 40
56.79851228560654
 50
237.2055231549
 51
240.115965929
  0
LINE
  5
94
  8
0
  6
CONTINUOUS
 62
     7
 10
53.1236806296
 20
504.8622288767
 30
0.0
 11
63.7992888101
 21
504.8622288767
 31
0.0
  0
LINE
  5
95
  8
0
  6
CONTINUOUS
 62
     7
 10
47.5923541112
 20
491.2765123907
 30
0.0
 11
53.1236806296
 21
504.8622288767
 31
0.0
  0
LINE
  5
96
  8
0
  6
CONTINUOUS
 62
     7
 10
44.0062250587
 20
491.2765123907
 30
0.0
 11
47.5923541112
 21
491.2765123907
 31
0.0
  0
LINE
  5
97
  8
0
  6
CONTINUOUS
 62
     7
 10
38.4748985403
 20
504.8622288767
 30
0.0
 11
44.0062250587
 21
491.2765123907
 31
0.0
  0
LINE
  5
98
  8
0
  6
CONTINUOUS
 62
     7
 10
27.7992903598
 20
504.8622288767
 30
0.0
 11
38.4748985403
 21
504.8622288767
 31
0.0
  0
LINE
  5
99
  8
0
  6
CONTINUOUS
 62
     7
 10
27.7992903598
 20
504.8622288767
 30
0.0
 11
27.7992903598
 21
508.4193670217
 31
0.0
  0
LINE
  5
9A
  8
0
  6
CONTINUOUS
 62
     7
 10
40.9135750838
 20
508.4193670217
 30
0.0
 11
27.7992903598
 21
508.4193670217
 31
0.0
  0
LINE
  5
9B
  8
0
  6
CONTINUOUS
 62
     7
 10
50.6850040861
 20
508.4193670217
 30
0.0
 11
45.799289585
 21
496.4193725053
 31
0.0
  0
LINE
  5
9C
  8
0
  6
CONTINUOUS
 62
     7
 10
63.7992888101
 20
508.4193670217
 30
0.0
 11
50.6850040861
 21
508.4193670217
 31
0.0
  0
LINE
  5
9D
  8
0
  6
CONTINUOUS
 62
     7
 10
63.7992888101
 20
504.8622288767
 30
0.0
 11
63.7992888101
 21
508.4193670217
 31
0.0
  0
LINE
  5
9E
  8
0
  6
CONTINUOUS
 62
     7
 10
45.799289585
 20
496.4193725053
 30
0.0
 11
40.9135750838
 21
508.4193670217
 31
0.0
  0
LINE
  5
9F
  8
0
  6
CONTINUOUS
 62
     7
 10
62.9421460785
 20
491.2765123907
 30
0.0
 11
58.8487542578
 21
496.7086263958
 31
0.0
  0
LINE
  5
A0
  8
0
  6
CONTINUOUS
 62
     7
 10
58.4881210112
 20
491.2765123907
 30
0.0
 11
62.9421460785
 21
491.2765123907
 31
0.0
  0
LINE
  5
A1
  8
0
  6
CONTINUOUS
 62
     7
 10
54.8691057943
 20
496.07911194
 30
0.0
 11
58.4881210112
 21
491.2765123907
 31
0.0
  0
LINE
  5
A2
  8
0
  6
CONTINUOUS
 62
     7
 10
52.9137628496
 20
491.2765123907
 30
0.0
 11
54.8691057943
 21
496.07911194
 31
0.0
  0
LINE
  5
A3
  8
0
  6
CONTINUOUS
 62
     7
 10
57.8867222526
 20
503.4908005062
 30
0.0
 11
54.0460531943
 21
503.4908005062
 31
0.0
  0
LINE
  5
A4
  8
0
  6
CONTINUOUS
 62
     7
 10
56.073192262
 20
499.0365155998
 30
0.0
 11
57.8867222526
 21
503.4908005062
 31
0.0
  0
ARC
  5
A5
  8
0
  6
CONTINUOUS
 62
     7
 10
55.9068009885
 20
503.4973351091
 30
0.0
 40
4.463921678327313
 50
272.1361769839
 51
359.9161263734
  0
LINE
  5
A6
  8
0
  6
CONTINUOUS
 62
     7
 10
63.7992888101
 20
503.4908005062
 30
0.0
 11
60.3707178839
 21
503.4908005062
 31
0.0
  0
LINE
  5
A7
  8
0
  6
CONTINUOUS
 62
     7
 10
63.7992888101
 20
500.06222958
 30
0.0
 11
63.7992888101
 21
503.4908005062
 31
0.0
  0
LINE
  5
A8
  8
0
  6
CONTINUOUS
 62
     7
 10
62.7707175322
 20
500.06222958
 30
0.0
 11
63.7992888101
 21
500.06222958
 31
0.0
  0
ARC
  5
A9
  8
0
  6
CONTINUOUS
 62
     7
 10
57.6953524986
 20
502.0276291168
 30
0.0
 40
5.442621203388082
 50
282.2349087988
 51
338.8314546714
  0
LINE
  5
AA
  8
0
  6
CONTINUOUS
 62
     7
 10
49.0730937914
 20
491.2765123907
 30
0.0
 11
52.9137628496
 21
491.2765123907
 31
0.0
  0
LINE
  5
AB
  8
0
  6
CONTINUOUS
 62
     7
 10
54.0460531943
 20
503.4908005062
 30
0.0
 11
49.0730937914
 21
491.2765123907
 31
0.0
  0
LINE
  5
AC
  8
0
  6
CONTINUOUS
 62
     7
 10
27.7992903598
 20
491.2765123907
 30
0.0
 11
31.6095051699
 21
491.2765123907
 31
0.0
  0
LINE
  5
AD
  8
0
  6
CONTINUOUS
 62
     7
 10
31.1718096368
 20
500.06222958
 30
0.0
 11
27.7992903598
 21
491.2765123907
 31
0.0
  0
LINE
  5
AE
  8
0
  6
CONTINUOUS
 62
     7
 10
27.7992903598
 20
500.06222958
 30
0.0
 11
31.1718096368
 21
500.06222958
 31
0.0
  0
LINE
  5
AF
  8
0
  6
CONTINUOUS
 62
     7
 10
27.7992903598
 20
500.06222958
 30
0.0
 11
27.7992903598
 21
503.4908005062
 31
0.0
  0
LINE
  5
B0
  8
0
  6
CONTINUOUS
 62
     7
 10
37.5525259756
 20
503.4908005062
 30
0.0
 11
27.7992903598
 21
503.4908005062
 31
0.0
  0
LINE
  5
B1
  8
0
  6
CONTINUOUS
 62
     7
 10
42.5254853786
 20
491.2765123907
 30
0.0
 11
37.5525259756
 21
503.4908005062
 31
0.0
  0
LINE
  5
B2
  8
0
  6
CONTINUOUS
 62
     7
 10
37.9170614638
 20
493.1622245375
 30
0.0
 11
38.6848163203
 21
491.2765123907
 31
0.0
  0
LINE
  5
B3
  8
0
  6
CONTINUOUS
 62
     7
 10
32.3333635338
 20
493.1622245375
 30
0.0
 11
37.9170614638
 21
493.1622245375
 31
0.0
  0
LINE
  5
B4
  8
0
  6
CONTINUOUS
 62
     7
 10
31.6095051699
 20
491.2765123907
 30
0.0
 11
32.3333635338
 21
493.1622245375
 31
0.0
  0
LINE
  5
B5
  8
0
  6
CONTINUOUS
 62
     7
 10
36.5909391426
 20
496.4193725053
 30
0.0
 11
34.8540206783
 21
500.6854855481
 31
0.0
  0
LINE
  5
B6
  8
0
  6
CONTINUOUS
 62
     7
 10
34.8540206783
 20
500.6854855481
 30
0.0
 11
33.2164137967
 21
496.4193725053
 31
0.0
  0
LINE
  5
B7
  8
0
  6
CONTINUOUS
 62
     7
 10
33.2164137967
 20
496.4193725053
 30
0.0
 11
36.5909391426
 21
496.4193725053
 31
0.0
  0
LINE
  5
B8
  8
0
  6
CONTINUOUS
 62
     7
 10
38.6848163203
 20
491.2765123907
 30
0.0
 11
42.5254853786
 21
491.2765123907
 31
0.0
  0
LINE
  5
B9
  8
0
  6
CONTINUOUS
 62
     7
 10
10.7992894359
 20
621.7654370728
 30
0.0
 11
11.2656883307
 21
621.7654370728
 31
0.0
  0
LINE
  5
BA
  8
0
  6
CONTINUOUS
 62
     7
 10
21.046004013
 20
621.765451974
 30
0.0
 11
21.0505525925
 21
621.7654370728
 31
0.0
  0
LINE
  5
BB
  8
0
  6
CONTINUOUS
 62
     7
 10
22.3424665042
 20
621.7654370728
 30
0.0
 11
22.4825150677
 21
621.7654370728
 31
0.0
  0
LINE
  5
BC
  8
0
  6
CONTINUOUS
 62
     7
 10
22.4825150677
 20
621.7654370728
 30
0.0
 11
22.9493051179
 21
621.7654370728
 31
0.0
  0
LINE
  5
BD
  8
0
  6
CONTINUOUS
 62
     7
 10
22.9493051179
 20
621.7654370728
 30
0.0
 11
23.3254979708
 21
621.7654370728
 31
0.0
  0
LINE
  5
BE
  8
0
  6
CONTINUOUS
 62
     7
 10
23.3254979708
 20
621.7654370728
 30
0.0
 11
23.7008656718
 21
621.7654370728
 31
0.0
  0
LINE
  5
BF
  8
0
  6
CONTINUOUS
 62
     7
 10
23.7008656718
 20
621.7654370728
 30
0.0
 11
32.8649764292
 21
621.7654370728
 31
0.0
  0
LINE
  5
C0
  8
0
  6
CONTINUOUS
 62
     7
 10
32.8649764292
 20
621.7654370728
 30
0.0
 11
33.8240254082
 21
621.7654370728
 31
0.0
  0
LINE
  5
C1
  8
0
  6
CONTINUOUS
 62
     7
 10
33.8240254082
 20
621.7654370728
 30
0.0
 11
34.8510059871
 21
621.7654370728
 31
0.0
  0
LINE
  5
C2
  8
0
  6
CONTINUOUS
 62
     7
 10
34.8510059871
 20
621.7654370728
 30
0.0
 11
36.447240726
 21
621.7654370728
 31
0.0
  0
LINE
  5
C3
  8
0
  6
CONTINUOUS
 62
     7
 10
36.447240726
 20
621.7654370728
 30
0.0
 11
37.7869529061
 21
621.7654370728
 31
0.0
  0
LINE
  5
C4
  8
0
  6
CONTINUOUS
 62
     7
 10
37.7869529061
 20
621.7654370728
 30
0.0
 11
49.7511078015
 21
621.7654370728
 31
0.0
  0
LINE
  5
C5
  8
0
  6
CONTINUOUS
 62
     7
 10
49.7511078015
 20
621.7654370728
 30
0.0
 11
53.7385435187
 21
621.7654370728
 31
0.0
  0
LINE
  5
C6
  8
0
  6
CONTINUOUS
 62
     7
 10
53.7385435187
 20
621.7654370728
 30
0.0
 11
55.1272348844
 21
621.7654370728
 31
0.0
  0
LINE
  5
C7
  8
0
  6
CONTINUOUS
 62
     7
 10
55.1272348844
 20
621.7654370728
 30
0.0
 11
56.6967127257
 21
621.7654370728
 31
0.0
  0
LINE
  5
C8
  8
0
  6
CONTINUOUS
 62
     7
 10
56.6967127257
 20
621.7654370728
 30
0.0
 11
57.7559207909
 21
621.7654370728
 31
0.0
  0
LINE
  5
C9
  8
0
  6
CONTINUOUS
 62
     7
 10
57.7559207909
 20
621.7654370728
 30
0.0
 11
58.7336027407
 21
621.7654370728
 31
0.0
  0
LINE
  5
CA
  8
0
  6
CONTINUOUS
 62
     7
 10
58.7336027407
 20
621.7654370728
 30
0.0
 11
67.8977134981
 21
621.7654370728
 31
0.0
  0
LINE
  5
CB
  8
0
  6
CONTINUOUS
 62
     7
 10
67.8977134981
 20
621.7654370728
 30
0.0
 11
68.0294956424
 21
621.7654370728
 31
0.0
  0
LINE
  5
CC
  8
0
  6
CONTINUOUS
 62
     7
 10
68.0294956424
 20
621.7654370728
 30
0.0
 11
68.3885968633
 21
621.7654370728
 31
0.0
  0
LINE
  5
CD
  8
0
  6
CONTINUOUS
 62
     7
 10
68.3885968633
 20
621.7654370728
 30
0.0
 11
68.79464233
 21
621.7654370728
 31
0.0
  0
LINE
  5
CE
  8
0
  6
CONTINUOUS
 62
     7
 10
68.79464233
 20
621.7654370728
 30
0.0
 11
69.2561126657
 21
621.7654370728
 31
0.0
  0
LINE
  5
CF
  8
0
  6
CONTINUOUS
 62
     7
 10
70.4966809012
 20
621.7654370728
 30
0.0
 11
70.5298229464
 21
621.7654370728
 31
0.0
  0
LINE
  5
D0
  8
0
  6
CONTINUOUS
 62
     7
 10
70.5298229464
 20
621.7654370728
 30
0.0
 11
70.5480265774
 21
621.7654370728
 31
0.0
  0
LINE
  5
D1
  8
0
  6
CONTINUOUS
 62
     7
 10
70.5480265774
 20
621.7654370728
 30
0.0
 11
70.5523870297
 21
621.765451974
 31
0.0
  0
LINE
  5
D2
  8
0
  6
CONTINUOUS
 62
     7
 10
70.5523870297
 20
621.765451974
 30
0.0
 11
70.5670274206
 21
621.7657350961
 31
0.0
  0
LINE
  5
D3
  8
0
  6
CONTINUOUS
 62
     7
 10
70.5670348712
 20
621.7654370728
 30
0.0
 11
70.6061876722
 21
621.7654370728
 31
0.0
  0
LINE
  5
D4
  8
0
  6
CONTINUOUS
 62
     7
 10
80.3329355427
 20
621.7654370728
 30
0.0
 11
80.799289734
 21
621.7654370728
 31
0.0
  0
ARC
  5
D5
  8
0
  6
CONTINUOUS
 62
     7
 10
45.799289585
 20
344.5369959898
 30
0.0
 40
107.9669006895746
 50
76.2887966015
 51
103.7112033985
  0
LINE
  5
D6
  8
0
  6
CONTINUOUS
 62
     7
 10
24.1289741703
 20
407.5534422908
 30
0.0
 11
15.3374660172
 21
447.2093735847
 31
0.0
  0
ARC
  5
D7
  8
0
  6
CONTINUOUS
 62
     7
 10
23.6980024974
 20
435.3053661642
 30
0.0
 40
14.54661345143234
 50
103.8813331639
 51
125.0815026314
  0
ARC
  5
D8
  8
0
  6
CONTINUOUS
 62
     7
 10
67.9005766725
 20
435.3053661642
 30
0.0
 40
14.54661345143235
 50
54.9184973686
 51
76.1186668361
  0
LINE
  5
D9
  8
0
  6
CONTINUOUS
 62
     7
 10
76.2611131527
 20
447.2093735847
 30
0.0
 11
67.4696049996
 21
407.5534422908
 31
0.0
  0
POLYLINE
  5
DA
  8
0
  6
CONTINUOUS
 62
     7
 66
     1
 10
0.0
 20
0.0
 30
0.0
  0
VERTEX
  5
38A
  8
0
  6
CONTINUOUS
 62
     7
 10
7.74286756
 20
481.466399974
 30
0.0
  0
VERTEX
  5
38B
  8
0
  6
CONTINUOUS
 62
     7
 10
7.9851157375
 20
480.3736866477
 30
0.0
  0
VERTEX
  5
38C
  8
0
  6
CONTINUOUS
 62
     7
 10
8.2912600942
 20
478.9927625123
 30
0.0
  0
VERTEX
  5
38D
  8
0
  6
CONTINUOUS
 62
     7
 10
8.6600265809
 20
477.3293533388
 30
0.0
  0
VERTEX
  5
38E
  8
0
  6
CONTINUOUS
 62
     7
 10
9.089895279
 20
475.390347189
 30
0.0
  0
VERTEX
  5
38F
  8
0
  6
CONTINUOUS
 62
     7
 10
9.5790780493
 20
473.1837795142
 30
0.0
  0
VERTEX
  5
390
  8
0
  6
CONTINUOUS
 62
     7
 10
10.125552059
 20
470.7187959019
 30
0.0
  0
VERTEX
  5
391
  8
0
  6
CONTINUOUS
 62
     7
 10
10.7270523318
 20
468.0055999223
 30
0.0
  0
VERTEX
  5
392
  8
0
  6
CONTINUOUS
 62
     7
 10
11.3810866483
 20
465.0554419521
 30
0.0
  0
VERTEX
  5
393
  8
0
  6
CONTINUOUS
 62
     7
 10
12.0849467226
 20
461.8805409435
 30
0.0
  0
VERTEX
  5
394
  8
0
  6
CONTINUOUS
 62
     7
 10
12.8357156523
 20
458.4940471712
 30
0.0
  0
VERTEX
  5
395
  8
0
  6
CONTINUOUS
 62
     7
 10
13.6302790948
 20
454.9099975291
 30
0.0
  0
VERTEX
  5
396
  8
0
  6
CONTINUOUS
 62
     7
 10
14.4653513439
 20
451.1432372991
 30
0.0
  0
VERTEX
  5
397
  8
0
  6
CONTINUOUS
 62
     7
 10
15.3374660172
 20
447.2093735847
 30
0.0
  0
SEQEND
  5
5B4
  8
0
  6
CONTINUOUS
 62
     7
  0
POLYLINE
  5
DB
  8
0
  6
CONTINUOUS
 62
     7
 66
     1
 10
0.0
 20
0.0
 30
0.0
  0
VERTEX
  5
398
  8
0
  6
CONTINUOUS
 62
     7
 10
76.2611131527
 20
447.2093735847
 30
0.0
  0
VERTEX
  5
399
  8
0
  6
CONTINUOUS
 62
     7
 10
77.133227826
 20
451.1432372991
 30
0.0
  0
VERTEX
  5
39A
  8
0
  6
CONTINUOUS
 62
     7
 10
77.9683000751
 20
454.9099975291
 30
0.0
  0
VERTEX
  5
39B
  8
0
  6
CONTINUOUS
 62
     7
 10
78.7628635176
 20
458.4940471712
 30
0.0
  0
VERTEX
  5
39C
  8
0
  6
CONTINUOUS
 62
     7
 10
79.5136324473
 20
461.8805409435
 30
0.0
  0
VERTEX
  5
39D
  8
0
  6
CONTINUOUS
 62
     7
 10
80.2174925216
 20
465.0554419521
 30
0.0
  0
VERTEX
  5
39E
  8
0
  6
CONTINUOUS
 62
     7
 10
80.8715268381
 20
468.0055999223
 30
0.0
  0
VERTEX
  5
39F
  8
0
  6
CONTINUOUS
 62
     7
 10
81.4730271109
 20
470.7187959019
 30
0.0
  0
VERTEX
  5
3A0
  8
0
  6
CONTINUOUS
 62
     7
 10
82.0195011206
 20
473.1837795142
 30
0.0
  0
VERTEX
  5
3A1
  8
0
  6
CONTINUOUS
 62
     7
 10
82.5086838909
 20
475.390347189
 30
0.0
  0
VERTEX
  5
3A2
  8
0
  6
CONTINUOUS
 62
     7
 10
82.938552589
 20
477.3293533388
 30
0.0
  0
VERTEX
  5
3A3
  8
0
  6
CONTINUOUS
 62
     7
 10
83.3073190757
 20
478.9927625123
 30
0.0
  0
VERTEX
  5
3A4
  8
0
  6
CONTINUOUS
 62
     7
 10
83.6134634324
 20
480.3736866477
 30
0.0
  0
VERTEX
  5
3A5
  8
0
  6
CONTINUOUS
 62
     7
 10
83.8557116099
 20
481.466399974
 30
0.0
  0
SEQEND
  5
5B3
  8
0
  6
CONTINUOUS
 62
     7
  0
LINE
  5
DC
  8
0
  6
CONTINUOUS
 62
     7
 10
-4.5526207081
 20
539.7654348079
 30
0.0
 11
-11.7007114581
 21
539.7654348079
 31
0.0
  0
LINE
  5
DD
  8
0
  6
CONTINUOUS
 62
     7
 10
-5.6446411304
 20
561.7654346887
 30
0.0
 11
-11.3864794962
 21
561.7654346887
 31
0.0
  0
LINE
  5
DE
  8
0
  6
CONTINUOUS
 62
     7
 10
-4.2473741464
 20
561.7654346887
 30
0.0
 11
-5.6446411304
 21
561.7654346887
 31
0.0
  0
LINE
  5
DF
  8
0
  6
CONTINUOUS
 62
     7
 10
-11.7007114581
 20
549.7654327217
 30
0.0
 11
-4.5526207081
 21
549.7654327217
 31
0.0
  0
LINE
  5
E0
  8
0
  6
CONTINUOUS
 62
     7
 10
95.8459533163
 20
561.7654346887
 30
0.0
 11
97.2432203003
 21
561.7654346887
 31
0.0
  0
LINE
  5
E1
  8
0
  6
CONTINUOUS
 62
     7
 10
102.9850586661
 20
561.7654346887
 30
0.0
 11
97.2432203003
 21
561.7654346887
 31
0.0
  0
LINE
  5
E2
  8
0
  6
CONTINUOUS
 62
     7
 10
96.1511998781
 20
549.7654327217
 30
0.0
 11
103.299290628
 21
549.7654327217
 31
0.0
  0
LINE
  5
E3
  8
0
  6
CONTINUOUS
 62
     7
 10
103.299290628
 20
539.7654348079
 30
0.0
 11
96.1511998781
 21
539.7654348079
 31
0.0
  0
LINE
  5
E4
  8
0
  6
CONTINUOUS
 62
     7
 10
97.2432203003
 20
579.7654264632
 30
0.0
 11
97.2432203003
 21
561.7654346887
 31
0.0
  0
LINE
  5
E5
  8
0
  6
CONTINUOUS
 62
     7
 10
95.8459533163
 20
579.7654264632
 30
0.0
 11
97.2432203003
 21
579.7654264632
 31
0.0
  0
LINE
  5
E6
  8
0
  6
CONTINUOUS
 62
     7
 10
-5.6446411304
 20
579.7654264632
 30
0.0
 11
-5.6446411304
 21
561.7654346887
 31
0.0
  0
LINE
  5
E7
  8
0
  6
CONTINUOUS
 62
     7
 10
-5.6446411304
 20
579.7654264632
 30
0.0
 11
-4.2473741464
 21
579.7654264632
 31
0.0
  0
LINE
  5
E8
  8
0
  6
CONTINUOUS
 62
     7
 10
32.8649764292
 20
640.2654373113
 30
0.0
 11
58.7336027407
 21
640.2654373113
 31
0.0
  0
LINE
  5
E9
  8
0
  6
CONTINUOUS
 62
     7
 10
58.2992897712
 20
641.7654329005
 30
0.0
 11
33.2992893987
 21
641.7654329005
 31
0.0
  0
CIRCLE
  5
EA
  8
0
  6
CONTINUOUS
 62
     7
 10
-3.200710415
 20
428.7654333774
 30
0.0
 40
6.0
  0
ARC
  5
EB
  8
0
  6
CONTINUOUS
 62
     7
 10
-20.200710415
 20
410.4351305975
 30
0.0
 40
4.000000000000012
 50
47.1563569564
 51
180.0
  0
ARC
  5
EC
  8
0
  6
CONTINUOUS
 62
     7
 10
-20.200710415
 20
447.0957361572
 30
0.0
 40
4.00000000000003
 50
180.0
 51
312.8436430436
  0
ARC
  5
ED
  8
0
  6
CONTINUOUS
 62
     7
 10
-3.200710415
 20
428.7654333774
 30
0.0
 40
20.99999999999998
 50
227.1563569564
 51
132.8436430436
  0
CIRCLE
  5
EE
  8
0
  6
CONTINUOUS
 62
     7
 10
94.799289585
 20
428.7654333774
 30
0.0
 40
6.0
  0
ARC
  5
EF
  8
0
  6
CONTINUOUS
 62
     7
 10
111.799289585
 20
410.4351305975
 30
0.0
 40
4.000000000000019
 50
0.0
 51
132.8436430436
  0
ARC
  5
F0
  8
0
  6
CONTINUOUS
 62
     7
 10
94.799289585
 20
428.7654333774
 30
0.0
 40
20.99999999999998
 50
47.1563569564
 51
312.8436430436
  0
ARC
  5
F1
  8
0
  6
CONTINUOUS
 62
     7
 10
111.799289585
 20
447.0957361572
 30
0.0
 40
4.000000000000019
 50
227.1563569564
 51
0.0
  0
LINE
  5
F2
  8
0
  6
CONTINUOUS
 62
     7
 10
4.5547454961
 20
515.8651717964
 30
0.0
 11
6.0799948283
 21
514.9845653239
 31
0.0
  0
LINE
  5
F3
  8
0
  6
CONTINUOUS
 62
     7
 10
87.0438336738
 20
515.8651717964
 30
0.0
 11
85.5185843416
 21
514.9845653239
 31
0.0
  0
LINE
  5
F4
  8
0
  6
CONTINUOUS
 62
     7
 10
23.7008656718
 20
640.2654373113
 30
0.0
 11
32.8649764292
 21
640.2654373113
 31
0.0
  0
LINE
  5
F5
  8
0
  6
CONTINUOUS
 62
     7
 10
58.7336027407
 20
640.2654373113
 30
0.0
 11
67.8977134981
 21
640.2654373113
 31
0.0
  0
LINE
  5
F6
  8
0
  6
CONTINUOUS
 62
     7
 10
2.8332627722
 20
503.6121928159
 30
0.0
 11
2.8332627722
 21
511.2654366556
 31
0.0
  0
POLYLINE
  5
F7
  8
0
  6
CONTINUOUS
 62
     7
 66
     1
 10
0.0
 20
0.0
 30
0.0
  0
VERTEX
  5
3A6
  8
0
  6
CONTINUOUS
 62
     7
 10
2.8332627722
 20
503.6121928159
 30
0.0
  0
VERTEX
  5
3A7
  8
0
  6
CONTINUOUS
 62
     7
 10
3.0259981163
 20
502.7428218189
 30
0.0
  0
VERTEX
  5
3A8
  8
0
  6
CONTINUOUS
 62
     7
 10
3.3889196225
 20
501.1057802502
 30
0.0
  0
VERTEX
  5
3A9
  8
0
  6
CONTINUOUS
 62
     7
 10
3.9217702456
 20
498.7022602025
 30
0.0
  0
VERTEX
  5
3AA
  8
0
  6
CONTINUOUS
 62
     7
 10
4.624155105
 20
495.5339902106
 30
0.0
  0
VERTEX
  5
3AB
  8
0
  6
CONTINUOUS
 62
     7
 10
5.4955750116
 20
491.6032725039
 30
0.0
  0
VERTEX
  5
3AC
  8
0
  6
CONTINUOUS
 62
     7
 10
6.5353966661
 20
486.9129457537
 30
0.0
  0
VERTEX
  5
3AD
  8
0
  6
CONTINUOUS
 62
     7
 10
7.74286756
 20
481.466399974
 30
0.0
  0
SEQEND
  5
5B2
  8
0
  6
CONTINUOUS
 62
     7
  0
LINE
  5
F8
  8
0
  6
CONTINUOUS
 62
     7
 10
88.7653163977
 20
511.2654366556
 30
0.0
 11
88.7653163977
 21
503.6121928159
 31
0.0
  0
POLYLINE
  5
F9
  8
0
  6
CONTINUOUS
 62
     7
 66
     1
 10
0.0
 20
0.0
 30
0.0
  0
VERTEX
  5
3AE
  8
0
  6
CONTINUOUS
 62
     7
 10
83.8557116099
 20
481.466399974
 30
0.0
  0
VERTEX
  5
3AF
  8
0
  6
CONTINUOUS
 62
     7
 10
85.0631825038
 20
486.9129457537
 30
0.0
  0
VERTEX
  5
3B0
  8
0
  6
CONTINUOUS
 62
     7
 10
86.1030041583
 20
491.6032725039
 30
0.0
  0
VERTEX
  5
3B1
  8
0
  6
CONTINUOUS
 62
     7
 10
86.974424065
 20
495.5339902106
 30
0.0
  0
VERTEX
  5
3B2
  8
0
  6
CONTINUOUS
 62
     7
 10
87.6768089243
 20
498.7022602025
 30
0.0
  0
VERTEX
  5
3B3
  8
0
  6
CONTINUOUS
 62
     7
 10
88.2096595474
 20
501.1057802502
 30
0.0
  0
VERTEX
  5
3B4
  8
0
  6
CONTINUOUS
 62
     7
 10
88.5725810536
 20
502.7428218189
 30
0.0
  0
VERTEX
  5
3B5
  8
0
  6
CONTINUOUS
 62
     7
 10
88.7653163977
 20
503.6121928159
 30
0.0
  0
SEQEND
  5
5B1
  8
0
  6
CONTINUOUS
 62
     7
  0
LINE
  5
FA
  8
0
  6
CONTINUOUS
 62
     7
 10
-34.2007086269
 20
346.2654300991
 30
0.0
 11
-24.2007107131
 21
346.2654300991
 31
0.0
  0
LINE
  5
FB
  8
0
  6
CONTINUOUS
 62
     7
 10
-34.2007086269
 20
359.5018708173
 30
0.0
 11
-34.2007086269
 21
346.2654300991
 31
0.0
  0
LINE
  5
FC
  8
0
  6
CONTINUOUS
 62
     7
 10
-24.2007107131
 20
359.5018708173
 30
0.0
 11
-24.2007107131
 21
346.2654300991
 31
0.0
  0
LINE
  5
FD
  8
0
  6
CONTINUOUS
 62
     7
 10
125.7992877968
 20
359.5018708173
 30
0.0
 11
125.7992877968
 21
346.2654300991
 31
0.0
  0
LINE
  5
FE
  8
0
  6
CONTINUOUS
 62
     7
 10
125.7992877968
 20
346.2654300991
 30
0.0
 11
115.799289883
 21
346.2654300991
 31
0.0
  0
LINE
  5
FF
  8
0
  6
CONTINUOUS
 62
     7
 10
115.799289883
 20
359.5018708173
 30
0.0
 11
115.799289883
 21
346.2654300991
 31
0.0
  0
POLYLINE
  5
100
  8
0
  6
CONTINUOUS
 62
     7
 66
     1
 10
0.0
 20
0.0
 30
0.0
  0
VERTEX
  5
3B6
  8
0
  6
CONTINUOUS
 62
     7
 10
45.799289585
 20
674.7045093242
 30
0.0
  0
VERTEX
  5
3B7
  8
0
  6
CONTINUOUS
 62
     7
 10
42.6093037118
 20
674.5851361218
 30
0.0
  0
VERTEX
  5
3B8
  8
0
  6
CONTINUOUS
 62
     7
 10
39.4193178386
 20
674.2336475316
 30
0.0
  0
VERTEX
  5
3B9
  8
0
  6
CONTINUOUS
 62
     7
 10
33.6815647193
 20
673.0761253301
 30
0.0
  0
VERTEX
  5
3BA
  8
0
  6
CONTINUOUS
 62
     7
 10
28.1556367286
 20
671.4224242631
 30
0.0
  0
VERTEX
  5
3BB
  8
0
  6
CONTINUOUS
 62
     7
 10
22.8179327555
 20
669.3917834226
 30
0.0
  0
VERTEX
  5
3BC
  8
0
  6
CONTINUOUS
 62
     7
 10
17.9683125921
 20
667.1654307309
 30
0.0
  0
SEQEND
  5
5B0
  8
0
  6
CONTINUOUS
 62
     7
  0
POLYLINE
  5
101
  8
0
  6
CONTINUOUS
 62
     7
 66
     1
 10
0.0
 20
0.0
 30
0.0
  0
VERTEX
  5
3BD
  8
0
  6
CONTINUOUS
 62
     7
 10
73.6302665778
 20
667.1654307309
 30
0.0
  0
VERTEX
  5
3BE
  8
0
  6
CONTINUOUS
 62
     7
 10
71.046787069
 20
668.400930709
 30
0.0
  0
VERTEX
  5
3BF
  8
0
  6
CONTINUOUS
 62
     7
 10
68.2654480793
 20
669.6059876147
 30
0.0
  0
VERTEX
  5
3C0
  8
0
  6
CONTINUOUS
 62
     7
 10
65.210561023
 20
670.7961582604
 30
0.0
  0
VERTEX
  5
3C1
  8
0
  6
CONTINUOUS
 62
     7
 10
61.9761019357
 20
671.9075315658
 30
0.0
  0
VERTEX
  5
3C2
  8
0
  6
CONTINUOUS
 62
     7
 10
56.7602531396
 20
673.3590685788
 30
0.0
  0
VERTEX
  5
3C3
  8
0
  6
CONTINUOUS
 62
     7
 10
51.0902700358
 20
674.3788146439
 30
0.0
  0
VERTEX
  5
3C4
  8
0
  6
CONTINUOUS
 62
     7
 10
45.799289585
 20
674.7045093242
 30
0.0
  0
SEQEND
  5
5AF
  8
0
  6
CONTINUOUS
 62
     7
  0
LINE
  5
102
  8
0
  6
CONTINUOUS
 62
     7
 10
73.5824077733
 20
663.7654327813
 30
0.0
 11
73.6302665778
 21
667.1654307309
 31
0.0
  0
LINE
  5
103
  8
0
  6
CONTINUOUS
 62
     7
 10
18.0161713966
 20
663.7654327813
 30
0.0
 11
73.5824077733
 21
663.7654327813
 31
0.0
  0
LINE
  5
104
  8
0
  6
CONTINUOUS
 62
     7
 10
17.9683125921
 20
667.1654307309
 30
0.0
 11
18.0161713966
 21
663.7654327813
 31
0.0
  0
LINE
  5
105
  8
0
  6
CONTINUOUS
 62
     7
 10
91.7992896744
 20
667.1654307309
 30
0.0
 11
73.6302665778
 21
667.1654307309
 31
0.0
  0
ARC
  5
106
  8
0
  6
CONTINUOUS
 62
     7
 10
43.894996523
 20
576.6788685368
 30
0.0
 40
98.04413589729324
 50
73.8580849266
 51
88.887084723
  0
POLYLINE
  5
107
  8
0
  6
CONTINUOUS
 62
     7
 66
     1
 10
0.0
 20
0.0
 30
0.0
  0
VERTEX
  5
3C5
  8
0
  6
CONTINUOUS
 62
     7
 10
-24.2007107131
 20
470.5745228592
 30
0.0
  0
VERTEX
  5
3C6
  8
0
  6
CONTINUOUS
 62
     7
 10
-20.4110921017
 20
469.188699967
 30
0.0
  0
VERTEX
  5
3C7
  8
0
  6
CONTINUOUS
 62
     7
 10
0.5265853711
 20
461.5221121374
 30
0.0
  0
SEQEND
  5
5AE
  8
0
  6
CONTINUOUS
 62
     7
  0
LINE
  5
108
  8
0
  6
CONTINUOUS
 62
     7
 10
0.5265853711
 20
461.5221121374
 30
0.0
 11
0.5265853711
 21
449.432006574
 31
0.0
  0
POLYLINE
  5
109
  8
0
  6
CONTINUOUS
 62
     7
 66
     1
 10
0.0
 20
0.0
 30
0.0
  0
VERTEX
  5
3C8
  8
0
  6
CONTINUOUS
 62
     7
 10
91.0719937988
 20
396.0087546173
 30
0.0
  0
VERTEX
  5
3C9
  8
0
  6
CONTINUOUS
 62
     7
 10
93.8753306278
 20
394.9810736838
 30
0.0
  0
VERTEX
  5
3CA
  8
0
  6
CONTINUOUS
 62
     7
 10
115.799289883
 20
386.9563438955
 30
0.0
  0
SEQEND
  5
5AD
  8
0
  6
CONTINUOUS
 62
     7
  0
LINE
  5
10A
  8
0
  6
CONTINUOUS
 62
     7
 10
91.0719937988
 20
408.0988601807
 30
0.0
 11
91.0719937988
 21
396.0087546173
 31
0.0
  0
LINE
  5
10B
  8
0
  6
CONTINUOUS
 62
     7
 10
91.0719937988
 20
461.5221121374
 30
0.0
 11
91.0719937988
 21
449.432006574
 31
0.0
  0
POLYLINE
  5
10C
  8
0
  6
CONTINUOUS
 62
     7
 66
     1
 10
0.0
 20
0.0
 30
0.0
  0
VERTEX
  5
3CB
  8
0
  6
CONTINUOUS
 62
     7
 10
91.0719937988
 20
461.5221121374
 30
0.0
  0
VERTEX
  5
3CC
  8
0
  6
CONTINUOUS
 62
     7
 10
93.4035114356
 20
462.3768576446
 30
0.0
  0
VERTEX
  5
3CD
  8
0
  6
CONTINUOUS
 62
     7
 10
115.799289883
 20
470.5745228592
 30
0.0
  0
SEQEND
  5
5AC
  8
0
  6
CONTINUOUS
 62
     7
  0
LINE
  5
10D
  8
0
  6
CONTINUOUS
 62
     7
 10
0.5265853711
 20
408.0988601807
 30
0.0
 11
0.5265853711
 21
396.0087546173
 31
0.0
  0
POLYLINE
  5
10E
  8
0
  6
CONTINUOUS
 62
     7
 66
     1
 10
0.0
 20
0.0
 30
0.0
  0
VERTEX
  5
3CE
  8
0
  6
CONTINUOUS
 62
     7
 10
-24.2007107131
 20
386.9563438955
 30
0.0
  0
VERTEX
  5
3CF
  8
0
  6
CONTINUOUS
 62
     7
 10
-20.5680534832
 20
388.2847600642
 30
0.0
  0
VERTEX
  5
3D0
  8
0
  6
CONTINUOUS
 62
     7
 10
0.5265853711
 20
396.0087546173
 30
0.0
  0
SEQEND
  5
5AB
  8
0
  6
CONTINUOUS
 62
     7
  0
ARC
  5
10F
  8
0
  6
CONTINUOUS
 62
     7
 10
48.3265714996
 20
572.572835618
 30
0.0
 40
102.1629381326158
 50
91.4175136589
 51
105.8373166915
  0
LINE
  5
110
  8
0
  6
CONTINUOUS
 62
     7
 10
17.9683125921
 20
667.1654307309
 30
0.0
 11
-0.2007105045
 21
667.1654307309
 31
0.0
  0
LINE
  5
111
  8
0
  6
CONTINUOUS
 62
     7
 10
18.0161713966
 20
663.7654327813
 30
0.0
 11
-0.2007105045
 21
663.7654327813
 31
0.0
  0
LINE
  5
112
  8
0
  6
CONTINUOUS
 62
     7
 10
91.7992896744
 20
663.7654327813
 30
0.0
 11
73.5824077733
 21
663.7654327813
 31
0.0
  0
LINE
  5
113
  8
0
  6
CONTINUOUS
 62
     7
 10
91.0719937988
 20
396.0087546173
 30
0.0
 11
0.5265853711
 21
396.0087546173
 31
0.0
  0
LINE
  5
114
  8
0
  6
CONTINUOUS
 62
     7
 10
12.1644071647
 20
461.5221121374
 30
0.0
 11
0.5265853711
 21
461.5221121374
 31
0.0
  0
LINE
  5
115
  8
0
  6
CONTINUOUS
 62
     7
 10
91.0719937988
 20
461.5221121374
 30
0.0
 11
79.4341720053
 21
461.5221121374
 31
0.0
  0
LINE
  5
116
  8
0
  6
CONTINUOUS
 62
     7
 10
62.0627447375
 20
660.7654267016
 30
0.0
 11
62.0627447375
 21
640.2654373113
 31
0.0
  0
LINE
  5
117
  8
0
  6
CONTINUOUS
 62
     7
 10
62.0627447375
 20
660.7654267016
 30
0.0
 11
71.4504222729
 21
660.7654267016
 31
0.0
  0
LINE
  5
118
  8
0
  6
CONTINUOUS
 62
     7
 10
71.4504222729
 20
660.7654267016
 30
0.0
 11
72.4804110237
 21
639.9093144599
 31
0.0
  0
LINE
  5
119
  8
0
  6
CONTINUOUS
 62
     7
 10
54.7716093593
 20
660.7654267016
 30
0.0
 11
62.0627447375
 21
660.7654267016
 31
0.0
  0
LINE
  5
11A
  8
0
  6
CONTINUOUS
 62
     7
 10
54.7716093593
 20
660.7654267016
 30
0.0
 11
54.6012164437
 21
641.7654329005
 31
0.0
  0
LINE
  5
11B
  8
0
  6
CONTINUOUS
 62
     7
 10
20.4456027009
 20
670.8577149573
 30
0.0
 11
21.2992902257
 21
719.7654419604
 31
0.0
  0
LINE
  5
11C
  8
0
  6
CONTINUOUS
 62
     7
 10
21.2992902257
 20
719.7654419604
 30
0.0
 11
70.2992889442
 21
719.7654419604
 31
0.0
  0
LINE
  5
11D
  8
0
  6
CONTINUOUS
 62
     7
 10
71.152976469
 20
670.8577149573
 30
0.0
 11
70.2992889442
 21
719.7654419604
 31
0.0
  0
POLYLINE
  5
11E
  8
0
  6
CONTINUOUS
 62
     7
 66
     1
 10
0.0
 20
0.0
 30
0.0
  0
VERTEX
  5
3D1
  8
0
  6
CONTINUOUS
 62
     7
 10
69.2561126657
 20
621.7654370728
 30
0.0
  0
VERTEX
  5
3D2
  8
0
  6
CONTINUOUS
 62
     7
 10
69.4319351919
 20
622.1597814027
 30
0.0
  0
VERTEX
  5
3D3
  8
0
  6
CONTINUOUS
 62
     7
 10
69.6140758105
 20
622.3071091834
 30
0.0
  0
VERTEX
  5
3D4
  8
0
  6
CONTINUOUS
 62
     7
 10
69.8023389437
 20
622.2072714034
 30
0.0
  0
SEQEND
  5
5AA
  8
0
  6
CONTINUOUS
 62
     7
  0
LINE
  5
11F
  8
0
  6
CONTINUOUS
 62
     7
 10
67.8977134981
 20
640.2654373113
 30
0.0
 11
69.8023389437
 21
640.2654373113
 31
0.0
  0
POLYLINE
  5
120
  8
0
  6
CONTINUOUS
 62
     7
 66
     1
 10
0.0
 20
0.0
 30
0.0
  0
VERTEX
  5
3D5
  8
0
  6
CONTINUOUS
 62
     7
 10
21.7962402262
 20
622.2072714034
 30
0.0
  0
VERTEX
  5
3D6
  8
0
  6
CONTINUOUS
 62
     7
 10
21.9844493427
 20
622.3071240846
 30
0.0
  0
VERTEX
  5
3D7
  8
0
  6
CONTINUOUS
 62
     7
 10
22.1665396698
 20
622.1599453155
 30
0.0
  0
VERTEX
  5
3D8
  8
0
  6
CONTINUOUS
 62
     7
 10
22.3423156299
 20
621.7658841077
 30
0.0
  0
SEQEND
  5
5A9
  8
0
  6
CONTINUOUS
 62
     7
  0
LINE
  5
121
  8
0
  6
CONTINUOUS
 62
     7
 10
21.7962402262
 20
640.2654373113
 30
0.0
 11
23.7008656718
 21
640.2654373113
 31
0.0
  0
LINE
  5
122
  8
0
  6
CONTINUOUS
 62
     7
 10
23.8789792516
 20
660.7654267016
 30
0.0
 11
23.8789792516
 21
640.2654373113
 31
0.0
  0
LINE
  5
123
  8
0
  6
CONTINUOUS
 62
     7
 10
14.4913017162
 20
660.7654267016
 30
0.0
 11
13.4116231807
 21
638.9030986491
 31
0.0
  0
LINE
  5
124
  8
0
  6
CONTINUOUS
 62
     7
 10
14.4913017162
 20
660.7654267016
 30
0.0
 11
23.8789792516
 21
660.7654267016
 31
0.0
  0
LINE
  5
125
  8
0
  6
CONTINUOUS
 62
     7
 10
29.6320624061
 20
660.7654267016
 30
0.0
 11
29.687362478
 21
640.2654373113
 31
0.0
  0
LINE
  5
126
  8
0
  6
CONTINUOUS
 62
     7
 10
23.8789792516
 20
660.7654267016
 30
0.0
 11
29.6320624061
 21
660.7654267016
 31
0.0
  0
LINE
  5
127
  8
0
  6
CONTINUOUS
 62
     7
 10
29.6320624061
 20
660.7654267016
 30
0.0
 11
54.7716093593
 21
660.7654267016
 31
0.0
  0
POLYLINE
  5
128
  8
0
  6
CONTINUOUS
 62
     7
 66
     1
 10
0.0
 20
0.0
 30
0.0
  0
VERTEX
  5
3D9
  8
0
  6
CONTINUOUS
 62
     7
 10
21.0505525925
 20
621.7654370728
 30
0.0
  0
VERTEX
  5
3DA
  8
0
  6
CONTINUOUS
 62
     7
 10
21.4207086124
 20
621.8758993808
 30
0.0
  0
VERTEX
  5
3DB
  8
0
  6
CONTINUOUS
 62
     7
 10
21.7962402262
 20
622.2072714034
 30
0.0
  0
SEQEND
  5
5A8
  8
0
  6
CONTINUOUS
 62
     7
  0
LINE
  5
129
  8
0
  6
CONTINUOUS
 62
     7
 10
21.0505525925
 20
621.7654370728
 30
0.0
 11
22.1916537144
 21
621.7654370728
 31
0.0
  0
LINE
  5
12A
  8
0
  6
CONTINUOUS
 62
     7
 10
69.2561126657
 20
621.7654370728
 30
0.0
 11
70.4966809012
 21
621.7654370728
 31
0.0
  0
POLYLINE
  5
12B
  8
0
  6
CONTINUOUS
 62
     7
 66
     1
 10
0.0
 20
0.0
 30
0.0
  0
VERTEX
  5
3DC
  8
0
  6
CONTINUOUS
 62
     7
 10
69.8023389437
 20
622.2072714034
 30
0.0
  0
VERTEX
  5
3DD
  8
0
  6
CONTINUOUS
 62
     7
 10
70.1686318376
 20
621.8814426127
 30
0.0
  0
VERTEX
  5
3DE
  8
0
  6
CONTINUOUS
 62
     7
 10
70.5298154958
 20
621.7657052937
 30
0.0
  0
SEQEND
  5
5A7
  8
0
  6
CONTINUOUS
 62
     7
  0
LINE
  5
12C
  8
0
  6
CONTINUOUS
 62
     7
 10
70.5670274206
 20
621.7657350961
 30
0.0
 11
71.0296619095
 21
621.9590329591
 31
0.0
  0
LINE
  5
12D
  8
0
  6
CONTINUOUS
 62
     7
 10
70.5298154958
 20
621.7657052937
 30
0.0
 11
70.5480265774
 21
621.7654370728
 31
0.0
  0
LINE
  5
12E
  8
0
  6
CONTINUOUS
 62
     7
 10
71.0296619095
 20
640.1651226941
 30
0.0
 11
70.4607430257
 21
640.2654373113
 31
0.0
  0
LINE
  5
12F
  8
0
  6
CONTINUOUS
 62
     7
 10
69.8023389437
 20
640.2654373113
 30
0.0
 11
70.4607430257
 21
640.2654373113
 31
0.0
  0
LINE
  5
130
  8
0
  6
CONTINUOUS
 62
     7
 10
20.5689172604
 20
621.9590329591
 30
0.0
 11
21.046004013
 21
621.765451974
 31
0.0
  0
LINE
  5
131
  8
0
  6
CONTINUOUS
 62
     7
 10
20.5689172604
 20
640.1651226941
 30
0.0
 11
21.1378361442
 21
640.2654373113
 31
0.0
  0
LINE
  5
132
  8
0
  6
CONTINUOUS
 62
     7
 10
21.1378361442
 20
640.2654373113
 30
0.0
 11
21.7962402262
 21
640.2654373113
 31
0.0
  0
POLYLINE
  5
133
  8
0
  6
CONTINUOUS
 62
     7
 66
     1
 10
0.0
 20
0.0
 30
0.0
  0
VERTEX
  5
3DF
  8
0
  6
CONTINUOUS
 62
     7
 10
19.8252953001
 20
621.7654370728
 30
0.0
  0
VERTEX
  5
3E0
  8
0
  6
CONTINUOUS
 62
     7
 10
20.2019016602
 20
622.0576786462
 30
0.0
  0
VERTEX
  5
3E1
  8
0
  6
CONTINUOUS
 62
     7
 10
20.5689172604
 20
621.9590329591
 30
0.0
  0
SEQEND
  5
5A6
  8
0
  6
CONTINUOUS
 62
     7
  0
LINE
  5
134
  8
0
  6
CONTINUOUS
 62
     7
 10
19.8252953001
 20
621.7654370728
 30
0.0
 11
21.046004013
 21
621.7654370728
 31
0.0
  0
POLYLINE
  5
135
  8
0
  6
CONTINUOUS
 62
     7
 66
     1
 10
0.0
 20
0.0
 30
0.0
  0
VERTEX
  5
3E2
  8
0
  6
CONTINUOUS
 62
     7
 10
71.0296619095
 20
621.9590329591
 30
0.0
  0
VERTEX
  5
3E3
  8
0
  6
CONTINUOUS
 62
     7
 10
71.3966775097
 20
622.0576786462
 30
0.0
  0
VERTEX
  5
3E4
  8
0
  6
CONTINUOUS
 62
     7
 10
71.7732838698
 20
621.7654370728
 30
0.0
  0
SEQEND
  5
5A5
  8
0
  6
CONTINUOUS
 62
     7
  0
LINE
  5
136
  8
0
  6
CONTINUOUS
 62
     7
 10
70.6806357362
 20
621.7654370728
 30
0.0
 11
71.7732838698
 21
621.7654370728
 31
0.0
  0
POLYLINE
  5
137
  8
0
  6
CONTINUOUS
 62
     7
 66
     1
 10
0.0
 20
0.0
 30
0.0
  0
VERTEX
  5
3E5
  8
0
  6
CONTINUOUS
 62
     7
 10
80.3328424104
 20
621.7654370728
 30
0.0
  0
VERTEX
  5
3E6
  8
0
  6
CONTINUOUS
 62
     7
 10
82.6589695521
 20
624.1465234223
 30
0.0
  0
VERTEX
  5
3E7
  8
0
  6
CONTINUOUS
 62
     7
 10
83.703902305
 20
624.8131268683
 30
0.0
  0
SEQEND
  5
5A4
  8
0
  6
CONTINUOUS
 62
     7
  0
LINE
  5
138
  8
0
  6
CONTINUOUS
 62
     7
 10
71.7732838698
 20
621.7654370728
 30
0.0
 11
80.3328424104
 21
621.7654370728
 31
0.0
  0
POLYLINE
  5
139
  8
0
  6
CONTINUOUS
 62
     7
 66
     1
 10
0.0
 20
0.0
 30
0.0
  0
VERTEX
  5
3E8
  8
0
  6
CONTINUOUS
 62
     7
 10
83.703902305
 20
637.9303061429
 30
0.0
  0
VERTEX
  5
3E9
  8
0
  6
CONTINUOUS
 62
     7
 10
80.87142253
 20
638.4297483626
 30
0.0
  0
VERTEX
  5
3EA
  8
0
  6
CONTINUOUS
 62
     7
 10
78.1330808409
 20
638.9125906888
 30
0.0
  0
VERTEX
  5
3EB
  8
0
  6
CONTINUOUS
 62
     7
 10
75.5452110775
 20
639.368908948
 30
0.0
  0
VERTEX
  5
3EC
  8
0
  6
CONTINUOUS
 62
     7
 10
73.1610550888
 20
639.7893005076
 30
0.0
  0
VERTEX
  5
3ED
  8
0
  6
CONTINUOUS
 62
     7
 10
71.0296619095
 20
640.1651226941
 30
0.0
  0
SEQEND
  5
5A3
  8
0
  6
CONTINUOUS
 62
     7
  0
POLYLINE
  5
13A
  8
0
  6
CONTINUOUS
 62
     7
 66
     1
 10
0.0
 20
0.0
 30
0.0
  0
VERTEX
  5
3EE
  8
0
  6
CONTINUOUS
 62
     7
 10
11.2657367595
 20
621.7654370728
 30
0.0
  0
VERTEX
  5
3EF
  8
0
  6
CONTINUOUS
 62
     7
 10
8.9396096178
 20
624.1465234223
 30
0.0
  0
VERTEX
  5
3F0
  8
0
  6
CONTINUOUS
 62
     7
 10
7.8946768649
 20
624.8131268683
 30
0.0
  0
SEQEND
  5
5A2
  8
0
  6
CONTINUOUS
 62
     7
  0
LINE
  5
13B
  8
0
  6
CONTINUOUS
 62
     7
 10
11.2657367595
 20
621.7654370728
 30
0.0
 11
19.8252953001
 21
621.7654370728
 31
0.0
  0
POLYLINE
  5
13C
  8
0
  6
CONTINUOUS
 62
     7
 66
     1
 10
0.0
 20
0.0
 30
0.0
  0
VERTEX
  5
3F1
  8
0
  6
CONTINUOUS
 62
     7
 10
7.8946768649
 20
637.9303061429
 30
0.0
  0
VERTEX
  5
3F2
  8
0
  6
CONTINUOUS
 62
     7
 10
10.7271566399
 20
638.4297483626
 30
0.0
  0
VERTEX
  5
3F3
  8
0
  6
CONTINUOUS
 62
     7
 10
13.465498329
 20
638.9125906888
 30
0.0
  0
VERTEX
  5
3F4
  8
0
  6
CONTINUOUS
 62
     7
 10
16.0533680924
 20
639.368908948
 30
0.0
  0
VERTEX
  5
3F5
  8
0
  6
CONTINUOUS
 62
     7
 10
18.4375240811
 20
639.7893005076
 30
0.0
  0
VERTEX
  5
3F6
  8
0
  6
CONTINUOUS
 62
     7
 10
20.5689172604
 20
640.1651226941
 30
0.0
  0
SEQEND
  5
5A1
  8
0
  6
CONTINUOUS
 62
     7
  0
ARC
  5
13D
  8
0
  6
CONTINUOUS
 62
     7
 10
-6.6006709504
 20
624.776129854
 30
0.0
 40
2.99992460897639
 50
264.9991151953
 51
317.9288155487
  0
ARC
  5
13E
  8
0
  6
CONTINUOUS
 62
     7
 10
2.3992833842
 20
624.7762211218
 30
0.0
 40
11.99998072890781
 50
99.9999911559
 51
140.5148726072
  0
ARC
  5
13F
  8
0
  6
CONTINUOUS
 62
     7
 10
3.0492839529
 20
616.0654602719
 30
0.0
 40
9.999975167726811
 50
61.0176287578
 51
137.9284847238
  0
LINE
  5
140
  8
0
  6
CONTINUOUS
 62
     7
 10
0.3155104228
 20
636.5938955012
 30
0.0
 11
7.8946768649
 21
637.9303061429
 31
0.0
  0
ARC
  5
141
  8
0
  6
CONTINUOUS
 62
     7
 10
89.1992957857
 20
624.7762211218
 30
0.0
 40
11.99998072890782
 50
39.4851273928
 51
80.0000088441
  0
ARC
  5
142
  8
0
  6
CONTINUOUS
 62
     7
 10
98.1992501203
 20
624.776129854
 30
0.0
 40
2.999924608976404
 50
222.0711844513
 51
275.0008848047
  0
ARC
  5
143
  8
0
  6
CONTINUOUS
 62
     7
 10
88.549295217
 20
616.0654602719
 30
0.0
 40
9.999975167726813
 50
42.0715152762
 51
118.9823712422
  0
LINE
  5
144
  8
0
  6
CONTINUOUS
 62
     7
 10
91.2830687471
 20
636.5938955012
 30
0.0
 11
83.703902305
 21
637.9303061429
 31
0.0
  0
ARC
  5
145
  8
0
  6
CONTINUOUS
 62
     7
 10
-6.6007179604
 20
624.7762010907
 30
0.0
 40
2.999991477117115
 50
179.9999866278
 51
265.0001282048
  0
ARC
  5
146
  8
0
  6
CONTINUOUS
 62
     7
 10
2.4001046874
 20
624.775907346
 30
0.0
 40
12.00081412850132
 50
140.5162097982
 51
179.9985942246
  0
ARC
  5
147
  8
0
  6
CONTINUOUS
 62
     7
 10
98.1992971303
 20
624.7762010907
 30
0.0
 40
2.999991477117115
 50
274.9998717952
 51
0.0000133722
  0
ARC
  5
148
  8
0
  6
CONTINUOUS
 62
     7
 10
89.1984744825
 20
624.775907346
 30
0.0
 40
12.00081412850134
 50
0.0014057754
 51
39.4837902018
  0
POLYLINE
  5
149
  8
0
  6
CONTINUOUS
 62
     7
 66
     1
 10
0.0
 20
0.0
 30
0.0
  0
VERTEX
  5
3F7
  8
0
  6
CONTINUOUS
 62
     7
 10
59.7992900171
 20
660.924556202
 30
0.0
  0
VERTEX
  5
3F8
  8
0
  6
CONTINUOUS
 62
     7
 10
59.6817533829
 20
661.0420816604
 30
0.0
  0
VERTEX
  5
3F9
  8
0
  6
CONTINUOUS
 62
     7
 10
59.3311178841
 20
661.3927208844
 30
0.0
  0
VERTEX
  5
3FA
  8
0
  6
CONTINUOUS
 62
     7
 10
58.7532713421
 20
661.9705730143
 30
0.0
  0
VERTEX
  5
3FB
  8
0
  6
CONTINUOUS
 62
     7
 10
57.9579153441
 20
662.7659224931
 30
0.0
  0
VERTEX
  5
3FC
  8
0
  6
CONTINUOUS
 62
     7
 10
56.9584050559
 20
663.7654327813
 30
0.0
  0
SEQEND
  5
5A0
  8
0
  6
CONTINUOUS
 62
     7
  0
POLYLINE
  5
14A
  8
0
  6
CONTINUOUS
 62
     7
 66
     1
 10
0.0
 20
0.0
 30
0.0
  0
VERTEX
  5
3FD
  8
0
  6
CONTINUOUS
 62
     7
 10
34.640174114
 20
663.7654327813
 30
0.0
  0
VERTEX
  5
3FE
  8
0
  6
CONTINUOUS
 62
     7
 10
33.6406638258
 20
662.7659224931
 30
0.0
  0
VERTEX
  5
3FF
  8
0
  6
CONTINUOUS
 62
     7
 10
32.8453078278
 20
661.9705730143
 30
0.0
  0
VERTEX
  5
400
  8
0
  6
CONTINUOUS
 62
     7
 10
32.2674612858
 20
661.3927208844
 30
0.0
  0
VERTEX
  5
401
  8
0
  6
CONTINUOUS
 62
     7
 10
31.916825787
 20
661.0420816604
 30
0.0
  0
VERTEX
  5
402
  8
0
  6
CONTINUOUS
 62
     7
 10
31.7992891528
 20
660.924556202
 30
0.0
  0
SEQEND
  5
59F
  8
0
  6
CONTINUOUS
 62
     7
  0
ARC
  5
14B
  8
0
  6
CONTINUOUS
 62
     7
 10
45.799289585
 20
674.924592186
 30
0.0
 40
14.00003499539358
 50
232.852238674
 51
307.147761326
  0
LINE
  5
14C
  8
0
  6
CONTINUOUS
 62
     7
 10
115.799289883
 20
511.2654366556
 30
0.0
 11
115.799289883
 21
511.1684077445
 31
0.0
  0
LINE
  5
14D
  8
0
  6
CONTINUOUS
 62
     7
 10
88.7653163977
 20
511.2654366556
 30
0.0
 11
115.799289883
 21
511.2654366556
 31
0.0
  0
LINE
  5
14E
  8
0
  6
CONTINUOUS
 62
     7
 10
-24.2007107131
 20
511.2654366556
 30
0.0
 11
-24.2007107131
 21
511.1684077445
 31
0.0
  0
LINE
  5
14F
  8
0
  6
CONTINUOUS
 62
     7
 10
2.8332627722
 20
511.2654366556
 30
0.0
 11
-24.2007107131
 21
511.2654366556
 31
0.0
  0
LINE
  5
150
  8
0
  6
CONTINUOUS
 62
     7
 10
1.9372037955
 20
387.7654322449
 30
0.0
 11
89.6613753744
 21
387.7654322449
 31
0.0
  0
LINE
  5
151
  8
0
  6
CONTINUOUS
 62
     7
 10
-24.2007107131
 20
378.2520093981
 30
0.0
 11
1.9372037955
 21
387.7654322449
 31
0.0
  0
LINE
  5
152
  8
0
  6
CONTINUOUS
 62
     7
 10
89.6613753744
 20
387.7654322449
 30
0.0
 11
115.799289883
 21
378.2520093981
 31
0.0
  0
LINE
  5
153
  8
0
  6
CONTINUOUS
 62
     7
 10
77.1072774537
 20
660.7654267016
 30
0.0
 11
78.1869559892
 21
638.9030986491
 31
0.0
  0
LINE
  5
154
  8
0
  6
CONTINUOUS
 62
     7
 10
71.4504222729
 20
660.7654267016
 30
0.0
 11
77.1072774537
 21
660.7654267016
 31
0.0
  0
LINE
  5
155
  8
0
  6
CONTINUOUS
 62
     8
 10
87.2546851047
 20
539.7654348079
 30
0.0
 11
87.3843736358
 21
549.7654327217
 31
0.0
  0
LINE
  5
156
  8
0
  6
CONTINUOUS
 62
     8
 10
4.3438940652
 20
539.7654348079
 30
0.0
 11
4.2142055341
 21
549.7654327217
 31
0.0
  0
LINE
  5
157
  8
0
  6
CONTINUOUS
 62
     8
 10
4.3075426825
 20
561.7654346887
 30
0.0
 11
4.2142055341
 21
549.7654327217
 31
0.0
  0
LINE
  5
158
  8
0
  6
CONTINUOUS
 62
     8
 10
87.2910364874
 20
561.7654346887
 30
0.0
 11
87.3843736358
 21
549.7654327217
 31
0.0
  0
LINE
  5
159
  8
0
  6
CONTINUOUS
 62
     8
 10
5.0987161108
 20
538.0462058845
 30
0.0
 11
4.2142055341
 21
539.7654348079
 31
0.0
  0
LINE
  5
15A
  8
0
  6
CONTINUOUS
 62
     8
 10
86.4998630591
 20
538.0462058845
 30
0.0
 11
87.3843736358
 21
539.7654348079
 31
0.0
  0
LINE
  5
15B
  8
0
  6
CONTINUOUS
 62
     8
 10
4.3075426825
 20
579.7654264632
 30
0.0
 11
4.3075426825
 21
561.7654346887
 31
0.0
  0
LINE
  5
15C
  8
0
  6
CONTINUOUS
 62
     8
 10
87.2910364874
 20
579.7654264632
 30
0.0
 11
87.2910364874
 21
561.7654346887
 31
0.0
  0
LINE
  5
15D
  8
0
  6
CONTINUOUS
 62
     8
 10
-2.0312622778
 20
538.2668771807
 30
0.0
 11
-4.5526207081
 21
539.7654348079
 31
0.0
  0
LINE
  5
15E
  8
0
  6
CONTINUOUS
 62
     8
 10
93.6298414477
 20
538.2668771807
 30
0.0
 11
96.1511998781
 21
539.7654348079
 31
0.0
  0
LINE
  5
15F
  8
0
  6
CONTINUOUS
 62
     8
 10
95.7270755776
 20
539.7654348079
 30
0.0
 11
96.1511998781
 21
549.7654327217
 31
0.0
  0
LINE
  5
160
  8
0
  6
CONTINUOUS
 62
     8
 10
95.8459533163
 20
561.7654346887
 30
0.0
 11
96.1511998781
 21
549.7654327217
 31
0.0
  0
LINE
  5
161
  8
0
  6
CONTINUOUS
 62
     8
 10
-4.1284964077
 20
539.7654348079
 30
0.0
 11
-4.5526207081
 21
549.7654327217
 31
0.0
  0
LINE
  5
162
  8
0
  6
CONTINUOUS
 62
     8
 10
-4.2473741464
 20
561.7654346887
 30
0.0
 11
-4.5526207081
 21
549.7654327217
 31
0.0
  0
LINE
  5
163
  8
0
  6
CONTINUOUS
 62
     8
 10
-4.2473741464
 20
579.7654264632
 30
0.0
 11
-4.2473741464
 21
561.7654346887
 31
0.0
  0
LINE
  5
164
  8
0
  6
CONTINUOUS
 62
     8
 10
95.8459533163
 20
579.7654264632
 30
0.0
 11
95.8459533163
 21
561.7654346887
 31
0.0
  0
LINE
  5
165
  8
0
  6
CONTINUOUS
 62
     8
 10
20.2080986806
 20
449.4271413449
 30
0.0
 11
20.2080986806
 21
532.8372293178
 31
0.0
  0
LINE
  5
166
  8
0
  6
CONTINUOUS
 62
     8
 10
71.3904804893
 20
449.4271413449
 30
0.0
 11
71.3904804893
 21
532.8372293178
 31
0.0
  0
LINE
  5
167
  8
0
  6
CONTINUOUS
 62
     8
 10
67.4696049996
 20
407.5534422908
 30
0.0
 11
24.1289741703
 21
407.5534422908
 31
0.0
  0
LINE
  5
168
  8
0
  6
CONTINUOUS
 62
     8
 10
7.74286756
 20
481.466399974
 30
0.0
 11
7.74286756
 21
515.1140564147
 31
0.0
  0
LINE
  5
169
  8
0
  6
CONTINUOUS
 62
     8
 10
83.8557116099
 20
481.466399974
 30
0.0
 11
83.8557116099
 21
515.1140564147
 31
0.0
  0
LINE
  5
16A
  8
0
  6
CONTINUOUS
 62
     8
 10
32.8649764292
 20
640.2654373113
 30
0.0
 11
32.8649764292
 21
621.7654370728
 31
0.0
  0
LINE
  5
16B
  8
0
  6
CONTINUOUS
 62
     8
 10
58.7336027407
 20
640.2654373113
 30
0.0
 11
58.7336027407
 21
621.7654370728
 31
0.0
  0
LINE
  5
16C
  8
0
  6
CONTINUOUS
 62
     8
 10
23.7008656718
 20
640.2654373113
 30
0.0
 11
23.7008656718
 21
621.7654370728
 31
0.0
  0
LINE
  5
16D
  8
0
  6
CONTINUOUS
 62
     8
 10
67.8977134981
 20
640.2654373113
 30
0.0
 11
67.8977134981
 21
621.7654370728
 31
0.0
  0
LINE
  5
16E
  8
0
  6
CONTINUOUS
 62
     8
 10
69.8023389437
 20
640.2654373113
 30
0.0
 11
69.8023389437
 21
622.2072714034
 31
0.0
  0
LINE
  5
16F
  8
0
  6
CONTINUOUS
 62
     8
 10
21.7962402262
 20
640.2654373113
 30
0.0
 11
21.7962402262
 21
622.2072714034
 31
0.0
  0
LINE
  5
170
  8
0
  6
CONTINUOUS
 62
     8
 10
71.0296619095
 20
640.1651226941
 30
0.0
 11
71.0296619095
 21
621.9590329591
 31
0.0
  0
LINE
  5
171
  8
0
  6
CONTINUOUS
 62
     8
 10
20.5689172604
 20
640.1651226941
 30
0.0
 11
20.5689172604
 21
621.9590329591
 31
0.0
  0
LINE
  5
172
  8
0
  6
CONTINUOUS
 62
     8
 10
83.703902305
 20
637.9303061429
 30
0.0
 11
83.703902305
 21
624.8131268683
 31
0.0
  0
LINE
  5
173
  8
0
  6
CONTINUOUS
 62
     8
 10
7.8946768649
 20
637.9303061429
 30
0.0
 11
7.8946768649
 21
624.8131268683
 31
0.0
  0
LINE
  5
174
  8
0
  6
CONTINUOUS
 62
     8
 10
-6.8621777586
 20
632.4067437116
 30
0.0
 11
-6.8621777586
 21
621.7876249019
 31
0.0
  0
LINE
  5
175
  8
0
  6
CONTINUOUS
 62
     8
 10
98.4607569285
 20
632.4067437116
 30
0.0
 11
98.4607569285
 21
621.7876249019
 31
0.0
  0
LINE
  5
176
  8
FORMAT
  6
CENTERX2
 10
45.799289585
 20
378.1173436671
 30
0.0
 11
45.799289585
 21
725.616356593
 31
0.0
  0
LINE
  5
177
  8
FORMAT
  6
CENTERX2
 10
-46.7533094806
 20
428.7654333774
 30
0.0
 11
138.1287402246
 21
428.7654333774
 31
0.0
  0
LINE
  5
178
  8
0
  6
CONTINUOUS
 62
     7
 10
537.5399380374
 20
621.7761957112
 30
0.0
 11
543.8543814618
 21
621.7761957112
 31
0.0
  0
LINE
  5
179
  8
0
  6
CONTINUOUS
 62
     7
 10
565.0762482929
 20
621.7761957112
 30
0.0
 11
571.393774395
 21
621.7761957112
 31
0.0
  0
LINE
  5
17A
  8
0
  6
CONTINUOUS
 62
     7
 10
510.4668564546
 20
565.808164424
 30
0.0
 11
510.4668564546
 21
579.7654264632
 31
0.0
  0
LINE
  5
17B
  8
0
  6
CONTINUOUS
 62
     7
 10
598.4668559778
 20
579.7654264632
 30
0.0
 11
598.4668559778
 21
565.0246762696
 31
0.0
  0
LINE
  5
17C
  8
0
  6
CONTINUOUS
 62
     7
 10
488.4668565738
 20
537.8355183664
 30
0.0
 11
488.4668565738
 21
519.7654315296
 31
0.0
  0
POLYLINE
  5
17D
  8
0
  6
CONTINUOUS
 62
     7
 66
     1
 10
0.0
 20
0.0
 30
0.0
  0
VERTEX
  5
403
  8
0
  6
CONTINUOUS
 62
     7
 10
488.4668565738
 20
519.7654315296
 30
0.0
  0
VERTEX
  5
404
  8
0
  6
CONTINUOUS
 62
     7
 10
497.4668561864
 20
514.569277412
 30
0.0
  0
VERTEX
  5
405
  8
0
  6
CONTINUOUS
 62
     7
 10
501.9668578553
 20
517.1673544708
 30
0.0
  0
SEQEND
  5
59E
  8
0
  6
CONTINUOUS
 62
     7
  0
LINE
  5
17E
  8
0
  6
CONTINUOUS
 62
     7
 10
620.4668558586
 20
519.7654315296
 30
0.0
 11
620.4668558586
 21
537.8428199354
 31
0.0
  0
LINE
  5
17F
  8
0
  6
CONTINUOUS
 62
     7
 10
606.9668545771
 20
517.1673544708
 30
0.0
 11
611.466856246
 21
514.569277412
 31
0.0
  0
LINE
  5
180
  8
0
  6
CONTINUOUS
 62
     7
 10
611.466856246
 20
514.569277412
 30
0.0
 11
620.4668558586
 21
519.7654315296
 31
0.0
  0
LINE
  5
181
  8
0
  6
CONTINUOUS
 62
     7
 10
613.4668565738
 20
604.0873699847
 30
0.0
 11
613.4668565738
 21
621.7654370728
 31
0.0
  0
LINE
  5
182
  8
0
  6
CONTINUOUS
 62
     7
 10
495.4668558586
 20
621.7654370728
 30
0.0
 11
495.4668558586
 21
604.0826463166
 31
0.0
  0
LINE
  5
183
  8
0
  6
CONTINUOUS
 62
     7
 10
479.466853236
 20
539.7654348079
 30
0.0
 11
488.4668565738
 21
534.5692806903
 31
0.0
  0
LINE
  5
184
  8
0
  6
CONTINUOUS
 62
     7
 10
479.7810889232
 20
561.7654346887
 30
0.0
 11
479.466853236
 21
549.7654327217
 31
0.0
  0
LINE
  5
185
  8
0
  6
CONTINUOUS
 62
     7
 10
479.466853236
 20
549.7654327217
 30
0.0
 11
479.9034647095
 21
539.7654348079
 31
0.0
  0
LINE
  5
186
  8
0
  6
CONTINUOUS
 62
     7
 10
629.0302477229
 20
539.7654348079
 30
0.0
 11
629.4668591964
 21
549.7654327217
 31
0.0
  0
LINE
  5
187
  8
0
  6
CONTINUOUS
 62
     7
 10
629.4668591964
 20
549.7654327217
 30
0.0
 11
629.1526235092
 21
561.7654346887
 31
0.0
  0
LINE
  5
188
  8
0
  6
CONTINUOUS
 62
     7
 10
620.4668558586
 20
534.5692806903
 30
0.0
 11
629.4668591964
 21
539.7654348079
 31
0.0
  0
LINE
  5
189
  8
0
  6
CONTINUOUS
 62
     7
 10
491.4668552029
 20
518.0333801571
 30
0.0
 11
491.4668552029
 21
482.0312769178
 31
0.0
  0
LINE
  5
18A
  8
0
  6
CONTINUOUS
 62
     7
 10
617.4668572295
 20
508.4193670217
 30
0.0
 11
617.4668572295
 21
518.0333801571
 31
0.0
  0
LINE
  5
18B
  8
0
  6
CONTINUOUS
 62
     7
 10
617.4668572295
 20
482.0312769178
 30
0.0
 11
617.4668572295
 21
491.2765123907
 31
0.0
  0
LINE
  5
18C
  8
0
  6
CONTINUOUS
 62
     7
 10
618.9668528188
 20
491.2765123907
 30
0.0
 11
618.9668528188
 21
496.4193725053
 31
0.0
  0
POLYLINE
  5
18D
  8
0
  6
CONTINUOUS
 62
     7
 66
     1
 10
0.0
 20
0.0
 30
0.0
  0
VERTEX
  5
406
  8
0
  6
CONTINUOUS
 62
     7
 10
625.8653230417
 20
561.7656731072
 30
0.0
  0
VERTEX
  5
407
  8
0
  6
CONTINUOUS
 62
     7
 10
625.183684324
 20
567.267271227
 30
0.0
  0
VERTEX
  5
408
  8
0
  6
CONTINUOUS
 62
     7
 10
624.2551855195
 20
572.6981633368
 30
0.0
  0
SEQEND
  5
59D
  8
0
  6
CONTINUOUS
 62
     7
  0
ARC
  5
18E
  8
0
  6
CONTINUOUS
 62
     7
 10
506.4668562162
 20
549.7654333774
 30
0.0
 40
120.0
 50
14.4775121859
 51
26.9164283805
  0
ARC
  5
18F
  8
0
  6
CONTINUOUS
 62
     7
 10
602.4668562162
 20
549.7654333774
 30
0.0
 40
120.0000000000001
 50
153.0855847115
 51
165.5224878141
  0
POLYLINE
  5
190
  8
0
  6
CONTINUOUS
 62
     7
 66
     1
 10
0.0
 20
0.0
 30
0.0
  0
VERTEX
  5
409
  8
0
  6
CONTINUOUS
 62
     7
 10
484.678526913
 20
572.6981633368
 30
0.0
  0
VERTEX
  5
40A
  8
0
  6
CONTINUOUS
 62
     7
 10
483.7501920212
 20
567.2684186164
 30
0.0
  0
VERTEX
  5
40B
  8
0
  6
CONTINUOUS
 62
     7
 10
483.0685831058
 20
561.7675804559
 30
0.0
  0
SEQEND
  5
59C
  8
0
  6
CONTINUOUS
 62
     7
  0
LINE
  5
191
  8
0
  6
CONTINUOUS
 62
     7
 10
522.2086063969
 20
641.5236764613
 30
0.0
 11
521.9668574083
 21
641.7654329005
 31
0.0
  0
LINE
  5
192
  8
0
  6
CONTINUOUS
 62
     7
 10
496.9668551731
 20
641.7654329005
 30
0.0
 11
495.4668558586
 21
640.2654373113
 31
0.0
  0
LINE
  5
193
  8
0
  6
CONTINUOUS
 62
     7
 10
568.4668566483
 20
660.7654267016
 30
0.0
 11
568.4668566483
 21
660.924556202
 31
0.0
  0
LINE
  5
194
  8
0
  6
CONTINUOUS
 62
     7
 10
540.4668557841
 20
660.924556202
 30
0.0
 11
540.4668557841
 21
660.7654267016
 31
0.0
  0
LINE
  5
195
  8
0
  6
CONTINUOUS
 62
     7
 10
613.4668565738
 20
640.2654373113
 30
0.0
 11
611.9668572593
 21
641.7654329005
 31
0.0
  0
LINE
  5
196
  8
0
  6
CONTINUOUS
 62
     7
 10
586.9668550241
 20
641.7654329005
 30
0.0
 11
585.4668557096
 21
640.2654373113
 31
0.0
  0
LINE
  5
197
  8
0
  6
CONTINUOUS
 62
     7
 10
495.4668558586
 20
640.2654373113
 30
0.0
 11
495.4668558586
 21
621.7556023065
 31
0.0
  0
LINE
  5
198
  8
0
  6
CONTINUOUS
 62
     7
 10
613.4668565738
 20
621.7555725041
 30
0.0
 11
613.4668565738
 21
640.2654373113
 31
0.0
  0
CIRCLE
  5
199
  8
0
  6
CONTINUOUS
 62
     7
 10
554.4668562162
 20
428.7654333774
 30
0.0
 40
25.0
  0
CIRCLE
  5
19A
  8
0
  6
CONTINUOUS
 62
     7
 10
598.6610300404
 20
472.9596072015
 30
0.0
 40
9.5
  0
CIRCLE
  5
19B
  8
0
  6
CONTINUOUS
 62
     7
 10
510.2726823921
 20
472.9596072015
 30
0.0
 40
9.500000000000114
  0
CIRCLE
  5
19C
  8
0
  6
CONTINUOUS
 62
     7
 10
510.2726823921
 20
384.5712595532
 30
0.0
 40
9.5
  0
CIRCLE
  5
19D
  8
0
  6
CONTINUOUS
 62
     7
 10
598.6610300404
 20
384.5712595532
 30
0.0
 40
9.5
  0
CIRCLE
  5
19E
  8
0
  6
CONTINUOUS
 62
     7
 10
554.4668562162
 20
428.7654333774
 30
0.0
 40
82.5
  0
LINE
  5
19F
  8
0
  6
CONTINUOUS
 62
     7
 10
514.4647858489
 20
346.2654300991
 30
0.0
 11
509.647113775
 21
359.5018708173
 31
0.0
  0
LINE
  5
1A0
  8
0
  6
CONTINUOUS
 62
     7
 10
554.4668562162
 20
346.2654300991
 30
0.0
 11
514.4647858489
 21
346.2654300991
 31
0.0
  0
LINE
  5
1A1
  8
0
  6
CONTINUOUS
 62
     7
 10
599.2865986574
 20
359.5018708173
 30
0.0
 11
594.4689265836
 21
346.2654300991
 31
0.0
  0
LINE
  5
1A2
  8
0
  6
CONTINUOUS
 62
     7
 10
594.4689265836
 20
346.2654300991
 30
0.0
 11
554.4668562162
 21
346.2654300991
 31
0.0
  0
LINE
  5
1A3
  8
0
  6
CONTINUOUS
 62
     7
 10
554.4668562162
 20
511.2654366556
 30
0.0
 11
550.4668560262
 21
511.2654366556
 31
0.0
  0
LINE
  5
1A4
  8
0
  6
CONTINUOUS
 62
     7
 10
550.4668560262
 20
511.2654366556
 30
0.0
 11
550.4668560262
 21
511.1684077445
 31
0.0
  0
LINE
  5
1A5
  8
0
  6
CONTINUOUS
 62
     7
 10
558.4668564062
 20
511.2654366556
 30
0.0
 11
558.4668564062
 21
511.1684077445
 31
0.0
  0
LINE
  5
1A6
  8
0
  6
CONTINUOUS
 62
     7
 10
558.4668564062
 20
511.2654366556
 30
0.0
 11
554.4668562162
 21
511.2654366556
 31
0.0
  0
LINE
  5
1A7
  8
0
  6
CONTINUOUS
 62
     7
 10
495.1870232272
 20
561.7654346887
 30
0.0
 11
501.2283190537
 21
561.7654346887
 31
0.0
  0
LINE
  5
1A8
  8
0
  6
CONTINUOUS
 62
     7
 10
607.7053933788
 20
561.7654346887
 30
0.0
 11
501.2283190537
 21
561.7654346887
 31
0.0
  0
LINE
  5
1A9
  8
0
  6
CONTINUOUS
 62
     7
 10
613.7466892052
 20
561.7654346887
 30
0.0
 11
607.7053933788
 21
561.7654346887
 31
0.0
  0
LINE
  5
1AA
  8
0
  6
CONTINUOUS
 62
     7
 10
495.1124205637
 20
549.7654327217
 30
0.0
 11
613.8212918687
 21
549.7654327217
 31
0.0
  0
LINE
  5
1AB
  8
0
  6
CONTINUOUS
 62
     7
 10
611.466856246
 20
538.1271415416
 30
0.0
 11
613.2050580728
 21
538.2668771807
 31
0.0
  0
ARC
  5
1AC
  8
0
  6
CONTINUOUS
 62
     7
 10
554.4668562162
 20
960.6901238572
 30
0.0
 40
426.3900491649688
 50
262.3176782148
 51
277.6823217852
  0
LINE
  5
1AD
  8
0
  6
CONTINUOUS
 62
     7
 10
495.7286543596
 20
538.2668771807
 30
0.0
 11
497.4668561864
 21
538.1271415416
 31
0.0
  0
LINE
  5
1AE
  8
0
  6
CONTINUOUS
 62
     7
 10
613.8212918687
 20
539.7654348079
 30
0.0
 11
495.1124205637
 21
539.7654348079
 31
0.0
  0
POLYLINE
  5
1AF
  8
0
  6
CONTINUOUS
 62
     7
 66
     1
 10
0.0
 20
0.0
 30
0.0
  0
VERTEX
  5
40C
  8
0
  6
CONTINUOUS
 62
     7
 10
568.3823149103
 20
624.7762017909
 30
0.0
  0
VERTEX
  5
40D
  8
0
  6
CONTINUOUS
 62
     7
 10
568.3921133551
 20
624.7957968179
 30
0.0
  0
VERTEX
  5
40E
  8
0
  6
CONTINUOUS
 62
     7
 10
569.4482154596
 20
626.9347989026
 30
0.0
  0
VERTEX
  5
40F
  8
0
  6
CONTINUOUS
 62
     7
 10
570.2451947528
 20
628.6651664439
 30
0.0
  0
VERTEX
  5
410
  8
0
  6
CONTINUOUS
 62
     7
 10
570.9046940702
 20
630.3555541697
 30
0.0
  0
VERTEX
  5
411
  8
0
  6
CONTINUOUS
 62
     7
 10
571.3708992499
 20
632.4067437116
 30
0.0
  0
SEQEND
  5
59B
  8
0
  6
CONTINUOUS
 62
     7
  0
ARC
  5
1B0
  8
0
  6
CONTINUOUS
 62
     7
 10
610.8675129022
 20
646.9366507566
 30
0.0
 40
47.91740338093068
 50
199.1409157956
 51
207.5467251946
  0
POLYLINE
  5
1B1
  8
0
  6
CONTINUOUS
 62
     7
 66
     1
 10
0.0
 20
0.0
 30
0.0
  0
VERTEX
  5
412
  8
0
  6
CONTINUOUS
 62
     7
 10
543.3344892609
 20
631.2248879138
 30
0.0
  0
VERTEX
  5
413
  8
0
  6
CONTINUOUS
 62
     7
 10
544.3531885195
 20
633.5919820729
 30
0.0
  0
VERTEX
  5
414
  8
0
  6
CONTINUOUS
 62
     7
 10
546.1490764666
 20
635.1969563428
 30
0.0
  0
VERTEX
  5
415
  8
0
  6
CONTINUOUS
 62
     7
 10
548.566406631
 20
636.0354446832
 30
0.0
  0
VERTEX
  5
416
  8
0
  6
CONTINUOUS
 62
     7
 10
551.6775316011
 20
636.413338131
 30
0.0
  0
VERTEX
  5
417
  8
0
  6
CONTINUOUS
 62
     7
 10
553.528439874
 20
636.4836567107
 30
0.0
  0
VERTEX
  5
418
  8
0
  6
CONTINUOUS
 62
     7
 10
555.4035007755
 20
636.4829712573
 30
0.0
  0
VERTEX
  5
419
  8
0
  6
CONTINUOUS
 62
     7
 10
557.3435582138
 20
636.4086442653
 30
0.0
  0
VERTEX
  5
41A
  8
0
  6
CONTINUOUS
 62
     7
 10
559.2005676973
 20
636.2318866912
 30
0.0
  0
VERTEX
  5
41B
  8
0
  6
CONTINUOUS
 62
     7
 10
560.8935063157
 20
635.9133296672
 30
0.0
  0
VERTEX
  5
41C
  8
0
  6
CONTINUOUS
 62
     7
 10
562.3906520578
 20
635.3956484261
 30
0.0
  0
VERTEX
  5
41D
  8
0
  6
CONTINUOUS
 62
     7
 10
563.5306709829
 20
634.7042941514
 30
0.0
  0
VERTEX
  5
41E
  8
0
  6
CONTINUOUS
 62
     7
 10
564.4420949194
 20
633.7829702559
 30
0.0
  0
VERTEX
  5
41F
  8
0
  6
CONTINUOUS
 62
     7
 10
565.5061020899
 20
631.5647834006
 30
0.0
  0
VERTEX
  5
420
  8
0
  6
CONTINUOUS
 62
     7
 10
565.5992231715
 20
631.2248879138
 30
0.0
  0
SEQEND
  5
59A
  8
0
  6
CONTINUOUS
 62
     7
  0
ARC
  5
1B2
  8
0
  6
CONTINUOUS
 62
     7
 10
497.9727823702
 20
646.9769672679
 30
0.0
 40
48.01887603872448
 50
332.4621722246
 51
340.8501867851
  0
POLYLINE
  5
1B3
  8
0
  6
CONTINUOUS
 62
     7
 66
     1
 10
0.0
 20
0.0
 30
0.0
  0
VERTEX
  5
421
  8
0
  6
CONTINUOUS
 62
     7
 10
537.5628131825
 20
632.4067437116
 30
0.0
  0
VERTEX
  5
422
  8
0
  6
CONTINUOUS
 62
     7
 10
538.0290183622
 20
630.3555541697
 30
0.0
  0
VERTEX
  5
423
  8
0
  6
CONTINUOUS
 62
     7
 10
538.6885176796
 20
628.6651664439
 30
0.0
  0
VERTEX
  5
424
  8
0
  6
CONTINUOUS
 62
     7
 10
539.4854969728
 20
626.9347989026
 30
0.0
  0
VERTEX
  5
425
  8
0
  6
CONTINUOUS
 62
     7
 10
540.5415990773
 20
624.7957968179
 30
0.0
  0
VERTEX
  5
426
  8
0
  6
CONTINUOUS
 62
     7
 10
540.5513975221
 20
624.7762017909
 30
0.0
  0
SEQEND
  5
599
  8
0
  6
CONTINUOUS
 62
     7
  0
ARC
  5
1B4
  8
0
  6
CONTINUOUS
 62
     7
 10
521.2847570404
 20
632.1061134701
 30
0.0
 40
16.28083199066857
 50
1.0580431664
 51
16.0006463602
  0
ARC
  5
1B5
  8
0
  6
CONTINUOUS
 62
     7
 10
587.6489553921
 20
632.1061134701
 30
0.0
 40
16.28083199066857
 50
163.9993536398
 51
178.9419568336
  0
POLYLINE
  5
1B6
  8
0
  6
CONTINUOUS
 62
     7
 66
     1
 10
0.0
 20
0.0
 30
0.0
  0
VERTEX
  5
427
  8
0
  6
CONTINUOUS
 62
     7
 10
540.5513975221
 20
624.7762017909
 30
0.0
  0
VERTEX
  5
428
  8
0
  6
CONTINUOUS
 62
     7
 10
539.9982561741
 20
624.2230557862
 30
0.0
  0
VERTEX
  5
429
  8
0
  6
CONTINUOUS
 62
     7
 10
539.4640830729
 20
623.6888938609
 30
0.0
  0
VERTEX
  5
42A
  8
0
  6
CONTINUOUS
 62
     7
 10
538.9671936083
 20
623.1919997397
 30
0.0
  0
VERTEX
  5
42B
  8
0
  6
CONTINUOUS
 62
     7
 10
538.5246272582
 20
622.7494352523
 30
0.0
  0
VERTEX
  5
42C
  8
0
  6
CONTINUOUS
 62
     7
 10
538.1515580613
 20
622.3763697806
 30
0.0
  0
VERTEX
  5
42D
  8
0
  6
CONTINUOUS
 62
     7
 10
537.8607786644
 20
622.0855885211
 30
0.0
  0
VERTEX
  5
42E
  8
0
  6
CONTINUOUS
 62
     7
 10
537.6622616697
 20
621.8870603505
 30
0.0
  0
VERTEX
  5
42F
  8
0
  6
CONTINUOUS
 62
     7
 10
537.5628131825
 20
621.7876249019
 30
0.0
  0
SEQEND
  5
598
  8
0
  6
CONTINUOUS
 62
     7
  0
POLYLINE
  5
1B7
  8
0
  6
CONTINUOUS
 62
     7
 66
     1
 10
0.0
 20
0.0
 30
0.0
  0
VERTEX
  5
430
  8
0
  6
CONTINUOUS
 62
     7
 10
543.3344892609
 20
621.9931119147
 30
0.0
  0
VERTEX
  5
431
  8
0
  6
CONTINUOUS
 62
     7
 10
543.0597453761
 20
622.2678595248
 30
0.0
  0
VERTEX
  5
432
  8
0
  6
CONTINUOUS
 62
     7
 10
542.6869518507
 20
622.6406418744
 30
0.0
  0
VERTEX
  5
433
  8
0
  6
CONTINUOUS
 62
     7
 10
542.2306829515
 20
623.0969154302
 30
0.0
  0
VERTEX
  5
434
  8
0
  6
CONTINUOUS
 62
     7
 10
541.7087716434
 20
623.618828601
 30
0.0
  0
VERTEX
  5
435
  8
0
  6
CONTINUOUS
 62
     7
 10
541.1416204098
 20
624.1859816972
 30
0.0
  0
VERTEX
  5
436
  8
0
  6
CONTINUOUS
 62
     7
 10
540.5513975221
 20
624.7762017909
 30
0.0
  0
SEQEND
  5
597
  8
0
  6
CONTINUOUS
 62
     7
  0
POLYLINE
  5
1B8
  8
0
  6
CONTINUOUS
 62
     7
 66
     1
 10
0.0
 20
0.0
 30
0.0
  0
VERTEX
  5
437
  8
0
  6
CONTINUOUS
 62
     7
 10
545.3707431826
 20
622.7660202447
 30
0.0
  0
VERTEX
  5
438
  8
0
  6
CONTINUOUS
 62
     7
 10
544.5605204824
 20
622.0147484008
 30
0.0
  0
VERTEX
  5
439
  8
0
  6
CONTINUOUS
 62
     7
 10
543.8583963934
 20
621.7762106124
 30
0.0
  0
VERTEX
  5
43A
  8
0
  6
CONTINUOUS
 62
     7
 10
543.3344892609
 20
621.9931119147
 30
0.0
  0
SEQEND
  5
596
  8
0
  6
CONTINUOUS
 62
     7
  0
ARC
  5
1B9
  8
0
  6
CONTINUOUS
 62
     7
 10
538.8075073134
 20
622.5780047924
 30
0.0
 40
1.474436791113435
 50
172.6738792158
 51
212.4155183776
  0
POLYLINE
  5
1BA
  8
0
  6
CONTINUOUS
 62
     7
 66
     1
 10
0.0
 20
0.0
 30
0.0
  0
VERTEX
  5
43B
  8
0
  6
CONTINUOUS
 62
     7
 10
565.5992231715
 20
621.9931119147
 30
0.0
  0
VERTEX
  5
43C
  8
0
  6
CONTINUOUS
 62
     7
 10
565.1245010469
 20
621.7774027053
 30
0.0
  0
VERTEX
  5
43D
  8
0
  6
CONTINUOUS
 62
     7
 10
564.5497567404
 20
621.9164454404
 30
0.0
  0
VERTEX
  5
43E
  8
0
  6
CONTINUOUS
 62
     7
 10
563.8593710411
 20
622.4292540017
 30
0.0
  0
VERTEX
  5
43F
  8
0
  6
CONTINUOUS
 62
     7
 10
563.5629692498
 20
622.7660202447
 30
0.0
  0
SEQEND
  5
595
  8
0
  6
CONTINUOUS
 62
     7
  0
POLYLINE
  5
1BB
  8
0
  6
CONTINUOUS
 62
     7
 66
     1
 10
0.0
 20
0.0
 30
0.0
  0
VERTEX
  5
440
  8
0
  6
CONTINUOUS
 62
     7
 10
568.3823149103
 20
624.7762017909
 30
0.0
  0
VERTEX
  5
441
  8
0
  6
CONTINUOUS
 62
     7
 10
567.7920920226
 20
624.1859816972
 30
0.0
  0
VERTEX
  5
442
  8
0
  6
CONTINUOUS
 62
     7
 10
567.2249407891
 20
623.618828601
 30
0.0
  0
VERTEX
  5
443
  8
0
  6
CONTINUOUS
 62
     7
 10
566.7030294809
 20
623.0969154302
 30
0.0
  0
VERTEX
  5
444
  8
0
  6
CONTINUOUS
 62
     7
 10
566.2467605818
 20
622.6406418744
 30
0.0
  0
VERTEX
  5
445
  8
0
  6
CONTINUOUS
 62
     7
 10
565.8739670563
 20
622.2678595248
 30
0.0
  0
VERTEX
  5
446
  8
0
  6
CONTINUOUS
 62
     7
 10
565.5992231715
 20
621.9931119147
 30
0.0
  0
SEQEND
  5
594
  8
0
  6
CONTINUOUS
 62
     7
  0
POLYLINE
  5
1BC
  8
0
  6
CONTINUOUS
 62
     7
 66
     1
 10
0.0
 20
0.0
 30
0.0
  0
VERTEX
  5
447
  8
0
  6
CONTINUOUS
 62
     7
 10
571.3708992499
 20
621.7876249019
 30
0.0
  0
VERTEX
  5
448
  8
0
  6
CONTINUOUS
 62
     7
 10
571.2714507628
 20
621.8870603505
 30
0.0
  0
VERTEX
  5
449
  8
0
  6
CONTINUOUS
 62
     7
 10
571.0729337681
 20
622.0855885211
 30
0.0
  0
VERTEX
  5
44A
  8
0
  6
CONTINUOUS
 62
     7
 10
570.7821543712
 20
622.3763697806
 30
0.0
  0
VERTEX
  5
44B
  8
0
  6
CONTINUOUS
 62
     7
 10
570.4090851742
 20
622.7494352523
 30
0.0
  0
VERTEX
  5
44C
  8
0
  6
CONTINUOUS
 62
     7
 10
569.9665188241
 20
623.1919997397
 30
0.0
  0
VERTEX
  5
44D
  8
0
  6
CONTINUOUS
 62
     7
 10
569.4696293596
 20
623.6888938609
 30
0.0
  0
VERTEX
  5
44E
  8
0
  6
CONTINUOUS
 62
     7
 10
568.9354562584
 20
624.2230557862
 30
0.0
  0
VERTEX
  5
44F
  8
0
  6
CONTINUOUS
 62
     7
 10
568.3823149103
 20
624.7762017909
 30
0.0
  0
SEQEND
  5
593
  8
0
  6
CONTINUOUS
 62
     7
  0
POLYLINE
  5
1BD
  8
0
  6
CONTINUOUS
 62
     7
 66
     1
 10
0.0
 20
0.0
 30
0.0
  0
VERTEX
  5
450
  8
0
  6
CONTINUOUS
 62
     7
 10
571.588605215
 20
622.7660202447
 30
0.0
  0
VERTEX
  5
451
  8
0
  6
CONTINUOUS
 62
     7
 10
571.5529821265
 20
622.3911368314
 30
0.0
  0
VERTEX
  5
452
  8
0
  6
CONTINUOUS
 62
     7
 10
571.5119387406
 20
622.0974349442
 30
0.0
  0
VERTEX
  5
453
  8
0
  6
CONTINUOUS
 62
     7
 10
571.4668739039
 20
621.8948983613
 30
0.0
  0
VERTEX
  5
454
  8
0
  6
CONTINUOUS
 62
     7
 10
571.4193224359
 20
621.7904412213
 30
0.0
  0
VERTEX
  5
455
  8
0
  6
CONTINUOUS
 62
     7
 10
571.3708992499
 20
621.7876249019
 30
0.0
  0
SEQEND
  5
592
  8
0
  6
CONTINUOUS
 62
     7
  0
POLYLINE
  5
1BE
  8
0
  6
CONTINUOUS
 62
     7
 66
     1
 10
0.0
 20
0.0
 30
0.0
  0
VERTEX
  5
456
  8
0
  6
CONTINUOUS
 62
     7
 10
563.5629692498
 20
622.7660202447
 30
0.0
  0
VERTEX
  5
457
  8
0
  6
CONTINUOUS
 62
     7
 10
561.6882290143
 20
624.305310196
 30
0.0
  0
VERTEX
  5
458
  8
0
  6
CONTINUOUS
 62
     7
 10
559.2074669349
 20
625.1285546485
 30
0.0
  0
VERTEX
  5
459
  8
0
  6
CONTINUOUS
 62
     7
 10
556.1273729346
 20
625.4821145001
 30
0.0
  0
VERTEX
  5
45A
  8
0
  6
CONTINUOUS
 62
     7
 10
554.3021860013
 20
625.5229734841
 30
0.0
  0
VERTEX
  5
45B
  8
0
  6
CONTINUOUS
 62
     7
 10
552.4813132744
 20
625.4640989963
 30
0.0
  0
VERTEX
  5
45C
  8
0
  6
CONTINUOUS
 62
     7
 10
550.638824274
 20
625.2837055388
 30
0.0
  0
VERTEX
  5
45D
  8
0
  6
CONTINUOUS
 62
     7
 10
548.9128162536
 20
624.9380433026
 30
0.0
  0
VERTEX
  5
45E
  8
0
  6
CONTINUOUS
 62
     7
 10
547.4426411475
 20
624.4010352555
 30
0.0
  0
VERTEX
  5
45F
  8
0
  6
CONTINUOUS
 62
     7
 10
546.1894576821
 20
623.6114674273
 30
0.0
  0
VERTEX
  5
460
  8
0
  6
CONTINUOUS
 62
     7
 10
545.3707431826
 20
622.7660202447
 30
0.0
  0
SEQEND
  5
591
  8
0
  6
CONTINUOUS
 62
     7
  0
POLYLINE
  5
1BF
  8
0
  6
CONTINUOUS
 62
     7
 66
     1
 10
0.0
 20
0.0
 30
0.0
  0
VERTEX
  5
461
  8
0
  6
CONTINUOUS
 62
     7
 10
537.3451072175
 20
622.7660202447
 30
0.0
  0
VERTEX
  5
462
  8
0
  6
CONTINUOUS
 62
     7
 10
537.2214741457
 20
624.0579658214
 30
0.0
  0
VERTEX
  5
463
  8
0
  6
CONTINUOUS
 62
     7
 10
537.0785645592
 20
625.0568949643
 30
0.0
  0
VERTEX
  5
464
  8
0
  6
CONTINUOUS
 62
     7
 10
536.921618079
 20
625.7261955205
 30
0.0
  0
VERTEX
  5
465
  8
0
  6
CONTINUOUS
 62
     7
 10
536.7563884157
 20
626.0413252774
 30
0.0
  0
VERTEX
  5
466
  8
0
  6
CONTINUOUS
 62
     7
 10
536.5889328915
 20
625.9907358352
 30
0.0
  0
VERTEX
  5
467
  8
0
  6
CONTINUOUS
 62
     7
 10
536.4253889221
 20
625.5762600366
 30
0.0
  0
VERTEX
  5
468
  8
0
  6
CONTINUOUS
 62
     7
 10
536.2717560876
 20
624.8131268683
 30
0.0
  0
SEQEND
  5
590
  8
0
  6
CONTINUOUS
 62
     7
  0
LINE
  5
1C0
  8
0
  6
CONTINUOUS
 62
     7
 10
536.2717560876
 20
637.9303061429
 30
0.0
 11
536.9348465848
 21
636.5938955012
 31
0.0
  0
LINE
  5
1C1
  8
0
  6
CONTINUOUS
 62
     7
 10
571.9988658476
 20
636.5938955012
 30
0.0
 11
572.6619563449
 21
637.9303061429
 31
0.0
  0
POLYLINE
  5
1C2
  8
0
  6
CONTINUOUS
 62
     7
 66
     1
 10
0.0
 20
0.0
 30
0.0
  0
VERTEX
  5
469
  8
0
  6
CONTINUOUS
 62
     7
 10
572.6619563449
 20
624.8131268683
 30
0.0
  0
VERTEX
  5
46A
  8
0
  6
CONTINUOUS
 62
     7
 10
572.5083235103
 20
625.5762600366
 30
0.0
  0
VERTEX
  5
46B
  8
0
  6
CONTINUOUS
 62
     7
 10
572.3447795409
 20
625.9907358352
 30
0.0
  0
VERTEX
  5
46C
  8
0
  6
CONTINUOUS
 62
     7
 10
572.1773240167
 20
626.0413252774
 30
0.0
  0
VERTEX
  5
46D
  8
0
  6
CONTINUOUS
 62
     7
 10
572.0120943535
 20
625.7261955205
 30
0.0
  0
VERTEX
  5
46E
  8
0
  6
CONTINUOUS
 62
     7
 10
571.8551478732
 20
625.0568949643
 30
0.0
  0
VERTEX
  5
46F
  8
0
  6
CONTINUOUS
 62
     7
 10
571.7122382868
 20
624.0579658214
 30
0.0
  0
VERTEX
  5
470
  8
0
  6
CONTINUOUS
 62
     7
 10
571.588605215
 20
622.7660202447
 30
0.0
  0
SEQEND
  5
58F
  8
0
  6
CONTINUOUS
 62
     7
  0
LINE
  5
1C3
  8
0
  6
CONTINUOUS
 62
     7
 10
501.2283190537
 20
579.7654264632
 30
0.0
 11
501.2283190537
 21
561.7654346887
 31
0.0
  0
LINE
  5
1C4
  8
0
  6
CONTINUOUS
 62
     7
 10
495.1870232272
 20
579.7654264632
 30
0.0
 11
501.2283190537
 21
579.7654264632
 31
0.0
  0
POLYLINE
  5
1C5
  8
0
  6
CONTINUOUS
 62
     7
 66
     1
 10
0.0
 20
0.0
 30
0.0
  0
VERTEX
  5
471
  8
0
  6
CONTINUOUS
 62
     7
 10
510.4391700971
 20
565.808164424
 30
0.0
  0
VERTEX
  5
472
  8
0
  6
CONTINUOUS
 62
     7
 10
510.45986781
 20
564.6661692325
 30
0.0
  0
VERTEX
  5
473
  8
0
  6
CONTINUOUS
 62
     7
 10
510.4034818161
 20
561.7654346887
 30
0.0
  0
SEQEND
  5
58E
  8
0
  6
CONTINUOUS
 62
     7
  0
LINE
  5
1C6
  8
0
  6
CONTINUOUS
 62
     7
 10
501.2283190537
 20
579.7654264632
 30
0.0
 11
510.4668564546
 21
579.7654264632
 31
0.0
  0
LINE
  5
1C7
  8
0
  6
CONTINUOUS
 62
     7
 10
598.4668559778
 20
579.7654264632
 30
0.0
 11
607.7053933788
 21
579.7654264632
 31
0.0
  0
LINE
  5
1C8
  8
0
  6
CONTINUOUS
 62
     7
 10
607.7053933788
 20
579.7654264632
 30
0.0
 11
607.7053933788
 21
561.7654346887
 31
0.0
  0
LINE
  5
1C9
  8
0
  6
CONTINUOUS
 62
     7
 10
598.5070593107
 20
561.7654346887
 30
0.0
 11
598.4903066802
 21
565.0246762696
 31
0.0
  0
LINE
  5
1CA
  8
0
  6
CONTINUOUS
 62
     7
 10
607.7053933788
 20
579.7654264632
 30
0.0
 11
613.7466892052
 21
579.7654264632
 31
0.0
  0
POLYLINE
  5
1CB
  8
0
  6
CONTINUOUS
 62
     7
 66
     1
 10
0.0
 20
0.0
 30
0.0
  0
VERTEX
  5
474
  8
0
  6
CONTINUOUS
 62
     7
 10
573.2507738668
 20
621.7654370728
 30
0.0
  0
VERTEX
  5
475
  8
0
  6
CONTINUOUS
 62
     7
 10
572.7811339694
 20
624.1465234223
 30
0.0
  0
VERTEX
  5
476
  8
0
  6
CONTINUOUS
 62
     7
 10
572.6619563449
 20
624.8131268683
 30
0.0
  0
SEQEND
  5
58D
  8
0
  6
CONTINUOUS
 62
     7
  0
LINE
  5
1CC
  8
0
  6
CONTINUOUS
 62
     7
 10
560.1627328816
 20
621.7654370728
 30
0.0
 11
573.2507738668
 21
621.7654370728
 31
0.0
  0
LINE
  5
1CD
  8
0
  6
CONTINUOUS
 62
     7
 10
535.6829385656
 20
621.7654370728
 30
0.0
 11
548.771134616
 21
621.7654370728
 31
0.0
  0
POLYLINE
  5
1CE
  8
0
  6
CONTINUOUS
 62
     7
 66
     1
 10
0.0
 20
0.0
 30
0.0
  0
VERTEX
  5
477
  8
0
  6
CONTINUOUS
 62
     7
 10
536.2717560876
 20
624.8131268683
 30
0.0
  0
VERTEX
  5
478
  8
0
  6
CONTINUOUS
 62
     7
 10
536.1033133614
 20
623.8953643504
 30
0.0
  0
VERTEX
  5
479
  8
0
  6
CONTINUOUS
 62
     7
 10
535.8687951613
 20
622.7321648065
 30
0.0
  0
VERTEX
  5
47A
  8
0
  6
CONTINUOUS
 62
     7
 10
535.6829385656
 20
621.7654370728
 30
0.0
  0
SEQEND
  5
58C
  8
0
  6
CONTINUOUS
 62
     7
  0
LINE
  5
1CF
  8
0
  6
CONTINUOUS
 62
     7
 10
495.1870232272
 20
561.7654346887
 30
0.0
 11
486.0856361139
 21
561.7654346887
 31
0.0
  0
LINE
  5
1D0
  8
0
  6
CONTINUOUS
 62
     7
 10
485.7855937827
 20
549.7654327217
 30
0.0
 11
495.1124205637
 21
549.7654327217
 31
0.0
  0
ARC
  5
1D1
  8
0
  6
CONTINUOUS
 62
     7
 10
493.3636647375
 20
500.0363770358
 30
0.0
 40
38.30358099758362
 50
86.4601177248
 51
97.1004587813
  0
LINE
  5
1D2
  8
0
  6
CONTINUOUS
 62
     7
 10
495.1124205637
 20
539.7654348079
 30
0.0
 11
485.7855937827
 21
539.7654348079
 31
0.0
  0
LINE
  5
1D3
  8
0
  6
CONTINUOUS
 62
     7
 10
613.8212918687
 20
549.7654327217
 30
0.0
 11
623.1481186497
 21
549.7654327217
 31
0.0
  0
LINE
  5
1D4
  8
0
  6
CONTINUOUS
 62
     7
 10
622.8480763185
 20
561.7654346887
 30
0.0
 11
613.7466892052
 21
561.7654346887
 31
0.0
  0
ARC
  5
1D5
  8
0
  6
CONTINUOUS
 62
     7
 10
615.6317114549
 20
502.0202895291
 30
0.0
 40
36.32772719309617
 50
82.609274583
 51
93.8301489109
  0
LINE
  5
1D6
  8
0
  6
CONTINUOUS
 62
     7
 10
623.1481186497
 20
539.7654348079
 30
0.0
 11
613.8212918687
 21
539.7654348079
 31
0.0
  0
LINE
  5
1D7
  8
0
  6
CONTINUOUS
 62
     7
 10
486.0856361139
 20
579.7654264632
 30
0.0
 11
495.1870232272
 21
579.7654264632
 31
0.0
  0
LINE
  5
1D8
  8
0
  6
CONTINUOUS
 62
     7
 10
613.7466892052
 20
579.7654264632
 30
0.0
 11
622.8480763185
 21
579.7654264632
 31
0.0
  0
LINE
  5
1D9
  8
0
  6
CONTINUOUS
 62
     7
 10
497.4668561864
 20
519.7654315296
 30
0.0
 11
611.466856246
 21
519.7654315296
 31
0.0
  0
LINE
  5
1DA
  8
0
  6
CONTINUOUS
 62
     7
 10
488.4668565738
 20
519.7654315296
 30
0.0
 11
497.4668561864
 21
519.7654315296
 31
0.0
  0
LINE
  5
1DB
  8
0
  6
CONTINUOUS
 62
     7
 10
488.4938872802
 20
537.8355183664
 30
0.0
 11
488.6289812076
 21
538.0462058845
 31
0.0
  0
LINE
  5
1DC
  8
0
  6
CONTINUOUS
 62
     7
 10
505.908226167
 20
515.4300876919
 30
0.0
 11
507.9741864848
 21
514.9565213386
 31
0.0
  0
LINE
  5
1DD
  8
0
  6
CONTINUOUS
 62
     7
 10
504.1202917147
 20
515.924068636
 30
0.0
 11
505.908226167
 21
515.4300876919
 31
0.0
  0
LINE
  5
1DE
  8
0
  6
CONTINUOUS
 62
     7
 10
504.1202917147
 20
515.924068636
 30
0.0
 11
497.4668561864
 21
519.7654315296
 31
0.0
  0
LINE
  5
1DF
  8
0
  6
CONTINUOUS
 62
     7
 10
604.7113999176
 20
515.8651717964
 30
0.0
 11
611.466856246
 21
519.7654315296
 31
0.0
  0
LINE
  5
1E0
  8
0
  6
CONTINUOUS
 62
     7
 10
604.7113999176
 20
515.8651717964
 30
0.0
 11
601.6682847786
 21
514.9845653239
 31
0.0
  0
LINE
  5
1E1
  8
0
  6
CONTINUOUS
 62
     7
 10
586.1019618261
 20
515.6463407937
 30
0.0
 11
601.6682847786
 21
514.9845653239
 31
0.0
  0
ARC
  5
1E2
  8
0
  6
CONTINUOUS
 62
     7
 10
554.4673721461
 20
110.4390518341
 30
0.0
 40
406.4402714916037
 50
85.5359651437
 51
94.5256172904
  0
LINE
  5
1E3
  8
0
  6
CONTINUOUS
 62
     7
 10
507.9741864848
 20
514.9565213386
 30
0.0
 11
522.3972774494
 21
515.6121053759
 31
0.0
  0
LINE
  5
1E4
  8
0
  6
CONTINUOUS
 62
     7
 10
620.3047312248
 20
538.0462058845
 30
0.0
 11
620.453631078
 21
537.8428199354
 31
0.0
  0
LINE
  5
1E5
  8
0
  6
CONTINUOUS
 62
     7
 10
611.466856246
 20
519.7654315296
 30
0.0
 11
620.4668558586
 21
519.7654315296
 31
0.0
  0
POLYLINE
  5
1E6
  8
0
  6
CONTINUOUS
 62
     7
 66
     1
 10
0.0
 20
0.0
 30
0.0
  0
VERTEX
  5
47B
  8
0
  6
CONTINUOUS
 62
     7
 10
496.7047511983
 20
580.4232084218
 30
0.0
  0
VERTEX
  5
47C
  8
0
  6
CONTINUOUS
 62
     7
 10
497.5022613454
 20
585.6137895051
 30
0.0
  0
VERTEX
  5
47D
  8
0
  6
CONTINUOUS
 62
     7
 10
497.6550392258
 20
590.9409546319
 30
0.0
  0
VERTEX
  5
47E
  8
0
  6
CONTINUOUS
 62
     7
 10
497.637601142
 20
593.7822037402
 30
0.0
  0
VERTEX
  5
47F
  8
0
  6
CONTINUOUS
 62
     7
 10
497.4902472842
 20
596.5587818089
 30
0.0
  0
VERTEX
  5
480
  8
0
  6
CONTINUOUS
 62
     7
 10
497.2635074902
 20
598.4968119327
 30
0.0
  0
VERTEX
  5
481
  8
0
  6
CONTINUOUS
 62
     7
 10
496.9211793888
 20
600.2851896945
 30
0.0
  0
VERTEX
  5
482
  8
0
  6
CONTINUOUS
 62
     7
 10
496.5090318966
 20
601.751374549
 30
0.0
  0
VERTEX
  5
483
  8
0
  6
CONTINUOUS
 62
     7
 10
496.0706658113
 20
602.9049032393
 30
0.0
  0
VERTEX
  5
484
  8
0
  6
CONTINUOUS
 62
     7
 10
495.7675314892
 20
603.5495721761
 30
0.0
  0
VERTEX
  5
485
  8
0
  6
CONTINUOUS
 62
     7
 10
495.5540798056
 20
603.9437674943
 30
0.0
  0
VERTEX
  5
486
  8
0
  6
CONTINUOUS
 62
     7
 10
495.4670272219
 20
604.0882640544
 30
0.0
  0
VERTEX
  5
487
  8
0
  6
CONTINUOUS
 62
     7
 10
495.470454489
 20
604.0826463166
 30
0.0
  0
SEQEND
  5
58B
  8
0
  6
CONTINUOUS
 62
     7
  0
POLYLINE
  5
1E7
  8
0
  6
CONTINUOUS
 62
     7
 66
     1
 10
0.0
 20
0.0
 30
0.0
  0
VERTEX
  5
488
  8
0
  6
CONTINUOUS
 62
     7
 10
612.1557332027
 20
580.6747102204
 30
0.0
  0
VERTEX
  5
489
  8
0
  6
CONTINUOUS
 62
     7
 10
611.3882637966
 20
585.9695249263
 30
0.0
  0
VERTEX
  5
48A
  8
0
  6
CONTINUOUS
 62
     7
 10
611.2526110757
 20
591.3908504907
 30
0.0
  0
VERTEX
  5
48B
  8
0
  6
CONTINUOUS
 62
     7
 10
611.2799249041
 20
594.0770083133
 30
0.0
  0
VERTEX
  5
48C
  8
0
  6
CONTINUOUS
 62
     7
 10
611.4315479446
 20
596.6995530787
 30
0.0
  0
VERTEX
  5
48D
  8
0
  6
CONTINUOUS
 62
     7
 10
611.6656377363
 20
598.6144416991
 30
0.0
  0
VERTEX
  5
48E
  8
0
  6
CONTINUOUS
 62
     7
 10
612.0155244518
 20
600.376295394
 30
0.0
  0
VERTEX
  5
48F
  8
0
  6
CONTINUOUS
 62
     7
 10
612.4322913039
 20
601.8130504552
 30
0.0
  0
VERTEX
  5
490
  8
0
  6
CONTINUOUS
 62
     7
 10
612.8709665883
 20
602.9384159509
 30
0.0
  0
VERTEX
  5
491
  8
0
  6
CONTINUOUS
 62
     7
 10
613.1736725021
 20
603.5694503251
 30
0.0
  0
VERTEX
  5
492
  8
0
  6
CONTINUOUS
 62
     7
 10
613.3842668879
 20
603.9525144759
 30
0.0
  0
VERTEX
  5
493
  8
0
  6
CONTINUOUS
 62
     7
 10
613.4668491233
 20
604.0885322753
 30
0.0
  0
VERTEX
  5
494
  8
0
  6
CONTINUOUS
 62
     7
 10
613.4661450434
 20
604.0873699847
 30
0.0
  0
SEQEND
  5
58A
  8
0
  6
CONTINUOUS
 62
     7
  0
LINE
  5
1E8
  8
0
  6
CONTINUOUS
 62
     7
 10
504.1092872071
 20
621.7654370728
 30
0.0
 11
526.2334081727
 21
621.7654370728
 31
0.0
  0
LINE
  5
1E9
  8
0
  6
CONTINUOUS
 62
     7
 10
526.2334081727
 20
621.7654370728
 30
0.0
 11
528.426205312
 21
621.7654370728
 31
0.0
  0
LINE
  5
1EA
  8
0
  6
CONTINUOUS
 62
     7
 10
529.6667716849
 20
621.7654370728
 30
0.0
 11
529.69991373
 21
621.7654370728
 31
0.0
  0
LINE
  5
1EB
  8
0
  6
CONTINUOUS
 62
     7
 10
529.6999211806
 20
621.7657052937
 30
0.0
 11
529.7181192237
 21
621.7654370728
 31
0.0
  0
LINE
  5
1EC
  8
0
  6
CONTINUOUS
 62
     7
 10
529.7181192237
 20
621.7654370728
 30
0.0
 11
529.7224871266
 21
621.765451974
 31
0.0
  0
LINE
  5
1ED
  8
0
  6
CONTINUOUS
 62
     7
 10
529.7224871266
 20
621.765451974
 30
0.0
 11
529.7371349681
 21
621.7657350961
 31
0.0
  0
LINE
  5
1EE
  8
0
  6
CONTINUOUS
 62
     7
 10
529.7371275175
 20
621.7654370728
 30
0.0
 11
529.7762803185
 21
621.7654370728
 31
0.0
  0
LINE
  5
1EF
  8
0
  6
CONTINUOUS
 62
     7
 10
548.7711197148
 20
621.7654370728
 30
0.0
 11
560.1627403322
 21
621.7654370728
 31
0.0
  0
LINE
  5
1F0
  8
0
  6
CONTINUOUS
 62
     7
 10
579.2110446292
 20
621.765451974
 30
0.0
 11
579.2155932087
 21
621.7654370728
 31
0.0
  0
LINE
  5
1F1
  8
0
  6
CONTINUOUS
 62
     7
 10
580.5075071204
 20
621.7654370728
 30
0.0
 11
580.6727684486
 21
621.7654370728
 31
0.0
  0
LINE
  5
1F2
  8
0
  6
CONTINUOUS
 62
     7
 10
580.6727684486
 20
621.7654370728
 30
0.0
 11
581.2988854397
 21
621.7654370728
 31
0.0
  0
LINE
  5
1F3
  8
0
  6
CONTINUOUS
 62
     7
 10
581.2988854397
 20
621.7654370728
 30
0.0
 11
581.9172445137
 21
621.7654370728
 31
0.0
  0
LINE
  5
1F4
  8
0
  6
CONTINUOUS
 62
     7
 10
581.9172445137
 20
621.7654370728
 30
0.0
 11
582.7003042597
 21
621.7654370728
 31
0.0
  0
LINE
  5
1F5
  8
0
  6
CONTINUOUS
 62
     7
 10
582.7003042597
 20
621.7654370728
 30
0.0
 11
604.8244252253
 21
621.7654370728
 31
0.0
  0
LINE
  5
1F6
  8
0
  6
CONTINUOUS
 62
     7
 10
604.8244252253
 20
621.7654370728
 30
0.0
 11
606.7189625848
 21
621.7654370728
 31
0.0
  0
LINE
  5
1F7
  8
0
  6
CONTINUOUS
 62
     7
 10
606.7189625848
 20
621.7654370728
 30
0.0
 11
608.1923968542
 21
621.7654370728
 31
0.0
  0
LINE
  5
1F8
  8
0
  6
CONTINUOUS
 62
     7
 10
608.1923968542
 20
621.7654370728
 30
0.0
 11
609.8850719083
 21
621.7654370728
 31
0.0
  0
LINE
  5
1F9
  8
0
  6
CONTINUOUS
 62
     7
 10
609.8850719083
 20
621.7654370728
 30
0.0
 11
610.9473794151
 21
621.7654370728
 31
0.0
  0
LINE
  5
1FA
  8
0
  6
CONTINUOUS
 62
     7
 10
610.9473794151
 20
621.7654370728
 30
0.0
 11
613.3965752471
 21
621.7654370728
 31
0.0
  0
LINE
  5
1FB
  8
0
  6
CONTINUOUS
 62
     7
 10
495.4668558586
 20
621.7654370728
 30
0.0
 11
504.1092872071
 21
621.7654370728
 31
0.0
  0
POLYLINE
  5
1FC
  8
0
  6
CONTINUOUS
 62
     7
 66
     1
 10
0.0
 20
0.0
 30
0.0
  0
VERTEX
  5
495
  8
0
  6
CONTINUOUS
 62
     7
 10
529.1131693322
 20
670.8577149573
 30
0.0
  0
VERTEX
  5
496
  8
0
  6
CONTINUOUS
 62
     7
 10
536.5856658119
 20
672.6276003781
 30
0.0
  0
VERTEX
  5
497
  8
0
  6
CONTINUOUS
 62
     7
 10
544.1441429231
 20
673.9628040257
 30
0.0
  0
VERTEX
  5
498
  8
0
  6
CONTINUOUS
 62
     7
 10
551.9790978088
 20
674.6482276383
 30
0.0
  0
VERTEX
  5
499
  8
0
  6
CONTINUOUS
 62
     7
 10
559.8397637169
 20
674.4977557126
 30
0.0
  0
VERTEX
  5
49A
  8
0
  6
CONTINUOUS
 62
     7
 10
564.8705722216
 20
673.9511662188
 30
0.0
  0
VERTEX
  5
49B
  8
0
  6
CONTINUOUS
 62
     7
 10
569.8641264263
 20
673.1239729587
 30
0.0
  0
VERTEX
  5
49C
  8
0
  6
CONTINUOUS
 62
     7
 10
579.8205431003
 20
670.8577149573
 30
0.0
  0
SEQEND
  5
589
  8
0
  6
CONTINUOUS
 62
     7
  0
ARC
  5
1FD
  8
0
  6
CONTINUOUS
 62
     7
 10
611.420337994
 20
710.0361351879
 30
0.0
 40
47.44595834305012
 50
228.1308419823
 51
244.6312564227
  0
LINE
  5
1FE
  8
0
  6
CONTINUOUS
 62
     7
 10
591.0924836445
 20
667.1654307309
 30
0.0
 11
517.8412287879
 21
667.1654307309
 31
0.0
  0
ARC
  5
1FF
  8
0
  6
CONTINUOUS
 62
     7
 10
496.9866667646
 20
710.8283253851
 30
0.0
 40
48.3876133609599
 50
295.5303841606
 51
311.7075174344
  0
LINE
  5
200
  8
0
  6
CONTINUOUS
 62
     7
 10
591.0924836445
 20
667.1654307309
 30
0.0
 11
591.1288014996
 21
663.7654327813
 31
0.0
  0
LINE
  5
201
  8
0
  6
CONTINUOUS
 62
     7
 10
517.8049109328
 20
663.7654327813
 30
0.0
 11
517.8412287879
 21
667.1654307309
 31
0.0
  0
LINE
  5
202
  8
0
  6
CONTINUOUS
 62
     7
 10
591.1288014996
 20
663.7654327813
 30
0.0
 11
517.8049109328
 21
663.7654327813
 31
0.0
  0
LINE
  5
203
  8
0
  6
CONTINUOUS
 62
     7
 10
534.5486267853
 20
640.2654373113
 30
0.0
 11
545.1746951241
 21
640.2654373113
 31
0.0
  0
ARC
  5
204
  8
0
  6
CONTINUOUS
 62
     7
 10
554.4725180417
 20
782.8048120757
 30
0.0
 40
142.8423006998788
 50
266.2678918407
 51
273.5249965912
  0
LINE
  5
205
  8
0
  6
CONTINUOUS
 62
     7
 10
570.7303113687
 20
638.9030986491
 30
0.0
 11
563.2550330284
 21
640.2327590648
 31
0.0
  0
LINE
  5
206
  8
0
  6
CONTINUOUS
 62
     7
 10
578.389247452
 20
640.2654373113
 30
0.0
 11
570.7303113687
 21
638.9030986491
 31
0.0
  0
LINE
  5
207
  8
0
  6
CONTINUOUS
 62
     7
 10
578.389247452
 20
640.2654373113
 30
0.0
 11
579.3025712866
 21
640.2654373113
 31
0.0
  0
LINE
  5
208
  8
0
  6
CONTINUOUS
 62
     7
 10
578.7243987817
 20
640.1651226941
 30
0.0
 11
579.3025712866
 21
640.2654373113
 31
0.0
  0
POLYLINE
  5
209
  8
0
  6
CONTINUOUS
 62
     7
 66
     1
 10
0.0
 20
0.0
 30
0.0
  0
VERTEX
  5
49D
  8
0
  6
CONTINUOUS
 62
     7
 10
572.6619563449
 20
637.9303061429
 30
0.0
  0
VERTEX
  5
49E
  8
0
  6
CONTINUOUS
 62
     7
 10
573.1162852991
 20
638.4297483626
 30
0.0
  0
VERTEX
  5
49F
  8
0
  6
CONTINUOUS
 62
     7
 10
573.9711705047
 20
638.9125906888
 30
0.0
  0
VERTEX
  5
4A0
  8
0
  6
CONTINUOUS
 62
     7
 10
575.2090192783
 20
639.368908948
 30
0.0
  0
VERTEX
  5
4A1
  8
0
  6
CONTINUOUS
 62
     7
 10
576.8043692607
 20
639.7893005076
 30
0.0
  0
VERTEX
  5
4A2
  8
0
  6
CONTINUOUS
 62
     7
 10
578.7243987817
 20
640.1651226941
 30
0.0
  0
SEQEND
  5
588
  8
0
  6
CONTINUOUS
 62
     7
  0
POLYLINE
  5
20A
  8
0
  6
CONTINUOUS
 62
     7
 66
     1
 10
0.0
 20
0.0
 30
0.0
  0
VERTEX
  5
4A3
  8
0
  6
CONTINUOUS
 62
     7
 10
530.2093136508
 20
640.1651226941
 30
0.0
  0
VERTEX
  5
4A4
  8
0
  6
CONTINUOUS
 62
     7
 10
532.1293431717
 20
639.7893005076
 30
0.0
  0
VERTEX
  5
4A5
  8
0
  6
CONTINUOUS
 62
     7
 10
533.7246931541
 20
639.368908948
 30
0.0
  0
VERTEX
  5
4A6
  8
0
  6
CONTINUOUS
 62
     7
 10
534.9625419277
 20
638.9125906888
 30
0.0
  0
VERTEX
  5
4A7
  8
0
  6
CONTINUOUS
 62
     7
 10
535.8174271333
 20
638.4297483626
 30
0.0
  0
VERTEX
  5
4A8
  8
0
  6
CONTINUOUS
 62
     7
 10
536.2717560876
 20
637.9303061429
 30
0.0
  0
SEQEND
  5
587
  8
0
  6
CONTINUOUS
 62
     7
  0
LINE
  5
20B
  8
0
  6
CONTINUOUS
 62
     7
 10
529.6311411458
 20
640.2654373113
 30
0.0
 11
530.2093136508
 21
640.1651226941
 31
0.0
  0
LINE
  5
20C
  8
0
  6
CONTINUOUS
 62
     7
 10
529.6311411458
 20
640.2654373113
 30
0.0
 11
530.5444649804
 21
640.2654373113
 31
0.0
  0
LINE
  5
20D
  8
0
  6
CONTINUOUS
 62
     7
 10
532.5465458828
 20
639.9093144599
 30
0.0
 11
530.5444649804
 21
640.2654373113
 31
0.0
  0
LINE
  5
20E
  8
0
  6
CONTINUOUS
 62
     7
 10
534.5486267853
 20
640.2654373113
 30
0.0
 11
532.5465458828
 21
639.9093144599
 31
0.0
  0
LINE
  5
20F
  8
0
  6
CONTINUOUS
 62
     7
 10
602.0891308236
 20
481.8195239666
 30
0.0
 11
602.4667076218
 21
481.466399974
 31
0.0
  0
LINE
  5
210
  8
0
  6
CONTINUOUS
 62
     7
 10
506.4670048106
 20
481.466399974
 30
0.0
 11
506.8445816088
 21
481.8195239666
 31
0.0
  0
ARC
  5
211
  8
0
  6
CONTINUOUS
 62
     7
 10
526.534098767
 20
464.1006673438
 30
0.0
 40
26.53783958117118
 50
139.1276272197
 51
164.6098437596
  0
ARC
  5
212
  8
0
  6
CONTINUOUS
 62
     7
 10
582.3996136654
 20
464.1006673438
 30
0.0
 40
26.53783958117123
 50
15.3901562404
 51
40.8723727803
  0
LINE
  5
213
  8
0
  6
CONTINUOUS
 62
     7
 10
485.7855937827
 20
539.7654348079
 30
0.0
 11
479.466853236
 21
539.7654348079
 31
0.0
  0
LINE
  5
214
  8
0
  6
CONTINUOUS
 62
     7
 10
484.678526913
 20
561.7654346887
 30
0.0
 11
479.7810889232
 21
561.7654346887
 31
0.0
  0
LINE
  5
215
  8
0
  6
CONTINUOUS
 62
     7
 10
486.0856361139
 20
561.7654346887
 30
0.0
 11
484.678526913
 21
561.7654346887
 31
0.0
  0
LINE
  5
216
  8
0
  6
CONTINUOUS
 62
     7
 10
479.466853236
 20
549.7654327217
 30
0.0
 11
485.7855937827
 21
549.7654327217
 31
0.0
  0
LINE
  5
217
  8
0
  6
CONTINUOUS
 62
     7
 10
623.1481186497
 20
549.7654327217
 30
0.0
 11
629.4668591964
 21
549.7654327217
 31
0.0
  0
LINE
  5
218
  8
0
  6
CONTINUOUS
 62
     7
 10
622.8480763185
 20
561.7654346887
 30
0.0
 11
624.2551855195
 21
561.7654346887
 31
0.0
  0
LINE
  5
219
  8
0
  6
CONTINUOUS
 62
     7
 10
629.1526235092
 20
561.7654346887
 30
0.0
 11
624.2551855195
 21
561.7654346887
 31
0.0
  0
LINE
  5
21A
  8
0
  6
CONTINUOUS
 62
     7
 10
629.4668591964
 20
539.7654348079
 30
0.0
 11
623.1481186497
 21
539.7654348079
 31
0.0
  0
LINE
  5
21B
  8
0
  6
CONTINUOUS
 62
     7
 10
484.678526913
 20
579.7654264632
 30
0.0
 11
484.678526913
 21
561.7654346887
 31
0.0
  0
LINE
  5
21C
  8
0
  6
CONTINUOUS
 62
     7
 10
484.678526913
 20
579.7654264632
 30
0.0
 11
486.0856361139
 21
579.7654264632
 31
0.0
  0
LINE
  5
21D
  8
0
  6
CONTINUOUS
 62
     7
 10
624.2551855195
 20
579.7654264632
 30
0.0
 11
624.2551855195
 21
561.7654346887
 31
0.0
  0
LINE
  5
21E
  8
0
  6
CONTINUOUS
 62
     7
 10
622.8480763185
 20
579.7654264632
 30
0.0
 11
624.2551855195
 21
579.7654264632
 31
0.0
  0
LINE
  5
21F
  8
0
  6
CONTINUOUS
 62
     7
 10
530.9433765161
 20
621.7654370728
 30
0.0
 11
535.6829385656
 21
621.7654370728
 31
0.0
  0
POLYLINE
  5
220
  8
0
  6
CONTINUOUS
 62
     7
 66
     1
 10
0.0
 20
0.0
 30
0.0
  0
VERTEX
  5
4A9
  8
0
  6
CONTINUOUS
 62
     7
 10
530.2093136508
 20
621.9590329591
 30
0.0
  0
VERTEX
  5
4AA
  8
0
  6
CONTINUOUS
 62
     7
 10
530.5812019307
 20
622.0576786462
 30
0.0
  0
VERTEX
  5
4AB
  8
0
  6
CONTINUOUS
 62
     7
 10
530.9433765161
 20
621.7654370728
 30
0.0
  0
SEQEND
  5
586
  8
0
  6
CONTINUOUS
 62
     7
  0
POLYLINE
  5
221
  8
0
  6
CONTINUOUS
 62
     7
 66
     1
 10
0.0
 20
0.0
 30
0.0
  0
VERTEX
  5
4AC
  8
0
  6
CONTINUOUS
 62
     7
 10
577.9903359163
 20
621.7654370728
 30
0.0
  0
VERTEX
  5
4AD
  8
0
  6
CONTINUOUS
 62
     7
 10
578.3525105018
 20
622.0576786462
 30
0.0
  0
VERTEX
  5
4AE
  8
0
  6
CONTINUOUS
 62
     7
 10
578.7243987817
 20
621.9590329591
 30
0.0
  0
SEQEND
  5
585
  8
0
  6
CONTINUOUS
 62
     7
  0
LINE
  5
222
  8
0
  6
CONTINUOUS
 62
     7
 10
573.2507738668
 20
621.7654370728
 30
0.0
 11
577.9903359163
 21
621.7654370728
 31
0.0
  0
LINE
  5
223
  8
0
  6
CONTINUOUS
 62
     7
 10
563.4391759905
 20
660.7654267016
 30
0.0
 11
570.7303113687
 21
660.7654267016
 31
0.0
  0
LINE
  5
224
  8
0
  6
CONTINUOUS
 62
     7
 10
570.7303113687
 20
660.7654267016
 30
0.0
 11
570.7303113687
 21
638.9030986491
 31
0.0
  0
LINE
  5
225
  8
0
  6
CONTINUOUS
 62
     7
 10
563.4391759905
 20
660.7654267016
 30
0.0
 11
563.2550330284
 21
640.2327590648
 31
0.0
  0
LINE
  5
226
  8
0
  6
CONTINUOUS
 62
     7
 10
570.7303113687
 20
660.7654267016
 30
0.0
 11
580.1179889041
 21
660.7654267016
 31
0.0
  0
LINE
  5
227
  8
0
  6
CONTINUOUS
 62
     7
 10
580.1179889041
 20
660.7654267016
 30
0.0
 11
581.1303905595
 21
640.2654373113
 31
0.0
  0
LINE
  5
228
  8
0
  6
CONTINUOUS
 62
     7
 10
529.966856857
 20
719.7654419604
 30
0.0
 11
578.9668555755
 21
719.7654419604
 31
0.0
  0
LINE
  5
229
  8
0
  6
CONTINUOUS
 62
     7
 10
579.8205431003
 20
670.8577149573
 30
0.0
 11
578.9668555755
 21
719.7654419604
 31
0.0
  0
LINE
  5
22A
  8
0
  6
CONTINUOUS
 62
     7
 10
529.1131693322
 20
670.8577149573
 30
0.0
 11
529.966856857
 21
719.7654419604
 31
0.0
  0
LINE
  5
22B
  8
0
  6
CONTINUOUS
 62
     7
 10
523.1588683474
 20
660.7654267016
 30
0.0
 11
522.1464685548
 21
640.2654373113
 31
0.0
  0
LINE
  5
22C
  8
0
  6
CONTINUOUS
 62
     7
 10
532.5465458828
 20
660.7654267016
 30
0.0
 11
532.5465458828
 21
639.9093144599
 31
0.0
  0
LINE
  5
22D
  8
0
  6
CONTINUOUS
 62
     7
 10
523.1588683474
 20
660.7654267016
 30
0.0
 11
532.5465458828
 21
660.7654267016
 31
0.0
  0
LINE
  5
22E
  8
0
  6
CONTINUOUS
 62
     7
 10
538.2996290374
 20
660.7654267016
 30
0.0
 11
538.3549291092
 21
640.2654373113
 31
0.0
  0
LINE
  5
22F
  8
0
  6
CONTINUOUS
 62
     7
 10
532.5465458828
 20
660.7654267016
 30
0.0
 11
538.2996290374
 21
660.7654267016
 31
0.0
  0
LINE
  5
230
  8
0
  6
CONTINUOUS
 62
     7
 10
538.2996290374
 20
660.7654267016
 30
0.0
 11
563.4391759905
 21
660.7654267016
 31
0.0
  0
LINE
  5
231
  8
0
  6
CONTINUOUS
 62
     7
 10
529.7371349681
 20
621.7657350961
 30
0.0
 11
530.2093136508
 21
621.9590329591
 31
0.0
  0
LINE
  5
232
  8
0
  6
CONTINUOUS
 62
     7
 10
529.7762803185
 20
621.7654370728
 30
0.0
 11
530.9433765161
 21
621.7654370728
 31
0.0
  0
LINE
  5
233
  8
0
  6
CONTINUOUS
 62
     7
 10
578.7243987817
 20
621.9590329591
 30
0.0
 11
579.2110446292
 21
621.765451974
 31
0.0
  0
LINE
  5
234
  8
0
  6
CONTINUOUS
 62
     7
 10
577.9903359163
 20
621.7654370728
 30
0.0
 11
579.2110446292
 21
621.7654370728
 31
0.0
  0
LINE
  5
235
  8
0
  6
CONTINUOUS
 62
     7
 10
616.1949127364
 20
500.06222958
 30
0.0
 11
616.1949127364
 21
503.4908005062
 31
0.0
  0
LINE
  5
236
  8
0
  6
CONTINUOUS
 62
     7
 10
616.6283167351
 20
500.06222958
 30
0.0
 11
616.1949127364
 21
491.2765123907
 31
0.0
  0
LINE
  5
237
  8
0
  6
CONTINUOUS
 62
     7
 10
616.1949127364
 20
504.8622288767
 30
0.0
 11
616.1949127364
 21
508.4193670217
 31
0.0
  0
LINE
  5
238
  8
0
  6
CONTINUOUS
 62
     7
 10
617.2571233857
 20
504.8622288767
 30
0.0
 11
617.277031337
 21
503.4908005062
 31
0.0
  0
POLYLINE
  5
239
  8
0
  6
CONTINUOUS
 62
     7
 66
     1
 10
0.0
 20
0.0
 30
0.0
  0
VERTEX
  5
4AF
  8
0
  6
CONTINUOUS
 62
     7
 10
528.9942506153
 20
622.2072714034
 30
0.0
  0
VERTEX
  5
4B0
  8
0
  6
CONTINUOUS
 62
     7
 10
529.3444521177
 20
621.8814426127
 30
0.0
  0
VERTEX
  5
4B1
  8
0
  6
CONTINUOUS
 62
     7
 10
529.6999211806
 20
621.7657052937
 30
0.0
  0
SEQEND
  5
584
  8
0
  6
CONTINUOUS
 62
     7
  0
LINE
  5
23A
  8
0
  6
CONTINUOUS
 62
     7
 10
528.9942506153
 20
640.2654373113
 30
0.0
 11
529.6311411458
 21
640.2654373113
 31
0.0
  0
LINE
  5
23B
  8
0
  6
CONTINUOUS
 62
     7
 10
579.3025712866
 20
640.2654373113
 30
0.0
 11
579.9394618172
 21
640.2654373113
 31
0.0
  0
POLYLINE
  5
23C
  8
0
  6
CONTINUOUS
 62
     7
 66
     1
 10
0.0
 20
0.0
 30
0.0
  0
VERTEX
  5
4B2
  8
0
  6
CONTINUOUS
 62
     7
 10
579.2155932087
 20
621.7654370728
 30
0.0
  0
VERTEX
  5
4B3
  8
0
  6
CONTINUOUS
 62
     7
 10
579.5802954036
 20
621.8758993808
 30
0.0
  0
VERTEX
  5
4B4
  8
0
  6
CONTINUOUS
 62
     7
 10
579.9394618172
 20
622.2072714034
 30
0.0
  0
SEQEND
  5
583
  8
0
  6
CONTINUOUS
 62
     7
  0
LINE
  5
23D
  8
0
  6
CONTINUOUS
 62
     7
 10
579.2155932087
 20
621.7654370728
 30
0.0
 11
580.5067117709
 21
621.7654370728
 31
0.0
  0
POLYLINE
  5
23E
  8
0
  6
CONTINUOUS
 62
     7
 66
     1
 10
0.0
 20
0.0
 30
0.0
  0
VERTEX
  5
4B5
  8
0
  6
CONTINUOUS
 62
     7
 10
579.9394618172
 20
622.2072714034
 30
0.0
  0
VERTEX
  5
4B6
  8
0
  6
CONTINUOUS
 62
     7
 10
580.1227405119
 20
622.3071240846
 30
0.0
  0
VERTEX
  5
4B7
  8
0
  6
CONTINUOUS
 62
     7
 10
580.3120988804
 20
622.1599453155
 30
0.0
  0
VERTEX
  5
4B8
  8
0
  6
CONTINUOUS
 62
     7
 10
580.5073338944
 20
621.7658841077
 30
0.0
  0
SEQEND
  5
582
  8
0
  6
CONTINUOUS
 62
     7
  0
LINE
  5
23F
  8
0
  6
CONTINUOUS
 62
     7
 10
528.426205312
 20
621.7654370728
 30
0.0
 11
529.5863147277
 21
621.7654370728
 31
0.0
  0
POLYLINE
  5
240
  8
0
  6
CONTINUOUS
 62
     7
 66
     1
 10
0.0
 20
0.0
 30
0.0
  0
VERTEX
  5
4B9
  8
0
  6
CONTINUOUS
 62
     7
 10
528.426205312
 20
621.7654370728
 30
0.0
  0
VERTEX
  5
4BA
  8
0
  6
CONTINUOUS
 62
     7
 10
528.6215017933
 20
622.1597814027
 30
0.0
  0
VERTEX
  5
4BB
  8
0
  6
CONTINUOUS
 62
     7
 10
528.8109179038
 20
622.3071091834
 30
0.0
  0
VERTEX
  5
4BC
  8
0
  6
CONTINUOUS
 62
     7
 10
528.9942506153
 20
622.2072714034
 30
0.0
  0
SEQEND
  5
581
  8
0
  6
CONTINUOUS
 62
     7
  0
LINE
  5
241
  8
0
  6
CONTINUOUS
 62
     7
 10
526.2334081727
 20
640.2654373113
 30
0.0
 11
528.9942506153
 21
640.2654373113
 31
0.0
  0
LINE
  5
242
  8
0
  6
CONTINUOUS
 62
     7
 10
579.9394618172
 20
640.2654373113
 30
0.0
 11
582.7003042597
 21
640.2654373113
 31
0.0
  0
LINE
  5
243
  8
0
  6
CONTINUOUS
 62
     7
 10
504.1092872071
 20
640.2654373113
 30
0.0
 11
526.2334081727
 21
640.2654373113
 31
0.0
  0
LINE
  5
244
  8
0
  6
CONTINUOUS
 62
     7
 10
582.7003042597
 20
640.2654373113
 30
0.0
 11
604.8244252253
 21
640.2654373113
 31
0.0
  0
LINE
  5
245
  8
0
  6
CONTINUOUS
 62
     7
 10
618.1283123243
 20
500.06222958
 30
0.0
 11
617.694912051
 21
491.2765123907
 31
0.0
  0
LINE
  5
246
  8
0
  6
CONTINUOUS
 62
     7
 10
616.1949127364
 20
491.2765123907
 30
0.0
 11
617.694912051
 21
491.2765123907
 31
0.0
  0
LINE
  5
247
  8
0
  6
CONTINUOUS
 62
     7
 10
617.694912051
 20
500.06222958
 30
0.0
 11
618.1283123243
 21
500.06222958
 31
0.0
  0
LINE
  5
248
  8
0
  6
CONTINUOUS
 62
     7
 10
617.694912051
 20
500.06222958
 30
0.0
 11
617.694912051
 21
503.4908005062
 31
0.0
  0
LINE
  5
249
  8
0
  6
CONTINUOUS
 62
     7
 10
618.7009192455
 20
503.4908005062
 30
0.0
 11
617.694912051
 21
503.4908005062
 31
0.0
  0
LINE
  5
24A
  8
0
  6
CONTINUOUS
 62
     7
 10
618.9249805558
 20
491.2765123907
 30
0.0
 11
618.7009192455
 21
503.4908005062
 31
0.0
  0
LINE
  5
24B
  8
0
  6
CONTINUOUS
 62
     7
 10
618.7689877498
 20
491.2765123907
 30
0.0
 11
618.9249805558
 21
491.2765123907
 31
0.0
  0
LINE
  5
24C
  8
0
  6
CONTINUOUS
 62
     7
 10
618.723934089
 20
493.1622245375
 30
0.0
 11
618.7689877498
 21
491.2765123907
 31
0.0
  0
LINE
  5
24D
  8
0
  6
CONTINUOUS
 62
     7
 10
618.2565591681
 20
493.1622245375
 30
0.0
 11
618.723934089
 21
493.1622245375
 31
0.0
  0
LINE
  5
24E
  8
0
  6
CONTINUOUS
 62
     7
 10
618.1779033888
 20
491.2765123907
 30
0.0
 11
618.2565591681
 21
493.1622245375
 31
0.0
  0
LINE
  5
24F
  8
0
  6
CONTINUOUS
 62
     7
 10
618.6351976741
 20
496.4193725053
 30
0.0
 11
618.4980324853
 21
500.6854855481
 31
0.0
  0
LINE
  5
250
  8
0
  6
CONTINUOUS
 62
     7
 10
618.4980324853
 20
500.6854855481
 30
0.0
 11
618.3468825567
 21
496.4193725053
 31
0.0
  0
LINE
  5
251
  8
0
  6
CONTINUOUS
 62
     7
 10
618.3468825567
 20
496.4193725053
 30
0.0
 11
618.6351976741
 21
496.4193725053
 31
0.0
  0
LINE
  5
252
  8
0
  6
CONTINUOUS
 62
     7
 10
617.694912051
 20
491.2765123907
 30
0.0
 11
618.1779033888
 21
491.2765123907
 31
0.0
  0
LINE
  5
253
  8
0
  6
CONTINUOUS
 62
     7
 10
616.1949127364
 20
500.06222958
 30
0.0
 11
617.694912051
 21
500.06222958
 31
0.0
  0
LINE
  5
254
  8
0
  6
CONTINUOUS
 62
     7
 10
616.1949127364
 20
503.4908005062
 30
0.0
 11
617.694912051
 21
503.4908005062
 31
0.0
  0
LINE
  5
255
  8
0
  6
CONTINUOUS
 62
     7
 10
616.1949127364
 20
504.8622288767
 30
0.0
 11
617.694912051
 21
504.8622288767
 31
0.0
  0
LINE
  5
256
  8
0
  6
CONTINUOUS
 62
     7
 10
616.1949127364
 20
508.4193670217
 30
0.0
 11
617.694912051
 21
508.4193670217
 31
0.0
  0
LINE
  5
257
  8
0
  6
CONTINUOUS
 62
     7
 10
617.694912051
 20
504.8622288767
 30
0.0
 11
617.694912051
 21
508.4193670217
 31
0.0
  0
LINE
  5
258
  8
0
  6
CONTINUOUS
 62
     7
 10
618.9542985904
 20
491.2765123907
 30
0.0
 11
618.9668528188
 21
491.2765123907
 31
0.0
  0
LINE
  5
259
  8
0
  6
CONTINUOUS
 62
     7
 10
618.7571264255
 20
504.8622288767
 30
0.0
 11
618.9542985904
 21
491.2765123907
 31
0.0
  0
LINE
  5
25A
  8
0
  6
CONTINUOUS
 62
     7
 10
618.9668528188
 20
496.4193725053
 30
0.0
 11
618.8735790003
 21
508.4193670217
 31
0.0
  0
LINE
  5
25B
  8
0
  6
CONTINUOUS
 62
     7
 10
617.694912051
 20
504.8622288767
 30
0.0
 11
618.7571264255
 21
504.8622288767
 31
0.0
  0
LINE
  5
25C
  8
0
  6
CONTINUOUS
 62
     7
 10
618.8735790003
 20
508.4193670217
 30
0.0
 11
617.694912051
 21
508.4193670217
 31
0.0
  0
ARC
  5
25D
  8
0
  6
CONTINUOUS
 62
     7
 10
506.4668562162
 20
549.7654333774
 30
0.0
 40
110.1159485895229
 50
15.8095187283
 51
16.3018419121
  0
POLYLINE
  5
25E
  8
0
  6
CONTINUOUS
 62
     7
 66
     1
 10
0.0
 20
0.0
 30
0.0
  0
VERTEX
  5
4BD
  8
0
  6
CONTINUOUS
 62
     7
 10
496.7047511983
 20
580.4232084218
 30
0.0
  0
VERTEX
  5
4BE
  8
0
  6
CONTINUOUS
 62
     7
 10
496.6034568298
 20
580.0715857211
 30
0.0
  0
VERTEX
  5
4BF
  8
0
  6
CONTINUOUS
 62
     7
 10
496.5162924874
 20
579.7654264632
 30
0.0
  0
SEQEND
  5
580
  8
0
  6
CONTINUOUS
 62
     7
  0
LINE
  5
25F
  8
0
  6
CONTINUOUS
 62
     7
 10
495.4668558586
 20
640.2654373113
 30
0.0
 11
504.1092872071
 21
640.2654373113
 31
0.0
  0
LINE
  5
260
  8
0
  6
CONTINUOUS
 62
     7
 10
496.9668551731
 20
641.7654329005
 30
0.0
 11
521.9668574083
 21
641.7654329005
 31
0.0
  0
POLYLINE
  5
261
  8
0
  6
CONTINUOUS
 62
     7
 66
     1
 10
0.0
 20
0.0
 30
0.0
  0
VERTEX
  5
4C0
  8
0
  6
CONTINUOUS
 62
     7
 10
543.3077407453
 20
663.7654327813
 30
0.0
  0
VERTEX
  5
4C1
  8
0
  6
CONTINUOUS
 62
     7
 10
542.308230457
 20
662.7659224931
 30
0.0
  0
VERTEX
  5
4C2
  8
0
  6
CONTINUOUS
 62
     7
 10
541.5128744591
 20
661.9705730143
 30
0.0
  0
VERTEX
  5
4C3
  8
0
  6
CONTINUOUS
 62
     7
 10
540.9350279171
 20
661.3927208844
 30
0.0
  0
VERTEX
  5
4C4
  8
0
  6
CONTINUOUS
 62
     7
 10
540.5843924183
 20
661.0420816604
 30
0.0
  0
VERTEX
  5
4C5
  8
0
  6
CONTINUOUS
 62
     7
 10
540.4668557841
 20
660.924556202
 30
0.0
  0
SEQEND
  5
57F
  8
0
  6
CONTINUOUS
 62
     7
  0
ARC
  5
262
  8
0
  6
CONTINUOUS
 62
     7
 10
554.4668562162
 20
674.924592186
 30
0.0
 40
14.00003499539358
 50
232.852238674
 51
307.147761326
  0
POLYLINE
  5
263
  8
0
  6
CONTINUOUS
 62
     7
 66
     1
 10
0.0
 20
0.0
 30
0.0
  0
VERTEX
  5
4C6
  8
0
  6
CONTINUOUS
 62
     7
 10
568.4668566483
 20
660.924556202
 30
0.0
  0
VERTEX
  5
4C7
  8
0
  6
CONTINUOUS
 62
     7
 10
568.3493200141
 20
661.0420816604
 30
0.0
  0
VERTEX
  5
4C8
  8
0
  6
CONTINUOUS
 62
     7
 10
567.9986845154
 20
661.3927208844
 30
0.0
  0
VERTEX
  5
4C9
  8
0
  6
CONTINUOUS
 62
     7
 10
567.4208379734
 20
661.9705730143
 30
0.0
  0
VERTEX
  5
4CA
  8
0
  6
CONTINUOUS
 62
     7
 10
566.6254819754
 20
662.7659224931
 30
0.0
  0
VERTEX
  5
4CB
  8
0
  6
CONTINUOUS
 62
     7
 10
565.6259716872
 20
663.7654327813
 30
0.0
  0
SEQEND
  5
57E
  8
0
  6
CONTINUOUS
 62
     7
  0
LINE
  5
264
  8
0
  6
CONTINUOUS
 62
     7
 10
604.8244252253
 20
640.2654373113
 30
0.0
 11
613.4668565738
 21
640.2654373113
 31
0.0
  0
LINE
  5
265
  8
0
  6
CONTINUOUS
 62
     7
 10
611.9668572593
 20
641.7654329005
 30
0.0
 11
586.9668550241
 21
641.7654329005
 31
0.0
  0
LINE
  5
266
  8
0
  6
CONTINUOUS
 62
     7
 10
618.1779033888
 20
491.2765123907
 30
0.0
 11
618.7689877498
 21
491.2765123907
 31
0.0
  0
LINE
  5
267
  8
0
  6
CONTINUOUS
 62
     7
 10
618.9249805558
 20
491.2765123907
 30
0.0
 11
618.9542985904
 21
491.2765123907
 31
0.0
  0
LINE
  5
268
  8
0
  6
CONTINUOUS
 62
     7
 10
585.774844085
 20
660.7654267016
 30
0.0
 11
586.7251060355
 21
641.5236764613
 31
0.0
  0
LINE
  5
269
  8
0
  6
CONTINUOUS
 62
     7
 10
580.1179889041
 20
660.7654267016
 30
0.0
 11
585.774844085
 21
660.7654267016
 31
0.0
  0
LINE
  5
26A
  8
0
  6
CONTINUOUS
 62
     8
 10
495.1870232272
 20
561.7654346887
 30
0.0
 11
495.1124205637
 21
549.7654327217
 31
0.0
  0
LINE
  5
26B
  8
0
  6
CONTINUOUS
 62
     8
 10
613.7466892052
 20
561.7654346887
 30
0.0
 11
613.8212918687
 21
549.7654327217
 31
0.0
  0
LINE
  5
26C
  8
0
  6
CONTINUOUS
 62
     8
 10
613.7176319409
 20
539.7654348079
 30
0.0
 11
613.8212918687
 21
549.7654327217
 31
0.0
  0
LINE
  5
26D
  8
0
  6
CONTINUOUS
 62
     8
 10
495.2160804916
 20
539.7654348079
 30
0.0
 11
495.1124205637
 21
549.7654327217
 31
0.0
  0
LINE
  5
26E
  8
0
  6
CONTINUOUS
 62
     8
 10
495.7286543596
 20
538.2668771807
 30
0.0
 11
495.1124205637
 21
539.7654348079
 31
0.0
  0
LINE
  5
26F
  8
0
  6
CONTINUOUS
 62
     8
 10
613.2050580728
 20
538.2668771807
 30
0.0
 11
613.8212918687
 21
539.7654348079
 31
0.0
  0
LINE
  5
270
  8
0
  6
CONTINUOUS
 62
     8
 10
571.9988658476
 20
636.5938955012
 30
0.0
 11
536.9348465848
 21
636.5938955012
 31
0.0
  0
LINE
  5
271
  8
0
  6
CONTINUOUS
 62
     8
 10
537.5628131825
 20
632.4067437116
 30
0.0
 11
537.5628131825
 21
621.7876249019
 31
0.0
  0
LINE
  5
272
  8
0
  6
CONTINUOUS
 62
     8
 10
543.3344892609
 20
631.2248879138
 30
0.0
 11
543.3344892609
 21
621.9931119147
 31
0.0
  0
LINE
  5
273
  8
0
  6
CONTINUOUS
 62
     8
 10
565.5992231715
 20
631.2248879138
 30
0.0
 11
565.5992231715
 21
621.9931119147
 31
0.0
  0
LINE
  5
274
  8
0
  6
CONTINUOUS
 62
     8
 10
571.3708992499
 20
632.4067437116
 30
0.0
 11
571.3708992499
 21
621.7876249019
 31
0.0
  0
LINE
  5
275
  8
0
  6
CONTINUOUS
 62
     8
 10
536.2717560876
 20
637.9303061429
 30
0.0
 11
536.2717560876
 21
624.8131268683
 31
0.0
  0
LINE
  5
276
  8
0
  6
CONTINUOUS
 62
     8
 10
572.6619563449
 20
637.9303061429
 30
0.0
 11
572.6619563449
 21
624.8131268683
 31
0.0
  0
LINE
  5
277
  8
0
  6
CONTINUOUS
 62
     8
 10
495.1870232272
 20
579.7654264632
 30
0.0
 11
495.1870232272
 21
561.7654346887
 31
0.0
  0
LINE
  5
278
  8
0
  6
CONTINUOUS
 62
     8
 10
613.7466892052
 20
579.7654264632
 30
0.0
 11
613.7466892052
 21
561.7654346887
 31
0.0
  0
LINE
  5
279
  8
0
  6
CONTINUOUS
 62
     8
 10
486.0856361139
 20
561.7654346887
 30
0.0
 11
485.7855937827
 21
549.7654327217
 31
0.0
  0
LINE
  5
27A
  8
0
  6
CONTINUOUS
 62
     8
 10
486.20249102
 20
539.7654348079
 30
0.0
 11
485.7855937827
 21
549.7654327217
 31
0.0
  0
LINE
  5
27B
  8
0
  6
CONTINUOUS
 62
     8
 10
488.6289812076
 20
538.0462058845
 30
0.0
 11
485.7855937827
 21
539.7654348079
 31
0.0
  0
LINE
  5
27C
  8
0
  6
CONTINUOUS
 62
     8
 10
622.7312214124
 20
539.7654348079
 30
0.0
 11
623.1481186497
 21
549.7654327217
 31
0.0
  0
LINE
  5
27D
  8
0
  6
CONTINUOUS
 62
     8
 10
622.8480763185
 20
561.7654346887
 30
0.0
 11
623.1481186497
 21
549.7654327217
 31
0.0
  0
LINE
  5
27E
  8
0
  6
CONTINUOUS
 62
     8
 10
620.3047312248
 20
538.0462058845
 30
0.0
 11
623.1481186497
 21
539.7654348079
 31
0.0
  0
LINE
  5
27F
  8
0
  6
CONTINUOUS
 62
     8
 10
486.0856361139
 20
579.7654264632
 30
0.0
 11
486.0856361139
 21
561.7654346887
 31
0.0
  0
LINE
  5
280
  8
0
  6
CONTINUOUS
 62
     8
 10
622.8480763185
 20
579.7654264632
 30
0.0
 11
622.8480763185
 21
561.7654346887
 31
0.0
  0
LINE
  5
281
  8
0
  6
CONTINUOUS
 62
     8
 10
611.466856246
 20
519.7654315296
 30
0.0
 11
611.466856246
 21
538.1271415416
 31
0.0
  0
LINE
  5
282
  8
0
  6
CONTINUOUS
 62
     8
 10
497.4668561864
 20
519.7654315296
 30
0.0
 11
497.4668561864
 21
538.1271415416
 31
0.0
  0
LINE
  5
283
  8
0
  6
CONTINUOUS
 62
     8
 10
602.4667076218
 20
481.466399974
 30
0.0
 11
602.4667076218
 21
481.664022899
 31
0.0
  0
LINE
  5
284
  8
0
  6
CONTINUOUS
 62
     8
 10
602.4667076218
 20
495.8643489543
 30
0.0
 11
602.4667076218
 21
515.2156078282
 31
0.0
  0
LINE
  5
285
  8
0
  6
CONTINUOUS
 62
     8
 10
506.4670048106
 20
481.466399974
 30
0.0
 11
506.4670048106
 21
481.664022899
 31
0.0
  0
LINE
  5
286
  8
0
  6
CONTINUOUS
 62
     8
 10
506.4670048106
 20
495.8643489543
 30
0.0
 11
506.4670048106
 21
515.3020047608
 31
0.0
  0
LINE
  5
287
  8
0
  6
CONTINUOUS
 62
     8
 10
494.0511822152
 20
484.9454709354
 30
0.0
 11
494.0511822152
 21
516.5413194362
 31
0.0
  0
LINE
  5
288
  8
0
  6
CONTINUOUS
 62
     8
 10
614.8825302172
 20
484.9454709354
 30
0.0
 11
614.8825302172
 21
516.5413194362
 31
0.0
  0
LINE
  5
289
  8
0
  6
CONTINUOUS
 62
     8
 10
530.2093136508
 20
640.1651226941
 30
0.0
 11
530.2093136508
 21
621.9590329591
 31
0.0
  0
LINE
  5
28A
  8
0
  6
CONTINUOUS
 62
     8
 10
578.7243987817
 20
640.1651226941
 30
0.0
 11
578.7243987817
 21
621.9590329591
 31
0.0
  0
LINE
  5
28B
  8
0
  6
CONTINUOUS
 62
     8
 10
528.9942506153
 20
640.2654373113
 30
0.0
 11
528.9942506153
 21
622.2072714034
 31
0.0
  0
LINE
  5
28C
  8
0
  6
CONTINUOUS
 62
     8
 10
579.9394618172
 20
640.2654373113
 30
0.0
 11
579.9394618172
 21
622.2072714034
 31
0.0
  0
LINE
  5
28D
  8
0
  6
CONTINUOUS
 62
     8
 10
526.2334081727
 20
640.2654373113
 30
0.0
 11
526.2334081727
 21
621.7654370728
 31
0.0
  0
LINE
  5
28E
  8
0
  6
CONTINUOUS
 62
     8
 10
582.7003042597
 20
640.2654373113
 30
0.0
 11
582.7003042597
 21
621.7654370728
 31
0.0
  0
LINE
  5
28F
  8
0
  6
CONTINUOUS
 62
     8
 10
504.1092872071
 20
640.2654373113
 30
0.0
 11
504.1092872071
 21
621.7654370728
 31
0.0
  0
LINE
  5
290
  8
0
  6
CONTINUOUS
 62
     8
 10
604.8244252253
 20
640.2654373113
 30
0.0
 11
604.8244252253
 21
621.7654370728
 31
0.0
  0
INSERT
  5
29C
  8
FORMAT
  2
SW_CENTERMARKSYMBOL_0
 10
554.4668562162
 20
428.7654333774
 30
0.0
  0
LINE
  5
29D
  8
0
  6
CONTINUOUS
 62
     7
 10
-24.2007107131
 20
83.007000035
 30
0.0
 11
-38.7007102958
 21
83.007000035
 31
0.0
  0
LINE
  5
29E
  8
0
  6
CONTINUOUS
 62
     7
 10
-38.7007102958
 20
-81.9930065215
 30
0.0
 11
-24.2007107131
 21
-81.9930065215
 31
0.0
  0
LINE
  5
29F
  8
0
  6
CONTINUOUS
 62
     7
 10
115.799289883
 20
-81.9930065215
 30
0.0
 11
130.2992894657
 21
-81.9930065215
 31
0.0
  0
LINE
  5
2A0
  8
0
  6
CONTINUOUS
 62
     7
 10
130.2992894657
 20
83.007000035
 30
0.0
 11
115.799289883
 21
83.007000035
 31
0.0
  0
LINE
  5
2A1
  8
0
  6
CONTINUOUS
 62
     7
 10
-9.0253085486
 20
36.9836013972
 30
0.0
 11
-24.2007107131
 21
42.5069961905
 31
0.0
  0
LINE
  5
2A2
  8
0
  6
CONTINUOUS
 62
     7
 10
115.799289883
 20
42.5069961905
 30
0.0
 11
100.6238877185
 21
36.9836013972
 31
0.0
  0
LINE
  5
2A3
  8
0
  6
CONTINUOUS
 62
     7
 10
21.2992902257
 20
25.006996116
 30
0.0
 11
21.2992902257
 21
-23.9930026025
 31
0.0
  0
LINE
  5
2A4
  8
0
  6
CONTINUOUS
 62
     7
 10
70.2992889442
 20
25.006996116
 30
0.0
 11
21.2992902257
 21
25.006996116
 31
0.0
  0
LINE
  5
2A5
  8
0
  6
CONTINUOUS
 62
     7
 10
70.2992889442
 20
-23.9930026025
 30
0.0
 11
70.2992889442
 21
25.006996116
 31
0.0
  0
LINE
  5
2A6
  8
0
  6
CONTINUOUS
 62
     7
 10
21.2992902257
 20
-23.9930026025
 30
0.0
 11
70.2992889442
 21
-23.9930026025
 31
0.0
  0
LINE
  5
2A7
  8
0
  6
CONTINUOUS
 62
     7
 10
20.4456027009
 20
-24.8466901273
 30
0.0
 11
21.2992902257
 21
-23.9930026025
 31
0.0
  0
POLYLINE
  5
2A8
  8
0
  6
CONTINUOUS
 62
     7
 66
     1
 10
0.0
 20
0.0
 30
0.0
  0
VERTEX
  5
4CC
  8
0
  6
CONTINUOUS
 62
     7
 10
20.4456027009
 20
25.8606836408
 30
0.0
  0
VERTEX
  5
4CD
  8
0
  6
CONTINUOUS
 62
     7
 10
20.4764965334
 20
18.3881871611
 30
0.0
  0
VERTEX
  5
4CE
  8
0
  6
CONTINUOUS
 62
     7
 10
20.4998019495
 20
10.8297100499
 30
0.0
  0
VERTEX
  5
4CF
  8
0
  6
CONTINUOUS
 62
     7
 10
20.5117657193
 20
2.9947551641
 30
0.0
  0
VERTEX
  5
4D0
  8
0
  6
CONTINUOUS
 62
     7
 10
20.5091393896
 20
-4.865910744
 30
0.0
  0
VERTEX
  5
4D1
  8
0
  6
CONTINUOUS
 62
     7
 10
20.4995989211
 20
-9.8967192486
 30
0.0
  0
VERTEX
  5
4D2
  8
0
  6
CONTINUOUS
 62
     7
 10
20.4851596959
 20
-14.8902734533
 30
0.0
  0
VERTEX
  5
4D3
  8
0
  6
CONTINUOUS
 62
     7
 10
20.4456027009
 20
-24.8466901273
 30
0.0
  0
SEQEND
  5
57D
  8
0
  6
CONTINUOUS
 62
     7
  0
LINE
  5
2A9
  8
0
  6
CONTINUOUS
 62
     7
 10
20.4456027009
 20
25.8606836408
 30
0.0
 11
21.2992902257
 21
25.006996116
 31
0.0
  0
LINE
  5
2AA
  8
0
  6
CONTINUOUS
 62
     7
 10
71.152976469
 20
25.8606836408
 30
0.0
 11
70.2992889442
 21
25.006996116
 31
0.0
  0
POLYLINE
  5
2AB
  8
0
  6
CONTINUOUS
 62
     7
 66
     1
 10
0.0
 20
0.0
 30
0.0
  0
VERTEX
  5
4D4
  8
0
  6
CONTINUOUS
 62
     7
 10
45.799289585
 20
25.7935371458
 30
0.0
  0
VERTEX
  5
4D5
  8
0
  6
CONTINUOUS
 62
     7
 10
40.4263820842
 20
25.7971469521
 30
0.0
  0
VERTEX
  5
4D6
  8
0
  6
CONTINUOUS
 62
     7
 10
35.3955735796
 20
25.8066874206
 30
0.0
  0
VERTEX
  5
4D7
  8
0
  6
CONTINUOUS
 62
     7
 10
30.4020193749
 20
25.8211266458
 30
0.0
  0
VERTEX
  5
4D8
  8
0
  6
CONTINUOUS
 62
     7
 10
20.4456027009
 20
25.8606836408
 30
0.0
  0
SEQEND
  5
57C
  8
0
  6
CONTINUOUS
 62
     7
  0
POLYLINE
  5
2AC
  8
0
  6
CONTINUOUS
 62
     7
 66
     1
 10
0.0
 20
0.0
 30
0.0
  0
VERTEX
  5
4D9
  8
0
  6
CONTINUOUS
 62
     7
 10
71.152976469
 20
25.8606836408
 30
0.0
  0
VERTEX
  5
4DA
  8
0
  6
CONTINUOUS
 62
     7
 10
64.9461529561
 20
25.8345805317
 30
0.0
  0
VERTEX
  5
4DB
  8
0
  6
CONTINUOUS
 62
     7
 10
58.6808414542
 20
25.8132942229
 30
0.0
  0
VERTEX
  5
4DC
  8
0
  6
CONTINUOUS
 62
     7
 10
52.2619054996
 20
25.7987935304
 30
0.0
  0
VERTEX
  5
4DD
  8
0
  6
CONTINUOUS
 62
     7
 10
45.799289585
 20
25.7935371458
 30
0.0
  0
SEQEND
  5
57B
  8
0
  6
CONTINUOUS
 62
     7
  0
POLYLINE
  5
2AD
  8
0
  6
CONTINUOUS
 62
     7
 66
     1
 10
0.0
 20
0.0
 30
0.0
  0
VERTEX
  5
4DE
  8
0
  6
CONTINUOUS
 62
     7
 10
71.152976469
 20
-24.8466901273
 30
0.0
  0
VERTEX
  5
4DF
  8
0
  6
CONTINUOUS
 62
     7
 10
71.1220826366
 20
-17.3741936475
 30
0.0
  0
VERTEX
  5
4E0
  8
0
  6
CONTINUOUS
 62
     7
 10
71.0987772204
 20
-9.8157165364
 30
0.0
  0
VERTEX
  5
4E1
  8
0
  6
CONTINUOUS
 62
     7
 10
71.0868134507
 20
-1.9807616506
 30
0.0
  0
VERTEX
  5
4E2
  8
0
  6
CONTINUOUS
 62
     7
 10
71.0894397803
 20
5.8799042575
 30
0.0
  0
VERTEX
  5
4E3
  8
0
  6
CONTINUOUS
 62
     7
 10
71.0989802488
 20
10.9107127621
 30
0.0
  0
VERTEX
  5
4E4
  8
0
  6
CONTINUOUS
 62
     7
 10
71.113419474
 20
15.9042669668
 30
0.0
  0
VERTEX
  5
4E5
  8
0
  6
CONTINUOUS
 62
     7
 10
71.152976469
 20
25.8606836408
 30
0.0
  0
SEQEND
  5
57A
  8
0
  6
CONTINUOUS
 62
     7
  0
LINE
  5
2AE
  8
0
  6
CONTINUOUS
 62
     7
 10
71.152976469
 20
-24.8466901273
 30
0.0
 11
70.2992889442
 21
-23.9930026025
 31
0.0
  0
POLYLINE
  5
2AF
  8
0
  6
CONTINUOUS
 62
     7
 66
     1
 10
0.0
 20
0.0
 30
0.0
  0
VERTEX
  5
4E6
  8
0
  6
CONTINUOUS
 62
     7
 10
45.799289585
 20
-24.7795436323
 30
0.0
  0
VERTEX
  5
4E7
  8
0
  6
CONTINUOUS
 62
     7
 10
51.1721970857
 20
-24.7831534386
 30
0.0
  0
VERTEX
  5
4E8
  8
0
  6
CONTINUOUS
 62
     7
 10
56.2030055903
 20
-24.7926939071
 30
0.0
  0
VERTEX
  5
4E9
  8
0
  6
CONTINUOUS
 62
     7
 10
61.196559795
 20
-24.8071331323
 30
0.0
  0
VERTEX
  5
4EA
  8
0
  6
CONTINUOUS
 62
     7
 10
71.152976469
 20
-24.8466901273
 30
0.0
  0
SEQEND
  5
579
  8
0
  6
CONTINUOUS
 62
     7
  0
POLYLINE
  5
2B0
  8
0
  6
CONTINUOUS
 62
     7
 66
     1
 10
0.0
 20
0.0
 30
0.0
  0
VERTEX
  5
4EB
  8
0
  6
CONTINUOUS
 62
     7
 10
20.4456027009
 20
-24.8466901273
 30
0.0
  0
VERTEX
  5
4EC
  8
0
  6
CONTINUOUS
 62
     7
 10
26.6524262138
 20
-24.8205870182
 30
0.0
  0
VERTEX
  5
4ED
  8
0
  6
CONTINUOUS
 62
     7
 10
32.9177377157
 20
-24.7993007094
 30
0.0
  0
VERTEX
  5
4EE
  8
0
  6
CONTINUOUS
 62
     7
 10
39.3366736703
 20
-24.7848000169
 30
0.0
  0
VERTEX
  5
4EF
  8
0
  6
CONTINUOUS
 62
     7
 10
45.799289585
 20
-24.7795436323
 30
0.0
  0
SEQEND
  5
578
  8
0
  6
CONTINUOUS
 62
     7
  0
ARC
  5
2B1
  8
0
  6
CONTINUOUS
 62
     7
 10
45.799289585
 20
0.5069967568
 30
0.0
 40
45.99999999999999
 50
307.2303705097
 51
52.7696294903
  0
ARC
  5
2B2
  8
0
  6
CONTINUOUS
 62
     7
 10
45.7582856645
 20
-64.7042981765
 30
0.0
 40
39.92477560034347
 50
45.7242429122
 51
89.9411555365
  0
ARC
  5
2B3
  8
0
  6
CONTINUOUS
 62
     7
 10
45.7637617131
 20
65.7048511209
 30
0.0
 40
39.91132978805326
 50
270.0510029957
 51
314.2835985556
  0
ARC
  5
2B4
  8
0
  6
CONTINUOUS
 62
     7
 10
45.8348174568
 20
-64.6908576074
 30
0.0
 40
39.91132978805327
 50
90.0510029957
 51
134.2835985556
  0
ARC
  5
2B5
  8
0
  6
CONTINUOUS
 62
     7
 10
45.799289585
 20
0.5069967568
 30
0.0
 40
46.00000000000001
 50
127.2303705097
 51
232.7696294903
  0
ARC
  5
2B6
  8
0
  6
CONTINUOUS
 62
     7
 10
45.8402935054
 20
65.71829169
 30
0.0
 40
39.92477560034345
 50
225.7242429122
 51
269.9411555365
  0
ARC
  5
2B7
  8
0
  6
CONTINUOUS
 62
     7
 10
45.799289585
 20
66.0844803927
 30
0.0
 40
40.1
 50
226.1441924265
 51
313.8558075735
  0
LINE
  5
2B8
  8
0
  6
CONTINUOUS
 62
     7
 10
73.6302665778
 20
37.1326241851
 30
0.0
 11
73.5824077733
 21
37.1689420402
 31
0.0
  0
LINE
  5
2B9
  8
0
  6
CONTINUOUS
 62
     7
 10
18.0161713966
 20
37.1689420402
 30
0.0
 11
17.9683125921
 21
37.1326241851
 31
0.0
  0
LINE
  5
2BA
  8
0
  6
CONTINUOUS
 62
     7
 10
73.5824077733
 20
-36.1549485267
 30
0.0
 11
73.6302665778
 21
-36.1186306715
 31
0.0
  0
ARC
  5
2BB
  8
0
  6
CONTINUOUS
 62
     7
 10
45.799289585
 20
-65.0704868792
 30
0.0
 40
40.09999999999999
 50
46.1441924265
 51
133.8558075735
  0
LINE
  5
2BC
  8
0
  6
CONTINUOUS
 62
     7
 10
17.9683125921
 20
-36.1186306715
 30
0.0
 11
18.0161713966
 21
-36.1549485267
 31
0.0
  0
LINE
  5
2BD
  8
0
  6
CONTINUOUS
 62
     7
 10
33.4017749288
 20
27.9490422666
 30
0.0
 11
29.5358344324
 21
31.8149846255
 31
0.0
  0
LINE
  5
2BE
  8
0
  6
CONTINUOUS
 62
     7
 10
29.5358344324
 20
31.8149846255
 30
0.0
 11
29.5358344324
 21
32.8273844182
 31
0.0
  0
LINE
  5
2BF
  8
0
  6
CONTINUOUS
 62
     7
 10
34.8568919458
 20
27.5063269049
 30
0.0
 11
29.5358344324
 21
32.8273844182
 31
0.0
  0
LINE
  5
2C0
  8
0
  6
CONTINUOUS
 62
     7
 10
29.5358344324
 20
31.8149846255
 30
0.0
 11
27.9145694681
 21
30.1937196612
 31
0.0
  0
LINE
  5
2C1
  8
0
  6
CONTINUOUS
 62
     7
 10
29.5358344324
 20
32.8273844182
 30
0.0
 11
27.244140149
 21
30.5356919974
 31
0.0
  0
POLYLINE
  5
2C2
  8
0
  6
CONTINUOUS
 62
     7
 66
     1
 10
0.0
 20
0.0
 30
0.0
  0
VERTEX
  5
4F0
  8
0
  6
CONTINUOUS
 62
     7
 10
48.0389555328
 20
26.0470748156
 30
0.0
  0
VERTEX
  5
4F1
  8
0
  6
CONTINUOUS
 62
     7
 10
45.5195020354
 20
26.1435598343
 30
0.0
  0
VERTEX
  5
4F2
  8
0
  6
CONTINUOUS
 62
     7
 10
43.5596236371
 20
26.0470748156
 30
0.0
  0
SEQEND
  5
577
  8
0
  6
CONTINUOUS
 62
     7
  0
LINE
  5
2C3
  8
0
  6
CONTINUOUS
 62
     7
 10
62.0627447375
 20
-30.800991112
 30
0.0
 11
63.6840097018
 21
-29.1797261477
 31
0.0
  0
LINE
  5
2C4
  8
0
  6
CONTINUOUS
 62
     7
 10
58.1968042411
 20
-26.9350487531
 30
0.0
 11
62.0627447375
 21
-30.800991112
 31
0.0
  0
POLYLINE
  5
2C5
  8
0
  6
CONTINUOUS
 62
     7
 66
     1
 10
0.0
 20
0.0
 30
0.0
  0
VERTEX
  5
4F3
  8
0
  6
CONTINUOUS
 62
     7
 10
43.5596236371
 20
-25.0330813021
 30
0.0
  0
VERTEX
  5
4F4
  8
0
  6
CONTINUOUS
 62
     7
 10
46.0790771345
 20
-25.1295663208
 30
0.0
  0
VERTEX
  5
4F5
  8
0
  6
CONTINUOUS
 62
     7
 10
48.0389555328
 20
-25.0330813021
 30
0.0
  0
SEQEND
  5
576
  8
0
  6
CONTINUOUS
 62
     7
  0
ARC
  5
2C6
  8
0
  6
CONTINUOUS
 62
     7
 10
45.799289585
 20
0.5069967568
 30
0.0
 40
26.35396576440267
 50
78.4886711287
 51
101.5113288713
  0
LINE
  5
2C7
  8
0
  6
CONTINUOUS
 62
     7
 10
62.0627447375
 20
-30.800991112
 30
0.0
 11
62.0627447375
 21
-31.8133909047
 31
0.0
  0
LINE
  5
2C8
  8
0
  6
CONTINUOUS
 62
     7
 10
56.7416872241
 20
-26.4923333913
 30
0.0
 11
62.0627447375
 21
-31.8133909047
 31
0.0
  0
LINE
  5
2C9
  8
0
  6
CONTINUOUS
 62
     7
 10
62.0627447375
 20
-31.8133909047
 30
0.0
 11
64.3544390209
 21
-29.5216984839
 31
0.0
  0
ARC
  5
2CA
  8
0
  6
CONTINUOUS
 62
     7
 10
45.799289585
 20
0.5069967568
 30
0.0
 40
26.35396576440267
 50
258.4886711287
 51
281.5113288713
  0
ARC
  5
2CB
  8
0
  6
CONTINUOUS
 62
     7
 10
45.799289585
 20
45.5069967568
 30
0.0
 40
14.00000000000001
 50
157.5
 51
22.5
  0
ARC
  5
2CC
  8
0
  6
CONTINUOUS
 62
     7
 10
45.799289585
 20
45.5069967568
 30
0.0
 40
14.00000000000001
 50
22.5
 51
157.5
  0
CIRCLE
  5
2CD
  8
0
  6
CONTINUOUS
 62
     7
 10
45.799289585
 20
45.5069967568
 30
0.0
 40
12.49999999999999
  0
CIRCLE
  5
2CE
  8
0
  6
CONTINUOUS
 62
     7
 10
45.799289585
 20
-44.4930032432
 30
0.0
 40
12.49999999999999
  0
ARC
  5
2CF
  8
0
  6
CONTINUOUS
 62
     7
 10
45.799289585
 20
-44.4930032432
 30
0.0
 40
14.00000000000001
 50
337.5
 51
202.5
  0
ARC
  5
2D0
  8
0
  6
CONTINUOUS
 62
     7
 10
45.799289585
 20
-44.4930032432
 30
0.0
 40
14.00000000000001
 50
202.5
 51
337.5
  0
LINE
  5
2D1
  8
0
  6
CONTINUOUS
 62
     7
 10
66.6238821455
 20
31.8157445848
 30
0.0
 11
58.7336027407
 21
50.8645657658
 31
0.0
  0
LINE
  5
2D2
  8
0
  6
CONTINUOUS
 62
     7
 10
32.8649764292
 20
50.8645657658
 30
0.0
 11
24.9746970244
 21
31.8157445848
 31
0.0
  0
LINE
  5
2D3
  8
0
  6
CONTINUOUS
 62
     7
 10
88.2156386383
 20
18.3073707133
 30
0.0
 11
91.2830687471
 21
18.0390063882
 31
0.0
  0
LINE
  5
2D4
  8
0
  6
CONTINUOUS
 62
     7
 10
91.2830687471
 20
-17.0250128746
 30
0.0
 11
88.2156386383
 21
-17.2933771998
 31
0.0
  0
LINE
  5
2D5
  8
0
  6
CONTINUOUS
 62
     7
 10
0.3155104228
 20
-17.0250128746
 30
0.0
 11
3.3829405316
 21
-17.2933771998
 31
0.0
  0
LINE
  5
2D6
  8
0
  6
CONTINUOUS
 62
     7
 10
3.3829405316
 20
18.3073707133
 30
0.0
 11
0.3155104228
 21
18.0390063882
 31
0.0
  0
LINE
  5
2D7
  8
0
  6
CONTINUOUS
 62
     7
 10
58.7336027407
 20
-49.8505722523
 30
0.0
 11
66.6238821455
 21
-30.8017510712
 31
0.0
  0
LINE
  5
2D8
  8
0
  6
CONTINUOUS
 62
     7
 10
24.9746970244
 20
-30.8017510712
 30
0.0
 11
32.8649764292
 21
-49.8505722523
 31
0.0
  0
ARC
  5
2D9
  8
0
  6
CONTINUOUS
 62
     7
 10
98.1994135343
 20
14.4225702661
 30
0.0
 40
2.999875075332938
 50
359.9978070984
 51
85.0021654384
  0
ARC
  5
2DA
  8
0
  6
CONTINUOUS
 62
     7
 10
98.1994553082
 20
14.422341925
 30
0.0
 40
2.999833301344351
 50
291.9192397043
 51
0.0021683044
  0
ARC
  5
2DB
  8
0
  6
CONTINUOUS
 62
     7
 10
103.8020058204
 20
0.5069967568
 30
0.0
 40
12.00101352743685
 50
111.9333643781
 51
248.0666356219
  0
ARC
  5
2DC
  8
0
  6
CONTINUOUS
 62
     7
 10
98.1994542452
 20
-13.4083491296
 30
0.0
 40
2.999834364385841
 50
359.997845412
 51
68.0807465793
  0
ARC
  5
2DD
  8
0
  6
CONTINUOUS
 62
     7
 10
98.1994125956
 20
-13.4085758925
 30
0.0
 40
2.999876013977008
 50
274.9978509904
 51
0.0021764728
  0
POLYLINE
  5
2DE
  8
0
  6
CONTINUOUS
 62
     7
 66
     1
 10
0.0
 20
0.0
 30
0.0
  0
VERTEX
  5
4F6
  8
0
  6
CONTINUOUS
 62
     7
 10
98.4607569285
 20
-16.397046277
 30
0.0
  0
VERTEX
  5
4F7
  8
0
  6
CONTINUOUS
 62
     7
 10
96.9745113858
 20
-16.5270756722
 30
0.0
  0
VERTEX
  5
4F8
  8
0
  6
CONTINUOUS
 62
     7
 10
95.2459170826
 20
-16.6783075571
 30
0.0
  0
VERTEX
  5
4F9
  8
0
  6
CONTINUOUS
 62
     7
 10
93.3288491674
 20
-16.8460294396
 30
0.0
  0
VERTEX
  5
4FA
  8
0
  6
CONTINUOUS
 62
     7
 10
91.2830687471
 20
-17.0250128746
 30
0.0
  0
SEQEND
  5
575
  8
0
  6
CONTINUOUS
 62
     7
  0
POLYLINE
  5
2DF
  8
0
  6
CONTINUOUS
 62
     7
 66
     1
 10
0.0
 20
0.0
 30
0.0
  0
VERTEX
  5
4FB
  8
0
  6
CONTINUOUS
 62
     7
 10
91.2830687471
 20
18.0390063882
 30
0.0
  0
VERTEX
  5
4FC
  8
0
  6
CONTINUOUS
 62
     7
 10
93.3288491674
 20
17.8600229531
 30
0.0
  0
VERTEX
  5
4FD
  8
0
  6
CONTINUOUS
 62
     7
 10
95.2459170826
 20
17.6923010707
 30
0.0
  0
VERTEX
  5
4FE
  8
0
  6
CONTINUOUS
 62
     7
 10
96.9745113858
 20
17.5410691857
 30
0.0
  0
VERTEX
  5
4FF
  8
0
  6
CONTINUOUS
 62
     7
 10
98.4607569285
 20
17.4110397905
 30
0.0
  0
SEQEND
  5
574
  8
0
  6
CONTINUOUS
 62
     7
  0
ARC
  5
2E0
  8
0
  6
CONTINUOUS
 62
     7
 10
-6.6008334257
 20
-13.4085758925
 30
0.0
 40
2.999876013977009
 50
179.9978235272
 51
265.0021490096
  0
ARC
  5
2E1
  8
0
  6
CONTINUOUS
 62
     7
 10
-6.6008750753
 20
-13.4083491296
 30
0.0
 40
2.99983436438585
 50
111.9192534207
 51
180.002154588
  0
ARC
  5
2E2
  8
0
  6
CONTINUOUS
 62
     7
 10
-12.2034266505
 20
0.5069967568
 30
0.0
 40
12.00101352743684
 50
291.9333643781
 51
68.0666356219
  0
ARC
  5
2E3
  8
0
  6
CONTINUOUS
 62
     7
 10
-6.6008761383
 20
14.422341925
 30
0.0
 40
2.999833301344351
 50
179.9978316956
 51
248.0807602957
  0
ARC
  5
2E4
  8
0
  6
CONTINUOUS
 62
     7
 10
-6.6008343644
 20
14.4225702661
 30
0.0
 40
2.999875075332933
 50
94.9978345616
 51
180.0021929016
  0
POLYLINE
  5
2E5
  8
0
  6
CONTINUOUS
 62
     7
 66
     1
 10
0.0
 20
0.0
 30
0.0
  0
VERTEX
  5
500
  8
0
  6
CONTINUOUS
 62
     7
 10
-6.8621777586
 20
-16.397046277
 30
0.0
  0
VERTEX
  5
501
  8
0
  6
CONTINUOUS
 62
     7
 10
-5.3759322159
 20
-16.5270756722
 30
0.0
  0
VERTEX
  5
502
  8
0
  6
CONTINUOUS
 62
     7
 10
-3.6473379127
 20
-16.6783075571
 30
0.0
  0
VERTEX
  5
503
  8
0
  6
CONTINUOUS
 62
     7
 10
-1.7302699975
 20
-16.8460294396
 30
0.0
  0
VERTEX
  5
504
  8
0
  6
CONTINUOUS
 62
     7
 10
0.3155104228
 20
-17.0250128746
 30
0.0
  0
SEQEND
  5
573
  8
0
  6
CONTINUOUS
 62
     7
  0
POLYLINE
  5
2E6
  8
0
  6
CONTINUOUS
 62
     7
 66
     1
 10
0.0
 20
0.0
 30
0.0
  0
VERTEX
  5
505
  8
0
  6
CONTINUOUS
 62
     7
 10
0.3155104228
 20
18.0390063882
 30
0.0
  0
VERTEX
  5
506
  8
0
  6
CONTINUOUS
 62
     7
 10
-1.7302699975
 20
17.8600229531
 30
0.0
  0
VERTEX
  5
507
  8
0
  6
CONTINUOUS
 62
     7
 10
-3.6473379127
 20
17.6923010707
 30
0.0
  0
VERTEX
  5
508
  8
0
  6
CONTINUOUS
 62
     7
 10
-5.3759322159
 20
17.5410691857
 30
0.0
  0
VERTEX
  5
509
  8
0
  6
CONTINUOUS
 62
     7
 10
-6.8621777586
 20
17.4110397905
 30
0.0
  0
SEQEND
  5
572
  8
0
  6
CONTINUOUS
 62
     7
  0
POLYLINE
  5
2E7
  8
0
  6
CONTINUOUS
 62
     7
 66
     1
 10
0.0
 20
0.0
 30
0.0
  0
VERTEX
  5
50A
  8
0
  6
CONTINUOUS
 62
     7
 10
18.8630341895
 20
-51.6488257587
 30
0.0
  0
VERTEX
  5
50B
  8
0
  6
CONTINUOUS
 62
     7
 10
16.3194972434
 20
-48.8545227588
 30
0.0
  0
VERTEX
  5
50C
  8
0
  6
CONTINUOUS
 62
     7
 10
14.0887691983
 20
-45.7290116489
 30
0.0
  0
SEQEND
  5
571
  8
0
  6
CONTINUOUS
 62
     7
  0
ARC
  5
2E8
  8
0
  6
CONTINUOUS
 62
     7
 10
149.3247108433
 20
-1.1230697032
 30
0.0
 40
149.6808751498804
 50
186.0690151576
 51
196.459471289
  0
ARC
  5
2E9
  8
0
  6
CONTINUOUS
 62
     7
 10
134.4090760698
 20
5.8404409531
 30
0.0
 40
134.5849748110543
 50
163.2753206767
 51
174.8116714359
  0
POLYLINE
  5
2EA
  8
0
  6
CONTINUOUS
 62
     7
 66
     1
 10
0.0
 20
0.0
 30
0.0
  0
VERTEX
  5
50D
  8
0
  6
CONTINUOUS
 62
     7
 10
18.822162167
 20
52.5622476101
 30
0.0
  0
VERTEX
  5
50E
  8
0
  6
CONTINUOUS
 62
     7
 10
16.3869883277
 20
49.840576595
 30
0.0
  0
VERTEX
  5
50F
  8
0
  6
CONTINUOUS
 62
     7
 10
14.2260461458
 20
46.8372587323
 30
0.0
  0
SEQEND
  5
570
  8
0
  6
CONTINUOUS
 62
     7
  0
POLYLINE
  5
2EB
  8
0
  6
CONTINUOUS
 62
     7
 66
     1
 10
0.0
 20
0.0
 30
0.0
  0
VERTEX
  5
510
  8
0
  6
CONTINUOUS
 62
     7
 10
19.5216822781
 20
60.1792145729
 30
0.0
  0
VERTEX
  5
511
  8
0
  6
CONTINUOUS
 62
     7
 10
22.959661425
 20
61.1656192898
 30
0.0
  0
VERTEX
  5
512
  8
0
  6
CONTINUOUS
 62
     7
 10
31.4197677531
 20
62.8729012072
 30
0.0
  0
SEQEND
  5
56F
  8
0
  6
CONTINUOUS
 62
     7
  0
ARC
  5
2EC
  8
0
  6
CONTINUOUS
 62
     7
 10
-27.6375747381
 20
67.1962438537
 30
0.0
 40
59.21537801751114
 50
352.0894985809
 51
355.813082764
  0
POLYLINE
  5
2ED
  8
0
  6
CONTINUOUS
 62
     7
 66
     1
 10
0.0
 20
0.0
 30
0.0
  0
VERTEX
  5
513
  8
0
  6
CONTINUOUS
 62
     7
 10
31.0143248521
 20
58.2691017747
 30
0.0
  0
VERTEX
  5
514
  8
0
  6
CONTINUOUS
 62
     7
 10
31.3972716563
 20
57.5040091037
 30
0.0
  0
VERTEX
  5
515
  8
0
  6
CONTINUOUS
 62
     7
 10
32.3132441722
 20
57.3188137471
 30
0.0
  0
VERTEX
  5
516
  8
0
  6
CONTINUOUS
 62
     7
 10
33.0751926981
 20
57.33726511
 30
0.0
  0
VERTEX
  5
517
  8
0
  6
CONTINUOUS
 62
     7
 10
34.1177282267
 20
57.4836056888
 30
0.0
  0
VERTEX
  5
518
  8
0
  6
CONTINUOUS
 62
     7
 10
35.1668444805
 20
57.7155869662
 30
0.0
  0
VERTEX
  5
519
  8
0
  6
CONTINUOUS
 62
     7
 10
36.4906152122
 20
58.0526735842
 30
0.0
  0
VERTEX
  5
51A
  8
0
  6
CONTINUOUS
 62
     7
 10
38.1350389094
 20
58.4743727207
 30
0.0
  0
VERTEX
  5
51B
  8
0
  6
CONTINUOUS
 62
     7
 10
40.0421812542
 20
58.9031871616
 30
0.0
  0
VERTEX
  5
51C
  8
0
  6
CONTINUOUS
 62
     7
 10
41.8077607051
 20
59.2087019443
 30
0.0
  0
VERTEX
  5
51D
  8
0
  6
CONTINUOUS
 62
     7
 10
43.6628376943
 20
59.4197731673
 30
0.0
  0
VERTEX
  5
51E
  8
0
  6
CONTINUOUS
 62
     7
 10
45.7299329014
 20
59.5050376117
 30
0.0
  0
VERTEX
  5
51F
  8
0
  6
CONTINUOUS
 62
     7
 10
47.7987527725
 20
59.4302933871
 30
0.0
  0
VERTEX
  5
520
  8
0
  6
CONTINUOUS
 62
     7
 10
50.0158720993
 20
59.1727566182
 30
0.0
  0
VERTEX
  5
521
  8
0
  6
CONTINUOUS
 62
     7
 10
52.0973878325
 20
58.7860565841
 30
0.0
  0
VERTEX
  5
522
  8
0
  6
CONTINUOUS
 62
     7
 10
53.8097999402
 20
58.3796311378
 30
0.0
  0
VERTEX
  5
523
  8
0
  6
CONTINUOUS
 62
     7
 10
55.2887113177
 20
57.9921078145
 30
0.0
  0
VERTEX
  5
524
  8
0
  6
CONTINUOUS
 62
     7
 10
56.6255736508
 20
57.6516274571
 30
0.0
  0
VERTEX
  5
525
  8
0
  6
CONTINUOUS
 62
     7
 10
57.6706675224
 20
57.4280541598
 30
0.0
  0
VERTEX
  5
526
  8
0
  6
CONTINUOUS
 62
     7
 10
58.9291525417
 20
57.2510805189
 30
0.0
  0
VERTEX
  5
527
  8
0
  6
CONTINUOUS
 62
     7
 10
59.7726346337
 20
57.2677847206
 30
0.0
  0
VERTEX
  5
528
  8
0
  6
CONTINUOUS
 62
     7
 10
60.3023839526
 20
57.5009133875
 30
0.0
  0
VERTEX
  5
529
  8
0
  6
CONTINUOUS
 62
     7
 10
60.5842543178
 20
58.1958737433
 30
0.0
  0
SEQEND
  5
56E
  8
0
  6
CONTINUOUS
 62
     7
  0
ARC
  5
2EE
  8
0
  6
CONTINUOUS
 62
     7
 10
115.9540012747
 20
66.9346852127
 30
0.0
 40
55.92085377534092
 50
184.1704166738
 51
188.0505572096
  0
POLYLINE
  5
2EF
  8
0
  6
CONTINUOUS
 62
     7
 66
     1
 10
0.0
 20
0.0
 30
0.0
  0
VERTEX
  5
52A
  8
0
  6
CONTINUOUS
 62
     7
 10
60.181217023
 20
62.8679391205
 30
0.0
  0
VERTEX
  5
52B
  8
0
  6
CONTINUOUS
 62
     7
 10
65.6635321089
 20
61.8616003751
 30
0.0
  0
VERTEX
  5
52C
  8
0
  6
CONTINUOUS
 62
     7
 10
72.0755613752
 20
60.1728406012
 30
0.0
  0
SEQEND
  5
56D
  8
0
  6
CONTINUOUS
 62
     7
  0
POLYLINE
  5
2F0
  8
0
  6
CONTINUOUS
 62
     7
 66
     1
 10
0.0
 20
0.0
 30
0.0
  0
VERTEX
  5
52D
  8
0
  6
CONTINUOUS
 62
     7
 10
72.7355449804
 20
52.6628192722
 30
0.0
  0
VERTEX
  5
52E
  8
0
  6
CONTINUOUS
 62
     7
 10
75.2790819265
 20
49.8685162723
 30
0.0
  0
VERTEX
  5
52F
  8
0
  6
CONTINUOUS
 62
     7
 10
77.5098099716
 20
46.7430051624
 30
0.0
  0
SEQEND
  5
56C
  8
0
  6
CONTINUOUS
 62
     7
  0
ARC
  5
2F1
  8
0
  6
CONTINUOUS
 62
     7
 10
-71.2335691126
 20
-1.2243408489
 30
0.0
 40
163.5883066506459
 50
6.7514954716
 51
16.2480978989
  0
ARC
  5
2F2
  8
0
  6
CONTINUOUS
 62
     7
 10
-50.2847892403
 20
-3.2587052651
 30
0.0
 40
142.1957315469352
 50
343.5370186299
 51
354.4518844608
  0
POLYLINE
  5
2F3
  8
0
  6
CONTINUOUS
 62
     7
 66
     1
 10
0.0
 20
0.0
 30
0.0
  0
VERTEX
  5
530
  8
0
  6
CONTINUOUS
 62
     7
 10
72.7764170029
 20
-51.5482540965
 30
0.0
  0
VERTEX
  5
531
  8
0
  6
CONTINUOUS
 62
     7
 10
75.2115908422
 20
-48.8265830815
 30
0.0
  0
VERTEX
  5
532
  8
0
  6
CONTINUOUS
 62
     7
 10
77.3725330241
 20
-45.8232652188
 30
0.0
  0
SEQEND
  5
56B
  8
0
  6
CONTINUOUS
 62
     7
  0
POLYLINE
  5
2F4
  8
0
  6
CONTINUOUS
 62
     7
 66
     1
 10
0.0
 20
0.0
 30
0.0
  0
VERTEX
  5
533
  8
0
  6
CONTINUOUS
 62
     7
 10
72.0768968918
 20
-59.1652210594
 30
0.0
  0
VERTEX
  5
534
  8
0
  6
CONTINUOUS
 62
     7
 10
68.7762803741
 20
-60.1160343528
 30
0.0
  0
VERTEX
  5
535
  8
0
  6
CONTINUOUS
 62
     7
 10
60.1788114168
 20
-61.8589076937
 30
0.0
  0
SEQEND
  5
56A
  8
0
  6
CONTINUOUS
 62
     7
  0
ARC
  5
2F5
  8
0
  6
CONTINUOUS
 62
     7
 10
118.2932344453
 20
-66.0823349714
 30
0.0
 40
58.26768831779328
 50
172.059206703
 51
175.8433746419
  0
POLYLINE
  5
2F6
  8
0
  6
CONTINUOUS
 62
     7
 66
     1
 10
0.0
 20
0.0
 30
0.0
  0
VERTEX
  5
536
  8
0
  6
CONTINUOUS
 62
     7
 10
31.0143248521
 20
-57.1818802297
 30
0.0
  0
VERTEX
  5
537
  8
0
  6
CONTINUOUS
 62
     7
 10
31.2303292908
 20
-56.5984550655
 30
0.0
  0
VERTEX
  5
538
  8
0
  6
CONTINUOUS
 62
     7
 10
31.6928399139
 20
-56.3444237948
 30
0.0
  0
VERTEX
  5
539
  8
0
  6
CONTINUOUS
 62
     7
 10
32.4043470778
 20
-56.2787581027
 30
0.0
  0
VERTEX
  5
53A
  8
0
  6
CONTINUOUS
 62
     7
 10
33.1518507906
 20
-56.3073124528
 30
0.0
  0
VERTEX
  5
53B
  8
0
  6
CONTINUOUS
 62
     7
 10
34.1614258819
 20
-56.4576949716
 30
0.0
  0
VERTEX
  5
53C
  8
0
  6
CONTINUOUS
 62
     7
 10
35.2184900426
 20
-56.6972683907
 30
0.0
  0
VERTEX
  5
53D
  8
0
  6
CONTINUOUS
 62
     7
 10
36.5496983164
 20
-57.0416714788
 30
0.0
  0
VERTEX
  5
53E
  8
0
  6
CONTINUOUS
 62
     7
 10
38.1966491573
 20
-57.4677962602
 30
0.0
  0
VERTEX
  5
53F
  8
0
  6
CONTINUOUS
 62
     7
 10
40.0997253478
 20
-57.8971136153
 30
0.0
  0
VERTEX
  5
540
  8
0
  6
CONTINUOUS
 62
     7
 10
41.8682291516
 20
-58.2021254838
 30
0.0
  0
VERTEX
  5
541
  8
0
  6
CONTINUOUS
 62
     7
 10
43.7237599276
 20
-58.410413915
 30
0.0
  0
VERTEX
  5
542
  8
0
  6
CONTINUOUS
 62
     7
 10
45.8065221569
 20
-58.4910813511
 30
0.0
  0
VERTEX
  5
543
  8
0
  6
CONTINUOUS
 62
     7
 10
47.8890533437
 20
-58.4095049441
 30
0.0
  0
VERTEX
  5
544
  8
0
  6
CONTINUOUS
 62
     7
 10
50.1024832361
 20
-58.1470098138
 30
0.0
  0
VERTEX
  5
545
  8
0
  6
CONTINUOUS
 62
     7
 10
52.1758778364
 20
-57.7597286344
 30
0.0
  0
VERTEX
  5
546
  8
0
  6
CONTINUOUS
 62
     7
 10
53.8634189748
 20
-57.3608841539
 30
0.0
  0
VERTEX
  5
547
  8
0
  6
CONTINUOUS
 62
     7
 10
55.3193043329
 20
-56.9833855868
 30
0.0
  0
VERTEX
  5
548
  8
0
  6
CONTINUOUS
 62
     7
 10
56.6621820786
 20
-56.6467683554
 30
0.0
  0
VERTEX
  5
549
  8
0
  6
CONTINUOUS
 62
     7
 10
57.708678522
 20
-56.4284104646
 30
0.0
  0
VERTEX
  5
54A
  8
0
  6
CONTINUOUS
 62
     7
 10
58.9925253176
 20
-56.2508333266
 30
0.0
  0
VERTEX
  5
54B
  8
0
  6
CONTINUOUS
 62
     7
 10
59.8410980188
 20
-56.2786500693
 30
0.0
  0
VERTEX
  5
54C
  8
0
  6
CONTINUOUS
 62
     7
 10
60.3521417238
 20
-56.5630834341
 30
0.0
  0
VERTEX
  5
54D
  8
0
  6
CONTINUOUS
 62
     7
 10
60.5842543178
 20
-57.2551082611
 30
0.0
  0
SEQEND
  5
569
  8
0
  6
CONTINUOUS
 62
     7
  0
ARC
  5
2F7
  8
0
  6
CONTINUOUS
 62
     7
 10
-25.502700854
 20
-66.0435128183
 30
0.0
 40
57.07404003087065
 50
4.2096305095
 51
8.0113433739
  0
POLYLINE
  5
2F8
  8
0
  6
CONTINUOUS
 62
     7
 66
     1
 10
0.0
 20
0.0
 30
0.0
  0
VERTEX
  5
54E
  8
0
  6
CONTINUOUS
 62
     7
 10
31.4173621469
 20
-61.853945607
 30
0.0
  0
VERTEX
  5
54F
  8
0
  6
CONTINUOUS
 62
     7
 10
26.0008915671
 20
-60.8618672729
 30
0.0
  0
VERTEX
  5
550
  8
0
  6
CONTINUOUS
 62
     7
 10
19.5230177947
 20
-59.1588470877
 30
0.0
  0
SEQEND
  5
568
  8
0
  6
CONTINUOUS
 62
     7
  0
LINE
  5
2F9
  8
0
  6
CONTINUOUS
 62
     7
 10
60.5842543178
 20
-57.2551082611
 30
0.0
 11
60.5842543178
 21
-58.0326694787
 31
0.0
  0
ARC
  5
2FA
  8
0
  6
CONTINUOUS
 62
     7
 10
45.7992845278
 20
-54.9140028273
 30
0.0
 40
15.96879761143841
 50
205.7594588996
 51
334.2207711216
  0
LINE
  5
2FB
  8
0
  6
CONTINUOUS
 62
     7
 10
31.0143248521
 20
-57.1818802297
 30
0.0
 11
31.0143248521
 21
-58.0891523302
 31
0.0
  0
ARC
  5
2FC
  8
0
  6
CONTINUOUS
 62
     7
 10
45.7992956174
 20
55.9336493001
 30
0.0
 40
15.96634080280789
 50
25.7411904512
 51
154.23903957
  0
LINE
  5
2FD
  8
0
  6
CONTINUOUS
 62
     7
 10
60.5842543178
 20
58.1958737433
 30
0.0
 11
60.5842543178
 21
59.1031458437
 31
0.0
  0
LINE
  5
2FE
  8
0
  6
CONTINUOUS
 62
     7
 10
31.0143248521
 20
58.2691017747
 30
0.0
 11
31.0143248521
 21
59.0466629922
 31
0.0
  0
ARC
  5
2FF
  8
0
  6
CONTINUOUS
 62
     7
 10
6.799289585
 20
57.5069967568
 30
0.0
 40
13.00000000000001
 50
196.8186383424
 51
304.8401603426
  0
ARC
  5
300
  8
0
  6
CONTINUOUS
 62
     7
 10
238.299289585
 20
0.5069967568
 30
0.0
 40
249.6857689411698
 50
166.2658165478
 51
167.6887539187
  0
ARC
  5
301
  8
0
  6
CONTINUOUS
 62
     7
 10
8.0756774376
 20
56.7750019624
 30
0.0
 40
12.68576894116982
 50
107.2796840514
 51
166.2658165478
  0
ARC
  5
302
  8
0
  6
CONTINUOUS
 62
     7
 10
45.799289585
 20
-64.4930032432
 30
0.0
 40
139.6857689411698
 50
105.2167986892
 51
107.2796840514
  0
ARC
  5
303
  8
0
  6
CONTINUOUS
 62
     7
 10
6.799289585
 20
57.5069967568
 30
0.0
 40
13.00000000000001
 50
337.6436840814
 51
79.6464482549
  0
ARC
  5
304
  8
0
  6
CONTINUOUS
 62
     7
 10
83.5229017323
 20
56.7750019624
 30
0.0
 40
12.68576894116979
 50
13.7341834522
 51
72.7203159486
  0
ARC
  5
305
  8
0
  6
CONTINUOUS
 62
     7
 10
-146.700710415
 20
0.5069967568
 30
0.0
 40
249.6857689411698
 50
12.3112460813
 51
13.7341834522
  0
ARC
  5
306
  8
0
  6
CONTINUOUS
 62
     7
 10
84.799289585
 20
57.5069967568
 30
0.0
 40
13.00000000000003
 50
235.8937649702
 51
343.1813616576
  0
ARC
  5
307
  8
0
  6
CONTINUOUS
 62
     7
 10
45.799289585
 20
-64.4930032432
 30
0.0
 40
139.6857689411698
 50
72.7203159486
 51
74.7832013108
  0
ARC
  5
308
  8
0
  6
CONTINUOUS
 62
     7
 10
84.799289585
 20
57.5069967568
 30
0.0
 40
13.00000000000002
 50
100.3535517451
 51
201.8778510257
  0
ARC
  5
309
  8
0
  6
CONTINUOUS
 62
     7
 10
45.799289585
 20
65.5069967568
 30
0.0
 40
139.6857689411698
 50
252.7203159486
 51
254.7832013108
  0
ARC
  5
30A
  8
0
  6
CONTINUOUS
 62
     7
 10
8.0756774376
 20
-55.7610084489
 30
0.0
 40
12.68576894116982
 50
193.7341834522
 51
252.7203159486
  0
ARC
  5
30B
  8
0
  6
CONTINUOUS
 62
     7
 10
238.299289585
 20
0.5069967568
 30
0.0
 40
249.6857689411698
 50
192.3112460813
 51
193.7341834522
  0
ARC
  5
30C
  8
0
  6
CONTINUOUS
 62
     7
 10
6.799289585
 20
-56.4930032432
 30
0.0
 40
13.00000000000001
 50
55.8937649701
 51
163.1813616576
  0
ARC
  5
30D
  8
0
  6
CONTINUOUS
 62
     7
 10
6.799289585
 20
-56.4930032432
 30
0.0
 40
13.00000000000002
 50
280.3535517451
 51
21.8778510258
  0
ARC
  5
30E
  8
0
  6
CONTINUOUS
 62
     7
 10
84.799289585
 20
-56.4930032432
 30
0.0
 40
13.00000000000001
 50
16.8186383424
 51
124.8401603426
  0
ARC
  5
30F
  8
0
  6
CONTINUOUS
 62
     7
 10
-146.700710415
 20
0.5069967568
 30
0.0
 40
249.6857689411698
 50
346.2658165478
 51
347.6887539187
  0
ARC
  5
310
  8
0
  6
CONTINUOUS
 62
     7
 10
83.5229017323
 20
-55.7610084489
 30
0.0
 40
12.68576894116978
 50
287.2796840514
 51
346.2658165478
  0
ARC
  5
311
  8
0
  6
CONTINUOUS
 62
     7
 10
45.799289585
 20
65.5069967568
 30
0.0
 40
139.6857689411698
 50
285.2167986892
 51
287.2796840514
  0
ARC
  5
312
  8
0
  6
CONTINUOUS
 62
     7
 10
84.799289585
 20
-56.4930032432
 30
0.0
 40
13.00000000000001
 50
157.6436840813
 51
259.6464482549
  0
ARC
  5
313
  8
0
  6
CONTINUOUS
 62
     7
 10
8.0756774376
 20
56.7750019624
 30
0.0
 40
12.99999999999999
 50
107.2796840514
 51
166.2658165478
  0
ARC
  5
314
  8
0
  6
CONTINUOUS
 62
     7
 10
45.799289585
 20
-64.4930032432
 30
0.0
 40
139.6857689411698
 50
74.7832013108
 51
105.2167986892
  0
ARC
  5
315
  8
0
  6
CONTINUOUS
 62
     7
 10
45.799289585
 20
-64.4930032432
 30
0.0
 40
140.0
 50
72.7203159486
 51
107.2796840514
  0
ARC
  5
316
  8
0
  6
CONTINUOUS
 62
     7
 10
83.5229017323
 20
56.7750019624
 30
0.0
 40
13.00000000000004
 50
13.7341834522
 51
72.7203159486
  0
ARC
  5
317
  8
0
  6
CONTINUOUS
 62
     7
 10
238.299289585
 20
0.5069967568
 30
0.0
 40
249.6857689411698
 50
167.6887539187
 51
192.3112460813
  0
ARC
  5
318
  8
0
  6
CONTINUOUS
 62
     7
 10
238.299289585
 20
0.5069967568
 30
0.0
 40
250.0
 50
166.2658165478
 51
193.7341834522
  0
ARC
  5
319
  8
0
  6
CONTINUOUS
 62
     7
 10
-146.700710415
 20
0.5069967568
 30
0.0
 40
249.6857689411697
 50
347.6887539187
 51
12.3112460813
  0
ARC
  5
31A
  8
0
  6
CONTINUOUS
 62
     7
 10
-146.700710415
 20
0.5069967568
 30
0.0
 40
250.0000000000001
 50
346.2658165478
 51
13.7341834522
  0
ARC
  5
31B
  8
0
  6
CONTINUOUS
 62
     7
 10
83.5229017323
 20
-55.7610084489
 30
0.0
 40
13.00000000000005
 50
287.2796840514
 51
346.2658165478
  0
ARC
  5
31C
  8
0
  6
CONTINUOUS
 62
     7
 10
8.0756774376
 20
-55.7610084489
 30
0.0
 40
13.00000000000003
 50
193.7341834522
 51
252.7203159486
  0
ARC
  5
31D
  8
0
  6
CONTINUOUS
 62
     7
 10
45.799289585
 20
65.5069967568
 30
0.0
 40
139.6857689411698
 50
254.7832013108
 51
285.2167986892
  0
ARC
  5
31E
  8
0
  6
CONTINUOUS
 62
     7
 10
45.799289585
 20
65.5069967568
 30
0.0
 40
140.0
 50
252.7203159486
 51
287.2796840514
  0
LINE
  5
31F
  8
0
  6
CONTINUOUS
 62
     7
 10
-24.2007107131
 20
83.007000035
 30
0.0
 11
-24.2007107131
 21
4.5069969467
 31
0.0
  0
LINE
  5
320
  8
0
  6
CONTINUOUS
 62
     7
 10
-24.2007107131
 20
-3.4930034332
 30
0.0
 11
-24.2007107131
 21
-81.9930065215
 31
0.0
  0
LINE
  5
321
  8
0
  6
CONTINUOUS
 62
     7
 10
-38.7007102958
 20
83.007000035
 30
0.0
 11
-38.7007102958
 21
-81.9930065215
 31
0.0
  0
LINE
  5
322
  8
0
  6
CONTINUOUS
 62
     7
 10
130.2992894657
 20
-81.9930065215
 30
0.0
 11
130.2992894657
 21
83.007000035
 31
0.0
  0
LINE
  5
323
  8
0
  6
CONTINUOUS
 62
     7
 10
115.799289883
 20
-3.4930034332
 30
0.0
 11
115.799289883
 21
-81.9930065215
 31
0.0
  0
LINE
  5
324
  8
0
  6
CONTINUOUS
 62
     7
 10
115.799289883
 20
83.007000035
 30
0.0
 11
115.799289883
 21
4.5069969467
 31
0.0
  0
LINE
  5
325
  8
0
  6
CONTINUOUS
 62
     7
 10
115.799289883
 20
0.5069967568
 30
0.0
 11
115.799289883
 21
4.5069969467
 31
0.0
  0
LINE
  5
326
  8
0
  6
CONTINUOUS
 62
     7
 10
115.799289883
 20
-3.4930034332
 30
0.0
 11
115.799289883
 21
0.5069967568
 31
0.0
  0
LINE
  5
327
  8
0
  6
CONTINUOUS
 62
     7
 10
103.2672866591
 20
-3.4930034332
 30
0.0
 11
115.799289883
 21
-3.4930034332
 31
0.0
  0
LINE
  5
328
  8
0
  6
CONTINUOUS
 62
     7
 10
103.2672866591
 20
4.5069969467
 30
0.0
 11
115.799289883
 21
4.5069969467
 31
0.0
  0
LINE
  5
329
  8
0
  6
CONTINUOUS
 62
     7
 10
-11.6687074892
 20
-3.4930034332
 30
0.0
 11
-24.2007107131
 21
-3.4930034332
 31
0.0
  0
LINE
  5
32A
  8
0
  6
CONTINUOUS
 62
     7
 10
-24.2007107131
 20
-3.4930034332
 30
0.0
 11
-24.2007107131
 21
0.5069967568
 31
0.0
  0
LINE
  5
32B
  8
0
  6
CONTINUOUS
 62
     7
 10
-24.2007107131
 20
0.5069967568
 30
0.0
 11
-24.2007107131
 21
4.5069969467
 31
0.0
  0
LINE
  5
32C
  8
0
  6
CONTINUOUS
 62
     7
 10
-11.6687074892
 20
4.5069969467
 30
0.0
 11
-24.2007107131
 21
4.5069969467
 31
0.0
  0
POLYLINE
  5
32D
  8
0
  6
CONTINUOUS
 62
     7
 66
     1
 10
0.0
 20
0.0
 30
0.0
  0
VERTEX
  5
551
  8
0
  6
CONTINUOUS
 62
     7
 10
115.799289883
 20
-37.2818898201
 30
0.0
  0
VERTEX
  5
552
  8
0
  6
CONTINUOUS
 62
     7
 10
115.6141951092
 20
-37.7682003916
 30
0.0
  0
VERTEX
  5
553
  8
0
  6
CONTINUOUS
 62
     7
 10
115.0333701976
 20
-38.0340818107
 30
0.0
  0
VERTEX
  5
554
  8
0
  6
CONTINUOUS
 62
     7
 10
114.1913800844
 20
-38.047328943
 30
0.0
  0
VERTEX
  5
555
  8
0
  6
CONTINUOUS
 62
     7
 10
113.1927191623
 20
-37.8675613344
 30
0.0
  0
VERTEX
  5
556
  8
0
  6
CONTINUOUS
 62
     7
 10
112.0563566097
 20
-37.5170301438
 30
0.0
  0
VERTEX
  5
557
  8
0
  6
CONTINUOUS
 62
     7
 10
110.8257442125
 20
-36.9949865878
 30
0.0
  0
VERTEX
  5
558
  8
0
  6
CONTINUOUS
 62
     7
 10
109.6050112851
 20
-36.3050292969
 30
0.0
  0
VERTEX
  5
559
  8
0
  6
CONTINUOUS
 62
     7
 10
109.0792908676
 20
-35.9271470249
 30
0.0
  0
SEQEND
  5
567
  8
0
  6
CONTINUOUS
 62
     7
  0
POLYLINE
  5
32E
  8
0
  6
CONTINUOUS
 62
     7
 66
     1
 10
0.0
 20
0.0
 30
0.0
  0
VERTEX
  5
55A
  8
0
  6
CONTINUOUS
 62
     7
 10
109.0792908676
 20
-35.9271470249
 30
0.0
  0
VERTEX
  5
55B
  8
0
  6
CONTINUOUS
 62
     7
 10
105.4673984059
 20
-33.1837687433
 30
0.0
  0
VERTEX
  5
55C
  8
0
  6
CONTINUOUS
 62
     7
 10
101.2857078918
 20
-30.3045887292
 30
0.0
  0
SEQEND
  5
566
  8
0
  6
CONTINUOUS
 62
     7
  0
POLYLINE
  5
32F
  8
0
  6
CONTINUOUS
 62
     7
 66
     1
 10
0.0
 20
0.0
 30
0.0
  0
VERTEX
  5
55D
  8
0
  6
CONTINUOUS
 62
     7
 10
-17.4807116977
 20
-35.9271470249
 30
0.0
  0
VERTEX
  5
55E
  8
0
  6
CONTINUOUS
 62
     7
 10
-18.7460661523
 20
-36.7474261463
 30
0.0
  0
VERTEX
  5
55F
  8
0
  6
CONTINUOUS
 62
     7
 10
-20.2799991361
 20
-37.4506976247
 30
0.0
  0
VERTEX
  5
560
  8
0
  6
CONTINUOUS
 62
     7
 10
-21.7372581951
 20
-37.9018563569
 30
0.0
  0
VERTEX
  5
561
  8
0
  6
CONTINUOUS
 62
     7
 10
-22.8730247013
 20
-38.0662832201
 30
0.0
  0
VERTEX
  5
562
  8
0
  6
CONTINUOUS
 62
     7
 10
-23.6335054628
 20
-37.9866327882
 30
0.0
  0
VERTEX
  5
563
  8
0
  6
CONTINUOUS
 62
     7
 10
-24.0672186605
 20
-37.7086926043
 30
0.0
  0
VERTEX
  5
564
  8
0
  6
CONTINUOUS
 62
     7
 10
-24.2007107131
 20
-37.2818898201
 30
0.0
  0
SEQEND
  5
565
  8
0
  6
CONTINUOUS
 62
     7
  0
ARC
  5
330
  8
0
  6
CONTINUOUS
 62
     7
 10
31.634329752
 20
-96.0385780102
 30
0.0
 40
77.6251984326349
 50
122.1387005823
 51
129.2511102034
  0
LINE
  5
331
  8
0
  6
CONTINUOUS
 62
     7
 10
109.0792908676
 20
-54.4930029452
 30
0.0
 11
97.1742577263
 21
-54.4930029452
 31
0.0
  0
LINE
  5
332
  8
0
  6
CONTINUOUS
 62
     7
 10
-5.5756785564
 20
-54.4930029452
 30
0.0
 11
-17.4807116977
 21
-54.4930029452
 31
0.0
  0
LINE
  5
333
  8
0
  6
CONTINUOUS
 62
     7
 10
-17.4807116977
 20
-54.4930029452
 30
0.0
 11
-24.2007107131
 21
-54.4930029452
 31
0.0
  0
LINE
  5
334
  8
0
  6
CONTINUOUS
 62
     7
 10
115.799289883
 20
-54.4930029452
 30
0.0
 11
109.0792908676
 21
-54.4930029452
 31
0.0
  0
LINE
  5
335
  8
0
  6
CONTINUOUS
 62
     8
 10
91.2830687471
 20
-17.0250128746
 30
0.0
 11
91.2830687471
 21
-6.3651156403
 31
0.0
  0
LINE
  5
336
  8
0
  6
CONTINUOUS
 62
     8
 10
91.2830687471
 20
7.3791091539
 30
0.0
 11
91.2830687471
 21
18.0390063882
 31
0.0
  0
LINE
  5
337
  8
0
  6
CONTINUOUS
 62
     8
 10
0.3155104228
 20
-17.0250128746
 30
0.0
 11
0.3155104228
 21
-6.3651156403
 31
0.0
  0
LINE
  5
338
  8
0
  6
CONTINUOUS
 62
     8
 10
0.3155104228
 20
7.3791091539
 30
0.0
 11
0.3155104228
 21
18.0390063882
 31
0.0
  0
LINE
  5
339
  8
0
  6
CONTINUOUS
 62
     8
 10
4.3075426825
 20
68.8882168591
 30
0.0
 11
4.2142055341
 21
69.1882591903
 31
0.0
  0
LINE
  5
33A
  8
0
  6
CONTINUOUS
 62
     8
 10
-4.2473741464
 20
59.7868297457
 30
0.0
 11
-4.5526207081
 21
59.8614324093
 31
0.0
  0
LINE
  5
33B
  8
0
  6
CONTINUOUS
 62
     8
 10
87.2910364874
 20
68.8882168591
 30
0.0
 11
87.3843736358
 21
69.1882591903
 31
0.0
  0
LINE
  5
33C
  8
0
  6
CONTINUOUS
 62
     8
 10
95.8459533163
 20
59.7868297457
 30
0.0
 11
96.1511998781
 21
59.8614324093
 31
0.0
  0
LINE
  5
33D
  8
0
  6
CONTINUOUS
 62
     8
 10
-4.2473741464
 20
-58.7728362322
 30
0.0
 11
-4.5526207081
 21
-58.8474388957
 31
0.0
  0
LINE
  5
33E
  8
0
  6
CONTINUOUS
 62
     8
 10
95.8459533163
 20
-58.7728362322
 30
0.0
 11
96.1511998781
 21
-58.8474388957
 31
0.0
  0
LINE
  5
33F
  8
0
  6
CONTINUOUS
 62
     8
 10
87.2910364874
 20
-67.8742233456
 30
0.0
 11
87.3843736358
 21
-68.1742656768
 31
0.0
  0
LINE
  5
340
  8
0
  6
CONTINUOUS
 62
     8
 10
4.3075426825
 20
-67.8742233456
 30
0.0
 11
4.2142055341
 21
-68.1742656768
 31
0.0
  0
LINE
  5
341
  8
0
  6
CONTINUOUS
 62
     8
 10
109.0792908676
 20
-35.9271470249
 30
0.0
 11
109.0792908676
 21
-54.4930029452
 31
0.0
  0
LINE
  5
342
  8
0
  6
CONTINUOUS
 62
     8
 10
-17.4807116977
 20
-35.9271470249
 30
0.0
 11
-17.4807116977
 21
-54.4930029452
 31
0.0
  0
LINE
  5
343
  8
FORMAT
  6
CENTERX2
 10
45.799289585
 20
-83.9930032432
 30
0.0
 11
45.799289585
 21
85.0069967568
 31
0.0
  0
LINE
  5
344
  8
FORMAT
  6
CENTERX2
 10
137.1006941698
 20
0.5069967568
 30
0.0
 11
-46.0591725974
 21
0.5069967568
 31
0.0
  0
ENDSEC
  0
EOF
