  0
SECTION
  2
HEADER
  9
$ACADVER
  1
AC1015
  9
$ACADMAINTVER
 70
     6
  9
$DWGCODEPAGE
  3
ANSI_1252
  9
$INSBASE
 10
0.0
 20
0.0
 30
0.0
  9
$EXTMIN
 10
0.0
 20
0.0
 30
0.0
  9
$EXTMAX
 10
297.0
 20
210.0
 30
0.0
  9
$LIMMIN
 10
0.0
 20
0.0
  9
$LIMMAX
 10
297.0
 20
210.0
  9
$ORTHOMODE
 70
     0
  9
$REGENMODE
 70
     1
  9
$FILLMODE
 70
     1
  9
$QTEXTMODE
 70
     0
  9
$MIRRTEXT
 70
     1
  9
$LTSCALE
 40
1.0
  9
$ATTMODE
 70
     1
  9
$TEXTSIZE
 40
2.5
  9
$TRACEWID
 40
1.0
  9
$TEXTSTYLE
  7
Standard
  9
$CLAYER
  8
0
  9
$CELTYPE
  6
ByLayer
  9
$CECOLOR
 62
   256
  9
$CELTSCALE
 40
1.0
  9
$DISPSILH
 70
     0
  9
$DIMSCALE
 40
1.0
  9
$DIMASZ
 40
2.5
  9
$DIMEXO
 40
1.0
  9
$DIMDLI
 40
3.75
  9
$DIMRND
 40
0.0
  9
$DIMDLE
 40
0.0
  9
$DIMEXE
 40
1.0
  9
$DIMTP
 40
0.0
  9
$DIMTM
 40
0.0
  9
$DIMTXT
 40
2.5
  9
$DIMCEN
 40
2.5
  9
$DIMTSZ
 40
0.0
  9
$DIMTOL
 70
     0
  9
$DIMLIM
 70
     0
  9
$DIMTIH
 70
     1
  9
$DIMTOH
 70
     1
  9
$DIMSE1
 70
     0
  9
$DIMSE2
 70
     0
  9
$DIMTAD
 70
     1
  9
$DIMZIN
 70
     0
  9
$DIMBLK
  1

  9
$DIMASO
 70
     1
  9
$DIMSHO
 70
     1
  9
$DIMPOST
  1

  9
$DIMAPOST
  1

  9
$DIMALT
 70
     0
  9
$DIMALTD
 70
     3
  9
$DIMALTF
 40
0.0393700787
  9
$DIMLFAC
 40
1.0
  9
$DIMTOFL
 70
     1
  9
$DIMTVP
 40
0.0
  9
$DIMTIX
 70
     0
  9
$DIMSOXD
 70
     0
  9
$DIMSAH
 70
     0
  9
$DIMBLK1
  1

  9
$DIMBLK2
  1

  9
$DIMSTYLE
  2
ISO-25
  9
$DIMCLRD
 70
     0
  9
$DIMCLRE
 70
     0
  9
$DIMCLRT
 70
     0
  9
$DIMTFAC
 40
1.0
  9
$DIMGAP
 40
1.524
  9
$DIMJUST
 70
     0
  9
$DIMSD1
 70
     0
  9
$DIMSD2
 70
     0
  9
$DIMTOLJ
 70
     0
  9
$DIMTZIN
 70
     0
  9
$DIMALTZ
 70
     0
  9
$DIMALTTZ
 70
     0
  9
$DIMUPT
 70
     0
  9
$DIMDEC
 70
     2
  9
$DIMTDEC
 70
     2
  9
$DIMALTU
 70
     2
  9
$DIMALTTD
 70
     3
  9
$DIMTXSTY
  7
Standard
  9
$DIMAUNIT
 70
     0
  9
$DIMADEC
 70
     2
  9
$DIMALTRND
 40
0.0
  9
$DIMAZIN
 70
     0
  9
$DIMDSEP
 70
    44
  9
$DIMATFIT
 70
     3
  9
$DIMFRAC
 70
     0
  9
$DIMLDRBLK
  1

  9
$DIMLUNIT
 70
     2
  9
$DIMLWD
 70
    -2
  9
$DIMLWE
 70
    -2
  9
$DIMTMOVE
 70
     0
  9
$LUNITS
 70
     2
  9
$LUPREC
 70
     2
  9
$SKETCHINC
 40
1.0
  9
$FILLETRAD
 40
10.0
  9
$AUNITS
 70
     0
  9
$AUPREC
 70
     2
  9
$MENU
  1
.
  9
$ELEVATION
 40
0.0
  9
$PELEVATION
 40
0.0
  9
$THICKNESS
 40
0.0
  9
$LIMCHECK
 70
     0
  9
$CHAMFERA
 40
10.0
  9
$CHAMFERB
 40
10.0
  9
$CHAMFERC
 40
20.0
  9
$CHAMFERD
 40
0.0
  9
$SKPOLY
 70
     0
  9
$TDCREATE
 40
2457660.454702662
  9
$TDUCREATE
 40
2457660.371369329
  9
$TDUPDATE
 40
2457660.454703391
  9
$TDUUPDATE
 40
2457660.371370058
  9
$TDINDWG
 40
0.0000000116
  9
$TDUSRTIMER
 40
0.0000000116
  9
$USRTIMER
 70
     1
  9
$ANGBASE
 50
0.0
  9
$ANGDIR
 70
     0
  9
$PDMODE
 70
     0
  9
$PDSIZE
 40
-1.0
  9
$PLINEWID
 40
0.0
  9
$SPLFRAME
 70
     0
  9
$SPLINETYPE
 70
     6
  9
$SPLINESEGS
 70
     8
  9
$HANDSEED
  5
1A5
  9
$SURFTAB1
 70
     6
  9
$SURFTAB2
 70
     6
  9
$SURFTYPE
 70
     6
  9
$SURFU
 70
     6
  9
$SURFV
 70
     6
  9
$UCSBASE
  2

  9
$UCSNAME
  2

  9
$UCSORG
 10
0.0
 20
0.0
 30
0.0
  9
$UCSXDIR
 10
1.0
 20
0.0
 30
0.0
  9
$UCSYDIR
 10
0.0
 20
1.0
 30
0.0
  9
$UCSORTHOREF
  2

  9
$UCSORTHOVIEW
 70
     0
  9
$UCSORGTOP
 10
0.0
 20
0.0
 30
0.0
  9
$UCSORGBOTTOM
 10
0.0
 20
0.0
 30
0.0
  9
$UCSORGLEFT
 10
0.0
 20
0.0
 30
0.0
  9
$UCSORGRIGHT
 10
0.0
 20
0.0
 30
0.0
  9
$UCSORGFRONT
 10
0.0
 20
0.0
 30
0.0
  9
$UCSORGBACK
 10
0.0
 20
0.0
 30
0.0
  9
$PUCSBASE
  2

  9
$PUCSNAME
  2

  9
$PUCSORG
 10
0.0
 20
0.0
 30
0.0
  9
$PUCSXDIR
 10
1.0
 20
0.0
 30
0.0
  9
$PUCSYDIR
 10
0.0
 20
1.0
 30
0.0
  9
$PUCSORTHOREF
  2

  9
$PUCSORTHOVIEW
 70
     0
  9
$PUCSORGTOP
 10
0.0
 20
0.0
 30
0.0
  9
$PUCSORGBOTTOM
 10
0.0
 20
0.0
 30
0.0
  9
$PUCSORGLEFT
 10
0.0
 20
0.0
 30
0.0
  9
$PUCSORGRIGHT
 10
0.0
 20
0.0
 30
0.0
  9
$PUCSORGFRONT
 10
0.0
 20
0.0
 30
0.0
  9
$PUCSORGBACK
 10
0.0
 20
0.0
 30
0.0
  9
$USERI1
 70
     0
  9
$USERI2
 70
     0
  9
$USERI3
 70
     0
  9
$USERI4
 70
     0
  9
$USERI5
 70
     0
  9
$USERR1
 40
0.0
  9
$USERR2
 40
0.0
  9
$USERR3
 40
0.0
  9
$USERR4
 40
0.0
  9
$USERR5
 40
0.0
  9
$WORLDVIEW
 70
     1
  9
$SHADEDGE
 70
     3
  9
$SHADEDIF
 70
    70
  9
$TILEMODE
 70
     1
  9
$MAXACTVP
 70
    64
  9
$PINSBASE
 10
0.0
 20
0.0
 30
0.0
  9
$PLIMCHECK
 70
     0
  9
$PEXTMIN
 10
1.0000000000E+20
 20
1.0000000000E+20
 30
1.0000000000E+20
  9
$PEXTMAX
 10
-1.0000000000E+20
 20
-1.0000000000E+20
 30
-1.0000000000E+20
  9
$PLIMMIN
 10
0.0
 20
0.0
  9
$PLIMMAX
 10
420.0
 20
297.0
  9
$UNITMODE
 70
     0
  9
$VISRETAIN
 70
     1
  9
$PLINEGEN
 70
     0
  9
$PSLTSCALE
 70
     1
  9
$TREEDEPTH
 70
  3020
  9
$CMLSTYLE
  2
Standard
  9
$CMLJUST
 70
     0
  9
$CMLSCALE
 40
20.0
  9
$PROXYGRAPHICS
 70
     1
  9
$MEASUREMENT
 70
     1
  9
$CELWEIGHT
370
    -1
  9
$ENDCAPS
280
     0
  9
$JOINSTYLE
280
     0
  9
$LWDISPLAY
290
     1
  9
$INSUNITS
 70
     4
  9
$HYPERLINKBASE
  1

  9
$STYLESHEET
  1

  9
$XEDIT
290
     1
  9
$CEPSNTYPE
380
     0
  9
$PSTYLEMODE
290
     1
  9
$FINGERPRINTGUID
  2
{5D1C2D4D-63E6-40CA-ACE3-98A44C63757F}
  9
$VERSIONGUID
  2
{FAEB1C32-E019-11D5-929B-00C0DF256EC4}
  9
$EXTNAMES
290
     1
  9
$PSVPSCALE
 40
0.0
  9
$OLESTARTUP
290
     0
  0
ENDSEC
  0
SECTION
  2
CLASSES
  0
CLASS
  1
ACDBDICTIONARYWDFLT
  2
AcDbDictionaryWithDefault
  3
ObjectDBX Classes
 90
        0
280
     0
281
     0
  0
CLASS
  1
VISUALSTYLE
  2
AcDbVisualStyle
  3
ObjectDBX Classes
 90
     4095
280
     0
281
     0
  0
CLASS
  1
MATERIAL
  2
AcDbMaterial
  3
ObjectDBX Classes
 90
     1153
280
     0
281
     0
  0
CLASS
  1
ACDBPLACEHOLDER
  2
AcDbPlaceHolder
  3
ObjectDBX Classes
 90
        0
280
     0
281
     0
  0
CLASS
  1
LAYOUT
  2
AcDbLayout
  3
ObjectDBX Classes
 90
        0
280
     0
281
     0
  0
ENDSEC
  0
SECTION
  2
TABLES
  0
TABLE
  2
VPORT
  5
8
330
0
100
AcDbSymbolTable
 70
     1
  0
VPORT
  5
29
330
8
100
AcDbSymbolTableRecord
100
AcDbViewportTableRecord
  2
*Active
 70
     0
 10
0.0
 20
0.0
 11
1.0
 21
1.0
 12
148.5
 22
105.0
 13
0.0
 23
0.0
 14
10.0
 24
10.0
 15
10.0
 25
10.0
 16
0.0
 26
0.0
 36
1.0
 17
0.0
 27
0.0
 37
0.0
 40
210.0
 41
1.4142857143
 42
50.0
 43
0.0
 44
0.0
 50
0.0
 51
0.0
 71
     0
 72
  2000
 73
     1
 74
     3
 75
     0
 76
     0
 77
     0
 78
     0
281
     0
 65
     1
110
0.0
120
0.0
130
0.0
111
1.0
121
0.0
131
0.0
112
0.0
122
1.0
132
0.0
 79
     0
146
0.0
  0
ENDTAB
  0
TABLE
  2
LTYPE
  5
5
330
0
100
AcDbSymbolTable
 70
     6
  0
LTYPE
  5
14
330
5
100
AcDbSymbolTableRecord
100
AcDbLinetypeTableRecord
  2
ByBlock
 70
     0
  3

 72
    65
 73
     0
 40
0.0
  0
LTYPE
  5
15
330
5
100
AcDbSymbolTableRecord
100
AcDbLinetypeTableRecord
  2
ByLayer
 70
     0
  3

 72
    65
 73
     0
 40
0.0
  0
LTYPE
  5
16
330
5
100
AcDbSymbolTableRecord
100
AcDbLinetypeTableRecord
  2
Continuous
 70
     0
  3
Solid line
 72
    65
 73
     0
 40
0.0
  0
LTYPE
  5
3F
330
5
100
AcDbSymbolTableRecord
100
AcDbLinetypeTableRecord
  2
HIDDEN
 70
     0
  3
Hidden __ __ __ __ __ __ __ __ __ __ __ __ __ __
 72
    65
 73
     2
 40
1.905
 49
1.27
 74
     0
 49
-0.635
 74
     0
  0
LTYPE
  5
40
330
5
100
AcDbSymbolTableRecord
100
AcDbLinetypeTableRecord
  2
PHANTOM
 70
     0
  3
Phantom ______  __  __  ______  __  __  ______
 72
    65
 73
     6
 40
12.7
 49
6.35
 74
     0
 49
-1.27
 74
     0
 49
1.27
 74
     0
 49
-1.27
 74
     0
 49
1.27
 74
     0
 49
-1.27
 74
     0
  0
LTYPE
  5
41
330
5
100
AcDbSymbolTableRecord
100
AcDbLinetypeTableRecord
  2
CENTER
 70
     0
  3
Center ____ _ ____ _ ____ _ ____ _ ____ _ ____
 72
    65
 73
     4
 40
10.16
 49
6.35
 74
     0
 49
-1.27
 74
     0
 49
1.27
 74
     0
 49
-1.27
 74
     0
  0
LTYPE
  5
42
330
5
100
AcDbSymbolTableRecord
100
AcDbLinetypeTableRecord
  2
CENTERX2
 70
     0
  3
Center (2x) ________  __  ________  __  _____
 72
    65
 73
     4
 40
20.32
 49
12.7
 74
     0
 49
-2.54
 74
     0
 49
2.54
 74
     0
 49
-2.54
 74
     0
  0
LTYPE
  5
43
330
5
100
AcDbSymbolTableRecord
100
AcDbLinetypeTableRecord
  2
DOT2
 70
     0
  3
Dot (.5x) ........................................
 72
    65
 73
     2
 40
0.635
 49
0.0
 74
     0
 49
-0.635
 74
     0
  0
ENDTAB
  0
TABLE
  2
LAYER
  5
2
330
0
100
AcDbSymbolTable
 70
     3
  0
LAYER
  5
10
330
2
100
AcDbSymbolTableRecord
100
AcDbLayerTableRecord
  2
0
 70
     0
 62
     7
  6
Continuous
370
    -3
390
F
  0
LAYER
  5
44
330
2
100
AcDbSymbolTableRecord
100
AcDbLayerTableRecord
  2
FORMAT
 70
     0
 62
     7
  6
Continuous
370
    -3
390
F
  0
LAYER
  5
45
330
2
100
AcDbSymbolTableRecord
100
AcDbLayerTableRecord
  2
PROTOTYPE
 70
     0
 62
     7
  6
Continuous
370
    -3
390
F
  0
ENDTAB
  0
TABLE
  2
STYLE
  5
3
330
0
100
AcDbSymbolTable
 70
     1
  0
STYLE
  5
11
330
3
100
AcDbSymbolTableRecord
100
AcDbTextStyleTableRecord
  2
Standard
 70
     0
 40
0.0
 41
1.0
 50
0.0
 71
     0
 42
2.5
  3
txt
  4

  0
ENDTAB
  0
TABLE
  2
VIEW
  5
6
330
0
100
AcDbSymbolTable
 70
     0
  0
ENDTAB
  0
TABLE
  2
UCS
  5
7
330
0
100
AcDbSymbolTable
 70
     0
  0
ENDTAB
  0
TABLE
  2
APPID
  5
9
330
0
100
AcDbSymbolTable
 70
     1
  0
APPID
  5
12
330
9
100
AcDbSymbolTableRecord
100
AcDbRegAppTableRecord
  2
ACAD
 70
     0
  0
ENDTAB
  0
TABLE
  2
DIMSTYLE
  5
A
330
0
100
AcDbSymbolTable
 70
     1
100
AcDbDimStyleTable
  0
DIMSTYLE
105
27
330
A
100
AcDbSymbolTableRecord
100
AcDbDimStyleTableRecord
  2
ISO-25
 70
     0
 41
2.5
 42
0.625
 43
3.75
 44
1.25
 73
     0
 74
     0
 77
     1
 78
     8
140
2.5
141
2.5
143
0.0393700787
147
0.625
171
     3
172
     1
178
     0
271
     2
272
     2
274
     3
278
    44
283
     0
284
     8
340
11
  0
ENDTAB
  0
TABLE
  2
BLOCK_RECORD
  5
1
330
0
100
AcDbSymbolTable
 70
     2
  0
BLOCK_RECORD
  5
1F
330
1
100
AcDbSymbolTableRecord
100
AcDbBlockTableRecord
  2
*Model_Space
340
22
  0
BLOCK_RECORD
  5
1B
330
1
100
AcDbSymbolTableRecord
100
AcDbBlockTableRecord
  2
*Paper_Space
340
1E
  0
BLOCK_RECORD
  5
23
330
1
100
AcDbSymbolTableRecord
100
AcDbBlockTableRecord
  2
*Paper_Space0
340
26
  0
BLOCK_RECORD
  5
CB
330
1
100
AcDbSymbolTableRecord
100
AcDbBlockTableRecord
  2
SW_CENTERMARKSYMBOL_0
340
0
102
{BLKREFS
331
D6
102
}
  0
ENDTAB
  0
ENDSEC
  0
SECTION
  2
BLOCKS
  0
BLOCK
  5
20
330
1F
100
AcDbEntity
  8
0
100
AcDbBlockBegin
  2
*Model_Space
 70
     0
 10
0.0
 20
0.0
 30
0.0
  3
*Model_Space
  1

  0
ENDBLK
  5
21
330
1F
100
AcDbEntity
  8
0
100
AcDbBlockEnd
  0
BLOCK
  5
1C
330
1B
100
AcDbEntity
 67
     1
  8
0
100
AcDbBlockBegin
  2
*Paper_Space
 70
     0
 10
0.0
 20
0.0
 30
0.0
  3
*Paper_Space
  1

  0
ENDBLK
  5
1D
330
1B
100
AcDbEntity
 67
     1
  8
0
100
AcDbBlockEnd
  0
BLOCK
  5
24
330
23
100
AcDbEntity
  8
0
100
AcDbBlockBegin
  2
*Paper_Space0
 70
     0
 10
0.0
 20
0.0
 30
0.0
  3
*Paper_Space0
  1

  0
ENDBLK
  5
25
330
23
100
AcDbEntity
  8
0
100
AcDbBlockEnd
  0
BLOCK
  5
CC
330
CB
100
AcDbEntity
  8
0
100
AcDbBlockBegin
  2
SW_CENTERMARKSYMBOL_0
 70
     0
 10
0.0
 20
0.0
 30
0.0
  3
SW_CENTERMARKSYMBOL_0
  1

  0
LINE
  5
CE
330
CB
100
AcDbEntity
  8
FORMAT
 62
     0
100
AcDbLine
 10
0.0
 20
0.0
 30
0.0
 11
0.0
 21
2.5
 31
0.0
  0
LINE
  5
CF
330
CB
100
AcDbEntity
  8
FORMAT
 62
     0
100
AcDbLine
 10
0.0
 20
0.0
 30
0.0
 11
-2.5
 21
0.0
 31
0.0
  0
LINE
  5
D0
330
CB
100
AcDbEntity
  8
FORMAT
 62
     0
100
AcDbLine
 10
0.0
 20
0.0
 30
0.0
 11
0.0
 21
-2.5
 31
0.0
  0
LINE
  5
D1
330
CB
100
AcDbEntity
  8
FORMAT
 62
     0
100
AcDbLine
 10
0.0
 20
0.0
 30
0.0
 11
2.5
 21
0.0
 31
0.0
  0
LINE
  5
D2
330
CB
100
AcDbEntity
  8
FORMAT
 62
     0
100
AcDbLine
 10
0.0
 20
5.0
 30
0.0
 11
0.0
 21
333.801740767
 31
0.0
  0
LINE
  5
D3
330
CB
100
AcDbEntity
  8
FORMAT
 62
     0
100
AcDbLine
 10
-5.0
 20
0.0
 30
0.0
 11
-333.6036762116
 21
0.0
 31
0.0
  0
LINE
  5
D4
330
CB
100
AcDbEntity
  8
FORMAT
 62
     0
100
AcDbLine
 10
0.0
 20
-5.0
 30
0.0
 11
0.0
 21
-339.795926402
 31
0.0
  0
LINE
  5
D5
330
CB
100
AcDbEntity
  8
FORMAT
 62
     0
100
AcDbLine
 10
5.0
 20
0.0
 30
0.0
 11
334.5979651227
 21
0.0
 31
0.0
  0
ENDBLK
  5
CD
330
CB
100
AcDbEntity
  8
0
100
AcDbBlockEnd
  0
ENDSEC
  0
SECTION
  2
ENTITIES
  0
LINE
  5
46
330
1F
100
AcDbEntity
  8
0
  6
Continuous
 62
     7
370
    15
100
AcDbLine
 10
-227.1205911326
 20
574.7464647248
 30
0.0
 11
-227.1205911326
 21
812.5700888887
 31
0.0
  0
LINE
  5
47
330
1F
100
AcDbEntity
  8
0
  6
Continuous
 62
     7
370
    15
100
AcDbLine
 10
-258.2601083356
 20
812.5711617723
 30
0.0
 11
-258.2601083356
 21
574.7469601885
 31
0.0
  0
LINE
  5
48
330
1F
100
AcDbEntity
  8
0
  6
Continuous
 62
     7
370
    15
100
AcDbLine
 10
-276.0551448825
 20
564.4724940613
 30
0.0
 11
-482.0164393547
 21
683.3843080059
 31
0.0
  0
LINE
  5
49
330
1F
100
AcDbEntity
  8
0
  6
Continuous
 62
     7
370
    15
100
AcDbLine
 10
-497.5871395233
 20
656.4172295585
 30
0.0
 11
-291.6253346863
 21
537.5051296979
 31
0.0
  0
LINE
  5
4A
330
1F
100
AcDbEntity
  8
0
  6
Continuous
 62
     7
370
    15
100
AcDbLine
 10
-193.7557969156
 20
537.5048810348
 30
0.0
 11
12.2054863808
 21
656.4166931167
 31
0.0
  0
LINE
  5
4B
330
1F
100
AcDbEntity
  8
0
  6
Continuous
 62
     7
370
    15
100
AcDbLine
 10
-3.3633362415
 20
683.3848444477
 30
0.0
 11
-209.3251261773
 21
564.4727436557
 31
0.0
  0
LINE
  5
4C
330
1F
100
AcDbEntity
  8
0
  6
Continuous
 62
     7
370
    15
100
AcDbLine
 10
12.2064400551
 20
398.0445949093
 30
0.0
 11
-193.7553647819
 21
516.9566947699
 31
0.0
  0
LINE
  5
4D
330
1F
100
AcDbEntity
  8
0
  6
Continuous
 62
     7
370
    15
100
AcDbLine
 10
-482.0173632267
 20
371.0769800201
 30
0.0
 11
-276.0555732909
 21
489.989080812
 31
0.0
  0
LINE
  5
4E
330
1F
100
AcDbEntity
  8
0
  6
Continuous
 62
     7
370
    15
100
AcDbLine
 10
-209.3255545857
 20
489.9893304065
 30
0.0
 11
-3.3642601135
 21
371.0775164619
 31
0.0
  0
LINE
  5
4F
330
1F
100
AcDbEntity
  8
0
  6
Continuous
 62
     7
370
    15
100
AcDbLine
 10
-291.6249025526
 20
516.956943433
 30
0.0
 11
-497.586185849
 21
398.0451313511
 31
0.0
  0
LINE
  5
50
330
1F
100
AcDbEntity
  8
0
  6
Continuous
 62
     7
370
    15
100
AcDbLine
 10
-227.1205911326
 20
241.8917355791
 30
0.0
 11
-227.1205911326
 21
479.7148642793
 31
0.0
  0
LINE
  5
51
330
1F
100
AcDbEntity
  8
0
  6
Continuous
 62
     7
370
    15
100
AcDbLine
 10
-258.2601083356
 20
479.7153597429
 30
0.0
 11
-258.2601083356
 21
241.8906626955
 31
0.0
  0
ARC
  5
52
330
1F
100
AcDbEntity
  8
0
  6
Continuous
 62
     7
370
    15
100
AcDbCircle
 10
-242.6903497341
 20
527.2309122339
 30
0.0
 40
284.0114159057248
100
AcDbArc
 50
33.1425811331
 51
86.8574188669
  0
ARC
  5
53
330
1F
100
AcDbEntity
  8
0
  6
Continuous
 62
     7
370
    15
100
AcDbCircle
 10
-242.6903497341
 20
527.2309122339
 30
0.0
 40
284.0114159057248
100
AcDbArc
 50
93.1425811331
 51
146.8574188669
  0
ARC
  5
54
330
1F
100
AcDbEntity
  8
0
  6
Continuous
 62
     7
370
    15
100
AcDbCircle
 10
-242.6903497341
 20
527.2309122339
 30
0.0
 40
284.0114159057248
100
AcDbArc
 50
153.1425811331
 51
206.8574188669
  0
ARC
  5
55
330
1F
100
AcDbEntity
  8
0
  6
Continuous
 62
     7
370
    15
100
AcDbCircle
 10
-242.6903497341
 20
527.2309122339
 30
0.0
 40
284.0114159057248
100
AcDbArc
 50
333.1425811331
 51
26.8574188669
  0
ARC
  5
56
330
1F
100
AcDbEntity
  8
0
  6
Continuous
 62
     7
370
    15
100
AcDbCircle
 10
-242.6903497341
 20
527.2309122339
 30
0.0
 40
284.0114159057248
100
AcDbArc
 50
213.1425811331
 51
266.8574188669
  0
ARC
  5
57
330
1F
100
AcDbEntity
  8
0
  6
Continuous
 62
     7
370
    15
100
AcDbCircle
 10
-242.6903497341
 20
527.2309122339
 30
0.0
 40
284.0114159057248
100
AcDbArc
 50
273.1425811331
 51
326.8574188669
  0
CIRCLE
  5
58
330
1F
100
AcDbEntity
  8
0
  6
Continuous
 62
     7
370
    15
100
AcDbCircle
 10
-242.6903497341
 20
527.2309122339
 30
0.0
 40
320.0114159057247
  0
SPLINE
  5
59
330
1F
100
AcDbEntity
  8
0
  6
Continuous
 62
     7
370
    15
100
AcDbSpline
210
0.0
220
0.0
230
1.0
 70
     8
 71
     3
 72
     9
 73
     5
 74
     0
 42
0.00000001
 43
0.00000001
 12
1.0
 22
0.0
 32
0.0
 13
1.0
 23
0.0
 33
0.0
 40
0.0
 40
0.0
 40
0.0
 40
0.0
 40
0.5005566959759239
 40
1.0
 40
1.0
 40
1.0
 40
1.0
 10
-260.6903497340961
 20
823.234936186105
 30
0.0
 10
-260.0546231168472
 20
823.2349366567189
 30
0.0
 10
-258.7845839337543
 20
823.2349375968997
 30
0.0
 10
-257.5144792504846
 20
823.2349366560207
 30
0.0
 10
-256.8801339710158
 20
823.2349361861048
 30
0.0
  0
SPLINE
  5
5A
330
1F
100
AcDbEntity
  8
0
  6
Continuous
 62
     7
370
    15
100
AcDbSpline
210
0.0
220
0.0
230
1.0
 70
     8
 71
     3
 72
    21
 73
    17
 74
     0
 42
0.00000001
 43
0.00000001
 12
1.0
 22
0.0
 32
0.0
 13
1.0
 23
0.0
 33
0.0
 40
0.0
 40
0.0
 40
0.0
 40
0.0
 40
0.0408272719745132
 40
0.082618247719504
 40
0.1253724026539963
 40
0.1861363527378183
 40
0.2499274286132217
 40
0.374095259852624
 40
0.4983168478776783
 40
0.5606109880112492
 40
0.6230767659697467
 40
0.7484034760183008
 40
0.8145266312663356
 40
0.8741143847476031
 40
0.9392152508424482
 40
1.0
 40
1.0
 40
1.0
 40
1.0
 10
-257.3178299977136
 20
832.0206504718193
 30
0.0
 10
-257.3636199050972
 20
831.901363115856
 30
0.0
 10
-257.4562805637283
 20
831.6599726959688
 30
0.0
 10
-257.5974278741511
 20
831.2922502039451
 30
0.0
 10
-257.7614078996929
 20
830.8650376372442
 30
0.0
 10
-257.9507600747277
 20
830.3717689106383
 30
0.0
 10
-258.2329095397702
 20
829.6367461996094
 30
0.0
 10
-258.587936747598
 20
828.71192657873
 30
0.0
 10
-258.94111128432
 20
827.7918584137685
 30
0.0
 10
-259.223317440013
 20
827.0566819947629
 30
0.0
 10
-259.5059928940297
 20
826.3202504385794
 30
0.0
 10
-259.7915211817942
 20
825.576394650833
 30
0.0
 10
-260.0714513545012
 20
824.8471115674585
 30
0.0
 10
-260.2828792224843
 20
824.2963816427557
 30
0.0
 10
-260.487041221657
 20
823.7645393690386
 30
0.0
 10
-260.6241471691133
 20
823.4073888232948
 30
0.0
 10
-260.6903497340961
 20
823.2349361861051
 30
0.0
  0
SPLINE
  5
5B
330
1F
100
AcDbEntity
  8
0
  6
Continuous
 62
     7
370
    15
100
AcDbSpline
210
0.0
220
0.0
230
1.0
 70
     8
 71
     3
 72
     9
 73
     5
 74
     0
 42
0.00000001
 43
0.00000001
 12
1.0
 22
0.0
 32
0.0
 13
1.0
 23
0.0
 33
0.0
 40
0.0
 40
0.0
 40
0.0
 40
0.0
 40
0.499746078219883
 40
1.0
 40
1.0
 40
1.0
 40
1.0
 10
-260.6903497340875
 20
832.0206504718193
 30
0.0
 10
-260.1285544742815
 20
832.0206507651976
 30
0.0
 10
-259.004393056533
 20
832.0206513522523
 30
0.0
 10
-257.8802079873752
 20
832.0206507653965
 30
0.0
 10
-257.3178299977222
 20
832.0206504718193
 30
0.0
  0
SPLINE
  5
5C
330
1F
100
AcDbEntity
  8
0
  6
Continuous
 62
     7
370
    15
100
AcDbSpline
210
0.0
220
0.0
230
1.0
 70
     8
 71
     3
 72
    15
 73
    11
 74
     0
 42
0.00000001
 43
0.00000001
 12
1.0
 22
0.0
 32
0.0
 13
1.0
 23
0.0
 33
0.0
 40
0.0
 40
0.0
 40
0.0
 40
0.0
 40
0.0977098769148051
 40
0.1967231895646041
 40
0.2970399399335558
 40
0.3986601279883819
 40
0.5015837517631373
 40
0.6628683719517958
 40
0.8290071563267831
 40
1.0
 40
1.0
 40
1.0
 40
1.0
 10
-260.6903497340962
 20
835.4492219003906
 30
0.0
 10
-260.6903498621493
 20
835.3413513927503
 30
0.0
 10
-260.6903501199637
 20
835.1241714003789
 30
0.0
 10
-260.6903508340101
 20
834.7926821552893
 30
0.0
 10
-260.6903508174222
 20
834.4543339218486
 30
0.0
 10
-260.6903501976428
 20
834.1089027798362
 30
0.0
 10
-260.690349328074
 20
833.6914261666515
 30
0.0
 10
-260.6903511741555
 20
833.1959658124055
 30
0.0
 10
-260.6903509938463
 20
832.6170082313073
 30
0.0
 10
-260.6903501580243
 20
832.2213353725012
 30
0.0
 10
-260.6903497340962
 20
832.0206504718193
 30
0.0
  0
SPLINE
  5
5D
330
1F
100
AcDbEntity
  8
0
  6
Continuous
 62
     7
370
    15
100
AcDbSpline
210
0.0
220
0.0
230
1.0
 70
     8
 71
     3
 72
    12
 73
     8
 74
     0
 42
0.00000001
 43
0.00000001
 12
1.0
 22
0.0
 32
0.0
 13
1.0
 23
0.0
 33
0.0
 40
0.0
 40
0.0
 40
0.0
 40
0.0
 40
0.2486466723414451
 40
0.4967740111808877
 40
0.7475576573338872
 40
0.8739336726421404
 40
1.0
 40
1.0
 40
1.0
 40
1.0
 10
-250.9371132217587
 20
835.4492219003907
 30
0.0
 10
-251.7455619965302
 20
835.4492218814207
 30
0.0
 10
-253.3607709872461
 20
835.4492218435204
 30
0.0
 10
-255.7912393204534
 20
835.4492180782944
 30
0.0
 10
-257.8240561947284
 20
835.4492342277831
 30
0.0
 10
-259.4599561594196
 20
835.449225808369
 30
0.0
 10
-260.2805541033796
 20
835.4492232019843
 30
0.0
 10
-260.6903497340962
 20
835.4492219003906
 30
0.0
  0
SPLINE
  5
5E
330
1F
100
AcDbEntity
  8
0
  6
Continuous
 62
     7
370
    15
100
AcDbSpline
210
0.0
220
0.0
230
1.0
 70
     8
 71
     3
 72
    24
 73
    20
 74
     0
 42
0.00000001
 43
0.00000001
 12
1.0
 22
0.0
 32
0.0
 13
1.0
 23
0.0
 33
0.0
 40
0.0
 40
0.0
 40
0.0
 40
0.0
 40
0.0309786155317222
 40
0.0629533285566308
 40
0.1255847453842922
 40
0.1879994789284253
 40
0.2503002761222045
 40
0.312590068255969
 40
0.3541627191107419
 40
0.3749741013757299
 40
0.437546086465026
 40
0.5004063340824236
 40
0.5632338885636597
 40
0.6257180975254661
 40
0.7500874718523607
 40
0.8135347770417128
 40
0.8745294581288382
 40
0.9380622204566463
 40
1.0
 40
1.0
 40
1.0
 40
1.0
 10
-245.9641540380766
 20
823.2349361861155
 30
0.0
 10
-246.0137080329685
 20
823.356655177283
 30
0.0
 10
-246.1144093996429
 20
823.6040069556313
 30
0.0
 10
-246.3171067157745
 20
824.101989598286
 30
0.0
 10
-246.5729552415317
 20
824.7305575522435
 30
0.0
 10
-246.8816958461973
 20
825.488961974578
 30
0.0
 10
-247.1927008746302
 20
826.2527857792116
 30
0.0
 10
-247.4710404509379
 20
826.9363041513484
 30
0.0
 10
-247.6807744301717
 20
827.4513437189526
 30
0.0
 10
-247.8913836049147
 20
827.9685465572428
 30
0.0
 10
-248.1384382132366
 20
828.5752828360464
 30
0.0
 10
-248.4568920582945
 20
829.3574527784289
 30
0.0
 10
-248.7750855710214
 20
830.138970395411
 30
0.0
 10
-249.196334268402
 20
831.1734633589904
 30
0.0
 10
-249.6162909152179
 20
832.204610888705
 30
0.0
 10
-250.0284501450725
 20
833.2169186079539
 30
0.0
 10
-250.3366222230967
 20
833.9739117328073
 30
0.0
 10
-250.6389010691109
 20
834.7166763093456
 30
0.0
 10
-250.8385551725214
 20
835.2071182041346
 30
0.0
 10
-250.9371132217458
 20
835.4492219003909
 30
0.0
  0
SPLINE
  5
5F
330
1F
100
AcDbEntity
  8
0
  6
Continuous
 62
     7
370
    15
100
AcDbSpline
210
0.0
220
0.0
230
1.0
 70
     8
 71
     3
 72
     9
 73
     5
 74
     0
 42
0.00000001
 43
0.00000001
 12
1.0
 22
0.0
 32
0.0
 13
1.0
 23
0.0
 33
0.0
 40
0.0
 40
0.0
 40
0.0
 40
0.0
 40
0.5002097958485483
 40
1.0
 40
1.0
 40
1.0
 40
1.0
 10
-249.8048229515611
 20
823.2349361861051
 30
0.0
 10
-249.1644503924282
 20
823.2349368295448
 30
0.0
 10
-247.8842424387902
 20
823.2349381158849
 30
0.0
 10
-246.6040044459009
 20
823.2349368291849
 30
0.0
 10
-245.9641540380723
 20
823.234936186105
 30
0.0
  0
SPLINE
  5
60
330
1F
100
AcDbEntity
  8
0
  6
Continuous
 62
     7
370
    15
100
AcDbSpline
210
0.0
220
0.0
230
1.0
 70
     8
 71
     3
 72
    12
 73
     8
 74
     0
 42
0.00000001
 43
0.00000001
 12
1.0
 22
0.0
 32
0.0
 13
1.0
 23
0.0
 33
0.0
 40
0.0
 40
0.0
 40
0.0
 40
0.0
 40
0.1743757513034287
 40
0.341042679529408
 40
0.5000041634650736
 40
0.755967123249997
 40
1.0
 40
1.0
 40
1.0
 40
1.0
 10
-250.5725780536057
 20
825.1206504718278
 30
0.0
 10
-250.5273495417246
 20
825.00956145738
 30
0.0
 10
-250.4388919851679
 20
824.7922944642894
 30
0.0
 10
-250.3099511441281
 20
824.4756008672218
 30
0.0
 10
-250.16066362261
 20
824.1089428247345
 30
0.0
 10
-249.992529509806
 20
823.6959657271458
 30
0.0
 10
-249.8663885478554
 20
823.3861485830973
 30
0.0
 10
-249.8048229515614
 20
823.234936186105
 30
0.0
  0
SPLINE
  5
61
330
1F
100
AcDbEntity
  8
0
  6
Continuous
 62
     7
370
    15
100
AcDbSpline
210
0.0
220
0.0
230
1.0
 70
     8
 71
     3
 72
     9
 73
     5
 74
     0
 42
0.00000001
 43
0.00000001
 12
1.0
 22
0.0
 32
0.0
 13
1.0
 23
0.0
 33
0.0
 40
0.0
 40
0.0
 40
0.0
 40
0.0
 40
0.5003775810647867
 40
1.0
 40
1.0
 40
1.0
 40
1.0
 10
-256.1562760763619
 20
825.1206504718193
 30
0.0
 10
-255.2249687562093
 20
825.1206514167806
 30
0.0
 10
-253.3637596305509
 20
825.1206533052773
 30
0.0
 10
-251.5025033958443
 20
825.1206514158296
 30
0.0
 10
-250.572578053602
 20
825.1206504718193
 30
0.0
  0
SPLINE
  5
62
330
1F
100
AcDbEntity
  8
0
  6
Continuous
 62
     7
370
    15
100
AcDbSpline
210
0.0
220
0.0
230
1.0
 70
     8
 71
     3
 72
    12
 73
     8
 74
     0
 42
0.00000001
 43
0.00000001
 12
1.0
 22
0.0
 32
0.0
 13
1.0
 23
0.0
 33
0.0
 40
0.0
 40
0.0
 40
0.0
 40
0.0
 40
0.1610254176440225
 40
0.3276923848058971
 40
0.5000042761487876
 40
0.7406224317240095
 40
1.0
 40
1.0
 40
1.0
 40
1.0
 10
-256.8801339710104
 20
823.2349361861187
 30
0.0
 10
-256.841799804507
 20
823.3347991098084
 30
0.0
 10
-256.7637884282607
 20
823.5380236696101
 30
0.0
 10
-256.6439566078377
 20
823.8501997583744
 30
0.0
 10
-256.5043856651312
 20
824.2138060037345
 30
0.0
 10
-256.3415853921034
 20
824.637894183092
 30
0.0
 10
-256.2195717969278
 20
824.955756402541
 30
0.0
 10
-256.1562760763775
 20
825.1206504718192
 30
0.0
  0
SPLINE
  5
63
330
1F
100
AcDbEntity
  8
0
  6
Continuous
 62
     7
370
    15
100
AcDbSpline
210
0.0
220
0.0
230
1.0
 70
    24
 71
     3
 72
    17
 73
    13
 74
     0
 42
0.00000001
 43
0.00000001
 12
1.0
 22
0.0
 32
0.0
 13
1.0
 23
0.0
 33
0.0
 40
0.0
 40
0.0
 40
0.0
 40
0.0
 40
0.1005807623341695
 40
0.2008927451022019
 40
0.3009879219730372
 40
0.4009186048966235
 40
0.5007373644419397
 40
0.6004969481197996
 40
0.7002501973140624
 40
0.8000499634704438
 40
0.8999490242054698
 40
1.0
 40
1.0
 40
1.0
 40
1.0
 10
-255.273225788652
 20
828.3777933289622
 30
0.0
 10
-255.2180340597999
 20
828.5215726982564
 30
0.0
 10
-255.1077980896331
 20
828.8087472186738
 30
0.0
 10
-254.9425674233322
 20
829.2391878206063
 30
0.0
 10
-254.7777508537912
 20
829.668549663598
 30
0.0
 10
-254.6133376133256
 20
830.0968607984257
 30
0.0
 10
-254.4493304310709
 20
830.5241141154486
 30
0.0
 10
-254.2857299412201
 20
830.9503079625377
 30
0.0
 10
-254.1225317110542
 20
831.3754538873202
 30
0.0
 10
-253.9597536717888
 20
831.7995051773828
 30
0.0
 10
-253.7973292715152
 20
832.2226352063751
 30
0.0
 10
-253.6895491835459
 20
832.5034119349355
 30
0.0
 10
-253.6356181957865
 20
832.6439069613954
 30
0.0
  0
LINE
  5
64
330
1F
100
AcDbEntity
  8
0
  6
Continuous
 62
     7
370
    15
100
AcDbLine
 10
-255.2732255223
 20
828.3778069273
 30
0.0
 11
-251.8987001764
 21
828.3778069273
 31
0.0
  0
SPLINE
  5
65
330
1F
100
AcDbEntity
  8
0
  6
Continuous
 62
     7
370
    15
100
AcDbSpline
210
0.0
220
0.0
230
1.0
 70
    24
 71
     3
 72
    18
 73
    14
 74
     0
 42
0.00000001
 43
0.00000001
 12
1.0
 22
0.0
 32
0.0
 13
1.0
 23
0.0
 33
0.0
 40
0.0
 40
0.0
 40
0.0
 40
0.0
 40
0.0910509020245903
 40
0.1819426309116298
 40
0.2727186331706303
 40
0.3634225216079529
 40
0.4540980130851979
 40
0.5447888655296471
 40
0.6355388146482729
 40
0.7263915108021612
 40
0.817390456495503
 40
0.9085789449227057
 40
1.0
 40
1.0
 40
1.0
 40
1.0
 10
-253.6356181957865
 20
832.6439069613954
 30
0.0
 10
-253.5836007670931
 20
832.5161448558323
 30
0.0
 10
-253.479656845404
 20
832.2608439955435
 30
0.0
 10
-253.3230517964247
 20
831.8762000155945
 30
0.0
 10
-253.1661524781289
 20
831.4908332689027
 30
0.0
 10
-253.0088965216405
 20
831.1045905687558
 30
0.0
 10
-252.8513007630528
 20
830.7175132669618
 30
0.0
 10
-252.6933607753764
 20
830.3295904902126
 30
0.0
 10
-252.5350781050338
 20
829.9408260367394
 30
0.0
 10
-252.3764516530687
 20
829.5512172073513
 30
0.0
 10
-252.2174849346112
 20
829.1607726357013
 30
0.0
 10
-252.0581656047058
 20
828.7694620008461
 30
0.0
 10
-251.9519006486924
 20
828.5084603544973
 30
0.0
 10
-251.8987005025771
 20
828.3777933289509
 30
0.0
  0
SPLINE
  5
66
330
1F
100
AcDbEntity
  8
0
  6
Continuous
 62
     7
370
    15
100
AcDbSpline
210
0.0
220
0.0
230
1.0
 70
     8
 71
     3
 72
    27
 73
    23
 74
     0
 42
0.00000001
 43
0.00000001
 12
1.0
 22
0.0
 32
0.0
 13
1.0
 23
0.0
 33
0.0
 40
0.0
 40
0.0
 40
0.0
 40
0.0
 40
0.0207656087260826
 40
0.0416998640727298
 40
0.0628028393998038
 40
0.0937754091029011
 40
0.1252231695540252
 40
0.2495125029757285
 40
0.3743859750751804
 40
0.4370703290028561
 40
0.4996994462849962
 40
0.5621049220965917
 40
0.6243161901663263
 40
0.6864771153083129
 40
0.7175857079887277
 40
0.7487351859212492
 40
0.8112496350675098
 40
0.8740306405448379
 40
0.9063904199551254
 40
0.9369814056735791
 40
0.9692034056380199
 40
1.0
 40
1.0
 40
1.0
 40
1.0
 10
-250.0147407466118
 20
836.820650471808
 30
0.0
 10
-249.9791182259806
 20
836.7331547784236
 30
0.0
 10
-249.9075838785967
 20
836.5574528007352
 30
0.0
 10
-249.7988059852724
 20
836.2902535272683
 30
0.0
 10
-249.6714974367456
 20
835.9775334223121
 30
0.0
 10
-249.5245686550275
 20
835.616633212683
 30
0.0
 10
-249.1930006054345
 20
834.8022432979318
 30
0.0
 10
-248.6833424470085
 20
833.550561036842
 30
0.0
 10
-248.1031727362087
 20
832.1256472606485
 30
0.0
 10
-247.6329692122868
 20
830.9706998748834
 30
0.0
 10
-247.278464347512
 20
830.0999686743531
 30
0.0
 10
-246.9240206446084
 20
829.2294053082512
 30
0.0
 10
-246.57044547379
 20
828.360991238392
 30
0.0
 10
-246.2767666354703
 20
827.6396793924583
 30
0.0
 10
-246.0425892882408
 20
827.0644934433041
 30
0.0
 10
-245.8084110671652
 20
826.4893145591774
 30
0.0
 10
-245.5162768259784
 20
825.7717679687162
 30
0.0
 10
-245.2246200819087
 20
825.0553846937727
 30
0.0
 10
-244.9941029521362
 20
824.4891967793187
 30
0.0
 10
-244.8207741894318
 20
824.0635026047023
 30
0.0
 10
-244.6514176525182
 20
823.6475610198105
 30
0.0
 10
-244.5385644934601
 20
823.370388022902
 30
0.0
 10
-244.4834142160042
 20
823.234936186105
 30
0.0
  0
SPLINE
  5
67
330
1F
100
AcDbEntity
  8
0
  6
Continuous
 62
     7
370
    15
100
AcDbSpline
210
0.0
220
0.0
230
1.0
 70
     8
 71
     3
 72
    12
 73
     8
 74
     0
 42
0.00000001
 43
0.00000001
 12
1.0
 22
0.0
 32
0.0
 13
1.0
 23
0.0
 33
0.0
 40
0.0
 40
0.0
 40
0.0
 40
0.0
 40
0.1662322202712857
 40
0.3329588916405654
 40
0.5001923881985297
 40
0.7497383858952915
 40
0.9999999999999999
 40
0.9999999999999999
 40
0.9999999999999999
 40
0.9999999999999999
 10
-260.6903497340925
 20
836.8206504718192
 30
0.0
 10
-260.0989351038349
 20
836.8206497952659
 30
0.0
 10
-258.9143467041299
 20
836.820648440147
 30
0.0
 10
-257.1345558588648
 20
836.8206479878893
 30
0.0
 10
-255.0581621280956
 20
836.8206521299849
 30
0.0
 10
-252.6843103976986
 20
836.8206461902621
 30
0.0
 10
-250.9054462798793
 20
836.8206490432719
 30
0.0
 10
-250.0147407466165
 20
836.8206504718192
 30
0.0
  0
SPLINE
  5
68
330
1F
100
AcDbEntity
  8
0
  6
Continuous
 62
     7
370
    15
100
AcDbSpline
210
0.0
220
0.0
230
1.0
 70
     8
 71
     3
 72
    16
 73
    12
 74
     0
 42
0.00000001
 43
0.00000001
 12
1.0
 22
0.0
 32
0.0
 13
1.0
 23
0.0
 33
0.0
 40
0.0
 40
0.0
 40
0.0
 40
0.0
 40
0.0823719553401702
 40
0.1652654177087663
 40
0.2486804363067192
 40
0.3326170583248994
 40
0.4170753289752929
 40
0.5020552915225471
 40
0.6653451214516879
 40
0.8313266228013608
 40
1.0
 40
1.0
 40
1.0
 40
1.0
 10
-260.6903497340961
 20
840.3777933289621
 30
0.0
 10
-260.6903498415795
 20
840.2892700903994
 30
0.0
 10
-260.6903500572267
 20
840.1116631617116
 30
0.0
 10
-260.6903507667591
 20
839.837774881363
 30
0.0
 10
-260.6903510333241
 20
839.5573972986165
 30
0.0
 10
-260.690350763608
 20
839.2700810525718
 30
0.0
 10
-260.6903501125536
 20
838.9759888291794
 30
0.0
 10
-260.6903493607019
 20
838.5833890222945
 30
0.0
 10
-260.6903512222408
 20
838.0829216903933
 30
0.0
 10
-260.6903510577872
 20
837.4653754722588
 30
0.0
 10
-260.6903501776862
 20
837.0367081676607
 30
0.0
 10
-260.6903497340961
 20
836.8206504718192
 30
0.0
  0
SPLINE
  5
69
330
1F
100
AcDbEntity
  8
0
  6
Continuous
 62
     7
370
    15
100
AcDbSpline
210
0.0
220
0.0
230
1.0
 70
     8
 71
     3
 72
    15
 73
    11
 74
     0
 42
0.00000001
 43
0.00000001
 12
1.0
 22
0.0
 32
0.0
 13
1.0
 23
0.0
 33
0.0
 40
0.0
 40
0.0
 40
0.0
 40
0.0
 40
0.1247666584653631
 40
0.2491746093851925
 40
0.3732332179369381
 40
0.4969518374018222
 40
0.6223265535595087
 40
0.7484673920279881
 40
0.8746148189651192
 40
1.0
 40
1.0
 40
1.0
 40
1.0
 10
-247.5760640198201
 20
840.3777933289622
 30
0.0
 10
-248.1217472266223
 20
840.3777917630109
 30
0.0
 10
-249.2115447861262
 20
840.3777886356103
 30
0.0
 10
-250.8437626709284
 20
840.3777805200598
 30
0.0
 10
-252.4712278727535
 20
840.3777890047123
 30
0.0
 10
-254.1027002413997
 20
840.3777898489365
 30
0.0
 10
-255.74301370141
 20
840.3778119716264
 30
0.0
 10
-257.3936158326043
 20
840.3777886677921
 30
0.0
 10
-259.0439213817947
 20
840.3777932732672
 30
0.0
 10
-260.1426501480352
 20
840.3777933104346
 30
0.0
 10
-260.6903497340811
 20
840.377793328962
 30
0.0
  0
SPLINE
  5
6A
330
1F
100
AcDbEntity
  8
0
  6
Continuous
 62
     7
370
    15
100
AcDbSpline
210
0.0
220
0.0
230
1.0
 70
     8
 71
     3
 72
    23
 73
    19
 74
     0
 42
0.00000001
 43
0.00000001
 12
1.0
 22
0.0
 32
0.0
 13
1.0
 23
0.0
 33
0.0
 40
0.0
 40
0.0
 40
0.0
 40
0.0
 40
0.0327568217288631
 40
0.0630303675277676
 40
0.0952662059960252
 40
0.1257846910188722
 40
0.1883384463560561
 40
0.2507772835271952
 40
0.3756153439660441
 40
0.5010073971063654
 40
0.6260845272969593
 40
0.6889961783235784
 40
0.7502241813530438
 40
0.8129428209157611
 40
0.8744764427995846
 40
0.916614682908785
 40
0.9584552263397325
 40
1.0
 40
1.0
 40
1.0
 40
1.0
 10
-242.6903497340961
 20
828.3777933289576
 30
0.0
 10
-242.7475863109588
 20
828.5183774057513
 30
0.0
 10
-242.8577203925113
 20
828.7888879608413
 30
0.0
 10
-243.0243224040718
 20
829.198077739292
 30
0.0
 10
-243.1870097974681
 20
829.5976540036969
 30
0.0
 10
-243.4060647542258
 20
830.1356367734692
 30
0.0
 10
-243.6775931885737
 20
830.8024661683176
 30
0.0
 10
-244.1121198993627
 20
831.8695775013409
 30
0.0
 10
-244.6514527513693
 20
833.1942121749615
 30
0.0
 10
-245.2857781574129
 20
834.7527730033564
 30
0.0
 10
-245.8008842437442
 20
836.0172041788812
 30
0.0
 10
-246.1986546816822
 20
836.9934825879363
 30
0.0
 10
-246.4903694210203
 20
837.7096181323456
 30
0.0
 10
-246.7726473577451
 20
838.4030370929081
 30
0.0
 10
-247.0188006550687
 20
839.0080056863278
 30
0.0
 10
-247.2283156629921
 20
839.5231310360141
 30
0.0
 10
-247.4052767125645
 20
839.9582076335947
 30
0.0
 10
-247.5192696960338
 20
840.2382625510664
 30
0.0
 10
-247.5760640198104
 20
840.3777933289621
 30
0.0
  0
SPLINE
  5
6B
330
1F
100
AcDbEntity
  8
0
  6
Continuous
 62
     7
370
    15
100
AcDbSpline
210
0.0
220
0.0
230
1.0
 70
     8
 71
     3
 72
    24
 73
    20
 74
     0
 42
0.00000001
 43
0.00000001
 12
1.0
 22
0.0
 32
0.0
 13
1.0
 23
0.0
 33
0.0
 40
0.0
 40
0.0
 40
0.0
 40
0.0
 40
0.0310416672614426
 40
0.0623077824223381
 40
0.0937991735175807
 40
0.1255166291133062
 40
0.1872438543037216
 40
0.2502222811590197
 40
0.3117058674679487
 40
0.3747948484654858
 40
0.4998006820084104
 40
0.6248646039520538
 40
0.7495670747047022
 40
0.8119594055732986
 40
0.8744534845569615
 40
0.904926103296442
 40
0.9371149114073228
 40
0.9672997323697258
 40
1.0
 40
1.0
 40
1.0
 40
1.0
 10
-237.8046354483838
 20
840.3777933289571
 30
0.0
 10
-237.8469965057497
 20
840.2737398516759
 30
0.0
 10
-237.932024913641
 20
840.0648805346775
 30
0.0
 10
-238.063082451505
 20
839.7428597955532
 30
0.0
 10
-238.1972584900421
 20
839.4131450991247
 30
0.0
 10
-238.3777867672504
 20
838.9695279720577
 30
0.0
 10
-238.6092487905669
 20
838.4008705040746
 30
0.0
 10
-238.8926715464418
 20
837.7046876139269
 30
0.0
 10
-239.1854664211894
 20
836.9857269562638
 30
0.0
 10
-239.5837809976143
 20
836.007724976435
 30
0.0
 10
-240.0985062693565
 20
834.7438561626976
 30
0.0
 10
-240.732080653534
 20
833.1873614306195
 30
0.0
 10
-241.2705517922713
 20
831.8648189652296
 30
0.0
 10
-241.7046541456965
 20
830.7987066529379
 30
0.0
 10
-241.9759113350459
 20
830.1325167168152
 30
0.0
 10
-242.1946967427973
 20
829.5951838836455
 30
0.0
 10
-242.3570654119465
 20
829.1963860254248
 30
0.0
 10
-242.5233312768609
 20
828.7880221670209
 30
0.0
 10
-242.6332118160446
 20
828.5181348344422
 30
0.0
 10
-242.6903497340961
 20
828.3777933289621
 30
0.0
  0
SPLINE
  5
6C
330
1F
100
AcDbEntity
  8
0
  6
Continuous
 62
     7
370
    15
100
AcDbSpline
210
0.0
220
0.0
230
1.0
 70
     8
 71
     3
 72
    13
 73
     9
 74
     0
 42
0.00000001
 43
0.00000001
 12
1.0
 22
0.0
 32
0.0
 13
1.0
 23
0.0
 33
0.0
 40
0.0
 40
0.0
 40
0.0
 40
0.0
 40
0.1240453451129658
 40
0.2485232703660296
 40
0.3728420887040854
 40
0.4980798236679392
 40
0.7483183373468587
 40
0.9999999999999999
 40
0.9999999999999999
 40
0.9999999999999999
 40
0.9999999999999999
 10
-224.6903497341042
 20
840.3777933289621
 30
0.0
 10
-225.2321950889164
 20
840.377786364188
 30
0.0
 10
-226.3177753619039
 20
840.3777724103512
 30
0.0
 10
-227.9469583715011
 20
840.377734780966
 30
0.0
 10
-229.5816891002997
 20
840.3777711194501
 30
0.0
 10
-231.7664976430038
 20
840.377808186992
 30
0.0
 10
-234.5087153577381
 20
840.3777708143745
 30
0.0
 10
-236.7038915203917
 20
840.3777858097278
 30
0.0
 10
-237.8046354483818
 20
840.3777933289621
 30
0.0
  0
SPLINE
  5
6D
330
1F
100
AcDbEntity
  8
0
  6
Continuous
 62
     7
370
    15
100
AcDbSpline
210
0.0
220
0.0
230
1.0
 70
     8
 71
     3
 72
    16
 73
    12
 74
     0
 42
0.00000001
 43
0.00000001
 12
1.0
 22
0.0
 32
0.0
 13
1.0
 23
0.0
 33
0.0
 40
0.0
 40
0.0
 40
0.0
 40
0.0
 40
0.085017090714074
 40
0.1693573795434089
 40
0.2530208914438674
 40
0.33600765322974
 40
0.4183176936208973
 40
0.4999510432899043
 40
0.6686978928731968
 40
0.8353807594448487
 40
1.0
 40
1.0
 40
1.0
 40
1.0
 10
-224.690349734096
 20
836.8206504718052
 30
0.0
 10
-224.6903496025313
 20
836.9299134414641
 30
0.0
 10
-224.6903493404493
 20
837.1475695629232
 30
0.0
 10
-224.6903484543759
 20
837.467693667538
 30
0.0
 10
-224.6903481396039
 20
837.7814200075165
 30
0.0
 10
-224.6903484804314
 20
838.0883556633734
 30
0.0
 10
-224.6903493016941
 20
838.3885450117889
 30
0.0
 10
-224.6903501145138
 20
838.7871585355655
 30
0.0
 10
-224.6903485074376
 20
839.2749933521546
 30
0.0
 10
-224.690348678931
 20
839.8417465752334
 30
0.0
 10
-224.6903493838379
 20
840.1998546096161
 30
0.0
 10
-224.690349734096
 20
840.3777933289563
 30
0.0
  0
SPLINE
  5
6E
330
1F
100
AcDbEntity
  8
0
  6
Continuous
 62
     7
370
    15
100
AcDbSpline
210
0.0
220
0.0
230
1.0
 70
     8
 71
     3
 72
    13
 73
     9
 74
     0
 42
0.00000001
 43
0.00000001
 12
1.0
 22
0.0
 32
0.0
 13
1.0
 23
0.0
 33
0.0
 40
0.0
 40
0.0
 40
0.0
 40
0.0
 40
0.1649548038621391
 40
0.3296002237036555
 40
0.4939481870576614
 40
0.7828646916629327
 40
0.8915394102438494
 40
1.0
 40
1.0
 40
1.0
 40
1.0
 10
-235.3659587215756
 20
836.8206504718192
 30
0.0
 10
-234.7788655834926
 20
836.8206500371953
 30
0.0
 10
-233.6057804406751
 20
836.8206491687623
 30
0.0
 10
-231.8478574539701
 20
836.8206486552629
 30
0.0
 10
-229.6488811954852
 20
836.8206514048194
 30
0.0
 10
-227.6492744123494
 20
836.8206503341835
 30
0.0
 10
-225.8487290779451
 20
836.8206504281011
 30
0.0
 10
-225.0762222451875
 20
836.8206504572562
 30
0.0
 10
-224.6903497341102
 20
836.8206504718192
 30
0.0
  0
SPLINE
  5
6F
330
1F
100
AcDbEntity
  8
0
  6
Continuous
 62
     7
370
    15
100
AcDbSpline
210
0.0
220
0.0
230
1.0
 70
     8
 71
     3
 72
    28
 73
    24
 74
     0
 42
0.00000001
 43
0.00000001
 12
1.0
 22
0.0
 32
0.0
 13
1.0
 23
0.0
 33
0.0
 40
0.0
 40
0.0
 40
0.0
 40
0.0
 40
0.0203943263132877
 40
0.0413292957025696
 40
0.0628051823315182
 40
0.0931802494781595
 40
0.1252395332531202
 40
0.1874516392577653
 40
0.2495933414786893
 40
0.2807182128473986
 40
0.311922879365963
 40
0.3744965994818726
 40
0.4371770920304699
 40
0.4998240829101551
 40
0.5622506330473401
 40
0.6244564402872974
 40
0.6865869433777909
 40
0.7487884016377254
 40
0.8125022994452464
 40
0.8740141575142775
 40
0.9168988032632991
 40
0.958893971982684
 40
1.0
 40
1.0
 40
1.0
 40
1.0
 10
-240.8972852521837
 20
823.2349361861153
 30
0.0
 10
-240.8607927117947
 20
823.3245678614315
 30
0.0
 10
-240.7868402325851
 20
823.506207301566
 30
0.0
 10
-240.6736929518729
 20
823.7841317888738
 30
0.0
 10
-240.5419369636677
 20
824.1077703008777
 30
0.0
 10
-240.3891066994784
 20
824.4831518445089
 30
0.0
 10
-240.160601198907
 20
825.0444066714202
 30
0.0
 10
-239.8712399931557
 20
825.755070675688
 30
0.0
 10
-239.5809310985356
 20
826.4680874814433
 30
0.0
 10
-239.3473370152821
 20
827.0418205670192
 30
0.0
 10
-239.1122521109642
 20
827.6192046086929
 30
0.0
 10
-238.8167286854839
 20
828.3450572802074
 30
0.0
 10
-238.4610188117116
 20
829.2187527318024
 30
0.0
 10
-238.1055802044887
 20
830.0917568694742
 30
0.0
 10
-237.7518664909481
 20
830.9605168867863
 30
0.0
 10
-237.4007606285866
 20
831.8228473535977
 30
0.0
 10
-237.0525511033469
 20
832.6781166553086
 30
0.0
 10
-236.7048297101082
 20
833.532186743078
 30
0.0
 10
-236.3624632294748
 20
834.3731580965161
 30
0.0
 10
-236.0598524234508
 20
835.1164364562214
 30
0.0
 10
-235.8002617776984
 20
835.7540274353386
 30
0.0
 10
-235.5795458284557
 20
836.2960824697681
 30
0.0
 10
-235.4366447675519
 20
836.6470461824391
 30
0.0
 10
-235.3659587215757
 20
836.8206504718192
 30
0.0
  0
SPLINE
  5
70
330
1F
100
AcDbEntity
  8
0
  6
Continuous
 62
     7
370
    15
100
AcDbSpline
210
0.0
220
0.0
230
1.0
 70
     8
 71
     3
 72
    10
 73
     6
 74
     0
 42
0.00000001
 43
0.00000001
 12
1.0
 22
0.0
 32
0.0
 13
1.0
 23
0.0
 33
0.0
 40
0.0
 40
0.0
 40
0.0
 40
0.0
 40
0.4988298025874471
 40
0.5000000003804048
 40
1.0
 40
1.0
 40
1.0
 40
1.0
 10
-244.4834142159953
 20
823.234936186105
 30
0.0
 10
-243.887125078623
 20
823.2349361834911
 30
0.0
 10
-243.28943711498
 20
823.2349361808708
 30
0.0
 10
-242.0940600094167
 20
823.2349361913883
 30
0.0
 10
-241.4949732176638
 20
823.2349361887436
 30
0.0
 10
-240.8972852521881
 20
823.234936186105
 30
0.0
  0
SPLINE
  5
71
330
1F
100
AcDbEntity
  8
0
  6
Continuous
 62
     7
370
    15
100
AcDbSpline
210
0.0
220
0.0
230
1.0
 70
     8
 71
     3
 72
    25
 73
    21
 74
     0
 42
0.00000001
 43
0.00000001
 12
1.0
 22
0.0
 32
0.0
 13
1.0
 23
0.0
 33
0.0
 40
0.0
 40
0.0
 40
0.0
 40
0.0
 40
0.0314799405785512
 40
0.0629932528269767
 40
0.1257817842168939
 40
0.1884079881825225
 40
0.2508997813198315
 40
0.3132812127240864
 40
0.3755751726174187
 40
0.4378060989692372
 40
0.5000026664793262
 40
0.5622024565300512
 40
0.6244392348168869
 40
0.6867368168269372
 40
0.7491168484056231
 40
0.8116018756179885
 40
0.8742184639813497
 40
0.9370003407120688
 40
0.9684987650087673
 40
1.0
 40
1.0
 40
1.0
 40
1.0
 10
-229.6408847570195
 20
828.6670510625657
 30
0.0
 10
-229.5855988308434
 20
828.6793275949153
 30
0.0
 10
-229.4749683702586
 20
828.7038936738825
 30
0.0
 10
-229.2561801328698
 20
828.7617596309739
 30
0.0
 10
-228.9866239351749
 20
828.8462120448168
 30
0.0
 10
-228.6709099034709
 20
828.9675850964711
 30
0.0
 10
-228.3639958487132
 20
829.1079753220151
 30
0.0
 10
-228.0669136137717
 20
829.266843318496
 30
0.0
 10
-227.7806585790846
 20
829.4435361573697
 30
0.0
 10
-227.5062431001016
 20
829.6374373972151
 30
0.0
 10
-227.2446518649199
 20
829.8478975204198
 30
0.0
 10
-226.9969765247325
 20
830.074345858014
 30
0.0
 10
-226.7640070828924
 20
830.3157989817109
 30
0.0
 10
-226.5464462299537
 20
830.5711822192063
 30
0.0
 10
-226.3450217647641
 20
830.8394352537996
 30
0.0
 10
-226.1604848339747
 20
831.1195049812014
 30
0.0
 10
-225.9934835009323
 20
831.4102997888886
 30
0.0
 10
-225.8698764990093
 20
831.6606551496486
 30
0.0
 10
-225.7800818880308
 20
831.8649788536159
 30
0.0
 10
-225.7393086774773
 20
831.9687583890696
 30
0.0
 10
-225.7189211626635
 20
832.0206504718296
 30
0.0
  0
SPLINE
  5
72
330
1F
100
AcDbEntity
  8
0
  6
Continuous
 62
     7
370
    15
100
AcDbSpline
210
0.0
220
0.0
230
1.0
 70
     8
 71
     3
 72
    18
 73
    14
 74
     0
 42
0.00000001
 43
0.00000001
 12
1.0
 22
0.0
 32
0.0
 13
1.0
 23
0.0
 33
0.0
 40
0.0
 40
0.0
 40
0.0
 40
0.0
 40
0.061521105273801
 40
0.1254134408406173
 40
0.2504713864735987
 40
0.3752952058054081
 40
0.5000028259132784
 40
0.5623515391001731
 40
0.6247151200791063
 40
0.7495410440470339
 40
0.8745978916742567
 40
0.9389779524308439
 40
0.9999999999999999
 40
0.9999999999999999
 40
0.9999999999999999
 40
0.9999999999999999
 10
-225.5474925912466
 20
823.2349361861153
 30
0.0
 10
-225.6297330749444
 20
823.3440776106884
 30
0.0
 10
-225.7973838671568
 20
823.5665671373808
 30
0.0
 10
-226.1338024174375
 20
824.0130931898785
 30
0.0
 10
-226.5573828225947
 20
824.5753133092051
 30
0.0
 10
-227.0661682149429
 20
825.2505612180643
 30
0.0
 10
-227.4919310831757
 20
825.8155476683427
 30
0.0
 10
-227.8334598214277
 20
826.2687251133425
 30
0.0
 10
-228.1757673348136
 20
826.7229235244124
 30
0.0
 10
-228.6051173552177
 20
827.2926097879642
 30
0.0
 10
-229.0381848435061
 20
827.8672560366609
 30
0.0
 10
-229.3836348323334
 20
828.325672442199
 30
0.0
 10
-229.5566793756622
 20
828.5553079125908
 30
0.0
 10
-229.6408847570196
 20
828.6670510625657
 30
0.0
  0
SPLINE
  5
73
330
1F
100
AcDbEntity
  8
0
  6
Continuous
 62
     7
370
    15
100
AcDbSpline
210
0.0
220
0.0
230
1.0
 70
     8
 71
     3
 72
     9
 73
     5
 74
     0
 42
0.00000001
 43
0.00000001
 12
1.0
 22
0.0
 32
0.0
 13
1.0
 23
0.0
 33
0.0
 40
0.0
 40
0.0
 40
0.0
 40
0.0
 40
0.4993764427176872
 40
1.0
 40
1.0
 40
1.0
 40
1.0
 10
-230.0015180038144
 20
823.234936186105
 30
0.0
 10
-229.260084298485
 20
823.234936908683
 30
0.0
 10
-227.7753652731051
 20
823.2349383556436
 30
0.0
 10
-226.290733986961
 20
823.2349369098855
 30
0.0
 10
-225.5474925912389
 20
823.234936186105
 30
0.0
  0
SPLINE
  5
74
330
1F
100
AcDbEntity
  8
0
  6
Continuous
 62
     7
370
    15
100
AcDbSpline
210
0.0
220
0.0
230
1.0
 70
     8
 71
     3
 72
    17
 73
    13
 74
     0
 42
0.00000001
 43
0.00000001
 12
1.0
 22
0.0
 32
0.0
 13
1.0
 23
0.0
 33
0.0
 40
0.0
 40
0.0
 40
0.0
 40
0.0
 40
0.0600777018128229
 40
0.1253329796191535
 40
0.2503803169794314
 40
0.3128279255619202
 40
0.3752393915105243
 40
0.4999984091037581
 40
0.6247562549081214
 40
0.7496102999545756
 40
0.8791990057528009
 40
1.0
 40
1.0
 40
1.0
 40
1.0
 10
-233.6205337932448
 20
828.0375323488195
 30
0.0
 10
-233.5470899023003
 20
827.9400705516733
 30
0.0
 10
-233.3938726285174
 20
827.7367475704873
 30
0.0
 10
-233.0880991425275
 20
827.3309851611947
 30
0.0
 10
-232.7798785034406
 20
826.9219999852363
 30
0.0
 10
-232.4757931919272
 20
826.5185091188008
 30
0.0
 10
-232.1725450800814
 20
826.1161298107472
 30
0.0
 10
-231.7946170698325
 20
825.6146488315661
 30
0.0
 10
-231.3430306796672
 20
825.0153794534635
 30
0.0
 10
-230.8880776437135
 20
824.4115923360753
 30
0.0
 10
-230.4404226732281
 20
823.8174032109918
 30
0.0
 10
-230.1443559608601
 20
823.4244953447919
 30
0.0
 10
-230.0015180038232
 20
823.234936186105
 30
0.0
  0
SPLINE
  5
75
330
1F
100
AcDbEntity
  8
0
  6
Continuous
 62
     7
370
    15
100
AcDbSpline
210
0.0
220
0.0
230
1.0
 70
     8
 71
     3
 72
    17
 73
    13
 74
     0
 42
0.00000001
 43
0.00000001
 12
1.0
 22
0.0
 32
0.0
 13
1.0
 23
0.0
 33
0.0
 40
0.0
 40
0.0
 40
0.0
 40
0.0
 40
0.080380198511426
 40
0.1639156716415534
 40
0.2506084148194725
 40
0.3692614981955201
 40
0.5000040388465469
 40
0.6246273533708437
 40
0.7494018915358456
 40
0.8744761112174531
 40
0.9370482755747754
 40
1.0
 40
1.0
 40
1.0
 40
1.0
 10
-235.5758765166267
 20
823.2349361861154
 30
0.0
 10
-235.5251475981794
 20
823.3595365428681
 30
0.0
 10
-235.4216984291934
 20
823.6136283657564
 30
0.0
 10
-235.2620594090178
 20
824.0057887390847
 30
0.0
 10
-235.0768564486708
 20
824.4607663349017
 30
0.0
 10
-234.8596497888059
 20
824.9942668302269
 30
0.0
 10
-234.6159737893758
 20
825.5928012224873
 30
0.0
 10
-234.3665380643324
 20
826.2053822685766
 30
0.0
 10
-234.1194432679175
 20
826.8122029913745
 30
0.0
 10
-233.912387838549
 20
827.3207333122737
 30
0.0
 10
-233.7459142413173
 20
827.7295562149944
 30
0.0
 10
-233.6624114413959
 20
827.9346668991378
 30
0.0
 10
-233.6205337932417
 20
828.0375323488153
 30
0.0
  0
SPLINE
  5
76
330
1F
100
AcDbEntity
  8
0
  6
Continuous
 62
     7
370
    15
100
AcDbSpline
210
0.0
220
0.0
230
1.0
 70
     8
 71
     3
 72
     9
 73
     5
 74
     0
 42
0.00000001
 43
0.00000001
 12
1.0
 22
0.0
 32
0.0
 13
1.0
 23
0.0
 33
0.0
 40
0.0
 40
0.0
 40
0.0
 40
0.0
 40
0.4997900623817061
 40
0.9999999999999999
 40
0.9999999999999999
 40
0.9999999999999999
 40
0.9999999999999999
 10
-239.4165454301089
 20
823.2349361861051
 30
0.0
 10
-238.7766952037896
 20
823.2349368327745
 30
0.0
 10
-237.4964572109208
 20
823.2349381266569
 30
0.0
 10
-236.2162492572667
 20
823.2349368331367
 30
0.0
 10
-235.5758765166309
 20
823.234936186105
 30
0.0
  0
SPLINE
  5
77
330
1F
100
AcDbEntity
  8
0
  6
Continuous
 62
     7
370
    15
100
AcDbSpline
210
0.0
220
0.0
230
1.0
 70
     8
 71
     3
 72
     9
 73
     5
 74
     0
 42
0.00000001
 43
0.00000001
 12
1.0
 22
0.0
 32
0.0
 13
1.0
 23
0.0
 33
0.0
 40
0.0
 40
0.0
 40
0.0
 40
0.0
 40
0.4996127826723583
 40
1.0
 40
1.0
 40
1.0
 40
1.0
 10
-230.6029173329646
 20
835.4492219003906
 30
0.0
 10
-231.2425159833706
 20
835.4492220655194
 30
0.0
 10
-232.5227047066952
 20
835.4492223960328
 30
0.0
 10
-233.8029619080146
 20
835.44922206569
 30
0.0
 10
-234.4435862464464
 20
835.4492219003907
 30
0.0
  0
SPLINE
  5
78
330
1F
100
AcDbEntity
  8
0
  6
Continuous
 62
     7
370
    15
100
AcDbSpline
210
0.0
220
0.0
230
1.0
 70
     8
 71
     3
 72
    16
 73
    12
 74
     0
 42
0.00000001
 43
0.00000001
 12
1.0
 22
0.0
 32
0.0
 13
1.0
 23
0.0
 33
0.0
 40
0.0
 40
0.0
 40
0.0
 40
0.0
 40
0.0858473199781119
 40
0.1693597464364861
 40
0.2505362662061439
 40
0.3773346946213417
 40
0.4999983181666994
 40
0.6263251405181544
 40
0.7494569069879183
 40
0.8759120901825782
 40
1.0
 40
1.0
 40
1.0
 40
1.0
 10
-232.4164472000404
 20
830.9949380163273
 30
0.0
 10
-232.3632551283586
 20
831.1255849991472
 30
0.0
 10
-232.2583177141826
 20
831.383325600586
 30
0.0
 10
-232.1036100038916
 20
831.7632828017671
 30
0.0
 10
-231.9241589384498
 20
832.2039863114636
 30
0.0
 10
-231.7215559396028
 20
832.7015629691585
 30
0.0
 10
-231.4928296666944
 20
833.2632872694778
 30
0.0
 10
-231.2681072797698
 20
833.8152502961595
 30
0.0
 10
-231.0431939933358
 20
834.3677069540882
 30
0.0
 10
-230.8217121867723
 20
834.9118021550735
 30
0.0
 10
-230.6753880998818
 20
835.2712139608786
 30
0.0
 10
-230.6029173329574
 20
835.4492219003907
 30
0.0
  0
SPLINE
  5
79
330
1F
100
AcDbEntity
  8
0
  6
Continuous
 62
     7
370
    15
100
AcDbSpline
210
0.0
220
0.0
230
1.0
 70
     8
 71
     3
 72
    27
 73
    23
 74
     0
 42
0.00000001
 43
0.00000001
 12
1.0
 22
0.0
 32
0.0
 13
1.0
 23
0.0
 33
0.0
 40
0.0
 40
0.0
 40
0.0
 40
0.0
 40
0.0314810428652356
 40
0.0629356804447228
 40
0.0943330910347818
 40
0.1256821521042523
 40
0.1882423478682241
 40
0.2506465735815654
 40
0.3129183913329591
 40
0.375106455701728
 40
0.4372994440873883
 40
0.4996396849475687
 40
0.5620533955552673
 40
0.6244099671348218
 40
0.6867791679745966
 40
0.7491988170599168
 40
0.8116914269802172
 40
0.8742811748305594
 40
0.9057002615006731
 40
0.9370306143165671
 40
0.9685593484398155
 40
0.9999999999999999
 40
0.9999999999999999
 40
0.9999999999999999
 40
0.9999999999999999
 10
-228.1189211626675
 20
835.449221900401
 30
0.0
 10
-228.1198556821417
 20
835.3814097194337
 30
0.0
 10
-228.1217239372454
 20
835.2458422361741
 30
0.0
 10
-228.136822308166
 20
835.0417660454991
 30
0.0
 10
-228.1608368881523
 20
834.8378711002525
 30
0.0
 10
-228.2058061569861
 20
834.5670016757008
 30
0.0
 10
-228.285617859034
 20
834.2307237196121
 30
0.0
 10
-228.4189148915426
 20
833.8344694880489
 30
0.0
 10
-228.5891305370255
 20
833.4493367479877
 30
0.0
 10
-228.795781839295
 20
833.0791039697644
 30
0.0
 10
-229.0383913828567
 20
832.7275961462188
 30
0.0
 10
-229.3160470745764
 20
832.3991269670523
 30
0.0
 10
-229.6270289231174
 20
832.0986602223315
 30
0.0
 10
-229.9672603886987
 20
831.8293885164545
 30
0.0
 10
-230.332767427973
 20
831.5936621795532
 30
0.0
 10
-230.7200489473901
 20
831.3934694971792
 30
0.0
 10
-231.1255761068831
 20
831.2307620115109
 30
0.0
 10
-231.4758852266217
 20
831.1280902406215
 30
0.0
 10
-231.7614135100442
 20
831.0666424948388
 30
0.0
 10
-231.978272902683
 20
831.0313191253922
 30
0.0
 10
-232.1966814963261
 20
831.0060693897989
 30
0.0
 10
-232.3432603110496
 20
830.9986450123725
 30
0.0
 10
-232.4164472000403
 20
830.9949380163271
 30
0.0
  0
SPLINE
  5
7A
330
1F
100
AcDbEntity
  8
0
  6
Continuous
 62
     7
370
    15
100
AcDbSpline
210
0.0
220
0.0
230
1.0
 70
     8
 71
     3
 72
     9
 73
     5
 74
     0
 42
0.00000001
 43
0.00000001
 12
1.0
 22
0.0
 32
0.0
 13
1.0
 23
0.0
 33
0.0
 40
0.0
 40
0.0
 40
0.0
 40
0.0
 40
0.4994031584624462
 40
1.0
 40
1.0
 40
1.0
 40
1.0
 10
-224.690349734096
 20
835.4492219003909
 30
0.0
 10
-225.2610702289079
 20
835.4492220980178
 30
0.0
 10
-226.4038753656815
 20
835.4492224937441
 30
0.0
 10
-227.5467844732528
 20
835.4492220983325
 30
0.0
 10
-228.1189211626675
 20
835.4492219003907
 30
0.0
  0
SPLINE
  5
7B
330
1F
100
AcDbEntity
  8
0
  6
Continuous
 62
     7
370
    15
100
AcDbSpline
210
0.0
220
0.0
230
1.0
 70
     8
 71
     3
 72
    15
 73
    11
 74
     0
 42
0.00000001
 43
0.00000001
 12
1.0
 22
0.0
 32
0.0
 13
1.0
 23
0.0
 33
0.0
 40
0.0
 40
0.0
 40
0.0
 40
0.0
 40
0.1035375347403285
 40
0.2053189901033674
 40
0.3053443474548115
 40
0.4036135899903402
 40
0.5001267028371909
 40
0.670339434903663
 40
0.8369638722750156
 40
0.9999999999999999
 40
0.9999999999999999
 40
0.9999999999999999
 40
0.9999999999999999
 10
-224.690349734096
 20
832.0206504718193
 30
0.0
 10
-224.6903495629558
 20
832.1422611510015
 30
0.0
 10
-224.6903492235779
 20
832.3834198950075
 30
0.0
 10
-224.690348277018
 20
832.7399375517346
 30
0.0
 10
-224.6903483082073
 20
833.0886018417893
 30
0.0
 10
-224.6903491716062
 20
833.4292123106219
 30
0.0
 10
-224.6903501489844
 20
833.8484507006199
 30
0.0
 10
-224.6903486100237
 20
834.3417579294568
 30
0.0
 10
-224.690348799344
 20
834.9043415293822
 30
0.0
 10
-224.6903494247813
 20
835.2689178978266
 30
0.0
 10
-224.690349734096
 20
835.4492219003808
 30
0.0
  0
LINE
  5
7C
330
1F
100
AcDbEntity
  8
0
  6
Continuous
 62
     7
370
    15
100
AcDbLine
 10
-225.7189217868
 20
832.020664002
 30
0.0
 11
-224.690350509
 21
832.020664002
 31
0.0
  0
SPLINE
  5
7D
330
1F
100
AcDbEntity
  8
0
  6
Continuous
 62
     7
370
    15
100
AcDbSpline
210
0.0
220
0.0
230
1.0
 70
     8
 71
     3
 72
    26
 73
    22
 74
     0
 42
0.00000001
 43
0.00000001
 12
1.0
 22
0.0
 32
0.0
 13
1.0
 23
0.0
 33
0.0
 40
0.0
 40
0.0
 40
0.0
 40
0.0
 40
0.0307717687825259
 40
0.0619640964990338
 40
0.0935769878800286
 40
0.1256104240988032
 40
0.1867401826209535
 40
0.2503485672079323
 40
0.3750033460809778
 40
0.4375713506728607
 40
0.5004150454590756
 40
0.5632216245995214
 40
0.6256919835199605
 40
0.6568382051780691
 40
0.6879432757942363
 40
0.750085578175643
 40
0.812241968792109
 40
0.8745328726706793
 40
0.9370782635469734
 40
0.9690163263016188
 40
1.0
 40
1.0
 40
1.0
 40
1.0
 10
-234.4435862464521
 20
835.4492219003769
 30
0.0
 10
-234.4924352718945
 20
835.3292365468889
 30
0.0
 10
-234.5908009442676
 20
835.0876259955245
 30
0.0
 10
-234.7408050149548
 20
834.7191131795564
 30
0.0
 10
-234.893838453421
 20
834.3431339592232
 30
0.0
 10
-235.0965738394064
 20
833.8450510773223
 30
0.0
 10
-235.3536746898079
 20
833.2135278734698
 30
0.0
 10
-235.7667920071964
 20
832.198857821835
 30
0.0
 10
-236.187656076634
 20
831.1654158588409
 30
0.0
 10
-236.6095613056463
 20
830.1292768441384
 30
0.0
 10
-236.927840381982
 20
829.3475466748754
 30
0.0
 10
-237.2460602481457
 20
828.5659523527264
 30
0.0
 10
-237.5103078596638
 20
827.9170061859605
 30
0.0
 10
-237.7204679529545
 20
827.4009273236076
 30
0.0
 10
-237.9296337981099
 20
826.8873020842356
 30
0.0
 10
-238.1899516510092
 20
826.2480626566719
 30
0.0
 10
-238.5002570068504
 20
825.4859664532948
 30
0.0
 10
-238.8084006056419
 20
824.7290093108666
 30
0.0
 10
-239.063833441805
 20
824.1014282069851
 30
0.0
 10
-239.2663331469471
 20
823.6039063547499
 30
0.0
 10
-239.3669835533355
 20
823.356676257218
 30
0.0
 10
-239.4165454301199
 20
823.234936186105
 30
0.0
  0
SPLINE
  5
7E
330
1F
100
AcDbEntity
  8
0
  6
Continuous
 62
     7
370
    15
100
AcDbSpline
210
0.0
220
0.0
230
1.0
 70
     8
 71
     3
 72
    19
 73
    15
 74
     0
 42
0.00000001
 43
0.00000001
 12
1.0
 22
0.0
 32
0.0
 13
1.0
 23
0.0
 33
0.0
 40
0.0
 40
0.0
 40
0.0
 40
0.0
 40
0.0318756207238783
 40
0.1113697880402938
 40
0.1907609402394697
 40
0.270162340184802
 40
0.3682990130181342
 40
0.4664544706694844
 40
0.5644735400855141
 40
0.6625036846476843
 40
0.7462701321333678
 40
0.8300397403656281
 40
0.9150212395944496
 40
1.0
 40
1.0
 40
1.0
 40
1.0
 10
-3.360579526690971
 20
371.0839090600696
 30
0.0
 10
-3.336453496130876
 20
371.0679047273959
 30
0.0
 10
-3.252159893411377
 20
371.0119874119957
 30
0.0
 10
-3.044593293670323
 20
370.9520701760809
 30
0.0
 10
-2.744247119773446
 20
370.9004127842004
 30
0.0
 10
-2.362868545840086
 20
370.8779979995873
 30
0.0
 10
-1.896365710992109
 20
370.8875841682997
 30
0.0
 10
-1.338792638417047
 20
370.9351079256751
 30
0.0
 10
-0.7301081616084282
 20
371.0168385985448
 30
0.0
 10
-0.1095379603610336
 20
371.1261567596055
 30
0.0
 10
0.5105265958738892
 20
371.2569957947091
 30
0.0
 10
1.123838963151963
 20
371.4069616409043
 30
0.0
 10
1.759307415516276
 20
371.581705944353
 30
0.0
 10
2.198011913261938
 20
371.7251196285084
 30
0.0
 10
2.417360627384651
 20
371.7968253150669
 30
0.0
  0
SPLINE
  5
7F
330
1F
100
AcDbEntity
  8
0
  6
Continuous
 62
     7
370
    15
100
AcDbSpline
210
0.0
220
0.0
230
1.0
 70
     8
 71
     3
 72
    18
 73
    14
 74
     0
 42
0.00000001
 43
0.00000001
 12
1.0
 22
0.0
 32
0.0
 13
1.0
 23
0.0
 33
0.0
 40
0.0
 40
0.0
 40
0.0
 40
0.0
 40
0.102544027353108
 40
0.2050942101435145
 40
0.307638693389515
 40
0.4101756622004664
 40
0.5128055466432544
 40
0.6154181976535936
 40
0.7030654916665598
 40
0.7906979667387678
 40
0.8763137625327078
 40
0.9620963543391203
 40
1.0
 40
1.0
 40
1.0
 40
1.0
 10
14.4733835098462
 20
392.6784483447757
 30
0.0
 10
14.41543737955112
 20
392.9502788171248
 30
0.0
 10
14.2995416406135
 20
393.4939560790622
 30
0.0
 10
14.0915529600539
 20
394.2554870233338
 30
0.0
 10
13.86948630032234
 20
394.973443429526
 30
0.0
 10
13.63441493923809
 20
395.639209745668
 30
0.0
 10
13.39172584583456
 20
396.2475018453209
 30
0.0
 10
13.15565180887071
 20
396.7640788714
 30
0.0
 10
12.92949351565989
 20
397.1908773641794
 30
0.0
 10
12.7160601975089
 20
397.5323605666009
 30
0.0
 10
12.50438638981918
 20
397.7990691311873
 30
0.0
 10
12.33349658427299
 20
397.9704158158136
 30
0.0
 10
12.23284437662733
 20
398.021320937461
 30
0.0
 10
12.201999509068
 20
398.0369208112446
 30
0.0
  0
SPLINE
  5
80
330
1F
100
AcDbEntity
  8
0
  6
Continuous
 62
     7
370
    15
100
AcDbSpline
210
0.0
220
0.0
230
1.0
 70
     8
 71
     3
 72
    19
 73
    15
 74
     0
 42
0.00000001
 43
0.00000001
 12
1.0
 22
0.0
 32
0.0
 13
1.0
 23
0.0
 33
0.0
 40
0.0
 40
0.0
 40
0.0
 40
0.0
 40
0.031876173210512
 40
0.1113704119058946
 40
0.1907605893190762
 40
0.2701631041415777
 40
0.3682983818590798
 40
0.4664540759241652
 40
0.5644732045689115
 40
0.6625036431662438
 40
0.7462698531187203
 40
0.8300385230804744
 40
0.9150211397013439
 40
0.9999999999999999
 40
0.9999999999999999
 40
0.9999999999999999
 40
0.9999999999999999
 10
12.20179089281129
 20
656.423070813724
 30
0.0
 10
12.22772053343216
 20
656.435965020327
 30
0.0
 10
12.31831468152658
 20
656.4810153810174
 30
0.0
 10
12.47401018999353
 20
656.6307906564662
 30
0.0
 10
12.66885052087532
 20
656.86507858787
 30
0.0
 10
12.87901372055597
 20
657.1841696102349
 30
0.0
 10
13.10390935404734
 20
657.5929474495753
 30
0.0
 10
13.34157549183582
 20
658.0995815430164
 30
0.0
 10
13.57513551905795
 20
658.6675829843588
 30
0.0
 10
13.79072131258927
 20
659.259686807386
 30
0.0
 10
13.98747937437503
 20
659.8620850188641
 30
0.0
 10
14.16420222817053
 20
660.468220812116
 30
0.0
 10
14.33066457947593
 20
661.1059200370518
 30
0.0
 10
14.42581123400224
 20
661.5575607549375
 30
0.0
 10
14.47338350984625
 20
661.7833761230197
 30
0.0
  0
SPLINE
  5
81
330
1F
100
AcDbEntity
  8
0
  6
Continuous
 62
     7
370
    15
100
AcDbSpline
210
0.0
220
0.0
230
1.0
 70
     8
 71
     3
 72
    18
 73
    14
 74
     0
 42
0.00000001
 43
0.00000001
 12
1.0
 22
0.0
 32
0.0
 13
1.0
 23
0.0
 33
0.0
 40
0.0
 40
0.0
 40
0.0
 40
0.0
 40
0.1025443444053291
 40
0.2050942188239801
 40
0.3076385247487709
 40
0.410175661591303
 40
0.5128049010536415
 40
0.615417741977266
 40
0.7030652127452205
 40
0.7906976240645373
 40
0.8763134065687956
 40
0.9620965601666869
 40
1.0
 40
1.0
 40
1.0
 40
1.0
 10
2.417360627384679
 20
682.6649991527286
 30
0.0
 10
2.152974799961238
 20
682.7507336312076
 30
0.0
 10
1.624188887310279
 20
682.9222072116562
 30
0.0
 10
0.8606925348638439
 20
683.1228511409471
 30
0.0
 10
0.1278918370807292
 20
683.2895034200569
 30
0.0
 10
-0.5662156802294371
 20
683.4188155278441
 30
0.0
 10
-1.214344947345625
 20
683.5127909493725
 30
0.0
 10
-1.779756073030658
 20
683.5666134268322
 30
0.0
 10
-2.262454459592556
 20
683.5841688716529
 30
0.0
 10
-2.664905797659739
 20
683.5700922758105
 30
0.0
 10
-3.001707272537041
 20
683.5201119174053
 30
0.0
 10
-3.235570476527644
 20
683.4577890674627
 30
0.0
 10
-3.329967859260485
 20
683.3960693101026
 30
0.0
 10
-3.358895695476066
 20
683.3771554485049
 30
0.0
  0
SPLINE
  5
82
330
1F
100
AcDbEntity
  8
0
  6
Continuous
 62
     7
370
    15
100
AcDbSpline
210
0.0
220
0.0
230
1.0
 70
     8
 71
     3
 72
    19
 73
    15
 74
     0
 42
0.00000001
 43
0.00000001
 12
1.0
 22
0.0
 32
0.0
 13
1.0
 23
0.0
 33
0.0
 40
0.0
 40
0.0
 40
0.0
 40
0.0
 40
0.0318757902912536
 40
0.1113705011859331
 40
0.1907615994928572
 40
0.2701631782193057
 40
0.3682988862795341
 40
0.4664541332140674
 40
0.5644732959826678
 40
0.6625040519339449
 40
0.7462699616148749
 40
0.8300395961553749
 40
0.9150213463103016
 40
1.0
 40
1.0
 40
1.0
 40
1.0
 10
-227.1279700013681
 20
812.570059086391
 30
0.0
 10
-227.1261711334134
 20
812.5989569128458
 30
0.0
 10
-227.1198860868671
 20
812.6999227363141
 30
0.0
 10
-227.1717771747076
 20
812.9096590678878
 30
0.0
 10
-227.2772060138342
 20
813.195590805974
 30
0.0
 10
-227.4485077149112
 20
813.5370824558914
 30
0.0
 10
-227.6900462090313
 20
813.9362736760138
 30
0.0
 10
-228.0099895096609
 20
814.395387145989
 30
0.0
 10
-228.3851129267146
 20
814.8816577298741
 30
0.0
 10
-228.7900719421918
 20
815.3644395308452
 30
0.0
 10
-229.2134095629788
 20
815.8360077576261
 30
0.0
 10
-229.6499496648565
 20
816.2921616722934
 30
0.0
 10
-230.1190104602615
 20
816.7551310531873
 30
0.0
 10
-230.462562395474
 20
817.0633542507761
 30
0.0
 10
-230.6343352335377
 20
817.2174630418506
 30
0.0
  0
SPLINE
  5
83
330
1F
100
AcDbEntity
  8
0
  6
Continuous
 62
     7
370
    15
100
AcDbSpline
210
0.0
220
0.0
230
1.0
 70
     8
 71
     3
 72
    18
 73
    14
 74
     0
 42
0.00000001
 43
0.00000001
 12
1.0
 22
0.0
 32
0.0
 13
1.0
 23
0.0
 33
0.0
 40
0.0
 40
0.0
 40
0.0
 40
0.0
 40
0.1025446758290108
 40
0.2050951630316527
 40
0.30763883163955
 40
0.4101758223424809
 40
0.5128048417914914
 40
0.6154185294898793
 40
0.7030655773431916
 40
0.7906977845094979
 40
0.8763133416928741
 40
0.9620966711703138
 40
1.0
 40
1.0
 40
1.0
 40
1.0
 10
-254.7463642346545
 20
817.2174630418506
 30
0.0
 10
-254.9528028599643
 20
817.0313613354627
 30
0.0
 10
-255.3656918097968
 20
816.6591473760004
 30
0.0
 10
-255.9212095040043
 20
816.0982604992388
 30
0.0
 10
-256.4319375993655
 20
815.546975176533
 30
0.0
 10
-256.890975837954
 20
815.0105143642155
 30
0.0
 10
-257.2964333505313
 20
814.496220633691
 30
0.0
 10
-257.6257437560755
 20
814.033444476879
 30
0.0
 10
-257.8822955678939
 20
813.6242068289424
 30
0.0
 10
-258.0713276436776
 20
813.2686357448675
 30
0.0
 10
-258.1964585500643
 20
812.9519828035845
 30
0.0
 10
-258.2593954283795
 20
812.7182744281762
 30
0.0
 10
-258.2531489153915
 20
812.6056692283119
 30
0.0
 10
-258.2512346940919
 20
812.5711617723194
 30
0.0
  0
SPLINE
  5
84
330
1F
100
AcDbEntity
  8
0
  6
Continuous
 62
     7
370
    15
100
AcDbSpline
210
0.0
220
0.0
230
1.0
 70
     8
 71
     3
 72
    19
 73
    15
 74
     0
 42
0.00000001
 43
0.00000001
 12
1.0
 22
0.0
 32
0.0
 13
1.0
 23
0.0
 33
0.0
 40
0.0
 40
0.0
 40
0.0
 40
0.0
 40
0.0318756207238783
 40
0.1113697880402938
 40
0.1907609402394697
 40
0.270162340184802
 40
0.3682990130181342
 40
0.4664544706694844
 40
0.5644735400855141
 40
0.6625036846476843
 40
0.7462701321333678
 40
0.8300397403656281
 40
0.9150212395944496
 40
1.0
 40
1.0
 40
1.0
 40
1.0
 10
-482.0201199415012
 20
683.3779154077258
 30
0.0
 10
-482.0442459720612
 20
683.3939197403995
 30
0.0
 10
-482.1285395747807
 20
683.4498370557998
 30
0.0
 10
-482.3361061745218
 20
683.5097542917146
 30
0.0
 10
-482.6364523484187
 20
683.5614116835951
 30
0.0
 10
-483.0178309223521
 20
683.5838264682081
 30
0.0
 10
-483.4843337572
 20
683.5742402994957
 30
0.0
 10
-484.0419068297751
 20
683.5267165421204
 30
0.0
 10
-484.6505913065837
 20
683.4449858692507
 30
0.0
 10
-485.2711615078311
 20
683.3356677081899
 30
0.0
 10
-485.891226064066
 20
683.2048286730862
 30
0.0
 10
-486.5045384313441
 20
683.054862826891
 30
0.0
 10
-487.1400068837084
 20
682.8801185234424
 30
0.0
 10
-487.578711381454
 20
682.7367048392871
 30
0.0
 10
-487.7980600955768
 20
682.6649991527286
 30
0.0
  0
SPLINE
  5
85
330
1F
100
AcDbEntity
  8
0
  6
Continuous
 62
     7
370
    15
100
AcDbSpline
210
0.0
220
0.0
230
1.0
 70
     8
 71
     3
 72
    18
 73
    14
 74
     0
 42
0.00000001
 43
0.00000001
 12
1.0
 22
0.0
 32
0.0
 13
1.0
 23
0.0
 33
0.0
 40
0.0
 40
0.0
 40
0.0
 40
0.0
 40
0.102544027353108
 40
0.2050942101435145
 40
0.307638693389515
 40
0.4101756622004664
 40
0.5128055466432544
 40
0.6154181976535936
 40
0.7030654916665598
 40
0.7906979667387678
 40
0.8763137625327078
 40
0.9620963543391203
 40
1.0
 40
1.0
 40
1.0
 40
1.0
 10
-499.8540829780384
 20
661.7833761230197
 30
0.0
 10
-499.7961368477432
 20
661.5115456506707
 30
0.0
 10
-499.6802411088056
 20
660.9678683887332
 30
0.0
 10
-499.472252428246
 20
660.2063374444616
 30
0.0
 10
-499.2501857685144
 20
659.4883810382695
 30
0.0
 10
-499.0151144074302
 20
658.8226147221275
 30
0.0
 10
-498.7724253140266
 20
658.2143226224746
 30
0.0
 10
-498.5363512770629
 20
657.6977455963955
 30
0.0
 10
-498.3101929838521
 20
657.2709471036161
 30
0.0
 10
-498.096759665701
 20
656.9294639011947
 30
0.0
 10
-497.8850858580113
 20
656.6627553366083
 30
0.0
 10
-497.7141960524651
 20
656.4914086519818
 30
0.0
 10
-497.6135438448195
 20
656.4405035303345
 30
0.0
 10
-497.5826989772602
 20
656.4249036565509
 30
0.0
  0
SPLINE
  5
86
330
1F
100
AcDbEntity
  8
0
  6
Continuous
 62
     7
370
    15
100
AcDbSpline
210
0.0
220
0.0
230
1.0
 70
     8
 71
     3
 72
    19
 73
    15
 74
     0
 42
0.00000001
 43
0.00000001
 12
1.0
 22
0.0
 32
0.0
 13
1.0
 23
0.0
 33
0.0
 40
0.0
 40
0.0
 40
0.0
 40
0.0
 40
0.031876173210512
 40
0.1113704119058946
 40
0.1907605893190762
 40
0.2701631041415777
 40
0.3682983818590798
 40
0.4664540759241652
 40
0.5644732045689115
 40
0.6625036431662438
 40
0.7462698531187203
 40
0.8300385230804744
 40
0.9150211397013439
 40
0.9999999999999999
 40
0.9999999999999999
 40
0.9999999999999999
 40
0.9999999999999999
 10
-497.5824903610035
 20
398.0387536540714
 30
0.0
 10
-497.6084200016243
 20
398.0258594474685
 30
0.0
 10
-497.6990141497187
 20
397.980809086778
 30
0.0
 10
-497.8547096581857
 20
397.8310338113294
 30
0.0
 10
-498.0495499890675
 20
397.5967458799254
 30
0.0
 10
-498.259713188748
 20
397.2776548575605
 30
0.0
 10
-498.4846088222395
 20
396.8688770182201
 30
0.0
 10
-498.722274960028
 20
396.3622429247791
 30
0.0
 10
-498.9558349872501
 20
395.7942414834367
 30
0.0
 10
-499.1714207807814
 20
395.2021376604095
 30
0.0
 10
-499.3681788425671
 20
394.5997394489313
 30
0.0
 10
-499.5449016963627
 20
393.9936036556795
 30
0.0
 10
-499.711364047668
 20
393.3559044307437
 30
0.0
 10
-499.8065107021944
 20
392.9042637128579
 30
0.0
 10
-499.8540829780384
 20
392.6784483447757
 30
0.0
  0
SPLINE
  5
87
330
1F
100
AcDbEntity
  8
0
  6
Continuous
 62
     7
370
    15
100
AcDbSpline
210
0.0
220
0.0
230
1.0
 70
     8
 71
     3
 72
    18
 73
    14
 74
     0
 42
0.00000001
 43
0.00000001
 12
1.0
 22
0.0
 32
0.0
 13
1.0
 23
0.0
 33
0.0
 40
0.0
 40
0.0
 40
0.0
 40
0.0
 40
0.1025443444053291
 40
0.2050942188239801
 40
0.3076385247487709
 40
0.410175661591303
 40
0.5128049010536415
 40
0.615417741977266
 40
0.7030652127452205
 40
0.7906976240645373
 40
0.8763134065687956
 40
0.9620965601666869
 40
1.0
 40
1.0
 40
1.0
 40
1.0
 10
-487.7980600955768
 20
371.7968253150669
 30
0.0
 10
-487.5336742681533
 20
371.7110908365878
 30
0.0
 10
-487.0048883555024
 20
371.5396172561393
 30
0.0
 10
-486.2413920030559
 20
371.3389733268484
 30
0.0
 10
-485.5085913052728
 20
371.1723210477385
 30
0.0
 10
-484.8144837879627
 20
371.0430089399513
 30
0.0
 10
-484.1663545208465
 20
370.9490335184229
 30
0.0
 10
-483.6009433951614
 20
370.8952110409633
 30
0.0
 10
-483.1182450085996
 20
370.8776555961426
 30
0.0
 10
-482.7157936705324
 20
370.891732191985
 30
0.0
 10
-482.378992195655
 20
370.9417125503902
 30
0.0
 10
-482.1451289916645
 20
371.0040354003328
 30
0.0
 10
-482.0507316089316
 20
371.0657551576929
 30
0.0
 10
-482.0218037727161
 20
371.0846690192905
 30
0.0
  0
SPLINE
  5
88
330
1F
100
AcDbEntity
  8
0
  6
Continuous
 62
     7
370
    15
100
AcDbSpline
210
0.0
220
0.0
230
1.0
 70
     8
 71
     3
 72
    18
 73
    14
 74
     0
 42
0.00000001
 43
0.00000001
 12
1.0
 22
0.0
 32
0.0
 13
1.0
 23
0.0
 33
0.0
 40
0.0
 40
0.0
 40
0.0
 40
0.0
 40
0.1025446758290108
 40
0.2050951630316527
 40
0.30763883163955
 40
0.4101758223424809
 40
0.5128048417914914
 40
0.6154185294898793
 40
0.7030655773431916
 40
0.7906977845094979
 40
0.8763133416928741
 40
0.9620966711703138
 40
1.0
 40
1.0
 40
1.0
 40
1.0
 10
-254.7463642346545
 20
237.2443614259448
 30
0.0
 10
-254.9528028599643
 20
237.4304631323328
 30
0.0
 10
-255.3656918097968
 20
237.802677091795
 30
0.0
 10
-255.9212095040043
 20
238.3635639685566
 30
0.0
 10
-256.4319375993655
 20
238.9148492912625
 30
0.0
 10
-256.890975837954
 20
239.45131010358
 30
0.0
 10
-257.2964333505313
 20
239.9656038341045
 30
0.0
 10
-257.6257437560755
 20
240.4283799909165
 30
0.0
 10
-257.8822955678939
 20
240.837617638853
 30
0.0
 10
-258.0713276436776
 20
241.1931887229279
 30
0.0
 10
-258.1964585500643
 20
241.509841664211
 30
0.0
 10
-258.2593954283795
 20
241.7435500396193
 30
0.0
 10
-258.2531489153915
 20
241.8561552394836
 30
0.0
 10
-258.2512346940919
 20
241.890662695476
 30
0.0
  0
SPLINE
  5
89
330
1F
100
AcDbEntity
  8
0
  6
Continuous
 62
     7
370
    15
100
AcDbSpline
210
0.0
220
0.0
230
1.0
 70
     8
 71
     3
 72
    19
 73
    15
 74
     0
 42
0.00000001
 43
0.00000001
 12
1.0
 22
0.0
 32
0.0
 13
1.0
 23
0.0
 33
0.0
 40
0.0
 40
0.0
 40
0.0
 40
0.0
 40
0.0318757544353545
 40
0.1113703759093701
 40
0.1907613849121802
 40
0.2701628743227257
 40
0.3494776771203337
 40
0.4288011462285945
 40
0.5377119267174703
 40
0.6466432262609081
 40
0.7342833750981383
 40
0.821926655728753
 40
0.9109662926147388
 40
1.0
 40
1.0
 40
1.0
 40
1.0
 10
-227.1279700013681
 20
241.8917653814044
 30
0.0
 10
-227.1261711028622
 20
241.8628675858963
 30
0.0
 10
-227.1198859495734
 20
241.7619018705521
 30
0.0
 10
-227.1717787709902
 20
241.5521637829652
 30
0.0
 10
-227.2772002063925
 20
241.2662395444258
 30
0.0
 10
-227.4359809538338
 20
240.9497354445524
 30
0.0
 10
-227.6391454532873
 20
240.6081655962639
 30
0.0
 10
-227.9141602676477
 20
240.1991269029965
 30
0.0
 10
-228.2754888842045
 20
239.7161210138073
 30
0.0
 10
-228.7067078957983
 20
239.193245327141
 30
0.0
 10
-229.1534439786194
 20
238.6903723193254
 30
0.0
 10
-229.6063239825711
 20
238.213659145354
 30
0.0
 10
-230.0948995833963
 20
237.7288340119014
 30
0.0
 10
-230.4545273417954
 20
237.405848703
 30
0.0
 10
-230.6343352335377
 20
237.2443614259448
 30
0.0
  0
LINE
  5
8A
330
1F
100
AcDbEntity
  8
0
  6
Continuous
 62
     7
370
    15
100
AcDbLine
 10
-235.1205905813
 20
817.2174630419
 30
0.0
 11
-250.2601088869
 21
817.2174630419
 31
0.0
  0
LINE
  5
8B
330
1F
100
AcDbEntity
  8
0
  6
Continuous
 62
     7
370
    15
100
AcDbLine
 10
-230.6343352335
 20
817.2174630419
 30
0.0
 11
-235.1205905813
 21
817.2174630419
 31
0.0
  0
LINE
  5
8C
330
1F
100
AcDbEntity
  8
0
  6
Continuous
 62
     7
370
    15
100
AcDbLine
 10
-250.2601088869
 20
817.2174630419
 30
0.0
 11
-254.7463642347
 21
817.2174630419
 31
0.0
  0
LINE
  5
8D
330
1F
100
AcDbEntity
  8
0
  6
Continuous
 62
     7
370
    15
100
AcDbLine
 10
-490.0411914947
 20
678.7797895923
 30
0.0
 11
-497.6109515789
 21
665.6685856834
 31
0.0
  0
LWPOLYLINE
  5
8E
330
1F
100
AcDbEntity
  8
0
  6
Continuous
 62
     7
370
    15
100
AcDbPolyline
 90
        9
 70
   128
 43
0.0
 10
-487.7980600956
 20
682.6649991527
 10
-488.0505006674
 20
682.227769281
 10
-488.3139531973
 20
681.7714510217
 10
-488.5869722727
 20
681.2985775724
 10
-488.8680379751
 20
680.8117566362
 10
-489.1556005838
 20
680.3136853233
 10
-489.4480507734
 20
679.8071352497
 10
-489.7438090208
 20
679.2948929325
 10
-490.0411914947
 20
678.7797895923
  0
LWPOLYLINE
  5
8F
330
1F
100
AcDbEntity
  8
0
  6
Continuous
 62
     7
370
    15
100
AcDbPolyline
 90
        9
 70
   128
 43
0.0
 10
-497.6109515789
 20
665.6685856834
 10
-497.908348954
 20
665.1534972444
 10
-498.204077399
 20
664.6412400261
 10
-498.496557391
 20
664.1346899524
 10
-498.7841199997
 20
663.6366186395
 10
-499.0651857021
 20
663.1497977033
 10
-499.3381749752
 20
662.676924254
 10
-499.6016573074
 20
662.2206059948
 10
-499.854082978
 20
661.783376123
  0
LINE
  5
90
330
1F
100
AcDbEntity
  8
0
  6
Continuous
 62
     7
370
    15
100
AcDbLine
 10
12.2302521107
 20
665.6685856834
 30
0.0
 11
4.6604920265
 21
678.7797895923
 31
0.0
  0
LWPOLYLINE
  5
91
330
1F
100
AcDbEntity
  8
0
  6
Continuous
 62
     7
370
    15
100
AcDbPolyline
 90
        9
 70
   128
 43
0.0
 10
14.4733835098
 20
661.783376123
 10
14.2209578392
 20
662.2206059948
 10
13.957475507
 20
662.676924254
 10
13.6844862339
 20
663.1497977033
 10
13.4034205315
 20
663.6366186395
 10
13.1158579228
 20
664.1346899524
 10
12.8233779309
 20
664.6412400261
 10
12.5276494858
 20
665.1534972444
 10
12.2302521107
 20
665.6685856834
  0
LWPOLYLINE
  5
92
330
1F
100
AcDbEntity
  8
0
  6
Continuous
 62
     7
370
    15
100
AcDbPolyline
 90
        9
 70
   128
 43
0.0
 10
4.6604920265
 20
678.7797895923
 10
4.3631095526
 20
679.2948929325
 10
4.0673513052
 20
679.8071352497
 10
3.7749011156
 20
680.3136853233
 10
3.4873385069
 20
680.8117566362
 10
3.2062728045
 20
681.2985775724
 10
2.9332537291
 20
681.7714510217
 10
2.6698011992
 20
682.227769281
 10
2.4173606274
 20
682.6649991527
  0
LWPOLYLINE
  5
93
330
1F
100
AcDbEntity
  8
0
  6
Continuous
 62
     7
370
    15
100
AcDbPolyline
 90
        9
 70
   128
 43
0.0
 10
12.2302521107
 20
388.7932387844
 10
12.5276494858
 20
389.3083272234
 10
12.8233779309
 20
389.8205844417
 10
13.1158579228
 20
390.3271345154
 10
13.4034205315
 20
390.8252058283
 10
13.6844862339
 20
391.3120267645
 10
13.957475507
 20
391.7849002138
 10
14.2209578392
 20
392.241218473
 10
14.4733835098
 20
392.6784483448
  0
LWPOLYLINE
  5
94
330
1F
100
AcDbEntity
  8
0
  6
Continuous
 62
     7
370
    15
100
AcDbPolyline
 90
        9
 70
   128
 43
0.0
 10
-490.0411914947
 20
375.6820348755
 10
-489.7438090208
 20
375.1669315353
 10
-489.4480507734
 20
374.6546892181
 10
-489.1556005838
 20
374.1481391445
 10
-488.8680379751
 20
373.6500678316
 10
-488.5869722727
 20
373.1632468954
 10
-488.3139531973
 20
372.6903734461
 10
-488.0505006674
 20
372.2340551868
 10
-487.7980600956
 20
371.7968253151
  0
LINE
  5
95
330
1F
100
AcDbEntity
  8
0
  6
Continuous
 62
     7
370
    15
100
AcDbLine
 10
-497.6109515789
 20
388.7932387844
 30
0.0
 11
-490.0411914947
 21
375.6820348755
 31
0.0
  0
LWPOLYLINE
  5
96
330
1F
100
AcDbEntity
  8
0
  6
Continuous
 62
     7
370
    15
100
AcDbPolyline
 90
        9
 70
   128
 43
0.0
 10
2.4173606274
 20
371.7968253151
 10
2.6698011992
 20
372.2340551868
 10
2.9332537291
 20
372.6903734461
 10
3.2062728045
 20
373.1632468954
 10
3.4873385069
 20
373.6500678316
 10
3.7749011156
 20
374.1481391445
 10
4.0673513052
 20
374.6546892181
 10
4.3631095526
 20
375.1669315353
 10
4.6604920265
 20
375.6820348755
  0
LINE
  5
97
330
1F
100
AcDbEntity
  8
0
  6
Continuous
 62
     7
370
    15
100
AcDbLine
 10
4.6604920265
 20
375.6820348755
 30
0.0
 11
12.2302521107
 21
388.7932387844
 31
0.0
  0
LWPOLYLINE
  5
98
330
1F
100
AcDbEntity
  8
0
  6
Continuous
 62
     7
370
    15
100
AcDbPolyline
 90
        9
 70
   128
 43
0.0
 10
-499.854082978
 20
392.6784483448
 10
-499.6016573074
 20
392.241218473
 10
-499.3381749752
 20
391.7849002138
 10
-499.0651857021
 20
391.3120267645
 10
-498.7841199997
 20
390.8252058283
 10
-498.496557391
 20
390.3271345154
 10
-498.204077399
 20
389.8205844417
 10
-497.908348954
 20
389.3083272234
 10
-497.6109515789
 20
388.7932387844
  0
LINE
  5
99
330
1F
100
AcDbEntity
  8
0
  6
Continuous
 62
     7
370
    15
100
AcDbLine
 10
-235.1205905813
 20
237.2443614259
 30
0.0
 11
-230.6343352335
 21
237.2443614259
 31
0.0
  0
LINE
  5
9A
330
1F
100
AcDbEntity
  8
0
  6
Continuous
 62
     7
370
    15
100
AcDbLine
 10
-250.2601088869
 20
237.2443614259
 30
0.0
 11
-235.1205905813
 21
237.2443614259
 31
0.0
  0
LINE
  5
9B
330
1F
100
AcDbEntity
  8
0
  6
Continuous
 62
     7
370
    15
100
AcDbLine
 10
-254.7463642347
 20
237.2443614259
 30
0.0
 11
-250.2601088869
 21
237.2443614259
 31
0.0
  0
SPLINE
  5
9C
330
1F
100
AcDbEntity
  8
0
  6
Continuous
 62
     7
370
    15
100
AcDbSpline
210
0.0
220
0.0
230
1.0
 70
    24
 71
     3
 72
    12
 73
     8
 74
     0
 42
0.00000001
 43
0.00000001
 12
1.0
 22
0.0
 32
0.0
 13
1.0
 23
0.0
 33
0.0
 40
0.0
 40
0.0
 40
0.0
 40
0.0
 40
0.2500000000000001
 40
0.2500000000000001
 40
0.5000000000000001
 40
0.5000000000000001
 40
1.0
 40
1.0
 40
1.0
 40
1.0
 10
-238.190349734096
 20
519.4366835998378
 30
0.0
 10
-237.8084494696015
 20
519.6571738203472
 30
0.0
 10
-237.4248361686696
 20
519.8786530629051
 30
0.0
 10
-236.6659690801242
 20
520.3167851807559
 30
0.0
 10
-236.289073638709
 20
520.5343858653133
 30
0.0
 10
-235.1650812943903
 20
521.1833231478728
 30
0.0
 10
-234.4246523250314
 20
521.610810012648
 30
0.0
 10
-233.690349734096
 20
522.0347598111912
 30
0.0
  0
ARC
  5
9D
330
1F
100
AcDbEntity
  8
0
  6
Continuous
 62
     7
370
    15
100
AcDbCircle
 10
-242.6903497341
 20
527.2309122339
 30
0.0
 40
9.00000000000005
100
AcDbArc
 50
300.0
 51
0.0
  0
SPLINE
  5
9E
330
1F
100
AcDbEntity
  8
0
  6
Continuous
 62
     7
370
    15
100
AcDbSpline
210
0.0
220
0.0
230
1.0
 70
    24
 71
     3
 72
    10
 73
     6
 74
     0
 42
0.00000001
 43
0.00000001
 12
1.0
 22
0.0
 32
0.0
 13
1.0
 23
0.0
 33
0.0
 40
0.0
 40
0.0
 40
0.0
 40
0.0
 40
0.5
 40
0.5
 40
1.0
 40
1.0
 40
1.0
 40
1.0
 10
-233.690349734096
 20
522.0347598111912
 30
0.0
 10
-233.690349734096
 20
522.8811574095021
 30
0.0
 10
-233.690349734096
 20
523.7459142632742
 30
0.0
 10
-233.690349734096
 20
525.4790097057404
 30
0.0
 10
-233.690349734096
 20
526.3514693641083
 30
0.0
 10
-233.690349734096
 20
527.2309122338977
 30
0.0
  0
SPLINE
  5
9F
330
1F
100
AcDbEntity
  8
0
  6
Continuous
 62
     7
370
    15
100
AcDbSpline
210
0.0
220
0.0
230
1.0
 70
    24
 71
     3
 72
    12
 73
     8
 74
     0
 42
0.00000001
 43
0.00000001
 12
1.0
 22
0.0
 32
0.0
 13
1.0
 23
0.0
 33
0.0
 40
0.0
 40
0.0
 40
0.0
 40
0.0
 40
0.2499999999999999
 40
0.2499999999999999
 40
0.4999999999999998
 40
0.4999999999999998
 40
1.0
 40
1.0
 40
1.0
 40
1.0
 10
-247.190349734096
 20
519.4366835998377
 30
0.0
 10
-246.8084494696015
 20
519.2161933793284
 30
0.0
 10
-246.4248361686696
 20
518.9947141367705
 30
0.0
 10
-245.6659690801241
 20
518.5565820189197
 30
0.0
 10
-245.289073638709
 20
518.3389813343623
 30
0.0
 10
-244.1650812943903
 20
517.6900440518028
 30
0.0
 10
-243.4246523250314
 20
517.2625571870276
 30
0.0
 10
-242.6903497340959
 20
516.8386073884844
 30
0.0
  0
ARC
  5
A0
330
1F
100
AcDbEntity
  8
0
  6
Continuous
 62
     7
370
    15
100
AcDbCircle
 10
-242.6903497341
 20
527.2309122339
 30
0.0
 40
9.00000000000005
100
AcDbArc
 50
240.0
 51
300.0
  0
SPLINE
  5
A1
330
1F
100
AcDbEntity
  8
0
  6
Continuous
 62
     7
370
    15
100
AcDbSpline
210
0.0
220
0.0
230
1.0
 70
    24
 71
     3
 72
    10
 73
     6
 74
     0
 42
0.00000001
 43
0.00000001
 12
1.0
 22
0.0
 32
0.0
 13
1.0
 23
0.0
 33
0.0
 40
0.0
 40
0.0
 40
0.0
 40
0.0
 40
0.5
 40
0.5
 40
1.0
 40
1.0
 40
1.0
 40
1.0
 10
-242.690349734096
 20
516.8386073884844
 30
0.0
 10
-241.9542090361819
 20
517.2636184185867
 30
0.0
 10
-241.2126911834091
 20
517.6917339504939
 30
0.0
 10
-239.7141529589173
 20
518.5569153977953
 30
0.0
 10
-238.9570167041022
 20
518.9940482183259
 30
0.0
 10
-238.190349734096
 20
519.4366835998378
 30
0.0
  0
SPLINE
  5
A2
330
1F
100
AcDbEntity
  8
0
  6
Continuous
 62
     7
370
    15
100
AcDbSpline
210
0.0
220
0.0
230
1.0
 70
    24
 71
     3
 72
    10
 73
     6
 74
     0
 42
0.00000001
 43
0.00000001
 12
1.0
 22
0.0
 32
0.0
 13
1.0
 23
0.0
 33
0.0
 40
0.0
 40
0.0
 40
0.0
 40
0.0
 40
0.5
 40
0.5
 40
1.0
 40
1.0
 40
1.0
 40
1.0
 10
-251.690349734096
 20
522.0347598111908
 30
0.0
 10
-251.690349734096
 20
522.8811574095216
 30
0.0
 10
-251.690349734096
 20
523.7459142633082
 30
0.0
 10
-251.690349734096
 20
525.4790097057725
 30
0.0
 10
-251.690349734096
 20
526.35146936413
 30
0.0
 10
-251.690349734096
 20
527.2309122338977
 30
0.0
  0
ARC
  5
A3
330
1F
100
AcDbEntity
  8
0
  6
Continuous
 62
     7
370
    15
100
AcDbCircle
 10
-242.6903497341
 20
527.2309122339
 30
0.0
 40
9.00000000000005
100
AcDbArc
 50
180.0
 51
240.0
  0
SPLINE
  5
A4
330
1F
100
AcDbEntity
  8
0
  6
Continuous
 62
     7
370
    15
100
AcDbSpline
210
0.0
220
0.0
230
1.0
 70
    24
 71
     3
 72
    10
 73
     6
 74
     0
 42
0.00000001
 43
0.00000001
 12
1.0
 22
0.0
 32
0.0
 13
1.0
 23
0.0
 33
0.0
 40
0.0
 40
0.0
 40
0.0
 40
0.0
 40
0.5
 40
0.5
 40
1.0
 40
1.0
 40
1.0
 40
1.0
 10
-251.6903497340958
 20
522.034759811191
 30
0.0
 10
-250.9542090361817
 20
521.6097487810888
 30
0.0
 10
-250.212691183409
 20
521.1816332491817
 30
0.0
 10
-248.7141529589172
 20
520.3164518018804
 30
0.0
 10
-247.9570167041022
 20
519.8793189813497
 30
0.0
 10
-247.190349734096
 20
519.4366835998377
 30
0.0
  0
ARC
  5
A5
330
1F
100
AcDbEntity
  8
0
  6
Continuous
 62
     7
370
    15
100
AcDbCircle
 10
-242.6903497341
 20
527.2309122339
 30
0.0
 40
9.00000000000005
100
AcDbArc
 50
0.0
 51
60.0
  0
SPLINE
  5
A6
330
1F
100
AcDbEntity
  8
0
  6
Continuous
 62
     7
370
    15
100
AcDbSpline
210
0.0
220
0.0
230
1.0
 70
    24
 71
     3
 72
    10
 73
     6
 74
     0
 42
0.00000001
 43
0.00000001
 12
1.0
 22
0.0
 32
0.0
 13
1.0
 23
0.0
 33
0.0
 40
0.0
 40
0.0
 40
0.0
 40
0.0
 40
0.5
 40
0.5
 40
1.0
 40
1.0
 40
1.0
 40
1.0
 10
-233.6903497340959
 20
532.4270646566043
 30
0.0
 10
-234.4264904320101
 20
532.8520756867066
 30
0.0
 10
-235.1680082847828
 20
533.2801912186138
 30
0.0
 10
-236.6665465092747
 20
534.1453726659151
 30
0.0
 10
-237.4236827640898
 20
534.5825054864458
 30
0.0
 10
-238.190349734096
 20
535.0251408679577
 30
0.0
  0
SPLINE
  5
A7
330
1F
100
AcDbEntity
  8
0
  6
Continuous
 62
     7
370
    15
100
AcDbSpline
210
0.0
220
0.0
230
1.0
 70
    24
 71
     3
 72
    12
 73
     8
 74
     0
 42
0.00000001
 43
0.00000001
 12
1.0
 22
0.0
 32
0.0
 13
1.0
 23
0.0
 33
0.0
 40
0.0
 40
0.0
 40
0.0
 40
0.0
 40
0.2500000000000001
 40
0.2500000000000001
 40
0.5000000000000001
 40
0.5000000000000001
 40
1.0
 40
1.0
 40
1.0
 40
1.0
 10
-233.690349734096
 20
527.2309122338977
 30
0.0
 10
-233.690349734096
 20
527.6709893024557
 30
0.0
 10
-233.690349734096
 20
528.1140751215336
 30
0.0
 10
-233.690349734096
 20
528.9979652422625
 30
0.0
 10
-233.690349734096
 20
529.4353126357579
 30
0.0
 10
-233.690349734096
 20
530.7354869745543
 30
0.0
 10
-233.690349734096
 20
531.5865261583192
 30
0.0
 10
-233.690349734096
 20
532.4270646566044
 30
0.0
  0
ARC
  5
A8
330
1F
100
AcDbEntity
  8
0
  6
Continuous
 62
     7
370
    15
100
AcDbCircle
 10
-242.6903497341
 20
527.2309122339
 30
0.0
 40
9.000000000000064
100
AcDbArc
 50
120.0
 51
180.0
  0
SPLINE
  5
A9
330
1F
100
AcDbEntity
  8
0
  6
Continuous
 62
     7
370
    15
100
AcDbSpline
210
0.0
220
0.0
230
1.0
 70
    24
 71
     3
 72
    12
 73
     8
 74
     0
 42
0.00000001
 43
0.00000001
 12
1.0
 22
0.0
 32
0.0
 13
1.0
 23
0.0
 33
0.0
 40
0.0
 40
0.0
 40
0.0
 40
0.0
 40
0.2500000000000001
 40
0.2500000000000001
 40
0.5000000000000002
 40
0.5000000000000002
 40
1.0
 40
1.0
 40
1.0
 40
1.0
 10
-251.690349734096
 20
527.2309122338977
 30
0.0
 10
-251.690349734096
 20
527.6709893024279
 30
0.0
 10
-251.690349734096
 20
528.1140751214391
 30
0.0
 10
-251.690349734096
 20
528.9979652422145
 30
0.0
 10
-251.690349734096
 20
529.435312635727
 30
0.0
 10
-251.690349734096
 20
530.735486974559
 30
0.0
 10
-251.690349734096
 20
531.5865261583277
 30
0.0
 10
-251.690349734096
 20
532.4270646566044
 30
0.0
  0
SPLINE
  5
AA
330
1F
100
AcDbEntity
  8
0
  6
Continuous
 62
     7
370
    15
100
AcDbSpline
210
0.0
220
0.0
230
1.0
 70
    24
 71
     3
 72
    12
 73
     8
 74
     0
 42
0.00000001
 43
0.00000001
 12
1.0
 22
0.0
 32
0.0
 13
1.0
 23
0.0
 33
0.0
 40
0.0
 40
0.0
 40
0.0
 40
0.0
 40
0.25
 40
0.25
 40
0.5
 40
0.5
 40
1.0
 40
1.0
 40
1.0
 40
1.0
 10
-247.190349734096
 20
535.0251408679577
 30
0.0
 10
-247.5722499985905
 20
534.8046506474482
 30
0.0
 10
-247.9558632995224
 20
534.5831714048904
 30
0.0
 10
-248.7147303880678
 20
534.1450392870396
 30
0.0
 10
-249.091625829483
 20
533.9274386024822
 30
0.0
 10
-250.2156181738017
 20
533.2785013199227
 30
0.0
 10
-250.9560471431606
 20
532.8510144551476
 30
0.0
 10
-251.690349734096
 20
532.4270646566044
 30
0.0
  0
ARC
  5
AB
330
1F
100
AcDbEntity
  8
0
  6
Continuous
 62
     7
370
    15
100
AcDbCircle
 10
-242.6903497341
 20
527.2309122339
 30
0.0
 40
9.000000000000064
100
AcDbArc
 50
60.0
 51
120.0
  0
SPLINE
  5
AC
330
1F
100
AcDbEntity
  8
0
  6
Continuous
 62
     7
370
    15
100
AcDbSpline
210
0.0
220
0.0
230
1.0
 70
    24
 71
     3
 72
    12
 73
     8
 74
     0
 42
0.00000001
 43
0.00000001
 12
1.0
 22
0.0
 32
0.0
 13
1.0
 23
0.0
 33
0.0
 40
0.0
 40
0.0
 40
0.0
 40
0.0
 40
0.2499999999999999
 40
0.2499999999999999
 40
0.4999999999999998
 40
0.4999999999999998
 40
1.0
 40
1.0
 40
1.0
 40
1.0
 10
-238.190349734096
 20
535.0251408679577
 30
0.0
 10
-238.5722499985905
 20
535.2456310884671
 30
0.0
 10
-238.9558632995223
 20
535.4671103310249
 30
0.0
 10
-239.7147303880678
 20
535.9052424488758
 30
0.0
 10
-240.091625829483
 20
536.1228431334332
 30
0.0
 10
-241.2156181738017
 20
536.7717804159926
 30
0.0
 10
-241.9560471431606
 20
537.1992672807678
 30
0.0
 10
-242.690349734096
 20
537.6232170793111
 30
0.0
  0
SPLINE
  5
AD
330
1F
100
AcDbEntity
  8
0
  6
Continuous
 62
     7
370
    15
100
AcDbSpline
210
0.0
220
0.0
230
1.0
 70
    24
 71
     3
 72
    10
 73
     6
 74
     0
 42
0.00000001
 43
0.00000001
 12
1.0
 22
0.0
 32
0.0
 13
1.0
 23
0.0
 33
0.0
 40
0.0
 40
0.0
 40
0.0
 40
0.0
 40
0.5
 40
0.5
 40
1.0
 40
1.0
 40
1.0
 40
1.0
 10
-242.6903497340959
 20
537.6232170793111
 30
0.0
 10
-243.4264904320101
 20
537.1982060492089
 30
0.0
 10
-244.1680082847828
 20
536.7700905173016
 30
0.0
 10
-245.6665465092747
 20
535.9049090700004
 30
0.0
 10
-246.4236827640898
 20
535.4677762494695
 30
0.0
 10
-247.190349734096
 20
535.0251408679577
 30
0.0
  0
CIRCLE
  5
AE
330
1F
100
AcDbEntity
  8
0
  6
Continuous
 62
     7
370
    15
100
AcDbCircle
 10
-242.6903497341
 20
527.2309122339
 30
0.0
 40
11.99999999999997
  0
CIRCLE
  5
AF
330
1F
100
AcDbEntity
  8
0
  6
Continuous
 62
     7
370
    15
100
AcDbCircle
 10
-242.6903497341
 20
527.2309122339
 30
0.0
 40
50.0
  0
CIRCLE
  5
B0
330
1F
100
AcDbEntity
  8
0
  6
Continuous
 62
     8
370
     0
100
AcDbCircle
 10
-242.6903497341
 20
527.2309122339
 30
0.0
 40
318.9467257732845
  0
ARC
  5
B1
330
1F
100
AcDbEntity
  8
0
  6
Continuous
 62
     8
370
     0
100
AcDbCircle
 10
-242.6903497341
 20
527.2309122339
 30
0.0
 40
285.0761060381651
100
AcDbArc
 50
333.130832637
 51
26.869167363
  0
ARC
  5
B2
330
1F
100
AcDbEntity
  8
0
  6
Continuous
 62
     8
370
     0
100
AcDbCircle
 10
-242.6903497341
 20
527.2309122339
 30
0.0
 40
285.0761060381652
100
AcDbArc
 50
33.130832637
 51
86.869167363
  0
ARC
  5
B3
330
1F
100
AcDbEntity
  8
0
  6
Continuous
 62
     8
370
     0
100
AcDbCircle
 10
-242.6903497341
 20
527.2309122339
 30
0.0
 40
285.0761060381652
100
AcDbArc
 50
93.130832637
 51
146.869167363
  0
ARC
  5
B4
330
1F
100
AcDbEntity
  8
0
  6
Continuous
 62
     8
370
     0
100
AcDbCircle
 10
-242.6903497341
 20
527.2309122339
 30
0.0
 40
285.0761060381652
100
AcDbArc
 50
153.130832637
 51
206.869167363
  0
ARC
  5
B5
330
1F
100
AcDbEntity
  8
0
  6
Continuous
 62
     8
370
     0
100
AcDbCircle
 10
-242.6903497341
 20
527.2309122339
 30
0.0
 40
285.0761060381651
100
AcDbArc
 50
213.130832637
 51
266.869167363
  0
ARC
  5
B6
330
1F
100
AcDbEntity
  8
0
  6
Continuous
 62
     8
370
     0
100
AcDbCircle
 10
-242.6903497341
 20
527.2309122339
 30
0.0
 40
285.0761060381652
100
AcDbArc
 50
273.130832637
 51
326.869167363
  0
LINE
  5
B7
330
1F
100
AcDbEntity
  8
0
  6
Continuous
 62
     8
370
     0
100
AcDbLine
 10
-235.1205905813
 20
576.6545770422
 30
0.0
 11
-235.1205905813
 21
817.2174630419
 31
0.0
  0
LINE
  5
B8
330
1F
100
AcDbEntity
  8
0
  6
Continuous
 62
     8
370
     0
100
AcDbLine
 10
-250.2601088869
 20
576.6545770422
 30
0.0
 11
-250.2601088869
 21
817.2174630419
 31
0.0
  0
LINE
  5
B9
330
1F
100
AcDbEntity
  8
0
  6
Continuous
 62
     8
370
     0
100
AcDbLine
 10
-281.7076209846
 20
558.4983503178
 30
0.0
 11
-490.0411914947
 21
678.7797895923
 31
0.0
  0
LINE
  5
BA
330
1F
100
AcDbEntity
  8
0
  6
Continuous
 62
     8
370
     0
100
AcDbLine
 10
-289.2773810687
 20
545.3871408209
 30
0.0
 11
-497.6109515789
 21
665.6685856834
 31
0.0
  0
LINE
  5
BB
330
1F
100
AcDbEntity
  8
0
  6
Continuous
 62
     8
370
     0
100
AcDbLine
 10
-196.1033183995
 20
545.3871408209
 30
0.0
 11
12.2302521107
 21
665.6685856834
 31
0.0
  0
LINE
  5
BC
330
1F
100
AcDbEntity
  8
0
  6
Continuous
 62
     8
370
     0
100
AcDbLine
 10
-203.6730784836
 20
558.4983503178
 30
0.0
 11
4.6604920265
 21
678.7797895923
 31
0.0
  0
LINE
  5
BD
330
1F
100
AcDbEntity
  8
0
  6
Continuous
 62
     8
370
     0
100
AcDbLine
 10
-196.1033183995
 20
509.0746836469
 30
0.0
 11
12.2302521107
 21
388.7932387844
 31
0.0
  0
LINE
  5
BE
330
1F
100
AcDbEntity
  8
0
  6
Continuous
 62
     8
370
     0
100
AcDbLine
 10
-281.7076209846
 20
495.96347415
 30
0.0
 11
-490.0411914947
 21
375.6820348755
 31
0.0
  0
LINE
  5
BF
330
1F
100
AcDbEntity
  8
0
  6
Continuous
 62
     8
370
     0
100
AcDbLine
 10
-289.2773810687
 20
509.0746836469
 30
0.0
 11
-497.6109515789
 21
388.7932387844
 31
0.0
  0
LINE
  5
C0
330
1F
100
AcDbEntity
  8
0
  6
Continuous
 62
     8
370
     0
100
AcDbLine
 10
-203.6730784836
 20
495.96347415
 30
0.0
 11
4.6604920265
 21
375.6820348755
 31
0.0
  0
LINE
  5
C1
330
1F
100
AcDbEntity
  8
0
  6
Continuous
 62
     8
370
     0
100
AcDbLine
 10
-235.1205905813
 20
477.8072474256
 30
0.0
 11
-235.1205905813
 21
237.2443614259
 31
0.0
  0
LINE
  5
C2
330
1F
100
AcDbEntity
  8
0
  6
Continuous
 62
     8
370
     0
100
AcDbLine
 10
-250.2601088869
 20
477.8072474256
 30
0.0
 11
-250.2601088869
 21
237.2443614259
 31
0.0
  0
CIRCLE
  5
C3
330
1F
100
AcDbEntity
  8
0
  6
Continuous
 62
     8
370
     0
100
AcDbCircle
 10
-242.6903497341
 20
527.2309122339
 30
0.0
 40
320.0
  0
ARC
  5
C4
330
1F
100
AcDbEntity
  8
0
  6
Continuous
 62
     8
370
     0
100
AcDbCircle
 10
-242.6903497341
 20
527.2309122339
 30
0.0
 40
284.0228318114496
100
AcDbArc
 50
33.1424546946
 51
86.8575453054
  0
ARC
  5
C5
330
1F
100
AcDbEntity
  8
0
  6
Continuous
 62
     8
370
     0
100
AcDbCircle
 10
-242.6903497341
 20
527.2309122339
 30
0.0
 40
284.0228318114496
100
AcDbArc
 50
93.1424546946
 51
146.8575453054
  0
ARC
  5
C6
330
1F
100
AcDbEntity
  8
0
  6
Continuous
 62
     8
370
     0
100
AcDbCircle
 10
-242.6903497341
 20
527.2309122339
 30
0.0
 40
284.0228318114496
100
AcDbArc
 50
333.1424546946
 51
26.8575453054
  0
ARC
  5
C7
330
1F
100
AcDbEntity
  8
0
  6
Continuous
 62
     8
370
     0
100
AcDbCircle
 10
-242.6903497341
 20
527.2309122339
 30
0.0
 40
284.0228318114496
100
AcDbArc
 50
153.1424546946
 51
206.8575453054
  0
ARC
  5
C8
330
1F
100
AcDbEntity
  8
0
  6
Continuous
 62
     8
370
     0
100
AcDbCircle
 10
-242.6903497341
 20
527.2309122339
 30
0.0
 40
284.0228318114496
100
AcDbArc
 50
273.1424546946
 51
326.8575453054
  0
ARC
  5
C9
330
1F
100
AcDbEntity
  8
0
  6
Continuous
 62
     8
370
     0
100
AcDbCircle
 10
-242.6903497341
 20
527.2309122339
 30
0.0
 40
284.0228318114496
100
AcDbArc
 50
213.1424546946
 51
266.8575453054
  0
CIRCLE
  5
CA
330
1F
100
AcDbEntity
  8
0
  6
Continuous
 62
     8
370
     0
100
AcDbCircle
 10
-242.6903497341
 20
527.2309122339
 30
0.0
 40
47.0
  0
INSERT
  5
D6
330
1F
100
AcDbEntity
  8
FORMAT
 62
     7
100
AcDbBlockReference
  2
SW_CENTERMARKSYMBOL_0
 10
-242.6903497341
 20
527.2309122339
 30
0.0
  0
ARC
  5
D7
330
1F
100
AcDbEntity
  8
0
  6
Continuous
 62
     7
370
    15
100
AcDbCircle
 10
378.957000407
 20
210.2194963282
 30
0.0
 40
3.0
100
AcDbArc
 50
180.0
 51
275.0
  0
ARC
  5
D8
330
1F
100
AcDbEntity
  8
0
  6
Continuous
 62
     7
370
    15
100
AcDbCircle
 10
378.957000407
 20
844.2423281396
 30
0.0
 40
3.0
100
AcDbArc
 50
85.0
 51
180.0
  0
LINE
  5
D9
330
1F
100
AcDbEntity
  8
0
  6
Continuous
 62
     7
370
    15
100
AcDbLine
 10
379.2184674195
 20
207.2309193865
 30
0.0
 11
391.2574470988
 21
208.2841930643
 31
0.0
  0
LINE
  5
DA
330
1F
100
AcDbEntity
  8
0
  6
Continuous
 62
     7
370
    15
100
AcDbLine
 10
391.2574470988
 20
846.1776314035
 30
0.0
 11
379.2184674195
 21
847.2309050813
 31
0.0
  0
ARC
  5
DB
330
1F
100
AcDbEntity
  8
0
  6
Continuous
 62
     7
370
    15
100
AcDbCircle
 10
389.775799509
 20
225.2194963282
 30
0.0
 40
16.99999999999994
100
AcDbArc
 50
275.0
 51
0.0
  0
ARC
  5
DC
330
1F
100
AcDbEntity
  8
0
  6
Continuous
 62
     7
370
    15
100
AcDbCircle
 10
389.775799509
 20
829.2423281396
 30
0.0
 40
16.9999999999999
100
AcDbArc
 50
40.9217248767
 51
85.0
  0
LINE
  5
DD
330
1F
100
AcDbEntity
  8
0
  6
Continuous
 62
     7
370
    15
100
AcDbLine
 10
406.7758013508
 20
225.2194819704
 30
0.0
 11
406.7758013508
 21
828.8254974142
 31
0.0
  0
LINE
  5
DE
330
1F
100
AcDbEntity
  8
0
  6
Continuous
 62
     7
370
    15
100
AcDbLine
 10
369.3323553554
 20
543.5842642292
 30
0.0
 11
375.9570004432
 21
567.1526653424
 31
0.0
  0
LINE
  5
DF
330
1F
100
AcDbEntity
  8
0
  6
Continuous
 62
     7
370
    15
100
AcDbLine
 10
375.9570004432
 20
487.3091591254
 30
0.0
 11
369.3323879517
 21
510.8774428919
 31
0.0
  0
ARC
  5
E0
330
1F
100
AcDbEntity
  8
0
  6
Continuous
 62
     7
370
    15
100
AcDbCircle
 10
351.957000407
 20
480.2309122339
 30
0.0
 40
3.0
100
AcDbArc
 50
180.0
 51
244.0442877581
  0
ARC
  5
E1
330
1F
100
AcDbEntity
  8
0
  6
Continuous
 62
     7
370
    15
100
AcDbCircle
 10
351.957000407
 20
574.2309122339
 30
0.0
 40
3.0
100
AcDbArc
 50
115.9557122419
 51
180.0
  0
LINE
  5
E2
330
1F
100
AcDbEntity
  8
0
  6
Continuous
 62
     7
370
    15
100
AcDbLine
 10
408.7757979534
 20
829.0930626646
 30
0.0
 11
408.7757979534
 21
829.1886983171
 31
0.0
  0
LINE
  5
E3
330
1F
100
AcDbEntity
  8
0
  6
Continuous
 62
     7
370
    15
100
AcDbLine
 10
408.7757979534
 20
828.8254974142
 30
0.0
 11
408.7757979534
 21
828.9895293966
 31
0.0
  0
LINE
  5
E4
330
1F
100
AcDbEntity
  8
0
  6
Continuous
 62
     7
370
    15
100
AcDbLine
 10
406.7758013508
 20
828.9895591989
 30
0.0
 11
406.7758013508
 21
829.0930626646
 31
0.0
  0
LINE
  5
E5
330
1F
100
AcDbEntity
  8
0
  6
Continuous
 62
     7
370
    15
100
AcDbLine
 10
375.9570004432
 20
210.2194962755
 30
0.0
 11
375.9570004432
 21
844.2423281923
 31
0.0
  0
SPLINE
  5
E6
330
1F
100
AcDbEntity
  8
0
  6
Continuous
 62
     7
370
    15
100
AcDbSpline
210
0.0
220
0.0
230
1.0
 70
     8
 71
     3
 72
    11
 73
     7
 74
     0
 42
0.00000001
 43
0.00000001
 12
1.0
 22
0.0
 32
0.0
 13
1.0
 23
0.0
 33
0.0
 40
0.0
 40
0.0
 40
0.0
 40
0.0
 40
0.172499291199795
 40
0.4479817934729498
 40
0.7231190726366841
 40
1.0
 40
1.0
 40
1.0
 40
1.0
 10
406.7534905872282
 20
828.7541208520618
 30
0.0
 10
406.7467681774073
 20
828.4302374163301
 30
0.0
 10
406.7293100349011
 20
827.589110004118
 30
0.0
 10
406.5366180207667
 20
826.24085231407
 30
0.0
 10
406.203250774722
 20
824.7163859312192
 30
0.0
 10
405.858653889743
 20
823.7297936611766
 30
0.0
 10
405.6858112118181
 20
823.2349393621173
 30
0.0
  0
LINE
  5
E7
330
1F
100
AcDbEntity
  8
0
  6
Continuous
 62
     7
370
    15
100
AcDbLine
 10
406.7570184371
 20
829.2402563348
 30
0.0
 11
406.7538035116
 21
828.3778069273
 31
0.0
  0
SPLINE
  5
E8
330
1F
100
AcDbEntity
  8
0
  6
Continuous
 62
     7
370
    15
100
AcDbSpline
210
0.0
220
0.0
230
1.0
 70
     8
 71
     3
 72
    16
 73
    12
 74
     0
 42
0.00000001
 43
0.00000001
 12
1.0
 22
0.0
 32
0.0
 13
1.0
 23
0.0
 33
0.0
 40
0.0
 40
0.0
 40
0.0
 40
0.0
 40
0.0837512399761243
 40
0.167420178133063
 40
0.2510458956152554
 40
0.3346675341655783
 40
0.418324241252344
 40
0.5020551151561206
 40
0.6679940128821961
 40
0.8338738263593478
 40
1.0
 40
1.0
 40
1.0
 40
1.0
 10
402.1541001685351
 20
840.377793328962
 30
0.0
 10
402.2376395327714
 20
840.2877768377797
 30
0.0
 10
402.4046361676339
 20
840.1078323140567
 30
0.0
 10
402.6475892029675
 20
839.8312332840792
 30
0.0
 10
402.8848002747529
 20
839.5499708852309
 30
0.0
 10
403.1157480872934
 20
839.2635546071702
 30
0.0
 10
403.3405572473102
 20
838.9721054758185
 30
0.0
 10
403.6307115059484
 20
838.5787519052867
 30
0.0
 10
403.976134758087
 20
838.0766178406996
 30
0.0
 10
404.3658261376743
 20
837.458783425061
 30
0.0
 10
404.6028241101447
 20
837.0334666562525
 30
0.0
 10
404.7214110268112
 20
836.8206504718192
 30
0.0
  0
SPLINE
  5
E9
330
1F
100
AcDbEntity
  8
0
  6
Continuous
 62
     7
370
    15
100
AcDbSpline
210
0.0
220
0.0
230
1.0
 70
     8
 71
     3
 72
     9
 73
     5
 74
     0
 42
0.00000001
 43
0.00000001
 12
1.0
 22
0.0
 32
0.0
 13
1.0
 23
0.0
 33
0.0
 40
0.0
 40
0.0
 40
0.0
 40
0.0
 40
0.933786137206325
 40
1.0
 40
1.0
 40
1.0
 40
1.0
 10
404.9497422776159
 20
836.8206558480946
 30
0.0
 10
405.1623011370741
 20
836.400733713255
 30
0.0
 10
405.3899323376123
 20
835.951035310047
 30
0.0
 10
405.5577721996256
 20
835.4803767010184
 30
0.0
 10
405.5688855252203
 20
835.4492125764575
 30
0.0
  0
SPLINE
  5
EA
330
1F
100
AcDbEntity
  8
0
  6
Continuous
 62
     7
370
    15
100
AcDbSpline
210
0.0
220
0.0
230
1.0
 70
     8
 71
     3
 72
    15
 73
    11
 74
     0
 42
0.00000001
 43
0.00000001
 12
1.0
 22
0.0
 32
0.0
 13
1.0
 23
0.0
 33
0.0
 40
0.0
 40
0.0
 40
0.0
 40
0.0
 40
0.100380789318809
 40
0.2006846548423398
 40
0.3009564697079343
 40
0.4012411500768122
 40
0.5015835948333303
 40
0.6676497230344581
 40
0.8337204862385768
 40
1.0
 40
1.0
 40
1.0
 40
1.0
 10
405.3860375503124
 20
835.4492219003907
 30
0.0
 10
405.4329459619406
 20
835.3383934666747
 30
0.0
 10
405.5267268383481
 20
835.1168215292754
 30
0.0
 10
405.6584224784726
 20
834.7808674335043
 30
0.0
 10
405.7834472362168
 20
834.442517957476
 30
0.0
 10
405.9011484004508
 20
834.1014947432783
 30
0.0
 10
406.0358673740472
 20
833.6829978470363
 30
0.0
 10
406.1805067882284
 20
833.1850076157984
 30
0.0
 10
406.3284506919697
 20
832.6058923921324
 30
0.0
 10
406.4098480235617
 20
832.2158127821189
 30
0.0
 10
406.4505722523548
 20
832.0206504718193
 30
0.0
  0
SPLINE
  5
EB
330
1F
100
AcDbEntity
  8
0
  6
Continuous
 62
     7
370
    15
100
AcDbSpline
210
0.0
220
0.0
230
1.0
 70
     8
 71
     3
 72
    10
 73
     6
 74
     0
 42
0.00000001
 43
0.00000001
 12
1.0
 22
0.0
 32
0.0
 13
1.0
 23
0.0
 33
0.0
 40
0.0
 40
0.0
 40
0.0
 40
0.0
 40
0.4568167438603095
 40
0.9129849504185962
 40
1.0
 40
1.0
 40
1.0
 40
1.0
 10
406.4853367409643
 20
832.0206640020099
 30
0.0
 10
406.5606510253451
 20
831.5342479856405
 30
0.0
 10
406.7111726713125
 20
830.5621065119392
 30
0.0
 10
406.7888600079839
 20
829.4852172367287
 30
0.0
 10
406.7697087853218
 20
828.9009707598683
 30
0.0
 10
406.7666408619817
 20
828.8073776021686
 30
0.0
  0
SPLINE
  5
EC
330
1F
100
AcDbEntity
  8
0
  6
Continuous
 62
     7
370
    15
100
AcDbSpline
210
0.0
220
0.0
230
1.0
 70
     8
 71
     3
 72
    25
 73
    21
 74
     0
 42
0.00000001
 43
0.00000001
 12
1.0
 22
0.0
 32
0.0
 13
1.0
 23
0.0
 33
0.0
 40
0.0
 40
0.0
 40
0.0
 40
0.0
 40
0.0575304150689566
 40
0.1154888283337907
 40
0.1728798759446929
 40
0.2306717504126622
 40
0.2880594796471336
 40
0.3458212072664234
 40
0.4032059527162411
 40
0.460941184155793
 40
0.5183236681687374
 40
0.5760406186764855
 40
0.6334220533812357
 40
0.6911313049547616
 40
0.7486784744467764
 40
0.8062249034757957
 40
0.8651705169304382
 40
0.9241146784637176
 40
0.9847611993851239
 40
1.0
 40
1.0
 40
1.0
 40
1.0
 10
360.9189352965888
 20
537.5154087051835
 30
0.0
 10
361.1366759085856
 20
537.5089667773707
 30
0.0
 10
361.5737770164094
 20
537.4960349969476
 30
0.0
 10
362.2271777245303
 20
537.5465486640744
 30
0.0
 10
362.8748606073593
 20
537.6470487286377
 30
0.0
 10
363.5096521592428
 20
537.8003101430847
 30
0.0
 10
364.1308252126395
 20
538.0037076010256
 30
0.0
 10
364.7318713778723
 20
538.2543494094657
 30
0.0
 10
365.3119342273545
 20
538.5506468803094
 30
0.0
 10
365.8654286585235
 20
538.8886890650332
 30
0.0
 10
366.3916823746991
 20
539.2670463956737
 30
0.0
 10
366.8858892559311
 20
539.6813828868924
 30
0.0
 10
367.3473945586056
 20
540.1304160505872
 30
0.0
 10
367.7723829242688
 20
540.6099564892805
 30
0.0
 10
368.1592341437626
 20
541.1179937905047
 30
0.0
 10
368.5075877952586
 20
541.6547130611576
 30
0.0
 10
368.8155022327899
 20
542.2179139325823
 30
0.0
 10
369.0768062713768
 20
542.8111648250137
 30
0.0
 10
369.2481264789863
 20
543.2688657868005
 30
0.0
 10
369.3139741257584
 20
543.532644339982
 30
0.0
 10
369.3271972252961
 20
543.5856146469798
 30
0.0
  0
SPLINE
  5
ED
330
1F
100
AcDbEntity
  8
0
  6
Continuous
 62
     7
370
    15
100
AcDbSpline
210
0.0
220
0.0
230
1.0
 70
     8
 71
     3
 72
    25
 73
    21
 74
     0
 42
0.00000001
 43
0.00000001
 12
1.0
 22
0.0
 32
0.0
 13
1.0
 23
0.0
 33
0.0
 40
0.0
 40
0.0
 40
0.0
 40
0.0
 40
0.011169812683528
 40
0.073177450693795
 40
0.133148600631378
 40
0.1935143101510198
 40
0.2534834060512559
 40
0.3138318623243476
 40
0.3738000064998812
 40
0.434142599020936
 40
0.4941112059918332
 40
0.5544611704575224
 40
0.6144317536380093
 40
0.6748023688928638
 40
0.7337797388376219
 40
0.7931639657602981
 40
0.8442771459929268
 40
0.8953890288944303
 40
0.9476950615316526
 40
1.0
 40
1.0
 40
1.0
 40
1.0
 10
369.3281457773384
 20
510.8763569697824
 30
0.0
 10
369.3186401752752
 20
510.9152124139108
 30
0.0
 10
369.2563655654851
 20
511.1697683699907
 30
0.0
 10
369.0880109467132
 20
511.6221657875687
 30
0.0
 10
368.8235336340813
 20
512.2288517086508
 30
0.0
 10
368.5076181265076
 20
512.8080136374934
 30
0.0
 10
368.14532260914
 20
513.3649128038435
 30
0.0
 10
367.7390504477715
 20
513.8932523385595
 30
0.0
 10
367.2901862711452
 20
514.3918400874355
 30
0.0
 10
366.8031958277731
 20
514.8551848780291
 30
0.0
 10
366.2789193769647
 20
515.281879764421
 30
0.0
 10
365.7225003579737
 20
515.6668672318523
 30
0.0
 10
365.134756299718
 20
516.0085381516254
 30
0.0
 10
364.5249978416189
 20
516.3006436310462
 30
0.0
 10
363.8947690923388
 20
516.5423850930785
 30
0.0
 10
363.2797082471814
 20
516.7225398833149
 30
0.0
 10
362.6813194906124
 20
516.8487543499797
 30
0.0
 10
362.1016187137395
 20
516.9269981600501
 30
0.0
 10
361.5127241145265
 20
516.9652475515612
 30
0.0
 10
361.1168635224121
 20
516.9526929818239
 30
0.0
 10
360.9189352965888
 20
516.9464157626119
 30
0.0
  0
ELLIPSE
  5
EE
330
1F
100
AcDbEntity
  8
0
  6
Continuous
 62
     7
370
    15
100
AcDbEllipse
 10
57.3612707909
 20
527.2309122339
 30
0.0
 11
954.0820284238235
 21
-43.14625551328169
 31
0.0
210
0.0
220
0.0
230
1.0
 40
0.0264826195
 41
1.248198525831561
 42
1.258090394617405
  0
SPLINE
  5
EF
330
1F
100
AcDbEntity
  8
0
  6
Continuous
 62
     7
370
    15
100
AcDbSpline
210
0.0
220
0.0
230
1.0
 70
     8
 71
     3
 72
    12
 73
     8
 74
     0
 42
0.00000001
 43
0.00000001
 12
1.0
 22
0.0
 32
0.0
 13
1.0
 23
0.0
 33
0.0
 40
0.0
 40
0.0
 40
0.0
 40
0.0
 40
0.2499999999999987
 40
0.2499999999999987
 40
0.4999999999999973
 40
0.4999999999999973
 40
1.0
 40
1.0
 40
1.0
 40
1.0
 10
350.2878753157496
 20
537.8186693379996
 30
0.0
 10
350.4089286752559
 20
537.8553233444067
 30
0.0
 10
350.5380903780975
 20
537.8875050955712
 30
0.0
 10
350.8043265326139
 20
537.9404240880624
 30
0.0
 10
350.9410467480265
 20
537.9612348069093
 30
0.0
 10
351.3618594707765
 20
538.0069626599305
 30
0.0
 10
351.6594592986555
 20
538.014924629058
 30
0.0
 10
351.9570004069616
 20
537.9989151852008
 30
0.0
  0
LINE
  5
F0
330
1F
100
AcDbEntity
  8
0
  6
Continuous
 62
     7
370
    15
100
AcDbLine
 10
350.2878760002
 20
537.8186696872
 30
0.0
 11
375.9570004432
 21
629.1413245455
 31
0.0
  0
LINE
  5
F1
330
1F
100
AcDbEntity
  8
0
  6
Continuous
 62
     7
370
    15
100
AcDbLine
 10
350.2878760002
 20
516.6431547806
 30
0.0
 11
375.9570004432
 21
425.3204999223
 31
0.0
  0
SPLINE
  5
F2
330
1F
100
AcDbEntity
  8
0
  6
Continuous
 62
     7
370
    15
100
AcDbSpline
210
0.0
220
0.0
230
1.0
 70
     8
 71
     3
 72
    10
 73
     6
 74
     0
 42
0.00000001
 43
0.00000001
 12
1.0
 22
0.0
 32
0.0
 13
1.0
 23
0.0
 33
0.0
 40
0.0
 40
0.0
 40
0.0
 40
0.0
 40
0.5
 40
0.5
 40
1.0
 40
1.0
 40
1.0
 40
1.0
 10
351.9570004069616
 20
516.4629092825937
 30
0.0
 10
351.6587766867359
 20
516.4468631102411
 30
0.0
 10
351.3675765533584
 20
516.4543565177812
 30
0.0
 10
350.799068361345
 20
516.5159026778672
 30
0.0
 10
350.5319010963137
 20
516.5692660402166
 30
0.0
 10
350.2878753157495
 20
516.6431551297948
 30
0.0
  0
ELLIPSE
  5
F3
330
1F
100
AcDbEntity
  8
0
  6
Continuous
 62
     7
370
    15
100
AcDbEllipse
 10
57.361270791
 20
527.2309122339
 30
0.0
 11
954.082028423718
 21
43.14625551328106
 31
0.0
210
0.0
220
0.0
230
1.0
 40
0.0264826195
 41
5.025094912562232
 42
5.034986781348081
  0
SPLINE
  5
F4
330
1F
100
AcDbEntity
  8
0
  6
Continuous
 62
     7
370
    15
100
AcDbSpline
210
0.0
220
0.0
230
1.0
 70
     8
 71
     3
 72
    10
 73
     6
 74
     0
 42
0.00000001
 43
0.00000001
 12
1.0
 22
0.0
 32
0.0
 13
1.0
 23
0.0
 33
0.0
 40
0.0
 40
0.0
 40
0.0
 40
0.0
 40
0.5
 40
0.5
 40
1.0
 40
1.0
 40
1.0
 40
1.0
 10
350.5084032311186
 20
543.4749418267494
 30
0.0
 10
350.4805837688112
 20
542.555532592994
 30
0.0
 10
350.4484137186294
 20
541.6244190622687
 30
0.0
 10
350.374991029243
 20
539.7377572986024
 30
0.0
 10
350.333617628485
 20
538.7799231145149
 30
0.0
 10
350.2878753157495
 20
537.8186693380004
 30
0.0
  0
LINE
  5
F5
330
1F
100
AcDbEntity
  8
0
  6
Continuous
 62
     7
370
    15
100
AcDbLine
 10
350.5084038726
 20
543.4749418601
 30
0.0
 11
375.9570004432
 21
634.0130282298
 31
0.0
  0
SPLINE
  5
F6
330
1F
100
AcDbEntity
  8
0
  6
Continuous
 62
     7
370
    15
100
AcDbSpline
210
0.0
220
0.0
230
1.0
 70
     8
 71
     3
 72
    10
 73
     6
 74
     0
 42
0.00000001
 43
0.00000001
 12
1.0
 22
0.0
 32
0.0
 13
1.0
 23
0.0
 33
0.0
 40
0.0
 40
0.0
 40
0.0
 40
0.0
 40
0.5
 40
0.5
 40
1.0
 40
1.0
 40
1.0
 40
1.0
 10
350.2878753157495
 20
516.6431551297948
 30
0.0
 10
350.333519545951
 20
515.6839625128622
 30
0.0
 10
350.3748514931735
 20
514.7274903975808
 30
0.0
 10
350.4483829410806
 20
512.8383581626342
 30
0.0
 10
350.4805764027115
 20
511.9065353180432
 30
0.0
 10
350.5084032311186
 20
510.9868826410451
 30
0.0
  0
LINE
  5
F7
330
1F
100
AcDbEntity
  8
0
  6
Continuous
 62
     7
370
    15
100
AcDbLine
 10
350.5084038726
 20
510.9868826076
 30
0.0
 11
375.9570004432
 21
420.448796238
 31
0.0
  0
ELLIPSE
  5
F8
330
1F
100
AcDbEntity
  8
0
  6
Continuous
 62
     7
370
    15
100
AcDbEllipse
 10
522.6194038123
 20
527.2309122339
 30
0.0
 11
954.0820284238334
 21
-43.1462555132818
 31
0.0
210
0.0
220
0.0
230
1.0
 40
0.0264826195
 41
1.74851540687811
 42
1.751837748982035
  0
SPLINE
  5
F9
330
1F
100
AcDbEntity
  8
0
  6
Continuous
 62
     7
370
    15
100
AcDbSpline
210
0.0
220
0.0
230
1.0
 70
     8
 71
     3
 72
    12
 73
     8
 74
     0
 42
0.00000001
 43
0.00000001
 12
1.0
 22
0.0
 32
0.0
 13
1.0
 23
0.0
 33
0.0
 40
0.0
 40
0.0
 40
0.0
 40
0.0
 40
0.2499999999999997
 40
0.2499999999999997
 40
0.4999999999999993
 40
0.4999999999999993
 40
1.0
 40
1.0
 40
1.0
 40
1.0
 10
350.5084032311186
 20
559.719661630138
 30
0.0
 10
350.6181799337918
 20
559.7464094914407
 30
0.0
 10
350.7333415469472
 20
559.7697617036715
 30
0.0
 10
350.9670855958055
 20
559.8081065332542
 30
0.0
 10
351.0861716541515
 20
559.8232769628787
 30
0.0
 10
351.4499910943399
 20
559.8569284127485
 30
0.0
 10
351.7049844986486
 20
559.863396400845
 30
0.0
 10
351.9570004069616
 20
559.8532234214981
 30
0.0
  0
LINE
  5
FA
330
1F
100
AcDbEntity
  8
0
  6
Continuous
 62
     7
370
    15
100
AcDbLine
 10
350.5084038726
 20
559.7196606651
 30
0.0
 11
375.9570004432
 21
650.2577526227
 31
0.0
  0
LINE
  5
FB
330
1F
100
AcDbEntity
  8
0
  6
Continuous
 62
     7
370
    15
100
AcDbLine
 10
350.5084038726
 20
494.7421638027
 30
0.0
 11
375.9570004432
 21
404.2040718451
 31
0.0
  0
SPLINE
  5
FC
330
1F
100
AcDbEntity
  8
0
  6
Continuous
 62
     7
370
    15
100
AcDbSpline
210
0.0
220
0.0
230
1.0
 70
     8
 71
     3
 72
    10
 73
     6
 74
     0
 42
0.00000001
 43
0.00000001
 12
1.0
 22
0.0
 32
0.0
 13
1.0
 23
0.0
 33
0.0
 40
0.0
 40
0.0
 40
0.0
 40
0.0
 40
0.5
 40
0.5
 40
1.0
 40
1.0
 40
1.0
 40
1.0
 10
351.9570004069616
 20
494.6086010462964
 30
0.0
 10
351.7017087463882
 20
494.5982958365666
 30
0.0
 10
351.4523037131044
 20
494.6047329696649
 30
0.0
 10
350.9647861002979
 20
494.6497244607056
 30
0.0
 10
350.7271222632841
 20
494.6888704159121
 30
0.0
 10
350.5084032311215
 20
494.7421628376559
 30
0.0
  0
ELLIPSE
  5
FD
330
1F
100
AcDbEntity
  8
0
  6
Continuous
 62
     7
370
    15
100
AcDbEllipse
 10
522.6194038122
 20
527.2309122339
 30
0.0
 11
954.0820284237026
 21
43.14625551328106
 31
0.0
210
0.0
220
0.0
230
1.0
 40
0.0264826195
 41
4.531347558197568
 42
4.534669900301493
  0
SPLINE
  5
FE
330
1F
100
AcDbEntity
  8
0
  6
Continuous
 62
     7
370
    15
100
AcDbSpline
210
0.0
220
0.0
230
1.0
 70
     8
 71
     3
 72
     8
 73
     4
 74
     0
 42
0.00000001
 43
0.00000001
 12
1.0
 22
0.0
 32
0.0
 13
1.0
 23
0.0
 33
0.0
 40
0.0
 40
0.0
 40
0.0
 40
0.0
 40
1.0
 40
1.0
 40
1.0
 40
1.0
 10
350.2878753157495
 20
563.8067964669303
 30
0.0
 10
350.3792576612618
 20
562.5366574548616
 30
0.0
 10
350.4523887788824
 20
561.172327424175
 30
0.0
 10
350.5084032311186
 20
559.7196616301379
 30
0.0
  0
LINE
  5
FF
330
1F
100
AcDbEntity
  8
0
  6
Continuous
 62
     7
370
    15
100
AcDbLine
 10
350.2878760002
 20
563.8067958608
 30
0.0
 11
375.9570004432
 21
655.129456307
 31
0.0
  0
LINE
  5
100
330
1F
100
AcDbEntity
  8
0
  6
Continuous
 62
     7
370
    15
100
AcDbLine
 10
350.2878760002
 20
490.655028607
 30
0.0
 11
375.9570004432
 21
399.3323681608
 31
0.0
  0
SPLINE
  5
101
330
1F
100
AcDbEntity
  8
0
  6
Continuous
 62
     7
370
    15
100
AcDbSpline
210
0.0
220
0.0
230
1.0
 70
     8
 71
     3
 72
     8
 73
     4
 74
     0
 42
0.00000001
 43
0.00000001
 12
1.0
 22
0.0
 32
0.0
 13
1.0
 23
0.0
 33
0.0
 40
0.0
 40
0.0
 40
0.0
 40
0.0
 40
1.0
 40
1.0
 40
1.0
 40
1.0
 10
350.5084032311191
 20
494.7421628376717
 30
0.0
 10
350.4520399971992
 20
493.2804518204539
 30
0.0
 10
350.3786349661467
 20
491.9165120659201
 30
0.0
 10
350.2878753157494
 20
490.6550280008637
 30
0.0
  0
SPLINE
  5
102
330
1F
100
AcDbEntity
  8
0
  6
Continuous
 62
     7
370
    15
100
AcDbSpline
210
0.0
220
0.0
230
1.0
 70
     8
 71
     3
 72
    10
 73
     6
 74
     0
 42
0.00000001
 43
0.00000001
 12
1.0
 22
0.0
 32
0.0
 13
1.0
 23
0.0
 33
0.0
 40
0.0
 40
0.0
 40
0.0
 40
0.0
 40
0.5
 40
0.5
 40
1.0
 40
1.0
 40
1.0
 40
1.0
 10
350.2878753157495
 20
574.394553571033
 30
0.0
 10
350.5332627188487
 20
574.5632783887137
 30
0.0
 10
350.7977077810513
 20
574.6910435525978
 30
0.0
 10
351.3651793125164
 20
574.863652831795
 30
0.0
 10
351.6592791941628
 20
574.9050572409283
 30
0.0
 10
351.9570004069613
 20
574.9001071504074
 30
0.0
  0
SPLINE
  5
103
330
1F
100
AcDbEntity
  8
0
  6
Continuous
 62
     7
370
    15
100
AcDbSpline
210
0.0
220
0.0
230
1.0
 70
     8
 71
     3
 72
    10
 73
     6
 74
     0
 42
0.00000001
 43
0.00000001
 12
1.0
 22
0.0
 32
0.0
 13
1.0
 23
0.0
 33
0.0
 40
0.0
 40
0.0
 40
0.0
 40
0.0
 40
0.5
 40
0.5
 40
1.0
 40
1.0
 40
1.0
 40
1.0
 10
351.9570004069616
 20
479.5617173173908
 30
0.0
 10
351.6592798784317
 20
479.5567672382471
 30
0.0
 10
351.3685597757311
 20
479.5975225436842
 30
0.0
 10
350.8009629850888
 20
479.7694160270997
 30
0.0
 10
350.5332922160931
 20
479.8985257972049
 30
0.0
 10
350.2878753157525
 20
480.0672708967602
 30
0.0
  0
LINE
  5
104
330
1F
100
AcDbEntity
  8
0
  6
Continuous
 62
     7
370
    15
100
AcDbLine
 10
348.9570011399
 20
527.2309122339
 30
0.0
 11
348.9570011399
 21
574.2309106246
 31
0.0
  0
LINE
  5
105
330
1F
100
AcDbEntity
  8
0
  6
Continuous
 62
     7
370
    15
100
AcDbLine
 10
348.9570011399
 20
480.2309138432
 30
0.0
 11
348.9570011399
 21
527.2309122339
 31
0.0
  0
ELLIPSE
  5
106
330
1F
100
AcDbEntity
  8
0
  6
Continuous
 62
     7
370
    15
100
AcDbEllipse
 10
57.361270791
 20
527.2309122339
 30
0.0
 11
954.082712441899
 21
-0.369275796908255
 31
0.0
210
0.0
220
0.0
230
1.0
 40
0.0524049285
 41
5.026312813269405
 42
5.027902538520841
  0
ELLIPSE
  5
107
330
1F
100
AcDbEntity
  8
0
  6
Continuous
 62
     7
370
    15
100
AcDbEllipse
 10
57.3612707909
 20
527.2309122339
 30
0.0
 11
954.0827124420049
 21
0.369275796907914
 31
0.0
210
0.0
220
0.0
230
1.0
 40
0.0524049285
 41
1.255282768658769
 42
1.256872493910206
  0
LINE
  5
108
330
1F
100
AcDbEntity
  8
0
  6
Continuous
 62
     7
370
    15
100
AcDbLine
 10
406.7758013508
 20
823.2349393621
 30
0.0
 11
407.8749221764
 21
823.2349393621
 31
0.0
  0
SPLINE
  5
109
330
1F
100
AcDbEntity
  8
0
  6
Continuous
 62
     7
370
    15
100
AcDbSpline
210
0.0
220
0.0
230
1.0
 70
     8
 71
     3
 72
    21
 73
    17
 74
     0
 42
0.00000001
 43
0.00000001
 12
1.0
 22
0.0
 32
0.0
 13
1.0
 23
0.0
 33
0.0
 40
0.0
 40
0.0
 40
0.0
 40
0.0
 40
0.0408272719745132
 40
0.082618247719504
 40
0.1253724026539963
 40
0.1861363527378183
 40
0.2499274286132217
 40
0.374095259852624
 40
0.4983168478776783
 40
0.5606109880112492
 40
0.6230767659697467
 40
0.7484034760183008
 40
0.8145266312663356
 40
0.8741143847476031
 40
0.9392152508424482
 40
1.0
 40
1.0
 40
1.0
 40
1.0
 10
408.4853356229603
 20
832.0206504718193
 30
0.0
 10
408.5065020997251
 20
831.901363115856
 30
0.0
 10
408.5493346755042
 20
831.6599726959688
 30
0.0
 10
408.6046246470173
 20
831.2922502039451
 30
0.0
 10
408.6602253799931
 20
830.8650376372442
 30
0.0
 10
408.7111956459497
 20
830.3717689106383
 30
0.0
 10
408.7640678255067
 20
829.6367461996094
 30
0.0
 10
408.7868631241059
 20
828.71192657873
 30
0.0
 10
408.7523672513638
 20
827.7918584137685
 30
0.0
 10
408.6904192273878
 20
827.0566819947629
 30
0.0
 10
408.6052093096465
 20
826.3202504385794
 30
0.0
 10
408.4835490114025
 20
825.576394650833
 30
0.0
 10
408.3282693396069
 20
824.8471115674585
 30
0.0
 10
408.1924567423557
 20
824.2963816427557
 30
0.0
 10
408.0448549823547
 20
823.7645393690386
 30
0.0
 10
407.930257143384
 20
823.4073888232948
 30
0.0
 10
407.874922775896
 20
823.2349361861051
 30
0.0
  0
SPLINE
  5
10A
330
1F
100
AcDbEntity
  8
0
  6
Continuous
 62
     7
370
    15
100
AcDbSpline
210
0.0
220
0.0
230
1.0
 70
     8
 71
     3
 72
     9
 73
     5
 74
     0
 42
0.00000001
 43
0.00000001
 12
1.0
 22
0.0
 32
0.0
 13
1.0
 23
0.0
 33
0.0
 40
0.0
 40
0.0
 40
0.0
 40
0.0
 40
0.499746078219883
 40
1.0
 40
1.0
 40
1.0
 40
1.0
 10
408.4505722523549
 20
832.0206504718193
 30
0.0
 10
408.4569366186782
 20
832.0206507651976
 30
0.0
 10
408.4696718188143
 20
832.0206513522523
 30
0.0
 10
408.4801125874859
 20
832.0206507653965
 30
0.0
 10
408.4853356229602
 20
832.0206504718193
 30
0.0
  0
SPLINE
  5
10B
330
1F
100
AcDbEntity
  8
0
  6
Continuous
 62
     7
370
    15
100
AcDbSpline
210
0.0
220
0.0
230
1.0
 70
     8
 71
     3
 72
    15
 73
    11
 74
     0
 42
0.00000001
 43
0.00000001
 12
1.0
 22
0.0
 32
0.0
 13
1.0
 23
0.0
 33
0.0
 40
0.0
 40
0.0
 40
0.0
 40
0.0
 40
0.0977098769148051
 40
0.1967231895646041
 40
0.2970399399335558
 40
0.3986601279883819
 40
0.5015837517631373
 40
0.6628683719517958
 40
0.8290071563267831
 40
1.0
 40
1.0
 40
1.0
 40
1.0
 10
407.3860375503125
 20
835.4492219003906
 30
0.0
 10
407.4317185875001
 20
835.3413513927503
 30
0.0
 10
407.5236900403556
 20
835.1241714003789
 30
0.0
 10
407.6539053133577
 20
834.7926821552893
 30
0.0
 10
407.7792444903696
 20
834.4543339218486
 30
0.0
 10
407.8987341069056
 20
834.1089027798362
 30
0.0
 10
408.0332469171463
 20
833.6914261666515
 30
0.0
 10
408.1774019053206
 20
833.1959658124055
 30
0.0
 10
408.3259713895053
 20
832.6170082313073
 30
0.0
 10
408.40864186512
 20
832.2213353725012
 30
0.0
 10
408.4505722523548
 20
832.0206504718193
 30
0.0
  0
SPLINE
  5
10C
330
1F
100
AcDbEntity
  8
0
  6
Continuous
 62
     7
370
    15
100
AcDbSpline
210
0.0
220
0.0
230
1.0
 70
     8
 71
     3
 72
    12
 73
     8
 74
     0
 42
0.00000001
 43
0.00000001
 12
1.0
 22
0.0
 32
0.0
 13
1.0
 23
0.0
 33
0.0
 40
0.0
 40
0.0
 40
0.0
 40
0.0
 40
0.2486466723414451
 40
0.4967740111808877
 40
0.7475576573338872
 40
0.8739336726421404
 40
1.0
 40
1.0
 40
1.0
 40
1.0
 10
407.5584793000542
 20
835.4492219003907
 30
0.0
 10
407.54905945226
 20
835.4492218814207
 30
0.0
 10
407.5302394313468
 20
835.4492218435204
 30
0.0
 10
407.4915680682212
 20
835.4492180782944
 30
0.0
 10
407.4523375732873
 20
835.4492342277831
 30
0.0
 10
407.4162461696218
 20
835.449225808369
 30
0.0
 10
407.3960988513935
 20
835.4492232019843
 30
0.0
 10
407.3860375503125
 20
835.4492219003906
 30
0.0
  0
SPLINE
  5
10D
330
1F
100
AcDbEntity
  8
0
  6
Continuous
 62
     7
370
    15
100
AcDbSpline
210
0.0
220
0.0
230
1.0
 70
     8
 71
     3
 72
    12
 73
     8
 74
     0
 42
0.00000001
 43
0.00000001
 12
1.0
 22
0.0
 32
0.0
 13
1.0
 23
0.0
 33
0.0
 40
0.0
 40
0.0
 40
0.0
 40
0.0
 40
0.1101210542176295
 40
0.3350356836940625
 40
0.5559749529481539
 40
0.7771244620364992
 40
1.0
 40
1.0
 40
1.0
 40
1.0
 10
408.7443416020807
 20
829.9991724744525
 30
0.0
 10
408.7367597277005
 20
830.204032735365
 30
0.0
 10
408.7136923997978
 20
830.8273058965616
 30
0.0
 10
408.5747438573773
 20
831.8556870164164
 30
0.0
 10
408.3328586897572
 20
833.0768178867319
 30
0.0
 10
408.0026723568178
 20
834.277752352482
 30
0.0
 10
407.7069280727608
 20
835.0577152026543
 30
0.0
 10
407.5584811172422
 20
835.4492125764575
 30
0.0
  0
SPLINE
  5
10E
330
1F
100
AcDbEntity
  8
0
  6
Continuous
 62
     7
370
    15
100
AcDbSpline
210
0.0
220
0.0
230
1.0
 70
     8
 71
     3
 72
    10
 73
     6
 74
     0
 42
0.00000001
 43
0.00000001
 12
1.0
 22
0.0
 32
0.0
 13
1.0
 23
0.0
 33
0.0
 40
0.0
 40
0.0
 40
0.0
 40
0.0
 40
0.3869260127968184
 40
0.7734783717017244
 40
1.0
 40
1.0
 40
1.0
 40
1.0
 10
408.3907631239828
 20
832.6439199701039
 30
0.0
 10
408.4784220471948
 20
832.1748698961442
 30
0.0
 10
408.6536552415233
 20
831.2372227092043
 30
0.0
 10
408.7684949761416
 20
830.0086736649577
 30
0.0
 10
408.7635424972819
 20
829.2542214573156
 30
0.0
 10
408.7617126307424
 20
828.9754627004352
 30
0.0
  0
LINE
  5
10F
330
1F
100
AcDbEntity
  8
0
  6
Continuous
 62
     7
370
    15
100
AcDbLine
 10
404.7214117846
 20
836.8206558481
 30
0.0
 11
406.7214121125
 21
836.8206558481
 31
0.0
  0
LINE
  5
110
330
1F
100
AcDbEntity
  8
0
  6
Continuous
 62
     7
370
    15
100
AcDbLine
 10
402.1541000358
 20
840.3778014436
 30
0.0
 11
404.1541003636
 21
840.3778014436
 31
0.0
  0
SPLINE
  5
111
330
1F
100
AcDbEntity
  8
0
  6
Continuous
 62
     7
370
    15
100
AcDbSpline
210
0.0
220
0.0
230
1.0
 70
     8
 71
     3
 72
    16
 73
    12
 74
     0
 42
0.00000001
 43
0.00000001
 12
1.0
 22
0.0
 32
0.0
 13
1.0
 23
0.0
 33
0.0
 40
0.0
 40
0.0
 40
0.0
 40
0.0
 40
0.0823719553401702
 40
0.1652654177087663
 40
0.2486804363067192
 40
0.3326170583248994
 40
0.4170753289752929
 40
0.5020552915225471
 40
0.6653451214516879
 40
0.8313266228013608
 40
1.0
 40
1.0
 40
1.0
 40
1.0
 10
404.1541001685351
 20
840.3777933289621
 30
0.0
 10
404.2362750790058
 20
840.2892700903994
 30
0.0
 10
404.4011451594602
 20
840.1116631617116
 30
0.0
 10
404.64192646035
 20
839.837774881363
 30
0.0
 10
404.8786594658206
 20
839.5573972986165
 30
0.0
 10
405.1106071988867
 20
839.2700810525718
 30
0.0
 10
405.337669781153
 20
838.9759888291794
 30
0.0
 10
405.6273704876255
 20
838.5833890222945
 30
0.0
 10
405.9718428161704
 20
838.0829216903933
 30
0.0
 10
406.3619939415283
 20
837.4653754722588
 30
0.0
 10
406.6009645926892
 20
837.0367081676607
 30
0.0
 10
406.7214110268112
 20
836.8206504718192
 30
0.0
  0
SPLINE
  5
112
330
1F
100
AcDbEntity
  8
0
  6
Continuous
 62
     7
370
    15
100
AcDbSpline
210
0.0
220
0.0
230
1.0
 70
     8
 71
     3
 72
    13
 73
     9
 74
     0
 42
0.00000001
 43
0.00000001
 12
1.0
 22
0.0
 32
0.0
 13
1.0
 23
0.0
 33
0.0
 40
0.0
 40
0.0
 40
0.0
 40
0.0
 40
0.1926361653951103
 40
0.3830731408133883
 40
0.5731558981134234
 40
0.7638530316963686
 40
0.9573232254223434
 40
1.0
 40
1.0
 40
1.0
 40
1.0
 10
406.9497426054414
 20
836.8206558480945
 30
0.0
 10
407.0978157352523
 20
836.5172663340719
 30
0.0
 10
407.3922715493534
 20
835.9139508881478
 30
0.0
 10
407.761109929377
 20
834.9836166277715
 30
0.0
 10
408.0773936061543
 20
834.0405506070507
 30
0.0
 10
408.3319108507233
 20
833.0765721966048
 30
0.0
 10
408.4918490749314
 20
832.3531063384506
 30
0.0
 10
408.5479528450277
 20
831.9483726462918
 30
0.0
 10
408.5580919883188
 20
831.875228668758
 30
0.0
  0
SPLINE
  5
113
330
1F
100
AcDbEntity
  8
0
  6
Continuous
 62
     7
370
    15
100
AcDbSpline
210
0.0
220
0.0
230
1.0
 70
     8
 71
     3
 72
    12
 73
     8
 74
     0
 42
0.00000001
 43
0.00000001
 12
1.0
 22
0.0
 32
0.0
 13
1.0
 23
0.0
 33
0.0
 40
0.0
 40
0.0
 40
0.0
 40
0.0
 40
0.1662322202712857
 40
0.3329588916405654
 40
0.5001923881985297
 40
0.7497383858952915
 40
0.9999999999999999
 40
0.9999999999999999
 40
0.9999999999999999
 40
0.9999999999999999
 10
406.7214110268113
 20
836.8206504718192
 30
0.0
 10
406.739400825813
 20
836.8206497952659
 30
0.0
 10
406.7754339337549
 20
836.820648440147
 30
0.0
 10
406.8217152329907
 20
836.8206479878893
 30
0.0
 10
406.8691457599596
 20
836.8206521299849
 30
0.0
 10
406.9143982205025
 20
836.8206461902621
 30
0.0
 10
406.9379491251008
 20
836.8206490432719
 30
0.0
 10
406.9497414373009
 20
836.8206504718192
 30
0.0
  0
SPLINE
  5
114
330
1F
100
AcDbEntity
  8
0
  6
Continuous
 62
     7
370
    15
100
AcDbSpline
210
0.0
220
0.0
230
1.0
 70
     8
 71
     3
 72
    15
 73
    11
 74
     0
 42
0.00000001
 43
0.00000001
 12
1.0
 22
0.0
 32
0.0
 13
1.0
 23
0.0
 33
0.0
 40
0.0
 40
0.0
 40
0.0
 40
0.0
 40
0.1247666584653631
 40
0.2491746093851925
 40
0.3732332179369381
 40
0.4969518374018222
 40
0.6223265535595087
 40
0.7484673920279881
 40
0.8746148189651192
 40
1.0
 40
1.0
 40
1.0
 40
1.0
 10
404.5879497048676
 20
840.3777933289622
 30
0.0
 10
404.5798009524744
 20
840.3777917630109
 30
0.0
 10
404.5635268755732
 20
840.3777886356103
 30
0.0
 10
404.5295203144578
 20
840.3777805200598
 30
0.0
 10
404.4884325511291
 20
840.3777890047123
 30
0.0
 10
404.4392245691392
 20
840.3777898489365
 30
0.0
 10
404.3816657075804
 20
840.3778119716264
 30
0.0
 10
404.315070041125
 20
840.3777886677921
 30
0.0
 10
404.2403143464206
 20
840.3777932732672
 30
0.0
 10
404.1827801104679
 20
840.3777933104346
 30
0.0
 10
404.1541001685359
 20
840.377793328962
 30
0.0
  0
SPLINE
  5
115
330
1F
100
AcDbEntity
  8
0
  6
Continuous
 62
     7
370
    15
100
AcDbSpline
210
0.0
220
0.0
230
1.0
 70
     8
 71
     3
 72
     9
 73
     5
 74
     0
 42
0.00000001
 43
0.00000001
 12
1.0
 22
0.0
 32
0.0
 13
1.0
 23
0.0
 33
0.0
 40
0.0
 40
0.0
 40
0.0
 40
0.0
 40
0.1558298058437307
 40
1.0
 40
1.0
 40
1.0
 40
1.0
 10
408.7729592821535
 20
829.3984470620837
 30
0.0
 10
408.7735183065116
 20
829.4219723238874
 30
0.0
 10
408.7771057098012
 20
829.5729399881048
 30
0.0
 10
408.7662438785321
 20
829.7237476223255
 30
0.0
 10
408.7570746443208
 20
829.8510549321857
 30
0.0
  0
SPLINE
  5
116
330
1F
100
AcDbEntity
  8
0
  6
Continuous
 62
     7
370
    15
100
AcDbSpline
210
0.0
220
0.0
230
1.0
 70
     8
 71
     3
 72
    15
 73
    11
 74
     0
 42
0.00000001
 43
0.00000001
 12
1.0
 22
0.0
 32
0.0
 13
1.0
 23
0.0
 33
0.0
 40
0.0
 40
0.0
 40
0.0
 40
0.0
 40
0.0602982662327943
 40
0.1776413816876447
 40
0.294558238275361
 40
0.4370103010985435
 40
0.5778574485112893
 40
0.7179776355947642
 40
0.858352758372367
 40
1.0
 40
1.0
 40
1.0
 40
1.0
 10
408.5181196234163
 20
832.1358797803607
 30
0.0
 10
408.4884175436065
 20
832.3170126450908
 30
0.0
 10
408.4009138917432
 20
832.8506381433011
 30
0.0
 10
408.1820089611842
 20
833.7232816909911
 30
0.0
 10
407.844917542737
 20
834.8246518649809
 30
0.0
 10
407.3995133419936
 20
835.9695758554608
 30
0.0
 10
406.8352919146109
 20
837.1460765955417
 30
0.0
 10
406.1801943336179
 20
838.2741081075724
 30
0.0
 10
405.4403801303654
 20
839.3604507973075
 30
0.0
 10
404.8729462414588
 20
840.0376663223858
 30
0.0
 10
404.5879495344099
 20
840.377801443645
 30
0.0
  0
LINE
  5
117
330
1F
100
AcDbEntity
  8
0
  6
Continuous
 62
     7
370
    15
100
AcDbLine
 10
408.7727469406
 20
829.0150103822
 30
0.0
 11
408.7730673156
 21
829.2066393152
 31
0.0
  0
LINE
  5
118
330
1F
100
AcDbEntity
  8
0
  6
Continuous
 62
     7
370
    15
100
AcDbLine
 10
406.4505723319
 20
832.020664002
 30
0.0
 11
408.4505726597
 21
832.020664002
 31
0.0
  0
LINE
  5
119
330
1F
100
AcDbEntity
  8
0
  6
Continuous
 62
     7
370
    15
100
AcDbLine
 10
405.3860371015
 20
835.4492125765
 30
0.0
 11
407.3860374293
 21
835.4492125765
 31
0.0
  0
LINE
  5
11A
330
1F
100
AcDbEntity
  8
0
  6
Continuous
 62
     7
370
    15
100
AcDbLine
 10
350.2878760002
 20
574.3945551768
 30
0.0
 11
375.9570004432
 21
757.0398686186
 31
0.0
  0
LINE
  5
11B
330
1F
100
AcDbEntity
  8
0
  6
Continuous
 62
     7
370
    15
100
AcDbLine
 10
350.2878760002
 20
480.067269291
 30
0.0
 11
375.9570004432
 21
297.4219558492
 31
0.0
  0
SPLINE
  5
11C
330
1F
100
AcDbEntity
  8
0
  6
Continuous
 62
     7
370
    15
100
AcDbSpline
210
0.0
220
0.0
230
1.0
 70
     8
 71
     3
 72
     9
 73
     5
 74
     0
 42
0.00000001
 43
0.00000001
 12
1.0
 22
0.0
 32
0.0
 13
1.0
 23
0.0
 33
0.0
 40
0.0
 40
0.0
 40
0.0
 40
0.0
 40
0.8274862113959981
 40
1.0
 40
1.0
 40
1.0
 40
1.0
 10
408.7732759318288
 20
828.6670384660449
 30
0.0
 10
408.7745234676905
 20
828.7168599653546
 30
0.0
 10
408.7760310890194
 20
828.7770682185237
 30
0.0
 10
408.7754732333518
 20
828.8857536374459
 30
0.0
 10
408.7753769955572
 20
828.9045033708301
 30
0.0
  0
LINE
  5
11D
330
1F
100
AcDbEntity
  8
0
  6
Continuous
 62
     8
370
     0
100
AcDbLine
 10
379.2184674195
 20
207.2309193865
 30
0.0
 11
379.2184674195
 21
847.2309050813
 31
0.0
  0
LINE
  5
11E
330
1F
100
AcDbEntity
  8
0
  6
Continuous
 62
     8
370
     0
100
AcDbLine
 10
391.2574470988
 20
208.2841930643
 30
0.0
 11
391.2574470988
 21
846.1776314035
 31
0.0
  0
LINE
  5
11F
330
1F
100
AcDbEntity
  8
0
  6
Continuous
 62
     8
370
     0
100
AcDbLine
 10
360.9189352966
 20
537.5154087052
 30
0.0
 11
375.9570004432
 21
591.0161075845
 31
0.0
  0
LINE
  5
120
330
1F
100
AcDbEntity
  8
0
  6
Continuous
 62
     8
370
     0
100
AcDbLine
 10
360.9189352966
 20
516.9464157626
 30
0.0
 11
375.9570004432
 21
463.4457168833
 31
0.0
  0
LINE
  5
121
330
1F
100
AcDbEntity
  8
0
  6
Continuous
 62
     8
370
     0
100
AcDbLine
 10
351.956999769
 20
569.74501663
 30
0.0
 11
351.956999769
 21
574.9001068726
 31
0.0
  0
LINE
  5
122
330
1F
100
AcDbEntity
  8
0
  6
Continuous
 62
     8
370
     0
100
AcDbLine
 10
351.956999769
 20
548.6285941407
 30
0.0
 11
351.956999769
 21
559.8532234982
 31
0.0
  0
LINE
  5
123
330
1F
100
AcDbEntity
  8
0
  6
Continuous
 62
     8
370
     0
100
AcDbLine
 10
351.956999769
 20
516.4629094035
 30
0.0
 11
351.956999769
 21
537.9989150643
 31
0.0
  0
LINE
  5
124
330
1F
100
AcDbEntity
  8
0
  6
Continuous
 62
     8
370
     0
100
AcDbLine
 10
351.956999769
 20
494.6086009696
 30
0.0
 11
351.956999769
 21
505.8332303271
 31
0.0
  0
LINE
  5
125
330
1F
100
AcDbEntity
  8
0
  6
Continuous
 62
     8
370
     0
100
AcDbLine
 10
351.956999769
 20
479.5617175952
 30
0.0
 11
351.956999769
 21
484.7168078378
 31
0.0
  0
LINE
  5
126
330
1F
100
AcDbEntity
  8
0
  6
Continuous
 62
     8
370
     0
100
AcDbLine
 10
368.474475482
 20
628.5089863196
 30
0.0
 11
375.9570004432
 21
681.7499188438
 31
0.0
  0
LINE
  5
127
330
1F
100
AcDbEntity
  8
0
  6
Continuous
 62
     8
370
     0
100
AcDbLine
 10
368.474475482
 20
425.9528381482
 30
0.0
 11
375.9570004432
 21
372.711905624
 31
0.0
  0
LINE
  5
128
330
1F
100
AcDbEntity
  8
FORMAT
  6
CENTERX2
 62
     7
370
     0
100
AcDbLine
 10
441.6516501763
 20
527.2309122339
 30
0.0
 11
314.9682457535
 21
527.2309122339
 31
0.0
  0
ARC
  5
129
330
1F
100
AcDbEntity
  8
0
  6
Continuous
 62
     7
370
    15
100
AcDbCircle
 10
-559.7017656398
 20
-108.5129532626
 30
0.0
 40
3.0
100
AcDbArc
 50
90.0
 51
185.0
  0
ARC
  5
12A
330
1F
100
AcDbEntity
  8
0
  6
Continuous
 62
     7
370
    15
100
AcDbCircle
 10
74.3210661716
 20
-108.5129532626
 30
0.0
 40
3.0
100
AcDbArc
 50
355.0
 51
90.0
  0
LINE
  5
12B
330
1F
100
AcDbEntity
  8
0
  6
Continuous
 62
     7
370
    15
100
AcDbLine
 10
-562.6903425815
 20
-108.7744202752
 30
0.0
 11
-561.6370689037
 21
-120.8133999545
 31
0.0
  0
LINE
  5
12C
330
1F
100
AcDbEntity
  8
0
  6
Continuous
 62
     7
370
    15
100
AcDbLine
 10
76.2563694355
 20
-120.8133999545
 30
0.0
 11
77.3096431133
 21
-108.7744202752
 31
0.0
  0
ARC
  5
12D
330
1F
100
AcDbEntity
  8
0
  6
Continuous
 62
     7
370
    15
100
AcDbCircle
 10
-544.7017656398
 20
-119.3317523647
 30
0.0
 40
16.99999999999997
100
AcDbArc
 50
185.0
 51
270.0
  0
ARC
  5
12E
330
1F
100
AcDbEntity
  8
0
  6
Continuous
 62
     7
370
    15
100
AcDbCircle
 10
59.3210661716
 20
-119.3317523647
 30
0.0
 40
16.99999999999997
100
AcDbArc
 50
270.0
 51
355.0
  0
LINE
  5
12F
330
1F
100
AcDbEntity
  8
0
  6
Continuous
 62
     7
370
    15
100
AcDbLine
 10
-224.690350509
 20
-136.3317542065
 30
0.0
 11
59.3210805294
 21
-136.3317542065
 31
0.0
  0
LINE
  5
130
330
1F
100
AcDbEntity
  8
0
  6
Continuous
 62
     7
370
    15
100
AcDbLine
 10
-243.0351179588
 20
-136.3317542065
 30
0.0
 11
-242.3440305371
 21
-136.3317542065
 31
0.0
  0
LINE
  5
131
330
1F
100
AcDbEntity
  8
0
  6
Continuous
 62
     7
370
    15
100
AcDbLine
 10
-544.7017799976
 20
-136.3317542065
 30
0.0
 11
-260.6903489592
 21
-136.3317542065
 31
0.0
  0
LINE
  5
132
330
1F
100
AcDbEntity
  8
0
  6
Continuous
 62
     7
370
    15
100
AcDbLine
 10
-242.3440120562
 20
-138.331750809
 30
0.0
 11
-238.4709602135
 21
-138.331750809
 31
0.0
  0
LINE
  5
133
330
1F
100
AcDbEntity
  8
0
  6
Continuous
 62
     7
370
    15
100
AcDbLine
 10
-246.912393524
 20
-138.331750809
 30
0.0
 11
-243.0351083546
 21
-138.331750809
 31
0.0
  0
LINE
  5
134
330
1F
100
AcDbEntity
  8
0
  6
Continuous
 62
     7
370
    15
100
AcDbLine
 10
-252.1819619375
 20
-138.331750809
 30
0.0
 11
-248.3870715747
 21
-138.331750809
 31
0.0
  0
LINE
  5
135
330
1F
100
AcDbEntity
  8
0
  6
Continuous
 62
     7
370
    15
100
AcDbLine
 10
-258.5536528292
 20
-138.331750809
 30
0.0
 11
-255.0398034888
 21
-138.331750809
 31
0.0
  0
LINE
  5
136
330
1F
100
AcDbEntity
  8
0
  6
Continuous
 62
     7
370
    15
100
AcDbLine
 10
-237.0007627557
 20
-138.331750809
 30
0.0
 11
-228.8522969845
 21
-138.331750809
 31
0.0
  0
LINE
  5
137
330
1F
100
AcDbEntity
  8
0
  6
Continuous
 62
     7
370
    15
100
AcDbLine
 10
-258.2601083356
 20
-90.8933555994
 30
0.0
 11
-258.2601083356
 21
-105.5129532989
 31
0.0
  0
LINE
  5
138
330
1F
100
AcDbEntity
  8
0
  6
Continuous
 62
     7
370
    15
100
AcDbLine
 10
-227.1205911326
 20
-105.5129532989
 30
0.0
 11
-227.1205911326
 21
-90.8932857502
 31
0.0
  0
LINE
  5
139
330
1F
100
AcDbEntity
  8
0
  6
Continuous
 62
     7
370
    15
100
AcDbLine
 10
-204.0867570701
 20
-99.1206135888
 30
0.0
 11
-164.6965768101
 21
-105.5129532989
 31
0.0
  0
LINE
  5
13A
330
1F
100
AcDbEntity
  8
0
  6
Continuous
 62
     7
370
    15
100
AcDbLine
 10
-320.684122658
 20
-105.5129532989
 30
0.0
 11
-281.2942441466
 21
-99.1206624832
 31
0.0
  0
ARC
  5
13B
330
1F
100
AcDbEntity
  8
0
  6
Continuous
 62
     7
370
    15
100
AcDbCircle
 10
-289.6903497341
 20
-81.5129532626
 30
0.0
 40
3.0
100
AcDbArc
 50
90.0
 51
150.820046967
  0
ARC
  5
13C
330
1F
100
AcDbEntity
  8
0
  6
Continuous
 62
     7
370
    15
100
AcDbCircle
 10
-195.6903497341
 20
-81.5129532626
 30
0.0
 40
3.0
100
AcDbArc
 50
29.1799530329
 51
90.0
  0
LINE
  5
13D
330
1F
100
AcDbEntity
  8
0
  6
Continuous
 62
     7
370
    15
100
AcDbLine
 10
-292.6903504792
 20
-100.9700518854
 30
0.0
 11
-292.6903504792
 21
-105.5129532989
 31
0.0
  0
LINE
  5
13E
330
1F
100
AcDbEntity
  8
0
  6
Continuous
 62
     7
370
    15
100
AcDbLine
 10
-192.690348989
 20
-105.5129532989
 30
0.0
 11
-192.690348989
 21
-100.9700518854
 31
0.0
  0
LINE
  5
13F
330
1F
100
AcDbEntity
  8
0
  6
Continuous
 62
     7
370
    15
100
AcDbLine
 10
-242.6903497341
 20
-105.5129532989
 30
0.0
 11
74.3210662243
 21
-105.5129532989
 31
0.0
  0
LINE
  5
140
330
1F
100
AcDbEntity
  8
0
  6
Continuous
 62
     7
370
    15
100
AcDbLine
 10
-559.7017656925
 20
-105.5129532989
 30
0.0
 11
-242.6903497341
 21
-105.5129532989
 31
0.0
  0
SPLINE
  5
141
330
1F
100
AcDbEntity
  8
0
  6
Continuous
 62
     7
370
    15
100
AcDbSpline
210
0.0
220
0.0
230
1.0
 70
     8
 71
     3
 72
    13
 73
     9
 74
     0
 42
0.00000001
 43
0.00000001
 12
1.0
 22
0.0
 32
0.0
 13
1.0
 23
0.0
 33
0.0
 40
0.0
 40
0.0
 40
0.0
 40
0.0
 40
0.1224416419659657
 40
0.2462664804864687
 40
0.3714780599732424
 40
0.4980798083662001
 40
0.7473950696772663
 40
1.0
 40
1.0
 40
1.0
 40
1.0
 10
-224.6903497341042
 20
-131.7100530241963
 30
0.0
 10
-225.2251895792505
 20
-131.7380819476424
 30
0.0
 10
-226.3009112387552
 20
-131.7944564311765
 30
0.0
 10
-227.9241283418592
 20
-131.868283017443
 30
0.0
 10
-229.5658620770101
 20
-131.9349630091181
 30
0.0
 10
-231.7564974623312
 20
-132.0120932508015
 30
0.0
 10
-234.5046774214617
 20
-132.0901960469086
 30
0.0
 10
-236.6998535886386
 20
-132.1259223372914
 30
0.0
 10
-237.8046354483818
 20
-132.1439025605285
 30
0.0
  0
SPLINE
  5
142
330
1F
100
AcDbEntity
  8
0
  6
Continuous
 62
     7
370
    15
100
AcDbSpline
210
0.0
220
0.0
230
1.0
 70
     8
 71
     3
 72
    15
 73
    11
 74
     0
 42
0.00000001
 43
0.00000001
 12
1.0
 22
0.0
 32
0.0
 13
1.0
 23
0.0
 33
0.0
 40
0.0
 40
0.0
 40
0.0
 40
0.0
 40
0.1338101492905211
 40
0.2678773999412652
 40
0.4008132612204936
 40
0.5351156886633498
 40
0.6688426568833395
 40
0.8025890438714051
 40
0.9362572758556817
 40
1.0
 40
1.0
 40
1.0
 40
1.0
 10
-237.8046352329536
 20
-132.143902062245
 30
0.0
 10
-237.9780711069899
 20
-132.4971245045147
 30
0.0
 10
-238.3252760928576
 20
-133.2042480667991
 30
0.0
 10
-238.8901870954084
 20
-134.0888301435538
 30
0.0
 10
-239.482003444591
 20
-134.8397099119371
 30
0.0
 10
-240.0975340380864
 20
-135.4390068449554
 30
0.0
 10
-240.7317674715912
 20
-135.8948619635627
 30
0.0
 10
-241.3778411184124
 20
-136.1888295284883
 30
0.0
 10
-241.9174134394601
 20
-136.3308096924141
 30
0.0
 10
-242.2398637363043
 20
-136.3172915199837
 30
0.0
 10
-242.3439808568789
 20
-136.3129265893179
 30
0.0
  0
SPLINE
  5
143
330
1F
100
AcDbEntity
  8
0
  6
Continuous
 62
     7
370
    15
100
AcDbSpline
210
0.0
220
0.0
230
1.0
 70
     8
 71
     3
 72
    16
 73
    12
 74
     0
 42
0.00000001
 43
0.00000001
 12
1.0
 22
0.0
 32
0.0
 13
1.0
 23
0.0
 33
0.0
 40
0.0
 40
0.0
 40
0.0
 40
0.0
 40
0.0379305850561892
 40
0.1451480894676459
 40
0.2518587897114863
 40
0.3586133937247132
 40
0.4659638022665084
 40
0.6012682763095328
 40
0.7345919153754908
 40
0.8671048143020028
 40
1.0
 40
1.0
 40
1.0
 40
1.0
 10
-243.0350396695418
 20
-136.3210737992007
 30
0.0
 10
-243.0970090582501
 20
-136.3244305133516
 30
0.0
 10
-243.3341458797138
 20
-136.337275573484
 30
0.0
 10
-243.7453041907748
 20
-136.2588324890388
 30
0.0
 10
-244.2652431578648
 20
-136.0841473291559
 30
0.0
 10
-244.7792014533362
 20
-135.8039347823589
 30
0.0
 10
-245.32922269872
 20
-135.3950812000062
 30
0.0
 10
-245.906626709206
 20
-134.8319139862282
 30
0.0
 10
-246.4982578288073
 20
-134.079818849106
 30
0.0
 10
-247.0598217328503
 20
-133.1965272156631
 30
0.0
 10
-247.4038182399583
 20
-132.4951138791116
 30
0.0
 10
-247.5760642352386
 20
-132.143902062245
 30
0.0
  0
SPLINE
  5
144
330
1F
100
AcDbEntity
  8
0
  6
Continuous
 62
     7
370
    15
100
AcDbSpline
210
0.0
220
0.0
230
1.0
 70
     8
 71
     3
 72
    13
 73
     9
 74
     0
 42
0.00000001
 43
0.00000001
 12
1.0
 22
0.0
 32
0.0
 13
1.0
 23
0.0
 33
0.0
 40
0.0
 40
0.0
 40
0.0
 40
0.0
 40
0.1254285952870524
 40
0.2500617244574008
 40
0.3739021587103245
 40
0.4969527228015271
 40
0.7512799043597079
 40
1.0
 40
1.0
 40
1.0
 40
1.0
 10
-247.5760640198201
 20
-132.1439025605284
 30
0.0
 10
-248.1246413366872
 20
-132.1357083510442
 30
0.0
 10
-249.2183169019765
 20
-132.1193718996195
 30
0.0
 10
-250.8534556356264
 20
-132.0852477015884
 30
0.0
 10
-252.4780289723116
 20
-132.0442281866002
 30
0.0
 10
-254.6694048642727
 20
-131.9778561278599
 30
0.0
 10
-257.4062387285271
 20
-131.876741110476
 30
0.0
 10
-259.6038109550565
 20
-131.7652013031183
 30
0.0
 10
-260.690349734081
 20
-131.7100530241967
 30
0.0
  0
LINE
  5
145
330
1F
100
AcDbEntity
  8
0
  6
Continuous
 62
     7
370
    15
100
AcDbLine
 10
-237.804635233
 20
-132.1439020622
 30
0.0
 11
-237.804635233
 21
-134.1439023901
 31
0.0
  0
LINE
  5
146
330
1F
100
AcDbEntity
  8
0
  6
Continuous
 62
     7
370
    15
100
AcDbLine
 10
-224.690350509
 20
-131.7100528914
 30
0.0
 11
-224.690350509
 21
-133.7100532193
 31
0.0
  0
SPLINE
  5
147
330
1F
100
AcDbEntity
  8
0
  6
Continuous
 62
     7
370
    15
100
AcDbSpline
210
0.0
220
0.0
230
1.0
 70
     8
 71
     3
 72
    13
 73
     9
 74
     0
 42
0.00000001
 43
0.00000001
 12
1.0
 22
0.0
 32
0.0
 13
1.0
 23
0.0
 33
0.0
 40
0.0
 40
0.0
 40
0.0
 40
0.0
 40
0.1240453451129658
 40
0.2485232703660296
 40
0.3728420887040854
 40
0.4980798236679392
 40
0.7483183373468587
 40
0.9999999999999999
 40
0.9999999999999999
 40
0.9999999999999999
 40
0.9999999999999999
 10
-224.6903497341042
 20
-133.7100530241963
 30
0.0
 10
-225.2321950889164
 20
-133.7384433118614
 30
0.0
 10
-226.3177753619039
 20
-133.7953228919114
 30
0.0
 10
-227.9469583715011
 20
-133.8693021410081
 30
0.0
 10
-229.5816891002997
 20
-133.9355490960596
 30
0.0
 10
-231.7664976430038
 20
-134.0123974927314
 30
0.0
 10
-234.5087153577381
 20
-134.0902797066514
 30
0.0
 10
-236.7038915203917
 20
-134.1259940466133
 30
0.0
 10
-237.8046354483818
 20
-134.1439025605285
 30
0.0
  0
SPLINE
  5
148
330
1F
100
AcDbEntity
  8
0
  6
Continuous
 62
     7
370
    15
100
AcDbSpline
210
0.0
220
0.0
230
1.0
 70
     8
 71
     3
 72
    15
 73
    11
 74
     0
 42
0.00000001
 43
0.00000001
 12
1.0
 22
0.0
 32
0.0
 13
1.0
 23
0.0
 33
0.0
 40
0.0
 40
0.0
 40
0.0
 40
0.0
 40
0.1269098190655132
 40
0.2523707990644989
 40
0.3775984181200516
 40
0.5032307918214536
 40
0.6306900735714446
 40
0.758531137999916
 40
0.8858501938005486
 40
1.0
 40
1.0
 40
1.0
 40
1.0
 10
-250.0147407787724
 20
-136.5056954611021
 30
0.0
 10
-249.8912308025843
 20
-136.6537504706763
 30
0.0
 10
-249.6456208756886
 20
-136.9481702511698
 30
0.0
 10
-249.2668473035873
 20
-137.3172763530075
 30
0.0
 10
-248.8828068601139
 20
-137.6325458489088
 30
0.0
 10
-248.490517524703
 20
-137.8908821313973
 30
0.0
 10
-248.0907094292998
 20
-138.0930602131357
 30
0.0
 10
-247.6855061994874
 20
-138.2342756889051
 30
0.0
 10
-247.2921274959674
 20
-138.3198887799974
 30
0.0
 10
-247.0342119948793
 20
-138.3235089898571
 30
0.0
 10
-246.9122873532457
 20
-138.3252203751284
 30
0.0
  0
SPLINE
  5
149
330
1F
100
AcDbEntity
  8
0
  6
Continuous
 62
     7
370
    15
100
AcDbSpline
210
0.0
220
0.0
230
1.0
 70
     8
 71
     3
 72
    12
 73
     8
 74
     0
 42
0.00000001
 43
0.00000001
 12
1.0
 22
0.0
 32
0.0
 13
1.0
 23
0.0
 33
0.0
 40
0.0
 40
0.0
 40
0.0
 40
0.0
 40
0.1662322202712857
 40
0.3329588916405654
 40
0.5001923881985297
 40
0.7497383858952915
 40
0.9999999999999999
 40
0.9999999999999999
 40
0.9999999999999999
 40
0.9999999999999999
 10
-260.6903497340925
 20
-136.277363882472
 30
0.0
 10
-260.0989351038349
 20
-136.2953536814738
 30
0.0
 10
-258.9143467041299
 20
-136.3313867894157
 30
0.0
 10
-257.1345558588648
 20
-136.3776680886514
 30
0.0
 10
-255.0581621280956
 20
-136.4250986156204
 30
0.0
 10
-252.6843103976986
 20
-136.4703510761632
 30
0.0
 10
-250.9054462798793
 20
-136.4939019807615
 30
0.0
 10
-250.0147407466165
 20
-136.5056942929617
 30
0.0
  0
SPLINE
  5
14A
330
1F
100
AcDbEntity
  8
0
  6
Continuous
 62
     7
370
    15
100
AcDbSpline
210
0.0
220
0.0
230
1.0
 70
     8
 71
     3
 72
    16
 73
    12
 74
     0
 42
0.00000001
 43
0.00000001
 12
1.0
 22
0.0
 32
0.0
 13
1.0
 23
0.0
 33
0.0
 40
0.0
 40
0.0
 40
0.0
 40
0.0
 40
0.0823719553401702
 40
0.1652654177087663
 40
0.2486804363067192
 40
0.3326170583248994
 40
0.4170753289752929
 40
0.5020552915225471
 40
0.6653451214516879
 40
0.8313266228013608
 40
1.0
 40
1.0
 40
1.0
 40
1.0
 10
-260.6903497340961
 20
-133.7100530241958
 30
0.0
 10
-260.6903498415795
 20
-133.7922279346665
 30
0.0
 10
-260.6903500572267
 20
-133.9570980151209
 30
0.0
 10
-260.6903507667591
 20
-134.1978793160108
 30
0.0
 10
-260.6903510333241
 20
-134.4346123214813
 30
0.0
 10
-260.690350763608
 20
-134.6665600545474
 30
0.0
 10
-260.6903501125536
 20
-134.8936226368137
 30
0.0
 10
-260.6903493607019
 20
-135.1833233432863
 30
0.0
 10
-260.6903512222408
 20
-135.5277956718312
 30
0.0
 10
-260.6903510577872
 20
-135.917946797189
 30
0.0
 10
-260.6903501776862
 20
-136.1569174483499
 30
0.0
 10
-260.6903497340961
 20
-136.2773638824719
 30
0.0
  0
SPLINE
  5
14B
330
1F
100
AcDbEntity
  8
0
  6
Continuous
 62
     7
370
    15
100
AcDbSpline
210
0.0
220
0.0
230
1.0
 70
     8
 71
     3
 72
    15
 73
    11
 74
     0
 42
0.00000001
 43
0.00000001
 12
1.0
 22
0.0
 32
0.0
 13
1.0
 23
0.0
 33
0.0
 40
0.0
 40
0.0
 40
0.0
 40
0.0
 40
0.1247666584653631
 40
0.2491746093851925
 40
0.3732332179369381
 40
0.4969518374018222
 40
0.6223265535595087
 40
0.7484673920279881
 40
0.8746148189651192
 40
1.0
 40
1.0
 40
1.0
 40
1.0
 10
-247.5760640198201
 20
-134.1439025605284
 30
0.0
 10
-248.1217472266223
 20
-134.1357538081351
 30
0.0
 10
-249.2115447861262
 20
-134.119479731234
 30
0.0
 10
-250.8437626709284
 20
-134.0854731701185
 30
0.0
 10
-252.4712278727535
 20
-134.0443854067898
 30
0.0
 10
-254.1027002413997
 20
-133.9951774247999
 30
0.0
 10
-255.74301370141
 20
-133.9376185632411
 30
0.0
 10
-257.3936158326043
 20
-133.8710228967857
 30
0.0
 10
-259.0439213817947
 20
-133.7962672020814
 30
0.0
 10
-260.1426501480352
 20
-133.7387329661286
 30
0.0
 10
-260.6903497340811
 20
-133.7100530241966
 30
0.0
  0
SPLINE
  5
14C
330
1F
100
AcDbEntity
  8
0
  6
Continuous
 62
     7
370
    15
100
AcDbSpline
210
0.0
220
0.0
230
1.0
 70
     8
 71
     3
 72
    23
 73
    19
 74
     0
 42
0.00000001
 43
0.00000001
 12
1.0
 22
0.0
 32
0.0
 13
1.0
 23
0.0
 33
0.0
 40
0.0
 40
0.0
 40
0.0
 40
0.0
 40
0.0327568217288631
 40
0.0630303675277676
 40
0.0952662059960252
 40
0.1257846910188722
 40
0.1883384463560561
 40
0.2507772835271952
 40
0.3756153439660441
 40
0.5010073971063654
 40
0.6260845272969593
 40
0.6889961783235784
 40
0.7502241813530438
 40
0.8129428209157611
 40
0.8744764427995846
 40
0.916614682908785
 40
0.9584552263397325
 40
1.0
 40
1.0
 40
1.0
 40
1.0
 10
-242.6903497340961
 20
-138.3097551789279
 30
0.0
 10
-242.7475863109588
 20
-138.3159095450095
 30
0.0
 10
-242.8577203925113
 20
-138.3277517181981
 30
0.0
 10
-243.0243224040718
 20
-138.333168613326
 30
0.0
 10
-243.1870097974681
 20
-138.3296657684396
 30
0.0
 10
-243.4060647542258
 20
-138.3118823304665
 30
0.0
 10
-243.6775931885737
 20
-138.2662841189614
 30
0.0
 10
-244.1121198993627
 20
-138.1420835084767
 30
0.0
 10
-244.6514527513693
 20
-137.8911533011709
 30
0.0
 10
-245.2857781574129
 20
-137.4378019507901
 30
0.0
 10
-245.8008842437442
 20
-136.9334822003665
 30
0.0
 10
-246.1986546816822
 20
-136.4589886402049
 30
0.0
 10
-246.4903694210203
 20
-136.0672124170456
 30
0.0
 10
-246.7726473577451
 20
-135.6430979708889
 30
0.0
 10
-247.0188006550687
 20
-135.231635087422
 30
0.0
 10
-247.2283156629921
 20
-134.8492520476374
 30
0.0
 10
-247.4052767125645
 20
-134.505130958315
 30
0.0
 10
-247.5192696960338
 20
-134.2640269591857
 30
0.0
 10
-247.5760640198104
 20
-134.1439025605285
 30
0.0
  0
SPLINE
  5
14D
330
1F
100
AcDbEntity
  8
0
  6
Continuous
 62
     7
370
    15
100
AcDbSpline
210
0.0
220
0.0
230
1.0
 70
     8
 71
     3
 72
    24
 73
    20
 74
     0
 42
0.00000001
 43
0.00000001
 12
1.0
 22
0.0
 32
0.0
 13
1.0
 23
0.0
 33
0.0
 40
0.0
 40
0.0
 40
0.0
 40
0.0
 40
0.0310416672614426
 40
0.0623077824223381
 40
0.0937991735175807
 40
0.1255166291133062
 40
0.1872438543037216
 40
0.2502222811590197
 40
0.3117058674679487
 40
0.3747948484654858
 40
0.4998006820084104
 40
0.6248646039520538
 40
0.7495670747047022
 40
0.8119594055732986
 40
0.8744534845569615
 40
0.904926103296442
 40
0.9371149114073228
 40
0.9672997323697258
 40
1.0
 40
1.0
 40
1.0
 40
1.0
 10
-237.8046354483838
 20
-134.143902560533
 30
0.0
 10
-237.8469965057497
 20
-134.2339190417504
 30
0.0
 10
-237.932024913641
 20
-134.4146028716129
 30
0.0
 10
-238.063082451505
 20
-134.6761272632295
 30
0.0
 10
-238.1972584900421
 20
-134.9315972974298
 30
0.0
 10
-238.3777867672504
 20
-135.2577198570974
 30
0.0
 10
-238.6092487905669
 20
-135.6445969002634
 30
0.0
 10
-238.8926715464418
 20
-136.0701209715331
 30
0.0
 10
-239.1854664211894
 20
-136.4630439231312
 30
0.0
 10
-239.5837809976143
 20
-136.9376341340734
 30
0.0
 10
-240.0985062693565
 20
-137.4407768872399
 30
0.0
 10
-240.732080653534
 20
-137.8926932579154
 30
0.0
 10
-241.2705517922713
 20
-138.1427991549771
 30
0.0
 10
-241.7046541456965
 20
-138.2666199661207
 30
0.0
 10
-241.9759113350459
 20
-138.3120384210014
 30
0.0
 10
-242.1946967427973
 20
-138.3297124776845
 30
0.0
 10
-242.3570654119465
 20
-138.3331577041787
 30
0.0
 10
-242.5233312768609
 20
-138.3277191002182
 30
0.0
 10
-242.6332118160446
 20
-138.3159007336144
 30
0.0
 10
-242.6903497340961
 20
-138.3097551789282
 30
0.0
  0
SPLINE
  5
14E
330
1F
100
AcDbEntity
  8
0
  6
Continuous
 62
     7
370
    15
100
AcDbSpline
210
0.0
220
0.0
230
1.0
 70
     8
 71
     3
 72
    16
 73
    12
 74
     0
 42
0.00000001
 43
0.00000001
 12
1.0
 22
0.0
 32
0.0
 13
1.0
 23
0.0
 33
0.0
 40
0.0
 40
0.0
 40
0.0
 40
0.0
 40
0.085017090714074
 40
0.1693573795434089
 40
0.2530208914438674
 40
0.33600765322974
 40
0.4183176936208973
 40
0.4999510432899043
 40
0.6686978928731968
 40
0.8353807594448487
 40
1.0
 40
1.0
 40
1.0
 40
1.0
 10
-224.690349734096
 20
-136.2773638824795
 30
0.0
 10
-224.6903496025313
 20
-136.2173408639539
 30
0.0
 10
-224.6903493404493
 20
-136.0977726566158
 30
0.0
 10
-224.6903484543759
 20
-135.9101692047707
 30
0.0
 10
-224.6903481396039
 20
-135.7177291977505
 30
0.0
 10
-224.6903484804314
 20
-135.5200634869813
 30
0.0
 10
-224.6903493016941
 20
-135.3175796723013
 30
0.0
 10
-224.6903501145138
 20
-135.0363144087951
 30
0.0
 10
-224.6903485074376
 20
-134.6672723816358
 30
0.0
 10
-224.690348678931
 20
-134.2015594013495
 30
0.0
 10
-224.6903493838379
 20
-133.8732067317647
 30
0.0
 10
-224.690349734096
 20
-133.7100530242013
 30
0.0
  0
SPLINE
  5
14F
330
1F
100
AcDbEntity
  8
0
  6
Continuous
 62
     7
370
    15
100
AcDbSpline
210
0.0
220
0.0
230
1.0
 70
     8
 71
     3
 72
    13
 73
     9
 74
     0
 42
0.00000001
 43
0.00000001
 12
1.0
 22
0.0
 32
0.0
 13
1.0
 23
0.0
 33
0.0
 40
0.0
 40
0.0
 40
0.0
 40
0.0
 40
0.1649548038621391
 40
0.3296002237036555
 40
0.4939481870576614
 40
0.7828646916629327
 40
0.8915394102438494
 40
1.0
 40
1.0
 40
1.0
 40
1.0
 10
-235.3659587215756
 20
-136.5056942929617
 30
0.0
 10
-234.7788655834926
 20
-136.49818028533
 30
0.0
 10
-233.6057804406751
 20
-136.483166363102
 30
0.0
 10
-231.8478574539701
 20
-136.4539745288387
 30
0.0
 10
-229.6488811954852
 20
-136.4111520484662
 30
0.0
 10
-227.6492744123494
 20
-136.3632035247275
 30
0.0
 10
-225.8487290779451
 20
-136.3130187120646
 30
0.0
 10
-225.0762222451875
 20
-136.289241009512
 30
0.0
 10
-224.6903497341102
 20
-136.2773638824723
 30
0.0
  0
SPLINE
  5
150
330
1F
100
AcDbEntity
  8
0
  6
Continuous
 62
     7
370
    15
100
AcDbSpline
210
0.0
220
0.0
230
1.0
 70
     8
 71
     3
 72
    14
 73
    10
 74
     0
 42
0.00000001
 43
0.00000001
 12
1.0
 22
0.0
 32
0.0
 13
1.0
 23
0.0
 33
0.0
 40
0.0
 40
0.0
 40
0.0
 40
0.0
 40
0.0374158624008629
 40
0.1141932707646381
 40
0.2917315023688672
 40
0.4673580793832905
 40
0.6456967367764926
 40
0.8226461552792266
 40
1.0
 40
1.0
 40
1.0
 40
1.0
 10
-238.4712791914923
 20
-138.328997819491
 30
0.0
 10
-238.4312906789109
 20
-138.3296595987518
 30
0.0
 10
-238.309245675758
 20
-138.3316793500942
 30
0.0
 10
-237.9976106929897
 20
-138.3014741637482
 30
0.0
 10
-237.5393667041884
 20
-138.1976618930174
 30
0.0
 10
-236.9784037070802
 20
-137.9507730098368
 30
0.0
 10
-236.4273330407103
 20
-137.5881491419002
 30
0.0
 10
-235.8855595863664
 20
-137.1174120523135
 30
0.0
 10
-235.5392907401285
 20
-136.7097561003933
 30
0.0
 10
-235.3659586894198
 20
-136.5056954611021
 30
0.0
  0
LINE
  5
151
330
1F
100
AcDbEntity
  8
0
  6
Continuous
 62
     7
370
    15
100
AcDbLine
 10
-260.6903489592
 20
-131.7100528914
 30
0.0
 11
-260.6903489592
 21
-133.7100532193
 31
0.0
  0
LINE
  5
152
330
1F
100
AcDbEntity
  8
0
  6
Continuous
 62
     7
370
    15
100
AcDbLine
 10
-247.5760642352
 20
-132.1439020622
 30
0.0
 11
-247.5760642352
 21
-134.1439023901
 31
0.0
  0
LINE
  5
153
330
1F
100
AcDbEntity
  8
0
  6
Continuous
 62
     7
370
    15
100
AcDbLine
 10
-242.6903497341
 20
-136.3317542065
 30
0.0
 11
-242.6903497341
 21
-138.3097566951
 31
0.0
  0
LINE
  5
154
330
1F
100
AcDbEntity
  8
0
  6
Continuous
 62
     7
370
    15
100
AcDbLine
 10
-260.6903489592
 20
-136.2773649681
 30
0.0
 11
-260.6903489592
 21
-136.941990285
 31
0.0
  0
LINE
  5
155
330
1F
100
AcDbEntity
  8
0
  6
Continuous
 62
     7
370
    15
100
AcDbLine
 10
-250.9371133434
 20
-136.4904515732
 30
0.0
 11
-250.9371133434
 21
-137.1144339729
 31
0.0
  0
SPLINE
  5
156
330
1F
100
AcDbEntity
  8
0
  6
Continuous
 62
     7
370
    15
100
AcDbSpline
210
0.0
220
0.0
230
1.0
 70
     8
 71
     3
 72
    12
 73
     8
 74
     0
 42
0.00000001
 43
0.00000001
 12
1.0
 22
0.0
 32
0.0
 13
1.0
 23
0.0
 33
0.0
 40
0.0
 40
0.0
 40
0.0
 40
0.0
 40
0.2486466723414451
 40
0.4967740111808877
 40
0.7475576573338872
 40
0.8739336726421404
 40
1.0
 40
1.0
 40
1.0
 40
1.0
 10
-250.9371132217587
 20
-137.114432155715
 30
0.0
 10
-251.7455619965302
 20
-137.1050123079207
 30
0.0
 10
-253.3607709872461
 20
-137.0861922870075
 30
0.0
 10
-255.7912393204534
 20
-137.0475209238819
 30
0.0
 10
-257.8240561947284
 20
-137.008290428948
 30
0.0
 10
-259.4599561594196
 20
-136.9721990252826
 30
0.0
 10
-260.2805541033796
 20
-136.9520517070542
 30
0.0
 10
-260.6903497340962
 20
-136.9419904059732
 30
0.0
  0
SPLINE
  5
157
330
1F
100
AcDbEntity
  8
0
  6
Continuous
 62
     7
370
    15
100
AcDbSpline
210
0.0
220
0.0
230
1.0
 70
     8
 71
     3
 72
    17
 73
    13
 74
     0
 42
0.00000001
 43
0.00000001
 12
1.0
 22
0.0
 32
0.0
 13
1.0
 23
0.0
 33
0.0
 40
0.0
 40
0.0
 40
0.0
 40
0.0
 40
0.0956130190888936
 40
0.1929339102442673
 40
0.2886830631524726
 40
0.3841897215574852
 40
0.481290965961315
 40
0.5739956674690669
 40
0.6750854749912129
 40
0.7876807151021102
 40
0.9073799307196003
 40
0.9999999999999999
 40
0.9999999999999999
 40
0.9999999999999999
 40
0.9999999999999999
 10
-257.3178296821995
 20
-138.0412899244505
 30
0.0
 10
-257.3970411078013
 20
-138.0769808310892
 30
0.0
 10
-257.5568788602642
 20
-138.1490001674053
 30
0.0
 10
-257.7975338882939
 20
-138.2282974137685
 30
0.0
 10
-258.0388270412602
 20
-138.2866301448709
 30
0.0
 10
-258.2805206841281
 20
-138.3221912160326
 30
0.0
 10
-258.5199683834466
 20
-138.3352908038491
 30
0.0
 10
-258.764093662671
 20
-138.326276492897
 30
0.0
 10
-259.020982011607
 20
-138.2930195969168
 30
0.0
 10
-259.2997961480449
 20
-138.2273985626023
 30
0.0
 10
-259.5706064217693
 20
-138.1359988065297
 30
0.0
 10
-259.7462288240375
 20
-138.0520759087298
 30
0.0
 10
-259.8228406074329
 20
-138.0154662121016
 30
0.0
  0
SPLINE
  5
158
330
1F
100
AcDbEntity
  8
0
  6
Continuous
 62
     7
370
    15
100
AcDbSpline
210
0.0
220
0.0
230
1.0
 70
     8
 71
     3
 72
     9
 73
     5
 74
     0
 42
0.00000001
 43
0.00000001
 12
1.0
 22
0.0
 32
0.0
 13
1.0
 23
0.0
 33
0.0
 40
0.0
 40
0.0
 40
0.0
 40
0.0
 40
0.499746078219883
 40
1.0
 40
1.0
 40
1.0
 40
1.0
 10
-260.6903497340875
 20
-138.0065251080156
 30
0.0
 10
-260.1285544742815
 20
-138.012889474339
 30
0.0
 10
-259.004393056533
 20
-138.025624674475
 30
0.0
 10
-257.8802079873752
 20
-138.0360654431466
 30
0.0
 10
-257.3178299977222
 20
-138.041288478621
 30
0.0
  0
SPLINE
  5
159
330
1F
100
AcDbEntity
  8
0
  6
Continuous
 62
     7
370
    15
100
AcDbSpline
210
0.0
220
0.0
230
1.0
 70
     8
 71
     3
 72
    15
 73
    11
 74
     0
 42
0.00000001
 43
0.00000001
 12
1.0
 22
0.0
 32
0.0
 13
1.0
 23
0.0
 33
0.0
 40
0.0
 40
0.0
 40
0.0
 40
0.0
 40
0.0977098769148051
 40
0.1967231895646041
 40
0.2970399399335558
 40
0.3986601279883819
 40
0.5015837517631373
 40
0.6628683719517958
 40
0.8290071563267831
 40
1.0
 40
1.0
 40
1.0
 40
1.0
 10
-260.6903497340962
 20
-136.9419904059732
 30
0.0
 10
-260.6903498621493
 20
-136.9876714431609
 30
0.0
 10
-260.6903501199637
 20
-137.0796428960163
 30
0.0
 10
-260.6903508340101
 20
-137.2098581690184
 30
0.0
 10
-260.6903508174222
 20
-137.3351973460304
 30
0.0
 10
-260.6903501976428
 20
-137.4546869625663
 30
0.0
 10
-260.690349328074
 20
-137.589199772807
 30
0.0
 10
-260.6903511741555
 20
-137.7333547609813
 30
0.0
 10
-260.6903509938463
 20
-137.881924245166
 30
0.0
 10
-260.6903501580243
 20
-137.9645947207807
 30
0.0
 10
-260.6903497340962
 20
-138.0065251080156
 30
0.0
  0
SPLINE
  5
15A
330
1F
100
AcDbEntity
  8
0
  6
Continuous
 62
     7
370
    15
100
AcDbSpline
210
0.0
220
0.0
230
1.0
 70
     8
 71
     3
 72
    14
 73
    10
 74
     0
 42
0.00000001
 43
0.00000001
 12
1.0
 22
0.0
 32
0.0
 13
1.0
 23
0.0
 33
0.0
 40
0.0
 40
0.0
 40
0.0
 40
0.0
 40
0.0852516309599432
 40
0.2359903035579109
 40
0.3902681344540198
 40
0.5443763053116624
 40
0.6957606182602333
 40
0.8472889844274575
 40
1.0
 40
1.0
 40
1.0
 40
1.0
 10
-247.6753897878213
 20
-138.2275432635027
 30
0.0
 10
-247.7691793261887
 20
-138.253845516082
 30
0.0
 10
-248.0288039384177
 20
-138.3266544054903
 30
0.0
 10
-248.4610044365111
 20
-138.343281994126
 30
0.0
 10
-248.9684962815033
 20
-138.287469063655
 30
0.0
 10
-249.4742280443219
 20
-138.1335645938013
 30
0.0
 10
-249.9714196101075
 20
-137.8880519327067
 30
0.0
 10
-250.4602795743349
 20
-137.5588169216794
 30
0.0
 10
-250.7777573836556
 20
-137.2629449968782
 30
0.0
 10
-250.9371133434458
 20
-137.1144339729029
 30
0.0
  0
SPLINE
  5
15B
330
1F
100
AcDbEntity
  8
0
  6
Continuous
 62
     7
370
    15
100
AcDbSpline
210
0.0
220
0.0
230
1.0
 70
     8
 71
     3
 72
    10
 73
     6
 74
     0
 42
0.00000001
 43
0.00000001
 12
1.0
 22
0.0
 32
0.0
 13
1.0
 23
0.0
 33
0.0
 40
0.0
 40
0.0
 40
0.0
 40
0.0
 40
0.2056276767421808
 40
0.6024687993325355
 40
0.9999999999999999
 40
0.9999999999999999
 40
0.9999999999999999
 40
0.9999999999999999
 10
-252.1813155996485
 20
-138.3164547670561
 30
0.0
 10
-252.2816539187804
 20
-138.3194749849019
 30
0.0
 10
-252.5756352913862
 20
-138.3283239251228
 30
0.0
 10
-253.0629548512245
 20
-138.2157150474445
 30
0.0
 10
-253.4446201922514
 20
-138.0364342498347
 30
0.0
 10
-253.635618640749
 20
-137.9467159796435
 30
0.0
  0
SPLINE
  5
15C
330
1F
100
AcDbEntity
  8
0
  6
Continuous
 62
     7
370
    15
100
AcDbSpline
210
0.0
220
0.0
230
1.0
 70
     8
 71
     3
 72
    10
 73
     6
 74
     0
 42
0.00000001
 43
0.00000001
 12
1.0
 22
0.0
 32
0.0
 13
1.0
 23
0.0
 33
0.0
 40
0.0
 40
0.0
 40
0.0
 40
0.0
 40
0.3880539987128408
 40
0.7757332542393988
 40
1.0
 40
1.0
 40
1.0
 40
1.0
 10
-253.635618640749
 20
-137.9467159796435
 30
0.0
 10
-253.8156686797852
 20
-138.0343620661948
 30
0.0
 10
-254.175594883795
 20
-138.2095695995982
 30
0.0
 10
-254.6458100392075
 20
-138.3242408229039
 30
0.0
 10
-254.934050486564
 20
-138.3193853292306
 30
0.0
 10
-255.0396852108522
 20
-138.3176058817583
 30
0.0
  0
LINE
  5
15D
330
1F
100
AcDbEntity
  8
0
  6
Continuous
 62
     7
370
    15
100
AcDbLine
 10
-228.1189214351
 20
-136.3722555626
 30
0.0
 11
-228.1189214351
 21
-137.018768518
 31
0.0
  0
SPLINE
  5
15E
330
1F
100
AcDbEntity
  8
0
  6
Continuous
 62
     7
370
    15
100
AcDbSpline
210
0.0
220
0.0
230
1.0
 70
     8
 71
     3
 72
    27
 73
    23
 74
     0
 42
0.00000001
 43
0.00000001
 12
1.0
 22
0.0
 32
0.0
 13
1.0
 23
0.0
 33
0.0
 40
0.0
 40
0.0
 40
0.0
 40
0.0
 40
0.0314810428652356
 40
0.0629356804447228
 40
0.0943330910347818
 40
0.1256821521042523
 40
0.1882423478682241
 40
0.2506465735815654
 40
0.3129183913329591
 40
0.375106455701728
 40
0.4372994440873883
 40
0.4996396849475687
 40
0.5620533955552673
 40
0.6244099671348218
 40
0.6867791679745966
 40
0.7491988170599168
 40
0.8116914269802172
 40
0.8742811748305594
 40
0.9057002615006731
 40
0.9370306143165671
 40
0.9685593484398155
 40
0.9999999999999999
 40
0.9999999999999999
 40
0.9999999999999999
 40
0.9999999999999999
 10
-228.1189211626675
 20
-137.0187699731184
 30
0.0
 10
-228.1198556821417
 20
-137.0467794270513
 30
0.0
 10
-228.1217239372454
 20
-137.1027748414883
 30
0.0
 10
-228.136822308166
 20
-137.1834031707596
 30
0.0
 10
-228.1608368881523
 20
-137.2613000713333
 30
0.0
 10
-228.2058061569861
 20
-137.3609501560706
 30
0.0
 10
-228.285617859034
 20
-137.4777426684963
 30
0.0
 10
-228.4189148915426
 20
-137.6047616198295
 30
0.0
 10
-228.5891305370255
 20
-137.7183050950285
 30
0.0
 10
-228.795781839295
 20
-137.8183537952079
 30
0.0
 10
-229.0383913828567
 20
-137.9051772676997
 30
0.0
 10
-229.3160470745764
 20
-137.9791844452765
 30
0.0
 10
-229.6270289231174
 20
-138.0409154209373
 30
0.0
 10
-229.9672603886987
 20
-138.0914391798705
 30
0.0
 10
-230.332767427973
 20
-138.1319899226853
 30
0.0
 10
-230.7200489473901
 20
-138.1637964421196
 30
0.0
 10
-231.1255761068831
 20
-138.1879722417489
 30
0.0
 10
-231.4758852266217
 20
-138.2025499953242
 30
0.0
 10
-231.7614135100442
 20
-138.2112437511829
 30
0.0
 10
-231.978272902683
 20
-138.2163291723125
 30
0.0
 10
-232.1966814963261
 20
-138.2201386132078
 30
0.0
 10
-232.3432603110496
 20
-138.2215557421562
 30
0.0
 10
-232.4164472000403
 20
-138.2222633154793
 30
0.0
  0
SPLINE
  5
15F
330
1F
100
AcDbEntity
  8
0
  6
Continuous
 62
     7
370
    15
100
AcDbSpline
210
0.0
220
0.0
230
1.0
 70
     8
 71
     3
 72
    14
 73
    10
 74
     0
 42
0.00000001
 43
0.00000001
 12
1.0
 22
0.0
 32
0.0
 13
1.0
 23
0.0
 33
0.0
 40
0.0
 40
0.0
 40
0.0
 40
0.0
 40
0.1157836377916181
 40
0.2629508426660458
 40
0.409823741832673
 40
0.5567067254228067
 40
0.7038750773748322
 40
0.8515393305206247
 40
1.0
 40
1.0
 40
1.0
 40
1.0
 10
-228.8531146856828
 20
-138.3313224006373
 30
0.0
 10
-228.6888034216996
 20
-138.3313508733506
 30
0.0
 10
-228.3156437408676
 20
-138.3314155364074
 30
0.0
 10
-227.7757427051309
 20
-138.3240020140944
 30
0.0
 10
-227.2375854817647
 20
-138.3049088660142
 30
0.0
 10
-226.7557386465706
 20
-138.2695141315081
 30
0.0
 10
-226.3370439577313
 20
-138.2127806284097
 30
0.0
 10
-225.9801220557999
 20
-138.1332906080235
 30
0.0
 10
-225.8061445117297
 20
-138.0565706097627
 30
0.0
 10
-225.7189217868133
 20
-138.0181074429232
 30
0.0
  0
SPLINE
  5
160
330
1F
100
AcDbEntity
  8
0
  6
Continuous
 62
     7
370
    15
100
AcDbSpline
210
0.0
220
0.0
230
1.0
 70
     8
 71
     3
 72
    15
 73
    11
 74
     0
 42
0.00000001
 43
0.00000001
 12
1.0
 22
0.0
 32
0.0
 13
1.0
 23
0.0
 33
0.0
 40
0.0
 40
0.0
 40
0.0
 40
0.0
 40
0.1259785092305545
 40
0.2521143282529308
 40
0.3800254030969877
 40
0.5038074289382979
 40
0.6318151868091866
 40
0.7596818143838284
 40
0.9091361686401328
 40
1.0
 40
1.0
 40
1.0
 40
1.0
 10
-234.4435861247463
 20
-137.1144339729029
 30
0.0
 10
-234.575849194702
 20
-137.2390559780557
 30
0.0
 10
-234.8405404919574
 20
-137.4884556042817
 30
0.0
 10
-235.2491933076171
 20
-137.7846890299936
 30
0.0
 10
-235.6608310726178
 20
-138.0200176763011
 30
0.0
 10
-236.0791754292141
 20
-138.1912733835415
 30
0.0
 10
-236.5004718460201
 20
-138.2996565707993
 30
0.0
 10
-236.9518455900269
 20
-138.3421662526046
 30
0.0
 10
-237.3625755764068
 20
-138.3251753415289
 30
0.0
 10
-237.628929039128
 20
-138.2500506329172
 30
0.0
 10
-237.7296367573423
 20
-138.2216461289603
 30
0.0
  0
SPLINE
  5
161
330
1F
100
AcDbEntity
  8
0
  6
Continuous
 62
     7
370
    15
100
AcDbSpline
210
0.0
220
0.0
230
1.0
 70
     8
 71
     3
 72
     9
 73
     5
 74
     0
 42
0.00000001
 43
0.00000001
 12
1.0
 22
0.0
 32
0.0
 13
1.0
 23
0.0
 33
0.0
 40
0.0
 40
0.0
 40
0.0
 40
0.0
 40
0.4996127826723583
 40
1.0
 40
1.0
 40
1.0
 40
1.0
 10
-230.6029173329646
 20
-137.0631600052691
 30
0.0
 10
-231.2425159833706
 20
-137.0729803631604
 30
0.0
 10
-232.5227047066952
 20
-137.0926363011826
 30
0.0
 10
-233.8029619080146
 20
-137.1071631208468
 30
0.0
 10
-234.4435862464464
 20
-137.1144321557151
 30
0.0
  0
SPLINE
  5
162
330
1F
100
AcDbEntity
  8
0
  6
Continuous
 62
     7
370
    15
100
AcDbSpline
210
0.0
220
0.0
230
1.0
 70
     8
 71
     3
 72
    16
 73
    12
 74
     0
 42
0.00000001
 43
0.00000001
 12
1.0
 22
0.0
 32
0.0
 13
1.0
 23
0.0
 33
0.0
 40
0.0
 40
0.0
 40
0.0
 40
0.0
 40
0.0858473199781119
 40
0.1693597464364861
 40
0.2505362662061439
 40
0.3773346946213417
 40
0.4999983181666994
 40
0.6263251405181544
 40
0.7494569069879183
 40
0.8759120901825782
 40
1.0
 40
1.0
 40
1.0
 40
1.0
 10
-232.4164472000404
 20
-138.2222633154793
 30
0.0
 10
-232.3632551283586
 20
-138.2062566040823
 30
0.0
 10
-232.2583177141826
 20
-138.1746785352017
 30
0.0
 10
-232.1036100038916
 20
-138.1165417975473
 30
0.0
 10
-231.9241589384498
 20
-138.0394920878774
 30
0.0
 10
-231.7215559396028
 20
-137.9373536384894
 30
0.0
 10
-231.4928296666944
 20
-137.8015991895074
 30
0.0
 10
-231.2681072797698
 20
-137.6478172343221
 30
0.0
 10
-231.0431939933358
 20
-137.4725408844811
 30
0.0
 10
-230.8217121867723
 20
-137.2803231082302
 30
0.0
 10
-230.6753880998818
 20
-137.1350902922244
 30
0.0
 10
-230.6029173329574
 20
-137.0631600052689
 30
0.0
  0
SPLINE
  5
163
330
1F
100
AcDbEntity
  8
0
  6
Continuous
 62
     7
370
    15
100
AcDbSpline
210
0.0
220
0.0
230
1.0
 70
     8
 71
     3
 72
     9
 73
     5
 74
     0
 42
0.00000001
 43
0.00000001
 12
1.0
 22
0.0
 32
0.0
 13
1.0
 23
0.0
 33
0.0
 40
0.0
 40
0.0
 40
0.0
 40
0.0
 40
0.4994031584624462
 40
1.0
 40
1.0
 40
1.0
 40
1.0
 10
-224.690349734096
 20
-136.9419904059732
 30
0.0
 10
-225.2610702289079
 20
-136.9559314146291
 30
0.0
 10
-226.4038753656815
 20
-136.983846754009
 30
0.0
 10
-227.5467844732528
 20
-137.0071196399348
 30
0.0
 10
-228.1189211626675
 20
-137.0187699731227
 30
0.0
  0
SPLINE
  5
164
330
1F
100
AcDbEntity
  8
0
  6
Continuous
 62
     7
370
    15
100
AcDbSpline
210
0.0
220
0.0
230
1.0
 70
     8
 71
     3
 72
    15
 73
    11
 74
     0
 42
0.00000001
 43
0.00000001
 12
1.0
 22
0.0
 32
0.0
 13
1.0
 23
0.0
 33
0.0
 40
0.0
 40
0.0
 40
0.0
 40
0.0
 40
0.1035375347403285
 40
0.2053189901033674
 40
0.3053443474548115
 40
0.4036135899903402
 40
0.5001267028371909
 40
0.670339434903663
 40
0.8369638722750156
 40
0.9999999999999999
 40
0.9999999999999999
 40
0.9999999999999999
 40
0.9999999999999999
 10
-224.690349734096
 20
-138.0065251080156
 30
0.0
 10
-224.6903495629558
 20
-137.9816349975906
 30
0.0
 10
-224.6903492235779
 20
-137.9322769329154
 30
0.0
 10
-224.690348277018
 20
-137.8490321425699
 30
0.0
 10
-224.6903483082073
 20
-137.7603365496038
 30
0.0
 10
-224.6903491716062
 20
-137.6659003907085
 30
0.0
 10
-224.6903501489844
 20
-137.5404440556717
 30
0.0
 10
-224.6903486100237
 20
-137.3771848452612
 30
0.0
 10
-224.690348799344
 20
-137.1701774914798
 30
0.0
 10
-224.6903494247813
 20
-137.0174988056871
 30
0.0
 10
-224.690349734096
 20
-136.9419904059775
 30
0.0
  0
LINE
  5
165
330
1F
100
AcDbEntity
  8
0
  6
Continuous
 62
     7
370
    15
100
AcDbLine
 10
-225.7189217868
 20
-138.0181074429
 30
0.0
 11
-224.690350509
 21
-138.0065255154
 31
0.0
  0
LINE
  5
166
330
1F
100
AcDbEntity
  8
0
  6
Continuous
 62
     7
370
    15
100
AcDbLine
 10
-224.690350509
 20
-136.2773649681
 30
0.0
 11
-224.690350509
 21
-136.941990285
 31
0.0
  0
LINE
  5
167
330
1F
100
AcDbEntity
  8
0
  6
Continuous
 62
     7
370
    15
100
AcDbLine
 10
-234.4435861247
 20
-136.4926122416
 30
0.0
 11
-234.4435861247
 21
-137.1144339729
 31
0.0
  0
LINE
  5
168
330
1F
100
AcDbEntity
  8
0
  6
Continuous
 62
     7
370
    15
100
AcDbLine
 10
-230.6029170665
 20
-136.4284143139
 30
0.0
 11
-230.6029170665
 21
-137.0631590772
 31
0.0
  0
ELLIPSE
  5
169
330
1F
100
AcDbEntity
  8
0
  6
Continuous
 62
     7
370
    15
100
AcDbEllipse
 10
-242.6903497341
 20
-85.2154106503
 30
0.0
 11
50.00000000000003
 21
-2.842170943040401E-14
 31
0.0
210
0.0
220
0.0
230
1.0
 40
0.1405408347
 41
4.613143302505835
 42
4.81163465826355
  0
ELLIPSE
  5
16A
330
1F
100
AcDbEntity
  8
0
  6
Continuous
 62
     7
370
    15
100
AcDbEllipse
 10
-242.6903497341
 20
-252.1753566679
 30
0.0
 11
49.99865123352853
 21
954.082712444152
 31
0.0
210
0.0
220
0.0
230
1.0
 40
0.0003849279
 41
4.8849865511845
 42
4.892252957214771
  0
SPLINE
  5
16B
330
1F
100
AcDbEntity
  8
0
  6
Continuous
 62
     7
370
    15
100
AcDbSpline
210
0.0
220
0.0
230
1.0
 70
     8
 71
     3
 72
    10
 73
     6
 74
     0
 42
0.00000001
 43
0.00000001
 12
1.0
 22
0.0
 32
0.0
 13
1.0
 23
0.0
 33
0.0
 40
0.0
 40
0.0
 40
0.0
 40
0.0
 40
0.5
 40
0.5
 40
1.0
 40
1.0
 40
1.0
 40
1.0
 10
-233.3114563826996
 20
-80.06435608677928
 30
0.0
 10
-233.3220800884893
 20
-80.28474867305135
 30
0.0
 10
-233.3336430897164
 20
-80.51900335437479
 30
0.0
 10
-233.3580859287295
 20
-81.00400873120157
 30
0.0
 10
-233.3711454163845
 20
-81.25825210941775
 30
0.0
 10
-233.3844751403898
 20
-81.51295326262239
 30
0.0
  0
LINE
  5
16C
330
1F
100
AcDbEntity
  8
0
  6
Continuous
 62
     7
370
    15
100
AcDbLine
 10
-233.3114564332
 20
-80.0643567283
 30
0.0
 11
-233.3114564332
 21
-105.5129532989
 31
0.0
  0
LINE
  5
16D
330
1F
100
AcDbEntity
  8
0
  6
Continuous
 62
     7
370
    15
100
AcDbLine
 10
-252.069243035
 20
-80.0643567283
 30
0.0
 11
-252.069243035
 21
-105.5129532989
 31
0.0
  0
SPLINE
  5
16E
330
1F
100
AcDbEntity
  8
0
  6
Continuous
 62
     7
370
    15
100
AcDbSpline
210
0.0
220
0.0
230
1.0
 70
     8
 71
     3
 72
    10
 73
     6
 74
     0
 42
0.00000001
 43
0.00000001
 12
1.0
 22
0.0
 32
0.0
 13
1.0
 23
0.0
 33
0.0
 40
0.0
 40
0.0
 40
0.0
 40
0.0
 40
0.5
 40
0.5
 40
1.0
 40
1.0
 40
1.0
 40
1.0
 10
-251.9962243278025
 20
-81.51295326262239
 30
0.0
 10
-252.0095849558698
 20
-81.25766160204873
 30
0.0
 10
-252.0223974424708
 20
-81.00825656876479
 30
0.0
 10
-252.0469709031748
 20
-80.52073895595794
 30
0.0
 10
-252.0587000509576
 20
-80.283075118944
 30
0.0
 10
-252.0692430854924
 20
-80.06435608678126
 30
0.0
  0
ELLIPSE
  5
16F
330
1F
100
AcDbEntity
  8
0
  6
Continuous
 62
     7
370
    15
100
AcDbEllipse
 10
-242.6903497341
 20
-252.1753566679
 30
0.0
 11
-49.99865123360217
 21
954.0827124454254
 31
0.0
210
0.0
220
0.0
230
1.0
 40
0.0003849279
 41
1.39093234996624
 42
1.39819875599641
  0
LINE
  5
170
330
1F
100
AcDbEntity
  8
0
  6
Continuous
 62
     7
370
    15
100
AcDbLine
 10
-258.2491448062
 20
-90.4748881522
 30
0.0
 11
-258.2539644006
 21
-90.8934263799
 31
0.0
  0
LINE
  5
171
330
1F
100
AcDbEntity
  8
0
  6
Continuous
 62
     7
370
    15
100
AcDbLine
 10
-227.1252086299
 20
-90.8933555994
 30
0.0
 11
-227.131554662
 21
-90.4748881522
 31
0.0
  0
SPLINE
  5
172
330
1F
100
AcDbEntity
  8
0
  6
Continuous
 62
     7
370
    15
100
AcDbSpline
210
0.0
220
0.0
230
1.0
 70
     8
 71
     3
 72
    14
 73
    10
 74
     0
 42
0.00000001
 43
0.00000001
 12
1.0
 22
0.0
 32
0.0
 13
1.0
 23
0.0
 33
0.0
 40
0.0
 40
0.0
 40
0.0
 40
0.0
 40
0.25
 40
0.25
 40
0.5
 40
0.5
 40
0.75
 40
0.75
 40
1.0
 40
1.0
 40
1.0
 40
1.0
 10
-247.6444914672365
 20
-92.20787363935135
 30
0.0
 10
-248.1553242505789
 20
-92.20072502170467
 30
0.0
 10
-248.6614439329277
 20
-92.09388249168994
 30
0.0
 10
-249.599361232385
 20
-91.70149289409615
 30
0.0
 10
-250.0311153266233
 20
-91.41565646907557
 30
0.0
 10
-250.7612241848042
 20
-90.7076353398413
 30
0.0
 10
-251.061047325363
 20
-90.28426264644953
 30
0.0
 10
-251.48675362437
 20
-89.35496897971423
 30
0.0
 10
-251.6121761875258
 20
-88.85103539115833
 30
0.0
 10
-251.6390096062549
 20
-88.3383372419776
 30
0.0
  0
SPLINE
  5
173
330
1F
100
AcDbEntity
  8
0
  6
Continuous
 62
     7
370
    15
100
AcDbSpline
210
0.0
220
0.0
230
1.0
 70
     8
 71
     3
 72
    14
 73
    10
 74
     0
 42
0.00000001
 43
0.00000001
 12
1.0
 22
0.0
 32
0.0
 13
1.0
 23
0.0
 33
0.0
 40
0.0
 40
0.0
 40
0.0
 40
0.0
 40
0.25
 40
0.25
 40
0.5
 40
0.5
 40
0.75
 40
0.75
 40
1.0
 40
1.0
 40
1.0
 40
1.0
 10
-233.7416898619373
 20
-88.33833724197756
 30
0.0
 10
-233.7685230881482
 20
-88.85103171277281
 30
0.0
 10
-233.894263767473
 20
-89.35578717676567
 30
0.0
 10
-234.3196811337254
 20
-90.28420164363804
 30
0.0
 10
-234.6196807382965
 20
-90.70789629409884
 30
0.0
 10
-235.3498936360878
 20
-91.41589484212112
 30
0.0
 10
-235.7812343347276
 20
-91.70151642937203
 30
0.0
 10
-236.7202652828676
 20
-92.09423786412728
 30
0.0
 10
-237.2253691985195
 20
-92.20072493747321
 30
0.0
 10
-237.7362080009556
 20
-92.20787363935135
 30
0.0
  0
LINE
  5
174
330
1F
100
AcDbEntity
  8
0
  6
Continuous
 62
     7
370
    15
100
AcDbLine
 10
-227.6860976505
 20
-79.8438288558
 30
0.0
 11
-227.6860976505
 21
-105.5129532989
 31
0.0
  0
SPLINE
  5
175
330
1F
100
AcDbEntity
  8
0
  6
Continuous
 62
     7
370
    15
100
AcDbSpline
210
0.0
220
0.0
230
1.0
 70
     8
 71
     3
 72
    10
 73
     6
 74
     0
 42
0.00000001
 43
0.00000001
 12
1.0
 22
0.0
 32
0.0
 13
1.0
 23
0.0
 33
0.0
 40
0.0
 40
0.0
 40
0.0
 40
0.0
 40
0.5
 40
0.5
 40
1.0
 40
1.0
 40
1.0
 40
1.0
 10
-227.6023460221375
 20
-81.5129532626224
 30
0.0
 10
-227.6179853533612
 20
-81.21523273409245
 30
0.0
 10
-227.6329211678633
 20
-80.92451263139189
 30
0.0
 10
-227.661401585246
 20
-80.35691584074969
 30
0.0
 10
-227.6744786664608
 20
-80.08924507175409
 30
0.0
 10
-227.6860975404737
 20
-79.84382817141352
 30
0.0
  0
ELLIPSE
  5
176
330
1F
100
AcDbEntity
  8
0
  6
Continuous
 62
     7
370
    15
100
AcDbEllipse
 10
-242.6903497341
 20
213.0827763534
 30
0.0
 11
-49.99865123366038
 21
954.0827124465537
 31
0.0
210
0.0
220
0.0
230
1.0
 40
0.0003849279
 41
1.884679704329854
 42
1.894571573115582
  0
ELLIPSE
  5
177
330
1F
100
AcDbEntity
  8
0
  6
Continuous
 62
     7
370
    15
100
AcDbEllipse
 10
-242.6903497341
 20
213.0827763534
 30
0.0
 11
49.99865123370927
 21
954.0827124475923
 31
0.0
210
0.0
220
0.0
230
1.0
 40
0.0003849279
 41
4.388613734067913
 42
4.398505602853424
  0
SPLINE
  5
178
330
1F
100
AcDbEntity
  8
0
  6
Continuous
 62
     7
370
    15
100
AcDbSpline
210
0.0
220
0.0
230
1.0
 70
     8
 71
     3
 72
    10
 73
     6
 74
     0
 42
0.00000001
 43
0.00000001
 12
1.0
 22
0.0
 32
0.0
 13
1.0
 23
0.0
 33
0.0
 40
0.0
 40
0.0
 40
0.0
 40
0.0
 40
0.5
 40
0.5
 40
1.0
 40
1.0
 40
1.0
 40
1.0
 10
-257.6946019277185
 20
-79.84382817141025
 30
0.0
 10
-257.7062194052311
 20
-80.08921557450945
 30
0.0
 10
-257.7191373379234
 20
-80.35366063671205
 30
0.0
 10
-257.747605918605
 20
-80.9211321681772
 30
0.0
 10
-257.7627140788862
 20
-81.21523204982361
 30
0.0
 10
-257.7783534460547
 20
-81.51295326262206
 30
0.0
  0
LINE
  5
179
330
1F
100
AcDbEntity
  8
0
  6
Continuous
 62
     7
370
    15
100
AcDbLine
 10
-257.6946018177
 20
-79.8438288558
 30
0.0
 11
-257.6946018177
 21
-105.5129532989
 31
0.0
  0
SPLINE
  5
17A
330
1F
100
AcDbEntity
  8
0
  6
Continuous
 62
     7
370
    15
100
AcDbSpline
210
0.0
220
0.0
230
1.0
 70
     8
 71
     3
 72
     8
 73
     4
 74
     0
 42
0.00000001
 43
0.00000001
 12
1.0
 22
0.0
 32
0.0
 13
1.0
 23
0.0
 33
0.0
 40
0.0
 40
0.0
 40
0.0
 40
0.0
 40
1.0
 40
1.0
 40
1.0
 40
1.0
 10
-252.0692430854792
 20
-80.06435608677968
 30
0.0
 10
-253.9796020284945
 20
-80.00825782001381
 30
0.0
 10
-255.8553748406229
 20
-79.93507124681045
 30
0.0
 10
-257.6946019277185
 20
-79.84382817141025
 30
0.0
  0
SPLINE
  5
17B
330
1F
100
AcDbEntity
  8
0
  6
Continuous
 62
     7
370
    15
100
AcDbSpline
210
0.0
220
0.0
230
1.0
 70
     8
 71
     3
 72
     8
 73
     4
 74
     0
 42
0.00000001
 43
0.00000001
 12
1.0
 22
0.0
 32
0.0
 13
1.0
 23
0.0
 33
0.0
 40
0.0
 40
0.0
 40
0.0
 40
0.0
 40
1.0
 40
1.0
 40
1.0
 40
1.0
 10
-227.6860975404986
 20
-79.84382817141147
 30
0.0
 10
-229.525324627582
 20
-79.9350712468109
 30
0.0
 10
-231.4010974396976
 20
-80.00825782001371
 30
0.0
 10
-233.3114563826996
 20
-80.06435608677928
 30
0.0
  0
SPLINE
  5
17C
330
1F
100
AcDbEntity
  8
0
  6
Continuous
 62
     7
370
    15
100
AcDbSpline
210
0.0
220
0.0
230
1.0
 70
     8
 71
     3
 72
    27
 73
    23
 74
     0
 42
0.00000001
 43
0.00000001
 12
1.0
 22
0.0
 32
0.0
 13
1.0
 23
0.0
 33
0.0
 40
0.0
 40
0.0
 40
0.0
 40
0.0
 40
0.051671120401574
 40
0.1037266547672946
 40
0.1552725882261078
 40
0.207178515030684
 40
0.2587215539095098
 40
0.3106003384854141
 40
0.3621406143985106
 40
0.4139957041271765
 40
0.4655339904726078
 40
0.5173726643928168
 40
0.5689100331171024
 40
0.6207417437093234
 40
0.6724278228643095
 40
0.72411339390379
 40
0.7770554985183082
 40
0.8299963302089438
 40
0.8844662559396538
 40
0.9393187128278158
 40
0.99541115755261
 40
1.0
 40
1.0
 40
1.0
 40
1.0
 10
-209.3182828190608
 20
-90.47488815224946
 30
0.0
 10
-209.3231858220961
 20
-90.69262877312111
 30
0.0
 10
-209.3330283046899
 20
-91.12972992429494
 30
0.0
 10
-209.2945827756273
 20
-91.78313046657091
 30
0.0
 10
-209.2181787416978
 20
-92.43081327063582
 30
0.0
 10
-209.1018744980872
 20
-93.06560591182539
 30
0.0
 10
-208.9479003919652
 20
-93.6867767186296
 30
0.0
 10
-208.7587914567363
 20
-94.28782495819989
 30
0.0
 10
-208.5360992801738
 20
-94.86788709049344
 30
0.0
 10
-208.2831986734244
 20
-95.42138172426435
 30
0.0
 10
-208.0016182744872
 20
-95.94763485571498
 30
0.0
 10
-207.6950584590108
 20
-96.44184325309222
 30
0.0
 10
-207.3649642089794
 20
-96.90334378251319
 30
0.0
 10
-207.014916147511
 20
-97.32834743404678
 30
0.0
 10
-206.6468786594471
 20
-97.71514328284428
 30
0.0
 10
-206.2612445450052
 20
-98.06370773040751
 30
0.0
 10
-205.8599700061689
 20
-98.37081221264756
 30
0.0
 10
-205.4418254702528
 20
-98.63518659712162
 30
0.0
 10
-205.0115933295327
 20
-98.85294007179589
 30
0.0
 10
-204.569687442358
 20
-99.01288287516955
 30
0.0
 10
-204.2595017010977
 20
-99.1011100949488
 30
0.0
 10
-204.0985971725056
 20
-99.11713188928393
 30
0.0
 10
-204.0864292445464
 20
-99.1183434899825
 30
0.0
  0
SPLINE
  5
17D
330
1F
100
AcDbEntity
  8
0
  6
Continuous
 62
     7
370
    15
100
AcDbSpline
210
0.0
220
0.0
230
1.0
 70
     8
 71
     3
 72
    27
 73
    23
 74
     0
 42
0.00000001
 43
0.00000001
 12
1.0
 22
0.0
 32
0.0
 13
1.0
 23
0.0
 33
0.0
 40
0.0
 40
0.0
 40
0.0
 40
0.0
 40
0.0021235223883323
 40
0.0561906144346188
 40
0.1118811377684889
 40
0.1675732686481123
 40
0.2214365233460751
 40
0.2756539733180192
 40
0.3295153008089093
 40
0.3837172187109038
 40
0.4375777005287601
 40
0.4917744749536851
 40
0.5456353582558482
 40
0.5998387293027241
 40
0.6537014162912705
 40
0.7079234297243444
 40
0.760893951812032
 40
0.8142299671138926
 40
0.8601373360474934
 40
0.9060435318495863
 40
0.9530222583092413
 40
1.0
 40
1.0
 40
1.0
 40
1.0
 10
-281.2944006088062
 20
-99.11956259123266
 30
0.0
 10
-281.2887700827108
 20
-99.11900452298546
 30
0.0
 10
-281.1397804969985
 20
-99.10423745583319
 30
0.0
 10
-280.8394841228296
 20
-99.0211638083666
 30
0.0
 10
-280.3973276182738
 20
-98.86554057746027
 30
0.0
 10
-279.9588561428234
 20
-98.64681682027842
 30
0.0
 10
-279.5314514292417
 20
-98.37872771828852
 30
0.0
 10
-279.1188466680755
 20
-98.06377296171355
 30
0.0
 10
-278.7186572325081
 20
-97.70122169916284
 30
0.0
 10
-278.3357146241509
 20
-97.2950170457277
 30
0.0
 10
-277.9714772990721
 20
-96.84613543052981
 30
0.0
 10
-277.6305139964163
 20
-96.35914963044797
 30
0.0
 10
-277.3144225226041
 20
-95.83487217413375
 30
0.0
 10
-277.027522594962
 20
-95.27845295714515
 30
0.0
 10
-276.771546060522
 20
-94.69070877900367
 30
0.0
 10
-276.5516994028836
 20
-94.0809518424231
 30
0.0
 10
-276.3690649826998
 20
-93.45072126915822
 30
0.0
 10
-276.2325431093399
 20
-92.83566114574563
 30
0.0
 10
-276.1367005547586
 20
-92.2372723930529
 30
0.0
 10
-276.0771940122373
 20
-91.65757153628839
 30
0.0
 10
-276.048088639948
 20
-91.06867698973588
 30
0.0
 10
-276.0576406794423
 20
-90.67281638172426
 30
0.0
 10
-276.0624166491314
 20
-90.47488815224946
 30
0.0
  0
ELLIPSE
  5
17E
330
1F
100
AcDbEntity
  8
0
  6
Continuous
 62
     7
370
    15
100
AcDbEllipse
 10
-242.6903497341
 20
213.0827763534
 30
0.0
 11
24.73172060742209
 21
954.0820476683508
 31
0.0
210
0.0
220
0.0
230
1.0
 40
0.0455464572
 41
4.389774216927993
 42
4.399666085713836
  0
SPLINE
  5
17F
330
1F
100
AcDbEntity
  8
0
  6
Continuous
 62
     7
370
    15
100
AcDbSpline
210
0.0
220
0.0
230
1.0
 70
     8
 71
     3
 72
    12
 73
     8
 74
     0
 42
0.00000001
 43
0.00000001
 12
1.0
 22
0.0
 32
0.0
 13
1.0
 23
0.0
 33
0.0
 40
0.0
 40
0.0
 40
0.0
 40
0.0
 40
0.2500000000000019
 40
0.2500000000000019
 40
0.5000000000000039
 40
0.5000000000000039
 40
1.0
 40
1.0
 40
1.0
 40
1.0
 10
-209.3475642979705
 20
-79.84382817141008
 30
0.0
 10
-209.2783466172092
 20
-79.96488153091637
 30
0.0
 10
-209.2163904719631
 20
-80.09404323375801
 30
0.0
 10
-209.1117247241538
 20
-80.36027938827432
 30
0.0
 10
-209.0689072544285
 20
-80.496999603687
 30
0.0
 10
-208.9685933588285
 20
-80.9178123264371
 30
0.0
 10
-208.9395185505028
 20
-81.21541215431616
 30
0.0
 10
-208.9516178144283
 20
-81.51295326262237
 30
0.0
  0
LINE
  5
180
330
1F
100
AcDbEntity
  8
0
  6
Continuous
 62
     7
370
    15
100
AcDbLine
 10
-209.3475636008
 20
-79.8438288558
 30
0.0
 11
-51.1720877054
 21
-105.5129532989
 31
0.0
  0
LINE
  5
181
330
1F
100
AcDbEntity
  8
0
  6
Continuous
 62
     7
370
    15
100
AcDbLine
 10
-276.0331358674
 20
-79.8438288558
 30
0.0
 11
-434.2086117628
 21
-105.5129532989
 31
0.0
  0
SPLINE
  5
182
330
1F
100
AcDbEntity
  8
0
  6
Continuous
 62
     7
370
    15
100
AcDbSpline
210
0.0
220
0.0
230
1.0
 70
     8
 71
     3
 72
    10
 73
     6
 74
     0
 42
0.00000001
 43
0.00000001
 12
1.0
 22
0.0
 32
0.0
 13
1.0
 23
0.0
 33
0.0
 40
0.0
 40
0.0
 40
0.0
 40
0.0
 40
0.5
 40
0.5
 40
1.0
 40
1.0
 40
1.0
 40
1.0
 10
-276.4290816537641
 20
-81.51295326262236
 30
0.0
 10
-276.4412086755408
 20
-81.21472954239661
 30
0.0
 10
-276.4132697932725
 20
-80.92352940901917
 30
0.0
 10
-276.2781449793869
 20
-80.35502121700571
 30
0.0
 10
-276.1726678411495
 20
-80.08785395197445
 30
0.0
 10
-276.0331351702224
 20
-79.84382817141025
 30
0.0
  0
ELLIPSE
  5
183
330
1F
100
AcDbEntity
  8
0
  6
Continuous
 62
     7
370
    15
100
AcDbEllipse
 10
-242.6903497341
 20
213.0827763534
 30
0.0
 11
-24.73172060742152
 21
954.0820476682452
 31
0.0
210
0.0
220
0.0
230
1.0
 40
0.0455464572
 41
1.883519221465778
 42
1.893411090251623
  0
SPLINE
  5
184
330
1F
100
AcDbEntity
  8
0
  6
Continuous
 62
     7
370
    15
100
AcDbSpline
210
0.0
220
0.0
230
1.0
 70
     8
 71
     3
 72
     8
 73
     4
 74
     0
 42
0.00000001
 43
0.00000001
 12
1.0
 22
0.0
 32
0.0
 13
1.0
 23
0.0
 33
0.0
 40
0.0
 40
0.0
 40
0.0
 40
0.0
 40
1.0
 40
1.0
 40
1.0
 40
1.0
 10
-205.175971808214
 20
-80.06435608677987
 30
0.0
 10
-206.4829782213656
 20
-80.00799285285994
 30
0.0
 10
-207.873553841233
 20
-79.93458782180745
 30
0.0
 10
-209.3475642979711
 20
-79.8438281714102
 30
0.0
  0
LINE
  5
185
330
1F
100
AcDbEntity
  8
0
  6
Continuous
 62
     7
370
    15
100
AcDbLine
 10
-205.1759723487
 20
-80.0643567283
 30
0.0
 11
-48.3594041231
 21
-105.5129532989
 31
0.0
  0
LINE
  5
186
330
1F
100
AcDbEntity
  8
0
  6
Continuous
 62
     7
370
    15
100
AcDbLine
 10
-280.2047271195
 20
-80.0643567283
 30
0.0
 11
-437.0212953451
 21
-105.5129532989
 31
0.0
  0
SPLINE
  5
187
330
1F
100
AcDbEntity
  8
0
  6
Continuous
 62
     7
370
    15
100
AcDbSpline
210
0.0
220
0.0
230
1.0
 70
     8
 71
     3
 72
     8
 73
     4
 74
     0
 42
0.00000001
 43
0.00000001
 12
1.0
 22
0.0
 32
0.0
 13
1.0
 23
0.0
 33
0.0
 40
0.0
 40
0.0
 40
0.0
 40
0.0
 40
1.0
 40
1.0
 40
1.0
 40
1.0
 10
-276.0331351702224
 20
-79.84382817141025
 30
0.0
 10
-277.5172587015145
 20
-79.93521051692257
 30
0.0
 10
-278.9058091414552
 20
-80.00834163454314
 30
0.0
 10
-280.204727659965
 20
-80.06435608677928
 30
0.0
  0
ELLIPSE
  5
188
330
1F
100
AcDbEntity
  8
0
  6
Continuous
 62
     7
370
    15
100
AcDbEllipse
 10
-242.6903497341
 20
-252.1753566679
 30
0.0
 11
24.73172060742212
 21
954.0820476683599
 31
0.0
210
0.0
220
0.0
230
1.0
 40
0.0455464572
 41
4.893282967136503
 42
4.893413440078449
  0
SPLINE
  5
189
330
1F
100
AcDbEntity
  8
0
  6
Continuous
 62
     7
370
    15
100
AcDbSpline
210
0.0
220
0.0
230
1.0
 70
     8
 71
     3
 72
    10
 73
     6
 74
     0
 42
0.00000001
 43
0.00000001
 12
1.0
 22
0.0
 32
0.0
 13
1.0
 23
0.0
 33
0.0
 40
0.0
 40
0.0
 40
0.0
 40
0.0
 40
0.5
 40
0.5
 40
1.0
 40
1.0
 40
1.0
 40
1.0
 10
-195.7970784568311
 20
-80.06435608677928
 30
0.0
 10
-195.6934432850873
 20
-80.28474867305135
 30
0.0
 10
-195.6153003460023
 20
-80.51900335437479
 30
0.0
 10
-195.5128561934613
 20
-81.00400873120155
 30
0.0
 10
-195.4882457540439
 20
-81.25825210941775
 30
0.0
 10
-195.4927238905552
 20
-81.51295326262239
 30
0.0
  0
LINE
  5
18A
330
1F
100
AcDbEntity
  8
0
  6
Continuous
 62
     7
370
    15
100
AcDbLine
 10
-195.7970771852
 20
-80.0643567283
 30
0.0
 11
-38.9805089596
 21
-105.5129532989
 31
0.0
  0
LINE
  5
18B
330
1F
100
AcDbEntity
  8
0
  6
Continuous
 62
     7
370
    15
100
AcDbLine
 10
-289.583622283
 20
-80.0643567283
 30
0.0
 11
-446.4001905086
 21
-105.5129532989
 31
0.0
  0
SPLINE
  5
18C
330
1F
100
AcDbEntity
  8
0
  6
Continuous
 62
     7
370
    15
100
AcDbSpline
210
0.0
220
0.0
230
1.0
 70
     8
 71
     3
 72
    10
 73
     6
 74
     0
 42
0.00000001
 43
0.00000001
 12
1.0
 22
0.0
 32
0.0
 13
1.0
 23
0.0
 33
0.0
 40
0.0
 40
0.0
 40
0.0
 40
0.0
 40
0.5
 40
0.5
 40
1.0
 40
1.0
 40
1.0
 40
1.0
 10
-289.8879755776371
 20
-81.51295326262242
 30
0.0
 10
-289.8924640964044
 20
-81.25766160204836
 30
0.0
 10
-289.8685021682221
 20
-81.00825656876405
 30
0.0
 10
-289.7660011591269
 20
-80.52073895595649
 30
0.0
 10
-289.6864692280153
 20
-80.28307511894226
 30
0.0
 10
-289.5836210113613
 20
-80.06435608677928
 30
0.0
  0
ELLIPSE
  5
18D
330
1F
100
AcDbEntity
  8
0
  6
Continuous
 62
     7
370
    15
100
AcDbEllipse
 10
-242.6903497341
 20
-252.1753566679
 30
0.0
 11
-24.73172060742152
 21
954.0820476682289
 31
0.0
210
0.0
220
0.0
230
1.0
 40
0.0455464572
 41
1.389771867101147
 42
1.389902340043092
  0
SPLINE
  5
18E
330
1F
100
AcDbEntity
  8
0
  6
Continuous
 62
     7
370
    15
100
AcDbSpline
210
0.0
220
0.0
230
1.0
 70
     8
 71
     3
 72
    10
 73
     6
 74
     0
 42
0.00000001
 43
0.00000001
 12
1.0
 22
0.0
 32
0.0
 13
1.0
 23
0.0
 33
0.0
 40
0.0
 40
0.0
 40
0.0
 40
0.0
 40
0.5
 40
0.5
 40
1.0
 40
1.0
 40
1.0
 40
1.0
 10
-194.3433121043479
 20
-79.84382817141024
 30
0.0
 10
-194.5220836902764
 20
-79.88947240161176
 30
0.0
 10
-194.7347148336611
 20
-79.9308043488342
 30
0.0
 10
-195.2212625464072
 20
-80.0043357967414
 30
0.0
 10
-195.4947453323783
 20
-80.03652925837224
 30
0.0
 10
-195.7970784568311
 20
-80.06435608677928
 30
0.0
  0
LINE
  5
18F
330
1F
100
AcDbEntity
  8
0
  6
Continuous
 62
     7
370
    15
100
AcDbLine
 10
-194.3433124485
 20
-79.8438288558
 30
0.0
 11
-36.1678253773
 21
-105.5129532989
 31
0.0
  0
LINE
  5
190
330
1F
100
AcDbEntity
  8
0
  6
Continuous
 62
     7
370
    15
100
AcDbLine
 10
-291.0373870197
 20
-79.8438288558
 30
0.0
 11
-449.2128740909
 21
-105.5129532989
 31
0.0
  0
SPLINE
  5
191
330
1F
100
AcDbEntity
  8
0
  6
Continuous
 62
     7
370
    15
100
AcDbSpline
210
0.0
220
0.0
230
1.0
 70
     8
 71
     3
 72
    10
 73
     6
 74
     0
 42
0.00000001
 43
0.00000001
 12
1.0
 22
0.0
 32
0.0
 13
1.0
 23
0.0
 33
0.0
 40
0.0
 40
0.0
 40
0.0
 40
0.0
 40
0.5
 40
0.5
 40
1.0
 40
1.0
 40
1.0
 40
1.0
 10
-289.5836210113613
 20
-80.06435608677928
 30
0.0
 10
-289.8858741045609
 20
-80.03653662447199
 30
0.0
 10
-290.1591397192838
 20
-80.00436657429007
 30
0.0
 10
-290.6451546779657
 20
-79.93094388490378
 30
0.0
 10
-290.8582316248679
 20
-79.88957048414578
 30
0.0
 10
-291.0373873638443
 20
-79.84382817141028
 30
0.0
  0
LINE
  5
192
330
1F
100
AcDbEntity
  8
0
  6
Continuous
 62
     7
370
    15
100
AcDbLine
 10
-289.6903481248
 20
-78.5129539955
 30
0.0
 11
-195.6903513434
 21
-78.5129539955
 31
0.0
  0
LINE
  5
193
330
1F
100
AcDbEntity
  8
0
  6
Continuous
 62
     8
370
     0
100
AcDbLine
 10
-242.6903497341
 20
-108.7744202752
 30
0.0
 11
77.3096431133
 21
-108.7744202752
 31
0.0
  0
LINE
  5
194
330
1F
100
AcDbEntity
  8
0
  6
Continuous
 62
     8
370
     0
100
AcDbLine
 10
-562.6903425815
 20
-108.7744202752
 30
0.0
 11
-242.6903497341
 21
-108.7744202752
 31
0.0
  0
LINE
  5
195
330
1F
100
AcDbEntity
  8
0
  6
Continuous
 62
     8
370
     0
100
AcDbLine
 10
-242.6903497341
 20
-120.8133999545
 30
0.0
 11
76.2563694355
 21
-120.8133999545
 31
0.0
  0
LINE
  5
196
330
1F
100
AcDbEntity
  8
0
  6
Continuous
 62
     8
370
     0
100
AcDbLine
 10
-561.6370689037
 20
-120.8133999545
 30
0.0
 11
-242.6903497341
 21
-120.8133999545
 31
0.0
  0
LINE
  5
197
330
1F
100
AcDbEntity
  8
0
  6
Continuous
 62
     8
370
     0
100
AcDbLine
 10
-247.6444912988
 20
-92.2078736413
 30
0.0
 11
-247.6444912988
 21
-105.5129532989
 31
0.0
  0
LINE
  5
198
330
1F
100
AcDbEntity
  8
0
  6
Continuous
 62
     8
370
     0
100
AcDbLine
 10
-237.7362081694
 20
-92.2078736413
 30
0.0
 11
-237.7362081694
 21
-105.5129532989
 31
0.0
  0
LINE
  5
199
330
1F
100
AcDbEntity
  8
0
  6
Continuous
 62
     8
370
     0
100
AcDbLine
 10
-233.7416902098
 20
-88.3383373085
 30
0.0
 11
-233.7416902098
 21
-105.5129532989
 31
0.0
  0
LINE
  5
19A
330
1F
100
AcDbEntity
  8
0
  6
Continuous
 62
     8
370
     0
100
AcDbLine
 10
-251.6390092584
 20
-88.3383373085
 30
0.0
 11
-251.6390092584
 21
-105.5129532989
 31
0.0
  0
LINE
  5
19B
330
1F
100
AcDbEntity
  8
0
  6
Continuous
 62
     8
370
     0
100
AcDbLine
 10
-258.2491448062
 20
-90.4748881522
 30
0.0
 11
-258.2491448062
 21
-105.5129532989
 31
0.0
  0
LINE
  5
19C
330
1F
100
AcDbEntity
  8
0
  6
Continuous
 62
     8
370
     0
100
AcDbLine
 10
-227.131554662
 20
-90.4748881522
 30
0.0
 11
-227.131554662
 21
-105.5129532989
 31
0.0
  0
LINE
  5
19D
330
1F
100
AcDbEntity
  8
0
  6
Continuous
 62
     8
370
     0
100
AcDbLine
 10
-209.3182828191
 20
-90.4748881522
 30
0.0
 11
-116.6523646477
 21
-105.5129532989
 31
0.0
  0
LINE
  5
19E
330
1F
100
AcDbEntity
  8
0
  6
Continuous
 62
     8
370
     0
100
AcDbLine
 10
-276.0624166491
 20
-90.4748881522
 30
0.0
 11
-368.7283348205
 21
-105.5129532989
 31
0.0
  0
LINE
  5
19F
330
1F
100
AcDbEntity
  8
0
  6
Continuous
 62
     8
370
     0
100
AcDbLine
 10
-196.2495844724
 20
-81.5129526246
 30
0.0
 11
-195.4927246931
 21
-81.5129526246
 31
0.0
  0
LINE
  5
1A0
330
1F
100
AcDbEntity
  8
0
  6
Continuous
 62
     8
370
     0
100
AcDbLine
 10
-227.602345674
 20
-81.5129526246
 30
0.0
 11
-208.9516173961
 21
-81.5129526246
 31
0.0
  0
LINE
  5
1A1
330
1F
100
AcDbEntity
  8
0
  6
Continuous
 62
     8
370
     0
100
AcDbLine
 10
-251.9962245512
 20
-81.5129526246
 30
0.0
 11
-233.384474917
 21
-81.5129526246
 31
0.0
  0
LINE
  5
1A2
330
1F
100
AcDbEntity
  8
0
  6
Continuous
 62
     8
370
     0
100
AcDbLine
 10
-276.429082072
 20
-81.5129526246
 30
0.0
 11
-257.7783537942
 21
-81.5129526246
 31
0.0
  0
LINE
  5
1A3
330
1F
100
AcDbEntity
  8
0
  6
Continuous
 62
     8
370
     0
100
AcDbLine
 10
-289.8879747751
 20
-81.5129526246
 30
0.0
 11
-289.1311149957
 21
-81.5129526246
 31
0.0
  0
LINE
  5
1A4
330
1F
100
AcDbEntity
  8
FORMAT
  6
CENTERX2
 62
     7
370
     0
100
AcDbLine
 10
-242.6903497341
 20
-158.8365302872
 30
0.0
 11
-242.6903497341
 21
-56.3936715868
 31
0.0
  0
ENDSEC
  0
SECTION
  2
OBJECTS
  0
DICTIONARY
  5
C
330
0
100
AcDbDictionary
281
     1
  3
ACAD_GROUP
350
D
  3
ACAD_LAYOUT
350
1A
  3
ACAD_MLINESTYLE
350
17
  3
ACAD_PLOTSETTINGS
350
19
  3
ACAD_PLOTSTYLENAME
350
E
  0
DICTIONARY
  5
D
102
{ACAD_REACTORS
330
C
102
}
330
C
100
AcDbDictionary
281
     1
  0
DICTIONARY
  5
1A
102
{ACAD_REACTORS
330
C
102
}
330
C
100
AcDbDictionary
281
     1
  3
Layout1
350
1E
  3
Layout2
350
26
  3
Model
350
22
  0
DICTIONARY
  5
17
102
{ACAD_REACTORS
330
C
102
}
330
C
100
AcDbDictionary
281
     1
  3
Standard
350
18
  0
DICTIONARY
  5
19
102
{ACAD_REACTORS
330
C
102
}
330
C
100
AcDbDictionary
281
     1
  0
ACDBDICTIONARYWDFLT
  5
E
102
{ACAD_REACTORS
330
C
102
}
330
C
100
AcDbDictionary
281
     1
  3
Normal
350
F
100
AcDbDictionaryWithDefault
340
F
  0
LAYOUT
  5
1E
102
{ACAD_REACTORS
330
1A
102
}
330
1A
100
AcDbPlotSettings
  1

  2
none_device
  4

  6

 40
0.0
 41
0.0
 42
0.0
 43
0.0
 44
0.0
 45
0.0
 46
0.0
 47
0.0
 48
0.0
 49
0.0
140
0.0
141
0.0
142
1.0
143
1.0
 70
   688
 72
     0
 73
     0
 74
     5
  7

 75
    16
147
1.0
148
0.0
149
0.0
100
AcDbLayout
  1
Layout1
 70
     1
 71
     1
 10
0.0
 20
0.0
 11
420.0
 21
297.0
 12
0.0
 22
0.0
 32
0.0
 14
1.0000000000E+20
 24
1.0000000000E+20
 34
1.0000000000E+20
 15
-1.0000000000E+20
 25
-1.0000000000E+20
 35
-1.0000000000E+20
146
0.0
 13
0.0
 23
0.0
 33
0.0
 16
1.0
 26
0.0
 36
0.0
 17
0.0
 27
1.0
 37
0.0
 76
     0
330
1B
  0
LAYOUT
  5
26
102
{ACAD_REACTORS
330
1A
102
}
330
1A
100
AcDbPlotSettings
  1

  2
none_device
  4

  6

 40
0.0
 41
0.0
 42
0.0
 43
0.0
 44
0.0
 45
0.0
 46
0.0
 47
0.0
 48
0.0
 49
0.0
140
0.0
141
0.0
142
1.0
143
1.0
 70
   688
 72
     0
 73
     0
 74
     5
  7

 75
    16
147
1.0
148
0.0
149
0.0
100
AcDbLayout
  1
Layout2
 70
     1
 71
     2
 10
0.0
 20
0.0
 11
0.0
 21
0.0
 12
0.0
 22
0.0
 32
0.0
 14
0.0
 24
0.0
 34
0.0
 15
0.0
 25
0.0
 35
0.0
146
0.0
 13
0.0
 23
0.0
 33
0.0
 16
1.0
 26
0.0
 36
0.0
 17
0.0
 27
1.0
 37
0.0
 76
     0
330
23
  0
LAYOUT
  5
22
102
{ACAD_REACTORS
330
1A
102
}
330
1A
100
AcDbPlotSettings
  1

  2
none_device
  4

  6

 40
0.0
 41
0.0
 42
0.0
 43
0.0
 44
0.0
 45
0.0
 46
0.0
 47
0.0
 48
0.0
 49
0.0
140
0.0
141
0.0
142
1.0
143
1.0
 70
  1712
 72
     0
 73
     0
 74
     0
  7

 75
     0
147
1.0
148
0.0
149
0.0
100
AcDbLayout
  1
Model
 70
     1
 71
     0
 10
0.0
 20
0.0
 11
297.0
 21
210.0
 12
0.0
 22
0.0
 32
0.0
 14
0.0
 24
0.0
 34
0.0
 15
297.0
 25
210.0
 35
0.0
146
0.0
 13
0.0
 23
0.0
 33
0.0
 16
1.0
 26
0.0
 36
0.0
 17
0.0
 27
1.0
 37
0.0
 76
     0
330
1F
331
29
  0
MLINESTYLE
  5
18
102
{ACAD_REACTORS
330
17
102
}
330
17
100
AcDbMlineStyle
  2
Standard
 70
     0
  3

 62
   256
 51
90.0
 52
90.0
 71
     2
 49
0.5
 62
   256
  6
BYLAYER
 49
-0.5
 62
   256
  6
BYLAYER
  0
ACDBPLACEHOLDER
  5
F
102
{ACAD_REACTORS
330
E
102
}
330
E
  0
ENDSEC
  0
EOF
