  0
SECTION
  2
HEADER
  9
$ACADVER
  1
AC1015
  9
$ACADMAINTVER
 70
     6
  9
$DWGCODEPAGE
  3
ANSI_1252
  9
$INSBASE
 10
0.0
 20
0.0
 30
0.0
  9
$EXTMIN
 10
0.0
 20
0.0
 30
0.0
  9
$EXTMAX
 10
594.0
 20
420.0
 30
0.0
  9
$LIMMIN
 10
0.0
 20
0.0
  9
$LIMMAX
 10
594.0
 20
420.0
  9
$ORTHOMODE
 70
     0
  9
$REGENMODE
 70
     1
  9
$FILLMODE
 70
     1
  9
$QTEXTMODE
 70
     0
  9
$MIRRTEXT
 70
     1
  9
$LTSCALE
 40
1.0
  9
$ATTMODE
 70
     1
  9
$TEXTSIZE
 40
2.5
  9
$TRACEWID
 40
1.0
  9
$TEXTSTYLE
  7
Standard
  9
$CLAYER
  8
0
  9
$CELTYPE
  6
ByLayer
  9
$CECOLOR
 62
   256
  9
$CELTSCALE
 40
1.0
  9
$DISPSILH
 70
     0
  9
$DIMSCALE
 40
1.0
  9
$DIMASZ
 40
2.5
  9
$DIMEXO
 40
1.0
  9
$DIMDLI
 40
3.75
  9
$DIMRND
 40
0.0
  9
$DIMDLE
 40
0.0
  9
$DIMEXE
 40
1.0
  9
$DIMTP
 40
0.0
  9
$DIMTM
 40
0.0
  9
$DIMTXT
 40
2.5
  9
$DIMCEN
 40
2.5
  9
$DIMTSZ
 40
0.0
  9
$DIMTOL
 70
     0
  9
$DIMLIM
 70
     0
  9
$DIMTIH
 70
     1
  9
$DIMTOH
 70
     1
  9
$DIMSE1
 70
     0
  9
$DIMSE2
 70
     0
  9
$DIMTAD
 70
     1
  9
$DIMZIN
 70
     0
  9
$DIMBLK
  1

  9
$DIMASO
 70
     1
  9
$DIMSHO
 70
     1
  9
$DIMPOST
  1

  9
$DIMAPOST
  1

  9
$DIMALT
 70
     0
  9
$DIMALTD
 70
     3
  9
$DIMALTF
 40
0.0393700787
  9
$DIMLFAC
 40
1.0
  9
$DIMTOFL
 70
     1
  9
$DIMTVP
 40
0.0
  9
$DIMTIX
 70
     0
  9
$DIMSOXD
 70
     0
  9
$DIMSAH
 70
     0
  9
$DIMBLK1
  1

  9
$DIMBLK2
  1

  9
$DIMSTYLE
  2
ISO-25
  9
$DIMCLRD
 70
     0
  9
$DIMCLRE
 70
     0
  9
$DIMCLRT
 70
     0
  9
$DIMTFAC
 40
1.0
  9
$DIMGAP
 40
1.524
  9
$DIMJUST
 70
     0
  9
$DIMSD1
 70
     0
  9
$DIMSD2
 70
     0
  9
$DIMTOLJ
 70
     0
  9
$DIMTZIN
 70
     0
  9
$DIMALTZ
 70
     0
  9
$DIMALTTZ
 70
     0
  9
$DIMUPT
 70
     0
  9
$DIMDEC
 70
     2
  9
$DIMTDEC
 70
     2
  9
$DIMALTU
 70
     2
  9
$DIMALTTD
 70
     3
  9
$DIMTXSTY
  7
Standard
  9
$DIMAUNIT
 70
     0
  9
$DIMADEC
 70
     2
  9
$DIMALTRND
 40
0.0
  9
$DIMAZIN
 70
     0
  9
$DIMDSEP
 70
    44
  9
$DIMATFIT
 70
     3
  9
$DIMFRAC
 70
     0
  9
$DIMLDRBLK
  1

  9
$DIMLUNIT
 70
     2
  9
$DIMLWD
 70
    -2
  9
$DIMLWE
 70
    -2
  9
$DIMTMOVE
 70
     0
  9
$LUNITS
 70
     2
  9
$LUPREC
 70
     2
  9
$SKETCHINC
 40
1.0
  9
$FILLETRAD
 40
10.0
  9
$AUNITS
 70
     0
  9
$AUPREC
 70
     2
  9
$MENU
  1
.
  9
$ELEVATION
 40
0.0
  9
$PELEVATION
 40
0.0
  9
$THICKNESS
 40
0.0
  9
$LIMCHECK
 70
     0
  9
$CHAMFERA
 40
10.0
  9
$CHAMFERB
 40
10.0
  9
$CHAMFERC
 40
20.0
  9
$CHAMFERD
 40
0.0
  9
$SKPOLY
 70
     0
  9
$TDCREATE
 40
2458043.458411401
  9
$TDUCREATE
 40
2458043.375078067
  9
$TDUPDATE
 40
2458043.458412488
  9
$TDUUPDATE
 40
2458043.375079155
  9
$TDINDWG
 40
0.0000000116
  9
$TDUSRTIMER
 40
0.0000000116
  9
$USRTIMER
 70
     1
  9
$ANGBASE
 50
0.0
  9
$ANGDIR
 70
     0
  9
$PDMODE
 70
     0
  9
$PDSIZE
 40
-1.0
  9
$PLINEWID
 40
0.0
  9
$SPLFRAME
 70
     0
  9
$SPLINETYPE
 70
     6
  9
$SPLINESEGS
 70
     8
  9
$HANDSEED
  5
29F
  9
$SURFTAB1
 70
     6
  9
$SURFTAB2
 70
     6
  9
$SURFTYPE
 70
     6
  9
$SURFU
 70
     6
  9
$SURFV
 70
     6
  9
$UCSBASE
  2

  9
$UCSNAME
  2

  9
$UCSORG
 10
0.0
 20
0.0
 30
0.0
  9
$UCSXDIR
 10
1.0
 20
0.0
 30
0.0
  9
$UCSYDIR
 10
0.0
 20
1.0
 30
0.0
  9
$UCSORTHOREF
  2

  9
$UCSORTHOVIEW
 70
     0
  9
$UCSORGTOP
 10
0.0
 20
0.0
 30
0.0
  9
$UCSORGBOTTOM
 10
0.0
 20
0.0
 30
0.0
  9
$UCSORGLEFT
 10
0.0
 20
0.0
 30
0.0
  9
$UCSORGRIGHT
 10
0.0
 20
0.0
 30
0.0
  9
$UCSORGFRONT
 10
0.0
 20
0.0
 30
0.0
  9
$UCSORGBACK
 10
0.0
 20
0.0
 30
0.0
  9
$PUCSBASE
  2

  9
$PUCSNAME
  2

  9
$PUCSORG
 10
0.0
 20
0.0
 30
0.0
  9
$PUCSXDIR
 10
1.0
 20
0.0
 30
0.0
  9
$PUCSYDIR
 10
0.0
 20
1.0
 30
0.0
  9
$PUCSORTHOREF
  2

  9
$PUCSORTHOVIEW
 70
     0
  9
$PUCSORGTOP
 10
0.0
 20
0.0
 30
0.0
  9
$PUCSORGBOTTOM
 10
0.0
 20
0.0
 30
0.0
  9
$PUCSORGLEFT
 10
0.0
 20
0.0
 30
0.0
  9
$PUCSORGRIGHT
 10
0.0
 20
0.0
 30
0.0
  9
$PUCSORGFRONT
 10
0.0
 20
0.0
 30
0.0
  9
$PUCSORGBACK
 10
0.0
 20
0.0
 30
0.0
  9
$USERI1
 70
     0
  9
$USERI2
 70
     0
  9
$USERI3
 70
     0
  9
$USERI4
 70
     0
  9
$USERI5
 70
     0
  9
$USERR1
 40
0.0
  9
$USERR2
 40
0.0
  9
$USERR3
 40
0.0
  9
$USERR4
 40
0.0
  9
$USERR5
 40
0.0
  9
$WORLDVIEW
 70
     1
  9
$SHADEDGE
 70
     3
  9
$SHADEDIF
 70
    70
  9
$TILEMODE
 70
     1
  9
$MAXACTVP
 70
    64
  9
$PINSBASE
 10
0.0
 20
0.0
 30
0.0
  9
$PLIMCHECK
 70
     0
  9
$PEXTMIN
 10
1.0000000000E+20
 20
1.0000000000E+20
 30
1.0000000000E+20
  9
$PEXTMAX
 10
-1.0000000000E+20
 20
-1.0000000000E+20
 30
-1.0000000000E+20
  9
$PLIMMIN
 10
0.0
 20
0.0
  9
$PLIMMAX
 10
420.0
 20
297.0
  9
$UNITMODE
 70
     0
  9
$VISRETAIN
 70
     1
  9
$PLINEGEN
 70
     0
  9
$PSLTSCALE
 70
     1
  9
$TREEDEPTH
 70
  3020
  9
$CMLSTYLE
  2
Standard
  9
$CMLJUST
 70
     0
  9
$CMLSCALE
 40
20.0
  9
$PROXYGRAPHICS
 70
     1
  9
$MEASUREMENT
 70
     1
  9
$CELWEIGHT
370
    -1
  9
$ENDCAPS
280
     0
  9
$JOINSTYLE
280
     0
  9
$LWDISPLAY
290
     1
  9
$INSUNITS
 70
     4
  9
$HYPERLINKBASE
  1

  9
$STYLESHEET
  1

  9
$XEDIT
290
     1
  9
$CEPSNTYPE
380
     0
  9
$PSTYLEMODE
290
     1
  9
$FINGERPRINTGUID
  2
{E92FCA0C-BE04-4948-A27E-BE57C19293E9}
  9
$VERSIONGUID
  2
{FAEB1C32-E019-11D5-929B-00C0DF256EC4}
  9
$EXTNAMES
290
     1
  9
$PSVPSCALE
 40
0.0
  9
$OLESTARTUP
290
     0
  0
ENDSEC
  0
SECTION
  2
CLASSES
  0
CLASS
  1
ACDBDICTIONARYWDFLT
  2
AcDbDictionaryWithDefault
  3
ObjectDBX Classes
 90
        0
280
     0
281
     0
  0
CLASS
  1
VISUALSTYLE
  2
AcDbVisualStyle
  3
ObjectDBX Classes
 90
     4095
280
     0
281
     0
  0
CLASS
  1
MATERIAL
  2
AcDbMaterial
  3
ObjectDBX Classes
 90
     1153
280
     0
281
     0
  0
CLASS
  1
ACDBPLACEHOLDER
  2
AcDbPlaceHolder
  3
ObjectDBX Classes
 90
        0
280
     0
281
     0
  0
CLASS
  1
LAYOUT
  2
AcDbLayout
  3
ObjectDBX Classes
 90
        0
280
     0
281
     0
  0
ENDSEC
  0
SECTION
  2
TABLES
  0
TABLE
  2
VPORT
  5
8
330
0
100
AcDbSymbolTable
 70
     1
  0
VPORT
  5
29
330
8
100
AcDbSymbolTableRecord
100
AcDbViewportTableRecord
  2
*Active
 70
     0
 10
0.0
 20
0.0
 11
1.0
 21
1.0
 12
297.0
 22
210.0
 13
0.0
 23
0.0
 14
10.0
 24
10.0
 15
10.0
 25
10.0
 16
0.0
 26
0.0
 36
1.0
 17
0.0
 27
0.0
 37
0.0
 40
420.0
 41
1.4142857143
 42
50.0
 43
0.0
 44
0.0
 50
0.0
 51
0.0
 71
     0
 72
  2000
 73
     1
 74
     3
 75
     0
 76
     0
 77
     0
 78
     0
281
     0
 65
     1
110
0.0
120
0.0
130
0.0
111
1.0
121
0.0
131
0.0
112
0.0
122
1.0
132
0.0
 79
     0
146
0.0
  0
ENDTAB
  0
TABLE
  2
LTYPE
  5
5
330
0
100
AcDbSymbolTable
 70
     6
  0
LTYPE
  5
14
330
5
100
AcDbSymbolTableRecord
100
AcDbLinetypeTableRecord
  2
ByBlock
 70
     0
  3

 72
    65
 73
     0
 40
0.0
  0
LTYPE
  5
15
330
5
100
AcDbSymbolTableRecord
100
AcDbLinetypeTableRecord
  2
ByLayer
 70
     0
  3

 72
    65
 73
     0
 40
0.0
  0
LTYPE
  5
16
330
5
100
AcDbSymbolTableRecord
100
AcDbLinetypeTableRecord
  2
Continuous
 70
     0
  3
Solid line
 72
    65
 73
     0
 40
0.0
  0
LTYPE
  5
3F
330
5
100
AcDbSymbolTableRecord
100
AcDbLinetypeTableRecord
  2
HIDDEN
 70
     0
  3
Hidden __ __ __ __ __ __ __ __ __ __ __ __ __ __
 72
    65
 73
     2
 40
1.905
 49
1.27
 74
     0
 49
-0.635
 74
     0
  0
LTYPE
  5
40
330
5
100
AcDbSymbolTableRecord
100
AcDbLinetypeTableRecord
  2
PHANTOM
 70
     0
  3
Phantom ______  __  __  ______  __  __  ______
 72
    65
 73
     6
 40
12.7
 49
6.35
 74
     0
 49
-1.27
 74
     0
 49
1.27
 74
     0
 49
-1.27
 74
     0
 49
1.27
 74
     0
 49
-1.27
 74
     0
  0
LTYPE
  5
41
330
5
100
AcDbSymbolTableRecord
100
AcDbLinetypeTableRecord
  2
CENTER
 70
     0
  3
Center ____ _ ____ _ ____ _ ____ _ ____ _ ____
 72
    65
 73
     4
 40
10.16
 49
6.35
 74
     0
 49
-1.27
 74
     0
 49
1.27
 74
     0
 49
-1.27
 74
     0
  0
LTYPE
  5
42
330
5
100
AcDbSymbolTableRecord
100
AcDbLinetypeTableRecord
  2
CENTERX2
 70
     0
  3
Center (2x) ________  __  ________  __  _____
 72
    65
 73
     4
 40
20.32
 49
12.7
 74
     0
 49
-2.54
 74
     0
 49
2.54
 74
     0
 49
-2.54
 74
     0
  0
LTYPE
  5
43
330
5
100
AcDbSymbolTableRecord
100
AcDbLinetypeTableRecord
  2
DOT2
 70
     0
  3
Dot (.5x) ........................................
 72
    65
 73
     2
 40
0.635
 49
0.0
 74
     0
 49
-0.635
 74
     0
  0
ENDTAB
  0
TABLE
  2
LAYER
  5
2
330
0
100
AcDbSymbolTable
 70
     3
  0
LAYER
  5
10
330
2
100
AcDbSymbolTableRecord
100
AcDbLayerTableRecord
  2
0
 70
     0
 62
     7
  6
Continuous
370
    -3
390
F
  0
LAYER
  5
44
330
2
100
AcDbSymbolTableRecord
100
AcDbLayerTableRecord
  2
FORMAT
 70
     0
 62
     7
  6
Continuous
370
    -3
390
F
  0
LAYER
  5
45
330
2
100
AcDbSymbolTableRecord
100
AcDbLayerTableRecord
  2
PROTOTYPE
 70
     0
 62
     7
  6
Continuous
370
    -3
390
F
  0
ENDTAB
  0
TABLE
  2
STYLE
  5
3
330
0
100
AcDbSymbolTable
 70
     1
  0
STYLE
  5
11
330
3
100
AcDbSymbolTableRecord
100
AcDbTextStyleTableRecord
  2
Standard
 70
     0
 40
0.0
 41
1.0
 50
0.0
 71
     0
 42
2.5
  3
txt
  4

  0
ENDTAB
  0
TABLE
  2
VIEW
  5
6
330
0
100
AcDbSymbolTable
 70
     0
  0
ENDTAB
  0
TABLE
  2
UCS
  5
7
330
0
100
AcDbSymbolTable
 70
     0
  0
ENDTAB
  0
TABLE
  2
APPID
  5
9
330
0
100
AcDbSymbolTable
 70
     1
  0
APPID
  5
12
330
9
100
AcDbSymbolTableRecord
100
AcDbRegAppTableRecord
  2
ACAD
 70
     0
  0
ENDTAB
  0
TABLE
  2
DIMSTYLE
  5
A
330
0
100
AcDbSymbolTable
 70
     1
100
AcDbDimStyleTable
  0
DIMSTYLE
105
27
330
A
100
AcDbSymbolTableRecord
100
AcDbDimStyleTableRecord
  2
ISO-25
 70
     0
 41
2.5
 42
0.625
 43
3.75
 44
1.25
 73
     0
 74
     0
 77
     1
 78
     8
140
2.5
141
2.5
143
0.0393700787
147
0.625
171
     3
172
     1
178
     0
271
     2
272
     2
274
     3
278
    44
283
     0
284
     8
340
11
  0
ENDTAB
  0
TABLE
  2
BLOCK_RECORD
  5
1
330
0
100
AcDbSymbolTable
 70
     4
  0
BLOCK_RECORD
  5
1F
330
1
100
AcDbSymbolTableRecord
100
AcDbBlockTableRecord
  2
*Model_Space
340
22
  0
BLOCK_RECORD
  5
1B
330
1
100
AcDbSymbolTableRecord
100
AcDbBlockTableRecord
  2
*Paper_Space
340
1E
  0
BLOCK_RECORD
  5
23
330
1
100
AcDbSymbolTableRecord
100
AcDbBlockTableRecord
  2
*Paper_Space0
340
26
  0
BLOCK_RECORD
  5
149
330
1
100
AcDbSymbolTableRecord
100
AcDbBlockTableRecord
  2
SW_CENTERMARKSYMBOL_0
340
0
102
{BLKREFS
331
154
102
}
  0
BLOCK_RECORD
  5
1E5
330
1
100
AcDbSymbolTableRecord
100
AcDbBlockTableRecord
  2
SW_CENTERMARKSYMBOL_1
340
0
102
{BLKREFS
331
1F0
102
}
  0
BLOCK_RECORD
  5
293
330
1
100
AcDbSymbolTableRecord
100
AcDbBlockTableRecord
  2
SW_CENTERMARKSYMBOL_2
340
0
102
{BLKREFS
331
29E
102
}
  0
ENDTAB
  0
ENDSEC
  0
SECTION
  2
BLOCKS
  0
BLOCK
  5
20
330
1F
100
AcDbEntity
  8
0
100
AcDbBlockBegin
  2
*Model_Space
 70
     0
 10
0.0
 20
0.0
 30
0.0
  3
*Model_Space
  1

  0
ENDBLK
  5
21
330
1F
100
AcDbEntity
  8
0
100
AcDbBlockEnd
  0
BLOCK
  5
1C
330
1B
100
AcDbEntity
 67
     1
  8
0
100
AcDbBlockBegin
  2
*Paper_Space
 70
     0
 10
0.0
 20
0.0
 30
0.0
  3
*Paper_Space
  1

  0
ENDBLK
  5
1D
330
1B
100
AcDbEntity
 67
     1
  8
0
100
AcDbBlockEnd
  0
BLOCK
  5
24
330
23
100
AcDbEntity
  8
0
100
AcDbBlockBegin
  2
*Paper_Space0
 70
     0
 10
0.0
 20
0.0
 30
0.0
  3
*Paper_Space0
  1

  0
ENDBLK
  5
25
330
23
100
AcDbEntity
  8
0
100
AcDbBlockEnd
  0
BLOCK
  5
14A
330
149
100
AcDbEntity
  8
0
100
AcDbBlockBegin
  2
SW_CENTERMARKSYMBOL_0
 70
     0
 10
0.0
 20
0.0
 30
0.0
  3
SW_CENTERMARKSYMBOL_0
  1

  0
LINE
  5
14C
330
149
100
AcDbEntity
  8
FORMAT
 62
     0
100
AcDbLine
 10
0.0
 20
0.0
 30
0.0
 11
0.0
 21
2.5
 31
0.0
  0
LINE
  5
14D
330
149
100
AcDbEntity
  8
FORMAT
 62
     0
100
AcDbLine
 10
0.0
 20
0.0
 30
0.0
 11
-2.5
 21
0.0
 31
0.0
  0
LINE
  5
14E
330
149
100
AcDbEntity
  8
FORMAT
 62
     0
100
AcDbLine
 10
0.0
 20
0.0
 30
0.0
 11
0.0
 21
-2.5
 31
0.0
  0
LINE
  5
14F
330
149
100
AcDbEntity
  8
FORMAT
 62
     0
100
AcDbLine
 10
0.0
 20
0.0
 30
0.0
 11
2.5
 21
0.0
 31
0.0
  0
LINE
  5
150
330
149
100
AcDbEntity
  8
FORMAT
 62
     0
100
AcDbLine
 10
0.0
 20
5.0
 30
0.0
 11
0.0
 21
6.5
 31
0.0
  0
LINE
  5
151
330
149
100
AcDbEntity
  8
FORMAT
 62
     0
100
AcDbLine
 10
-5.0
 20
0.0
 30
0.0
 11
-6.5
 21
0.0
 31
0.0
  0
LINE
  5
152
330
149
100
AcDbEntity
  8
FORMAT
 62
     0
100
AcDbLine
 10
0.0
 20
-5.0
 30
0.0
 11
0.0
 21
-6.5
 31
0.0
  0
LINE
  5
153
330
149
100
AcDbEntity
  8
FORMAT
 62
     0
100
AcDbLine
 10
5.0
 20
0.0
 30
0.0
 11
6.5
 21
0.0
 31
0.0
  0
ENDBLK
  5
14B
330
149
100
AcDbEntity
  8
0
100
AcDbBlockEnd
  0
BLOCK
  5
1E6
330
1E5
100
AcDbEntity
  8
0
100
AcDbBlockBegin
  2
SW_CENTERMARKSYMBOL_1
 70
     0
 10
0.0
 20
0.0
 30
0.0
  3
SW_CENTERMARKSYMBOL_1
  1

  0
LINE
  5
1E8
330
1E5
100
AcDbEntity
  8
FORMAT
 62
     0
100
AcDbLine
 10
0.0
 20
0.0
 30
0.0
 11
0.0
 21
2.5
 31
0.0
  0
LINE
  5
1E9
330
1E5
100
AcDbEntity
  8
FORMAT
 62
     0
100
AcDbLine
 10
0.0
 20
0.0
 30
0.0
 11
-2.5
 21
0.0
 31
0.0
  0
LINE
  5
1EA
330
1E5
100
AcDbEntity
  8
FORMAT
 62
     0
100
AcDbLine
 10
0.0
 20
0.0
 30
0.0
 11
0.0
 21
-2.5
 31
0.0
  0
LINE
  5
1EB
330
1E5
100
AcDbEntity
  8
FORMAT
 62
     0
100
AcDbLine
 10
0.0
 20
0.0
 30
0.0
 11
2.5
 21
0.0
 31
0.0
  0
LINE
  5
1EC
330
1E5
100
AcDbEntity
  8
FORMAT
 62
     0
100
AcDbLine
 10
0.0
 20
5.0
 30
0.0
 11
0.0
 21
184.9506134831
 31
0.0
  0
LINE
  5
1ED
330
1E5
100
AcDbEntity
  8
FORMAT
 62
     0
100
AcDbLine
 10
-5.0
 20
0.0
 30
0.0
 11
-32.1997231777
 21
0.0
 31
0.0
  0
LINE
  5
1EE
330
1E5
100
AcDbEntity
  8
FORMAT
 62
     0
100
AcDbLine
 10
0.0
 20
-5.0
 30
0.0
 11
0.0
 21
-26.6275186397
 31
0.0
  0
LINE
  5
1EF
330
1E5
100
AcDbEntity
  8
FORMAT
 62
     0
100
AcDbLine
 10
5.0
 20
0.0
 30
0.0
 11
36.0117595723
 21
0.0
 31
0.0
  0
ENDBLK
  5
1E7
330
1E5
100
AcDbEntity
  8
0
100
AcDbBlockEnd
  0
BLOCK
  5
294
330
293
100
AcDbEntity
  8
0
100
AcDbBlockBegin
  2
SW_CENTERMARKSYMBOL_2
 70
     0
 10
0.0
 20
0.0
 30
0.0
  3
SW_CENTERMARKSYMBOL_2
  1

  0
LINE
  5
296
330
293
100
AcDbEntity
  8
FORMAT
 62
     0
100
AcDbLine
 10
0.0
 20
0.0
 30
0.0
 11
0.0
 21
2.5
 31
0.0
  0
LINE
  5
297
330
293
100
AcDbEntity
  8
FORMAT
 62
     0
100
AcDbLine
 10
0.0
 20
0.0
 30
0.0
 11
-2.5
 21
0.0
 31
0.0
  0
LINE
  5
298
330
293
100
AcDbEntity
  8
FORMAT
 62
     0
100
AcDbLine
 10
0.0
 20
0.0
 30
0.0
 11
0.0
 21
-2.5
 31
0.0
  0
LINE
  5
299
330
293
100
AcDbEntity
  8
FORMAT
 62
     0
100
AcDbLine
 10
0.0
 20
0.0
 30
0.0
 11
2.5
 21
0.0
 31
0.0
  0
LINE
  5
29A
330
293
100
AcDbEntity
  8
FORMAT
 62
     0
100
AcDbLine
 10
0.0
 20
5.0
 30
0.0
 11
0.0
 21
38.4910151692
 31
0.0
  0
LINE
  5
29B
330
293
100
AcDbEntity
  8
FORMAT
 62
     0
100
AcDbLine
 10
-5.0
 20
0.0
 30
0.0
 11
-61.4856476079
 21
0.0
 31
0.0
  0
LINE
  5
29C
330
293
100
AcDbEntity
  8
FORMAT
 62
     0
100
AcDbLine
 10
0.0
 20
-5.0
 30
0.0
 11
0.0
 21
-37.9575114501
 31
0.0
  0
LINE
  5
29D
330
293
100
AcDbEntity
  8
FORMAT
 62
     0
100
AcDbLine
 10
5.0
 20
0.0
 30
0.0
 11
61.9855309218
 21
0.0
 31
0.0
  0
ENDBLK
  5
295
330
293
100
AcDbEntity
  8
0
100
AcDbBlockEnd
  0
ENDSEC
  0
SECTION
  2
ENTITIES
  0
LINE
  5
46
330
1F
100
AcDbEntity
  8
0
  6
Continuous
 62
     7
370
    15
100
AcDbLine
 10
227.0226947936
 20
321.2274234422
 30
0.0
 11
227.0226947936
 21
336.2274240383
 31
0.0
  0
LINE
  5
47
330
1F
100
AcDbEntity
  8
0
  6
Continuous
 62
     7
370
    15
100
AcDbLine
 10
172.5226961049
 20
336.2274240383
 30
0.0
 11
172.5226961049
 21
321.2274234422
 31
0.0
  0
LINE
  5
48
330
1F
100
AcDbEntity
  8
0
  6
Continuous
 62
     7
370
    15
100
AcDbLine
 10
223.7726956579
 20
336.2274240383
 30
0.0
 11
218.7460552874
 21
344.933814896
 31
0.0
  0
LINE
  5
49
330
1F
100
AcDbEntity
  8
0
  6
Continuous
 62
     7
370
    15
100
AcDbLine
 10
180.7993356111
 20
344.933814896
 30
0.0
 11
175.7726952406
 21
336.2274240383
 31
0.0
  0
LINE
  5
4A
330
1F
100
AcDbEntity
  8
0
  6
Continuous
 62
     7
370
    15
100
AcDbLine
 10
218.7460552874
 20
344.933814896
 30
0.0
 11
217.7726946744
 21
367.2274198064
 31
0.0
  0
LINE
  5
4B
330
1F
100
AcDbEntity
  8
0
  6
Continuous
 62
     7
370
    15
100
AcDbLine
 10
181.7726962241
 20
367.2274198064
 30
0.0
 11
180.7993356111
 21
344.933814896
 31
0.0
  0
LINE
  5
4C
330
1F
100
AcDbEntity
  8
0
  6
Continuous
 62
     7
370
    15
100
AcDbLine
 10
150.4535287591
 20
321.2274234422
 30
0.0
 11
149.7726947042
 21
295.2274229058
 31
0.0
  0
LINE
  5
4D
330
1F
100
AcDbEntity
  8
0
  6
Continuous
 62
     7
370
    15
100
AcDbLine
 10
249.7726961943
 20
295.2274229058
 30
0.0
 11
249.0918621394
 21
321.2274234422
 31
0.0
  0
LINE
  5
4E
330
1F
100
AcDbEntity
  8
0
  6
Continuous
 62
     7
370
    15
100
AcDbLine
 10
208.7726950618
 20
367.2274198064
 30
0.0
 11
208.7726950618
 21
372.0161463746
 31
0.0
  0
LINE
  5
4F
330
1F
100
AcDbEntity
  8
0
  6
Continuous
 62
     7
370
    15
100
AcDbLine
 10
190.7726958367
 20
372.0161463746
 30
0.0
 11
190.7726958367
 21
367.2274198064
 31
0.0
  0
LINE
  5
50
330
1F
100
AcDbEntity
  8
0
  6
Continuous
 62
     7
370
    15
100
AcDbLine
 10
214.3672149601
 20
295.2274229058
 30
0.0
 11
234.5972567769
 21
295.2274229058
 31
0.0
  0
SPLINE
  5
51
330
1F
100
AcDbEntity
  8
0
  6
Continuous
 62
     7
370
    15
100
AcDbSpline
210
0.0
220
0.0
230
1.0
 70
     8
 71
     3
 72
     8
 73
     4
 74
     0
 42
0.00000001
 43
0.00000001
 12
1.0
 22
0.0
 32
0.0
 13
1.0
 23
0.0
 33
0.0
 40
0.0
 40
0.0
 40
0.0
 40
0.0
 40
1.0
 40
1.0
 40
1.0
 40
1.0
 10
214.3672149685679
 20
295.2274212368728
 30
0.0
 10
214.1459073794893
 20
298.5610445290358
 30
0.0
 10
213.9203758099144
 20
301.8944457193161
 30
0.0
 10
213.6899864316002
 20
305.2274212368728
 30
0.0
  0
LINE
  5
52
330
1F
100
AcDbEntity
  8
0
  6
Continuous
 62
     7
370
    15
100
AcDbLine
 10
213.6899860548
 20
305.2274208196
 30
0.0
 11
234.4125419828
 21
305.2274208196
 31
0.0
  0
LINE
  5
53
330
1F
100
AcDbEntity
  8
0
  6
Continuous
 62
     7
370
    15
100
AcDbLine
 10
234.4125419828
 20
305.2274208196
 30
0.0
 11
234.5972567769
 21
295.2274229058
 31
0.0
  0
SPLINE
  5
54
330
1F
100
AcDbEntity
  8
0
  6
Continuous
 62
     7
370
    15
100
AcDbSpline
210
0.0
220
0.0
230
1.0
 70
    24
 71
     3
 72
     8
 73
     4
 74
     0
 42
0.00000001
 43
0.00000001
 12
1.0
 22
0.0
 32
0.0
 13
1.0
 23
0.0
 33
0.0
 40
0.001001884639077
 40
0.001001884639077
 40
0.001001884639077
 40
0.001001884639077
 40
0.0110190796468041
 40
0.0110190796468041
 40
0.0110190796468041
 40
0.0110190796468041
 10
234.6926954492415
 20
295.2274212368728
 30
0.0
 10
234.5976085867978
 20
291.8939816386907
 30
0.0
 10
234.5025245834405
 20
288.5606422708819
 30
0.0
 10
234.4074439555725
 20
285.2274212368728
 30
0.0
  0
LINE
  5
55
330
1F
100
AcDbEntity
  8
0
  6
Continuous
 62
     7
370
    15
100
AcDbLine
 10
214.2771895948
 20
285.2274212667
 30
0.0
 11
234.4074457857
 21
285.2274212667
 31
0.0
  0
LINE
  5
56
330
1F
100
AcDbEntity
  8
0
  6
Continuous
 62
     7
370
    15
100
AcDbLine
 10
214.2771895948
 20
285.2274212667
 30
0.0
 11
214.3672149601
 21
295.2274229058
 31
0.0
  0
LINE
  5
57
330
1F
100
AcDbEntity
  8
0
  6
Continuous
 62
     7
370
    15
100
AcDbLine
 10
165.1328489157
 20
305.2274208196
 30
0.0
 11
185.8554048436
 21
305.2274208196
 31
0.0
  0
SPLINE
  5
58
330
1F
100
AcDbEntity
  8
0
  6
Continuous
 62
     7
370
    15
100
AcDbSpline
210
0.0
220
0.0
230
1.0
 70
     8
 71
     3
 72
     8
 73
     4
 74
     0
 42
0.00000001
 43
0.00000001
 12
1.0
 22
0.0
 32
0.0
 13
1.0
 23
0.0
 33
0.0
 40
0.0
 40
0.0
 40
0.0
 40
0.0
 40
1.0
 40
1.0
 40
1.0
 40
1.0
 10
185.8554044668827
 20
305.2274212368728
 30
0.0
 10
185.6250150885685
 20
301.8944457193161
 30
0.0
 10
185.3994835189936
 20
298.5610445290358
 30
0.0
 10
185.1781759299151
 20
295.2274212368728
 30
0.0
  0
LINE
  5
59
330
1F
100
AcDbEntity
  8
0
  6
Continuous
 62
     7
370
    15
100
AcDbLine
 10
164.9481341215
 20
295.2274229058
 30
0.0
 11
185.1781759384
 21
295.2274229058
 31
0.0
  0
LINE
  5
5A
330
1F
100
AcDbEntity
  8
0
  6
Continuous
 62
     7
370
    15
100
AcDbLine
 10
164.9481341215
 20
295.2274229058
 30
0.0
 11
165.1328489157
 21
305.2274208196
 31
0.0
  0
LINE
  5
5B
330
1F
100
AcDbEntity
  8
0
  6
Continuous
 62
     7
370
    15
100
AcDbLine
 10
185.2682013037
 20
285.2274212667
 30
0.0
 11
185.1781759384
 21
295.2274229058
 31
0.0
  0
LINE
  5
5C
330
1F
100
AcDbEntity
  8
0
  6
Continuous
 62
     7
370
    15
100
AcDbLine
 10
185.2682013037
 20
285.2274212667
 30
0.0
 11
165.1379451128
 21
285.2274212667
 31
0.0
  0
SPLINE
  5
5D
330
1F
100
AcDbEntity
  8
0
  6
Continuous
 62
     7
370
    15
100
AcDbSpline
210
0.0
220
0.0
230
1.0
 70
    24
 71
     3
 72
     8
 73
     4
 74
     0
 42
0.00000001
 43
0.00000001
 12
1.0
 22
0.0
 32
0.0
 13
1.0
 23
0.0
 33
0.0
 40
0.001001884639077
 40
0.001001884639077
 40
0.001001884639077
 40
0.001001884639077
 40
0.0110190796468041
 40
0.0110190796468041
 40
0.0110190796468041
 40
0.0110190796468041
 10
164.8526954492415
 20
295.2274212368728
 30
0.0
 10
164.9477823116851
 20
291.8939816386907
 30
0.0
 10
165.0428663150425
 20
288.5606422708819
 30
0.0
 10
165.1379469429104
 20
285.2274212368728
 30
0.0
  0
SPLINE
  5
5E
330
1F
100
AcDbEntity
  8
0
  6
Continuous
 62
     7
370
    15
100
AcDbSpline
210
0.0
220
0.0
230
1.0
 70
     8
 71
     3
 72
    18
 73
    14
 74
     0
 42
0.00000001
 43
0.00000001
 12
1.0
 22
0.0
 32
0.0
 13
1.0
 23
0.0
 33
0.0
 40
0.0
 40
0.0
 40
0.0
 40
0.0
 40
0.125
 40
0.125
 40
0.25
 40
0.25
 40
0.4999999999999999
 40
0.4999999999999999
 40
0.6249999999999999
 40
0.6249999999999999
 40
0.7499999999999999
 40
0.7499999999999999
 40
1.0
 40
1.0
 40
1.0
 40
1.0
 10
185.8554044668827
 20
305.2274212368728
 30
0.0
 10
187.0046355905155
 20
305.4787743596474
 30
0.0
 10
188.1593098723037
 20
305.7045461787191
 30
0.0
 10
190.4685759553464
 20
306.0965423356731
 30
0.0
 10
191.6249001472712
 20
306.2631327258168
 30
0.0
 10
195.0993837035638
 20
306.6670725632319
 30
0.0
 10
197.4231122005936
 20
306.8075794604371
 30
0.0
 10
200.9207643107497
 20
306.8086375613879
 30
0.0
 10
202.0886446330649
 20
306.7742765280653
 30
0.0
 10
204.4283761248931
 20
306.6365047562169
 30
0.0
 10
205.6031866959995
 20
306.5327355474243
 30
0.0
 10
209.1121752604886
 20
306.1241951434719
 30
0.0
 10
211.4151591043473
 20
305.7249581906847
 30
0.0
 10
213.6899864316002
 20
305.2274212368728
 30
0.0
  0
SPLINE
  5
5F
330
1F
100
AcDbEntity
  8
0
  6
Continuous
 62
     7
370
    15
100
AcDbSpline
210
0.0
220
0.0
230
1.0
 70
     8
 71
     3
 72
     8
 73
     4
 74
     0
 42
0.00000001
 43
0.00000001
 12
1.0
 22
0.0
 32
0.0
 13
1.0
 23
0.0
 33
0.0
 40
0.0
 40
0.0
 40
0.0
 40
0.0
 40
1.0
 40
1.0
 40
1.0
 40
1.0
 10
165.1328499179592
 20
305.2274212368728
 30
0.0
 10
167.1883706159895
 20
306.3520591817885
 30
0.0
 10
169.2480146263957
 20
307.4691102598171
 30
0.0
 10
171.3147754525533
 20
308.573066444992
 30
0.0
  0
LINE
  5
60
330
1F
100
AcDbEntity
  8
0
  6
Continuous
 62
     7
370
    15
100
AcDbLine
 10
171.3147763136
 20
308.5730667838
 30
0.0
 11
228.2306145849
 21
308.5730667838
 31
0.0
  0
SPLINE
  5
61
330
1F
100
AcDbEntity
  8
0
  6
Continuous
 62
     7
370
    15
100
AcDbSpline
210
0.0
220
0.0
230
1.0
 70
     8
 71
     3
 72
     8
 73
     4
 74
     0
 42
0.00000001
 43
0.00000001
 12
1.0
 22
0.0
 32
0.0
 13
1.0
 23
0.0
 33
0.0
 40
0.0
 40
0.0
 40
0.0
 40
0.0
 40
1.0
 40
1.0
 40
1.0
 40
1.0
 10
228.2306154459296
 20
308.573066444992
 30
0.0
 10
230.2973762720873
 20
307.4691102598171
 30
0.0
 10
232.3570202824935
 20
306.3520591817885
 30
0.0
 10
234.4125409805238
 20
305.2274212368728
 30
0.0
  0
LINE
  5
62
330
1F
100
AcDbEntity
  8
0
  6
Continuous
 62
     7
370
    15
100
AcDbLine
 10
214.3672149601
 20
295.2274229058
 30
0.0
 11
185.1781759384
 21
295.2274229058
 31
0.0
  0
LINE
  5
63
330
1F
100
AcDbEntity
  8
0
  6
Continuous
 62
     7
370
    15
100
AcDbLine
 10
185.2682013037
 20
285.2274212667
 30
0.0
 11
214.2771895948
 21
285.2274212667
 31
0.0
  0
SPLINE
  5
64
330
1F
100
AcDbEntity
  8
0
  6
Continuous
 62
     7
370
    15
100
AcDbSpline
210
0.0
220
0.0
230
1.0
 70
     8
 71
     3
 72
    12
 73
     8
 74
     0
 42
0.00000001
 43
0.00000001
 12
1.0
 22
0.0
 32
0.0
 13
1.0
 23
0.0
 33
0.0
 40
0.0
 40
0.0
 40
0.0
 40
0.0
 40
0.4999999999999984
 40
0.4999999999999984
 40
0.7499999999999992
 40
0.7499999999999992
 40
1.0
 40
1.0
 40
1.0
 40
1.0
 10
165.1379469429104
 20
285.2274212368728
 30
0.0
 10
166.0656977374579
 20
284.9714753580228
 30
0.0
 10
166.9470101816666
 20
284.7182693585042
 30
0.0
 10
168.201834608625
 20
284.3428850891712
 30
0.0
 10
168.609627995042
 20
284.2182689862378
 30
0.0
 10
169.3982198180643
 20
283.9721669631534
 30
0.0
 10
169.7729780853596
 20
283.8525795535435
 30
0.0
 10
170.1288197353027
 20
283.7367152262173
 30
0.0
  0
SPLINE
  5
65
330
1F
100
AcDbEntity
  8
0
  6
Continuous
 62
     7
370
    15
100
AcDbSpline
210
0.0
220
0.0
230
1.0
 70
     8
 71
     3
 72
     8
 73
     4
 74
     0
 42
0.00000001
 43
0.00000001
 12
1.0
 22
0.0
 32
0.0
 13
1.0
 23
0.0
 33
0.0
 40
0.0
 40
0.0
 40
0.0
 40
0.0
 40
1.0
 40
1.0
 40
1.0
 40
1.0
 10
186.4685607535912
 20
283.7367152262173
 30
0.0
 10
186.0512624761235
 20
284.2325813311153
 30
0.0
 10
185.6524384045374
 20
284.7296465567609
 30
0.0
 10
185.268201544748
 20
285.2274212368728
 30
0.0
  0
LINE
  5
66
330
1F
100
AcDbEntity
  8
0
  6
Continuous
 62
     7
370
    15
100
AcDbLine
 10
186.4685606184
 20
283.7367165514
 30
0.0
 11
170.1288189712
 21
283.7367165514
 31
0.0
  0
SPLINE
  5
67
330
1F
100
AcDbEntity
  8
0
  6
Continuous
 62
     7
370
    15
100
AcDbSpline
210
0.0
220
0.0
230
1.0
 70
     8
 71
     3
 72
     8
 73
     4
 74
     0
 42
0.00000001
 43
0.00000001
 12
1.0
 22
0.0
 32
0.0
 13
1.0
 23
0.0
 33
0.0
 40
0.0
 40
0.0
 40
0.0
 40
0.0
 40
1.0
 40
1.0
 40
1.0
 40
1.0
 10
213.0768301448917
 20
283.7367152262173
 30
0.0
 10
213.4941284223594
 20
284.2325813311153
 30
0.0
 10
213.8929524939456
 20
284.7296465567609
 30
0.0
 10
214.277189353735
 20
285.2274212368728
 30
0.0
  0
SPLINE
  5
68
330
1F
100
AcDbEntity
  8
0
  6
Continuous
 62
     7
370
    15
100
AcDbSpline
210
0.0
220
0.0
230
1.0
 70
     8
 71
     3
 72
    12
 73
     8
 74
     0
 42
0.00000001
 43
0.00000001
 12
1.0
 22
0.0
 32
0.0
 13
1.0
 23
0.0
 33
0.0
 40
0.0
 40
0.0
 40
0.0
 40
0.0
 40
0.4999999999999984
 40
0.4999999999999984
 40
0.7499999999999992
 40
0.7499999999999992
 40
1.0
 40
1.0
 40
1.0
 40
1.0
 10
234.4074439555725
 20
285.2274212368728
 30
0.0
 10
233.479693161025
 20
284.9714753580228
 30
0.0
 10
232.5983807168163
 20
284.7182693585042
 30
0.0
 10
231.343556289858
 20
284.3428850891712
 30
0.0
 10
230.9357629034409
 20
284.2182689862378
 30
0.0
 10
230.1471710804186
 20
283.9721669631534
 30
0.0
 10
229.7724128131234
 20
283.8525795535435
 30
0.0
 10
229.4165711631803
 20
283.7367152262173
 30
0.0
  0
LINE
  5
69
330
1F
100
AcDbEntity
  8
0
  6
Continuous
 62
     7
370
    15
100
AcDbLine
 10
213.0768302801
 20
283.7367165514
 30
0.0
 11
229.4165719273
 21
283.7367165514
 31
0.0
  0
LINE
  5
6A
330
1F
100
AcDbEntity
  8
0
  6
Continuous
 62
     7
370
    15
100
AcDbLine
 10
186.4685606184
 20
283.7367165514
 30
0.0
 11
213.0768302801
 21
283.7367165514
 31
0.0
  0
SPLINE
  5
6B
330
1F
100
AcDbEntity
  8
0
  6
Continuous
 62
     7
370
    15
100
AcDbSpline
210
0.0
220
0.0
230
1.0
 70
     8
 71
     3
 72
    14
 73
    10
 74
     0
 42
0.00000001
 43
0.00000001
 12
1.0
 22
0.0
 32
0.0
 13
1.0
 23
0.0
 33
0.0
 40
0.0
 40
0.0
 40
0.0
 40
0.0
 40
0.25
 40
0.25
 40
0.5
 40
0.5
 40
0.75
 40
0.75
 40
1.0
 40
1.0
 40
1.0
 40
1.0
 10
171.3147754525533
 20
308.573066444992
 30
0.0
 10
171.3821051931791
 20
309.4084988624136
 30
0.0
 10
171.5194042367681
 20
310.2259964514396
 30
0.0
 10
171.9273979429761
 20
311.8267990988431
 30
0.0
 10
172.1981147741502
 20
312.6100984748826
 30
0.0
 10
172.8771543436543
 20
314.1414254974096
 30
0.0
 10
173.2768604578632
 20
314.8696421580674
 30
0.0
 10
174.1873145732155
 20
316.2504690259829
 30
0.0
 10
174.6985011835338
 20
316.9039232168968
 30
0.0
 10
175.2662567711836
 20
317.5200156619923
 30
0.0
  0
LINE
  5
6C
330
1F
100
AcDbEntity
  8
0
  6
Continuous
 62
     7
370
    15
100
AcDbLine
 10
224.2791339728
 20
317.5200145372
 30
0.0
 11
175.2662569257
 21
317.5200145372
 31
0.0
  0
SPLINE
  5
6D
330
1F
100
AcDbEntity
  8
0
  6
Continuous
 62
     7
370
    15
100
AcDbSpline
210
0.0
220
0.0
230
1.0
 70
     8
 71
     3
 72
    14
 73
    10
 74
     0
 42
0.00000001
 43
0.00000001
 12
1.0
 22
0.0
 32
0.0
 13
1.0
 23
0.0
 33
0.0
 40
0.0
 40
0.0
 40
0.0
 40
0.0
 40
0.25
 40
0.25
 40
0.5
 40
0.5
 40
0.75
 40
0.75
 40
1.0
 40
1.0
 40
1.0
 40
1.0
 10
224.2791341272994
 20
317.5200156619923
 30
0.0
 10
224.8468750131135
 20
316.9039391703986
 30
0.0
 10
225.3578200156383
 20
316.2507525861444
 30
0.0
 10
226.2676142548844
 20
314.871136710332
 30
0.0
 10
226.6665112924621
 20
314.1447386515695
 30
0.0
 10
227.3456247186302
 20
312.6143973031955
 30
0.0
 10
227.6175017632899
 20
311.8284873038546
 30
0.0
 10
228.0259574530065
 20
310.2263497852426
 30
0.0
 10
228.1632862744598
 20
309.4084918002845
 30
0.0
 10
228.2306154459296
 20
308.573066444992
 30
0.0
  0
ARC
  5
6E
330
1F
100
AcDbEntity
  8
0
  6
Continuous
 62
     7
370
    15
100
AcDbCircle
 10
204.430835076
 20
271.9467293795
 30
0.0
 40
0.0900000000000129
100
AcDbArc
 50
32.5
 51
157.5
  0
LINE
  5
6F
330
1F
100
AcDbEntity
  8
0
  6
Continuous
 62
     7
370
    15
100
AcDbLine
 10
204.3476858149
 20
271.9811718591
 30
0.0
 11
203.1934290631
 21
269.1945466825
 31
0.0
  0
LINE
  5
70
330
1F
100
AcDbEntity
  8
0
  6
Continuous
 62
     7
370
    15
100
AcDbLine
 10
203.1102798852
 20
269.1389914283
 30
0.0
 11
201.5732829665
 21
269.1389914283
 31
0.0
  0
ARC
  5
71
330
1F
100
AcDbEntity
  8
0
  6
Continuous
 62
     7
370
    15
100
AcDbCircle
 10
201.5732829498
 20
269.2289897689
 30
0.0
 40
0.0900000000000129
100
AcDbArc
 50
157.5
 51
270.0
  0
LINE
  5
72
330
1F
100
AcDbEntity
  8
0
  6
Continuous
 62
     7
370
    15
100
AcDbLine
 10
201.4901337885
 20
269.2634310254
 30
0.0
 11
203.83458249
 21
274.9234322139
 31
0.0
  0
ARC
  5
73
330
1F
100
AcDbEntity
  8
0
  6
Continuous
 62
     7
370
    15
100
AcDbCircle
 10
203.9177317128
 20
274.8889897689
 30
0.0
 40
0.0900000000000318
100
AcDbArc
 50
90.0
 51
157.5
  0
LINE
  5
74
330
1F
100
AcDbEntity
  8
0
  6
Continuous
 62
     7
370
    15
100
AcDbLine
 10
203.9177319008
 20
274.9789911934
 30
0.0
 11
205.4547284702
 21
274.9789911934
 31
0.0
  0
ARC
  5
75
330
1F
100
AcDbEntity
  8
0
  6
Continuous
 62
     7
370
    15
100
AcDbCircle
 10
205.4547286372
 20
274.8889897689
 30
0.0
 40
0.0900000000000318
100
AcDbArc
 50
337.5
 51
90.0
  0
ARC
  5
76
330
1F
100
AcDbEntity
  8
0
  6
Continuous
 62
     7
370
    15
100
AcDbCircle
 10
204.9026954492
 20
274.8115897689
 30
0.0
 40
1.979999999999996
100
AcDbArc
 50
267.9514771269
 51
2.1428634539
  0
ARC
  5
77
330
1F
100
AcDbEntity
  8
0
  6
Continuous
 62
     7
370
    15
100
AcDbCircle
 10
206.9712478996
 20
274.8889897689
 30
0.0
 40
0.0900000000000318
100
AcDbArc
 50
90.0
 51
182.1428634539
  0
LINE
  5
78
330
1F
100
AcDbEntity
  8
0
  6
Continuous
 62
     7
370
    15
100
AcDbLine
 10
206.9712480503
 20
274.9789911934
 30
0.0
 11
208.6826957735
 21
274.9789911934
 31
0.0
  0
ARC
  5
79
330
1F
100
AcDbEntity
  8
0
  6
Continuous
 62
     7
370
    15
100
AcDbCircle
 10
208.6826954492
 20
274.8889897689
 30
0.0
 40
0.0900000000000318
100
AcDbArc
 50
0.0
 51
90.0
  0
LINE
  5
7A
330
1F
100
AcDbEntity
  8
0
  6
Continuous
 62
     7
370
    15
100
AcDbLine
 10
208.7726950618
 20
274.8889881798
 30
0.0
 11
208.7726950618
 21
273.4689894744
 31
0.0
  0
ARC
  5
7B
330
1F
100
AcDbEntity
  8
0
  6
Continuous
 62
     7
370
    15
100
AcDbCircle
 10
208.6826954492
 20
273.4689897689
 30
0.0
 40
0.089999999999975
100
AcDbArc
 50
270.0
 51
0.0
  0
LINE
  5
7C
330
1F
100
AcDbEntity
  8
0
  6
Continuous
 62
     7
370
    15
100
AcDbLine
 10
208.6826957735
 20
273.3789901861
 30
0.0
 11
208.2639135393
 21
273.3789901861
 31
0.0
  0
ARC
  5
7D
330
1F
100
AcDbEntity
  8
0
  6
Continuous
 62
     7
370
    15
100
AcDbCircle
 10
208.2639138652
 20
273.2889897689
 30
0.0
 40
0.089999999999975
100
AcDbArc
 50
90.0
 51
155.6299254055
  0
ARC
  5
7E
330
1F
100
AcDbEntity
  8
0
  6
Continuous
 62
     7
370
    15
100
AcDbCircle
 10
204.9026954492
 20
274.8115897689
 30
0.0
 40
3.599999999999999
100
AcDbArc
 50
298.1331998573
 51
335.6299254055
  0
ARC
  5
7F
330
1F
100
AcDbEntity
  8
0
  6
Continuous
 62
     7
370
    15
100
AcDbCircle
 10
206.6426151263
 20
271.5575492779
 30
0.0
 40
0.0899999999999953
100
AcDbArc
 50
118.1331998573
 51
212.5
  0
LINE
  5
80
330
1F
100
AcDbEntity
  8
0
  6
Continuous
 62
     7
370
    15
100
AcDbLine
 10
206.5667099292
 20
271.5091924795
 30
0.0
 11
207.9885521876
 21
269.2773449847
 31
0.0
  0
ARC
  5
81
330
1F
100
AcDbEntity
  8
0
  6
Continuous
 62
     7
370
    15
100
AcDbCircle
 10
207.9126471115
 20
269.2289897689
 30
0.0
 40
0.0900000000000433
100
AcDbArc
 50
270.0
 51
32.5
  0
LINE
  5
82
330
1F
100
AcDbEntity
  8
0
  6
Continuous
 62
     7
370
    15
100
AcDbLine
 10
207.9126475352
 20
269.1389914283
 30
0.0
 11
206.3756500343
 21
269.1389914283
 31
0.0
  0
ARC
  5
83
330
1F
100
AcDbEntity
  8
0
  6
Continuous
 62
     7
370
    15
100
AcDbCircle
 10
206.3756501871
 20
269.2289897689
 30
0.0
 40
0.0900000000000193
100
AcDbArc
 50
212.5
 51
270.0
  0
ARC
  5
84
330
1F
100
AcDbEntity
  8
0
  6
Continuous
 62
     7
370
    15
100
AcDbCircle
 10
204.8351357888
 20
272.9227976437
 30
0.0
 40
0.0900000000000373
100
AcDbArc
 50
157.5
 51
267.9514771269
  0
LINE
  5
85
330
1F
100
AcDbEntity
  8
0
  6
Continuous
 62
     7
370
    15
100
AcDbLine
 10
205.537877881
 20
274.854547871
 30
0.0
 11
204.7519864487
 21
272.9572388955
 31
0.0
  0
ARC
  5
86
330
1F
100
AcDbEntity
  8
0
  6
Continuous
 62
     7
370
    15
100
AcDbCircle
 10
203.1102798742
 20
269.2289897689
 30
0.0
 40
0.0900000000000392
100
AcDbArc
 50
270.0
 51
337.5
  0
LINE
  5
87
330
1F
100
AcDbEntity
  8
0
  6
Continuous
 62
     7
370
    15
100
AcDbLine
 10
206.2997449162
 20
269.1806327232
 30
0.0
 11
204.5067403438
 21
271.9950858184
 31
0.0
  0
ARC
  5
88
330
1F
100
AcDbEntity
  8
0
  6
Continuous
 62
     7
370
    15
100
AcDbCircle
 10
199.5296954492
 20
272.0824483798
 30
0.0
 40
0.0899999999999957
100
AcDbArc
 50
202.5
 51
337.5000000001
  0
ARC
  5
89
330
1F
100
AcDbEntity
  8
0
  6
Continuous
 62
     7
370
    15
100
AcDbCircle
 10
202.0468315267
 20
277.6889897689
 30
0.0
 40
0.0900000000000129
100
AcDbArc
 50
90.0
 51
157.5
  0
LINE
  5
8A
330
1F
100
AcDbEntity
  8
0
  6
Continuous
 62
     7
370
    15
100
AcDbLine
 10
202.0468315082
 20
277.7789901623
 30
0.0
 11
208.6826957735
 21
277.7789901623
 31
0.0
  0
ARC
  5
8B
330
1F
100
AcDbEntity
  8
0
  6
Continuous
 62
     7
370
    15
100
AcDbCircle
 10
208.6826954492
 20
277.6889897689
 30
0.0
 40
0.0900000000000034
100
AcDbArc
 50
0.0
 51
90.0
  0
LINE
  5
8C
330
1F
100
AcDbEntity
  8
0
  6
Continuous
 62
     7
370
    15
100
AcDbLine
 10
208.7726950618
 20
277.6889908739
 30
0.0
 11
208.7726950618
 21
276.2689884433
 31
0.0
  0
ARC
  5
8D
330
1F
100
AcDbEntity
  8
0
  6
Continuous
 62
     7
370
    15
100
AcDbCircle
 10
208.6826954492
 20
276.2689897689
 30
0.0
 40
0.0900000000000318
100
AcDbArc
 50
270.0
 51
0.0
  0
LINE
  5
8E
330
1F
100
AcDbEntity
  8
0
  6
Continuous
 62
     7
370
    15
100
AcDbLine
 10
208.6826957735
 20
276.1789891549
 30
0.0
 11
203.1159174136
 21
276.1789891549
 31
0.0
  0
ARC
  5
8F
330
1F
100
AcDbEntity
  8
0
  6
Continuous
 62
     7
370
    15
100
AcDbCircle
 10
203.1159173473
 20
276.0889897689
 30
0.0
 40
0.089999999999975
100
AcDbArc
 50
90.0
 51
157.5
  0
LINE
  5
90
330
1F
100
AcDbEntity
  8
0
  6
Continuous
 62
     7
370
    15
100
AcDbLine
 10
203.0327682356
 20
276.1234301754
 30
0.0
 11
200.1627308697
 21
269.1945466825
 31
0.0
  0
ARC
  5
91
330
1F
100
AcDbEntity
  8
0
  6
Continuous
 62
     7
370
    15
100
AcDbCircle
 10
200.0795817134
 20
269.2289897689
 30
0.0
 40
0.0900000000000129
100
AcDbArc
 50
270.0
 51
337.5
  0
LINE
  5
92
330
1F
100
AcDbEntity
  8
0
  6
Continuous
 62
     7
370
    15
100
AcDbLine
 10
200.0795817208
 20
269.1389914283
 30
0.0
 11
198.9798092023
 21
269.1389914283
 31
0.0
  0
ARC
  5
93
330
1F
100
AcDbEntity
  8
0
  6
Continuous
 62
     7
370
    15
100
AcDbCircle
 10
198.9798091851
 20
269.2289897689
 30
0.0
 40
0.0900000000000129
100
AcDbArc
 50
202.5
 51
270.0
  0
LINE
  5
94
330
1F
100
AcDbEntity
  8
0
  6
Continuous
 62
     7
370
    15
100
AcDbLine
 10
198.8966600244
 20
269.1945466825
 30
0.0
 11
196.0266226875
 21
276.1234301754
 31
0.0
  0
ARC
  5
95
330
1F
100
AcDbEntity
  8
0
  6
Continuous
 62
     7
370
    15
100
AcDbCircle
 10
195.9434735512
 20
276.0889897689
 30
0.0
 40
0.089999999999975
100
AcDbArc
 50
22.5
 51
90.0
  0
LINE
  5
96
330
1F
100
AcDbEntity
  8
0
  6
Continuous
 62
     7
370
    15
100
AcDbLine
 10
195.9434735096
 20
276.1789891549
 30
0.0
 11
190.862695125
 21
276.1789891549
 31
0.0
  0
ARC
  5
97
330
1F
100
AcDbEntity
  8
0
  6
Continuous
 62
     7
370
    15
100
AcDbCircle
 10
190.8626954492
 20
276.2689897689
 30
0.0
 40
0.0900000000000318
100
AcDbArc
 50
180.0
 51
270.0
  0
LINE
  5
98
330
1F
100
AcDbEntity
  8
0
  6
Continuous
 62
     7
370
    15
100
AcDbLine
 10
190.7726958367
 20
276.2689884433
 30
0.0
 11
190.7726958367
 21
277.6889908739
 31
0.0
  0
ARC
  5
99
330
1F
100
AcDbEntity
  8
0
  6
Continuous
 62
     7
370
    15
100
AcDbCircle
 10
190.8626954492
 20
277.6889897689
 30
0.0
 40
0.0900000000000034
100
AcDbArc
 50
90.0
 51
180.0
  0
LINE
  5
9A
330
1F
100
AcDbEntity
  8
0
  6
Continuous
 62
     7
370
    15
100
AcDbLine
 10
190.862695125
 20
277.7789901623
 30
0.0
 11
197.0125594149
 21
277.7789901623
 31
0.0
  0
ARC
  5
9B
330
1F
100
AcDbEntity
  8
0
  6
Continuous
 62
     7
370
    15
100
AcDbCircle
 10
197.0125593718
 20
277.6889897689
 30
0.0
 40
0.0899999999999867
100
AcDbArc
 50
22.5
 51
90.0
  0
LINE
  5
9C
330
1F
100
AcDbEntity
  8
0
  6
Continuous
 62
     7
370
    15
100
AcDbLine
 10
199.6128446104
 20
272.0480072924
 30
0.0
 11
201.9636823303
 21
277.7234311827
 31
0.0
  0
LINE
  5
9D
330
1F
100
AcDbEntity
  8
0
  6
Continuous
 62
     7
370
    15
100
AcDbLine
 10
197.0957085929
 20
277.7234311827
 30
0.0
 11
199.4465462836
 21
272.0480072924
 31
0.0
  0
LINE
  5
9E
330
1F
100
AcDbEntity
  8
0
  6
Continuous
 62
     7
370
    15
100
AcDbLine
 10
193.3413077118
 20
271.8834314176
 30
0.0
 11
193.9635997611
 21
273.385777665
 31
0.0
  0
LINE
  5
9F
330
1F
100
AcDbEntity
  8
0
  6
Continuous
 62
     7
370
    15
100
AcDbLine
 10
192.7034188035
 20
270.3434299358
 30
0.0
 11
192.2275362509
 21
269.1945466825
 31
0.0
  0
ARC
  5
A0
330
1F
100
AcDbEntity
  8
0
  6
Continuous
 62
     7
370
    15
100
AcDbCircle
 10
192.1443868923
 20
269.2289897689
 30
0.0
 40
0.0899999999999867
100
AcDbArc
 50
270.0
 51
337.5
  0
ARC
  5
A1
330
1F
100
AcDbEntity
  8
0
  6
Continuous
 62
     7
370
    15
100
AcDbCircle
 10
192.0942664351
 20
273.2889897689
 30
0.0
 40
0.0900000000000392
100
AcDbArc
 50
337.5
 51
90.0
  0
LINE
  5
A2
330
1F
100
AcDbEntity
  8
0
  6
Continuous
 62
     7
370
    15
100
AcDbLine
 10
192.0942663188
 20
273.3789901861
 30
0.0
 11
190.862695125
 21
273.3789901861
 31
0.0
  0
LINE
  5
A3
330
1F
100
AcDbEntity
  8
0
  6
Continuous
 62
     7
370
    15
100
AcDbLine
 10
194.6690407554
 20
271.7589880952
 30
0.0
 11
193.4244571226
 21
271.7589880952
 31
0.0
  0
ARC
  5
A4
330
1F
100
AcDbEntity
  8
0
  6
Continuous
 62
     7
370
    15
100
AcDbCircle
 10
193.4244570218
 20
271.8489897689
 30
0.0
 40
0.0899999999999912
100
AcDbArc
 50
157.5
 51
270.0
  0
ARC
  5
A5
330
1F
100
AcDbEntity
  8
0
  6
Continuous
 62
     7
370
    15
100
AcDbCircle
 10
194.0467489583
 20
273.3513354018
 30
0.0
 40
0.0899999999999912
100
AcDbArc
 50
22.5
 51
157.5
  0
LINE
  5
A6
330
1F
100
AcDbEntity
  8
0
  6
Continuous
 62
     7
370
    15
100
AcDbLine
 10
194.129898117
 20
273.385777665
 30
0.0
 11
194.7521901662
 21
271.8834314176
 31
0.0
  0
ARC
  5
A7
330
1F
100
AcDbEntity
  8
0
  6
Continuous
 62
     7
370
    15
100
AcDbCircle
 10
194.6690408948
 20
271.8489897689
 30
0.0
 40
0.0900000000000129
100
AcDbArc
 50
270.0
 51
22.5
  0
LINE
  5
A8
330
1F
100
AcDbEntity
  8
0
  6
Continuous
 62
     7
370
    15
100
AcDbLine
 10
195.2248084332
 20
274.9234322139
 30
0.0
 11
197.5692570182
 21
269.2634310254
 31
0.0
  0
ARC
  5
A9
330
1F
100
AcDbEntity
  8
0
  6
Continuous
 62
     7
370
    15
100
AcDbCircle
 10
197.4861079487
 20
269.2289897689
 30
0.0
 40
0.0900000000000129
100
AcDbArc
 50
270.0
 51
22.5
  0
LINE
  5
AA
330
1F
100
AcDbEntity
  8
0
  6
Continuous
 62
     7
370
    15
100
AcDbLine
 10
197.4861078403
 20
269.1389914283
 30
0.0
 11
195.9491110379
 21
269.1389914283
 31
0.0
  0
ARC
  5
AB
330
1F
100
AcDbEntity
  8
0
  6
Continuous
 62
     7
370
    15
100
AcDbCircle
 10
195.9491110243
 20
269.2289897689
 30
0.0
 40
0.0899999999999912
100
AcDbArc
 50
202.5
 51
270.0
  0
LINE
  5
AC
330
1F
100
AcDbEntity
  8
0
  6
Continuous
 62
     7
370
    15
100
AcDbLine
 10
195.8659620928
 20
269.1945466825
 30
0.0
 11
195.3900790746
 21
270.3434299358
 31
0.0
  0
ARC
  5
AD
330
1F
100
AcDbEntity
  8
0
  6
Continuous
 62
     7
370
    15
100
AcDbCircle
 10
195.3069297809
 20
270.3089897689
 30
0.0
 40
0.0900000000000129
100
AcDbArc
 50
22.5
 51
90.0
  0
LINE
  5
AE
330
1F
100
AcDbEntity
  8
0
  6
Continuous
 62
     7
370
    15
100
AcDbLine
 10
195.3069296638
 20
270.3989889153
 30
0.0
 11
192.7865682142
 21
270.3989889153
 31
0.0
  0
ARC
  5
AF
330
1F
100
AcDbEntity
  8
0
  6
Continuous
 62
     7
370
    15
100
AcDbCircle
 10
192.7865681357
 20
270.3089897689
 30
0.0
 40
0.0899999999999867
100
AcDbArc
 50
90.0
 51
157.5
  0
LINE
  5
B0
330
1F
100
AcDbEntity
  8
0
  6
Continuous
 62
     7
370
    15
100
AcDbLine
 10
192.1443868401
 20
269.1389914283
 30
0.0
 11
190.607389805
 21
269.1389914283
 31
0.0
  0
ARC
  5
B1
330
1F
100
AcDbEntity
  8
0
  6
Continuous
 62
     7
370
    15
100
AcDbCircle
 10
190.6073899679
 20
269.2289897689
 30
0.0
 40
0.0900000000000129
100
AcDbArc
 50
157.5
 51
270.0
  0
LINE
  5
B2
330
1F
100
AcDbEntity
  8
0
  6
Continuous
 62
     7
370
    15
100
AcDbLine
 10
190.5242403942
 20
269.2634310254
 30
0.0
 11
192.1774157296
 21
273.2545468637
 31
0.0
  0
ARC
  5
B3
330
1F
100
AcDbEntity
  8
0
  6
Continuous
 62
     7
370
    15
100
AcDbCircle
 10
190.8626954492
 20
273.4689897689
 30
0.0
 40
0.0900000000000034
100
AcDbArc
 50
180.0
 51
270.0
  0
LINE
  5
B4
330
1F
100
AcDbEntity
  8
0
  6
Continuous
 62
     7
370
    15
100
AcDbLine
 10
190.7726958367
 20
273.4689894744
 30
0.0
 11
190.7726958367
 21
274.8889881798
 31
0.0
  0
LINE
  5
B5
330
1F
100
AcDbEntity
  8
0
  6
Continuous
 62
     7
370
    15
100
AcDbLine
 10
190.862695125
 20
274.9789911934
 30
0.0
 11
195.1416590224
 21
274.9789911934
 31
0.0
  0
ARC
  5
B6
330
1F
100
AcDbEntity
  8
0
  6
Continuous
 62
     7
370
    15
100
AcDbCircle
 10
190.8626954492
 20
274.8889897689
 30
0.0
 40
0.0900000000000318
100
AcDbArc
 50
90.0
 51
180.0
  0
ARC
  5
B7
330
1F
100
AcDbEntity
  8
0
  6
Continuous
 62
     7
370
    15
100
AcDbCircle
 10
195.1416591857
 20
274.8889897689
 30
0.0
 40
0.0900000000000318
100
AcDbArc
 50
22.5
 51
90.0
  0
SPLINE
  5
B8
330
1F
100
AcDbEntity
  8
0
  6
Continuous
 62
     7
370
    15
100
AcDbSpline
210
0.0
220
0.0
230
1.0
 70
     8
 71
     3
 72
    14
 73
    10
 74
     0
 42
0.00000001
 43
0.00000001
 12
1.0
 22
0.0
 32
0.0
 13
1.0
 23
0.0
 33
0.0
 40
0.0
 40
0.0
 40
0.0
 40
0.0
 40
0.5000000000000001
 40
0.5000000000000001
 40
0.75
 40
0.75
 40
0.8750000000000001
 40
0.8750000000000001
 40
1.0
 40
1.0
 40
1.0
 40
1.0
 10
163.7145830665188
 20
228.2274212368728
 30
0.0
 10
164.7557574977865
 20
230.0307882513702
 30
0.0
 10
165.6404840211104
 20
231.8749687551751
 30
0.0
 10
166.5864196478867
 20
234.7406734462096
 30
0.0
 10
166.8375316131383
 20
235.7126565528243
 30
0.0
 10
167.0954388449245
 20
237.2016130218355
 30
0.0
 10
167.1615966714536
 20
237.7031001227701
 30
0.0
 10
167.2505479064861
 20
238.7173870563637
 30
0.0
 10
167.2726954492415
 20
239.2238162511516
 30
0.0
 10
167.2726954492415
 20
239.7274212368727
 30
0.0
  0
LINE
  5
B9
330
1F
100
AcDbEntity
  8
0
  6
Continuous
 62
     7
370
    15
100
AcDbLine
 10
167.2726966413
 20
239.7274212592
 30
0.0
 11
167.2726966413
 21
216.7274212145
 31
0.0
  0
SPLINE
  5
BA
330
1F
100
AcDbEntity
  8
0
  6
Continuous
 62
     7
370
    15
100
AcDbSpline
210
0.0
220
0.0
230
1.0
 70
     8
 71
     3
 72
    12
 73
     8
 74
     0
 42
0.00000001
 43
0.00000001
 12
1.0
 22
0.0
 32
0.0
 13
1.0
 23
0.0
 33
0.0
 40
0.0
 40
0.0
 40
0.0
 40
0.0
 40
0.5000000000000002
 40
0.5000000000000002
 40
0.7500000000000001
 40
0.7500000000000001
 40
1.0
 40
1.0
 40
1.0
 40
1.0
 10
167.2726954492415
 20
216.7274212368729
 30
0.0
 10
167.2726954492414
 20
218.7277323237817
 30
0.0
 10
166.9195229001479
 20
220.6940299339706
 30
0.0
 10
165.9648516981755
 20
223.6025537256655
 30
0.0
 10
165.5816269605029
 20
224.5512870443485
 30
0.0
 10
164.7166175699493
 20
226.4130325374588
 30
0.0
 10
164.2345673590443
 20
227.3267820230809
 30
0.0
 10
163.7145830665188
 20
228.2274212368728
 30
0.0
  0
LINE
  5
BB
330
1F
100
AcDbEntity
  8
0
  6
Continuous
 62
     7
370
    15
100
AcDbLine
 10
142.2726944062
 20
228.2274212369
 30
0.0
 11
142.2726944062
 21
251.2274212816
 31
0.0
  0
LINE
  5
BC
330
1F
100
AcDbEntity
  8
0
  6
Continuous
 62
     7
370
    15
100
AcDbLine
 10
163.7145824703
 20
251.2274212816
 30
0.0
 11
142.2726944062
 21
251.2274212816
 31
0.0
  0
SPLINE
  5
BD
330
1F
100
AcDbEntity
  8
0
  6
Continuous
 62
     7
370
    15
100
AcDbSpline
210
0.0
220
0.0
230
1.0
 70
     8
 71
     3
 72
    12
 73
     8
 74
     0
 42
0.00000001
 43
0.00000001
 12
1.0
 22
0.0
 32
0.0
 13
1.0
 23
0.0
 33
0.0
 40
0.0
 40
0.0
 40
0.0
 40
0.0
 40
0.5000000000000004
 40
0.5000000000000004
 40
0.7500000000000002
 40
0.7500000000000002
 40
1.0
 40
1.0
 40
1.0
 40
1.0
 10
167.2726954492415
 20
239.7274212368727
 30
0.0
 10
167.2726954492414
 20
241.7277323237816
 30
0.0
 10
166.9195229001479
 20
243.6940299339705
 30
0.0
 10
165.9648516981754
 20
246.6025537256654
 30
0.0
 10
165.5816269605029
 20
247.5512870443485
 30
0.0
 10
164.7166175699492
 20
249.4130325374588
 30
0.0
 10
164.2345673590442
 20
250.3267820230809
 30
0.0
 10
163.7145830665187
 20
251.2274212368728
 30
0.0
  0
LINE
  5
BE
330
1F
100
AcDbEntity
  8
0
  6
Continuous
 62
     7
370
    15
100
AcDbLine
 10
163.7145824703
 20
228.2274212369
 30
0.0
 11
142.2726944062
 21
228.2274212369
 31
0.0
  0
LINE
  5
BF
330
1F
100
AcDbEntity
  8
0
  6
Continuous
 62
     7
370
    15
100
AcDbLine
 10
232.2726942571
 20
239.7274212592
 30
0.0
 11
232.2726942571
 21
216.7274212145
 31
0.0
  0
SPLINE
  5
C0
330
1F
100
AcDbEntity
  8
0
  6
Continuous
 62
     7
370
    15
100
AcDbSpline
210
0.0
220
0.0
230
1.0
 70
     8
 71
     3
 72
    14
 73
    10
 74
     0
 42
0.00000001
 43
0.00000001
 12
1.0
 22
0.0
 32
0.0
 13
1.0
 23
0.0
 33
0.0
 40
0.0
 40
0.0
 40
0.0
 40
0.0
 40
0.5000000000000001
 40
0.5000000000000001
 40
0.75
 40
0.75
 40
0.8750000000000001
 40
0.8750000000000001
 40
1.0
 40
1.0
 40
1.0
 40
1.0
 10
235.8308078319642
 20
228.2274212368728
 30
0.0
 10
234.7896334006965
 20
230.0307882513702
 30
0.0
 10
233.9049068773726
 20
231.8749687551751
 30
0.0
 10
232.9589712505962
 20
234.7406734462096
 30
0.0
 10
232.7078592853446
 20
235.7126565528243
 30
0.0
 10
232.4499520535585
 20
237.2016130218355
 30
0.0
 10
232.3837942270294
 20
237.7031001227701
 30
0.0
 10
232.2948429919968
 20
238.7173870563637
 30
0.0
 10
232.2726954492415
 20
239.2238162511516
 30
0.0
 10
232.2726954492415
 20
239.7274212368727
 30
0.0
  0
SPLINE
  5
C1
330
1F
100
AcDbEntity
  8
0
  6
Continuous
 62
     7
370
    15
100
AcDbSpline
210
0.0
220
0.0
230
1.0
 70
     8
 71
     3
 72
    12
 73
     8
 74
     0
 42
0.00000001
 43
0.00000001
 12
1.0
 22
0.0
 32
0.0
 13
1.0
 23
0.0
 33
0.0
 40
0.0
 40
0.0
 40
0.0
 40
0.0
 40
0.5000000000000002
 40
0.5000000000000002
 40
0.7500000000000001
 40
0.7500000000000001
 40
1.0
 40
1.0
 40
1.0
 40
1.0
 10
232.2726954492415
 20
216.7274212368729
 30
0.0
 10
232.2726954492415
 20
218.7277323237817
 30
0.0
 10
232.6258679983351
 20
220.6940299339706
 30
0.0
 10
233.5805392003075
 20
223.6025537256655
 30
0.0
 10
233.96376393798
 20
224.5512870443485
 30
0.0
 10
234.8287733285337
 20
226.4130325374588
 30
0.0
 10
235.3108235394387
 20
227.3267820230809
 30
0.0
 10
235.8308078319641
 20
228.2274212368728
 30
0.0
  0
SPLINE
  5
C2
330
1F
100
AcDbEntity
  8
0
  6
Continuous
 62
     7
370
    15
100
AcDbSpline
210
0.0
220
0.0
230
1.0
 70
     8
 71
     3
 72
    12
 73
     8
 74
     0
 42
0.00000001
 43
0.00000001
 12
1.0
 22
0.0
 32
0.0
 13
1.0
 23
0.0
 33
0.0
 40
0.0
 40
0.0
 40
0.0
 40
0.0
 40
0.5000000000000004
 40
0.5000000000000004
 40
0.7500000000000002
 40
0.7500000000000002
 40
1.0
 40
1.0
 40
1.0
 40
1.0
 10
232.2726954492415
 20
239.7274212368727
 30
0.0
 10
232.2726954492415
 20
241.7277323237816
 30
0.0
 10
232.6258679983351
 20
243.6940299339705
 30
0.0
 10
233.5805392003075
 20
246.6025537256654
 30
0.0
 10
233.9637639379801
 20
247.5512870443485
 30
0.0
 10
234.8287733285337
 20
249.4130325374588
 30
0.0
 10
235.3108235394387
 20
250.3267820230809
 30
0.0
 10
235.8308078319642
 20
251.2274212368728
 30
0.0
  0
LINE
  5
C3
330
1F
100
AcDbEntity
  8
0
  6
Continuous
 62
     7
370
    15
100
AcDbLine
 10
235.8308084282
 20
251.2274212816
 30
0.0
 11
257.2726964923
 21
251.2274212816
 31
0.0
  0
LINE
  5
C4
330
1F
100
AcDbEntity
  8
0
  6
Continuous
 62
     7
370
    15
100
AcDbLine
 10
257.2726964923
 20
228.2274212369
 30
0.0
 11
257.2726964923
 21
251.2274212816
 31
0.0
  0
LINE
  5
C5
330
1F
100
AcDbEntity
  8
0
  6
Continuous
 62
     7
370
    15
100
AcDbLine
 10
235.8308084282
 20
228.2274212369
 30
0.0
 11
257.2726964923
 21
228.2274212369
 31
0.0
  0
SPLINE
  5
C6
330
1F
100
AcDbEntity
  8
0
  6
Continuous
 62
     7
370
    15
100
AcDbSpline
210
0.0
220
0.0
230
1.0
 70
     8
 71
     3
 72
    19
 73
    15
 74
     0
 42
0.00000001
 43
0.00000001
 12
1.0
 22
0.0
 32
0.0
 13
1.0
 23
0.0
 33
0.0
 40
0.0
 40
0.0
 40
0.0
 40
0.0
 40
0.0560467050173549
 40
0.1164167170013401
 40
0.181134576393425
 40
0.2501961894553551
 40
0.3576664284704786
 40
0.500052977966831
 40
0.6526031870672198
 40
0.7499927380657949
 40
0.8251347586365282
 40
0.8917565428016816
 40
0.9499687355928256
 40
1.0
 40
1.0
 40
1.0
 40
1.0
 10
179.1972252477825
 20
238.2285623926747
 30
0.0
 10
179.2886924343155
 20
238.2710225465933
 30
0.0
 10
179.4786823644322
 20
238.3592181277795
 30
0.0
 10
179.7706926246622
 20
238.5026544028816
 30
0.0
 10
180.0808893502855
 20
238.6610507548981
 30
0.0
 10
180.462327486436
 20
238.8643021669686
 30
0.0
 10
180.9598396400535
 20
239.1424804123474
 30
0.0
 10
181.5752281730699
 20
239.512073271342
 30
0.0
 10
182.1569255174747
 20
239.8972224093805
 30
0.0
 10
182.6216439746983
 20
240.2347479366287
 30
0.0
 10
182.949112997059
 20
240.499843282393
 30
0.0
 10
183.2088661519105
 20
240.7347282110703
 30
0.0
 10
183.4237033590941
 20
240.9507901461926
 30
0.0
 10
183.5412632970855
 20
241.0957150087754
 30
0.0
 10
183.5956007369048
 20
241.1627008045614
 30
0.0
  0
SPLINE
  5
C7
330
1F
100
AcDbEntity
  8
0
  6
Continuous
 62
     7
370
    15
100
AcDbSpline
210
0.0
220
0.0
230
1.0
 70
     8
 71
     3
 72
    15
 73
    11
 74
     0
 42
0.00000001
 43
0.00000001
 12
1.0
 22
0.0
 32
0.0
 13
1.0
 23
0.0
 33
0.0
 40
0.0
 40
0.0
 40
0.0
 40
0.0
 40
0.1375582424672801
 40
0.2696514436132951
 40
0.3971169116827962
 40
0.5208826086279192
 40
0.6419589087305871
 40
0.7614224003705206
 40
0.8803920692184858
 40
1.0
 40
1.0
 40
1.0
 40
1.0
 10
174.1833830809499
 20
233.6169791797821
 30
0.0
 10
174.2031698888308
 20
233.6538578682271
 30
0.0
 10
174.2419573959543
 20
233.72615009441
 30
0.0
 10
174.2893357551923
 20
233.8390582615133
 30
0.0
 10
174.3267096374882
 20
233.9522523059217
 30
0.0
 10
174.3533074942797
 20
234.0661764790861
 30
0.0
 10
174.3692214016845
 20
234.1807300690225
 30
0.0
 10
174.37408292629
 20
234.2959454593147
 30
0.0
 10
174.3688065540133
 20
234.4119279162909
 30
0.0
 10
174.3562894165132
 20
234.4891830526199
 30
0.0
 10
174.3500141043379
 20
234.5279139603535
 30
0.0
  0
ELLIPSE
  5
C8
330
1F
100
AcDbEntity
  8
0
  6
Continuous
 62
     7
370
    15
100
AcDbEllipse
 10
199.7726954492
 20
184.4526919486
 30
0.0
 11
0.0
 21
66.47971453579612
 31
0.0
210
0.0
220
0.0
230
1.0
 40
0.4663076582
 41
0.4435688131157731
 42
0.5490085830300981
  0
SPLINE
  5
C9
330
1F
100
AcDbEntity
  8
0
  6
Continuous
 62
     7
370
    15
100
AcDbSpline
210
0.0
220
0.0
230
1.0
 70
     8
 71
     3
 72
    12
 73
     8
 74
     0
 42
0.00000001
 43
0.00000001
 12
1.0
 22
0.0
 32
0.0
 13
1.0
 23
0.0
 33
0.0
 40
0.0
 40
0.0
 40
0.0
 40
0.0
 40
0.4999999999999993
 40
0.4999999999999993
 40
0.7499999999999997
 40
0.7499999999999997
 40
1.0
 40
1.0
 40
1.0
 40
1.0
 10
173.1011225739877
 20
239.9467889257201
 30
0.0
 10
172.7788785950223
 20
241.2210726653305
 30
0.0
 10
172.4266860325606
 20
242.4338631951499
 30
0.0
 10
171.8790070510657
 20
244.1606799450858
 30
0.0
 10
171.6931832335708
 20
244.7207673161069
 30
0.0
 10
171.3192051778076
 20
245.8080633418095
 30
0.0
 10
171.1304615866308
 20
246.3368445443137
 30
0.0
 10
170.9442683244953
 20
246.8435014157707
 30
0.0
  0
SPLINE
  5
CA
330
1F
100
AcDbEntity
  8
0
  6
Continuous
 62
     7
370
    15
100
AcDbSpline
210
0.0
220
0.0
230
1.0
 70
     8
 71
     3
 72
    18
 73
    14
 74
     0
 42
0.00000001
 43
0.00000001
 12
1.0
 22
0.0
 32
0.0
 13
1.0
 23
0.0
 33
0.0
 40
0.0
 40
0.0
 40
0.0
 40
0.0
 40
0.2500000000000002
 40
0.2500000000000002
 40
0.3750000000000004
 40
0.3750000000000004
 40
0.5000000000000006
 40
0.5000000000000006
 40
0.7500000000000002
 40
0.7500000000000002
 40
0.8750000000000001
 40
0.8750000000000001
 40
1.0
 40
1.0
 40
1.0
 40
1.0
 10
170.9442683244953
 20
246.8435014157707
 30
0.0
 10
170.7423381887636
 20
247.3929804336971
 30
0.0
 10
170.5380149677509
 20
247.8817324706531
 30
0.0
 10
170.2411809557425
 20
248.5372479868122
 30
0.0
 10
170.1438083597021
 20
248.7427015684332
 30
0.0
 10
169.9541458984395
 20
249.1287023358944
 30
0.0
 10
169.8615786073838
 20
249.3097369103325
 30
0.0
 10
169.5982460604598
 20
249.8092971761753
 30
0.0
 10
169.4406739024668
 20
250.0872277298238
 30
0.0
 10
169.2377290587547
 20
250.4324359741944
 30
0.0
 10
169.1756392803117
 20
250.5354783746551
 30
0.0
 10
169.0635896053025
 20
250.718475059312
 30
0.0
 10
169.0137483942524
 20
250.7982304105364
 30
0.0
 10
168.9709097867187
 20
250.866001659337
 30
0.0
  0
LINE
  5
CB
330
1F
100
AcDbEntity
  8
0
  6
Continuous
 62
     7
370
    15
100
AcDbLine
 10
168.9709093394
 20
250.8660010674
 30
0.0
 11
168.9709093394
 21
264.6585698851
 31
0.0
  0
SPLINE
  5
CC
330
1F
100
AcDbEntity
  8
0
  6
Continuous
 62
     7
370
    15
100
AcDbSpline
210
0.0
220
0.0
230
1.0
 70
     8
 71
     3
 72
     8
 73
     4
 74
     0
 42
0.00000001
 43
0.00000001
 12
1.0
 22
0.0
 32
0.0
 13
1.0
 23
0.0
 33
0.0
 40
0.0
 40
0.0
 40
0.0
 40
0.0
 40
1.0
 40
1.0
 40
1.0
 40
1.0
 10
169.8705352249226
 20
264.5798633838975
 30
0.0
 10
169.9535176462346
 20
270.9652350699021
 30
0.0
 10
170.0396125812831
 20
277.350876504709
 30
0.0
 10
170.1288197353027
 20
283.7367152262173
 30
0.0
  0
LINE
  5
CD
330
1F
100
AcDbEntity
  8
0
  6
Continuous
 62
     7
370
    15
100
AcDbLine
 10
186.4685606184
 20
244.4988857635
 30
0.0
 11
186.4685606184
 21
283.7367165514
 31
0.0
  0
SPLINE
  5
CE
330
1F
100
AcDbEntity
  8
0
  6
Continuous
 62
     7
370
    15
100
AcDbSpline
210
0.0
220
0.0
230
1.0
 70
     8
 71
     3
 72
    10
 73
     6
 74
     0
 42
0.00000001
 43
0.00000001
 12
1.0
 22
0.0
 32
0.0
 13
1.0
 23
0.0
 33
0.0
 40
0.0
 40
0.0
 40
0.0
 40
0.0
 40
0.5
 40
0.5
 40
1.0
 40
1.0
 40
1.0
 40
1.0
 10
174.3500141043379
 20
234.5279139603537
 30
0.0
 10
174.1755027035347
 20
235.4561858228342
 30
0.0
 10
173.975267814744
 20
236.3689940986032
 30
0.0
 10
173.5495798233025
 20
238.1738893033191
 30
0.0
 10
173.3243433525811
 20
239.0640831900906
 30
0.0
 10
173.1011225739877
 20
239.9467889257201
 30
0.0
  0
CIRCLE
  5
CF
330
1F
100
AcDbEntity
  8
0
  6
Continuous
 62
     7
370
    15
100
AcDbCircle
 10
183.7726954492
 20
228.2274212369
 30
0.0
 40
3.999999999999972
  0
LINE
  5
D0
330
1F
100
AcDbEntity
  8
0
  6
Continuous
 62
     7
370
    15
100
AcDbLine
 10
186.4685606184
 20
244.4988857635
 30
0.0
 11
186.4685606184
 21
238.8919559919
 31
0.0
  0
LINE
  5
D1
330
1F
100
AcDbEntity
  8
0
  6
Continuous
 62
     7
370
    15
100
AcDbLine
 10
213.0768302801
 20
244.4988857635
 30
0.0
 11
213.0768302801
 21
283.7367165514
 31
0.0
  0
LINE
  5
D2
330
1F
100
AcDbEntity
  8
0
  6
Continuous
 62
     7
370
    15
100
AcDbLine
 10
213.0768302801
 20
244.4988857635
 30
0.0
 11
194.772695561
 21
244.4988857635
 31
0.0
  0
ARC
  5
D3
330
1F
100
AcDbEntity
  8
0
  6
Continuous
 62
     7
370
    15
100
AcDbCircle
 10
183.7726954492
 20
228.2274212369
 30
0.0
 40
11.00000000000005
100
AcDbArc
 50
75.8135174257
 51
0.0
  0
LINE
  5
D4
330
1F
100
AcDbEntity
  8
0
  6
Continuous
 62
     7
370
    15
100
AcDbLine
 10
194.772695561
 20
228.2274212369
 30
0.0
 11
194.772695561
 21
244.4988857635
 31
0.0
  0
ELLIPSE
  5
D5
330
1F
100
AcDbEntity
  8
0
  6
Continuous
 62
     7
370
    15
100
AcDbEllipse
 10
199.7726954492
 20
184.4526919486
 30
0.0
 11
0.0
 21
66.47971453579612
 31
0.0
210
0.0
220
0.0
230
1.0
 40
0.4663076582
 41
5.333319237799845
 42
5.839616494063838
  0
SPLINE
  5
D6
330
1F
100
AcDbEntity
  8
0
  6
Continuous
 62
     7
370
    15
100
AcDbSpline
210
0.0
220
0.0
230
1.0
 70
     8
 71
     3
 72
     8
 73
     4
 74
     0
 42
0.00000001
 43
0.00000001
 12
1.0
 22
0.0
 32
0.0
 13
1.0
 23
0.0
 33
0.0
 40
0.0
 40
0.0
 40
0.0
 40
0.0
 40
1.0
 40
1.0
 40
1.0
 40
1.0
 10
223.6158411997491
 20
220.4089833946699
 30
0.0
 10
224.0793811648692
 20
221.3124649828492
 30
0.0
 10
224.5438646525719
 20
222.2176053212062
 30
0.0
 10
224.9861608110706
 20
223.1300597222946
 30
0.0
  0
SPLINE
  5
D7
330
1F
100
AcDbEntity
  8
0
  6
Continuous
 62
     7
370
    15
100
AcDbSpline
210
0.0
220
0.0
230
1.0
 70
     8
 71
     3
 72
    18
 73
    14
 74
     0
 42
0.00000001
 43
0.00000001
 12
1.0
 22
0.0
 32
0.0
 13
1.0
 23
0.0
 33
0.0
 40
0.0
 40
0.0
 40
0.0
 40
0.0
 40
0.2500000000000002
 40
0.2500000000000002
 40
0.3750000000000004
 40
0.3750000000000004
 40
0.5000000000000006
 40
0.5000000000000006
 40
0.7500000000000002
 40
0.7500000000000002
 40
0.8750000000000001
 40
0.8750000000000001
 40
1.0
 40
1.0
 40
1.0
 40
1.0
 10
228.6011225739877
 20
246.8435014157707
 30
0.0
 10
228.8030527097193
 20
247.3929804336971
 30
0.0
 10
229.007375930732
 20
247.8817324706531
 30
0.0
 10
229.3042099427404
 20
248.5372479868122
 30
0.0
 10
229.4015825387808
 20
248.7427015684332
 30
0.0
 10
229.5912450000434
 20
249.1287023358944
 30
0.0
 10
229.6838122910991
 20
249.3097369103325
 30
0.0
 10
229.9471448380232
 20
249.8092971761753
 30
0.0
 10
230.1047169960162
 20
250.0872277298238
 30
0.0
 10
230.3076618397283
 20
250.4324359741944
 30
0.0
 10
230.3697516181712
 20
250.5354783746551
 30
0.0
 10
230.4818012931805
 20
250.718475059312
 30
0.0
 10
230.5316425042305
 20
250.7982304105364
 30
0.0
 10
230.5744811117642
 20
250.866001659337
 30
0.0
  0
SPLINE
  5
D8
330
1F
100
AcDbEntity
  8
0
  6
Continuous
 62
     7
370
    15
100
AcDbSpline
210
0.0
220
0.0
230
1.0
 70
     8
 71
     3
 72
    12
 73
     8
 74
     0
 42
0.00000001
 43
0.00000001
 12
1.0
 22
0.0
 32
0.0
 13
1.0
 23
0.0
 33
0.0
 40
0.0
 40
0.0
 40
0.0
 40
0.0
 40
0.4999999999999993
 40
0.4999999999999993
 40
0.7499999999999997
 40
0.7499999999999997
 40
1.0
 40
1.0
 40
1.0
 40
1.0
 10
226.4442683244953
 20
239.9467889257201
 30
0.0
 10
226.7665123034606
 20
241.2210726653305
 30
0.0
 10
227.1187048659223
 20
242.4338631951499
 30
0.0
 10
227.6663838474172
 20
244.1606799450858
 30
0.0
 10
227.8522076649121
 20
244.7207673161069
 30
0.0
 10
228.2261857206754
 20
245.8080633418095
 30
0.0
 10
228.4149293118522
 20
246.3368445443137
 30
0.0
 10
228.6011225739877
 20
246.8435014157707
 30
0.0
  0
SPLINE
  5
D9
330
1F
100
AcDbEntity
  8
0
  6
Continuous
 62
     7
370
    15
100
AcDbSpline
210
0.0
220
0.0
230
1.0
 70
     8
 71
     3
 72
    20
 73
    16
 74
     0
 42
0.00000001
 43
0.00000001
 12
1.0
 22
0.0
 32
0.0
 13
1.0
 23
0.0
 33
0.0
 40
0.0
 40
0.0
 40
0.0
 40
0.0
 40
0.125
 40
0.125
 40
0.25
 40
0.25
 40
0.375
 40
0.375
 40
0.4375
 40
0.4375
 40
0.5
 40
0.5
 40
0.75
 40
0.75
 40
1.0
 40
1.0
 40
1.0
 40
1.0
 10
224.9861608110814
 20
223.1300597222955
 30
0.0
 10
224.8740130029133
 20
223.8351450387451
 30
0.0
 10
224.7792214776059
 20
224.5546339151898
 30
0.0
 10
224.6387946740471
 20
225.9918899037971
 30
0.0
 10
224.5925889254005
 20
226.7129881281729
 30
0.0
 10
224.5536452141434
 20
228.1605196185011
 30
0.0
 10
224.5609444115886
 20
228.8869554683153
 30
0.0
 10
224.6123855606942
 20
229.9806673092557
 30
0.0
 10
224.6363599884452
 20
230.347139039437
 30
0.0
 10
224.6964958054967
 20
231.073026592869
 30
0.0
 10
224.7326207227009
 20
231.4328738482094
 30
0.0
 10
224.9401065736799
 20
233.2179963753324
 30
0.0
 10
225.1918278566169
 20
234.6010607145925
 30
0.0
 10
225.7779130235805
 20
237.3109257275062
 30
0.0
 10
226.1132335324499
 20
238.6377427362358
 30
0.0
 10
226.4442683244953
 20
239.9467889257201
 30
0.0
  0
SPLINE
  5
DA
330
1F
100
AcDbEntity
  8
0
  6
Continuous
 62
     7
370
    15
100
AcDbSpline
210
0.0
220
0.0
230
1.0
 70
     8
 71
     3
 72
     8
 73
     4
 74
     0
 42
0.00000001
 43
0.00000001
 12
1.0
 22
0.0
 32
0.0
 13
1.0
 23
0.0
 33
0.0
 40
0.0
 40
0.0
 40
0.0
 40
0.0
 40
1.0
 40
1.0
 40
1.0
 40
1.0
 10
229.6748556735603
 20
264.5798633838975
 30
0.0
 10
229.5918732522483
 20
270.9652350699021
 30
0.0
 10
229.5057783171998
 20
277.350876504709
 30
0.0
 10
229.4165711631803
 20
283.7367152262173
 30
0.0
  0
LINE
  5
DB
330
1F
100
AcDbEntity
  8
0
  6
Continuous
 62
     7
370
    15
100
AcDbLine
 10
230.574481559
 20
250.8660010674
 30
0.0
 11
230.574481559
 21
264.6585698851
 31
0.0
  0
ELLIPSE
  5
DC
330
1F
100
AcDbEntity
  8
0
  6
Continuous
 62
     7
370
    15
100
AcDbEllipse
 10
199.7726954492
 20
772.5831624497
 30
0.0
 11
0.0
 21
1040.635515843946
 31
0.0
210
0.0
220
0.0
230
1.0
 40
0.0261859216
 41
4.259802016859976
 42
4.263759701715689
  0
ELLIPSE
  5
DD
330
1F
100
AcDbEntity
  8
0
  6
Continuous
 62
     7
370
    15
100
AcDbEllipse
 10
199.7726954492
 20
772.5831624497
 30
0.0
 11
0.0
 21
1040.635515843946
 31
0.0
210
0.0
220
0.0
230
1.0
 40
0.0261859216
 41
2.019425605463998
 42
2.023383290319715
  0
LINE
  5
DE
330
1F
100
AcDbEntity
  8
0
  6
Continuous
 62
     7
370
    15
100
AcDbLine
 10
227.0226947936
 20
336.2274240383
 30
0.0
 11
172.5226961049
 21
336.2274240383
 31
0.0
  0
LINE
  5
DF
330
1F
100
AcDbEntity
  8
0
  6
Continuous
 62
     7
370
    15
100
AcDbLine
 10
203.2726955573
 20
336.2274240383
 30
0.0
 11
203.2726955573
 21
355.22742529
 31
0.0
  0
LINE
  5
E0
330
1F
100
AcDbEntity
  8
0
  6
Continuous
 62
     7
370
    15
100
AcDbLine
 10
196.2726953412
 20
336.2274240383
 30
0.0
 11
196.2726953412
 21
355.22742529
 31
0.0
  0
LINE
  5
E1
330
1F
100
AcDbEntity
  8
0
  6
Continuous
 62
     7
370
    15
100
AcDbLine
 10
196.2726953412
 20
355.22742529
 30
0.0
 11
203.2726955573
 21
355.22742529
 31
0.0
  0
LINE
  5
E2
330
1F
100
AcDbEntity
  8
0
  6
Continuous
 62
     7
370
    15
100
AcDbLine
 10
196.2726953412
 20
361.2274225482
 30
0.0
 11
196.2726953412
 21
364.2274286278
 31
0.0
  0
LINE
  5
E3
330
1F
100
AcDbEntity
  8
0
  6
Continuous
 62
     7
370
    15
100
AcDbLine
 10
203.2726955573
 20
364.2274286278
 30
0.0
 11
196.2726953412
 21
364.2274286278
 31
0.0
  0
LINE
  5
E4
330
1F
100
AcDbEntity
  8
0
  6
Continuous
 62
     7
370
    15
100
AcDbLine
 10
203.2726955573
 20
361.2274225482
 30
0.0
 11
203.2726955573
 21
364.2274286278
 31
0.0
  0
LINE
  5
E5
330
1F
100
AcDbEntity
  8
0
  6
Continuous
 62
     7
370
    15
100
AcDbLine
 10
203.2726955573
 20
361.2274225482
 30
0.0
 11
196.2726953412
 21
361.2274225482
 31
0.0
  0
LINE
  5
E6
330
1F
100
AcDbEntity
  8
0
  6
Continuous
 62
     7
370
    15
100
AcDbLine
 10
196.2726953412
 20
367.2274198064
 30
0.0
 11
203.2726955573
 21
367.2274198064
 31
0.0
  0
SPLINE
  5
E7
330
1F
100
AcDbEntity
  8
0
  6
Continuous
 62
     7
370
    15
100
AcDbSpline
210
0.0
220
0.0
230
1.0
 70
    24
 71
     3
 72
     8
 73
     4
 74
     0
 42
0.00000001
 43
0.00000001
 12
1.0
 22
0.0
 32
0.0
 13
1.0
 23
0.0
 33
0.0
 40
0.0
 40
0.0
 40
0.0
 40
0.0
 40
0.00426344474639
 40
0.00426344474639
 40
0.00426344474639
 40
0.00426344474639
 10
203.2726954492412
 20
367.2274212368728
 30
0.0
 10
203.2726954492412
 20
366.2280487765417
 30
0.0
 10
203.2726954492412
 20
365.2279774289722
 30
0.0
 10
203.2726954492412
 20
364.2274212368728
 30
0.0
  0
SPLINE
  5
E8
330
1F
100
AcDbEntity
  8
0
  6
Continuous
 62
     7
370
    15
100
AcDbSpline
210
0.0
220
0.0
230
1.0
 70
    24
 71
     3
 72
     8
 73
     4
 74
     0
 42
0.00000001
 43
0.00000001
 12
1.0
 22
0.0
 32
0.0
 13
1.0
 23
0.0
 33
0.0
 40
0.0
 40
0.0
 40
0.0
 40
0.0
 40
0.00426344474639
 40
0.00426344474639
 40
0.00426344474639
 40
0.00426344474639
 10
196.2726954492412
 20
364.2274212368728
 30
0.0
 10
196.2726954492412
 20
365.2279774289722
 30
0.0
 10
196.2726954492412
 20
366.2280487765417
 30
0.0
 10
196.2726954492412
 20
367.2274212368728
 30
0.0
  0
LINE
  5
E9
330
1F
100
AcDbEntity
  8
0
  6
Continuous
 62
     7
370
    15
100
AcDbLine
 10
142.2726944062
 20
205.2274211922
 30
0.0
 11
142.2726944062
 21
228.2274212369
 31
0.0
  0
SPLINE
  5
EA
330
1F
100
AcDbEntity
  8
0
  6
Continuous
 62
     7
370
    15
100
AcDbSpline
210
0.0
220
0.0
230
1.0
 70
     8
 71
     3
 72
    14
 73
    10
 74
     0
 42
0.00000001
 43
0.00000001
 12
1.0
 22
0.0
 32
0.0
 13
1.0
 23
0.0
 33
0.0
 40
0.0
 40
0.0
 40
0.0
 40
0.0
 40
0.5000000000000007
 40
0.5000000000000007
 40
0.7500000000000006
 40
0.7500000000000006
 40
0.8750000000000002
 40
0.8750000000000002
 40
1.0
 40
1.0
 40
1.0
 40
1.0
 10
163.7145830665187
 20
205.2274212368728
 30
0.0
 10
164.7557574977865
 20
207.0307882513702
 30
0.0
 10
165.6404840211104
 20
208.8749687551751
 30
0.0
 10
166.5864196478867
 20
211.7406734462096
 30
0.0
 10
166.8375316131383
 20
212.7126565528243
 30
0.0
 10
167.0954388449245
 20
214.2016130218356
 30
0.0
 10
167.1615966714536
 20
214.7031001227702
 30
0.0
 10
167.2505479064861
 20
215.7173870563638
 30
0.0
 10
167.2726954492415
 20
216.2238162511517
 30
0.0
 10
167.2726954492415
 20
216.7274212368729
 30
0.0
  0
LINE
  5
EB
330
1F
100
AcDbEntity
  8
0
  6
Continuous
 62
     7
370
    15
100
AcDbLine
 10
163.7145824703
 20
205.2274211922
 30
0.0
 11
142.2726944062
 21
205.2274211922
 31
0.0
  0
SPLINE
  5
EC
330
1F
100
AcDbEntity
  8
0
  6
Continuous
 62
     7
370
    15
100
AcDbSpline
210
0.0
220
0.0
230
1.0
 70
     8
 71
     3
 72
    14
 73
    10
 74
     0
 42
0.00000001
 43
0.00000001
 12
1.0
 22
0.0
 32
0.0
 13
1.0
 23
0.0
 33
0.0
 40
0.0
 40
0.0
 40
0.0
 40
0.0
 40
0.5000000000000007
 40
0.5000000000000007
 40
0.7500000000000006
 40
0.7500000000000006
 40
0.8750000000000002
 40
0.8750000000000002
 40
1.0
 40
1.0
 40
1.0
 40
1.0
 10
235.8308078319643
 20
205.2274212368728
 30
0.0
 10
234.7896334006965
 20
207.0307882513702
 30
0.0
 10
233.9049068773726
 20
208.8749687551751
 30
0.0
 10
232.9589712505962
 20
211.7406734462096
 30
0.0
 10
232.7078592853447
 20
212.7126565528243
 30
0.0
 10
232.4499520535585
 20
214.2016130218356
 30
0.0
 10
232.3837942270294
 20
214.7031001227702
 30
0.0
 10
232.2948429919968
 20
215.7173870563638
 30
0.0
 10
232.2726954492415
 20
216.2238162511517
 30
0.0
 10
232.2726954492415
 20
216.7274212368729
 30
0.0
  0
LINE
  5
ED
330
1F
100
AcDbEntity
  8
0
  6
Continuous
 62
     7
370
    15
100
AcDbLine
 10
235.8308084282
 20
205.2274211922
 30
0.0
 11
257.2726964923
 21
205.2274211922
 31
0.0
  0
LINE
  5
EE
330
1F
100
AcDbEntity
  8
0
  6
Continuous
 62
     7
370
    15
100
AcDbLine
 10
257.2726964923
 20
205.2274211922
 30
0.0
 11
257.2726964923
 21
228.2274212369
 31
0.0
  0
LINE
  5
EF
330
1F
100
AcDbEntity
  8
0
  6
Continuous
 62
     7
370
    15
100
AcDbLine
 10
218.7460552874
 20
344.933814896
 30
0.0
 11
203.2726955573
 21
344.933814896
 31
0.0
  0
LINE
  5
F0
330
1F
100
AcDbEntity
  8
0
  6
Continuous
 62
     7
370
    15
100
AcDbLine
 10
196.2726953412
 20
344.933814896
 30
0.0
 11
180.7993356111
 21
344.933814896
 31
0.0
  0
LINE
  5
F1
330
1F
100
AcDbEntity
  8
0
  6
Continuous
 62
     7
370
    15
100
AcDbLine
 10
196.2726953412
 20
361.2274225482
 30
0.0
 11
196.2726953412
 21
355.22742529
 31
0.0
  0
LINE
  5
F2
330
1F
100
AcDbEntity
  8
0
  6
Continuous
 62
     7
370
    15
100
AcDbLine
 10
203.2726955573
 20
355.22742529
 30
0.0
 11
203.2726955573
 21
361.2274225482
 31
0.0
  0
SPLINE
  5
F3
330
1F
100
AcDbEntity
  8
0
  6
Continuous
 62
     7
370
    15
100
AcDbSpline
210
0.0
220
0.0
230
1.0
 70
     8
 71
     3
 72
    14
 73
    10
 74
     0
 42
0.00000001
 43
0.00000001
 12
1.0
 22
0.0
 32
0.0
 13
1.0
 23
0.0
 33
0.0
 40
0.0
 40
0.0
 40
0.0
 40
0.0
 40
0.25
 40
0.25
 40
0.5
 40
0.5
 40
0.75
 40
0.75
 40
1.0
 40
1.0
 40
1.0
 40
1.0
 10
231.4295496987339
 20
205.42391273489
 30
0.0
 10
231.1674007373727
 20
205.42391273489
 30
0.0
 10
230.9079079976426
 20
205.4496563041604
 30
0.0
 10
230.3942178465612
 20
205.5524647072123
 30
0.0
 10
230.1395964788537
 20
205.6302814849648
 30
0.0
 10
229.6540307689808
 20
205.8335010873354
 30
0.0
 10
229.4201627158892
 20
205.9601445834074
 30
0.0
 10
228.9875274965733
 20
206.2525192018839
 30
0.0
 10
228.786507303191
 20
206.4189693434131
 30
0.0
 10
228.6011225739877
 20
206.6061300927169
 30
0.0
  0
SPLINE
  5
F4
330
1F
100
AcDbEntity
  8
0
  6
Continuous
 62
     7
370
    15
100
AcDbSpline
210
0.0
220
0.0
230
1.0
 70
     8
 71
     3
 72
    10
 73
     6
 74
     0
 42
0.00000001
 43
0.00000001
 12
1.0
 22
0.0
 32
0.0
 13
1.0
 23
0.0
 33
0.0
 40
0.0
 40
0.0
 40
0.0
 40
0.0
 40
0.499999999999994
 40
0.499999999999994
 40
1.0
 40
1.0
 40
1.0
 40
1.0
 10
231.4295496987339
 20
250.9595570802114
 30
0.0
 10
231.2846010883529
 20
250.9595570802114
 30
0.0
 10
231.1404333362503
 20
250.9515763247366
 30
0.0
 10
230.8554207945231
 20
250.920275954739
 30
0.0
 10
230.714274341742
 20
250.8969553938608
 30
0.0
 10
230.5744811117642
 20
250.8660016593372
 30
0.0
  0
LINE
  5
F5
330
1F
100
AcDbEntity
  8
0
  6
Continuous
 62
     7
370
    15
100
AcDbLine
 10
167.2726966413
 20
205.4239134916
 30
0.0
 11
168.1158415946
 21
205.4239134916
 31
0.0
  0
LINE
  5
F6
330
1F
100
AcDbEntity
  8
0
  6
Continuous
 62
     7
370
    15
100
AcDbLine
 10
167.2726966413
 20
216.7274212145
 30
0.0
 11
167.2726966413
 21
205.4239134916
 31
0.0
  0
LINE
  5
F7
330
1F
100
AcDbEntity
  8
0
  6
Continuous
 62
     7
370
    15
100
AcDbLine
 10
167.2726966413
 20
250.959558008
 30
0.0
 11
167.2726966413
 21
239.7274212592
 31
0.0
  0
LINE
  5
F8
330
1F
100
AcDbEntity
  8
0
  6
Continuous
 62
     7
370
    15
100
AcDbLine
 10
167.2726966413
 20
250.959558008
 30
0.0
 11
168.1158415946
 21
250.959558008
 31
0.0
  0
SPLINE
  5
F9
330
1F
100
AcDbEntity
  8
0
  6
Continuous
 62
     7
370
    15
100
AcDbSpline
210
0.0
220
0.0
230
1.0
 70
     8
 71
     3
 72
    14
 73
    10
 74
     0
 42
0.00000001
 43
0.00000001
 12
1.0
 22
0.0
 32
0.0
 13
1.0
 23
0.0
 33
0.0
 40
0.0
 40
0.0
 40
0.0
 40
0.0
 40
0.25
 40
0.25
 40
0.5
 40
0.5
 40
0.75
 40
0.75
 40
1.0
 40
1.0
 40
1.0
 40
1.0
 10
168.1158411997491
 20
205.42391273489
 30
0.0
 10
168.3779901611103
 20
205.42391273489
 30
0.0
 10
168.6374829008404
 20
205.4496563041604
 30
0.0
 10
169.1511730519218
 20
205.5524647072123
 30
0.0
 10
169.4057944196293
 20
205.6302814849648
 30
0.0
 10
169.8913601295021
 20
205.8335010873354
 30
0.0
 10
170.1252281825938
 20
205.9601445834074
 30
0.0
 10
170.5578634019097
 20
206.2525192018839
 30
0.0
 10
170.758883595292
 20
206.4189693434131
 30
0.0
 10
170.9442683244953
 20
206.6061300927169
 30
0.0
  0
SPLINE
  5
FA
330
1F
100
AcDbEntity
  8
0
  6
Continuous
 62
     7
370
    15
100
AcDbSpline
210
0.0
220
0.0
230
1.0
 70
     8
 71
     3
 72
    10
 73
     6
 74
     0
 42
0.00000001
 43
0.00000001
 12
1.0
 22
0.0
 32
0.0
 13
1.0
 23
0.0
 33
0.0
 40
0.0
 40
0.0
 40
0.0
 40
0.0
 40
0.499999999999994
 40
0.499999999999994
 40
1.0
 40
1.0
 40
1.0
 40
1.0
 10
168.1158411997491
 20
250.9595570802114
 30
0.0
 10
168.26078981013
 20
250.9595570802114
 30
0.0
 10
168.4049575622326
 20
250.9515763247366
 30
0.0
 10
168.6899701039599
 20
250.920275954739
 30
0.0
 10
168.831116556741
 20
250.8969553938608
 30
0.0
 10
168.9709097867187
 20
250.8660016593372
 30
0.0
  0
LINE
  5
FB
330
1F
100
AcDbEntity
  8
0
  6
Continuous
 62
     7
370
    15
100
AcDbLine
 10
232.2726942571
 20
250.959558008
 30
0.0
 11
232.2726942571
 21
239.7274212592
 31
0.0
  0
LINE
  5
FC
330
1F
100
AcDbEntity
  8
0
  6
Continuous
 62
     7
370
    15
100
AcDbLine
 10
232.2726942571
 20
216.7274212145
 30
0.0
 11
232.2726942571
 21
205.4239134916
 31
0.0
  0
LINE
  5
FD
330
1F
100
AcDbEntity
  8
0
  6
Continuous
 62
     7
370
    15
100
AcDbLine
 10
232.2726942571
 20
205.4239134916
 30
0.0
 11
231.4295493039
 21
205.4239134916
 31
0.0
  0
LINE
  5
FE
330
1F
100
AcDbEntity
  8
0
  6
Continuous
 62
     7
370
    15
100
AcDbLine
 10
232.2726942571
 20
250.959558008
 30
0.0
 11
231.4295493039
 21
250.959558008
 31
0.0
  0
LINE
  5
FF
330
1F
100
AcDbEntity
  8
0
  6
Continuous
 62
     7
370
    15
100
AcDbLine
 10
232.4675232145
 20
205.2274211922
 30
0.0
 11
232.2726942571
 21
205.4239134916
 31
0.0
  0
SPLINE
  5
100
330
1F
100
AcDbEntity
  8
0
  6
Continuous
 62
     7
370
    15
100
AcDbSpline
210
0.0
220
0.0
230
1.0
 70
    24
 71
     3
 72
    12
 73
     8
 74
     0
 42
0.00000001
 43
0.00000001
 12
1.0
 22
0.0
 32
0.0
 13
1.0
 23
0.0
 33
0.0
 40
0.0
 40
0.0
 40
0.0
 40
0.0
 40
0.2500000000000001
 40
0.2500000000000001
 40
0.5000000000000001
 40
0.5000000000000001
 40
1.0
 40
1.0
 40
1.0
 40
1.0
 10
235.8308078319642
 20
205.2274212368728
 30
0.0
 10
235.4253053662098
 20
205.2274212368728
 30
0.0
 10
235.0395774845424
 20
205.2274212368728
 30
0.0
 10
234.3263650518024
 20
205.2274212368728
 30
0.0
 10
234.0004194628681
 20
205.2274212368728
 30
0.0
 10
233.1324657921018
 20
205.2274212368728
 30
0.0
 10
232.7002806821833
 20
205.2274212368728
 30
0.0
 10
232.4675224587279
 20
205.2274212368728
 30
0.0
  0
LINE
  5
101
330
1F
100
AcDbEntity
  8
0
  6
Continuous
 62
     7
370
    15
100
AcDbLine
 10
167.077867684
 20
205.2274211922
 30
0.0
 11
167.2726966413
 21
205.4239134916
 31
0.0
  0
SPLINE
  5
102
330
1F
100
AcDbEntity
  8
0
  6
Continuous
 62
     7
370
    15
100
AcDbSpline
210
0.0
220
0.0
230
1.0
 70
    24
 71
     3
 72
    12
 73
     8
 74
     0
 42
0.00000001
 43
0.00000001
 12
1.0
 22
0.0
 32
0.0
 13
1.0
 23
0.0
 33
0.0
 40
0.0
 40
0.0
 40
0.0
 40
0.0
 40
0.2500000000000001
 40
0.2500000000000001
 40
0.5000000000000001
 40
0.5000000000000001
 40
1.0
 40
1.0
 40
1.0
 40
1.0
 10
163.7145830665188
 20
205.2274212368728
 30
0.0
 10
164.1200855322732
 20
205.2274212368728
 30
0.0
 10
164.5058134139406
 20
205.2274212368728
 30
0.0
 10
165.2190258466806
 20
205.2274212368728
 30
0.0
 10
165.5449714356149
 20
205.2274212368728
 30
0.0
 10
166.4129251063812
 20
205.2274212368728
 30
0.0
 10
166.8451102162997
 20
205.2274212368728
 30
0.0
 10
167.0778684397551
 20
205.2274212368728
 30
0.0
  0
SPLINE
  5
103
330
1F
100
AcDbEntity
  8
0
  6
Continuous
 62
     7
370
    15
100
AcDbSpline
210
0.0
220
0.0
230
1.0
 70
     8
 71
     3
 72
     8
 73
     4
 74
     0
 42
0.00000001
 43
0.00000001
 12
1.0
 22
0.0
 32
0.0
 13
1.0
 23
0.0
 33
0.0
 40
0.0
 40
0.0
 40
0.0
 40
0.0
 40
1.0
 40
1.0
 40
1.0
 40
1.0
 10
228.6011225739877
 20
206.6061300927169
 30
0.0
 10
227.8817875476734
 20
207.3323564820425
 30
0.0
 10
227.1627897067249
 20
208.0589250858681
 30
0.0
 10
226.4442683244953
 20
208.7859506292664
 30
0.0
  0
SPLINE
  5
104
330
1F
100
AcDbEntity
  8
0
  6
Continuous
 62
     7
370
    15
100
AcDbSpline
210
0.0
220
0.0
230
1.0
 70
     8
 71
     3
 72
     8
 73
     4
 74
     0
 42
0.00000001
 43
0.00000001
 12
1.0
 22
0.0
 32
0.0
 13
1.0
 23
0.0
 33
0.0
 40
0.0
 40
0.0
 40
0.0
 40
0.0
 40
1.0
 40
1.0
 40
1.0
 40
1.0
 10
170.9442683244953
 20
206.6061300927169
 30
0.0
 10
171.6636033508096
 20
207.3323564820425
 30
0.0
 10
172.3826011917581
 20
208.0589250858681
 30
0.0
 10
173.1011225739877
 20
208.7859506292664
 30
0.0
  0
SPLINE
  5
105
330
1F
100
AcDbEntity
  8
0
  6
Continuous
 62
     7
370
    15
100
AcDbSpline
210
0.0
220
0.0
230
1.0
 70
     8
 71
     3
 72
    14
 73
    10
 74
     0
 42
0.00000001
 43
0.00000001
 12
1.0
 22
0.0
 32
0.0
 13
1.0
 23
0.0
 33
0.0
 40
0.0
 40
0.0
 40
0.0
 40
0.0
 40
0.25
 40
0.25
 40
0.5
 40
0.5
 40
0.75
 40
0.75
 40
1.0
 40
1.0
 40
1.0
 40
1.0
 10
173.1011225739877
 20
208.7859506292664
 30
0.0
 10
173.284543432843
 20
208.9715423915687
 30
0.0
 10
173.485021846193
 20
209.1387006489342
 30
0.0
 10
173.921426412256
 20
209.4347100265693
 30
0.0
 10
174.1537553446465
 20
209.5608025636034
 30
0.0
 10
174.6398063490831
 20
209.7650610804853
 30
0.0
 10
174.8924811273525
 20
209.8425852214652
 30
0.0
 10
175.4037763330417
 20
209.9457863147865
 30
0.0
 10
175.6659188868397
 20
209.9722849733441
 30
0.0
 10
175.9295496987338
 20
209.9722849733441
 30
0.0
  0
LWPOLYLINE
  5
106
330
1F
100
AcDbEntity
  8
0
  6
Continuous
 62
     7
370
    15
100
AcDbPolyline
 90
        3
 70
   128
 43
0.0
 10
175.9295504513
 20
220.4089831241
 10
175.9180802825
 20
220.4313390569
 10
175.8141893866
 20
220.6338593417
  0
SPLINE
  5
107
330
1F
100
AcDbEntity
  8
0
  6
Continuous
 62
     7
370
    15
100
AcDbSpline
210
0.0
220
0.0
230
1.0
 70
    24
 71
     3
 72
    12
 73
     8
 74
     0
 42
0.00000001
 43
0.00000001
 12
1.0
 22
0.0
 32
0.0
 13
1.0
 23
0.0
 33
0.0
 40
0.0
 40
0.0
 40
0.0
 40
0.0
 40
0.2500000000000002
 40
0.2500000000000002
 40
0.5000000000000003
 40
0.5000000000000003
 40
1.0
 40
1.0
 40
1.0
 40
1.0
 10
235.8308078319642
 20
251.2274212368728
 30
0.0
 10
235.4441315730197
 20
251.2274212368728
 30
0.0
 10
235.0755965140548
 20
251.2274212368728
 30
0.0
 10
234.3900788644008
 20
251.2274212368728
 30
0.0
 10
234.0749687243714
 20
251.2274212368728
 30
0.0
 10
233.2279770098685
 20
251.2274212368728
 30
0.0
 10
232.7943101720954
 20
251.2274212368728
 30
0.0
 10
232.5374756975048
 20
251.2274212368728
 30
0.0
  0
LWPOLYLINE
  5
108
330
1F
100
AcDbEntity
  8
0
  6
Continuous
 62
     7
370
    15
100
AcDbPolyline
 90
        3
 70
   128
 43
0.0
 10
232.5374767157
 20
251.2274212816
 10
232.4710361632
 20
251.1602151819
 10
232.2726942571
 20
250.959558008
  0
SPLINE
  5
109
330
1F
100
AcDbEntity
  8
0
  6
Continuous
 62
     7
370
    15
100
AcDbSpline
210
0.0
220
0.0
230
1.0
 70
    24
 71
     3
 72
    12
 73
     8
 74
     0
 42
0.00000001
 43
0.00000001
 12
1.0
 22
0.0
 32
0.0
 13
1.0
 23
0.0
 33
0.0
 40
0.0
 40
0.0
 40
0.0
 40
0.0
 40
0.2500000000000002
 40
0.2500000000000002
 40
0.5000000000000003
 40
0.5000000000000003
 40
1.0
 40
1.0
 40
1.0
 40
1.0
 10
163.7145830665188
 20
251.2274212368728
 30
0.0
 10
164.1012593254632
 20
251.2274212368728
 30
0.0
 10
164.4697943844282
 20
251.2274212368728
 30
0.0
 10
165.1553120340822
 20
251.2274212368728
 30
0.0
 10
165.4704221741115
 20
251.2274212368728
 30
0.0
 10
166.3174138886144
 20
251.2274212368728
 30
0.0
 10
166.7510807263876
 20
251.2274212368728
 30
0.0
 10
167.0079152009782
 20
251.2274212368728
 30
0.0
  0
LWPOLYLINE
  5
10A
330
1F
100
AcDbEntity
  8
0
  6
Continuous
 62
     7
370
    15
100
AcDbPolyline
 90
        3
 70
   128
 43
0.0
 10
167.0079141828
 20
251.2274212816
 10
167.0743547353
 20
251.1602151819
 10
167.2726966413
 20
250.959558008
  0
SPLINE
  5
10B
330
1F
100
AcDbEntity
  8
0
  6
Continuous
 62
     7
370
    15
100
AcDbSpline
210
0.0
220
0.0
230
1.0
 70
     8
 71
     3
 72
    14
 73
    10
 74
     0
 42
0.00000001
 43
0.00000001
 12
1.0
 22
0.0
 32
0.0
 13
1.0
 23
0.0
 33
0.0
 40
0.0
 40
0.0
 40
0.0
 40
0.0
 40
0.25
 40
0.25
 40
0.5
 40
0.5
 40
0.75
 40
0.75
 40
1.0
 40
1.0
 40
1.0
 40
1.0
 10
226.4442683244953
 20
208.7859506292664
 30
0.0
 10
226.26084746564
 20
208.9715423915687
 30
0.0
 10
226.06036905229
 20
209.1387006489342
 30
0.0
 10
225.6239644862269
 20
209.4347100265693
 30
0.0
 10
225.3916355538364
 20
209.5608025636034
 30
0.0
 10
224.9055845493999
 20
209.7650610804853
 30
0.0
 10
224.6529097711305
 20
209.8425852214652
 30
0.0
 10
224.1416145654413
 20
209.9457863147865
 30
0.0
 10
223.8794720116432
 20
209.9722849733441
 30
0.0
 10
223.6158411997491
 20
209.9722849733441
 30
0.0
  0
LINE
  5
10C
330
1F
100
AcDbEntity
  8
0
  6
Continuous
 62
     7
370
    15
100
AcDbLine
 10
217.7726946744
 20
367.2274198064
 30
0.0
 11
203.2726955573
 21
367.2274198064
 31
0.0
  0
LINE
  5
10D
330
1F
100
AcDbEntity
  8
0
  6
Continuous
 62
     7
370
    15
100
AcDbLine
 10
196.2726953412
 20
367.2274198064
 30
0.0
 11
181.7726962241
 21
367.2274198064
 31
0.0
  0
LINE
  5
10E
330
1F
100
AcDbEntity
  8
0
  6
Continuous
 62
     7
370
    15
100
AcDbLine
 10
223.6158404472
 20
209.9722843298
 30
0.0
 11
175.9295504513
 21
209.9722843298
 31
0.0
  0
LINE
  5
10F
330
1F
100
AcDbEntity
  8
0
  6
Continuous
 62
     7
370
    15
100
AcDbLine
 10
162.2726939591
 20
321.2274234422
 30
0.0
 11
175.2192884656
 21
321.2274234422
 31
0.0
  0
LINE
  5
110
330
1F
100
AcDbEntity
  8
0
  6
Continuous
 62
     7
370
    15
100
AcDbLine
 10
162.2726939591
 20
295.2274229058
 30
0.0
 11
164.9481341215
 21
295.2274229058
 31
0.0
  0
LINE
  5
111
330
1F
100
AcDbEntity
  8
0
  6
Continuous
 62
     7
370
    15
100
AcDbLine
 10
224.3261024329
 20
321.2274234422
 30
0.0
 11
237.2726969394
 21
321.2274234422
 31
0.0
  0
LINE
  5
112
330
1F
100
AcDbEntity
  8
0
  6
Continuous
 62
     7
370
    15
100
AcDbLine
 10
234.5972567769
 20
295.2274229058
 30
0.0
 11
237.2726969394
 21
295.2274229058
 31
0.0
  0
SPLINE
  5
113
330
1F
100
AcDbEntity
  8
0
  6
Continuous
 62
     7
370
    15
100
AcDbSpline
210
0.0
220
0.0
230
1.0
 70
     8
 71
     3
 72
    16
 73
    12
 74
     0
 42
0.00000001
 43
0.00000001
 12
1.0
 22
0.0
 32
0.0
 13
1.0
 23
0.0
 33
0.0
 40
0.0
 40
0.0
 40
0.0
 40
0.0
 40
0.2499999999999999
 40
0.2499999999999999
 40
0.4999999999999999
 40
0.4999999999999999
 40
0.7499999999999998
 40
0.7499999999999998
 40
0.8749999999999999
 40
0.8749999999999999
 40
1.0
 40
1.0
 40
1.0
 40
1.0
 10
248.0447434260649
 20
268.3472391060632
 30
0.0
 10
247.8716329454482
 20
268.0440191190618
 30
0.0
 10
247.6606247050025
 20
267.749067023435
 30
0.0
 10
247.1678046741073
 20
267.2030687033901
 30
0.0
 10
246.8855312078526
 20
266.9501059732683
 30
0.0
 10
246.2382019381506
 20
266.4988549268218
 30
0.0
 10
245.8700133254998
 20
266.2998688315808
 30
0.0
 10
245.2650212800635
 20
266.0717403950094
 30
0.0
 10
245.0539675242268
 20
266.006968410507
 30
0.0
 10
244.6115186461545
 20
265.9043009419715
 30
0.0
 10
244.3784715964158
 20
265.8662630899865
 30
0.0
 10
244.1383315909714
 20
265.8452535618511
 30
0.0
  0
LWPOLYLINE
  5
114
330
1F
100
AcDbEntity
  8
0
  6
Continuous
 62
     7
370
    15
100
AcDbPolyline
 90
       44
 70
   128
 43
0.0
 10
244.1383324536
 20
265.8452536591
 10
243.844444302
 20
265.8195417055
 10
243.5435637804
 20
265.7932188042
 10
243.2360149893
 20
265.7663110324
 10
242.922125754
 20
265.7388481923
 10
242.6022350761
 20
265.7108638116
 10
242.2766819569
 20
265.682380242
 10
241.9458165737
 20
265.6534347364
 10
241.6099928292
 20
265.6240533718
 10
241.2695683512
 20
265.5942696759
 10
240.9249119433
 20
265.5641171762
 10
240.5763924095
 20
265.5336256751
 10
240.2243785533
 20
265.5028287002
 10
239.8692503544
 20
265.4717560538
 10
239.5113877925
 20
265.4404487141
 10
239.1511745724
 20
265.4089327582
 10
238.788994399
 20
265.3772454389
 10
238.4252384278
 20
265.3454240092
 10
238.0602903637
 20
265.3134945461
 10
237.6945488128
 20
265.2814943024
 10
237.3283974799
 20
265.2494605311
 10
236.9622349712
 20
265.2174267598
 10
236.5964487168
 20
265.1854227909
 10
236.2314335975
 20
265.1534896024
 10
235.8675807687
 20
265.1216569968
 10
235.5052776607
 20
265.0899585017
 10
235.1449117037
 20
265.0584313699
 10
234.7868703278
 20
265.0271054038
 10
234.4315335127
 20
264.9960178562
 10
234.0792886885
 20
264.9652022549
 10
233.7305083844
 20
264.9346884021
 10
233.3855651292
 20
264.9045098253
 10
233.044831452
 20
264.8746963271
 10
232.7086724314
 20
264.8452888855
 10
232.3774419698
 20
264.8163098522
 10
232.0515014204
 20
264.787792755
 10
231.7312009605
 20
264.7597711214
 10
231.4168758663
 20
264.7322710284
 10
231.1088651391
 20
264.7053222784
 10
230.8075040552
 20
264.6789583989
 10
230.5131111267
 20
264.6532017418
 10
230.2260011407
 20
264.6280821093
 10
229.9464832964
 20
264.6036293038
 10
229.6748556169
 20
264.5798619517
  0
LINE
  5
115
330
1F
100
AcDbEntity
  8
0
  6
Continuous
 62
     7
370
    15
100
AcDbLine
 10
249.272695181
 20
295.2274229058
 30
0.0
 11
237.2726969394
 21
295.2274229058
 31
0.0
  0
SPLINE
  5
116
330
1F
100
AcDbEntity
  8
0
  6
Continuous
 62
     7
370
    15
100
AcDbSpline
210
0.0
220
0.0
230
1.0
 70
     8
 71
     3
 72
     8
 73
     4
 74
     0
 42
0.00000001
 43
0.00000001
 12
1.0
 22
0.0
 32
0.0
 13
1.0
 23
0.0
 33
0.0
 40
0.0
 40
0.0
 40
0.0
 40
0.0
 40
1.0
 40
1.0
 40
1.0
 40
1.0
 10
248.0447434260649
 20
268.3472391060632
 30
0.0
 10
248.4560755942057
 20
277.3072077279397
 30
0.0
 10
248.8651868084941
 20
286.2672781649007
 30
0.0
 10
249.2726954492415
 20
295.2274212368728
 30
0.0
  0
LINE
  5
117
330
1F
100
AcDbEntity
  8
0
  6
Continuous
 62
     7
370
    15
100
AcDbLine
 10
150.2726957175
 20
295.2274229058
 30
0.0
 11
162.2726939591
 21
295.2274229058
 31
0.0
  0
LWPOLYLINE
  5
118
330
1F
100
AcDbEntity
  8
0
  6
Continuous
 62
     7
370
    15
100
AcDbPolyline
 90
       44
 70
   128
 43
0.0
 10
155.4070584449
 20
265.8452536591
 10
155.7009465965
 20
265.8195417055
 10
156.001827118
 20
265.7932188042
 10
156.3093759092
 20
265.7663110324
 10
156.6232651445
 20
265.7388481923
 10
156.9431558224
 20
265.7108638116
 10
157.2687089416
 20
265.682380242
 10
157.5995743247
 20
265.6534347364
 10
157.9353980693
 20
265.6240533718
 10
158.2758225473
 20
265.5942696759
 10
158.6204789552
 20
265.5641171762
 10
158.968998489
 20
265.5336256751
 10
159.3210123452
 20
265.5028287002
 10
159.6761405441
 20
265.4717560538
 10
160.034003106
 20
265.4404487141
 10
160.3942163261
 20
265.4089327582
 10
160.7563964995
 20
265.3772454389
 10
161.1201524707
 20
265.3454240092
 10
161.4851005348
 20
265.3134945461
 10
161.8508420857
 20
265.2814943024
 10
162.2169934186
 20
265.2494605311
 10
162.5831559273
 20
265.2174267598
 10
162.9489421817
 20
265.1854227909
 10
163.313957301
 20
265.1534896024
 10
163.6778101298
 20
265.1216569968
 10
164.0401132377
 20
265.0899585017
 10
164.4004791948
 20
265.0584313699
 10
164.7585205706
 20
265.0271054038
 10
165.1138573858
 20
264.9960178562
 10
165.4661022099
 20
264.9652022549
 10
165.8148825141
 20
264.9346884021
 10
166.1598257693
 20
264.9045098253
 10
166.5005594465
 20
264.8746963271
 10
166.8367184671
 20
264.8452888855
 10
167.1679489287
 20
264.8163098522
 10
167.4938894781
 20
264.787792755
 10
167.814189938
 20
264.7597711214
 10
168.1285150322
 20
264.7322710284
 10
168.4365257593
 20
264.7053222784
 10
168.7378868433
 20
264.6789583989
 10
169.0322797718
 20
264.6532017418
 10
169.3193897578
 20
264.6280821093
 10
169.5989076021
 20
264.6036293038
 10
169.8705352815
 20
264.5798619517
  0
SPLINE
  5
119
330
1F
100
AcDbEntity
  8
0
  6
Continuous
 62
     7
370
    15
100
AcDbSpline
210
0.0
220
0.0
230
1.0
 70
     8
 71
     3
 72
    16
 73
    12
 74
     0
 42
0.00000001
 43
0.00000001
 12
1.0
 22
0.0
 32
0.0
 13
1.0
 23
0.0
 33
0.0
 40
0.0
 40
0.0
 40
0.0
 40
0.0
 40
0.2499999999999999
 40
0.2499999999999999
 40
0.4999999999999999
 40
0.4999999999999999
 40
0.7499999999999998
 40
0.7499999999999998
 40
0.8749999999999999
 40
0.8749999999999999
 40
1.0
 40
1.0
 40
1.0
 40
1.0
 10
151.5006474724181
 20
268.3472391060632
 30
0.0
 10
151.6737579530347
 20
268.0440191190618
 30
0.0
 10
151.8847661934805
 20
267.749067023435
 30
0.0
 10
152.3775862243757
 20
267.2030687033901
 30
0.0
 10
152.6598596906303
 20
266.9501059732683
 30
0.0
 10
153.3071889603324
 20
266.4988549268218
 30
0.0
 10
153.6753775729831
 20
266.2998688315808
 30
0.0
 10
154.2803696184195
 20
266.0717403950094
 30
0.0
 10
154.4914233742561
 20
266.006968410507
 30
0.0
 10
154.9338722523284
 20
265.9043009419715
 30
0.0
 10
155.1669193020672
 20
265.8662630899865
 30
0.0
 10
155.4070593075116
 20
265.8452535618511
 30
0.0
  0
SPLINE
  5
11A
330
1F
100
AcDbEntity
  8
0
  6
Continuous
 62
     7
370
    15
100
AcDbSpline
210
0.0
220
0.0
230
1.0
 70
     8
 71
     3
 72
     8
 73
     4
 74
     0
 42
0.00000001
 43
0.00000001
 12
1.0
 22
0.0
 32
0.0
 13
1.0
 23
0.0
 33
0.0
 40
0.0
 40
0.0
 40
0.0
 40
0.0
 40
1.0
 40
1.0
 40
1.0
 40
1.0
 10
151.500647472418
 20
268.3472391060632
 30
0.0
 10
151.0893153042772
 20
277.3072077279397
 30
0.0
 10
150.6802040899888
 20
286.2672781649007
 30
0.0
 10
150.2726954492415
 20
295.2274212368728
 30
0.0
  0
LINE
  5
11B
330
1F
100
AcDbEntity
  8
0
  6
Continuous
 62
     7
370
    15
100
AcDbLine
 10
150.4535287591
 20
321.2274234422
 30
0.0
 11
162.2726939591
 21
321.2274234422
 31
0.0
  0
LINE
  5
11C
330
1F
100
AcDbEntity
  8
0
  6
Continuous
 62
     7
370
    15
100
AcDbLine
 10
237.2726969394
 20
321.2274234422
 30
0.0
 11
249.0918621394
 21
321.2274234422
 31
0.0
  0
LWPOLYLINE
  5
11D
330
1F
100
AcDbEntity
  8
0
  6
Continuous
 62
     7
370
    15
100
AcDbPolyline
 90
       19
 70
   128
 43
0.0
 10
192.0945624794
 20
373.2274170645
 10
191.9511038783
 20
373.0959590205
 10
191.815337536
 20
372.9715641268
 10
191.6873970973
 20
372.8543217906
 10
191.5674101534
 20
372.7443810233
 10
191.4554931196
 20
372.6418163308
 10
191.351755892
 20
372.5467618235
 10
191.256300916
 20
372.4592920073
 10
191.1692231866
 20
372.3795111903
 10
191.0906065228
 20
372.3074640759
 10
191.0205291557
 20
372.2432549723
 10
190.9590600031
 20
372.186928583
 10
190.9062596011
 20
372.1385445126
 10
190.8621791723
 20
372.0981474646
 10
190.8268634203
 20
372.0657821425
 10
190.8003458726
 20
372.0414932498
 10
190.7826526063
 20
372.0252807864
 10
190.7738022479
 20
372.0171745547
 10
190.7726958367
 20
372.0161463746
  0
LWPOLYLINE
  5
11E
330
1F
100
AcDbEntity
  8
0
  6
Continuous
 62
     7
370
    15
100
AcDbPolyline
 90
       10
 70
   128
 43
0.0
 10
192.0945624794
 20
373.2274170645
 10
192.2206095392
 20
376.1143680342
 10
192.3518729369
 20
379.1208114156
 10
192.4882627996
 20
382.2446461447
 10
192.6296845982
 20
385.4837264546
 10
192.7760405439
 20
388.8358320721
 10
192.927229588
 20
392.2986384162
 10
193.0831469568
 20
395.8697314986
 10
193.2436855483
 20
399.546667529
 10
193.4087345349
 20
403.3269133099
  0
ELLIPSE
  5
11F
330
1F
100
AcDbEntity
  8
0
  6
Continuous
 62
     7
370
    15
100
AcDbEllipse
 10
199.7726954492
 20
549.0855793597
 30
0.0
 11
0.0
 21
206.1338899358803
 31
0.0
210
0.0
220
0.0
230
1.0
 40
0.0436609429
 41
2.356194490192345
 42
2.592744264804702
  0
ELLIPSE
  5
120
330
1F
100
AcDbEntity
  8
0
  6
Continuous
 62
     7
370
    15
100
AcDbEllipse
 10
199.7726954492
 20
380.2631338647
 30
0.0
 11
9.000000000000028
 21
0.0
 31
0.0
210
0.0
220
0.0
230
1.0
 40
0.916331174
 41
4.163540591599615
 42
5.261237369169796
  0
ELLIPSE
  5
121
330
1F
100
AcDbEntity
  8
0
  6
Continuous
 62
     7
370
    15
100
AcDbEllipse
 10
199.7726954492
 20
549.0855793597
 30
0.0
 11
0.0
 21
206.1338899358803
 31
0.0
210
0.0
220
0.0
230
1.0
 40
0.0436609429
 41
3.690441042375125
 42
3.926990816987401
  0
LWPOLYLINE
  5
122
330
1F
100
AcDbEntity
  8
0
  6
Continuous
 62
     7
370
    15
100
AcDbPolyline
 90
       10
 70
   128
 43
0.0
 10
206.1366563636
 20
403.3269133099
 10
206.3017053502
 20
399.546667529
 10
206.4622439417
 20
395.8697314986
 10
206.6181613105
 20
392.2986384162
 10
206.7693503546
 20
388.8358320721
 10
206.9157063002
 20
385.4837264546
 10
207.0571280989
 20
382.2446461447
 10
207.1935179616
 20
379.1208114156
 10
207.3247813592
 20
376.1143680342
 10
207.4508284191
 20
373.2274170645
  0
LWPOLYLINE
  5
123
330
1F
100
AcDbEntity
  8
0
  6
Continuous
 62
     7
370
    15
100
AcDbPolyline
 90
       19
 70
   128
 43
0.0
 10
208.7726950618
 20
372.0161463746
 10
208.7715886506
 20
372.0171745547
 10
208.7627382922
 20
372.0252807864
 10
208.7450450259
 20
372.0414932498
 10
208.7185274782
 20
372.0657821425
 10
208.6832117262
 20
372.0981474646
 10
208.6391312974
 20
372.1385445126
 10
208.5863308954
 20
372.186928583
 10
208.5248617428
 20
372.2432549723
 10
208.4547843757
 20
372.3074640759
 10
208.3761677119
 20
372.3795111903
 10
208.2890899825
 20
372.4592920073
 10
208.1936350065
 20
372.5467618235
 10
208.0898977789
 20
372.6418163308
 10
207.9779807451
 20
372.7443810233
 10
207.8579938012
 20
372.8543217906
 10
207.7300533625
 20
372.9715641268
 10
207.5942870202
 20
373.0959590205
 10
207.4508284191
 20
373.2274170645
  0
LINE
  5
124
330
1F
100
AcDbEntity
  8
0
  6
Continuous
 62
     7
370
    15
100
AcDbLine
 10
195.0773493359
 20
373.2274170645
 30
0.0
 11
204.4680415625
 21
373.2274170645
 31
0.0
  0
LINE
  5
125
330
1F
100
AcDbEntity
  8
0
  6
Continuous
 62
     7
370
    15
100
AcDbLine
 10
193.4087345349
 20
403.3269133099
 30
0.0
 11
193.6226956519
 21
408.2274283894
 31
0.0
  0
LINE
  5
126
330
1F
100
AcDbEntity
  8
0
  6
Continuous
 62
     7
370
    15
100
AcDbLine
 10
193.6226956519
 20
408.2274283894
 30
0.0
 11
205.9226952466
 21
408.2274283894
 31
0.0
  0
LINE
  5
127
330
1F
100
AcDbEntity
  8
0
  6
Continuous
 62
     7
370
    15
100
AcDbLine
 10
206.1366563636
 20
403.3269133099
 30
0.0
 11
205.9226952466
 21
408.2274283894
 31
0.0
  0
LINE
  5
128
330
1F
100
AcDbEntity
  8
0
  6
Continuous
 62
     7
370
    15
100
AcDbLine
 10
249.7726961943
 20
295.2274229058
 30
0.0
 11
247.8516124162
 21
251.2274212816
 31
0.0
  0
LINE
  5
129
330
1F
100
AcDbEntity
  8
0
  6
Continuous
 62
     7
370
    15
100
AcDbLine
 10
249.7726961943
 20
295.2274229058
 30
0.0
 11
249.272695181
 21
295.2274229058
 31
0.0
  0
LINE
  5
12A
330
1F
100
AcDbEntity
  8
0
  6
Continuous
 62
     7
370
    15
100
AcDbLine
 10
149.7726947042
 20
295.2274229058
 30
0.0
 11
151.6937784823
 21
251.2274212816
 31
0.0
  0
LINE
  5
12B
330
1F
100
AcDbEntity
  8
0
  6
Continuous
 62
     7
370
    15
100
AcDbLine
 10
149.7726947042
 20
295.2274229058
 30
0.0
 11
150.2726957175
 21
295.2274229058
 31
0.0
  0
LINE
  5
12C
330
1F
100
AcDbEntity
  8
0
  6
Continuous
 62
     7
370
    15
100
AcDbLine
 10
167.077867684
 20
205.2274211922
 30
0.0
 11
232.4675232145
 21
205.2274211922
 31
0.0
  0
SPLINE
  5
12D
330
1F
100
AcDbEntity
  8
0
  6
Continuous
 62
     7
370
    15
100
AcDbSpline
210
0.0
220
0.0
230
1.0
 70
     8
 71
     3
 72
     8
 73
     4
 74
     0
 42
0.00000001
 43
0.00000001
 12
1.0
 22
0.0
 32
0.0
 13
1.0
 23
0.0
 33
0.0
 40
0.0
 40
0.0
 40
0.0
 40
0.0
 40
0.00426344474639
 40
0.00426344474639
 40
0.00426344474639
 40
0.00426344474639
 10
224.4897234459154
 20
364.2274212368728
 30
0.0
 10
223.6157027146784
 20
365.2279774289722
 30
0.0
 10
222.7412653037873
 20
366.2280487765417
 30
0.0
 10
221.8662294342698
 20
367.2274212368728
 30
0.0
  0
LINE
  5
12E
330
1F
100
AcDbEntity
  8
0
  6
Continuous
 62
     7
370
    15
100
AcDbLine
 10
224.4897227707
 20
361.2274225482
 30
0.0
 11
224.4897227707
 21
364.2274286278
 31
0.0
  0
LINE
  5
12F
330
1F
100
AcDbEntity
  8
0
  6
Continuous
 62
     7
370
    15
100
AcDbLine
 10
224.4897227707
 20
361.2274225482
 30
0.0
 11
221.6473076465
 21
361.2274225482
 31
0.0
  0
LINE
  5
130
330
1F
100
AcDbEntity
  8
0
  6
Continuous
 62
     7
370
    15
100
AcDbLine
 10
221.6473076465
 20
361.2274225482
 30
0.0
 11
221.6473076465
 21
355.22742529
 31
0.0
  0
LINE
  5
131
330
1F
100
AcDbEntity
  8
0
  6
Continuous
 62
     7
370
    15
100
AcDbLine
 10
221.6473076465
 20
355.22742529
 30
0.0
 11
224.4897227707
 21
355.22742529
 31
0.0
  0
LINE
  5
132
330
1F
100
AcDbEntity
  8
0
  6
Continuous
 62
     7
370
    15
100
AcDbLine
 10
224.4897227707
 20
336.2274240383
 30
0.0
 11
224.4897227707
 21
355.22742529
 31
0.0
  0
LINE
  5
133
330
1F
100
AcDbEntity
  8
0
  6
Continuous
 62
     7
370
    15
100
AcDbLine
 10
217.7726946744
 20
367.2274198064
 30
0.0
 11
221.8662299188
 21
367.2274198064
 31
0.0
  0
LINE
  5
134
330
1F
100
AcDbEntity
  8
0
  6
Continuous
 62
     7
370
    15
100
AcDbLine
 10
175.0556681278
 20
355.22742529
 30
0.0
 11
177.898083252
 21
355.22742529
 31
0.0
  0
LINE
  5
135
330
1F
100
AcDbEntity
  8
0
  6
Continuous
 62
     7
370
    15
100
AcDbLine
 10
177.898083252
 20
355.22742529
 30
0.0
 11
177.898083252
 21
361.2274225482
 31
0.0
  0
LINE
  5
136
330
1F
100
AcDbEntity
  8
0
  6
Continuous
 62
     7
370
    15
100
AcDbLine
 10
177.898083252
 20
361.2274225482
 30
0.0
 11
175.0556681278
 21
361.2274225482
 31
0.0
  0
LINE
  5
137
330
1F
100
AcDbEntity
  8
0
  6
Continuous
 62
     7
370
    15
100
AcDbLine
 10
175.0556681278
 20
361.2274225482
 30
0.0
 11
175.0556681278
 21
364.2274286278
 31
0.0
  0
SPLINE
  5
138
330
1F
100
AcDbEntity
  8
0
  6
Continuous
 62
     7
370
    15
100
AcDbSpline
210
0.0
220
0.0
230
1.0
 70
     8
 71
     3
 72
     8
 73
     4
 74
     0
 42
0.00000001
 43
0.00000001
 12
1.0
 22
0.0
 32
0.0
 13
1.0
 23
0.0
 33
0.0
 40
0.0
 40
0.0
 40
0.0
 40
0.0
 40
0.00426344474639
 40
0.00426344474639
 40
0.00426344474639
 40
0.00426344474639
 10
177.6791614642132
 20
367.2274212368728
 30
0.0
 10
176.8041255946958
 20
366.2280487765417
 30
0.0
 10
175.9296881838047
 20
365.2279774289722
 30
0.0
 10
175.0556674525677
 20
364.2274212368728
 30
0.0
  0
LINE
  5
139
330
1F
100
AcDbEntity
  8
0
  6
Continuous
 62
     7
370
    15
100
AcDbLine
 10
175.0556681278
 20
336.2274240383
 30
0.0
 11
175.0556681278
 21
355.22742529
 31
0.0
  0
LINE
  5
13A
330
1F
100
AcDbEntity
  8
0
  6
Continuous
 62
     7
370
    15
100
AcDbLine
 10
177.6791609796
 20
367.2274198064
 30
0.0
 11
181.7726962241
 21
367.2274198064
 31
0.0
  0
SPLINE
  5
13B
330
1F
100
AcDbEntity
  8
0
  6
Continuous
 62
     8
370
     0
100
AcDbSpline
210
0.0
220
0.0
230
1.0
 70
     8
 71
     3
 72
    28
 73
    24
 74
     0
 42
0.00000001
 43
0.00000001
 12
1.0
 22
0.0
 32
0.0
 13
1.0
 23
0.0
 33
0.0
 40
0.0
 40
0.0
 40
0.0
 40
0.0
 40
0.0271055559872371
 40
0.0544907099977543
 40
0.0821681384139531
 40
0.1101501203656216
 40
0.1384485384953752
 40
0.1670748813566888
 40
0.1960402472709994
 40
0.2253553494726666
 40
0.2550305223755964
 40
0.3814310557906738
 40
0.5075567953912432
 40
0.5608241534909982
 40
0.6130151784519172
 40
0.6641917024005877
 40
0.7144193042751517
 40
0.7637673462466682
 40
0.8123089611010998
 40
0.8601209822775487
 40
0.9072838091168437
 40
0.9538812014506522
 40
1.0
 40
1.0
 40
1.0
 40
1.0
 10
174.3500140550846
 20
234.5279139320871
 30
0.0
 10
174.4022698379383
 20
234.6246168496189
 30
0.0
 10
174.5073204301686
 20
234.8190201903085
 30
0.0
 10
174.6729578943327
 20
235.1044336928315
 30
0.0
 10
174.8456928747382
 20
235.3871708328439
 30
0.0
 10
175.0262448878208
 20
235.6666697469919
 30
0.0
 10
175.2146661214618
 20
235.9430836743848
 30
0.0
 10
175.4111948092007
 20
236.2163712488806
 30
0.0
 10
175.6160201954287
 20
236.4865436870544
 30
0.0
 10
175.8293546208816
 20
236.7535995639491
 30
0.0
 10
176.2916613369155
 20
237.3031682181814
 30
0.0
 10
177.0462308444347
 20
238.0874422397982
 30
0.0
 10
177.953817075001
 20
238.8376991839711
 30
0.0
 10
178.6880847538618
 20
239.3504383474767
 30
0.0
 10
179.2035566540964
 20
239.6741076187646
 30
0.0
 10
179.7272792434631
 20
239.9673164341013
 30
0.0
 10
180.2588662692731
 20
240.2301040550898
 30
0.0
 10
180.7979328002431
 20
240.4624678429851
 30
0.0
 10
181.3441182872272
 20
240.664347301546
 30
0.0
 10
181.8969741150082
 20
240.8359447741898
 30
0.0
 10
182.4563818767681
 20
240.9764870800852
 30
0.0
 10
183.0210213808405
 20
241.0887752367275
 30
0.0
 10
183.4047344174346
 20
241.1381439990221
 30
0.0
 10
183.5956005872683
 20
241.162700961309
 30
0.0
  0
LINE
  5
13C
330
1F
100
AcDbEntity
  8
0
  6
Continuous
 62
     8
370
     0
100
AcDbLine
 10
223.6158404472
 20
220.4089831241
 30
0.0
 11
191.5103973793
 21
220.4089831241
 31
0.0
  0
LINE
  5
13D
330
1F
100
AcDbEntity
  8
0
  6
Continuous
 62
     8
370
     0
100
AcDbLine
 10
231.4295493039
 20
250.959558008
 30
0.0
 11
231.4295493039
 21
205.4239134916
 31
0.0
  0
LINE
  5
13E
330
1F
100
AcDbEntity
  8
0
  6
Continuous
 62
     8
370
     0
100
AcDbLine
 10
228.6011226448
 20
246.843501521
 30
0.0
 11
228.6011226448
 21
206.6061306425
 31
0.0
  0
LINE
  5
13F
330
1F
100
AcDbEntity
  8
0
  6
Continuous
 62
     8
370
     0
100
AcDbLine
 10
168.1158415946
 20
250.959558008
 30
0.0
 11
168.1158415946
 21
205.4239134916
 31
0.0
  0
LINE
  5
140
330
1F
100
AcDbEntity
  8
0
  6
Continuous
 62
     8
370
     0
100
AcDbLine
 10
170.9442682537
 20
246.843501521
 30
0.0
 11
170.9442682537
 21
206.6061306425
 31
0.0
  0
LINE
  5
141
330
1F
100
AcDbEntity
  8
0
  6
Continuous
 62
     8
370
     0
100
AcDbLine
 10
226.4442689689
 20
239.9467887037
 30
0.0
 11
226.4442689689
 21
208.7859507331
 31
0.0
  0
LINE
  5
142
330
1F
100
AcDbEntity
  8
0
  6
Continuous
 62
     8
370
     0
100
AcDbLine
 10
173.1011219295
 20
239.9467887037
 30
0.0
 11
173.1011219295
 21
230.8952916094
 31
0.0
  0
LINE
  5
143
330
1F
100
AcDbEntity
  8
0
  6
Continuous
 62
     8
370
     0
100
AcDbLine
 10
173.1011219295
 20
225.5595508643
 30
0.0
 11
173.1011219295
 21
208.7859507331
 31
0.0
  0
LINE
  5
144
330
1F
100
AcDbEntity
  8
0
  6
Continuous
 62
     8
370
     0
100
AcDbLine
 10
175.9295504513
 20
209.9722843298
 30
0.0
 11
175.9295504513
 21
220.4089831241
 31
0.0
  0
LINE
  5
145
330
1F
100
AcDbEntity
  8
0
  6
Continuous
 62
     8
370
     0
100
AcDbLine
 10
223.6158404472
 20
209.9722843298
 30
0.0
 11
223.6158404472
 21
220.4089831241
 31
0.0
  0
LINE
  5
146
330
1F
100
AcDbEntity
  8
0
  6
Continuous
 62
     8
370
     0
100
AcDbLine
 10
176.0349929305
 20
220.4089831241
 30
0.0
 11
175.9295504513
 21
220.4089831241
 31
0.0
  0
LINE
  5
147
330
1F
100
AcDbEntity
  8
0
  6
Continuous
 62
     8
370
     0
100
AcDbLine
 10
162.2726939591
 20
321.2274234422
 30
0.0
 11
162.2726939591
 21
295.2274229058
 31
0.0
  0
LINE
  5
148
330
1F
100
AcDbEntity
  8
0
  6
Continuous
 62
     8
370
     0
100
AcDbLine
 10
237.2726969394
 20
321.2274234422
 30
0.0
 11
237.2726969394
 21
295.2274229058
 31
0.0
  0
INSERT
  5
154
330
1F
100
AcDbEntity
  8
FORMAT
100
AcDbBlockReference
  2
SW_CENTERMARKSYMBOL_0
 10
183.7726954492
 20
228.2274212369
 30
0.0
  0
LINE
  5
155
330
1F
100
AcDbEntity
  8
FORMAT
  6
CENTERX2
370
     0
100
AcDbLine
 10
265.1804983122
 20
228.2274212369
 30
0.0
 11
135.6667251834
 21
228.2274212369
 31
0.0
  0
LINE
  5
156
330
1F
100
AcDbEntity
  8
FORMAT
  6
CENTERX2
370
     0
100
AcDbLine
 10
199.7726954492
 20
200.8316203742
 30
0.0
 11
199.7726954492
 21
412.0386965536
 31
0.0
  0
LINE
  5
157
330
1F
100
AcDbEntity
  8
0
  6
Continuous
 62
     7
370
    15
100
AcDbLine
 10
414.2197197671
 20
295.2274229058
 30
0.0
 11
415.5287988851
 21
265.2445878514
 31
0.0
  0
LINE
  5
158
330
1F
100
AcDbEntity
  8
0
  6
Continuous
 62
     7
370
    15
100
AcDbLine
 10
437.9106410215
 20
265.2445878514
 30
0.0
 11
439.2197201396
 21
295.2274229058
 31
0.0
  0
LINE
  5
159
330
1F
100
AcDbEntity
  8
0
  6
Continuous
 62
     7
370
    15
100
AcDbLine
 10
395.7764063398
 20
308.5730667838
 30
0.0
 11
392.7197181056
 21
306.8082850107
 31
0.0
  0
LINE
  5
15A
330
1F
100
AcDbEntity
  8
0
  6
Continuous
 62
     7
370
    15
100
AcDbLine
 10
460.7197218011
 20
306.8082850107
 30
0.0
 11
457.6630335669
 21
308.5730667838
 31
0.0
  0
ARC
  5
15B
330
1F
100
AcDbEntity
  8
0
  6
Continuous
 62
     7
370
    15
100
AcDbCircle
 10
441.7197199533
 20
307.2274212369
 30
0.0
 40
16.00000000000002
100
AcDbArc
 50
4.8244358216
 51
40.03737313
  0
ARC
  5
15C
330
1F
100
AcDbEntity
  8
0
  6
Continuous
 62
     7
370
    15
100
AcDbCircle
 10
411.7197199533
 20
307.2274212369
 30
0.0
 40
16.00000000000002
100
AcDbArc
 50
139.96262687
 51
175.1755641784
  0
LINE
  5
15D
330
1F
100
AcDbEntity
  8
0
  6
Continuous
 62
     7
370
    15
100
AcDbLine
 10
453.9697192977
 20
317.5200145372
 30
0.0
 11
453.9697192977
 21
336.2274240383
 31
0.0
  0
LINE
  5
15E
330
1F
100
AcDbEntity
  8
0
  6
Continuous
 62
     7
370
    15
100
AcDbLine
 10
399.469720609
 20
336.2274240383
 30
0.0
 11
399.469720609
 21
317.5200145372
 31
0.0
  0
LINE
  5
15F
330
1F
100
AcDbEntity
  8
0
  6
Continuous
 62
     7
370
    15
100
AcDbLine
 10
446.9269797573
 20
217.2274212965
 30
0.0
 11
454.7197208176
 21
217.2274212965
 31
0.0
  0
LINE
  5
160
330
1F
100
AcDbEntity
  8
0
  6
Continuous
 62
     7
370
    15
100
AcDbLine
 10
454.7197208176
 20
239.2274211773
 30
0.0
 11
452.2615954647
 21
239.2274211773
 31
0.0
  0
LINE
  5
161
330
1F
100
AcDbEntity
  8
0
  6
Continuous
 62
     7
370
    15
100
AcDbLine
 10
407.7463601152
 20
344.933814896
 30
0.0
 11
402.7197197447
 21
336.2274240383
 31
0.0
  0
LINE
  5
162
330
1F
100
AcDbEntity
  8
0
  6
Continuous
 62
     7
370
    15
100
AcDbLine
 10
408.7197207282
 20
367.2274198064
 30
0.0
 11
407.7463601152
 21
344.933814896
 31
0.0
  0
LINE
  5
163
330
1F
100
AcDbEntity
  8
0
  6
Continuous
 62
     7
370
    15
100
AcDbLine
 10
435.7197195659
 20
367.2274198064
 30
0.0
 11
435.7197195659
 21
372.0161463746
 31
0.0
  0
LINE
  5
164
330
1F
100
AcDbEntity
  8
0
  6
Continuous
 62
     7
370
    15
100
AcDbLine
 10
417.7197203408
 20
372.0161463746
 30
0.0
 11
417.7197203408
 21
367.2274198064
 31
0.0
  0
LINE
  5
165
330
1F
100
AcDbEntity
  8
0
  6
Continuous
 62
     7
370
    15
100
AcDbLine
 10
453.469720147
 20
364.2274286278
 30
0.0
 11
450.4697196553
 21
367.2274198064
 31
0.0
  0
LINE
  5
166
330
1F
100
AcDbEntity
  8
0
  6
Continuous
 62
     7
370
    15
100
AcDbLine
 10
453.469720147
 20
361.2274225482
 30
0.0
 11
453.469720147
 21
364.2274286278
 31
0.0
  0
LINE
  5
167
330
1F
100
AcDbEntity
  8
0
  6
Continuous
 62
     7
370
    15
100
AcDbLine
 10
453.469720147
 20
336.2274240383
 30
0.0
 11
453.469720147
 21
355.22742529
 31
0.0
  0
LINE
  5
168
330
1F
100
AcDbEntity
  8
0
  6
Continuous
 62
     7
370
    15
100
AcDbLine
 10
450.2197191487
 20
355.22742529
 30
0.0
 11
450.2197191487
 21
361.2274225482
 31
0.0
  0
LINE
  5
169
330
1F
100
AcDbEntity
  8
0
  6
Continuous
 62
     7
370
    15
100
AcDbLine
 10
413.4406637768
 20
205.2274211922
 30
0.0
 11
439.9987761299
 21
205.2274211922
 31
0.0
  0
LINE
  5
16A
330
1F
100
AcDbEntity
  8
0
  6
Continuous
 62
     7
370
    15
100
AcDbLine
 10
439.9987761299
 20
251.2274212816
 30
0.0
 11
413.4406637768
 21
251.2274212816
 31
0.0
  0
LINE
  5
16B
330
1F
100
AcDbEntity
  8
0
  6
Continuous
 62
     7
370
    15
100
AcDbLine
 10
453.2778323064
 20
228.2274212369
 30
0.0
 11
439.9987761299
 21
251.2274212816
 31
0.0
  0
LINE
  5
16C
330
1F
100
AcDbEntity
  8
0
  6
Continuous
 62
     7
370
    15
100
AcDbLine
 10
439.9987761299
 20
205.2274211922
 30
0.0
 11
453.2778323064
 21
228.2274212369
 31
0.0
  0
CIRCLE
  5
16D
330
1F
100
AcDbEntity
  8
0
  6
Continuous
 62
     7
370
    15
100
AcDbCircle
 10
426.7197199533
 20
228.2274212369
 30
0.0
 40
15.10000000000002
  0
LINE
  5
16E
330
1F
100
AcDbEntity
  8
0
  6
Continuous
 62
     7
370
    15
100
AcDbLine
 10
413.4406637768
 20
205.2274211922
 30
0.0
 11
400.1616076002
 21
228.2274212369
 31
0.0
  0
LINE
  5
16F
330
1F
100
AcDbEntity
  8
0
  6
Continuous
 62
     7
370
    15
100
AcDbLine
 10
400.1616076002
 20
228.2274212369
 30
0.0
 11
413.4406637768
 21
251.2274212816
 31
0.0
  0
LINE
  5
170
330
1F
100
AcDbEntity
  8
0
  6
Continuous
 62
     7
370
    15
100
AcDbLine
 10
414.900553822
 20
321.2274234422
 30
0.0
 11
414.2197197671
 21
295.2274229058
 31
0.0
  0
LINE
  5
171
330
1F
100
AcDbEntity
  8
0
  6
Continuous
 62
     7
370
    15
100
AcDbLine
 10
414.900553822
 20
321.2274234422
 30
0.0
 11
438.5388860846
 21
321.2274234422
 31
0.0
  0
LINE
  5
172
330
1F
100
AcDbEntity
  8
0
  6
Continuous
 62
     7
370
    15
100
AcDbLine
 10
438.5388860846
 20
321.2274234422
 30
0.0
 11
439.2197201396
 21
295.2274229058
 31
0.0
  0
LINE
  5
173
330
1F
100
AcDbEntity
  8
0
  6
Continuous
 62
     7
370
    15
100
AcDbLine
 10
430.2197200614
 20
295.2274229058
 30
0.0
 11
439.2197201396
 21
295.2274229058
 31
0.0
  0
LINE
  5
174
330
1F
100
AcDbEntity
  8
0
  6
Continuous
 62
     7
370
    15
100
AcDbLine
 10
423.2197198453
 20
295.2274229058
 30
0.0
 11
414.2197197671
 21
295.2274229058
 31
0.0
  0
LINE
  5
175
330
1F
100
AcDbEntity
  8
0
  6
Continuous
 62
     7
370
    15
100
AcDbLine
 10
430.2197200614
 20
295.2274229058
 30
0.0
 11
430.2197200614
 21
251.2274212816
 31
0.0
  0
LINE
  5
176
330
1F
100
AcDbEntity
  8
0
  6
Continuous
 62
     7
370
    15
100
AcDbLine
 10
430.2197200614
 20
295.2274229058
 30
0.0
 11
426.7197199533
 21
295.2274229058
 31
0.0
  0
LINE
  5
177
330
1F
100
AcDbEntity
  8
0
  6
Continuous
 62
     7
370
    15
100
AcDbLine
 10
423.2197198453
 20
295.2274229058
 30
0.0
 11
423.2197198453
 21
251.2274212816
 31
0.0
  0
LINE
  5
178
330
1F
100
AcDbEntity
  8
0
  6
Continuous
 62
     7
370
    15
100
AcDbLine
 10
426.7197199533
 20
295.2274229058
 30
0.0
 11
423.2197198453
 21
295.2274229058
 31
0.0
  0
SPLINE
  5
179
330
1F
100
AcDbEntity
  8
0
  6
Continuous
 62
     7
370
    15
100
AcDbSpline
210
0.0
220
0.0
230
1.0
 70
     8
 71
     3
 72
    16
 73
    12
 74
     0
 42
0.00000001
 43
0.00000001
 12
1.0
 22
0.0
 32
0.0
 13
1.0
 23
0.0
 33
0.0
 40
0.0
 40
0.0
 40
0.0
 40
0.0
 40
0.2499999999999999
 40
0.2499999999999999
 40
0.4999999999999999
 40
0.4999999999999999
 40
0.7499999999999998
 40
0.7499999999999998
 40
0.8749999999999999
 40
0.8749999999999999
 40
1.0
 40
1.0
 40
1.0
 40
1.0
 10
423.2197199533255
 20
268.3472391060632
 30
0.0
 10
422.7297754259456
 20
268.0440191190618
 30
0.0
 10
422.2392001180103
 20
267.749067023435
 30
0.0
 10
421.2853161968744
 20
267.2030687033901
 30
0.0
 10
420.8193363967972
 20
266.9501059732683
 30
0.0
 10
419.908162370544
 20
266.4988549268218
 30
0.0
 10
419.4605359937568
 20
266.2998688315808
 30
0.0
 10
418.8296032501285
 20
266.0717403950094
 30
0.0
 10
418.6250903328236
 20
266.006968410507
 30
0.0
 10
418.2278243084789
 20
265.9043009419715
 30
0.0
 10
418.0338296605433
 20
265.8662630899865
 30
0.0
 10
417.8491267416335
 20
265.8452535618511
 30
0.0
  0
ELLIPSE
  5
17A
330
1F
100
AcDbEntity
  8
0
  6
Continuous
 62
     7
370
    15
100
AcDbEllipse
 10
426.7197199533
 20
265.2483282079
 30
0.0
 11
11.19100288506769
 21
0.0
 31
0.0
210
0.0
220
0.0
230
1.0
 40
0.0874893018
 41
2.485946252038935
 42
3.893097168254692
  0
ELLIPSE
  5
17B
330
1F
100
AcDbEntity
  8
0
  6
Continuous
 62
     7
370
    15
100
AcDbEllipse
 10
426.7197199533
 20
265.2483282079
 30
0.0
 11
11.19100288506769
 21
0.0
 31
0.0
210
0.0
220
0.0
230
1.0
 40
0.0874893018
 41
5.531680792514828
 42
6.938831708730473
  0
SPLINE
  5
17C
330
1F
100
AcDbEntity
  8
0
  6
Continuous
 62
     7
370
    15
100
AcDbSpline
210
0.0
220
0.0
230
1.0
 70
     8
 71
     3
 72
    16
 73
    12
 74
     0
 42
0.00000001
 43
0.00000001
 12
1.0
 22
0.0
 32
0.0
 13
1.0
 23
0.0
 33
0.0
 40
0.0
 40
0.0
 40
0.0
 40
0.0
 40
0.2499999999999999
 40
0.2499999999999999
 40
0.4999999999999999
 40
0.4999999999999999
 40
0.7499999999999998
 40
0.7499999999999998
 40
0.8749999999999999
 40
0.8749999999999999
 40
1.0
 40
1.0
 40
1.0
 40
1.0
 10
430.2197199533255
 20
268.3472391060632
 30
0.0
 10
430.7096644807053
 20
268.0440191190618
 30
0.0
 10
431.2002397886407
 20
267.749067023435
 30
0.0
 10
432.1541237097765
 20
267.2030687033901
 30
0.0
 10
432.6201035098537
 20
266.9501059732683
 30
0.0
 10
433.5312775361069
 20
266.4988549268218
 30
0.0
 10
433.9789039128941
 20
266.2998688315808
 30
0.0
 10
434.6098366565224
 20
266.0717403950094
 30
0.0
 10
434.8143495738274
 20
266.006968410507
 30
0.0
 10
435.211615598172
 20
265.9043009419715
 30
0.0
 10
435.4056102461076
 20
265.8662630899865
 30
0.0
 10
435.5903131650174
 20
265.8452535618511
 30
0.0
  0
ELLIPSE
  5
17D
330
1F
100
AcDbEntity
  8
0
  6
Continuous
 62
     7
370
    15
100
AcDbEllipse
 10
426.7197199533
 20
261.9637633493
 30
0.0
 11
31.0
 21
0.0
 31
0.0
210
0.0
220
0.0
230
1.0
 40
0.0874886635
 41
1.683940804559624
 42
1.837724071741869
  0
ELLIPSE
  5
17E
330
1F
100
AcDbEntity
  8
0
  6
Continuous
 62
     7
370
    15
100
AcDbEllipse
 10
426.7197199533
 20
261.9637633493
 30
0.0
 11
31.0
 21
0.0
 31
0.0
210
0.0
220
0.0
230
1.0
 40
0.0874886635
 41
1.303868581847914
 42
1.457651849030164
  0
CIRCLE
  5
17F
330
1F
100
AcDbEntity
  8
0
  6
Continuous
 62
     7
370
    15
100
AcDbCircle
 10
426.7197199533
 20
228.2274212369
 30
0.0
 40
12.76563307093937
  0
LINE
  5
180
330
1F
100
AcDbEntity
  8
0
  6
Continuous
 62
     7
370
    15
100
AcDbLine
 10
393.1563295791
 20
285.2274212667
 30
0.0
 11
414.656329378
 21
285.2274212667
 31
0.0
  0
LINE
  5
181
330
1F
100
AcDbEntity
  8
0
  6
Continuous
 62
     7
370
    15
100
AcDbLine
 10
393.1563295791
 20
285.2274212667
 30
0.0
 11
392.7197181056
 21
295.2274229058
 31
0.0
  0
LINE
  5
182
330
1F
100
AcDbEntity
  8
0
  6
Continuous
 62
     7
370
    15
100
AcDbLine
 10
392.7197181056
 20
295.2274229058
 30
0.0
 11
414.2197197671
 21
295.2274229058
 31
0.0
  0
LINE
  5
183
330
1F
100
AcDbEntity
  8
0
  6
Continuous
 62
     7
370
    15
100
AcDbLine
 10
439.2197201396
 20
295.2274229058
 30
0.0
 11
460.7197218011
 21
295.2274229058
 31
0.0
  0
LINE
  5
184
330
1F
100
AcDbEntity
  8
0
  6
Continuous
 62
     7
370
    15
100
AcDbLine
 10
460.2831103275
 20
285.2274212667
 30
0.0
 11
460.7197218011
 21
295.2274229058
 31
0.0
  0
LINE
  5
185
330
1F
100
AcDbEntity
  8
0
  6
Continuous
 62
     7
370
    15
100
AcDbLine
 10
460.2831103275
 20
285.2274212667
 30
0.0
 11
438.7831105287
 21
285.2274212667
 31
0.0
  0
SPLINE
  5
186
330
1F
100
AcDbEntity
  8
0
  6
Continuous
 62
     7
370
    15
100
AcDbSpline
210
0.0
220
0.0
230
1.0
 70
    24
 71
     3
 72
     8
 73
     4
 74
     0
 42
0.00000001
 43
0.00000001
 12
1.0
 22
0.0
 32
0.0
 13
1.0
 23
0.0
 33
0.0
 40
0.0
 40
0.0
 40
0.0
 40
0.0
 40
1.0
 40
1.0
 40
1.0
 40
1.0
 10
392.7197199533255
 20
295.2274212368728
 30
0.0
 10
392.7197199533255
 20
298.5610445290358
 30
0.0
 10
392.7197199533255
 20
301.8944457193161
 30
0.0
 10
392.7197199533255
 20
305.2274212368728
 30
0.0
  0
LINE
  5
187
330
1F
100
AcDbEntity
  8
0
  6
Continuous
 62
     7
370
    15
100
AcDbLine
 10
392.7197181056
 20
305.2274208196
 30
0.0
 11
414.481578804
 21
305.2274208196
 31
0.0
  0
LINE
  5
188
330
1F
100
AcDbEntity
  8
0
  6
Continuous
 62
     7
370
    15
100
AcDbLine
 10
438.9578611026
 20
305.2274208196
 30
0.0
 11
460.7197218011
 21
305.2274208196
 31
0.0
  0
SPLINE
  5
189
330
1F
100
AcDbEntity
  8
0
  6
Continuous
 62
     7
370
    15
100
AcDbSpline
210
0.0
220
0.0
230
1.0
 70
    24
 71
     3
 72
     8
 73
     4
 74
     0
 42
0.00000001
 43
0.00000001
 12
1.0
 22
0.0
 32
0.0
 13
1.0
 23
0.0
 33
0.0
 40
0.0
 40
0.0
 40
0.0
 40
0.0
 40
1.0
 40
1.0
 40
1.0
 40
1.0
 10
460.7197199533255
 20
305.2274212368728
 30
0.0
 10
460.7197199533255
 20
301.8944457193161
 30
0.0
 10
460.7197199533255
 20
298.5610445290358
 30
0.0
 10
460.7197199533255
 20
295.2274212368728
 30
0.0
  0
SPLINE
  5
18A
330
1F
100
AcDbEntity
  8
0
  6
Continuous
 62
     7
370
    15
100
AcDbSpline
210
0.0
220
0.0
230
1.0
 70
    24
 71
     3
 72
    17
 73
    13
 74
     0
 42
0.00000001
 43
0.00000001
 12
1.0
 22
0.0
 32
0.0
 13
1.0
 23
0.0
 33
0.0
 40
0.0
 40
0.0
 40
0.0
 40
0.0
 40
0.0350412006293999
 40
0.1515230868442423
 40
0.2680356689451018
 40
0.3845424774660121
 40
0.5010163014714697
 40
0.6175506113599107
 40
0.734126743378417
 40
0.8506997043845641
 40
0.9672296613542734
 40
0.9999999999999999
 40
0.9999999999999999
 40
0.9999999999999999
 40
0.9999999999999999
 10
392.7197181055815
 20
305.2274208196403
 30
0.0
 10
392.7197181055815
 20
305.2621366521197
 30
0.0
 10
392.7197181055815
 20
305.4122528012575
 30
0.0
 10
392.7197181055815
 20
305.6589620165938
 30
0.0
 10
392.7197181055815
 20
305.9461478413513
 30
0.0
 10
392.7197181055815
 20
306.1953999116879
 30
0.0
 10
392.7197181055815
 20
306.4051508144486
 30
0.0
 10
392.7197181055815
 20
306.5727406947576
 30
0.0
 10
392.7197181055815
 20
306.6980674312647
 30
0.0
 10
392.7197181055815
 20
306.7766400224647
 30
0.0
 10
392.7197181055815
 20
306.8100821281661
 30
0.0
 10
392.7197181055815
 20
306.805669763636
 30
0.0
 10
392.7197181055815
 20
306.8047012814284
 30
0.0
  0
LINE
  5
18B
330
1F
100
AcDbEntity
  8
0
  6
Continuous
 62
     7
370
    15
100
AcDbLine
 10
395.7764063398
 20
308.5730667838
 30
0.0
 11
414.5691883186
 21
308.5730667838
 31
0.0
  0
SPLINE
  5
18C
330
1F
100
AcDbEntity
  8
0
  6
Continuous
 62
     7
370
    15
100
AcDbSpline
210
0.0
220
0.0
230
1.0
 70
    24
 71
     3
 72
    18
 73
    14
 74
     0
 42
0.00000001
 43
0.00000001
 12
1.0
 22
0.0
 32
0.0
 13
1.0
 23
0.0
 33
0.0
 40
0.0
 40
0.0
 40
0.0
 40
0.0
 40
0.0120671916109594
 40
0.1283962065062882
 40
0.2447682773300247
 40
0.3611432501374288
 40
0.4774763045567703
 40
0.5749505315473948
 40
0.6724524307648343
 40
0.7699678614823752
 40
0.8674777599537963
 40
0.9649588719233434
 40
0.9999999999999999
 40
0.9999999999999999
 40
0.9999999999999999
 40
0.9999999999999999
 10
460.7197218010695
 20
306.806169045806
 30
0.0
 10
460.7197218010695
 20
306.806861552417
 30
0.0
 10
460.7197218010695
 20
306.8142298966593
 30
0.0
 10
460.7197218010695
 20
306.7851179439918
 30
0.0
 10
460.7197218010695
 20
306.7162626467642
 30
0.0
 10
460.7197218010695
 20
306.598726911672
 30
0.0
 10
460.7197218010695
 20
306.4479174476196
 30
0.0
 10
460.7197218010695
 20
306.2708737470427
 30
0.0
 10
460.7197218010695
 20
306.07631350708
 30
0.0
 10
460.7197218010695
 20
305.8546954482571
 30
0.0
 10
460.7197218010695
 20
305.6069989605998
 30
0.0
 10
460.7197218010695
 20
305.3934428086121
 30
0.0
 10
460.7197218010695
 20
305.2621396119652
 30
0.0
 10
460.7197218010695
 20
305.2274208196403
 30
0.0
  0
LINE
  5
18D
330
1F
100
AcDbEntity
  8
0
  6
Continuous
 62
     7
370
    15
100
AcDbLine
 10
438.870251588
 20
308.5730667838
 30
0.0
 11
457.6630335669
 21
308.5730667838
 31
0.0
  0
SPLINE
  5
18E
330
1F
100
AcDbEntity
  8
0
  6
Continuous
 62
     7
370
    15
100
AcDbSpline
210
0.0
220
0.0
230
1.0
 70
    24
 71
     3
 72
     8
 73
     4
 74
     0
 42
0.00000001
 43
0.00000001
 12
1.0
 22
0.0
 32
0.0
 13
1.0
 23
0.0
 33
0.0
 40
0.0
 40
0.0
 40
0.0
 40
0.0
 40
1.0
 40
1.0
 40
1.0
 40
1.0
 10
398.7197199533255
 20
283.7367152262173
 30
0.0
 10
396.8691224560946
 20
284.2325813311153
 30
0.0
 10
395.0140497793096
 20
284.7296465567609
 30
0.0
 10
393.1563293824106
 20
285.2274212368728
 30
0.0
  0
LINE
  5
18F
330
1F
100
AcDbEntity
  8
0
  6
Continuous
 62
     7
370
    15
100
AcDbLine
 10
398.7197190891
 20
283.7367165514
 30
0.0
 11
414.7214148561
 21
283.7367165514
 31
0.0
  0
SPLINE
  5
190
330
1F
100
AcDbEntity
  8
0
  6
Continuous
 62
     7
370
    15
100
AcDbSpline
210
0.0
220
0.0
230
1.0
 70
    24
 71
     3
 72
     8
 73
     4
 74
     0
 42
0.00000001
 43
0.00000001
 12
1.0
 22
0.0
 32
0.0
 13
1.0
 23
0.0
 33
0.0
 40
0.0
 40
0.0
 40
0.0
 40
0.0
 40
1.0
 40
1.0
 40
1.0
 40
1.0
 10
454.7197199533255
 20
283.7367152262173
 30
0.0
 10
456.5703174505563
 20
284.2325813311153
 30
0.0
 10
458.4253901273413
 20
284.7296465567609
 30
0.0
 10
460.2831105242403
 20
285.2274212368728
 30
0.0
  0
LINE
  5
191
330
1F
100
AcDbEntity
  8
0
  6
Continuous
 62
     7
370
    15
100
AcDbLine
 10
454.7197208176
 20
283.7367165514
 30
0.0
 11
438.7180250505
 21
283.7367165514
 31
0.0
  0
LWPOLYLINE
  5
192
330
1F
100
AcDbEntity
  8
0
  6
Continuous
 62
     7
370
    15
100
AcDbPolyline
 90
       12
 70
   128
 43
0.0
 10
403.5605736444
 20
234.1176411749
 10
403.2113314042
 20
234.8665940256
 10
402.681257985
 20
236.0033379548
 10
402.168253846
 20
237.1034795099
 10
401.6726822028
 20
238.1662377768
 10
401.1948950956
 20
239.1908565217
 10
400.735229663
 20
240.1766102442
 10
400.2940155933
 20
241.1227976584
 10
399.8715639482
 20
242.0287482121
 10
399.4681764761
 20
242.8938174301
 10
399.0841362993
 20
243.7173915707
 10
398.7197190891
 20
244.4988857635
  0
LINE
  5
193
330
1F
100
AcDbEntity
  8
0
  6
Continuous
 62
     7
370
    15
100
AcDbLine
 10
398.7197190891
 20
244.4988857635
 30
0.0
 11
398.7197190891
 21
283.7367165514
 31
0.0
  0
LINE
  5
194
330
1F
100
AcDbEntity
  8
0
  6
Continuous
 62
     7
370
    15
100
AcDbLine
 10
454.7197208176
 20
244.4988857635
 30
0.0
 11
454.7197208176
 21
283.7367165514
 31
0.0
  0
LWPOLYLINE
  5
195
330
1F
100
AcDbEntity
  8
0
  6
Continuous
 62
     7
370
    15
100
AcDbPolyline
 90
        5
 70
   128
 43
0.0
 10
453.1640321384
 20
241.1627011054
 10
453.581221811
 20
242.0573696175
 10
453.9797496418
 20
242.9120145419
 10
454.3593362341
 20
243.7260416948
 10
454.7197208176
 20
244.4988857635
  0
LINE
  5
196
330
1F
100
AcDbEntity
  8
0
  6
Continuous
 62
     7
370
    15
100
AcDbLine
 10
453.9697192977
 20
317.5200145372
 30
0.0
 11
438.6359680811
 21
317.5200145372
 31
0.0
  0
LINE
  5
197
330
1F
100
AcDbEntity
  8
0
  6
Continuous
 62
     7
370
    15
100
AcDbLine
 10
414.8034718255
 20
317.5200145372
 30
0.0
 11
399.469720609
 21
317.5200145372
 31
0.0
  0
CIRCLE
  5
198
330
1F
100
AcDbEntity
  8
0
  6
Continuous
 62
     7
370
    15
100
AcDbCircle
 10
426.7197199533
 20
228.2274212369
 30
0.0
 40
12.5
  0
LINE
  5
199
330
1F
100
AcDbEntity
  8
0
  6
Continuous
 62
     7
370
    15
100
AcDbLine
 10
453.9697192977
 20
336.2274240383
 30
0.0
 11
399.469720609
 21
336.2274240383
 31
0.0
  0
LINE
  5
19A
330
1F
100
AcDbEntity
  8
0
  6
Continuous
 62
     7
370
    15
100
AcDbLine
 10
454.7197208176
 20
239.2274211773
 30
0.0
 11
454.7197208176
 21
217.2274212965
 31
0.0
  0
SPLINE
  5
19B
330
1F
100
AcDbEntity
  8
0
  6
Continuous
 62
     7
370
    15
100
AcDbSpline
210
0.0
220
0.0
230
1.0
 70
     8
 71
     3
 72
    19
 73
    15
 74
     0
 42
0.00000001
 43
0.00000001
 12
1.0
 22
0.0
 32
0.0
 13
1.0
 23
0.0
 33
0.0
 40
0.0
 40
0.0
 40
0.0
 40
0.0
 40
0.0560467050173549
 40
0.1164167170013401
 40
0.181134576393425
 40
0.2501961894553551
 40
0.3576664284704786
 40
0.500052977966831
 40
0.6526031870672198
 40
0.7499927380657949
 40
0.8251347586365282
 40
0.8917565428016816
 40
0.9499687355928256
 40
1.0
 40
1.0
 40
1.0
 40
1.0
 10
451.79582016537
 20
238.2285623926747
 30
0.0
 10
451.8156575388354
 20
238.2710225465933
 30
0.0
 10
451.8568624926689
 20
238.3592181277795
 30
0.0
 10
451.9238977552018
 20
238.5026544028816
 30
0.0
 10
451.9976560493508
 20
238.6610507548981
 30
0.0
 10
452.0920597879311
 20
238.8643021669686
 30
0.0
 10
452.2230664685127
 20
239.1424804123474
 30
0.0
 10
452.394641097697
 20
239.512073271342
 30
0.0
 10
452.5716089259834
 20
239.8972224093805
 30
0.0
 10
452.7318629555788
 20
240.2347479366287
 30
0.0
 10
452.8543702387239
 20
240.499843282393
 30
0.0
 10
452.9634002077523
 20
240.7347282110703
 30
0.0
 10
453.0647283237766
 20
240.9507901461926
 30
0.0
 10
453.1326412897489
 20
241.0957150087754
 30
0.0
 10
453.1640313769207
 20
241.1627008045614
 30
0.0
  0
LINE
  5
19C
330
1F
100
AcDbEntity
  8
0
  6
Continuous
 62
     7
370
    15
100
AcDbLine
 10
410.4286119709
 20
355.22742529
 30
0.0
 11
416.4907889808
 21
355.22742529
 31
0.0
  0
LINE
  5
19D
330
1F
100
AcDbEntity
  8
0
  6
Continuous
 62
     7
370
    15
100
AcDbLine
 10
416.4907889808
 20
336.2274240383
 30
0.0
 11
416.4907889808
 21
355.22742529
 31
0.0
  0
LINE
  5
19E
330
1F
100
AcDbEntity
  8
0
  6
Continuous
 62
     7
370
    15
100
AcDbLine
 10
410.4286119709
 20
336.2274240383
 30
0.0
 11
410.4286119709
 21
355.22742529
 31
0.0
  0
LINE
  5
19F
330
1F
100
AcDbEntity
  8
0
  6
Continuous
 62
     7
370
    15
100
AcDbLine
 10
411.9432861353
 20
367.2274198064
 30
0.0
 11
418.0054640765
 21
367.2274198064
 31
0.0
  0
SPLINE
  5
1A0
330
1F
100
AcDbEntity
  8
0
  6
Continuous
 62
     7
370
    15
100
AcDbSpline
210
0.0
220
0.0
230
1.0
 70
     8
 71
     3
 72
     8
 73
     4
 74
     0
 42
0.00000001
 43
0.00000001
 12
1.0
 22
0.0
 32
0.0
 13
1.0
 23
0.0
 33
0.0
 40
0.0
 40
0.0
 40
0.0
 40
0.0
 40
0.00426344474639
 40
0.00426344474639
 40
0.00426344474639
 40
0.00426344474639
 10
418.0054640440466
 20
367.2274212368728
 30
0.0
 10
417.5002618492301
 20
366.2280487765417
 30
0.0
 10
416.9954051746627
 20
365.2279774289722
 30
0.0
 10
416.4907890702057
 20
364.2274212368728
 30
0.0
  0
LINE
  5
1A1
330
1F
100
AcDbEntity
  8
0
  6
Continuous
 62
     7
370
    15
100
AcDbLine
 10
416.4907889808
 20
364.2274286278
 30
0.0
 11
410.4286119709
 21
364.2274286278
 31
0.0
  0
SPLINE
  5
1A2
330
1F
100
AcDbEntity
  8
0
  6
Continuous
 62
     7
370
    15
100
AcDbSpline
210
0.0
220
0.0
230
1.0
 70
     8
 71
     3
 72
     8
 73
     4
 74
     0
 42
0.00000001
 43
0.00000001
 12
1.0
 22
0.0
 32
0.0
 13
1.0
 23
0.0
 33
0.0
 40
0.0
 40
0.0
 40
0.0
 40
0.0
 40
0.00426344474639
 40
0.00426344474639
 40
0.00426344474639
 40
0.00426344474639
 10
410.4286112437146
 20
364.2274212368728
 30
0.0
 10
410.9332273481716
 20
365.2279774289722
 30
0.0
 10
411.4380840227391
 20
366.2280487765417
 30
0.0
 10
411.9432862175556
 20
367.2274212368728
 30
0.0
  0
LINE
  5
1A3
330
1F
100
AcDbEntity
  8
0
  6
Continuous
 62
     7
370
    15
100
AcDbLine
 10
410.4286119709
 20
361.2274225482
 30
0.0
 11
410.4286119709
 21
364.2274286278
 31
0.0
  0
LINE
  5
1A4
330
1F
100
AcDbEntity
  8
0
  6
Continuous
 62
     7
370
    15
100
AcDbLine
 10
416.4907889808
 20
361.2274225482
 30
0.0
 11
416.4907889808
 21
364.2274286278
 31
0.0
  0
LINE
  5
1A5
330
1F
100
AcDbEntity
  8
0
  6
Continuous
 62
     7
370
    15
100
AcDbLine
 10
416.4907889808
 20
361.2274225482
 30
0.0
 11
410.4286119709
 21
361.2274225482
 31
0.0
  0
LINE
  5
1A6
330
1F
100
AcDbEntity
  8
0
  6
Continuous
 62
     7
370
    15
100
AcDbLine
 10
418.1318585197
 20
355.22742529
 30
0.0
 11
418.1318585197
 21
361.2274225482
 31
0.0
  0
LINE
  5
1A7
330
1F
100
AcDbEntity
  8
0
  6
Continuous
 62
     7
370
    15
100
AcDbLine
 10
418.0054640765
 20
367.2274198064
 30
0.0
 11
420.9225871036
 21
367.2274198064
 31
0.0
  0
LINE
  5
1A8
330
1F
100
AcDbEntity
  8
0
  6
Continuous
 62
     7
370
    15
100
AcDbLine
 10
420.4269367638
 20
344.933814896
 30
0.0
 11
420.9225871036
 21
367.2274198064
 31
0.0
  0
SPLINE
  5
1A9
330
1F
100
AcDbEntity
  8
0
  6
Continuous
 62
     7
370
    15
100
AcDbSpline
210
0.0
220
0.0
230
1.0
 70
     8
 71
     3
 72
     8
 73
     4
 74
     0
 42
0.00000001
 43
0.00000001
 12
1.0
 22
0.0
 32
0.0
 13
1.0
 23
0.0
 33
0.0
 40
0.0
 40
0.0
 40
0.0
 40
0.0
 40
1.0
 40
1.0
 40
1.0
 40
1.0
 10
417.8790987959872
 20
336.2274212368728
 30
0.0
 10
418.7265498801946
 20
339.1316933075154
 30
0.0
 10
419.575333460563
 20
342.0344056126875
 30
0.0
 10
420.4269365414758
 20
344.9338175259168
 30
0.0
  0
LINE
  5
1AA
330
1F
100
AcDbEntity
  8
0
  6
Continuous
 62
     7
370
    15
100
AcDbLine
 10
416.4907889808
 20
355.22742529
 30
0.0
 11
418.1318585197
 21
355.22742529
 31
0.0
  0
LINE
  5
1AB
330
1F
100
AcDbEntity
  8
0
  6
Continuous
 62
     7
370
    15
100
AcDbLine
 10
418.1318585197
 20
361.2274225482
 30
0.0
 11
416.4907889808
 21
361.2274225482
 31
0.0
  0
LINE
  5
1AC
330
1F
100
AcDbEntity
  8
0
  6
Continuous
 62
     7
370
    15
100
AcDbLine
 10
445.367465205
 20
344.933814896
 30
0.0
 11
420.4269367638
 21
344.933814896
 31
0.0
  0
SPLINE
  5
1AD
330
1F
100
AcDbEntity
  8
0
  6
Continuous
 62
     7
370
    15
100
AcDbSpline
210
0.0
220
0.0
230
1.0
 70
     8
 71
     3
 72
     8
 73
     4
 74
     0
 42
0.00000001
 43
0.00000001
 12
1.0
 22
0.0
 32
0.0
 13
1.0
 23
0.0
 33
0.0
 40
0.0
 40
0.0
 40
0.0
 40
0.0
 40
1.0
 40
1.0
 40
1.0
 40
1.0
 10
445.3674646035159
 20
344.9338175259168
 30
0.0
 10
447.0706618484484
 20
342.0344207921451
 30
0.0
 10
448.7682383698334
 20
339.1316925471258
 30
0.0
 10
450.4631400944929
 20
336.2274212368728
 30
0.0
  0
LINE
  5
1AE
330
1F
100
AcDbEntity
  8
0
  6
Continuous
 62
     7
370
    15
100
AcDbLine
 10
412.0696805785
 20
361.2274225482
 30
0.0
 11
412.0696805785
 21
355.22742529
 31
0.0
  0
LWPOLYLINE
  5
1AF
330
1F
100
AcDbEntity
  8
0
  6
Continuous
 62
     7
370
    15
100
AcDbPolyline
 90
        3
 70
   128
 43
0.0
 10
444.3761635939
 20
367.2274198064
 10
445.2361189196
 20
347.8901382216
 10
445.367465205
 20
344.933814896
  0
LINE
  5
1B0
330
1F
100
AcDbEntity
  8
0
  6
Continuous
 62
     7
370
    15
100
AcDbLine
 10
444.3761635939
 20
367.2274198064
 30
0.0
 11
420.9225871036
 21
367.2274198064
 31
0.0
  0
LINE
  5
1B1
330
1F
100
AcDbEntity
  8
0
  6
Continuous
 62
     7
370
    15
100
AcDbLine
 10
410.4286119709
 20
344.933814896
 30
0.0
 11
407.7463601152
 21
344.933814896
 31
0.0
  0
LINE
  5
1B2
330
1F
100
AcDbEntity
  8
0
  6
Continuous
 62
     7
370
    15
100
AcDbLine
 10
411.9404772664
 20
367.2274198064
 30
0.0
 11
408.7197207282
 21
367.2274198064
 31
0.0
  0
LINE
  5
1B3
330
1F
100
AcDbEntity
  8
0
  6
Continuous
 62
     7
370
    15
100
AcDbLine
 10
454.7197208176
 20
244.4988857635
 30
0.0
 11
454.7197208176
 21
239.2274211773
 31
0.0
  0
LINE
  5
1B4
330
1F
100
AcDbEntity
  8
0
  6
Continuous
 62
     7
370
    15
100
AcDbLine
 10
456.2197201321
 20
269.1389914283
 30
0.0
 11
454.7197208176
 21
269.1389914283
 31
0.0
  0
LINE
  5
1B5
330
1F
100
AcDbEntity
  8
0
  6
Continuous
 62
     7
370
    15
100
AcDbLine
 10
456.2197201321
 20
269.2634310254
 30
0.0
 11
456.2197201321
 21
269.1389914283
 31
0.0
  0
LINE
  5
1B6
330
1F
100
AcDbEntity
  8
0
  6
Continuous
 62
     7
370
    15
100
AcDbLine
 10
456.2197201321
 20
269.2634310254
 30
0.0
 11
456.2197201321
 21
273.2545468637
 31
0.0
  0
LWPOLYLINE
  5
1B7
330
1F
100
AcDbEntity
  8
0
  6
Continuous
 62
     7
370
    15
100
AcDbPolyline
 90
       19
 70
   128
 43
0.0
 10
419.0415869834
 20
373.2274170645
 10
418.8981283824
 20
373.0959590205
 10
418.7623620401
 20
372.9715641268
 10
418.6344216014
 20
372.8543217906
 10
418.5144346575
 20
372.7443810233
 10
418.4025176237
 20
372.6418163308
 10
418.2987803961
 20
372.5467618235
 10
418.2033254201
 20
372.4592920073
 10
418.1162476907
 20
372.3795111903
 10
418.0376310269
 20
372.3074640759
 10
417.9675536598
 20
372.2432549723
 10
417.9060845072
 20
372.186928583
 10
417.8532841051
 20
372.1385445126
 10
417.8092036764
 20
372.0981474646
 10
417.7738879243
 20
372.0657821425
 10
417.7473703767
 20
372.0414932498
 10
417.7296771104
 20
372.0252807864
 10
417.720826752
 20
372.0171745547
 10
417.7197203408
 20
372.0161463746
  0
LWPOLYLINE
  5
1B8
330
1F
100
AcDbEntity
  8
0
  6
Continuous
 62
     7
370
    15
100
AcDbPolyline
 90
       10
 70
   128
 43
0.0
 10
419.0415869834
 20
373.2274170645
 10
419.1676340433
 20
376.1143680342
 10
419.298897441
 20
379.1208114156
 10
419.4352873037
 20
382.2446461447
 10
419.5767091023
 20
385.4837264546
 10
419.7230650479
 20
388.8358320721
 10
419.8742540921
 20
392.2986384162
 10
420.0301714609
 20
395.8697314986
 10
420.1907100523
 20
399.546667529
 10
420.355759039
 20
403.3269133099
  0
ELLIPSE
  5
1B9
330
1F
100
AcDbEntity
  8
0
  6
Continuous
 62
     7
370
    15
100
AcDbEllipse
 10
426.7197199533
 20
549.0855793597
 30
0.0
 11
0.0
 21
206.1338899358803
 31
0.0
210
0.0
220
0.0
230
1.0
 40
0.0436609429
 41
2.356194490192345
 42
2.592744264804702
  0
ELLIPSE
  5
1BA
330
1F
100
AcDbEntity
  8
0
  6
Continuous
 62
     7
370
    15
100
AcDbEllipse
 10
426.7197199533
 20
380.2631338647
 30
0.0
 11
9.0
 21
0.0
 31
0.0
210
0.0
220
0.0
230
1.0
 40
0.916331174
 41
4.163540591599613
 42
5.261237369169793
  0
ELLIPSE
  5
1BB
330
1F
100
AcDbEntity
  8
0
  6
Continuous
 62
     7
370
    15
100
AcDbEllipse
 10
426.7197199533
 20
549.0855793597
 30
0.0
 11
0.0
 21
206.1338899358803
 31
0.0
210
0.0
220
0.0
230
1.0
 40
0.0436609429
 41
3.690441042375117
 42
3.926990816987401
  0
LWPOLYLINE
  5
1BC
330
1F
100
AcDbEntity
  8
0
  6
Continuous
 62
     7
370
    15
100
AcDbPolyline
 90
       10
 70
   128
 43
0.0
 10
433.0836808676
 20
403.3269133099
 10
433.2487298543
 20
399.546667529
 10
433.4092684458
 20
395.8697314986
 10
433.5651858146
 20
392.2986384162
 10
433.7163748587
 20
388.8358320721
 10
433.8627308043
 20
385.4837264546
 10
434.0041526029
 20
382.2446461447
 10
434.1405424657
 20
379.1208114156
 10
434.2718058633
 20
376.1143680342
 10
434.3978529232
 20
373.2274170645
  0
LWPOLYLINE
  5
1BD
330
1F
100
AcDbEntity
  8
0
  6
Continuous
 62
     7
370
    15
100
AcDbPolyline
 90
       19
 70
   128
 43
0.0
 10
435.7197195659
 20
372.0161463746
 10
435.7186131547
 20
372.0171745547
 10
435.7097627963
 20
372.0252807864
 10
435.69206953
 20
372.0414932498
 10
435.6655519823
 20
372.0657821425
 10
435.6302362303
 20
372.0981474646
 10
435.5861558015
 20
372.1385445126
 10
435.5333553995
 20
372.186928583
 10
435.4718862469
 20
372.2432549723
 10
435.4018088798
 20
372.3074640759
 10
435.3231922159
 20
372.3795111903
 10
435.2361144865
 20
372.4592920073
 10
435.1406595106
 20
372.5467618235
 10
435.036922283
 20
372.6418163308
 10
434.9250052492
 20
372.7443810233
 10
434.8050183053
 20
372.8543217906
 10
434.6770778666
 20
372.9715641268
 10
434.5413115243
 20
373.0959590205
 10
434.3978529232
 20
373.2274170645
  0
LINE
  5
1BE
330
1F
100
AcDbEntity
  8
0
  6
Continuous
 62
     7
370
    15
100
AcDbLine
 10
422.02437384
 20
373.2274170645
 30
0.0
 11
431.4150660666
 21
373.2274170645
 31
0.0
  0
LINE
  5
1BF
330
1F
100
AcDbEntity
  8
0
  6
Continuous
 62
     7
370
    15
100
AcDbLine
 10
456.2197201321
 20
277.7789901623
 30
0.0
 11
454.7197208176
 21
277.7789901623
 31
0.0
  0
LINE
  5
1C0
330
1F
100
AcDbEntity
  8
0
  6
Continuous
 62
     7
370
    15
100
AcDbLine
 10
456.2197201321
 20
277.7789901623
 30
0.0
 11
456.2197201321
 21
277.6889908739
 31
0.0
  0
LINE
  5
1C1
330
1F
100
AcDbEntity
  8
0
  6
Continuous
 62
     7
370
    15
100
AcDbLine
 10
456.2197201321
 20
276.2689884433
 30
0.0
 11
456.2197201321
 21
277.6889908739
 31
0.0
  0
LINE
  5
1C2
330
1F
100
AcDbEntity
  8
0
  6
Continuous
 62
     7
370
    15
100
AcDbLine
 10
456.2197201321
 20
273.4689894744
 30
0.0
 11
456.2197201321
 21
274.8889881798
 31
0.0
  0
LINE
  5
1C3
330
1F
100
AcDbEntity
  8
0
  6
Continuous
 62
     7
370
    15
100
AcDbLine
 10
456.2197201321
 20
274.9789911934
 30
0.0
 11
454.7197208176
 21
274.9789911934
 31
0.0
  0
LINE
  5
1C4
330
1F
100
AcDbEntity
  8
0
  6
Continuous
 62
     7
370
    15
100
AcDbLine
 10
456.2197201321
 20
274.9789911934
 30
0.0
 11
456.2197201321
 21
274.8889881798
 31
0.0
  0
LINE
  5
1C5
330
1F
100
AcDbEntity
  8
0
  6
Continuous
 62
     7
370
    15
100
AcDbLine
 10
456.2197201321
 20
273.3789901861
 30
0.0
 11
454.7197208176
 21
273.3789901861
 31
0.0
  0
LINE
  5
1C6
330
1F
100
AcDbEntity
  8
0
  6
Continuous
 62
     7
370
    15
100
AcDbLine
 10
456.2197201321
 20
273.4689894744
 30
0.0
 11
456.2197201321
 21
273.3789901861
 31
0.0
  0
LINE
  5
1C7
330
1F
100
AcDbEntity
  8
0
  6
Continuous
 62
     7
370
    15
100
AcDbLine
 10
456.2197201321
 20
276.1789891549
 30
0.0
 11
454.7197208176
 21
276.1789891549
 31
0.0
  0
LINE
  5
1C8
330
1F
100
AcDbEntity
  8
0
  6
Continuous
 62
     7
370
    15
100
AcDbLine
 10
456.2197201321
 20
276.2689884433
 30
0.0
 11
456.2197201321
 21
276.1789891549
 31
0.0
  0
LINE
  5
1C9
330
1F
100
AcDbEntity
  8
0
  6
Continuous
 62
     7
370
    15
100
AcDbLine
 10
456.2197201321
 20
273.2545468637
 30
0.0
 11
456.2197201321
 21
273.3789901861
 31
0.0
  0
LINE
  5
1CA
330
1F
100
AcDbEntity
  8
0
  6
Continuous
 62
     7
370
    15
100
AcDbLine
 10
420.355759039
 20
403.3269133099
 30
0.0
 11
420.569720156
 21
408.2274283894
 31
0.0
  0
LINE
  5
1CB
330
1F
100
AcDbEntity
  8
0
  6
Continuous
 62
     7
370
    15
100
AcDbLine
 10
420.569720156
 20
408.2274283894
 30
0.0
 11
432.8697197507
 21
408.2274283894
 31
0.0
  0
LINE
  5
1CC
330
1F
100
AcDbEntity
  8
0
  6
Continuous
 62
     7
370
    15
100
AcDbLine
 10
433.0836808676
 20
403.3269133099
 30
0.0
 11
432.8697197507
 21
408.2274283894
 31
0.0
  0
LINE
  5
1CD
330
1F
100
AcDbEntity
  8
0
  6
Continuous
 62
     7
370
    15
100
AcDbLine
 10
456.2197201321
 20
276.1234301754
 30
0.0
 11
456.2197201321
 21
276.1789891549
 31
0.0
  0
LINE
  5
1CE
330
1F
100
AcDbEntity
  8
0
  6
Continuous
 62
     7
370
    15
100
AcDbLine
 10
456.2197201321
 20
274.9789911934
 30
0.0
 11
456.2197201321
 21
276.1234301754
 31
0.0
  0
SPLINE
  5
1CF
330
1F
100
AcDbEntity
  8
0
  6
Continuous
 62
     7
370
    15
100
AcDbSpline
210
0.0
220
0.0
230
1.0
 70
     8
 71
     3
 72
     8
 73
     4
 74
     0
 42
0.00000001
 43
0.00000001
 12
1.0
 22
0.0
 32
0.0
 13
1.0
 23
0.0
 33
0.0
 40
0.0
 40
0.0
 40
0.0
 40
0.0
 40
0.00426344474639
 40
0.00426344474639
 40
0.00426344474639
 40
0.00426344474639
 10
453.2397595460561
 20
364.2274212368728
 30
0.0
 10
452.2305273371421
 20
365.2279774289722
 30
0.0
 10
451.2208139880072
 20
366.2280487765417
 30
0.0
 10
450.2104095983742
 20
367.2274212368728
 30
0.0
  0
LINE
  5
1D0
330
1F
100
AcDbEntity
  8
0
  6
Continuous
 62
     7
370
    15
100
AcDbLine
 10
453.2397598396
 20
361.2274225482
 30
0.0
 11
453.2397598396
 21
364.2274286278
 31
0.0
  0
LINE
  5
1D1
330
1F
100
AcDbEntity
  8
0
  6
Continuous
 62
     7
370
    15
100
AcDbLine
 10
453.2397598396
 20
361.2274225482
 30
0.0
 11
449.9576207618
 21
361.2274225482
 31
0.0
  0
LINE
  5
1D2
330
1F
100
AcDbEntity
  8
0
  6
Continuous
 62
     7
370
    15
100
AcDbLine
 10
449.9576207618
 20
361.2274225482
 30
0.0
 11
449.9576207618
 21
355.22742529
 31
0.0
  0
LINE
  5
1D3
330
1F
100
AcDbEntity
  8
0
  6
Continuous
 62
     7
370
    15
100
AcDbLine
 10
449.9576207618
 20
355.22742529
 30
0.0
 11
453.2397598396
 21
355.22742529
 31
0.0
  0
LINE
  5
1D4
330
1F
100
AcDbEntity
  8
0
  6
Continuous
 62
     7
370
    15
100
AcDbLine
 10
453.2397598396
 20
336.2274240383
 30
0.0
 11
453.2397598396
 21
355.22742529
 31
0.0
  0
LINE
  5
1D5
330
1F
100
AcDbEntity
  8
0
  6
Continuous
 62
     7
370
    15
100
AcDbLine
 10
444.3761635939
 20
367.2274198064
 30
0.0
 11
450.2104096482
 21
367.2274198064
 31
0.0
  0
LINE
  5
1D6
330
1F
100
AcDbEntity
  8
0
  6
Continuous
 62
     7
370
    15
100
AcDbLine
 10
453.469720147
 20
364.2274286278
 30
0.0
 11
453.2397598396
 21
364.2274286278
 31
0.0
  0
LINE
  5
1D7
330
1F
100
AcDbEntity
  8
0
  6
Continuous
 62
     7
370
    15
100
AcDbLine
 10
450.2104096482
 20
367.2274198064
 30
0.0
 11
450.4697196553
 21
367.2274198064
 31
0.0
  0
LINE
  5
1D8
330
1F
100
AcDbEntity
  8
0
  6
Continuous
 62
     7
370
    15
100
AcDbLine
 10
453.469720147
 20
361.2274225482
 30
0.0
 11
453.2397598396
 21
361.2274225482
 31
0.0
  0
LINE
  5
1D9
330
1F
100
AcDbEntity
  8
0
  6
Continuous
 62
     7
370
    15
100
AcDbLine
 10
453.2397598396
 20
355.22742529
 30
0.0
 11
453.469720147
 21
355.22742529
 31
0.0
  0
LINE
  5
1DA
330
1F
100
AcDbEntity
  8
0
  6
Continuous
 62
     8
370
     0
100
AcDbLine
 10
423.2197198453
 20
265.8452536591
 30
0.0
 11
417.8491266812
 21
265.8452536591
 31
0.0
  0
LINE
  5
1DB
330
1F
100
AcDbEntity
  8
0
  6
Continuous
 62
     8
370
     0
100
AcDbLine
 10
430.2197200614
 20
265.8452536591
 30
0.0
 11
435.5903132255
 21
265.8452536591
 31
0.0
  0
SPLINE
  5
1DC
330
1F
100
AcDbEntity
  8
0
  6
Continuous
 62
     8
370
     0
100
AcDbSpline
210
0.0
220
0.0
230
1.0
 70
     8
 71
     3
 72
    15
 73
    11
 74
     0
 42
0.00000001
 43
0.00000001
 12
1.0
 22
0.0
 32
0.0
 13
1.0
 23
0.0
 33
0.0
 40
0.0
 40
0.0
 40
0.0
 40
0.0
 40
0.0920448365428565
 40
0.2245138936057652
 40
0.3633773222712198
 40
0.497711465866054
 40
0.6279946882259241
 40
0.7547509546356254
 40
0.8785492990369125
 40
1.0
 40
1.0
 40
1.0
 40
1.0
 10
447.6748112956554
 20
237.9321377404929
 30
0.0
 10
447.8521054407797
 20
238.0872174971632
 30
0.0
 10
448.2845577143714
 20
238.4654848861577
 30
0.0
 10
448.9841402502708
 20
239.0129646001882
 30
0.0
 10
449.7575048117214
 20
239.5733153483093
 30
0.0
 10
450.5152000638797
 20
240.062780045162
 30
0.0
 10
451.2353946548199
 20
240.4686282600002
 30
0.0
 10
451.9169404150417
 20
240.7879417646729
 30
0.0
 10
452.5624879636352
 20
241.0288082669985
 30
0.0
 10
452.9648011260435
 20
241.1183558904476
 30
0.0
 10
453.1640321383745
 20
241.1627011054159
 30
0.0
  0
SPLINE
  5
1DD
330
1F
100
AcDbEntity
  8
0
  6
Continuous
 62
     8
370
     0
100
AcDbSpline
210
0.0
220
0.0
230
1.0
 70
     8
 71
     3
 72
    19
 73
    15
 74
     0
 42
0.00000001
 43
0.00000001
 12
1.0
 22
0.0
 32
0.0
 13
1.0
 23
0.0
 33
0.0
 40
0.0
 40
0.0
 40
0.0
 40
0.0
 40
0.1653395580977617
 40
0.3366051472085225
 40
0.3916632002196492
 40
0.4473099230017348
 40
0.5035464386457046
 40
0.555735319995449
 40
0.5935920509623248
 40
0.6698493064006276
 40
0.7572062191431715
 40
0.8556631123585474
 40
0.965220775148174
 40
1.0
 40
1.0
 40
1.0
 40
1.0
 10
451.7958205560715
 20
238.2303090446592
 30
0.0
 10
451.6211423099026
 20
238.1508291753575
 30
0.0
 10
451.2655250732154
 20
237.9890207526533
 30
0.0
 10
450.8442933599371
 20
237.778677488966
 30
0.0
 10
450.5389475378726
 20
237.6204109621034
 30
0.0
 10
450.3574550090991
 20
237.5244223633627
 30
0.0
 10
450.1784234177489
 20
237.4279574719594
 30
0.0
 10
450.0182869304493
 20
237.340105740878
 30
0.0
 10
449.8356022924951
 20
237.2386255943426
 30
0.0
 10
449.6134856916282
 20
237.1131388337871
 30
0.0
 10
449.3236438113772
 20
236.9451557794734
 30
0.0
 10
448.9961160174547
 20
236.7490107269147
 30
0.0
 10
448.7264671232448
 20
236.5838393776302
 30
0.0
 10
448.5658338853887
 20
236.4807273104898
 30
0.0
 10
448.5271279136211
 20
236.4558815636636
 30
0.0
  0
LINE
  5
1DE
330
1F
100
AcDbEntity
  8
0
  6
Continuous
 62
     8
370
     0
100
AcDbLine
 10
456.2197201321
 20
269.2634310254
 30
0.0
 11
454.7197208176
 21
269.2634310254
 31
0.0
  0
LINE
  5
1DF
330
1F
100
AcDbEntity
  8
0
  6
Continuous
 62
     8
370
     0
100
AcDbLine
 10
456.2197201321
 20
273.2545468637
 30
0.0
 11
454.7197208176
 21
273.2545468637
 31
0.0
  0
LINE
  5
1E0
330
1F
100
AcDbEntity
  8
0
  6
Continuous
 62
     8
370
     0
100
AcDbLine
 10
456.2197201321
 20
277.6889908739
 30
0.0
 11
454.7197208176
 21
277.6889908739
 31
0.0
  0
LINE
  5
1E1
330
1F
100
AcDbEntity
  8
0
  6
Continuous
 62
     8
370
     0
100
AcDbLine
 10
456.2197201321
 20
276.2689884433
 30
0.0
 11
454.7197208176
 21
276.2689884433
 31
0.0
  0
LINE
  5
1E2
330
1F
100
AcDbEntity
  8
0
  6
Continuous
 62
     8
370
     0
100
AcDbLine
 10
456.2197201321
 20
274.8889881798
 30
0.0
 11
454.7197208176
 21
274.8889881798
 31
0.0
  0
LINE
  5
1E3
330
1F
100
AcDbEntity
  8
0
  6
Continuous
 62
     8
370
     0
100
AcDbLine
 10
456.2197201321
 20
273.4689894744
 30
0.0
 11
454.7197208176
 21
273.4689894744
 31
0.0
  0
LINE
  5
1E4
330
1F
100
AcDbEntity
  8
0
  6
Continuous
 62
     8
370
     0
100
AcDbLine
 10
456.2197201321
 20
276.1234301754
 30
0.0
 11
454.7197208176
 21
276.1234301754
 31
0.0
  0
INSERT
  5
1F0
330
1F
100
AcDbEntity
  8
FORMAT
100
AcDbBlockReference
  2
SW_CENTERMARKSYMBOL_1
 10
426.7197199533
 20
228.2274212369
 30
0.0
  0
ARC
  5
1F1
330
1F
100
AcDbEntity
  8
0
  6
Continuous
 62
     7
370
    15
100
AcDbCircle
 10
168.1158411997
 20
95.7810968495
 30
0.0
 40
4.000000000000014
100
AcDbArc
 50
57.0578651433
 51
90.0
  0
ARC
  5
1F2
330
1F
100
AcDbEntity
  8
0
  6
Continuous
 62
     7
370
    15
100
AcDbCircle
 10
231.4295496987
 20
95.7810968495
 30
0.0
 40
4.000000000000014
100
AcDbArc
 50
90.0
 51
122.9421348567
  0
ARC
  5
1F3
330
1F
100
AcDbEntity
  8
0
  6
Continuous
 62
     7
370
    15
100
AcDbCircle
 10
231.4295496987
 20
57.7810968495
 30
0.0
 40
4.00000000000001
100
AcDbArc
 50
237.0578651434
 51
270.0
  0
ARC
  5
1F4
330
1F
100
AcDbEntity
  8
0
  6
Continuous
 62
     7
370
    15
100
AcDbCircle
 10
168.1158411997
 20
57.7810968495
 30
0.0
 40
4.000000000000007
100
AcDbArc
 50
270.0
 51
302.9421348566
  0
LINE
  5
1F5
330
1F
100
AcDbEntity
  8
0
  6
Continuous
 62
     7
370
    15
100
AcDbLine
 10
232.2726942571
 20
99.7810968942
 30
0.0
 11
231.4295493039
 21
99.7810968942
 31
0.0
  0
LINE
  5
1F6
330
1F
100
AcDbEntity
  8
0
  6
Continuous
 62
     7
370
    15
100
AcDbLine
 10
168.1158415946
 20
99.7810968942
 30
0.0
 11
167.2726966413
 21
99.7810968942
 31
0.0
  0
LINE
  5
1F7
330
1F
100
AcDbEntity
  8
0
  6
Continuous
 62
     7
370
    15
100
AcDbLine
 10
231.4295493039
 20
53.7810968048
 30
0.0
 11
232.2726942571
 21
53.7810968048
 31
0.0
  0
LINE
  5
1F8
330
1F
100
AcDbEntity
  8
0
  6
Continuous
 62
     7
370
    15
100
AcDbLine
 10
167.2726966413
 20
53.7810968048
 30
0.0
 11
168.1158415946
 21
53.7810968048
 31
0.0
  0
LINE
  5
1F9
330
1F
100
AcDbEntity
  8
0
  6
Continuous
 62
     7
370
    15
100
AcDbLine
 10
235.8308084282
 20
103.3392092026
 30
0.0
 11
232.2726942571
 21
99.7810968942
 31
0.0
  0
LINE
  5
1FA
330
1F
100
AcDbEntity
  8
0
  6
Continuous
 62
     7
370
    15
100
AcDbLine
 10
167.2726966413
 20
99.7810968942
 30
0.0
 11
163.7145824703
 21
103.3392092026
 31
0.0
  0
LINE
  5
1FB
330
1F
100
AcDbEntity
  8
0
  6
Continuous
 62
     7
370
    15
100
AcDbLine
 10
163.7145824703
 20
50.2229844964
 30
0.0
 11
167.2726966413
 21
53.7810968048
 31
0.0
  0
LINE
  5
1FC
330
1F
100
AcDbEntity
  8
0
  6
Continuous
 62
     7
370
    15
100
AcDbLine
 10
232.2726942571
 20
53.7810968048
 30
0.0
 11
235.8308084282
 21
50.2229844964
 31
0.0
  0
LINE
  5
1FD
330
1F
100
AcDbEntity
  8
0
  6
Continuous
 62
     7
370
    15
100
AcDbLine
 10
172.7726947489
 20
51.4828758127
 30
0.0
 11
172.7726947489
 21
48.7810959852
 31
0.0
  0
LINE
  5
1FE
330
1F
100
AcDbEntity
  8
0
  6
Continuous
 62
     7
370
    15
100
AcDbLine
 10
204.4680415625
 20
84.4592298194
 30
0.0
 11
195.0773493359
 21
84.4592298194
 31
0.0
  0
ARC
  5
1FF
330
1F
100
AcDbEntity
  8
0
  6
Continuous
 62
     7
370
    15
100
AcDbCircle
 10
199.7726954492
 20
76.7810968495
 30
0.0
 40
9.000000000000021
100
AcDbArc
 50
45.0
 51
58.5533037301
  0
LINE
  5
200
330
1F
100
AcDbEntity
  8
0
  6
Continuous
 62
     7
370
    15
100
AcDbLine
 10
206.1366563636
 20
83.1450577638
 30
0.0
 11
205.9226952466
 21
82.9310966468
 31
0.0
  0
LINE
  5
201
330
1F
100
AcDbEntity
  8
0
  6
Continuous
 62
     7
370
    15
100
AcDbLine
 10
205.9226952466
 20
82.9310966468
 30
0.0
 11
193.6226956519
 21
82.9310966468
 31
0.0
  0
LINE
  5
202
330
1F
100
AcDbEntity
  8
0
  6
Continuous
 62
     7
370
    15
100
AcDbLine
 10
193.4087345349
 20
83.1450577638
 30
0.0
 11
193.6226956519
 21
82.9310966468
 31
0.0
  0
ARC
  5
203
330
1F
100
AcDbEntity
  8
0
  6
Continuous
 62
     7
370
    15
100
AcDbCircle
 10
199.7726954492
 20
76.7810968495
 30
0.0
 40
8.999999999999993
100
AcDbArc
 50
121.4466962699
 51
135.0
  0
LINE
  5
204
330
1F
100
AcDbEntity
  8
0
  6
Continuous
 62
     7
370
    15
100
AcDbLine
 10
207.4508284191
 20
72.0857507362
 30
0.0
 11
207.4508284191
 21
81.4764429628
 31
0.0
  0
ARC
  5
205
330
1F
100
AcDbEntity
  8
0
  6
Continuous
 62
     7
370
    15
100
AcDbCircle
 10
199.7726954492
 20
76.7810968495
 30
0.0
 40
9.000000000000021
100
AcDbArc
 50
315.0
 51
328.5533037301
  0
LINE
  5
206
330
1F
100
AcDbEntity
  8
0
  6
Continuous
 62
     7
370
    15
100
AcDbLine
 10
206.1366563636
 20
70.4171359352
 30
0.0
 11
205.9226952466
 21
70.6310970521
 31
0.0
  0
LINE
  5
207
330
1F
100
AcDbEntity
  8
0
  6
Continuous
 62
     7
370
    15
100
AcDbLine
 10
205.9226952466
 20
70.6310970521
 30
0.0
 11
205.9226952466
 21
82.9310966468
 31
0.0
  0
ARC
  5
208
330
1F
100
AcDbEntity
  8
0
  6
Continuous
 62
     7
370
    15
100
AcDbCircle
 10
199.7726954492
 20
76.7810968495
 30
0.0
 40
9.000000000000012
100
AcDbArc
 50
31.4466962699
 51
45.0
  0
LINE
  5
209
330
1F
100
AcDbEntity
  8
0
  6
Continuous
 62
     7
370
    15
100
AcDbLine
 10
192.0945624794
 20
81.4764429628
 30
0.0
 11
192.0945624794
 21
72.0857507362
 31
0.0
  0
ARC
  5
20A
330
1F
100
AcDbEntity
  8
0
  6
Continuous
 62
     7
370
    15
100
AcDbCircle
 10
199.7726954492
 20
76.7810968495
 30
0.0
 40
8.999999999999993
100
AcDbArc
 50
135.0
 51
148.5533037301
  0
LINE
  5
20B
330
1F
100
AcDbEntity
  8
0
  6
Continuous
 62
     7
370
    15
100
AcDbLine
 10
193.6226956519
 20
82.9310966468
 30
0.0
 11
193.6226956519
 21
70.6310970521
 31
0.0
  0
LINE
  5
20C
330
1F
100
AcDbEntity
  8
0
  6
Continuous
 62
     7
370
    15
100
AcDbLine
 10
193.4087345349
 20
70.4171359352
 30
0.0
 11
193.6226956519
 21
70.6310970521
 31
0.0
  0
ARC
  5
20D
330
1F
100
AcDbEntity
  8
0
  6
Continuous
 62
     7
370
    15
100
AcDbCircle
 10
199.7726954492
 20
76.7810968495
 30
0.0
 40
9.000000000000002
100
AcDbArc
 50
211.4466962699
 51
225.0
  0
LINE
  5
20E
330
1F
100
AcDbEntity
  8
0
  6
Continuous
 62
     7
370
    15
100
AcDbLine
 10
193.6226956519
 20
70.6310970521
 30
0.0
 11
205.9226952466
 21
70.6310970521
 31
0.0
  0
LINE
  5
20F
330
1F
100
AcDbEntity
  8
0
  6
Continuous
 62
     7
370
    15
100
AcDbLine
 10
195.0773493359
 20
69.1029638796
 30
0.0
 11
204.4680415625
 21
69.1029638796
 31
0.0
  0
ARC
  5
210
330
1F
100
AcDbEntity
  8
0
  6
Continuous
 62
     7
370
    15
100
AcDbCircle
 10
199.7726954492
 20
76.7810968495
 30
0.0
 40
9.000000000000002
100
AcDbArc
 50
225.0
 51
238.5533037301
  0
ARC
  5
211
330
1F
100
AcDbEntity
  8
0
  6
Continuous
 62
     7
370
    15
100
AcDbCircle
 10
199.7726954492
 20
76.7810968495
 30
0.0
 40
9.000000000000021
100
AcDbArc
 50
301.4466962699
 51
315.0
  0
ARC
  5
212
330
1F
100
AcDbEntity
  8
0
  6
Continuous
 62
     7
370
    15
100
AcDbCircle
 10
199.7726954492
 20
76.7810968495
 30
0.0
 40
9.000000000000005
100
AcDbArc
 50
328.5533037301
 51
31.4466962699
  0
ARC
  5
213
330
1F
100
AcDbEntity
  8
0
  6
Continuous
 62
     7
370
    15
100
AcDbCircle
 10
199.7726954492
 20
76.7810968495
 30
0.0
 40
8.99999999999999
100
AcDbArc
 50
148.5533037301
 51
211.4466962699
  0
ARC
  5
214
330
1F
100
AcDbEntity
  8
0
  6
Continuous
 62
     7
370
    15
100
AcDbCircle
 10
199.7726954492
 20
76.7810968495
 30
0.0
 40
9.000000000000021
100
AcDbArc
 50
58.5533037301
 51
121.4466962699
  0
ARC
  5
215
330
1F
100
AcDbEntity
  8
0
  6
Continuous
 62
     7
370
    15
100
AcDbCircle
 10
199.7726954492
 20
76.7810968495
 30
0.0
 40
9.000000000000021
100
AcDbArc
 50
238.5533037301
 51
301.4466962699
  0
ARC
  5
216
330
1F
100
AcDbEntity
  8
0
  6
Continuous
 62
     7
370
    15
100
AcDbCircle
 10
199.7726954492
 20
76.7810968495
 30
0.0
 40
23.75000000000001
100
AcDbArc
 50
21.525546637
 51
38.474453363
  0
SPLINE
  5
217
330
1F
100
AcDbEntity
  8
0
  6
Continuous
 62
     7
370
    15
100
AcDbSpline
210
0.0
220
0.0
230
1.0
 70
    24
 71
     3
 72
     8
 73
     4
 74
     0
 42
0.00000001
 43
0.00000001
 12
1.0
 22
0.0
 32
0.0
 13
1.0
 23
0.0
 33
0.0
 40
0.0
 40
0.0
 40
0.0
 40
0.0
 40
0.00426344474639
 40
0.00426344474639
 40
0.00426344474639
 40
0.00426344474639
 10
218.3662294342698
 20
91.55753058524499
 30
0.0
 10
219.2412653037873
 20
92.06273278006148
 30
0.0
 10
220.1157027146784
 20
92.56758945462894
 30
0.0
 10
220.9897234459154
 20
93.07220555908593
 30
0.0
  0
ARC
  5
218
330
1F
100
AcDbEntity
  8
0
  6
Continuous
 62
     7
370
    15
100
AcDbCircle
 10
199.7726954492
 20
76.7810968495
 30
0.0
 40
26.75000000000002
100
AcDbArc
 50
22.4817997988
 51
37.5182002012
  0
SPLINE
  5
219
330
1F
100
AcDbEntity
  8
0
  6
Continuous
 62
     7
370
    15
100
AcDbSpline
210
0.0
220
0.0
230
1.0
 70
    24
 71
     3
 72
     8
 73
     4
 74
     0
 42
0.00000001
 43
0.00000001
 12
1.0
 22
0.0
 32
0.0
 13
1.0
 23
0.0
 33
0.0
 40
0.0
 40
0.0
 40
0.0
 40
0.0
 40
0.00426344474639
 40
0.00426344474639
 40
0.00426344474639
 40
0.00426344474639
 10
224.4897234459154
 20
87.01002773259484
 30
0.0
 10
223.6157027146784
 20
86.50541162813784
 30
0.0
 10
222.7412653037873
 20
86.0005549535704
 30
0.0
 10
221.8662294342698
 20
85.49535275875391
 30
0.0
  0
ARC
  5
21A
330
1F
100
AcDbEntity
  8
0
  6
Continuous
 62
     7
370
    15
100
AcDbCircle
 10
199.7726954492
 20
76.7810968495
 30
0.0
 40
18.0
100
AcDbArc
 50
41.2122714176
 51
138.7877285824
  0
ARC
  5
21B
330
1F
100
AcDbEntity
  8
0
  6
Continuous
 62
     7
370
    15
100
AcDbCircle
 10
199.7726954492
 20
76.7810968495
 30
0.0
 40
18.97335975884889
100
AcDbArc
 50
40.6301856582
 51
139.3698143418
  0
ARC
  5
21C
330
1F
100
AcDbEntity
  8
0
  6
Continuous
 62
     7
370
    15
100
AcDbCircle
 10
199.7726954492
 20
76.7810968495
 30
0.0
 40
23.75
100
AcDbArc
 50
261.525546637
 51
278.474453363
  0
LINE
  5
21D
330
1F
100
AcDbEntity
  8
0
  6
Continuous
 62
     7
370
    15
100
AcDbLine
 10
196.2726953412
 20
59.1246532089
 30
0.0
 11
196.2726953412
 21
53.2904071546
 31
0.0
  0
ARC
  5
21E
330
1F
100
AcDbEntity
  8
0
  6
Continuous
 62
     7
370
    15
100
AcDbCircle
 10
199.7726954492
 20
76.7810968495
 30
0.0
 40
18.00000000000001
100
AcDbArc
 50
161.2122714176
 51
258.7877285824
  0
LINE
  5
21F
330
1F
100
AcDbEntity
  8
0
  6
Continuous
 62
     7
370
    15
100
AcDbLine
 10
177.6791609796
 20
85.4953527263
 30
0.0
 11
182.7317666235
 21
82.5782296992
 31
0.0
  0
ARC
  5
220
330
1F
100
AcDbEntity
  8
0
  6
Continuous
 62
     7
370
    15
100
AcDbCircle
 10
199.7726954492
 20
76.7810968495
 30
0.0
 40
23.74999999999999
100
AcDbArc
 50
141.525546637
 51
158.474453363
  0
LINE
  5
221
330
1F
100
AcDbEntity
  8
0
  6
Continuous
 62
     7
370
    15
100
AcDbLine
 10
186.2317671972
 20
88.6404076404
 30
0.0
 11
181.179160622
 21
91.5575306675
 31
0.0
  0
LINE
  5
222
330
1F
100
AcDbEntity
  8
0
  6
Continuous
 62
     7
370
    15
100
AcDbLine
 10
218.3662302765
 20
91.5575306675
 30
0.0
 11
213.3136237013
 21
88.6404076404
 31
0.0
  0
LINE
  5
223
330
1F
100
AcDbEntity
  8
0
  6
Continuous
 62
     7
370
    15
100
AcDbLine
 10
216.813624275
 20
82.5782296992
 30
0.0
 11
221.8662299188
 21
85.4953527263
 31
0.0
  0
ARC
  5
224
330
1F
100
AcDbEntity
  8
0
  6
Continuous
 62
     7
370
    15
100
AcDbCircle
 10
199.7726954492
 20
76.7810968495
 30
0.0
 40
18.0
100
AcDbArc
 50
281.2122714176
 51
18.7877285823
  0
LINE
  5
225
330
1F
100
AcDbEntity
  8
0
  6
Continuous
 62
     7
370
    15
100
AcDbLine
 10
203.2726955573
 20
53.2904071546
 30
0.0
 11
203.2726955573
 21
59.1246532089
 31
0.0
  0
SPLINE
  5
226
330
1F
100
AcDbEntity
  8
0
  6
Continuous
 62
     7
370
    15
100
AcDbSpline
210
0.0
220
0.0
230
1.0
 70
    24
 71
     3
 72
     8
 73
     4
 74
     0
 42
0.00000001
 43
0.00000001
 12
1.0
 22
0.0
 32
0.0
 13
1.0
 23
0.0
 33
0.0
 40
0.0
 40
0.0
 40
0.0
 40
0.0
 40
0.00426344474639
 40
0.00426344474639
 40
0.00426344474639
 40
0.00426344474639
 10
177.6791614642132
 20
85.49535275875405
 30
0.0
 10
176.8041255946958
 20
86.00055495357054
 30
0.0
 10
175.9296881838047
 20
86.505411628138
 30
0.0
 10
175.0556674525677
 20
87.010027732595
 30
0.0
  0
ARC
  5
227
330
1F
100
AcDbEntity
  8
0
  6
Continuous
 62
     7
370
    15
100
AcDbCircle
 10
199.7726954492
 20
76.7810968495
 30
0.0
 40
26.74999999999999
100
AcDbArc
 50
142.4817997988
 51
157.5182002012
  0
SPLINE
  5
228
330
1F
100
AcDbEntity
  8
0
  6
Continuous
 62
     7
370
    15
100
AcDbSpline
210
0.0
220
0.0
230
1.0
 70
    24
 71
     3
 72
     8
 73
     4
 74
     0
 42
0.00000001
 43
0.00000001
 12
1.0
 22
0.0
 32
0.0
 13
1.0
 23
0.0
 33
0.0
 40
0.0
 40
0.0
 40
0.0
 40
0.0
 40
0.00426344474639
 40
0.00426344474639
 40
0.00426344474639
 40
0.00426344474639
 10
178.5556674525677
 20
93.07220555908607
 30
0.0
 10
179.4296881838047
 20
92.56758945462906
 30
0.0
 10
180.3041255946958
 20
92.06273278006161
 30
0.0
 10
181.1791614642132
 20
91.55753058524512
 30
0.0
  0
ARC
  5
229
330
1F
100
AcDbEntity
  8
0
  6
Continuous
 62
     7
370
    15
100
AcDbCircle
 10
199.7726954492
 20
76.7810968495
 30
0.0
 40
18.9733597588489
100
AcDbArc
 50
280.6301856582
 51
19.3698143418
  0
ARC
  5
22A
330
1F
100
AcDbEntity
  8
0
  6
Continuous
 62
     7
370
    15
100
AcDbCircle
 10
199.7726954492
 20
76.7810968495
 30
0.0
 40
18.97335975884889
100
AcDbArc
 50
160.6301856582
 51
259.3698143418
  0
ARC
  5
22B
330
1F
100
AcDbEntity
  8
0
  6
Continuous
 62
     7
370
    15
100
AcDbCircle
 10
199.7726954492
 20
76.7810968495
 30
0.0
 40
26.75
100
AcDbArc
 50
262.4817997988
 51
277.5182002012
  0
SPLINE
  5
22C
330
1F
100
AcDbEntity
  8
0
  6
Continuous
 62
     7
370
    15
100
AcDbSpline
210
0.0
220
0.0
230
1.0
 70
    24
 71
     3
 72
     8
 73
     4
 74
     0
 42
0.00000001
 43
0.00000001
 12
1.0
 22
0.0
 32
0.0
 13
1.0
 23
0.0
 33
0.0
 40
0.0
 40
0.0
 40
0.0
 40
0.0
 40
0.00426344474639
 40
0.00426344474639
 40
0.00426344474639
 40
0.00426344474639
 10
196.2726954492412
 20
50.26105725674461
 30
0.0
 10
196.2726954492412
 20
51.27028946565862
 30
0.0
 10
196.2726954492412
 20
52.28000281479353
 30
0.0
 10
196.2726954492412
 20
53.29040720442651
 30
0.0
  0
SPLINE
  5
22D
330
1F
100
AcDbEntity
  8
0
  6
Continuous
 62
     7
370
    15
100
AcDbSpline
210
0.0
220
0.0
230
1.0
 70
    24
 71
     3
 72
     8
 73
     4
 74
     0
 42
0.00000001
 43
0.00000001
 12
1.0
 22
0.0
 32
0.0
 13
1.0
 23
0.0
 33
0.0
 40
0.0
 40
0.0
 40
0.0
 40
0.0
 40
0.00426344474639
 40
0.00426344474639
 40
0.00426344474639
 40
0.00426344474639
 10
203.2726954492412
 20
53.29040720442644
 30
0.0
 10
203.2726954492412
 20
52.28000281479346
 30
0.0
 10
203.2726954492412
 20
51.27028946565854
 30
0.0
 10
203.2726954492412
 20
50.26105725674454
 30
0.0
  0
ARC
  5
22E
330
1F
100
AcDbEntity
  8
0
  6
Continuous
 62
     7
370
    15
100
AcDbCircle
 10
199.7726954492
 20
76.7810968495
 30
0.0
 40
24.00000000000001
100
AcDbArc
 50
38.3855386471
 51
141.6144613529
  0
ARC
  5
22F
330
1F
100
AcDbEntity
  8
0
  6
Continuous
 62
     7
370
    15
100
AcDbCircle
 10
199.7726954492
 20
76.7810968495
 30
0.0
 40
24.00000000000002
100
AcDbArc
 50
158.3855386471
 51
261.6144613529
  0
ARC
  5
230
330
1F
100
AcDbEntity
  8
0
  6
Continuous
 62
     7
370
    15
100
AcDbCircle
 10
199.7726954492
 20
76.7810968495
 30
0.0
 40
24.00000000000002
100
AcDbArc
 50
278.3855386471
 51
21.6144613529
  0
CIRCLE
  5
231
330
1F
100
AcDbEntity
  8
0
  6
Continuous
 62
     7
370
    15
100
AcDbCircle
 10
199.7726954492
 20
76.7810968495
 30
0.0
 40
27.25
  0
ARC
  5
232
330
1F
100
AcDbEntity
  8
0
  6
Continuous
 62
     7
370
    15
100
AcDbCircle
 10
237.2726954492
 20
76.7810968495
 30
0.0
 40
11.81916603920115
100
AcDbArc
 50
270.0
 51
90.0
  0
ARC
  5
233
330
1F
100
AcDbEntity
  8
0
  6
Continuous
 62
     7
370
    15
100
AcDbCircle
 10
237.2726954492
 20
76.7810968495
 30
0.0
 40
12.5
100
AcDbArc
 50
16.2602047083
 51
90.0
  0
ARC
  5
234
330
1F
100
AcDbEntity
  8
0
  6
Continuous
 62
     7
370
    15
100
AcDbCircle
 10
237.2726954492
 20
76.7810968495
 30
0.0
 40
12.49999999999997
100
AcDbArc
 50
0.0
 51
16.2602047083
  0
ARC
  5
235
330
1F
100
AcDbEntity
  8
0
  6
Continuous
 62
     7
370
    15
100
AcDbCircle
 10
237.2726954492
 20
76.7810968495
 30
0.0
 40
12.49999999999997
100
AcDbArc
 50
343.7397952917
 51
0.0
  0
ARC
  5
236
330
1F
100
AcDbEntity
  8
0
  6
Continuous
 62
     7
370
    15
100
AcDbCircle
 10
237.2726954492
 20
76.7810968495
 30
0.0
 40
12.50000000000001
100
AcDbArc
 50
270.0
 51
343.7397952917
  0
LINE
  5
237
330
1F
100
AcDbEntity
  8
0
  6
Continuous
 62
     7
370
    15
100
AcDbLine
 10
237.2726969394
 20
88.6002629808
 30
0.0
 11
224.3261024329
 21
88.6002629808
 31
0.0
  0
SPLINE
  5
238
330
1F
100
AcDbEntity
  8
0
  6
Continuous
 62
     7
370
    15
100
AcDbSpline
210
0.0
220
0.0
230
1.0
 70
     8
 71
     3
 72
    14
 73
    10
 74
     0
 42
0.00000001
 43
0.00000001
 12
1.0
 22
0.0
 32
0.0
 13
1.0
 23
0.0
 33
0.0
 40
0.0
 40
0.0
 40
0.0
 40
0.0
 40
0.25
 40
0.25
 40
0.5
 40
0.5
 40
0.75
 40
0.75
 40
1.0
 40
1.0
 40
1.0
 40
1.0
 10
228.2306154459296
 20
88.93162883076519
 30
0.0
 10
228.1632857053038
 20
88.90975226300624
 30
0.0
 10
228.0259866617148
 20
88.888345335257
 30
0.0
 10
227.6179929555068
 20
88.84642684268435
 30
0.0
 10
227.3472761243327
 20
88.82591542665818
 30
0.0
 10
226.6682365548286
 20
88.78581621734952
 30
0.0
 10
226.2685304406197
 20
88.76674719298816
 30
0.0
 10
225.3580763252674
 20
88.7305889689243
 30
0.0
 10
224.8468897149491
 20
88.71347766873197
 30
0.0
 10
224.2791341272994
 20
88.69734472028533
 30
0.0
  0
SPLINE
  5
239
330
1F
100
AcDbEntity
  8
0
  6
Continuous
 62
     7
370
    15
100
AcDbSpline
210
0.0
220
0.0
230
1.0
 70
     8
 71
     3
 72
     8
 73
     4
 74
     0
 42
0.00000001
 43
0.00000001
 12
1.0
 22
0.0
 32
0.0
 13
1.0
 23
0.0
 33
0.0
 40
0.0
 40
0.0
 40
0.0
 40
0.0
 40
1.0
 40
1.0
 40
1.0
 40
1.0
 10
234.4125409805238
 20
89.01923763378333
 30
0.0
 10
232.3570202824935
 20
88.98978795276403
 30
0.0
 10
230.2973762720873
 20
88.96053694084601
 30
0.0
 10
228.2306154459296
 20
88.93162883076519
 30
0.0
  0
LINE
  5
23A
330
1F
100
AcDbEntity
  8
0
  6
Continuous
 62
     7
370
    15
100
AcDbLine
 10
234.5972567769
 20
89.2810970357
 30
0.0
 11
234.4125419828
 21
89.0192379988
 31
0.0
  0
LINE
  5
23B
330
1F
100
AcDbEntity
  8
0
  6
Continuous
 62
     7
370
    15
100
AcDbLine
 10
237.2726969394
 20
89.2810970357
 30
0.0
 11
234.5972567769
 21
89.2810970357
 31
0.0
  0
SPLINE
  5
23C
330
1F
100
AcDbEntity
  8
0
  6
Continuous
 62
     7
370
    15
100
AcDbSpline
210
0.0
220
0.0
230
1.0
 70
     8
 71
     3
 72
    14
 73
    10
 74
     0
 42
0.00000001
 43
0.00000001
 12
1.0
 22
0.0
 32
0.0
 13
1.0
 23
0.0
 33
0.0
 40
0.0
 40
0.0
 40
0.0
 40
0.0
 40
0.25
 40
0.25
 40
0.5
 40
0.5
 40
0.75
 40
0.75
 40
1.0
 40
1.0
 40
1.0
 40
1.0
 10
175.2662567711836
 20
88.69734472028533
 30
0.0
 10
174.6985158853694
 20
88.71347725097482
 30
0.0
 10
174.1875708828447
 20
88.73058154364016
 30
0.0
 10
173.2777766435986
 20
88.76670805675978
 30
0.0
 10
172.8788796060209
 20
88.78572945935454
 30
0.0
 10
172.1997661798528
 20
88.82580285787714
 30
0.0
 10
171.9278891351931
 20
88.84638263548032
 30
0.0
 10
171.5194334454765
 20
88.88833608288576
 30
0.0
 10
171.3821046240232
 20
88.90975244793461
 30
0.0
 10
171.3147754525533
 20
88.93162883076519
 30
0.0
  0
LINE
  5
23D
330
1F
100
AcDbEntity
  8
0
  6
Continuous
 62
     7
370
    15
100
AcDbLine
 10
175.2192884656
 20
88.6002629808
 30
0.0
 11
162.2726939591
 21
88.6002629808
 31
0.0
  0
LINE
  5
23E
330
1F
100
AcDbEntity
  8
0
  6
Continuous
 62
     7
370
    15
100
AcDbLine
 10
164.9481341215
 20
89.2810970357
 30
0.0
 11
162.2726939591
 21
89.2810970357
 31
0.0
  0
LINE
  5
23F
330
1F
100
AcDbEntity
  8
0
  6
Continuous
 62
     7
370
    15
100
AcDbLine
 10
165.1328489157
 20
89.0192379988
 30
0.0
 11
164.9481341215
 21
89.2810970357
 31
0.0
  0
SPLINE
  5
240
330
1F
100
AcDbEntity
  8
0
  6
Continuous
 62
     7
370
    15
100
AcDbSpline
210
0.0
220
0.0
230
1.0
 70
     8
 71
     3
 72
     8
 73
     4
 74
     0
 42
0.00000001
 43
0.00000001
 12
1.0
 22
0.0
 32
0.0
 13
1.0
 23
0.0
 33
0.0
 40
0.0
 40
0.0
 40
0.0
 40
0.0
 40
1.0
 40
1.0
 40
1.0
 40
1.0
 10
171.3147754525533
 20
88.93162883076519
 30
0.0
 10
169.2480146263957
 20
88.96053694084601
 30
0.0
 10
167.1883706159895
 20
88.98978795276403
 30
0.0
 10
165.1328499179592
 20
89.01923763378333
 30
0.0
  0
ARC
  5
241
330
1F
100
AcDbEntity
  8
0
  6
Continuous
 62
     7
370
    15
100
AcDbCircle
 10
162.2726954492
 20
76.7810968495
 30
0.0
 40
11.81916603920115
100
AcDbArc
 50
90.0
 51
270.0
  0
ARC
  5
242
330
1F
100
AcDbEntity
  8
0
  6
Continuous
 62
     7
370
    15
100
AcDbCircle
 10
162.2726954492
 20
76.7810968495
 30
0.0
 40
12.50000000000001
100
AcDbArc
 50
196.2602047083
 51
270.0
  0
ARC
  5
243
330
1F
100
AcDbEntity
  8
0
  6
Continuous
 62
     7
370
    15
100
AcDbCircle
 10
162.2726954492
 20
76.7810968495
 30
0.0
 40
12.49999999999997
100
AcDbArc
 50
180.0
 51
196.2602047083
  0
ARC
  5
244
330
1F
100
AcDbEntity
  8
0
  6
Continuous
 62
     7
370
    15
100
AcDbCircle
 10
162.2726954492
 20
76.7810968495
 30
0.0
 40
12.49999999999997
100
AcDbArc
 50
163.7397952917
 51
180.0
  0
ARC
  5
245
330
1F
100
AcDbEntity
  8
0
  6
Continuous
 62
     7
370
    15
100
AcDbCircle
 10
162.2726954492
 20
76.7810968495
 30
0.0
 40
12.5
100
AcDbArc
 50
90.0
 51
163.7397952917
  0
LINE
  5
246
330
1F
100
AcDbEntity
  8
0
  6
Continuous
 62
     7
370
    15
100
AcDbLine
 10
162.2726939591
 20
64.9619307182
 30
0.0
 11
175.2192884656
 21
64.9619307182
 31
0.0
  0
SPLINE
  5
247
330
1F
100
AcDbEntity
  8
0
  6
Continuous
 62
     7
370
    15
100
AcDbSpline
210
0.0
220
0.0
230
1.0
 70
     8
 71
     3
 72
    14
 73
    10
 74
     0
 42
0.00000001
 43
0.00000001
 12
1.0
 22
0.0
 32
0.0
 13
1.0
 23
0.0
 33
0.0
 40
0.0
 40
0.0
 40
0.0
 40
0.0
 40
0.25
 40
0.25
 40
0.5
 40
0.5
 40
0.75
 40
0.75
 40
1.0
 40
1.0
 40
1.0
 40
1.0
 10
171.3147754525533
 20
64.6305648681852
 30
0.0
 10
171.3821051931791
 20
64.65244143594417
 30
0.0
 10
171.5194042367681
 20
64.6738483636934
 30
0.0
 10
171.9273979429761
 20
64.71576685626606
 30
0.0
 10
172.1981147741502
 20
64.73627827229222
 30
0.0
 10
172.8771543436543
 20
64.77637748160087
 30
0.0
 10
173.2768604578632
 20
64.79544650596225
 30
0.0
 10
174.1873145732155
 20
64.8316047300261
 30
0.0
 10
174.6985011835338
 20
64.84871603021844
 30
0.0
 10
175.2662567711836
 20
64.86484897866507
 30
0.0
  0
SPLINE
  5
248
330
1F
100
AcDbEntity
  8
0
  6
Continuous
 62
     7
370
    15
100
AcDbSpline
210
0.0
220
0.0
230
1.0
 70
     8
 71
     3
 72
     8
 73
     4
 74
     0
 42
0.00000001
 43
0.00000001
 12
1.0
 22
0.0
 32
0.0
 13
1.0
 23
0.0
 33
0.0
 40
0.0
 40
0.0
 40
0.0
 40
0.0
 40
1.0
 40
1.0
 40
1.0
 40
1.0
 10
165.1328499179592
 20
64.54295606516708
 30
0.0
 10
167.1883706159895
 20
64.57240574618636
 30
0.0
 10
169.2480146263957
 20
64.6016567581044
 30
0.0
 10
171.3147754525533
 20
64.6305648681852
 30
0.0
  0
LINE
  5
249
330
1F
100
AcDbEntity
  8
0
  6
Continuous
 62
     7
370
    15
100
AcDbLine
 10
164.9481341215
 20
64.2810966632
 30
0.0
 11
165.1328489157
 21
64.5429557002
 31
0.0
  0
LINE
  5
24A
330
1F
100
AcDbEntity
  8
0
  6
Continuous
 62
     7
370
    15
100
AcDbLine
 10
162.2726939591
 20
64.2810966632
 30
0.0
 11
164.9481341215
 21
64.2810966632
 31
0.0
  0
SPLINE
  5
24B
330
1F
100
AcDbEntity
  8
0
  6
Continuous
 62
     7
370
    15
100
AcDbSpline
210
0.0
220
0.0
230
1.0
 70
     8
 71
     3
 72
    14
 73
    10
 74
     0
 42
0.00000001
 43
0.00000001
 12
1.0
 22
0.0
 32
0.0
 13
1.0
 23
0.0
 33
0.0
 40
0.0
 40
0.0
 40
0.0
 40
0.0
 40
0.25
 40
0.25
 40
0.5
 40
0.5
 40
0.75
 40
0.75
 40
1.0
 40
1.0
 40
1.0
 40
1.0
 10
224.2791341272994
 20
64.86484897866507
 30
0.0
 10
224.8468750131135
 20
64.84871644797559
 30
0.0
 10
225.3578200156383
 20
64.83161215531027
 30
0.0
 10
226.2676142548844
 20
64.79548564219063
 30
0.0
 10
226.6665112924621
 20
64.77646423959587
 30
0.0
 10
227.3456247186302
 20
64.73639084107326
 30
0.0
 10
227.6175017632899
 20
64.71581106347007
 30
0.0
 10
228.0259574530065
 20
64.67385761606467
 30
0.0
 10
228.1632862744598
 20
64.65244125101582
 30
0.0
 10
228.2306154459296
 20
64.6305648681852
 30
0.0
  0
LINE
  5
24C
330
1F
100
AcDbEntity
  8
0
  6
Continuous
 62
     7
370
    15
100
AcDbLine
 10
224.3261024329
 20
64.9619307182
 30
0.0
 11
237.2726969394
 21
64.9619307182
 31
0.0
  0
LINE
  5
24D
330
1F
100
AcDbEntity
  8
0
  6
Continuous
 62
     7
370
    15
100
AcDbLine
 10
234.5972567769
 20
64.2810966632
 30
0.0
 11
237.2726969394
 21
64.2810966632
 31
0.0
  0
LINE
  5
24E
330
1F
100
AcDbEntity
  8
0
  6
Continuous
 62
     7
370
    15
100
AcDbLine
 10
234.4125419828
 20
64.5429557002
 30
0.0
 11
234.5972567769
 21
64.2810966632
 31
0.0
  0
SPLINE
  5
24F
330
1F
100
AcDbEntity
  8
0
  6
Continuous
 62
     7
370
    15
100
AcDbSpline
210
0.0
220
0.0
230
1.0
 70
     8
 71
     3
 72
     8
 73
     4
 74
     0
 42
0.00000001
 43
0.00000001
 12
1.0
 22
0.0
 32
0.0
 13
1.0
 23
0.0
 33
0.0
 40
0.0
 40
0.0
 40
0.0
 40
0.0
 40
1.0
 40
1.0
 40
1.0
 40
1.0
 10
228.2306154459296
 20
64.6305648681852
 30
0.0
 10
230.2973762720873
 20
64.6016567581044
 30
0.0
 10
232.3570202824935
 20
64.57240574618636
 30
0.0
 10
234.4125409805238
 20
64.54295606516708
 30
0.0
  0
ARC
  5
250
330
1F
100
AcDbEntity
  8
0
  6
Continuous
 62
     7
370
    15
100
AcDbCircle
 10
199.7726954492
 20
76.7810968495
 30
0.0
 40
30.94331329974628
100
AcDbArc
 50
23.1207795216
 51
156.8792204784
  0
ARC
  5
251
330
1F
100
AcDbEntity
  8
0
  6
Continuous
 62
     7
370
    15
100
AcDbCircle
 10
199.7726954492
 20
76.7810968495
 30
0.0
 40
30.94331329974628
100
AcDbArc
 50
203.1207795216
 51
336.8792204784
  0
ARC
  5
252
330
1F
100
AcDbEntity
  8
0
  6
Continuous
 62
     7
370
    15
100
AcDbCircle
 10
199.7726954492
 20
76.7810968495
 30
0.0
 40
36.73814078430814
100
AcDbArc
 50
112.2608601122
 51
160.5418569914
  0
SPLINE
  5
253
330
1F
100
AcDbEntity
  8
0
  6
Continuous
 62
     7
370
    15
100
AcDbSpline
210
0.0
220
0.0
230
1.0
 70
    24
 71
     3
 72
    18
 73
    14
 74
     0
 42
0.00000001
 43
0.00000001
 12
1.0
 22
0.0
 32
0.0
 13
1.0
 23
0.0
 33
0.0
 40
0.0
 40
0.0
 40
0.0
 40
0.0
 40
0.1249999999999999
 40
0.1249999999999999
 40
0.2499999999999999
 40
0.2499999999999999
 40
0.5
 40
0.5
 40
0.625
 40
0.625
 40
0.7500000000000001
 40
0.7500000000000001
 40
1.0
 40
1.0
 40
1.0
 40
1.0
 10
185.8554044668827
 20
110.7810968494752
 30
0.0
 10
187.0046355905155
 20
110.7810968494752
 30
0.0
 10
188.1593098723037
 20
110.7810968494752
 30
0.0
 10
190.4685759553464
 20
110.7810968494752
 30
0.0
 10
191.6249001472712
 20
110.7810968494752
 30
0.0
 10
195.0993837035638
 20
110.7810968494752
 30
0.0
 10
197.4231122005936
 20
110.7810968494752
 30
0.0
 10
200.9207643107497
 20
110.7810968494752
 30
0.0
 10
202.0886446330649
 20
110.7810968494752
 30
0.0
 10
204.4283761248931
 20
110.7810968494752
 30
0.0
 10
205.6031866959995
 20
110.7810968494752
 30
0.0
 10
209.1121752604886
 20
110.7810968494752
 30
0.0
 10
211.4151591043473
 20
110.7810968494752
 30
0.0
 10
213.6899864316002
 20
110.7810968494752
 30
0.0
  0
ARC
  5
254
330
1F
100
AcDbEntity
  8
0
  6
Continuous
 62
     7
370
    15
100
AcDbCircle
 10
199.7726954492
 20
76.7810968495
 30
0.0
 40
36.73814078430814
100
AcDbArc
 50
19.4581430086
 51
67.7391398878
  0
ARC
  5
255
330
1F
100
AcDbEntity
  8
0
  6
Continuous
 62
     7
370
    15
100
AcDbCircle
 10
199.7726954492
 20
76.7810968495
 30
0.0
 40
36.73814078430814
100
AcDbArc
 50
292.2608601122
 51
340.5418569914
  0
SPLINE
  5
256
330
1F
100
AcDbEntity
  8
0
  6
Continuous
 62
     7
370
    15
100
AcDbSpline
210
0.0
220
0.0
230
1.0
 70
    24
 71
     3
 72
    18
 73
    14
 74
     0
 42
0.00000001
 43
0.00000001
 12
1.0
 22
0.0
 32
0.0
 13
1.0
 23
0.0
 33
0.0
 40
0.0
 40
0.0
 40
0.0
 40
0.0
 40
0.125
 40
0.125
 40
0.25
 40
0.25
 40
0.4999999999999999
 40
0.4999999999999999
 40
0.6249999999999999
 40
0.6249999999999999
 40
0.7499999999999999
 40
0.7499999999999999
 40
1.0
 40
1.0
 40
1.0
 40
1.0
 10
185.8554044668827
 20
42.7810968494752
 30
0.0
 10
187.0046355905155
 20
42.7810968494752
 30
0.0
 10
188.1593098723037
 20
42.7810968494752
 30
0.0
 10
190.4685759553464
 20
42.7810968494752
 30
0.0
 10
191.6249001472712
 20
42.7810968494752
 30
0.0
 10
195.0993837035638
 20
42.78109684947518
 30
0.0
 10
197.4231122005936
 20
42.7810968494752
 30
0.0
 10
200.9207643107497
 20
42.78109684947518
 30
0.0
 10
202.0886446330649
 20
42.7810968494752
 30
0.0
 10
204.4283761248931
 20
42.78109684947519
 30
0.0
 10
205.6031866959995
 20
42.7810968494752
 30
0.0
 10
209.1121752604886
 20
42.78109684947518
 30
0.0
 10
211.4151591043473
 20
42.78109684947518
 30
0.0
 10
213.6899864316002
 20
42.7810968494752
 30
0.0
  0
ARC
  5
257
330
1F
100
AcDbEntity
  8
0
  6
Continuous
 62
     7
370
    15
100
AcDbCircle
 10
199.7726954492
 20
76.7810968495
 30
0.0
 40
36.73814078430814
100
AcDbArc
 50
199.4581430086
 51
247.7391398878
  0
ARC
  5
258
330
1F
100
AcDbEntity
  8
0
  6
Continuous
 62
     7
370
    15
100
AcDbCircle
 10
199.7726954492
 20
76.7810968495
 30
0.0
 40
37.00000000000001
100
AcDbArc
 50
113.231456505
 51
160.2548018994
  0
SPLINE
  5
259
330
1F
100
AcDbEntity
  8
0
  6
Continuous
 62
     7
370
    15
100
AcDbSpline
210
0.0
220
0.0
230
1.0
 70
    24
 71
     3
 72
     8
 73
     4
 74
     0
 42
0.00000001
 43
0.00000001
 12
1.0
 22
0.0
 32
0.0
 13
1.0
 23
0.0
 33
0.0
 40
0.0
 40
0.0
 40
0.0
 40
0.0
 40
1.0
 40
1.0
 40
1.0
 40
1.0
 10
185.1781759299151
 20
110.7810968494752
 30
0.0
 10
185.3994835189937
 20
110.7810968494752
 30
0.0
 10
185.6250150885685
 20
110.7810968494752
 30
0.0
 10
185.8554044668827
 20
110.7810968494752
 30
0.0
  0
ARC
  5
25A
330
1F
100
AcDbEntity
  8
0
  6
Continuous
 62
     7
370
    15
100
AcDbCircle
 10
199.7726954492
 20
76.7810968495
 30
0.0
 40
37.00000000000001
100
AcDbArc
 50
19.7451981006
 51
66.768543495
  0
SPLINE
  5
25B
330
1F
100
AcDbEntity
  8
0
  6
Continuous
 62
     7
370
    15
100
AcDbSpline
210
0.0
220
0.0
230
1.0
 70
    24
 71
     3
 72
     8
 73
     4
 74
     0
 42
0.00000001
 43
0.00000001
 12
1.0
 22
0.0
 32
0.0
 13
1.0
 23
0.0
 33
0.0
 40
0.0
 40
0.0
 40
0.0
 40
0.0
 40
1.0
 40
1.0
 40
1.0
 40
1.0
 10
213.6899864316002
 20
110.7810968494752
 30
0.0
 10
213.9203758099144
 20
110.7810968494752
 30
0.0
 10
214.1459073794893
 20
110.7810968494752
 30
0.0
 10
214.3672149685679
 20
110.7810968494752
 30
0.0
  0
ARC
  5
25C
330
1F
100
AcDbEntity
  8
0
  6
Continuous
 62
     7
370
    15
100
AcDbCircle
 10
199.7726954492
 20
76.7810968495
 30
0.0
 40
37.00000000000002
100
AcDbArc
 50
293.231456505
 51
340.2548018994
  0
SPLINE
  5
25D
330
1F
100
AcDbEntity
  8
0
  6
Continuous
 62
     7
370
    15
100
AcDbSpline
210
0.0
220
0.0
230
1.0
 70
    24
 71
     3
 72
     8
 73
     4
 74
     0
 42
0.00000001
 43
0.00000001
 12
1.0
 22
0.0
 32
0.0
 13
1.0
 23
0.0
 33
0.0
 40
0.0
 40
0.0
 40
0.0
 40
0.0
 40
1.0
 40
1.0
 40
1.0
 40
1.0
 10
214.3672149685679
 20
42.7810968494752
 30
0.0
 10
214.1459073794893
 20
42.7810968494752
 30
0.0
 10
213.9203758099144
 20
42.7810968494752
 30
0.0
 10
213.6899864316002
 20
42.7810968494752
 30
0.0
  0
ARC
  5
25E
330
1F
100
AcDbEntity
  8
0
  6
Continuous
 62
     7
370
    15
100
AcDbCircle
 10
199.7726954492
 20
76.7810968495
 30
0.0
 40
37.00000000000002
100
AcDbArc
 50
199.7451981006
 51
246.768543495
  0
SPLINE
  5
25F
330
1F
100
AcDbEntity
  8
0
  6
Continuous
 62
     7
370
    15
100
AcDbSpline
210
0.0
220
0.0
230
1.0
 70
    24
 71
     3
 72
     8
 73
     4
 74
     0
 42
0.00000001
 43
0.00000001
 12
1.0
 22
0.0
 32
0.0
 13
1.0
 23
0.0
 33
0.0
 40
0.0
 40
0.0
 40
0.0
 40
0.0
 40
1.0
 40
1.0
 40
1.0
 40
1.0
 10
185.8554044668827
 20
42.7810968494752
 30
0.0
 10
185.6250150885685
 20
42.7810968494752
 30
0.0
 10
185.3994835189936
 20
42.7810968494752
 30
0.0
 10
185.1781759299151
 20
42.7810968494752
 30
0.0
  0
LINE
  5
260
330
1F
100
AcDbEntity
  8
0
  6
Continuous
 62
     7
370
    15
100
AcDbLine
 10
149.7726947042
 20
76.7810968495
 30
0.0
 11
149.7726947042
 21
80.2810969575
 31
0.0
  0
LINE
  5
261
330
1F
100
AcDbEntity
  8
0
  6
Continuous
 62
     7
370
    15
100
AcDbLine
 10
149.7726947042
 20
80.2810969575
 30
0.0
 11
150.2726957175
 21
80.2810969575
 31
0.0
  0
LINE
  5
262
330
1F
100
AcDbEntity
  8
0
  6
Continuous
 62
     7
370
    15
100
AcDbLine
 10
249.7726961943
 20
80.2810969575
 30
0.0
 11
249.7726961943
 21
76.7810968495
 31
0.0
  0
LINE
  5
263
330
1F
100
AcDbEntity
  8
0
  6
Continuous
 62
     7
370
    15
100
AcDbLine
 10
249.7726961943
 20
80.2810969575
 30
0.0
 11
249.272695181
 21
80.2810969575
 31
0.0
  0
LINE
  5
264
330
1F
100
AcDbEntity
  8
0
  6
Continuous
 62
     7
370
    15
100
AcDbLine
 10
149.7726947042
 20
73.2810967414
 30
0.0
 11
150.2726957175
 21
73.2810967414
 31
0.0
  0
LINE
  5
265
330
1F
100
AcDbEntity
  8
0
  6
Continuous
 62
     7
370
    15
100
AcDbLine
 10
149.7726947042
 20
73.2810967414
 30
0.0
 11
149.7726947042
 21
76.7810968495
 31
0.0
  0
LINE
  5
266
330
1F
100
AcDbEntity
  8
0
  6
Continuous
 62
     7
370
    15
100
AcDbLine
 10
249.7726961943
 20
76.7810968495
 30
0.0
 11
249.7726961943
 21
73.2810967414
 31
0.0
  0
LINE
  5
267
330
1F
100
AcDbEntity
  8
0
  6
Continuous
 62
     7
370
    15
100
AcDbLine
 10
249.7726961943
 20
73.2810967414
 30
0.0
 11
249.272695181
 21
73.2810967414
 31
0.0
  0
LINE
  5
268
330
1F
100
AcDbEntity
  8
0
  6
Continuous
 62
     7
370
    15
100
AcDbLine
 10
257.2726964923
 20
103.3392092026
 30
0.0
 11
257.2726964923
 21
90.060153026
 31
0.0
  0
LINE
  5
269
330
1F
100
AcDbEntity
  8
0
  6
Continuous
 62
     7
370
    15
100
AcDbLine
 10
235.8308084282
 20
90.060153026
 30
0.0
 11
257.2726964923
 21
90.060153026
 31
0.0
  0
SPLINE
  5
26A
330
1F
100
AcDbEntity
  8
0
  6
Continuous
 62
     7
370
    15
100
AcDbSpline
210
0.0
220
0.0
230
1.0
 70
     8
 71
     3
 72
    12
 73
     8
 74
     0
 42
0.00000001
 43
0.00000001
 12
1.0
 22
0.0
 32
0.0
 13
1.0
 23
0.0
 33
0.0
 40
0.0
 40
0.0
 40
0.0
 40
0.0
 40
0.5000000000000004
 40
0.5000000000000004
 40
0.7500000000000002
 40
0.7500000000000002
 40
1.0
 40
1.0
 40
1.0
 40
1.0
 10
232.2726954492415
 20
96.69968113651733
 30
0.0
 10
232.2726954492415
 20
95.54480099202753
 30
0.0
 10
232.6258679983351
 20
94.40955853747799
 30
0.0
 10
233.5805392003075
 20
92.73032154339853
 30
0.0
 10
233.9637639379801
 20
92.18257010646774
 30
0.0
 10
234.8287733285337
 20
91.1076908448579
 30
0.0
 10
235.3108235394387
 20
90.58013733336212
 30
0.0
 10
235.8308078319642
 20
90.06015304083661
 30
0.0
  0
SPLINE
  5
26B
330
1F
100
AcDbEntity
  8
0
  6
Continuous
 62
     7
370
    15
100
AcDbSpline
210
0.0
220
0.0
230
1.0
 70
     8
 71
     3
 72
    14
 73
    10
 74
     0
 42
0.00000001
 43
0.00000001
 12
1.0
 22
0.0
 32
0.0
 13
1.0
 23
0.0
 33
0.0
 40
0.0
 40
0.0
 40
0.0
 40
0.0
 40
0.5000000000000001
 40
0.5000000000000001
 40
0.75
 40
0.75
 40
0.8750000000000001
 40
0.8750000000000001
 40
1.0
 40
1.0
 40
1.0
 40
1.0
 10
235.8308078319642
 20
103.339209232198
 30
0.0
 10
234.7896334006965
 20
102.2980348009302
 30
0.0
 10
233.9049068773726
 20
101.2332966906242
 30
0.0
 10
232.9589712505962
 20
99.57878131583747
 30
0.0
 10
232.7078592853446
 20
99.01760660758572
 30
0.0
 10
232.4499520535585
 20
98.15795718939044
 30
0.0
 10
232.3837942270294
 20
97.86842347667071
 30
0.0
 10
232.2948429919968
 20
97.28282464252491
 30
0.0
 10
232.2726954492415
 20
96.99043761058864
 30
0.0
 10
232.2726954492415
 20
96.69968113651733
 30
0.0
  0
LINE
  5
26C
330
1F
100
AcDbEntity
  8
0
  6
Continuous
 62
     7
370
    15
100
AcDbLine
 10
235.8308084282
 20
103.3392092026
 30
0.0
 11
257.2726964923
 21
103.3392092026
 31
0.0
  0
SPLINE
  5
26D
330
1F
100
AcDbEntity
  8
0
  6
Continuous
 62
     7
370
    15
100
AcDbSpline
210
0.0
220
0.0
230
1.0
 70
     8
 71
     3
 72
    14
 73
    10
 74
     0
 42
0.00000001
 43
0.00000001
 12
1.0
 22
0.0
 32
0.0
 13
1.0
 23
0.0
 33
0.0
 40
0.0
 40
0.0
 40
0.0
 40
0.0
 40
0.5000000000000001
 40
0.5000000000000001
 40
0.75
 40
0.75
 40
0.8750000000000001
 40
0.8750000000000001
 40
1.0
 40
1.0
 40
1.0
 40
1.0
 10
163.7145830665188
 20
103.339209232198
 30
0.0
 10
164.7557574977865
 20
102.2980348009302
 30
0.0
 10
165.6404840211104
 20
101.2332966906242
 30
0.0
 10
166.5864196478867
 20
99.57878131583747
 30
0.0
 10
166.8375316131383
 20
99.01760660758572
 30
0.0
 10
167.0954388449245
 20
98.15795718939044
 30
0.0
 10
167.1615966714536
 20
97.86842347667071
 30
0.0
 10
167.2505479064861
 20
97.28282464252491
 30
0.0
 10
167.2726954492415
 20
96.99043761058864
 30
0.0
 10
167.2726954492415
 20
96.69968113651733
 30
0.0
  0
SPLINE
  5
26E
330
1F
100
AcDbEntity
  8
0
  6
Continuous
 62
     7
370
    15
100
AcDbSpline
210
0.0
220
0.0
230
1.0
 70
     8
 71
     3
 72
    12
 73
     8
 74
     0
 42
0.00000001
 43
0.00000001
 12
1.0
 22
0.0
 32
0.0
 13
1.0
 23
0.0
 33
0.0
 40
0.0
 40
0.0
 40
0.0
 40
0.0
 40
0.5000000000000004
 40
0.5000000000000004
 40
0.7500000000000002
 40
0.7500000000000002
 40
1.0
 40
1.0
 40
1.0
 40
1.0
 10
167.2726954492415
 20
96.69968113651733
 30
0.0
 10
167.2726954492414
 20
95.54480099202753
 30
0.0
 10
166.9195229001479
 20
94.40955853747799
 30
0.0
 10
165.9648516981754
 20
92.73032154339853
 30
0.0
 10
165.5816269605029
 20
92.18257010646774
 30
0.0
 10
164.7166175699492
 20
91.1076908448579
 30
0.0
 10
164.2345673590442
 20
90.58013733336212
 30
0.0
 10
163.7145830665187
 20
90.06015304083661
 30
0.0
  0
LINE
  5
26F
330
1F
100
AcDbEntity
  8
0
  6
Continuous
 62
     7
370
    15
100
AcDbLine
 10
163.7145824703
 20
90.060153026
 30
0.0
 11
142.2726944062
 21
90.060153026
 31
0.0
  0
LINE
  5
270
330
1F
100
AcDbEntity
  8
0
  6
Continuous
 62
     7
370
    15
100
AcDbLine
 10
142.2726944062
 20
103.3392092026
 30
0.0
 11
142.2726944062
 21
90.060153026
 31
0.0
  0
LINE
  5
271
330
1F
100
AcDbEntity
  8
0
  6
Continuous
 62
     7
370
    15
100
AcDbLine
 10
163.7145824703
 20
103.3392092026
 30
0.0
 11
142.2726944062
 21
103.3392092026
 31
0.0
  0
LINE
  5
272
330
1F
100
AcDbEntity
  8
0
  6
Continuous
 62
     7
370
    15
100
AcDbLine
 10
232.2726942571
 20
94.4658359325
 30
0.0
 11
232.2726942571
 21
96.6996820456
 31
0.0
  0
LINE
  5
273
330
1F
100
AcDbEntity
  8
0
  6
Continuous
 62
     7
370
    15
100
AcDbLine
 10
235.8308084282
 20
90.060153026
 30
0.0
 11
235.4525946053
 21
89.2810970357
 31
0.0
  0
LINE
  5
274
330
1F
100
AcDbEntity
  8
0
  6
Continuous
 62
     7
370
    15
100
AcDbLine
 10
163.7145824703
 20
90.060153026
 30
0.0
 11
164.0927962931
 21
89.2810970357
 31
0.0
  0
LINE
  5
275
330
1F
100
AcDbEntity
  8
0
  6
Continuous
 62
     7
370
    15
100
AcDbLine
 10
167.2726966413
 20
94.4658359325
 30
0.0
 11
167.2726966413
 21
96.6996820456
 31
0.0
  0
LINE
  5
276
330
1F
100
AcDbEntity
  8
0
  6
Continuous
 62
     7
370
    15
100
AcDbLine
 10
163.7145824703
 20
63.5020406729
 30
0.0
 11
164.0927962931
 21
64.2810966632
 31
0.0
  0
LINE
  5
277
330
1F
100
AcDbEntity
  8
0
  6
Continuous
 62
     7
370
    15
100
AcDbLine
 10
163.7145824703
 20
63.5020406729
 30
0.0
 11
142.2726944062
 21
63.5020406729
 31
0.0
  0
LINE
  5
278
330
1F
100
AcDbEntity
  8
0
  6
Continuous
 62
     7
370
    15
100
AcDbLine
 10
142.2726944062
 20
63.5020406729
 30
0.0
 11
142.2726944062
 21
90.060153026
 31
0.0
  0
LINE
  5
279
330
1F
100
AcDbEntity
  8
0
  6
Continuous
 62
     7
370
    15
100
AcDbLine
 10
235.8308084282
 20
63.5020406729
 30
0.0
 11
257.2726964923
 21
63.5020406729
 31
0.0
  0
LINE
  5
27A
330
1F
100
AcDbEntity
  8
0
  6
Continuous
 62
     7
370
    15
100
AcDbLine
 10
235.8308084282
 20
63.5020406729
 30
0.0
 11
235.4525946053
 21
64.2810966632
 31
0.0
  0
LINE
  5
27B
330
1F
100
AcDbEntity
  8
0
  6
Continuous
 62
     7
370
    15
100
AcDbLine
 10
257.2726964923
 20
90.060153026
 30
0.0
 11
257.2726964923
 21
63.5020406729
 31
0.0
  0
SPLINE
  5
27C
330
1F
100
AcDbEntity
  8
0
  6
Continuous
 62
     7
370
    15
100
AcDbSpline
210
0.0
220
0.0
230
1.0
 70
     8
 71
     3
 72
    12
 73
     8
 74
     0
 42
0.00000001
 43
0.00000001
 12
1.0
 22
0.0
 32
0.0
 13
1.0
 23
0.0
 33
0.0
 40
0.0
 40
0.0
 40
0.0
 40
0.0
 40
0.5000000000000004
 40
0.5000000000000004
 40
0.7500000000000002
 40
0.7500000000000002
 40
1.0
 40
1.0
 40
1.0
 40
1.0
 10
232.2726954492415
 20
56.86251256243308
 30
0.0
 10
232.2726954492415
 20
58.01739270692288
 30
0.0
 10
232.6258679983351
 20
59.1526351614724
 30
0.0
 10
233.5805392003075
 20
60.83187215555187
 30
0.0
 10
233.9637639379801
 20
61.37962359248266
 30
0.0
 10
234.8287733285337
 20
62.45450285409252
 30
0.0
 10
235.3108235394387
 20
62.98205636558828
 30
0.0
 10
235.8308078319642
 20
63.50204065811379
 30
0.0
  0
LINE
  5
27D
330
1F
100
AcDbEntity
  8
0
  6
Continuous
 62
     7
370
    15
100
AcDbLine
 10
232.2726942571
 20
59.0963577664
 30
0.0
 11
232.2726942571
 21
56.8625116533
 31
0.0
  0
LINE
  5
27E
330
1F
100
AcDbEntity
  8
0
  6
Continuous
 62
     7
370
    15
100
AcDbLine
 10
167.2726966413
 20
59.0963577664
 30
0.0
 11
167.2726966413
 21
56.8625116533
 31
0.0
  0
SPLINE
  5
27F
330
1F
100
AcDbEntity
  8
0
  6
Continuous
 62
     7
370
    15
100
AcDbSpline
210
0.0
220
0.0
230
1.0
 70
     8
 71
     3
 72
    12
 73
     8
 74
     0
 42
0.00000001
 43
0.00000001
 12
1.0
 22
0.0
 32
0.0
 13
1.0
 23
0.0
 33
0.0
 40
0.0
 40
0.0
 40
0.0
 40
0.0
 40
0.5000000000000004
 40
0.5000000000000004
 40
0.7500000000000002
 40
0.7500000000000002
 40
1.0
 40
1.0
 40
1.0
 40
1.0
 10
167.2726954492415
 20
56.86251256243308
 30
0.0
 10
167.2726954492414
 20
58.01739270692288
 30
0.0
 10
166.9195229001479
 20
59.1526351614724
 30
0.0
 10
165.9648516981754
 20
60.83187215555187
 30
0.0
 10
165.5816269605029
 20
61.37962359248266
 30
0.0
 10
164.7166175699492
 20
62.45450285409252
 30
0.0
 10
164.2345673590442
 20
62.98205636558828
 30
0.0
 10
163.7145830665187
 20
63.50204065811379
 30
0.0
  0
SPLINE
  5
280
330
1F
100
AcDbEntity
  8
0
  6
Continuous
 62
     7
370
    15
100
AcDbSpline
210
0.0
220
0.0
230
1.0
 70
     8
 71
     3
 72
    14
 73
    10
 74
     0
 42
0.00000001
 43
0.00000001
 12
1.0
 22
0.0
 32
0.0
 13
1.0
 23
0.0
 33
0.0
 40
0.0
 40
0.0
 40
0.0
 40
0.0
 40
0.5000000000000001
 40
0.5000000000000001
 40
0.75
 40
0.75
 40
0.8750000000000001
 40
0.8750000000000001
 40
1.0
 40
1.0
 40
1.0
 40
1.0
 10
235.8308078319642
 20
50.22298446675246
 30
0.0
 10
234.7896334006965
 20
51.26415889802023
 30
0.0
 10
233.9049068773726
 20
52.32889700832622
 30
0.0
 10
232.9589712505962
 20
53.98341238311294
 30
0.0
 10
232.7078592853446
 20
54.54458709136468
 30
0.0
 10
232.4499520535585
 20
55.40423650955996
 30
0.0
 10
232.3837942270294
 20
55.6937702222797
 30
0.0
 10
232.2948429919968
 20
56.27936905642549
 30
0.0
 10
232.2726954492415
 20
56.57175608836177
 30
0.0
 10
232.2726954492415
 20
56.86251256243308
 30
0.0
  0
LINE
  5
281
330
1F
100
AcDbEntity
  8
0
  6
Continuous
 62
     7
370
    15
100
AcDbLine
 10
235.8308084282
 20
50.2229844964
 30
0.0
 11
257.2726964923
 21
50.2229844964
 31
0.0
  0
LINE
  5
282
330
1F
100
AcDbEntity
  8
0
  6
Continuous
 62
     7
370
    15
100
AcDbLine
 10
257.2726964923
 20
50.2229844964
 30
0.0
 11
257.2726964923
 21
63.5020406729
 31
0.0
  0
SPLINE
  5
283
330
1F
100
AcDbEntity
  8
0
  6
Continuous
 62
     7
370
    15
100
AcDbSpline
210
0.0
220
0.0
230
1.0
 70
     8
 71
     3
 72
    14
 73
    10
 74
     0
 42
0.00000001
 43
0.00000001
 12
1.0
 22
0.0
 32
0.0
 13
1.0
 23
0.0
 33
0.0
 40
0.0
 40
0.0
 40
0.0
 40
0.0
 40
0.5000000000000001
 40
0.5000000000000001
 40
0.75
 40
0.75
 40
0.8750000000000001
 40
0.8750000000000001
 40
1.0
 40
1.0
 40
1.0
 40
1.0
 10
163.7145830665188
 20
50.22298446675246
 30
0.0
 10
164.7557574977865
 20
51.26415889802023
 30
0.0
 10
165.6404840211104
 20
52.32889700832622
 30
0.0
 10
166.5864196478867
 20
53.98341238311294
 30
0.0
 10
166.8375316131383
 20
54.54458709136468
 30
0.0
 10
167.0954388449245
 20
55.40423650955996
 30
0.0
 10
167.1615966714536
 20
55.6937702222797
 30
0.0
 10
167.2505479064861
 20
56.27936905642549
 30
0.0
 10
167.2726954492415
 20
56.57175608836177
 30
0.0
 10
167.2726954492415
 20
56.86251256243308
 30
0.0
  0
LINE
  5
284
330
1F
100
AcDbEntity
  8
0
  6
Continuous
 62
     7
370
    15
100
AcDbLine
 10
163.7145824703
 20
50.2229844964
 30
0.0
 11
142.2726944062
 21
50.2229844964
 31
0.0
  0
LINE
  5
285
330
1F
100
AcDbEntity
  8
0
  6
Continuous
 62
     7
370
    15
100
AcDbLine
 10
142.2726944062
 20
50.2229844964
 30
0.0
 11
142.2726944062
 21
63.5020406729
 31
0.0
  0
LINE
  5
286
330
1F
100
AcDbEntity
  8
0
  6
Continuous
 62
     7
370
    15
100
AcDbLine
 10
232.2726942571
 20
96.6996820456
 30
0.0
 11
232.2726942571
 21
99.7810968942
 31
0.0
  0
LINE
  5
287
330
1F
100
AcDbEntity
  8
0
  6
Continuous
 62
     7
370
    15
100
AcDbLine
 10
167.2726966413
 20
96.6996820456
 30
0.0
 11
167.2726966413
 21
99.7810968942
 31
0.0
  0
LINE
  5
288
330
1F
100
AcDbEntity
  8
0
  6
Continuous
 62
     7
370
    15
100
AcDbLine
 10
232.2726942571
 20
56.8625116533
 30
0.0
 11
232.2726942571
 21
53.7810968048
 31
0.0
  0
LINE
  5
289
330
1F
100
AcDbEntity
  8
0
  6
Continuous
 62
     7
370
    15
100
AcDbLine
 10
167.2726966413
 20
56.8625116533
 30
0.0
 11
167.2726966413
 21
53.7810968048
 31
0.0
  0
LINE
  5
28A
330
1F
100
AcDbEntity
  8
0
  6
Continuous
 62
     7
370
    15
100
AcDbLine
 10
175.5859222236
 20
48.7810959852
 30
0.0
 11
172.7726947489
 21
48.7810959852
 31
0.0
  0
LINE
  5
28B
330
1F
100
AcDbEntity
  8
0
  6
Continuous
 62
     8
370
     0
100
AcDbLine
 10
237.2726969394
 20
64.9619307182
 30
0.0
 11
237.2726969394
 21
64.2810966632
 31
0.0
  0
LINE
  5
28C
330
1F
100
AcDbEntity
  8
0
  6
Continuous
 62
     8
370
     0
100
AcDbLine
 10
237.2726969394
 20
88.6002629808
 30
0.0
 11
237.2726969394
 21
89.2810970357
 31
0.0
  0
LINE
  5
28D
330
1F
100
AcDbEntity
  8
0
  6
Continuous
 62
     8
370
     0
100
AcDbLine
 10
162.2726939591
 20
88.6002629808
 30
0.0
 11
162.2726939591
 21
89.2810970357
 31
0.0
  0
LINE
  5
28E
330
1F
100
AcDbEntity
  8
0
  6
Continuous
 62
     8
370
     0
100
AcDbLine
 10
162.2726939591
 20
64.9619307182
 30
0.0
 11
162.2726939591
 21
64.2810966632
 31
0.0
  0
LINE
  5
28F
330
1F
100
AcDbEntity
  8
0
  6
Continuous
 62
     8
370
     0
100
AcDbLine
 10
168.1158415946
 20
95.9342578239
 30
0.0
 11
168.1158415946
 21
99.7810968942
 31
0.0
  0
LINE
  5
290
330
1F
100
AcDbEntity
  8
0
  6
Continuous
 62
     8
370
     0
100
AcDbLine
 10
231.4295493039
 20
95.9342578239
 30
0.0
 11
231.4295493039
 21
99.7810968942
 31
0.0
  0
LINE
  5
291
330
1F
100
AcDbEntity
  8
0
  6
Continuous
 62
     8
370
     0
100
AcDbLine
 10
231.4295493039
 20
57.6279358751
 30
0.0
 11
231.4295493039
 21
53.7810968048
 31
0.0
  0
LINE
  5
292
330
1F
100
AcDbEntity
  8
0
  6
Continuous
 62
     8
370
     0
100
AcDbLine
 10
168.1158415946
 20
57.6279358751
 30
0.0
 11
168.1158415946
 21
53.7810968048
 31
0.0
  0
INSERT
  5
29E
330
1F
100
AcDbEntity
  8
FORMAT
100
AcDbBlockReference
  2
SW_CENTERMARKSYMBOL_2
 10
199.7726954492
 20
76.7810968495
 30
0.0
  0
ENDSEC
  0
SECTION
  2
OBJECTS
  0
DICTIONARY
  5
C
330
0
100
AcDbDictionary
281
     1
  3
ACAD_GROUP
350
D
  3
ACAD_LAYOUT
350
1A
  3
ACAD_MLINESTYLE
350
17
  3
ACAD_PLOTSETTINGS
350
19
  3
ACAD_PLOTSTYLENAME
350
E
  0
DICTIONARY
  5
D
102
{ACAD_REACTORS
330
C
102
}
330
C
100
AcDbDictionary
281
     1
  0
DICTIONARY
  5
1A
102
{ACAD_REACTORS
330
C
102
}
330
C
100
AcDbDictionary
281
     1
  3
Layout1
350
1E
  3
Layout2
350
26
  3
Model
350
22
  0
DICTIONARY
  5
17
102
{ACAD_REACTORS
330
C
102
}
330
C
100
AcDbDictionary
281
     1
  3
Standard
350
18
  0
DICTIONARY
  5
19
102
{ACAD_REACTORS
330
C
102
}
330
C
100
AcDbDictionary
281
     1
  0
ACDBDICTIONARYWDFLT
  5
E
102
{ACAD_REACTORS
330
C
102
}
330
C
100
AcDbDictionary
281
     1
  3
Normal
350
F
100
AcDbDictionaryWithDefault
340
F
  0
LAYOUT
  5
1E
102
{ACAD_REACTORS
330
1A
102
}
330
1A
100
AcDbPlotSettings
  1

  2
none_device
  4

  6

 40
0.0
 41
0.0
 42
0.0
 43
0.0
 44
0.0
 45
0.0
 46
0.0
 47
0.0
 48
0.0
 49
0.0
140
0.0
141
0.0
142
1.0
143
1.0
 70
   688
 72
     0
 73
     0
 74
     5
  7

 75
    16
147
1.0
148
0.0
149
0.0
100
AcDbLayout
  1
Layout1
 70
     1
 71
     1
 10
0.0
 20
0.0
 11
420.0
 21
297.0
 12
0.0
 22
0.0
 32
0.0
 14
1.0000000000E+20
 24
1.0000000000E+20
 34
1.0000000000E+20
 15
-1.0000000000E+20
 25
-1.0000000000E+20
 35
-1.0000000000E+20
146
0.0
 13
0.0
 23
0.0
 33
0.0
 16
1.0
 26
0.0
 36
0.0
 17
0.0
 27
1.0
 37
0.0
 76
     0
330
1B
  0
LAYOUT
  5
26
102
{ACAD_REACTORS
330
1A
102
}
330
1A
100
AcDbPlotSettings
  1

  2
none_device
  4

  6

 40
0.0
 41
0.0
 42
0.0
 43
0.0
 44
0.0
 45
0.0
 46
0.0
 47
0.0
 48
0.0
 49
0.0
140
0.0
141
0.0
142
1.0
143
1.0
 70
   688
 72
     0
 73
     0
 74
     5
  7

 75
    16
147
1.0
148
0.0
149
0.0
100
AcDbLayout
  1
Layout2
 70
     1
 71
     2
 10
0.0
 20
0.0
 11
0.0
 21
0.0
 12
0.0
 22
0.0
 32
0.0
 14
0.0
 24
0.0
 34
0.0
 15
0.0
 25
0.0
 35
0.0
146
0.0
 13
0.0
 23
0.0
 33
0.0
 16
1.0
 26
0.0
 36
0.0
 17
0.0
 27
1.0
 37
0.0
 76
     0
330
23
  0
LAYOUT
  5
22
102
{ACAD_REACTORS
330
1A
102
}
330
1A
100
AcDbPlotSettings
  1

  2
none_device
  4

  6

 40
0.0
 41
0.0
 42
0.0
 43
0.0
 44
0.0
 45
0.0
 46
0.0
 47
0.0
 48
0.0
 49
0.0
140
0.0
141
0.0
142
1.0
143
1.0
 70
  1712
 72
     0
 73
     0
 74
     0
  7

 75
     0
147
1.0
148
0.0
149
0.0
100
AcDbLayout
  1
Model
 70
     1
 71
     0
 10
0.0
 20
0.0
 11
594.0
 21
420.0
 12
0.0
 22
0.0
 32
0.0
 14
0.0
 24
0.0
 34
0.0
 15
594.0
 25
420.0
 35
0.0
146
0.0
 13
0.0
 23
0.0
 33
0.0
 16
1.0
 26
0.0
 36
0.0
 17
0.0
 27
1.0
 37
0.0
 76
     0
330
1F
331
29
  0
MLINESTYLE
  5
18
102
{ACAD_REACTORS
330
17
102
}
330
17
100
AcDbMlineStyle
  2
Standard
 70
     0
  3

 62
   256
 51
90.0
 52
90.0
 71
     2
 49
0.5
 62
   256
  6
BYLAYER
 49
-0.5
 62
   256
  6
BYLAYER
  0
ACDBPLACEHOLDER
  5
F
102
{ACAD_REACTORS
330
E
102
}
330
E
  0
ENDSEC
  0
EOF
