  0
SECTION
  2
HEADER
  9
$ACADVER
  1
AC1015
  9
$ACADMAINTVER
 70
     6
  9
$DWGCODEPAGE
  3
ANSI_1252
  9
$INSBASE
 10
0.0
 20
0.0
 30
0.0
  9
$EXTMIN
 10
0.0
 20
0.0
 30
0.0
  9
$EXTMAX
 10
420.0
 20
297.0
 30
0.0
  9
$LIMMIN
 10
0.0
 20
0.0
  9
$LIMMAX
 10
420.0
 20
297.0
  9
$ORTHOMODE
 70
     0
  9
$REGENMODE
 70
     1
  9
$FILLMODE
 70
     1
  9
$QTEXTMODE
 70
     0
  9
$MIRRTEXT
 70
     1
  9
$LTSCALE
 40
1.0
  9
$ATTMODE
 70
     1
  9
$TEXTSIZE
 40
2.5
  9
$TRACEWID
 40
1.0
  9
$TEXTSTYLE
  7
Standard
  9
$CLAYER
  8
0
  9
$CELTYPE
  6
ByLayer
  9
$CECOLOR
 62
   256
  9
$CELTSCALE
 40
1.0
  9
$DISPSILH
 70
     0
  9
$DIMSCALE
 40
1.0
  9
$DIMASZ
 40
2.5
  9
$DIMEXO
 40
1.0
  9
$DIMDLI
 40
3.75
  9
$DIMRND
 40
0.0
  9
$DIMDLE
 40
0.0
  9
$DIMEXE
 40
1.0
  9
$DIMTP
 40
0.0
  9
$DIMTM
 40
0.0
  9
$DIMTXT
 40
2.5
  9
$DIMCEN
 40
2.5
  9
$DIMTSZ
 40
0.0
  9
$DIMTOL
 70
     0
  9
$DIMLIM
 70
     0
  9
$DIMTIH
 70
     1
  9
$DIMTOH
 70
     1
  9
$DIMSE1
 70
     0
  9
$DIMSE2
 70
     0
  9
$DIMTAD
 70
     1
  9
$DIMZIN
 70
     0
  9
$DIMBLK
  1

  9
$DIMASO
 70
     1
  9
$DIMSHO
 70
     1
  9
$DIMPOST
  1

  9
$DIMAPOST
  1

  9
$DIMALT
 70
     0
  9
$DIMALTD
 70
     3
  9
$DIMALTF
 40
0.0393700787
  9
$DIMLFAC
 40
1.0
  9
$DIMTOFL
 70
     1
  9
$DIMTVP
 40
0.0
  9
$DIMTIX
 70
     0
  9
$DIMSOXD
 70
     0
  9
$DIMSAH
 70
     0
  9
$DIMBLK1
  1

  9
$DIMBLK2
  1

  9
$DIMSTYLE
  2
ISO-25
  9
$DIMCLRD
 70
     0
  9
$DIMCLRE
 70
     0
  9
$DIMCLRT
 70
     0
  9
$DIMTFAC
 40
1.0
  9
$DIMGAP
 40
1.524
  9
$DIMJUST
 70
     0
  9
$DIMSD1
 70
     0
  9
$DIMSD2
 70
     0
  9
$DIMTOLJ
 70
     0
  9
$DIMTZIN
 70
     0
  9
$DIMALTZ
 70
     0
  9
$DIMALTTZ
 70
     0
  9
$DIMUPT
 70
     0
  9
$DIMDEC
 70
     2
  9
$DIMTDEC
 70
     2
  9
$DIMALTU
 70
     2
  9
$DIMALTTD
 70
     3
  9
$DIMTXSTY
  7
Standard
  9
$DIMAUNIT
 70
     0
  9
$DIMADEC
 70
     2
  9
$DIMALTRND
 40
0.0
  9
$DIMAZIN
 70
     0
  9
$DIMDSEP
 70
    44
  9
$DIMATFIT
 70
     3
  9
$DIMFRAC
 70
     0
  9
$DIMLDRBLK
  1

  9
$DIMLUNIT
 70
     2
  9
$DIMLWD
 70
    -2
  9
$DIMLWE
 70
    -2
  9
$DIMTMOVE
 70
     0
  9
$LUNITS
 70
     2
  9
$LUPREC
 70
     2
  9
$SKETCHINC
 40
1.0
  9
$FILLETRAD
 40
10.0
  9
$AUNITS
 70
     0
  9
$AUPREC
 70
     2
  9
$MENU
  1
.
  9
$ELEVATION
 40
0.0
  9
$PELEVATION
 40
0.0
  9
$THICKNESS
 40
0.0
  9
$LIMCHECK
 70
     0
  9
$CHAMFERA
 40
10.0
  9
$CHAMFERB
 40
10.0
  9
$CHAMFERC
 40
20.0
  9
$CHAMFERD
 40
0.0
  9
$SKPOLY
 70
     0
  9
$TDCREATE
 40
2457660.453890312
  9
$TDUCREATE
 40
2457660.370556979
  9
$TDUPDATE
 40
2457660.453891042
  9
$TDUUPDATE
 40
2457660.370557708
  9
$TDINDWG
 40
0.0000000116
  9
$TDUSRTIMER
 40
0.0000000116
  9
$USRTIMER
 70
     1
  9
$ANGBASE
 50
0.0
  9
$ANGDIR
 70
     0
  9
$PDMODE
 70
     0
  9
$PDSIZE
 40
-1.0
  9
$PLINEWID
 40
0.0
  9
$SPLFRAME
 70
     0
  9
$SPLINETYPE
 70
     6
  9
$SPLINESEGS
 70
     8
  9
$HANDSEED
  5
1A3
  9
$SURFTAB1
 70
     6
  9
$SURFTAB2
 70
     6
  9
$SURFTYPE
 70
     6
  9
$SURFU
 70
     6
  9
$SURFV
 70
     6
  9
$UCSBASE
  2

  9
$UCSNAME
  2

  9
$UCSORG
 10
0.0
 20
0.0
 30
0.0
  9
$UCSXDIR
 10
1.0
 20
0.0
 30
0.0
  9
$UCSYDIR
 10
0.0
 20
1.0
 30
0.0
  9
$UCSORTHOREF
  2

  9
$UCSORTHOVIEW
 70
     0
  9
$UCSORGTOP
 10
0.0
 20
0.0
 30
0.0
  9
$UCSORGBOTTOM
 10
0.0
 20
0.0
 30
0.0
  9
$UCSORGLEFT
 10
0.0
 20
0.0
 30
0.0
  9
$UCSORGRIGHT
 10
0.0
 20
0.0
 30
0.0
  9
$UCSORGFRONT
 10
0.0
 20
0.0
 30
0.0
  9
$UCSORGBACK
 10
0.0
 20
0.0
 30
0.0
  9
$PUCSBASE
  2

  9
$PUCSNAME
  2

  9
$PUCSORG
 10
0.0
 20
0.0
 30
0.0
  9
$PUCSXDIR
 10
1.0
 20
0.0
 30
0.0
  9
$PUCSYDIR
 10
0.0
 20
1.0
 30
0.0
  9
$PUCSORTHOREF
  2

  9
$PUCSORTHOVIEW
 70
     0
  9
$PUCSORGTOP
 10
0.0
 20
0.0
 30
0.0
  9
$PUCSORGBOTTOM
 10
0.0
 20
0.0
 30
0.0
  9
$PUCSORGLEFT
 10
0.0
 20
0.0
 30
0.0
  9
$PUCSORGRIGHT
 10
0.0
 20
0.0
 30
0.0
  9
$PUCSORGFRONT
 10
0.0
 20
0.0
 30
0.0
  9
$PUCSORGBACK
 10
0.0
 20
0.0
 30
0.0
  9
$USERI1
 70
     0
  9
$USERI2
 70
     0
  9
$USERI3
 70
     0
  9
$USERI4
 70
     0
  9
$USERI5
 70
     0
  9
$USERR1
 40
0.0
  9
$USERR2
 40
0.0
  9
$USERR3
 40
0.0
  9
$USERR4
 40
0.0
  9
$USERR5
 40
0.0
  9
$WORLDVIEW
 70
     1
  9
$SHADEDGE
 70
     3
  9
$SHADEDIF
 70
    70
  9
$TILEMODE
 70
     1
  9
$MAXACTVP
 70
    64
  9
$PINSBASE
 10
0.0
 20
0.0
 30
0.0
  9
$PLIMCHECK
 70
     0
  9
$PEXTMIN
 10
1.0000000000E+20
 20
1.0000000000E+20
 30
1.0000000000E+20
  9
$PEXTMAX
 10
-1.0000000000E+20
 20
-1.0000000000E+20
 30
-1.0000000000E+20
  9
$PLIMMIN
 10
0.0
 20
0.0
  9
$PLIMMAX
 10
420.0
 20
297.0
  9
$UNITMODE
 70
     0
  9
$VISRETAIN
 70
     1
  9
$PLINEGEN
 70
     0
  9
$PSLTSCALE
 70
     1
  9
$TREEDEPTH
 70
  3020
  9
$CMLSTYLE
  2
Standard
  9
$CMLJUST
 70
     0
  9
$CMLSCALE
 40
20.0
  9
$PROXYGRAPHICS
 70
     1
  9
$MEASUREMENT
 70
     1
  9
$CELWEIGHT
370
    -1
  9
$ENDCAPS
280
     0
  9
$JOINSTYLE
280
     0
  9
$LWDISPLAY
290
     1
  9
$INSUNITS
 70
     4
  9
$HYPERLINKBASE
  1

  9
$STYLESHEET
  1

  9
$XEDIT
290
     1
  9
$CEPSNTYPE
380
     0
  9
$PSTYLEMODE
290
     1
  9
$FINGERPRINTGUID
  2
{F174CBA1-97BB-4587-81D8-8A4F6B6F486F}
  9
$VERSIONGUID
  2
{FAEB1C32-E019-11D5-929B-00C0DF256EC4}
  9
$EXTNAMES
290
     1
  9
$PSVPSCALE
 40
0.0
  9
$OLESTARTUP
290
     0
  0
ENDSEC
  0
SECTION
  2
CLASSES
  0
CLASS
  1
ACDBDICTIONARYWDFLT
  2
AcDbDictionaryWithDefault
  3
ObjectDBX Classes
 90
        0
280
     0
281
     0
  0
CLASS
  1
VISUALSTYLE
  2
AcDbVisualStyle
  3
ObjectDBX Classes
 90
     4095
280
     0
281
     0
  0
CLASS
  1
MATERIAL
  2
AcDbMaterial
  3
ObjectDBX Classes
 90
     1153
280
     0
281
     0
  0
CLASS
  1
ACDBPLACEHOLDER
  2
AcDbPlaceHolder
  3
ObjectDBX Classes
 90
        0
280
     0
281
     0
  0
CLASS
  1
LAYOUT
  2
AcDbLayout
  3
ObjectDBX Classes
 90
        0
280
     0
281
     0
  0
ENDSEC
  0
SECTION
  2
TABLES
  0
TABLE
  2
VPORT
  5
8
330
0
100
AcDbSymbolTable
 70
     1
  0
VPORT
  5
29
330
8
100
AcDbSymbolTableRecord
100
AcDbViewportTableRecord
  2
*Active
 70
     0
 10
0.0
 20
0.0
 11
1.0
 21
1.0
 12
210.0
 22
148.5
 13
0.0
 23
0.0
 14
10.0
 24
10.0
 15
10.0
 25
10.0
 16
0.0
 26
0.0
 36
1.0
 17
0.0
 27
0.0
 37
0.0
 40
297.0
 41
1.4141414141
 42
50.0
 43
0.0
 44
0.0
 50
0.0
 51
0.0
 71
     0
 72
  2000
 73
     1
 74
     3
 75
     0
 76
     0
 77
     0
 78
     0
281
     0
 65
     1
110
0.0
120
0.0
130
0.0
111
1.0
121
0.0
131
0.0
112
0.0
122
1.0
132
0.0
 79
     0
146
0.0
  0
ENDTAB
  0
TABLE
  2
LTYPE
  5
5
330
0
100
AcDbSymbolTable
 70
     6
  0
LTYPE
  5
14
330
5
100
AcDbSymbolTableRecord
100
AcDbLinetypeTableRecord
  2
ByBlock
 70
     0
  3

 72
    65
 73
     0
 40
0.0
  0
LTYPE
  5
15
330
5
100
AcDbSymbolTableRecord
100
AcDbLinetypeTableRecord
  2
ByLayer
 70
     0
  3

 72
    65
 73
     0
 40
0.0
  0
LTYPE
  5
16
330
5
100
AcDbSymbolTableRecord
100
AcDbLinetypeTableRecord
  2
Continuous
 70
     0
  3
Solid line
 72
    65
 73
     0
 40
0.0
  0
LTYPE
  5
3F
330
5
100
AcDbSymbolTableRecord
100
AcDbLinetypeTableRecord
  2
HIDDEN
 70
     0
  3
Hidden __ __ __ __ __ __ __ __ __ __ __ __ __ __
 72
    65
 73
     2
 40
1.905
 49
1.27
 74
     0
 49
-0.635
 74
     0
  0
LTYPE
  5
40
330
5
100
AcDbSymbolTableRecord
100
AcDbLinetypeTableRecord
  2
PHANTOM
 70
     0
  3
Phantom ______  __  __  ______  __  __  ______
 72
    65
 73
     6
 40
12.7
 49
6.35
 74
     0
 49
-1.27
 74
     0
 49
1.27
 74
     0
 49
-1.27
 74
     0
 49
1.27
 74
     0
 49
-1.27
 74
     0
  0
LTYPE
  5
41
330
5
100
AcDbSymbolTableRecord
100
AcDbLinetypeTableRecord
  2
CENTER
 70
     0
  3
Center ____ _ ____ _ ____ _ ____ _ ____ _ ____
 72
    65
 73
     4
 40
10.16
 49
6.35
 74
     0
 49
-1.27
 74
     0
 49
1.27
 74
     0
 49
-1.27
 74
     0
  0
LTYPE
  5
42
330
5
100
AcDbSymbolTableRecord
100
AcDbLinetypeTableRecord
  2
CENTERX2
 70
     0
  3
Center (2x) ________  __  ________  __  _____
 72
    65
 73
     4
 40
20.32
 49
12.7
 74
     0
 49
-2.54
 74
     0
 49
2.54
 74
     0
 49
-2.54
 74
     0
  0
LTYPE
  5
43
330
5
100
AcDbSymbolTableRecord
100
AcDbLinetypeTableRecord
  2
DOT2
 70
     0
  3
Dot (.5x) ........................................
 72
    65
 73
     2
 40
0.635
 49
0.0
 74
     0
 49
-0.635
 74
     0
  0
ENDTAB
  0
TABLE
  2
LAYER
  5
2
330
0
100
AcDbSymbolTable
 70
     3
  0
LAYER
  5
10
330
2
100
AcDbSymbolTableRecord
100
AcDbLayerTableRecord
  2
0
 70
     0
 62
     7
  6
Continuous
370
    -3
390
F
  0
LAYER
  5
44
330
2
100
AcDbSymbolTableRecord
100
AcDbLayerTableRecord
  2
FORMAT
 70
     0
 62
     7
  6
Continuous
370
    -3
390
F
  0
LAYER
  5
45
330
2
100
AcDbSymbolTableRecord
100
AcDbLayerTableRecord
  2
PROTOTYPE
 70
     0
 62
     7
  6
Continuous
370
    -3
390
F
  0
ENDTAB
  0
TABLE
  2
STYLE
  5
3
330
0
100
AcDbSymbolTable
 70
     1
  0
STYLE
  5
11
330
3
100
AcDbSymbolTableRecord
100
AcDbTextStyleTableRecord
  2
Standard
 70
     0
 40
0.0
 41
1.0
 50
0.0
 71
     0
 42
2.5
  3
txt
  4

  0
ENDTAB
  0
TABLE
  2
VIEW
  5
6
330
0
100
AcDbSymbolTable
 70
     0
  0
ENDTAB
  0
TABLE
  2
UCS
  5
7
330
0
100
AcDbSymbolTable
 70
     0
  0
ENDTAB
  0
TABLE
  2
APPID
  5
9
330
0
100
AcDbSymbolTable
 70
     1
  0
APPID
  5
12
330
9
100
AcDbSymbolTableRecord
100
AcDbRegAppTableRecord
  2
ACAD
 70
     0
  0
ENDTAB
  0
TABLE
  2
DIMSTYLE
  5
A
330
0
100
AcDbSymbolTable
 70
     1
100
AcDbDimStyleTable
  0
DIMSTYLE
105
27
330
A
100
AcDbSymbolTableRecord
100
AcDbDimStyleTableRecord
  2
ISO-25
 70
     0
 41
2.5
 42
0.625
 43
3.75
 44
1.25
 73
     0
 74
     0
 77
     1
 78
     8
140
2.5
141
2.5
143
0.0393700787
147
0.625
171
     3
172
     1
178
     0
271
     2
272
     2
274
     3
278
    44
283
     0
284
     8
340
11
  0
ENDTAB
  0
TABLE
  2
BLOCK_RECORD
  5
1
330
0
100
AcDbSymbolTable
 70
     2
  0
BLOCK_RECORD
  5
1F
330
1
100
AcDbSymbolTableRecord
100
AcDbBlockTableRecord
  2
*Model_Space
340
22
  0
BLOCK_RECORD
  5
1B
330
1
100
AcDbSymbolTableRecord
100
AcDbBlockTableRecord
  2
*Paper_Space
340
1E
  0
BLOCK_RECORD
  5
23
330
1
100
AcDbSymbolTableRecord
100
AcDbBlockTableRecord
  2
*Paper_Space0
340
26
  0
BLOCK_RECORD
  5
CB
330
1
100
AcDbSymbolTableRecord
100
AcDbBlockTableRecord
  2
SW_CENTERMARKSYMBOL_0
340
0
102
{BLKREFS
331
D6
102
}
  0
ENDTAB
  0
ENDSEC
  0
SECTION
  2
BLOCKS
  0
BLOCK
  5
20
330
1F
100
AcDbEntity
  8
0
100
AcDbBlockBegin
  2
*Model_Space
 70
     0
 10
0.0
 20
0.0
 30
0.0
  3
*Model_Space
  1

  0
ENDBLK
  5
21
330
1F
100
AcDbEntity
  8
0
100
AcDbBlockEnd
  0
BLOCK
  5
1C
330
1B
100
AcDbEntity
 67
     1
  8
0
100
AcDbBlockBegin
  2
*Paper_Space
 70
     0
 10
0.0
 20
0.0
 30
0.0
  3
*Paper_Space
  1

  0
ENDBLK
  5
1D
330
1B
100
AcDbEntity
 67
     1
  8
0
100
AcDbBlockEnd
  0
BLOCK
  5
24
330
23
100
AcDbEntity
  8
0
100
AcDbBlockBegin
  2
*Paper_Space0
 70
     0
 10
0.0
 20
0.0
 30
0.0
  3
*Paper_Space0
  1

  0
ENDBLK
  5
25
330
23
100
AcDbEntity
  8
0
100
AcDbBlockEnd
  0
BLOCK
  5
CC
330
CB
100
AcDbEntity
  8
0
100
AcDbBlockBegin
  2
SW_CENTERMARKSYMBOL_0
 70
     0
 10
0.0
 20
0.0
 30
0.0
  3
SW_CENTERMARKSYMBOL_0
  1

  0
LINE
  5
CE
330
CB
100
AcDbEntity
  8
FORMAT
 62
     0
100
AcDbLine
 10
0.0
 20
0.0
 30
0.0
 11
0.0
 21
2.5
 31
0.0
  0
LINE
  5
CF
330
CB
100
AcDbEntity
  8
FORMAT
 62
     0
100
AcDbLine
 10
0.0
 20
0.0
 30
0.0
 11
-2.5
 21
0.0
 31
0.0
  0
LINE
  5
D0
330
CB
100
AcDbEntity
  8
FORMAT
 62
     0
100
AcDbLine
 10
0.0
 20
0.0
 30
0.0
 11
0.0
 21
-2.5
 31
0.0
  0
LINE
  5
D1
330
CB
100
AcDbEntity
  8
FORMAT
 62
     0
100
AcDbLine
 10
0.0
 20
0.0
 30
0.0
 11
2.5
 21
0.0
 31
0.0
  0
LINE
  5
D2
330
CB
100
AcDbEntity
  8
FORMAT
 62
     0
100
AcDbLine
 10
0.0
 20
5.0
 30
0.0
 11
0.0
 21
261.2639548635
 31
0.0
  0
LINE
  5
D3
330
CB
100
AcDbEntity
  8
FORMAT
 62
     0
100
AcDbLine
 10
-5.0
 20
0.0
 30
0.0
 11
-262.6682814392
 21
0.0
 31
0.0
  0
LINE
  5
D4
330
CB
100
AcDbEntity
  8
FORMAT
 62
     0
100
AcDbLine
 10
0.0
 20
-5.0
 30
0.0
 11
0.0
 21
-265.2261579651
 31
0.0
  0
LINE
  5
D5
330
CB
100
AcDbEntity
  8
FORMAT
 62
     0
100
AcDbLine
 10
5.0
 20
0.0
 30
0.0
 11
264.0412467155
 21
0.0
 31
0.0
  0
ENDBLK
  5
CD
330
CB
100
AcDbEntity
  8
0
100
AcDbBlockEnd
  0
ENDSEC
  0
SECTION
  2
ENTITIES
  0
LINE
  5
46
330
1F
100
AcDbEntity
  8
0
  6
Continuous
 62
     7
370
    15
100
AcDbLine
 10
-157.4057147409
 20
431.0683816065
 30
0.0
 11
-8.3934135718
 21
345.036089414
 31
0.0
  0
LINE
  5
47
330
1F
100
AcDbEntity
  8
0
  6
Continuous
 62
     7
370
    15
100
AcDbLine
 10
-230.5370696616
 20
458.0359952522
 30
0.0
 11
-379.5493708306
 21
372.0037030597
 31
0.0
  0
LINE
  5
48
330
1F
100
AcDbEntity
  8
0
  6
Continuous
 62
     7
370
    15
100
AcDbLine
 10
-141.8359557432
 20
473.2907890561
 30
0.0
 11
7.1763454259
 21
559.3230812487
 31
0.0
  0
LINE
  5
49
330
1F
100
AcDbEntity
  8
0
  6
Continuous
 62
     7
370
    15
100
AcDbLine
 10
-170.6167537046
 20
507.8858033242
 30
0.0
 11
-170.6167537046
 21
679.9503839889
 31
0.0
  0
LINE
  5
4A
330
1F
100
AcDbEntity
  8
0
  6
Continuous
 62
     7
370
    15
100
AcDbLine
 10
-201.7562717001
 20
423.4409847046
 30
0.0
 11
-201.7562717001
 21
251.3764003195
 31
0.0
  0
LINE
  5
4B
330
1F
100
AcDbEntity
  8
0
  6
Continuous
 62
     7
370
    15
100
AcDbLine
 10
-214.9673106638
 20
500.2584027018
 30
0.0
 11
-363.9796118329
 21
586.2906948944
 31
0.0
  0
LINE
  5
4C
330
1F
100
AcDbEntity
  8
0
  6
Continuous
 62
     7
370
    15
100
AcDbLine
 10
-379.5494211627
 20
559.3231103079
 30
0.0
 11
-230.5374934332
 21
473.2910337208
 31
0.0
  0
LINE
  5
4D
330
1F
100
AcDbEntity
  8
0
  6
Continuous
 62
     7
370
    15
100
AcDbLine
 10
-201.7562717001
 20
679.9504421074
 30
0.0
 11
-201.7562717001
 21
507.8862889332
 31
0.0
  0
LINE
  5
4E
330
1F
100
AcDbEntity
  8
0
  6
Continuous
 62
     7
370
    15
100
AcDbLine
 10
7.176395758
 20
372.0036740004
 30
0.0
 11
-141.8355319715
 21
458.0357505875
 31
0.0
  0
LINE
  5
4F
330
1F
100
AcDbEntity
  8
0
  6
Continuous
 62
     7
370
    15
100
AcDbLine
 10
-170.6167537046
 20
251.376342201
 30
0.0
 11
-170.6167537046
 21
423.4404953752
 31
0.0
  0
LINE
  5
50
330
1F
100
AcDbEntity
  8
0
  6
Continuous
 62
     7
370
    15
100
AcDbLine
 10
-363.979662165
 20
345.0360603547
 30
0.0
 11
-214.9677344355
 21
431.0681369418
 31
0.0
  0
LINE
  5
51
330
1F
100
AcDbEntity
  8
0
  6
Continuous
 62
     7
370
    15
100
AcDbLine
 10
-8.3933632398
 20
586.2907239536
 30
0.0
 11
-157.4052909693
 21
500.2586473665
 31
0.0
  0
CIRCLE
  5
52
330
1F
100
AcDbEntity
  8
0
  6
Continuous
 62
     7
370
    15
100
AcDbCircle
 10
-186.1865127024
 20
465.6633921542
 30
0.0
 40
250.0114159057247
  0
ARC
  5
53
330
1F
100
AcDbEntity
  8
0
  6
Continuous
 62
     7
370
    15
100
AcDbCircle
 10
-186.1865127024
 20
465.6633921542
 30
0.0
 40
214.0114159057248
100
AcDbArc
 50
94.1720685688
 51
145.8279314312
  0
ARC
  5
54
330
1F
100
AcDbEntity
  8
0
  6
Continuous
 62
     7
370
    15
100
AcDbCircle
 10
-186.1865127024
 20
465.6633921542
 30
0.0
 40
214.0114159057248
100
AcDbArc
 50
34.1720685688
 51
85.8279314312
  0
ARC
  5
55
330
1F
100
AcDbEntity
  8
0
  6
Continuous
 62
     7
370
    15
100
AcDbCircle
 10
-186.1865127024
 20
465.6633921542
 30
0.0
 40
214.0114159057248
100
AcDbArc
 50
154.1720685688
 51
205.8279314312
  0
ARC
  5
56
330
1F
100
AcDbEntity
  8
0
  6
Continuous
 62
     7
370
    15
100
AcDbCircle
 10
-186.1865127024
 20
465.6633921542
 30
0.0
 40
214.0114159057248
100
AcDbArc
 50
334.1720685688
 51
25.8279314312
  0
ARC
  5
57
330
1F
100
AcDbEntity
  8
0
  6
Continuous
 62
     7
370
    15
100
AcDbCircle
 10
-186.1865127024
 20
465.6633921542
 30
0.0
 40
214.0114159057248
100
AcDbArc
 50
274.1720685688
 51
325.8279314312
  0
ARC
  5
58
330
1F
100
AcDbEntity
  8
0
  6
Continuous
 62
     7
370
    15
100
AcDbCircle
 10
-186.1865127024
 20
465.6633921542
 30
0.0
 40
214.0114159057247
100
AcDbArc
 50
214.1720685688
 51
265.8279314312
  0
SPLINE
  5
59
330
1F
100
AcDbEntity
  8
0
  6
Continuous
 62
     7
370
    15
100
AcDbSpline
210
0.0
220
0.0
230
1.0
 70
     8
 71
     3
 72
     9
 73
     5
 74
     0
 42
0.00000001
 43
0.00000001
 12
1.0
 22
0.0
 32
0.0
 13
1.0
 23
0.0
 33
0.0
 40
0.0
 40
0.0
 40
0.0
 40
0.0
 40
0.5002647788194536
 40
1.0
 40
1.0
 40
1.0
 40
1.0
 10
-198.1865127023681
 20
692.9461147106432
 30
0.0
 10
-197.7629366502393
 20
692.9461150025529
 30
0.0
 10
-196.9162329244076
 20
692.9461155860632
 30
0.0
 10
-196.0695074183644
 20
692.9461150023468
 30
0.0
 10
-195.6463688603226
 20
692.9461147106432
 30
0.0
  0
LINE
  5
5A
330
1F
100
AcDbEntity
  8
0
  6
Continuous
 62
     7
370
    15
100
AcDbLine
 10
-198.1865127024
 20
698.8032575678
 30
0.0
 11
-195.9381662115
 21
698.8032575678
 31
0.0
  0
SPLINE
  5
5B
330
1F
100
AcDbEntity
  8
0
  6
Continuous
 62
     7
370
    15
100
AcDbSpline
210
0.0
220
0.0
230
1.0
 70
     8
 71
     3
 72
    13
 73
     9
 74
     0
 42
0.00000001
 43
0.00000001
 12
1.0
 22
0.0
 32
0.0
 13
1.0
 23
0.0
 33
0.0
 40
0.0
 40
0.0
 40
0.0
 40
0.0
 40
0.1570871088124889
 40
0.3180061166698114
 40
0.4827569692601948
 40
0.6513396086972475
 40
0.8237539737384221
 40
1.0
 40
1.0
 40
1.0
 40
1.0
 10
-198.1865127023761
 20
701.0889718535003
 30
0.0
 10
-198.1865130327241
 20
700.9705557358974
 30
0.0
 10
-198.1865137014784
 20
700.7308349211552
 30
0.0
 10
-198.1865161207346
 20
700.3648645148071
 30
0.0
 10
-198.1865170398664
 20
699.9888264679485
 30
0.0
 10
-198.1865162026332
 20
699.6026303126008
 30
0.0
 10
-198.1865137397195
 20
699.2065083154436
 30
0.0
 10
-198.1865130506814
 20
698.9386556872965
 30
0.0
 10
-198.1865127023761
 20
698.8032575677734
 30
0.0
  0
SPLINE
  5
5C
330
1F
100
AcDbEntity
  8
0
  6
Continuous
 62
     7
370
    15
100
AcDbSpline
210
0.0
220
0.0
230
1.0
 70
     8
 71
     3
 72
     9
 73
     5
 74
     0
 42
0.00000001
 43
0.00000001
 12
1.0
 22
0.0
 32
0.0
 13
1.0
 23
0.0
 33
0.0
 40
0.0
 40
0.0
 40
0.0
 40
0.0
 40
0.5003583320347674
 40
1.0
 40
1.0
 40
1.0
 40
1.0
 10
-191.6843550274808
 20
701.0889718535003
 30
0.0
 10
-192.7688459321548
 20
701.088969894297
 30
0.0
 10
-194.93627442338
 20
701.0889659786961
 30
0.0
 10
-197.1036176950604
 20
701.0889698961682
 30
0.0
 10
-198.1865127023761
 20
701.0889718535003
 30
0.0
  0
SPLINE
  5
5D
330
1F
100
AcDbEntity
  8
0
  6
Continuous
 62
     7
370
    15
100
AcDbSpline
210
0.0
220
0.0
230
1.0
 70
     8
 71
     3
 72
    21
 73
    17
 74
     0
 42
0.00000001
 43
0.00000001
 12
1.0
 22
0.0
 32
0.0
 13
1.0
 23
0.0
 33
0.0
 40
0.0
 40
0.0
 40
0.0
 40
0.0
 40
0.0389393826633276
 40
0.0807368389680389
 40
0.1253940824046254
 40
0.1877642693329276
 40
0.2499863936348188
 40
0.3121118702640343
 40
0.3741914943573306
 40
0.4983994207421101
 40
0.6231095075939856
 40
0.7484101856585492
 40
0.8123641139098512
 40
0.8741089525848067
 40
0.9379886413301828
 40
1.0
 40
1.0
 40
1.0
 40
1.0
 10
-188.36904890503
 20
692.9461147106506
 30
0.0
 10
-188.411049870668
 20
693.0492741352796
 30
0.0
 10
-188.4981345897181
 20
693.2631646821926
 30
0.0
 10
-188.6341751883308
 20
693.5973246713285
 30
0.0
 10
-188.7963054498878
 20
693.995582853118
 30
0.0
 10
-188.9816592075946
 20
694.4508509675536
 30
0.0
 10
-189.1871783448289
 20
694.9556315770125
 30
0.0
 10
-189.3932574446322
 20
695.4617672150391
 30
0.0
 10
-189.6687873539479
 20
696.1384679690605
 30
0.0
 10
-190.0151332217356
 20
696.9891245320345
 30
0.0
 10
-190.432693307806
 20
698.0147153837252
 30
0.0
 10
-190.7826281059894
 20
698.8742271824103
 30
0.0
 10
-191.061405573333
 20
699.55896072541
 30
0.0
 10
-191.2713103699594
 20
700.0745020660324
 30
0.0
 10
-191.4783356937014
 20
700.5829726496637
 30
0.0
 10
-191.6163647389757
 20
700.921982517017
 30
0.0
 10
-191.684355027476
 20
701.0889718535004
 30
0.0
  0
SPLINE
  5
5E
330
1F
100
AcDbEntity
  8
0
  6
Continuous
 62
     7
370
    15
100
AcDbSpline
210
0.0
220
0.0
230
1.0
 70
     8
 71
     3
 72
     9
 73
     5
 74
     0
 42
0.00000001
 43
0.00000001
 12
1.0
 22
0.0
 32
0.0
 13
1.0
 23
0.0
 33
0.0
 40
0.0
 40
0.0
 40
0.0
 40
0.0
 40
0.5000956379228617
 40
1.0
 40
1.0
 40
1.0
 40
1.0
 10
-190.9294948473661
 20
692.9461147106432
 30
0.0
 10
-190.5026744753876
 20
692.9461151553263
 30
0.0
 10
-189.6491969810602
 20
692.9461160445226
 30
0.0
 10
-188.795710513256
 20
692.946115155213
 30
0.0
 10
-188.3690489050269
 20
692.9461147106433
 30
0.0
  0
SPLINE
  5
5F
330
1F
100
AcDbEntity
  8
0
  6
Continuous
 62
     7
370
    15
100
AcDbSpline
210
0.0
220
0.0
230
1.0
 70
     8
 71
     3
 72
    11
 73
     7
 74
     0
 42
0.00000001
 43
0.00000001
 12
1.0
 22
0.0
 32
0.0
 13
1.0
 23
0.0
 33
0.0
 40
0.0
 40
0.0
 40
0.0
 40
0.0
 40
0.2622901443557559
 40
0.500000188580535
 40
0.7579608310891175
 40
1.0
 40
1.0
 40
1.0
 40
1.0
 10
-191.4413315820516
 20
694.2032575677979
 30
0.0
 10
-191.3962782260027
 20
694.0925987043535
 30
0.0
 10
-191.3103936168958
 20
693.8816511953412
 30
0.0
 10
-191.1808262151715
 20
693.5634205422388
 30
0.0
 10
-191.0551641727748
 20
693.2547730440624
 30
0.0
 10
-190.9704858193759
 20
693.0467932578334
 30
0.0
 10
-190.9294948473529
 20
692.9461147106432
 30
0.0
  0
SPLINE
  5
60
330
1F
100
AcDbEntity
  8
0
  6
Continuous
 62
     7
370
    15
100
AcDbSpline
210
0.0
220
0.0
230
1.0
 70
     8
 71
     3
 72
     9
 73
     5
 74
     0
 42
0.00000001
 43
0.00000001
 12
1.0
 22
0.0
 32
0.0
 13
1.0
 23
0.0
 33
0.0
 40
0.0
 40
0.0
 40
0.0
 40
0.0
 40
0.5001940434266351
 40
0.9999999999999999
 40
0.9999999999999999
 40
0.9999999999999999
 40
0.9999999999999999
 10
-195.1637969305638
 20
694.203257567786
 30
0.0
 10
-194.5431497106533
 20
694.2032582154353
 30
0.0
 10
-193.3023368140049
 20
694.2032595102314
 30
0.0
 10
-192.0615061426759
 20
694.2032582151003
 30
0.0
 10
-191.4413315820468
 20
694.2032575677861
 30
0.0
  0
SPLINE
  5
61
330
1F
100
AcDbEntity
  8
0
  6
Continuous
 62
     7
370
    15
100
AcDbSpline
210
0.0
220
0.0
230
1.0
 70
     8
 71
     3
 72
    11
 73
     7
 74
     0
 42
0.00000001
 43
0.00000001
 12
1.0
 22
0.0
 32
0.0
 13
1.0
 23
0.0
 33
0.0
 40
0.0
 40
0.0
 40
0.0
 40
0.0
 40
0.2413116301547508
 40
0.4999998106562278
 40
0.7358048965306224
 40
1.0
 40
1.0
 40
1.0
 40
1.0
 10
-195.6463688603226
 20
692.9461147106432
 30
0.0
 10
-195.6078117781258
 20
693.0465581388069
 30
0.0
 10
-195.5279211661998
 20
693.254677801466
 30
0.0
 10
-195.4097334410965
 20
693.5625722105267
 30
0.0
 10
-195.2874792908414
 20
693.8810487568252
 30
0.0
 10
-195.2065559926493
 20
694.0918645888563
 30
0.0
 10
-195.1637969305638
 20
694.203257567786
 30
0.0
  0
SPLINE
  5
62
330
1F
100
AcDbEntity
  8
0
  6
Continuous
 62
     7
370
    15
100
AcDbSpline
210
0.0
220
0.0
230
1.0
 70
    24
 71
     3
 72
    14
 73
    10
 74
     0
 42
0.00000001
 43
0.00000001
 12
1.0
 22
0.0
 32
0.0
 13
1.0
 23
0.0
 33
0.0
 40
0.0
 40
0.0
 40
0.0
 40
0.0
 40
0.1429191526524454
 40
0.2856950683867464
 40
0.4284012478535319
 40
0.5711112994533214
 40
0.7138988255982477
 40
0.8568373090200397
 40
1.0
 40
1.0
 40
1.0
 40
1.0
 10
-193.4833583434988
 20
699.2187618941595
 30
0.0
 10
-193.4283303982028
 20
699.0836055372922
 30
0.0
 10
-193.3183296579051
 20
698.8134282804206
 30
0.0
 10
-193.1530326461542
 20
698.4074356199799
 30
0.0
 10
-192.9876675467673
 20
698.0012757267488
 30
0.0
 10
-192.8222017363556
 20
697.594868473106
 30
0.0
 10
-192.65664976945
 20
697.1882496070223
 30
0.0
 10
-192.4909867969488
 20
696.7813580956156
 30
0.0
 10
-192.3806332355311
 20
696.5103142605547
 30
0.0
 10
-192.3254132146948
 20
696.3746861392021
 30
0.0
  0
SPLINE
  5
63
330
1F
100
AcDbEntity
  8
0
  6
Continuous
 62
     7
370
    15
100
AcDbSpline
210
0.0
220
0.0
230
1.0
 70
    24
 71
     3
 72
    14
 73
    10
 74
     0
 42
0.00000001
 43
0.00000001
 12
1.0
 22
0.0
 32
0.0
 13
1.0
 23
0.0
 33
0.0
 40
0.0
 40
0.0
 40
0.0
 40
0.0
 40
0.1431808446112471
 40
0.2861412785093782
 40
0.4289486483870336
 40
0.5716705176176127
 40
0.7143745710157027
 40
0.8571285187372613
 40
1.0
 40
1.0
 40
1.0
 40
1.0
 10
-194.5750967387467
 20
696.3746861392146
 30
0.0
 10
-194.523016390856
 20
696.5103600839892
 30
0.0
 10
-194.4189358668785
 20
696.7814991188486
 30
0.0
 10
-194.2627174237309
 20
697.1884620767925
 30
0.0
 10
-194.1066178087901
 20
697.5951154766747
 30
0.0
 10
-193.9506160964359
 20
698.0015138315988
 30
0.0
 10
-193.7947249080656
 20
698.4076242617014
 30
0.0
 10
-193.6389152798054
 20
698.8135222204529
 30
0.0
 10
-193.5352248783056
 20
699.0836449515117
 30
0.0
 10
-193.4833583434958
 20
699.2187618941673
 30
0.0
  0
LINE
  5
64
330
1F
100
AcDbEntity
  8
0
  6
Continuous
 62
     7
370
    15
100
AcDbLine
 10
-194.5750967387
 20
696.3746861392
 30
0.0
 11
-192.3254132147
 21
696.3746861392
 31
0.0
  0
SPLINE
  5
65
330
1F
100
AcDbEntity
  8
0
  6
Continuous
 62
     7
370
    15
100
AcDbSpline
210
0.0
220
0.0
230
1.0
 70
     8
 71
     3
 72
    18
 73
    14
 74
     0
 42
0.00000001
 43
0.00000001
 12
1.0
 22
0.0
 32
0.0
 13
1.0
 23
0.0
 33
0.0
 40
0.0
 40
0.0
 40
0.0
 40
0.0
 40
0.0619434616380854
 40
0.1256815509900521
 40
0.2507780093224675
 40
0.3754852155669141
 40
0.4999967972956019
 40
0.6245083222457529
 40
0.6868281981411924
 40
0.7492213424045787
 40
0.8743178650408454
 40
0.9396403307150532
 40
1.0
 40
1.0
 40
1.0
 40
1.0
 10
-195.9381662114518
 20
698.8032575677928
 30
0.0
 10
-195.9848413153483
 20
698.6816637872992
 30
0.0
 10
-196.0795437955652
 20
698.4349534078812
 30
0.0
 10
-196.2687665444765
 20
697.9419934051326
 30
0.0
 10
-196.5055837853091
 20
697.3250812266516
 30
0.0
 10
-196.7882556587515
 20
696.5887833082047
 30
0.0
 10
-197.0699919538891
 20
695.8549458583565
 30
0.0
 10
-197.3039218479057
 20
695.2455892042036
 30
0.0
 10
-197.4904724272163
 20
694.7596001468418
 30
0.0
 10
-197.6769299235565
 20
694.2738187212675
 30
0.0
 10
-197.8647089558258
 20
693.7845518357782
 30
0.0
 10
-198.0498899249313
 20
693.3020424359548
 30
0.0
 10
-198.1421866128886
 20
693.0615924113483
 30
0.0
 10
-198.1865127023762
 20
692.9461147106433
 30
0.0
  0
SPLINE
  5
66
330
1F
100
AcDbEntity
  8
0
  6
Continuous
 62
     7
370
    15
100
AcDbSpline
210
0.0
220
0.0
230
1.0
 70
     8
 71
     3
 72
    10
 73
     6
 74
     0
 42
0.00000001
 43
0.00000001
 12
1.0
 22
0.0
 32
0.0
 13
1.0
 23
0.0
 33
0.0
 40
0.0
 40
0.0
 40
0.0
 40
0.0
 40
0.3329086594268663
 40
0.6662189267050127
 40
1.0
 40
1.0
 40
1.0
 40
1.0
 10
-198.1865127023682
 20
702.003257567786
 30
0.0
 10
-197.3967645077388
 20
702.0032552053043
 30
0.0
 10
-195.8163153974662
 20
702.0032504774908
 30
0.0
 10
-193.4439416736633
 20
702.0032510950795
 30
0.0
 10
-191.8613129056611
 20
702.0032554092023
 30
0.0
 10
-191.0694400440565
 20
702.003257567786
 30
0.0
  0
SPLINE
  5
67
330
1F
100
AcDbEntity
  8
0
  6
Continuous
 62
     7
370
    15
100
AcDbSpline
210
0.0
220
0.0
230
1.0
 70
     8
 71
     3
 72
    13
 73
     9
 74
     0
 42
0.00000001
 43
0.00000001
 12
1.0
 22
0.0
 32
0.0
 13
1.0
 23
0.0
 33
0.0
 40
0.0
 40
0.0
 40
0.0
 40
0.0
 40
0.1609727410450211
 40
0.3242230593135647
 40
0.4897509528441637
 40
0.6575564152354578
 40
0.8276394358472292
 40
1.0
 40
1.0
 40
1.0
 40
1.0
 10
-198.1865127023762
 20
704.3746861392146
 30
0.0
 10
-198.1865129650736
 20
704.2507330409529
 30
0.0
 10
-198.1865134941853
 20
704.0010730521319
 30
0.0
 10
-198.1865153818875
 20
703.6189984908352
 30
0.0
 10
-198.1865160894388
 20
703.2281608186722
 30
0.0
 10
-198.1865154292296
 20
702.8282005235492
 30
0.0
 10
-198.1865135167339
 20
702.4195934567208
 30
0.0
 10
-198.1865129750297
 20
702.1426501675635
 30
0.0
 10
-198.1865127023762
 20
702.003257567786
 30
0.0
  0
SPLINE
  5
68
330
1F
100
AcDbEntity
  8
0
  6
Continuous
 62
     7
370
    15
100
AcDbSpline
210
0.0
220
0.0
230
1.0
 70
     8
 71
     3
 72
    11
 73
     7
 74
     0
 42
0.00000001
 43
0.00000001
 12
1.0
 22
0.0
 32
0.0
 13
1.0
 23
0.0
 33
0.0
 40
0.0
 40
0.0
 40
0.0
 40
0.0
 40
0.2496612052252841
 40
0.4989942730123318
 40
0.7497893470922783
 40
1.0
 40
1.0
 40
1.0
 40
1.0
 10
-189.4436555595322
 20
704.3746861392146
 30
0.0
 10
-190.171303130097
 20
704.3746856702268
 30
0.0
 10
-191.6256419015354
 20
704.3746847328675
 30
0.0
 10
-193.8108284055135
 20
704.3746872460563
 30
0.0
 10
-195.9975089222897
 20
704.3746831093144
 30
0.0
 10
-197.4574124328688
 20
704.3746851300336
 30
0.0
 10
-198.1865127023619
 20
704.3746861392145
 30
0.0
  0
SPLINE
  5
69
330
1F
100
AcDbEntity
  8
0
  6
Continuous
 62
     7
370
    15
100
AcDbSpline
210
0.0
220
0.0
230
1.0
 70
     8
 71
     3
 72
    20
 73
    16
 74
     0
 42
0.00000001
 43
0.00000001
 12
1.0
 22
0.0
 32
0.0
 13
1.0
 23
0.0
 33
0.0
 40
0.0
 40
0.0
 40
0.0
 40
0.0
 40
0.0441762780748532
 40
0.0859721007081295
 40
0.1253859427622095
 40
0.1894603472925007
 40
0.2499898690139788
 40
0.3741958225256344
 40
0.4984058725686955
 40
0.6231108756224332
 40
0.6864381681528385
 40
0.7484186842673327
 40
0.8343956336115677
 40
0.9182562925189001
 40
0.9999999999999999
 40
0.9999999999999999
 40
0.9999999999999999
 40
0.9999999999999999
 10
-186.1865127023761
 20
696.3746861392051
 30
0.0
 10
-186.2353530395495
 20
696.4946479610388
 30
0.0
 10
-186.3304019338673
 20
696.7281074165943
 30
0.0
 10
-186.4692154162473
 20
697.0690573791015
 30
0.0
 10
-186.6301424820983
 20
697.4643027779518
 30
0.0
 10
-186.8118890979263
 20
697.9107042099586
 30
0.0
 10
-187.0874908721497
 20
698.5875830976361
 30
0.0
 10
-187.4291782507914
 20
699.4268174916306
 30
0.0
 10
-187.8395943121394
 20
700.4348864530641
 30
0.0
 10
-188.1801422772549
 20
701.2713456068977
 30
0.0
 10
-188.4503149316843
 20
701.9349825372151
 30
0.0
 10
-188.6770989095716
 20
702.4920100919365
 30
0.0
 10
-188.9235858027352
 20
703.0974326383914
 30
0.0
 10
-189.1881365602135
 20
703.7471431234095
 30
0.0
 10
-189.359211520767
 20
704.1672954289766
 30
0.0
 10
-189.4436555595191
 20
704.3746861392146
 30
0.0
  0
SPLINE
  5
6A
330
1F
100
AcDbEntity
  8
0
  6
Continuous
 62
     7
370
    15
100
AcDbSpline
210
0.0
220
0.0
230
1.0
 70
     8
 71
     3
 72
    20
 73
    16
 74
     0
 42
0.00000001
 43
0.00000001
 12
1.0
 22
0.0
 32
0.0
 13
1.0
 23
0.0
 33
0.0
 40
0.0
 40
0.0
 40
0.0
 40
0.0
 40
0.0414060372589569
 40
0.0832140138432067
 40
0.1254239583047849
 40
0.1871394291045162
 40
0.2500244789272345
 40
0.3742163727265479
 40
0.4984188658637849
 40
0.6231187200887031
 40
0.7484119670182183
 40
0.8095180388607672
 40
0.8741092036434063
 40
0.9342209047497247
 40
1.0
 40
1.0
 40
1.0
 40
1.0
 10
-182.9293698452377
 20
704.3746861392036
 30
0.0
 10
-182.972044852679
 20
704.2698675071808
 30
0.0
 10
-183.0578091251151
 20
704.0592127410263
 30
0.0
 10
-183.1882836218968
 20
703.7387095266339
 30
0.0
 10
-183.3408547061731
 20
703.3639238979268
 30
0.0
 10
-183.5169403634769
 20
702.9314034497967
 30
0.0
 10
-183.7818455591965
 20
702.2807465728838
 30
0.0
 10
-184.1172598040462
 20
701.4570138591125
 30
0.0
 10
-184.5240763226009
 20
700.4578691152401
 30
0.0
 10
-184.9356306652177
 20
699.4470525619621
 30
0.0
 10
-185.2796727159167
 20
698.6020263473156
 30
0.0
 10
-185.5576743428453
 20
697.9192152512663
 30
0.0
 10
-185.7635512974904
 20
697.41352767916
 30
0.0
 10
-185.9745615549509
 20
696.8952807109202
 30
0.0
 10
-186.113773292978
 20
696.5533487326554
 30
0.0
 10
-186.1865127023761
 20
696.3746861392146
 30
0.0
  0
SPLINE
  5
6B
330
1F
100
AcDbEntity
  8
0
  6
Continuous
 62
     7
370
    15
100
AcDbSpline
210
0.0
220
0.0
230
1.0
 70
     8
 71
     3
 72
    12
 73
     8
 74
     0
 42
0.00000001
 43
0.00000001
 12
1.0
 22
0.0
 32
0.0
 13
1.0
 23
0.0
 33
0.0
 40
0.0
 40
0.0
 40
0.0
 40
0.0
 40
0.12407740228386
 40
0.2482017267280393
 40
0.49764267039725
 40
0.7486460251599079
 40
1.0
 40
1.0
 40
1.0
 40
1.0
 10
-174.1865127023853
 20
704.3746861392146
 30
0.0
 10
-174.5480619928684
 20
704.3746848865148
 30
0.0
 10
-175.2712973003735
 20
704.3746823806417
 30
0.0
 10
-176.7214632623554
 20
704.3746720824207
 30
0.0
 10
-178.5416042221878
 20
704.3746915500566
 30
0.0
 10
-180.7326485804481
 20
704.3746825599059
 30
0.0
 10
-182.1967887916325
 20
704.3746849455566
 30
0.0
 10
-182.9293698452333
 20
704.3746861392146
 30
0.0
  0
SPLINE
  5
6C
330
1F
100
AcDbEntity
  8
0
  6
Continuous
 62
     7
370
    15
100
AcDbSpline
210
0.0
220
0.0
230
1.0
 70
     8
 71
     3
 72
    14
 73
    10
 74
     0
 42
0.00000001
 43
0.00000001
 12
1.0
 22
0.0
 32
0.0
 13
1.0
 23
0.0
 33
0.0
 40
0.0
 40
0.0
 40
0.0
 40
0.0
 40
0.147877189099562
 40
0.2940810407384283
 40
0.4386115459487024
 40
0.5814686979028919
 40
0.7226524920061671
 40
0.8621629259888917
 40
0.9999999999999999
 40
0.9999999999999999
 40
0.9999999999999999
 40
0.9999999999999999
 10
-174.1865127023761
 20
702.003257567786
 30
0.0
 10
-174.1865124990167
 20
702.1228848860158
 30
0.0
 10
-174.186512094599
 20
702.3607858527567
 30
0.0
 10
-174.1865104570474
 20
702.7126546245127
 30
0.0
 10
-174.1865094941124
 20
703.0581759355181
 30
0.0
 10
-174.1865095209966
 20
703.3971008731214
 30
0.0
 10
-174.186510509108
 20
703.7293472925838
 30
0.0
 10
-174.186512113396
 20
704.0551255379022
 30
0.0
 10
-174.1865125068407
 20
704.2685952577932
 30
0.0
 10
-174.1865127023761
 20
704.3746861392023
 30
0.0
  0
SPLINE
  5
6D
330
1F
100
AcDbEntity
  8
0
  6
Continuous
 62
     7
370
    15
100
AcDbSpline
210
0.0
220
0.0
230
1.0
 70
     8
 71
     3
 72
    10
 73
     6
 74
     0
 42
0.00000001
 43
0.00000001
 12
1.0
 22
0.0
 32
0.0
 13
1.0
 23
0.0
 33
0.0
 40
0.0
 40
0.0
 40
0.0
 40
0.0
 40
0.3975949964825652
 40
0.6989973992479837
 40
1.0
 40
1.0
 40
1.0
 40
1.0
 10
-181.3035853606957
 20
702.003257567786
 30
0.0
 10
-180.360318817371
 20
702.0032576879933
 30
0.0
 10
-178.7019959853064
 20
702.0032578993251
 30
0.0
 10
-176.3296338373916
 20
702.0032559534343
 30
0.0
 10
-174.9005702687699
 20
702.003257029907
 30
0.0
 10
-174.1865127023761
 20
702.003257567786
 30
0.0
  0
SPLINE
  5
6E
330
1F
100
AcDbEntity
  8
0
  6
Continuous
 62
     7
370
    15
100
AcDbSpline
210
0.0
220
0.0
230
1.0
 70
     8
 71
     3
 72
    21
 73
    17
 74
     0
 42
0.00000001
 43
0.00000001
 12
1.0
 22
0.0
 32
0.0
 13
1.0
 23
0.0
 33
0.0
 40
0.0
 40
0.0
 40
0.0
 40
0.0
 40
0.038516116032852
 40
0.0802886205489757
 40
0.1253197194494454
 40
0.1876322574542925
 40
0.2497987537439216
 40
0.3118823732293758
 40
0.3739456085208905
 40
0.4982400047500209
 40
0.6230868818430212
 40
0.7484375060135621
 40
0.8123342617040026
 40
0.8741332523081018
 40
0.937959768201986
 40
1.0
 40
1.0
 40
1.0
 40
1.0
 10
-184.9911363810985
 20
692.9461147106567
 30
0.0
 10
-184.9448532320197
 20
693.0597911856102
 30
0.0
 10
-184.8483738728072
 20
693.2967550413398
 30
0.0
 10
-184.696823930527
 20
693.6690206737546
 30
0.0
 10
-184.515679923763
 20
694.114001241461
 30
0.0
 10
-184.3085837183404
 20
694.6226754483458
 30
0.0
 10
-184.0794421672107
 20
695.1854708863991
 30
0.0
 10
-183.8496082217961
 20
695.7499379775367
 30
0.0
 10
-183.5421344280488
 20
696.5050801459993
 30
0.0
 10
-183.1555832993795
 20
697.4544846081811
 30
0.0
 10
-182.690152548115
 20
698.5976611443315
 30
0.0
 10
-182.3010409200572
 20
699.5534097340807
 30
0.0
 10
-181.9918128105658
 20
700.3129368134405
 30
0.0
 10
-181.7594907905037
 20
700.8835296989436
 30
0.0
 10
-181.5306499229602
 20
701.4455737655427
 30
0.0
 10
-181.3785540399553
 20
701.8191301210297
 30
0.0
 10
-181.3035853606958
 20
702.003257567786
 30
0.0
  0
SPLINE
  5
6F
330
1F
100
AcDbEntity
  8
0
  6
Continuous
 62
     7
370
    15
100
AcDbSpline
210
0.0
220
0.0
230
1.0
 70
     8
 71
     3
 72
    10
 73
     6
 74
     0
 42
0.00000001
 43
0.00000001
 12
1.0
 22
0.0
 32
0.0
 13
1.0
 23
0.0
 33
0.0
 40
0.0
 40
0.0
 40
0.0
 40
0.0
 40
0.497467518278262
 40
0.5000000003628879
 40
1.0
 40
1.0
 40
1.0
 40
1.0
 10
-187.3818890236379
 20
692.9461147106433
 30
0.0
 10
-186.9854484877491
 20
692.946114706371
 30
0.0
 10
-186.5869897727474
 20
692.946114702077
 30
0.0
 10
-185.7900719925769
 20
692.946114719384
 30
0.0
 10
-185.3895950972796
 20
692.9461147150025
 30
0.0
 10
-184.9911363811041
 20
692.9461147106432
 30
0.0
  0
SPLINE
  5
70
330
1F
100
AcDbEntity
  8
0
  6
Continuous
 62
     7
370
    15
100
AcDbSpline
210
0.0
220
0.0
230
1.0
 70
     8
 71
     3
 72
    21
 73
    17
 74
     0
 42
0.00000001
 43
0.00000001
 12
1.0
 22
0.0
 32
0.0
 13
1.0
 23
0.0
 33
0.0
 40
0.0
 40
0.0
 40
0.0
 40
0.0
 40
0.041099408966006
 40
0.0828754595436054
 40
0.1253278121079434
 40
0.1865353516885612
 40
0.2498023123686603
 40
0.3739286100941693
 40
0.4982230974915941
 40
0.6230713513526213
 40
0.6857029160769165
 40
0.7484384894675215
 40
0.8112564038595426
 40
0.8741356576937354
 40
0.9412511780635509
 40
1.0
 40
1.0
 40
1.0
 40
1.0
 10
-191.0694400440514
 20
702.0032575677736
 30
0.0
 10
-191.0198178170235
 20
701.8813763487606
 30
0.0
 10
-190.9197564056314
 20
701.6356073148604
 30
0.0
 10
-190.7675038259537
 20
701.2616187516029
 30
0.0
 10
-190.5901125446389
 20
700.8258768593149
 30
0.0
 10
-190.3854821244907
 20
700.3232679526259
 30
0.0
 10
-190.0793014874359
 20
699.5712465537329
 30
0.0
 10
-189.6931681851282
 20
698.6229333263259
 30
0.0
 10
-189.2292690132623
 20
697.4835434156636
 30
0.0
 10
-188.8419913783102
 20
696.5323239728143
 30
0.0
 10
-188.5323132691984
 20
695.7716807988817
 30
0.0
 10
-188.3001623807762
 20
695.2014669495528
 30
0.0
 10
-188.0686931978208
 20
694.6329383557191
 30
0.0
 10
-187.8331310481331
 20
694.0543892814537
 30
0.0
 10
-187.6039267372207
 20
693.4914270610013
 30
0.0
 10
-187.4525473331537
 20
693.1196476128192
 30
0.0
 10
-187.3818890236482
 20
692.9461147106432
 30
0.0
  0
SPLINE
  5
71
330
1F
100
AcDbEntity
  8
0
  6
Continuous
 62
     7
370
    15
100
AcDbSpline
210
0.0
220
0.0
230
1.0
 70
     8
 71
     3
 72
    20
 73
    16
 74
     0
 42
0.00000001
 43
0.00000001
 12
1.0
 22
0.0
 32
0.0
 13
1.0
 23
0.0
 33
0.0
 40
0.0
 40
0.0
 40
0.0
 40
0.0
 40
0.0418365641606087
 40
0.0837456503633921
 40
0.1258081784527469
 40
0.1882363038084977
 40
0.2509191128588795
 40
0.3756158443927548
 40
0.5001491992292603
 40
0.6246455732712032
 40
0.7492463138909288
 40
0.8118370453606892
 40
0.8742491754418819
 40
0.9372043352885453
 40
1.0
 40
1.0
 40
1.0
 40
1.0
 10
-177.4868693843251
 20
696.5675246282836
 30
0.0
 10
-177.4381090388762
 20
696.5785207641245
 30
0.0
 10
-177.3405038238331
 20
696.6005320971763
 30
0.0
 10
-177.1958630699365
 20
696.6415914575595
 30
0.0
 10
-177.0296379291839
 20
696.6960351517878
 30
0.0
 10
-176.8433323151511
 20
696.7683345529306
 30
0.0
 10
-176.5723055857198
 20
696.8935449738816
 30
0.0
 10
-176.2491254660999
 20
697.0810120711324
 30
0.0
 10
-175.8921314857959
 20
697.3509227703838
 30
0.0
 10
-175.5703180974898
 20
697.6618247796575
 30
0.0
 10
-175.335310600529
 20
697.9519122957728
 30
0.0
 10
-175.1697557027615
 20
698.1999401137548
 30
0.0
 10
-175.0573337613807
 20
698.3941880731523
 30
0.0
 10
-174.9564019152971
 20
698.594906295319
 30
0.0
 10
-174.900261562089
 20
698.7338658930973
 30
0.0
 10
-174.8722269880874
 20
698.8032575677937
 30
0.0
  0
SPLINE
  5
72
330
1F
100
AcDbEntity
  8
0
  6
Continuous
 62
     7
370
    15
100
AcDbSpline
210
0.0
220
0.0
230
1.0
 70
     8
 71
     3
 72
    15
 73
    11
 74
     0
 42
0.00000001
 43
0.00000001
 12
1.0
 22
0.0
 32
0.0
 13
1.0
 23
0.0
 33
0.0
 40
0.0
 40
0.0
 40
0.0
 40
0.0
 40
0.1133264018497469
 40
0.2502062291768709
 40
0.375129132476485
 40
0.5000006164655698
 40
0.6340701786105499
 40
0.7497953869578732
 40
0.8796130984424044
 40
0.9999999999999999
 40
0.9999999999999999
 40
0.9999999999999999
 40
0.9999999999999999
 10
-174.7579412738137
 20
692.9461147106553
 30
0.0
 10
-174.8598783921155
 20
693.0813862414462
 30
0.0
 10
-175.084938939059
 20
693.38004373945
 30
0.0
 10
-175.4239891567944
 20
693.8300289214454
 30
0.0
 10
-175.7746167039934
 20
694.2953347244185
 30
0.0
 10
-176.123749081431
 20
694.758643354862
 30
0.0
 10
-176.4653888028304
 20
695.2120241404323
 30
0.0
 10
-176.8122821667477
 20
695.6723252223161
 30
0.0
 10
-177.1471867236152
 20
696.1167626604043
 30
0.0
 10
-177.3765232446411
 20
696.4210943013195
 30
0.0
 10
-177.4868693843251
 20
696.5675246282836
 30
0.0
  0
SPLINE
  5
73
330
1F
100
AcDbEntity
  8
0
  6
Continuous
 62
     7
370
    15
100
AcDbSpline
210
0.0
220
0.0
230
1.0
 70
     8
 71
     3
 72
     9
 73
     5
 74
     0
 42
0.00000001
 43
0.00000001
 12
1.0
 22
0.0
 32
0.0
 13
1.0
 23
0.0
 33
0.0
 40
0.0
 40
0.0
 40
0.0
 40
0.0
 40
0.4997169093420991
 40
0.9999999999999999
 40
0.9999999999999999
 40
0.9999999999999999
 40
0.9999999999999999
 10
-177.7272915488468
 20
692.9461147106432
 30
0.0
 10
-177.23267287896
 20
692.9461151466656
 30
0.0
 10
-176.242875134197
 20
692.9461160192043
 30
0.0
 10
-175.2531060235279
 20
692.9461151469949
 30
0.0
 10
-174.7579412738047
 20
692.9461147106432
 30
0.0
  0
SPLINE
  5
74
330
1F
100
AcDbEntity
  8
0
  6
Continuous
 62
     7
370
    15
100
AcDbSpline
210
0.0
220
0.0
230
1.0
 70
     8
 71
     3
 72
    14
 73
    10
 74
     0
 42
0.00000001
 43
0.00000001
 12
1.0
 22
0.0
 32
0.0
 13
1.0
 23
0.0
 33
0.0
 40
0.0
 40
0.0
 40
0.0
 40
0.0
 40
0.119279738297217
 40
0.2501700128534651
 40
0.4999941144920049
 40
0.6248900600278011
 40
0.7498281093168853
 40
0.8831147759990444
 40
1.0
 40
1.0
 40
1.0
 40
1.0
 10
-180.139968741812
 20
696.1478454857906
 30
0.0
 10
-180.0432568862725
 20
696.0195075709458
 30
0.0
 10
-179.840419367606
 20
695.7503394937465
 30
0.0
 10
-179.4357830133822
 20
695.2133708288329
 30
0.0
 10
-179.0276954015317
 20
694.6718418957563
 30
0.0
 10
-178.6260171874337
 20
694.1387950042038
 30
0.0
 10
-178.3189386567565
 20
693.7312824952917
 30
0.0
 10
-178.0192222683156
 20
693.3335156384733
 30
0.0
 10
-177.8202536143574
 20
693.0694781939163
 30
0.0
 10
-177.7272915488608
 20
692.9461147106432
 30
0.0
  0
SPLINE
  5
75
330
1F
100
AcDbEntity
  8
0
  6
Continuous
 62
     7
370
    15
100
AcDbSpline
210
0.0
220
0.0
230
1.0
 70
     8
 71
     3
 72
    15
 73
    11
 74
     0
 42
0.00000001
 43
0.00000001
 12
1.0
 22
0.0
 32
0.0
 13
1.0
 23
0.0
 33
0.0
 40
0.0
 40
0.0
 40
0.0
 40
0.0
 40
0.1201830433788094
 40
0.2502594460010026
 40
0.3652499263139802
 40
0.5000005766580545
 40
0.6248389649261717
 40
0.7497422269190374
 40
0.885665921322546
 40
1.0
 40
1.0
 40
1.0
 40
1.0
 10
-181.4435305573936
 20
692.9461147106572
 30
0.0
 10
-181.3921816972971
 20
693.0722344333062
 30
0.0
 10
-181.2852569854637
 20
693.3348559399067
 30
0.0
 10
-181.1280943665602
 20
693.7208992868095
 30
0.0
 10
-180.9639228266561
 20
694.1241180121167
 30
0.0
 10
-180.8012785153219
 20
694.5236129672892
 30
0.0
 10
-180.6336503209768
 20
694.9353192074261
 30
0.0
 10
-180.4649354103462
 20
695.3496910751502
 30
0.0
 10
-180.3003553738782
 20
695.7539290605439
 30
0.0
 10
-180.1902651423477
 20
696.0243153757755
 30
0.0
 10
-180.1399687418065
 20
696.1478454857834
 30
0.0
  0
SPLINE
  5
76
330
1F
100
AcDbEntity
  8
0
  6
Continuous
 62
     7
370
    15
100
AcDbSpline
210
0.0
220
0.0
230
1.0
 70
     8
 71
     3
 72
     9
 73
     5
 74
     0
 42
0.00000001
 43
0.00000001
 12
1.0
 22
0.0
 32
0.0
 13
1.0
 23
0.0
 33
0.0
 40
0.0
 40
0.0
 40
0.0
 40
0.0
 40
0.4999061818262758
 40
1.0
 40
1.0
 40
1.0
 40
1.0
 10
-184.0039764997252
 20
692.9461147106432
 30
0.0
 10
-183.5773133383695
 20
692.9461151561605
 30
0.0
 10
-182.7238268705747
 20
692.9461160473626
 30
0.0
 10
-181.8703493762577
 20
692.9461151562721
 30
0.0
 10
-181.4435305573993
 20
692.9461147106432
 30
0.0
  0
SPLINE
  5
77
330
1F
100
AcDbEntity
  8
0
  6
Continuous
 62
     7
370
    15
100
AcDbSpline
210
0.0
220
0.0
230
1.0
 70
     8
 71
     3
 72
     9
 73
     5
 74
     0
 42
0.00000001
 43
0.00000001
 12
1.0
 22
0.0
 32
0.0
 13
1.0
 23
0.0
 33
0.0
 40
0.0
 40
0.0
 40
0.0
 40
0.0
 40
0.4998954456000145
 40
1.0
 40
1.0
 40
1.0
 40
1.0
 10
-178.1282244349611
 20
701.0889718535004
 30
0.0
 10
-178.5548738279797
 20
701.0889721949682
 30
0.0
 10
-179.4083510836217
 20
701.0889728780463
 30
0.0
 10
-180.2618377888645
 20
701.0889721950633
 30
0.0
 10
-180.6886703772763
 20
701.0889718535004
 30
0.0
  0
SPLINE
  5
78
330
1F
100
AcDbEntity
  8
0
  6
Continuous
 62
     7
370
    15
100
AcDbSpline
210
0.0
220
0.0
230
1.0
 70
     8
 71
     3
 72
    13
 73
     9
 74
     0
 42
0.00000001
 43
0.00000001
 12
1.0
 22
0.0
 32
0.0
 13
1.0
 23
0.0
 33
0.0
 40
0.0
 40
0.0
 40
0.0
 40
0.0
 40
0.1307128164487427
 40
0.2576208291562539
 40
0.3807216419288411
 40
0.5000129708587175
 40
0.7551894529738252
 40
1.0
 40
1.0
 40
1.0
 40
1.0
 10
-179.3372443463417
 20
698.119449264118
 30
0.0
 10
-179.2841973230707
 20
698.2497431498713
 30
0.0
 10
-179.1796473754018
 20
698.5065383119199
 30
0.0
 10
-179.0253402981219
 20
698.8855452369303
 30
0.0
 10
-178.8758716419163
 20
699.2526448601361
 30
0.0
 10
-178.6748976199894
 20
699.7462393243193
 30
0.0
 10
-178.4255078730509
 20
700.3588153987787
 30
0.0
 10
-178.2259397383187
 20
700.8489737562792
 30
0.0
 10
-178.1282244349504
 20
701.0889718535003
 30
0.0
  0
SPLINE
  5
79
330
1F
100
AcDbEntity
  8
0
  6
Continuous
 62
     7
370
    15
100
AcDbSpline
210
0.0
220
0.0
230
1.0
 70
     8
 71
     3
 72
    25
 73
    21
 74
     0
 42
0.00000001
 43
0.00000001
 12
1.0
 22
0.0
 32
0.0
 13
1.0
 23
0.0
 33
0.0
 40
0.0
 40
0.0
 40
0.0
 40
0.0
 40
0.0314440082083187
 40
0.0629348214803407
 40
0.125635132457228
 40
0.1881802167111676
 40
0.2506055955135834
 40
0.312935865534699
 40
0.3751992119766967
 40
0.437441792600592
 40
0.4997416735042672
 40
0.5620744629072763
 40
0.6243964568355289
 40
0.6867596551453203
 40
0.7491893017058352
 40
0.8116988424644123
 40
0.8743049841708076
 40
0.9370427644496351
 40
0.9685607113364204
 40
1.0
 40
1.0
 40
1.0
 40
1.0
 10
-176.4722269880904
 20
701.0889718535003
 30
0.0
 10
-176.4728977723024
 20
701.0419989680018
 30
0.0
 10
-176.4742403392028
 20
700.9479832768828
 30
0.0
 10
-176.4885285682619
 20
700.760347180205
 30
0.0
 10
-176.5225195183444
 20
700.5272091693854
 30
0.0
 10
-176.5899941569963
 20
700.2522816308331
 30
0.0
 10
-176.682859336912
 20
699.9845290516578
 30
0.0
 10
-176.8004162742446
 20
699.7262646848011
 30
0.0
 10
-176.9418254811536
 20
699.4798066906026
 30
0.0
 10
-177.1062957765514
 20
699.2474939844716
 30
0.0
 10
-177.2928918461217
 20
699.0318346377092
 30
0.0
 10
-177.5003393326156
 20
698.8355403453828
 30
0.0
 10
-177.7261105215698
 20
698.6601877650083
 30
0.0
 10
-177.9678168621904
 20
698.5070493981564
 30
0.0
 10
-178.223226304396
 20
698.3772538156225
 30
0.0
 10
-178.4901242006461
 20
698.2719745921913
 30
0.0
 10
-178.7662712801607
 20
698.1922372186749
 30
0.0
 10
-179.0022690524302
 20
698.1484436998497
 30
0.0
 10
-179.1931757262006
 20
698.1267126122598
 30
0.0
 10
-179.2892614891987
 20
698.121868362715
 30
0.0
 10
-179.3372443463389
 20
698.1194492641242
 30
0.0
  0
SPLINE
  5
7A
330
1F
100
AcDbEntity
  8
0
  6
Continuous
 62
     7
370
    15
100
AcDbSpline
210
0.0
220
0.0
230
1.0
 70
     8
 71
     3
 72
     9
 73
     5
 74
     0
 42
0.00000001
 43
0.00000001
 12
1.0
 22
0.0
 32
0.0
 13
1.0
 23
0.0
 33
0.0
 40
0.0
 40
0.0
 40
0.0
 40
0.0
 40
0.499828815252441
 40
1.0
 40
1.0
 40
1.0
 40
1.0
 10
-174.1865127023844
 20
701.0889718535004
 30
0.0
 10
-174.56733110579
 20
701.08897211117
 30
0.0
 10
-175.3292287631175
 20
701.0889726266862
 30
0.0
 10
-176.0911406279726
 20
701.0889721112877
 30
0.0
 10
-176.4722269880904
 20
701.0889718535003
 30
0.0
  0
SPLINE
  5
7B
330
1F
100
AcDbEntity
  8
0
  6
Continuous
 62
     7
370
    15
100
AcDbSpline
210
0.0
220
0.0
230
1.0
 70
     8
 71
     3
 72
    13
 73
     9
 74
     0
 42
0.00000001
 43
0.00000001
 12
1.0
 22
0.0
 32
0.0
 13
1.0
 23
0.0
 33
0.0
 40
0.0
 40
0.0
 40
0.0
 40
0.0
 40
0.176246113905305
 40
0.348660531533603
 40
0.5172431885004452
 40
0.6819940235626761
 40
0.8429129788332851
 40
1.0
 40
1.0
 40
1.0
 40
1.0
 10
-174.1865127023761
 20
698.8032575677707
 30
0.0
 10
-174.1865123541664
 20
698.9386557545893
 30
0.0
 10
-174.1865116653173
 20
699.2065084903958
 30
0.0
 10
-174.1865092026936
 20
699.6026306076322
 30
0.0
 10
-174.1865083656704
 20
699.9888268020165
 30
0.0
 10
-174.1865092848419
 20
700.364864807593
 30
0.0
 10
-174.1865117039246
 20
700.7308350932003
 30
0.0
 10
-174.1865123722433
 20
700.970555802045
 30
0.0
 10
-174.1865127023761
 20
701.0889718534862
 30
0.0
  0
LINE
  5
7C
330
1F
100
AcDbEntity
  8
0
  6
Continuous
 62
     7
370
    15
100
AcDbLine
 10
-174.8722269881
 20
698.8032575678
 30
0.0
 11
-174.1865127024
 21
698.8032575678
 31
0.0
  0
SPLINE
  5
7D
330
1F
100
AcDbEntity
  8
0
  6
Continuous
 62
     7
370
    15
100
AcDbSpline
210
0.0
220
0.0
230
1.0
 70
     8
 71
     3
 72
    21
 73
    17
 74
     0
 42
0.00000001
 43
0.00000001
 12
1.0
 22
0.0
 32
0.0
 13
1.0
 23
0.0
 33
0.0
 40
0.0
 40
0.0
 40
0.0
 40
0.0
 40
0.0410684323568112
 40
0.0828688055593953
 40
0.125400736508984
 40
0.1866032157175408
 40
0.2499922010472048
 40
0.374182203980058
 40
0.4983885458324331
 40
0.6230975705975138
 40
0.6856930140135375
 40
0.7484104732480588
 40
0.8112243607597818
 40
0.8741097054627933
 40
0.940719774846862
 40
1.0
 40
1.0
 40
1.0
 40
1.0
 10
-180.6886703772763
 20
701.0889718535004
 30
0.0
 10
-180.7336718485904
 20
700.9784411914621
 30
0.0
 10
-180.8244768285276
 20
700.7554099381331
 30
0.0
 10
-180.9624791369283
 20
700.4164395849069
 30
0.0
 10
-181.1230787515012
 20
700.0219612634306
 30
0.0
 10
-181.3081287548972
 20
699.5674536117186
 30
0.0
 10
-181.5844255912579
 20
698.8888308074174
 30
0.0
 10
-181.9319374954417
 20
698.0353361077595
 30
0.0
 10
-182.3482578765189
 20
697.0127942129526
 30
0.0
 10
-182.6951965984787
 20
696.1606525390855
 30
0.0
 10
-182.9725213108871
 20
695.4794758243328
 30
0.0
 10
-183.1804879475953
 20
694.9686647733355
 30
0.0
 10
-183.3879030860045
 20
694.4592195152679
 30
0.0
 10
-183.5985072821763
 20
693.9419668230844
 30
0.0
 10
-183.8040888619036
 20
693.4370361461971
 30
0.0
 10
-183.9399847574371
 20
693.1032775964028
 30
0.0
 10
-184.0039764997253
 20
692.9461147106432
 30
0.0
  0
SPLINE
  5
7E
330
1F
100
AcDbEntity
  8
0
  6
Continuous
 62
     7
370
    15
100
AcDbSpline
210
0.0
220
0.0
230
1.0
 70
     8
 71
     3
 72
    18
 73
    14
 74
     0
 42
0.00000001
 43
0.00000001
 12
1.0
 22
0.0
 32
0.0
 13
1.0
 23
0.0
 33
0.0
 40
0.0
 40
0.0
 40
0.0
 40
0.0
 40
0.125
 40
0.125
 40
0.25
 40
0.25
 40
0.375
 40
0.375
 40
0.5
 40
0.5
 40
0.75
 40
0.75
 40
1.0
 40
1.0
 40
1.0
 40
1.0
 10
-178.6167537046237
 20
249.1536880169646
 30
0.0
 10
-178.1810845344817
 20
249.1701581930801
 30
0.0
 10
-177.7543382253303
 20
249.2059420621639
 30
0.0
 10
-176.9169860679075
 20
249.3108977717697
 30
0.0
 10
-176.5045174341153
 20
249.3804591782912
 30
0.0
 10
-175.7030086197396
 20
249.5454025783865
 30
0.0
 10
-175.3211605917095
 20
249.6390343851924
 30
0.0
 10
-174.5903083192276
 20
249.8396274936493
 30
0.0
 10
-174.2398139470347
 20
249.9471342733289
 30
0.0
 10
-173.2461481527075
 20
250.2740695889123
 30
0.0
 10
-172.6626905356675
 20
250.4964839952126
 30
0.0
 10
-171.6865220223848
 20
250.8755432513904
 30
0.0
 10
-171.2963456886689
 20
251.031064087143
 30
0.0
 10
-171.0271607161624
 20
251.1221946281963
 30
0.0
  0
SPLINE
  5
7F
330
1F
100
AcDbEntity
  8
0
  6
Continuous
 62
     7
370
    15
100
AcDbSpline
210
0.0
220
0.0
230
1.0
 70
     8
 71
     3
 72
    18
 73
    14
 74
     0
 42
0.00000001
 43
0.00000001
 12
1.0
 22
0.0
 32
0.0
 13
1.0
 23
0.0
 33
0.0
 40
0.0
 40
0.0
 40
0.0
 40
0.0
 40
0.2499999999999976
 40
0.2499999999999976
 40
0.4999999999999951
 40
0.4999999999999951
 40
0.6249999999999963
 40
0.6249999999999963
 40
0.7499999999999976
 40
0.7499999999999976
 40
0.8749999999999988
 40
0.8749999999999988
 40
1.0
 40
1.0
 40
1.0
 40
1.0
 10
-7.96806147960466
 20
345.2644094661968
 30
0.0
 10
-7.754772715818092
 20
345.4517674990962
 30
0.0
 10
-7.425388411938849
 20
345.7116282704663
 30
0.0
 10
-6.610758460018546
 20
346.3660679791683
 30
0.0
 10
-6.126615211912489
 20
346.7599627153184
 30
0.0
 10
-5.348460179072783
 20
347.4551297861538
 30
0.0
 10
-5.079632321826927
 20
347.705155605999
 30
0.0
 10
-4.53728221611599
 20
348.2407891576934
 30
0.0
 10
-4.261771080564497
 20
348.5286101390376
 30
0.0
 10
-3.724393997932451
 20
349.1332328393239
 30
0.0
 10
-3.460809172101703
 20
349.4515957873651
 30
0.0
 10
-2.949023865530254
 20
350.1264197844118
 30
0.0
 10
-2.70021040448773
 20
350.4844689378783
 30
0.0
 10
-2.468488252539119
 20
350.8529364929803
 30
0.0
  0
SPLINE
  5
80
330
1F
100
AcDbEntity
  8
0
  6
Continuous
 62
     7
370
    15
100
AcDbSpline
210
0.0
220
0.0
230
1.0
 70
     8
 71
     3
 72
     8
 73
     4
 74
     0
 42
0.00000001
 43
0.00000001
 12
1.0
 22
0.0
 32
0.0
 13
1.0
 23
0.0
 33
0.0
 40
0.0
 40
0.0
 40
0.0
 40
0.0
 40
1.0
 40
1.0
 40
1.0
 40
1.0
 10
-2.46848825256607
 20
350.8529364929961
 30
0.0
 10
0.2199848312713082
 20
355.1279490277374
 30
0.0
 10
2.74323783052205
 20
359.4983514227903
 30
0.0
 10
5.101270745186209
 20
363.9641436781548
 30
0.0
  0
SPLINE
  5
81
330
1F
100
AcDbEntity
  8
0
  6
Continuous
 62
     7
370
    15
100
AcDbSpline
210
0.0
220
0.0
230
1.0
 70
     8
 71
     3
 72
    18
 73
    14
 74
     0
 42
0.00000001
 43
0.00000001
 12
1.0
 22
0.0
 32
0.0
 13
1.0
 23
0.0
 33
0.0
 40
0.0
 40
0.0
 40
0.0
 40
0.0
 40
0.1250000000000003
 40
0.1250000000000003
 40
0.2500000000000007
 40
0.2500000000000007
 40
0.375000000000001
 40
0.375000000000001
 40
0.5000000000000013
 40
0.5000000000000013
 40
0.7500000000000007
 40
0.7500000000000007
 40
1.0
 40
1.0
 40
1.0
 40
1.0
 10
5.101270745186209
 20
363.9641436781548
 30
0.0
 10
5.30484173933643
 20
364.3496793352015
 30
0.0
 10
5.487225154245323
 20
364.7371444144166
 30
0.0
 10
5.815006922165439
 20
365.5147905094619
 30
0.0
 10
5.960999293870451
 20
365.9067795279107
 30
0.0
 10
6.218908526387734
 20
366.6833782225635
 30
0.0
 10
6.328745017103982
 20
367.0608842185918
 30
0.0
 10
6.520452425597761
 20
367.7941174072029
 30
0.0
 10
6.602596009436273
 20
368.1514078272108
 30
0.0
 10
6.816294617911084
 20
369.1754153057627
 30
0.0
 10
6.915406900370236
 20
369.7919116273536
 30
0.0
 10
7.075216211622159
 20
370.826827986317
 30
0.0
 10
7.13561938393073
 20
371.2424910211255
 30
0.0
 10
7.191290506572606
 20
371.5211773161624
 30
0.0
  0
SPLINE
  5
82
330
1F
100
AcDbEntity
  8
0
  6
Continuous
 62
     7
370
    15
100
AcDbSpline
210
0.0
220
0.0
230
1.0
 70
     8
 71
     3
 72
    18
 73
    14
 74
     0
 42
0.00000001
 43
0.00000001
 12
1.0
 22
0.0
 32
0.0
 13
1.0
 23
0.0
 33
0.0
 40
0.0
 40
0.0
 40
0.0
 40
0.0
 40
0.25
 40
0.25
 40
0.5
 40
0.5
 40
0.625
 40
0.625
 40
0.75
 40
0.75
 40
0.875
 40
0.875
 40
1.0
 40
1.0
 40
1.0
 40
1.0
 10
7.191290506610326
 20
559.8056069922294
 30
0.0
 10
7.135678072410501
 20
560.0839994964577
 30
0.0
 10
7.07532419487994
 20
560.499185056904
 30
0.0
 10
6.915877757860817
 20
561.5318951442969
 30
0.0
 10
6.816826533894426
 20
562.148122864285
 30
0.0
 10
6.603871707095143
 20
563.1696084262213
 30
0.0
 10
6.521756924357219
 20
563.5274330898532
 30
0.0
 10
6.329059714330038
 20
564.264938834988
 30
0.0
 10
6.217555000429309
 20
564.6474489680064
 30
0.0
 10
5.96262492359606
 20
565.4151425231177
 30
0.0
 10
5.818706935863199
 20
565.8025951523583
 30
0.0
 10
5.490184864627351
 20
566.5832262276533
 30
0.0
 10
5.304511932425704
 20
566.9777295824761
 30
0.0
 10
5.101270745212632
 20
567.3626406302327
 30
0.0
  0
SPLINE
  5
83
330
1F
100
AcDbEntity
  8
0
  6
Continuous
 62
     7
370
    15
100
AcDbSpline
210
0.0
220
0.0
230
1.0
 70
     8
 71
     3
 72
     8
 73
     4
 74
     0
 42
0.00000001
 43
0.00000001
 12
1.0
 22
0.0
 32
0.0
 13
1.0
 23
0.0
 33
0.0
 40
0.0
 40
0.0
 40
0.0
 40
0.0
 40
1.0
 40
1.0
 40
1.0
 40
1.0
 10
5.10127074518546
 20
567.3626406301858
 30
0.0
 10
2.743237830517553
 20
571.8284328855585
 30
0.0
 10
0.2199848312625097
 20
576.1988352806194
 30
0.0
 10
-2.46848825257967
 20
580.4738478153685
 30
0.0
  0
SPLINE
  5
84
330
1F
100
AcDbEntity
  8
0
  6
Continuous
 62
     7
370
    15
100
AcDbSpline
210
0.0
220
0.0
230
1.0
 70
     8
 71
     3
 72
    18
 73
    14
 74
     0
 42
0.00000001
 43
0.00000001
 12
1.0
 22
0.0
 32
0.0
 13
1.0
 23
0.0
 33
0.0
 40
0.0
 40
0.0
 40
0.0
 40
0.0
 40
0.1250000000000019
 40
0.1250000000000019
 40
0.2500000000000038
 40
0.2500000000000038
 40
0.3750000000000057
 40
0.3750000000000057
 40
0.5000000000000075
 40
0.5000000000000075
 40
0.7500000000000038
 40
0.7500000000000038
 40
1.0
 40
1.0
 40
1.0
 40
1.0
 10
-2.468488252566875
 20
580.473847815376
 30
0.0
 10
-2.700586428559026
 20
580.8429132963063
 30
0.0
 10
-2.944949322781692
 20
581.1945945065042
 30
0.0
 10
-3.454519712284165
 20
581.8672848919427
 30
0.0
 10
-3.720995974406255
 20
582.1897125037694
 30
0.0
 10
-4.264595556263073
 20
582.8013677983278
 30
0.0
 10
-4.536607093626493
 20
583.0852419875415
 30
0.0
 10
-5.075751957614089
 20
583.6178820676954
 30
0.0
 10
-5.344102745873075
 20
583.8676657081021
 30
0.0
 10
-6.124069931727566
 20
584.5647378710709
 30
0.0
 10
-6.608415266293132
 20
584.9588197863258
 30
0.0
 10
-7.424774468322404
 20
585.6146768891124
 30
0.0
 10
-7.754547629775649
 20
585.8748190881704
 30
0.0
 10
-7.968061479641852
 20
586.0623748421517
 30
0.0
  0
SPLINE
  5
85
330
1F
100
AcDbEntity
  8
0
  6
Continuous
 62
     7
370
    15
100
AcDbSpline
210
0.0
220
0.0
230
1.0
 70
     8
 71
     3
 72
    18
 73
    14
 74
     0
 42
0.00000001
 43
0.00000001
 12
1.0
 22
0.0
 32
0.0
 13
1.0
 23
0.0
 33
0.0
 40
0.0
 40
0.0
 40
0.0
 40
0.0
 40
0.249999999999999
 40
0.249999999999999
 40
0.499999999999998
 40
0.499999999999998
 40
0.6249999999999984
 40
0.6249999999999984
 40
0.749999999999999
 40
0.749999999999999
 40
0.8749999999999994
 40
0.8749999999999994
 40
1.0
 40
1.0
 40
1.0
 40
1.0
 10
-171.0271607161604
 20
680.2045896802174
 30
0.0
 10
-171.2960619141462
 20
680.2956241515486
 30
0.0
 10
-171.6858000955334
 20
680.4509489405363
 30
0.0
 10
-172.6598764844752
 20
680.8292193192314
 30
0.0
 10
-173.2430709564686
 20
681.0515523030784
 30
0.0
 10
-174.2341808161072
 20
681.3778707941806
 30
0.0
 10
-174.585123456346
 20
681.4856696379944
 30
0.0
 10
-175.3201707720883
 20
681.6875418314379
 30
0.0
 10
-175.7071866214042
 20
681.7822309831839
 30
0.0
 10
-176.4994937808714
 20
681.9453018380124
 30
0.0
 10
-176.9069965944129
 20
682.014391519048
 30
0.0
 10
-177.7473039722231
 20
682.1201985972997
 30
0.0
 10
-178.1817903654617
 20
682.1566527987808
 30
0.0
 10
-178.6167537046236
 20
682.1730962914372
 30
0.0
  0
SPLINE
  5
86
330
1F
100
AcDbEntity
  8
0
  6
Continuous
 62
     7
370
    15
100
AcDbSpline
210
0.0
220
0.0
230
1.0
 70
     8
 71
     3
 72
     8
 73
     4
 74
     0
 42
0.00000001
 43
0.00000001
 12
1.0
 22
0.0
 32
0.0
 13
1.0
 23
0.0
 33
0.0
 40
0.0
 40
0.0
 40
0.0
 40
0.0
 40
1.0
 40
1.0
 40
1.0
 40
1.0
 10
-178.6167537046238
 20
682.173096291406
 30
0.0
 10
-183.6632597031254
 20
682.3638760120292
 30
0.0
 10
-188.7097657016269
 20
682.3638760120292
 30
0.0
 10
-193.7562717001285
 20
682.173096291406
 30
0.0
  0
SPLINE
  5
87
330
1F
100
AcDbEntity
  8
0
  6
Continuous
 62
     7
370
    15
100
AcDbSpline
210
0.0
220
0.0
230
1.0
 70
     8
 71
     3
 72
    18
 73
    14
 74
     0
 42
0.00000001
 43
0.00000001
 12
1.0
 22
0.0
 32
0.0
 13
1.0
 23
0.0
 33
0.0
 40
0.0
 40
0.0
 40
0.0
 40
0.0
 40
0.125
 40
0.125
 40
0.25
 40
0.25
 40
0.375
 40
0.375
 40
0.5
 40
0.5
 40
0.75
 40
0.75
 40
1.0
 40
1.0
 40
1.0
 40
1.0
 10
-193.7562717001285
 20
682.173096291406
 30
0.0
 10
-194.1919408702705
 20
682.1566261152904
 30
0.0
 10
-194.6186871794252
 20
682.1208422462068
 30
0.0
 10
-195.4560393368479
 20
682.0158865366009
 30
0.0
 10
-195.8685079706378
 20
681.9463251300795
 30
0.0
 10
-196.6700167850134
 20
681.7813817299841
 30
0.0
 10
-197.0518648130424
 20
681.6877499231781
 30
0.0
 10
-197.7827170855244
 20
681.4871568147213
 30
0.0
 10
-198.1332114577108
 20
681.3796500350414
 30
0.0
 10
-199.1268772520388
 20
681.0527147194584
 30
0.0
 10
-199.7103348690842
 20
680.830300313158
 30
0.0
 10
-200.6865033823671
 20
680.4512410569802
 30
0.0
 10
-201.0766797160833
 20
680.2957202212275
 30
0.0
 10
-201.3458646885898
 20
680.2045896801743
 30
0.0
  0
SPLINE
  5
88
330
1F
100
AcDbEntity
  8
0
  6
Continuous
 62
     7
370
    15
100
AcDbSpline
210
0.0
220
0.0
230
1.0
 70
     8
 71
     3
 72
    18
 73
    14
 74
     0
 42
0.00000001
 43
0.00000001
 12
1.0
 22
0.0
 32
0.0
 13
1.0
 23
0.0
 33
0.0
 40
0.0
 40
0.0
 40
0.0
 40
0.0
 40
0.2499999999999983
 40
0.2499999999999983
 40
0.4999999999999967
 40
0.4999999999999967
 40
0.6249999999999974
 40
0.6249999999999974
 40
0.7499999999999983
 40
0.7499999999999983
 40
0.8749999999999991
 40
0.8749999999999991
 40
1.0
 40
1.0
 40
1.0
 40
1.0
 10
-364.4049639251483
 20
586.0623748421725
 30
0.0
 10
-364.6182526889343
 20
585.8750168092741
 30
0.0
 10
-364.9476369928886
 20
585.6151560379157
 30
0.0
 10
-365.7622669448095
 20
584.9607163292159
 30
0.0
 10
-366.2464101929145
 20
584.5668215930622
 30
0.0
 10
-367.0245652257539
 20
583.8716545222293
 30
0.0
 10
-367.2933930830015
 20
583.6216287023828
 30
0.0
 10
-367.8357431887122
 20
583.0859951506908
 30
0.0
 10
-368.111254324192
 20
582.7981741693342
 30
0.0
 10
-368.6486314068241
 20
582.1935514690512
 30
0.0
 10
-368.9122162325739
 20
581.8751885209633
 30
0.0
 10
-369.4240015391454
 20
581.2003645239192
 30
0.0
 10
-369.6728150002648
 20
580.842315370489
 30
0.0
 10
-369.9045371522138
 20
580.473847815389
 30
0.0
  0
SPLINE
  5
89
330
1F
100
AcDbEntity
  8
0
  6
Continuous
 62
     7
370
    15
100
AcDbSpline
210
0.0
220
0.0
230
1.0
 70
     8
 71
     3
 72
     8
 73
     4
 74
     0
 42
0.00000001
 43
0.00000001
 12
1.0
 22
0.0
 32
0.0
 13
1.0
 23
0.0
 33
0.0
 40
0.0
 40
0.0
 40
0.0
 40
0.0
 40
1.0
 40
1.0
 40
1.0
 40
1.0
 10
-369.9045371521869
 20
580.4738478153732
 30
0.0
 10
-372.5930102360243
 20
576.198835280632
 30
0.0
 10
-375.1162632352813
 20
571.8284328855827
 30
0.0
 10
-377.4742961499455
 20
567.3626406302182
 30
0.0
  0
SPLINE
  5
8A
330
1F
100
AcDbEntity
  8
0
  6
Continuous
 62
     7
370
    15
100
AcDbSpline
210
0.0
220
0.0
230
1.0
 70
     8
 71
     3
 72
    18
 73
    14
 74
     0
 42
0.00000001
 43
0.00000001
 12
1.0
 22
0.0
 32
0.0
 13
1.0
 23
0.0
 33
0.0
 40
0.0
 40
0.0
 40
0.0
 40
0.0
 40
0.1249999999999992
 40
0.1249999999999992
 40
0.2499999999999984
 40
0.2499999999999984
 40
0.3749999999999977
 40
0.3749999999999977
 40
0.4999999999999969
 40
0.4999999999999969
 40
0.7499999999999984
 40
0.7499999999999984
 40
1.0
 40
1.0
 40
1.0
 40
1.0
 10
-377.4742961499391
 20
567.3626406302145
 30
0.0
 10
-377.6778671440908
 20
566.977104973167
 30
0.0
 10
-377.860250558992
 20
566.5896398939238
 30
0.0
 10
-378.1880323269137
 20
565.811993798877
 30
0.0
 10
-378.3340246986191
 20
565.4200047804594
 30
0.0
 10
-378.591933931139
 20
564.6434060858052
 30
0.0
 10
-378.7017704219325
 20
564.2659000897889
 30
0.0
 10
-378.8934778304264
 20
563.5326669011773
 30
0.0
 10
-378.9756214141832
 20
563.1753764811288
 30
0.0
 10
-379.1893200226584
 20
562.1513690025769
 30
0.0
 10
-379.2884323050351
 20
561.5348726809755
 30
0.0
 10
-379.4482416162883
 20
560.4999563220086
 30
0.0
 10
-379.508644788684
 20
560.0842932872426
 30
0.0
 10
-379.5643159113254
 20
559.8056069922068
 30
0.0
  0
SPLINE
  5
8B
330
1F
100
AcDbEntity
  8
0
  6
Continuous
 62
     7
370
    15
100
AcDbSpline
210
0.0
220
0.0
230
1.0
 70
     8
 71
     3
 72
    18
 73
    14
 74
     0
 42
0.00000001
 43
0.00000001
 12
1.0
 22
0.0
 32
0.0
 13
1.0
 23
0.0
 33
0.0
 40
0.0
 40
0.0
 40
0.0
 40
0.0
 40
0.2499999999999984
 40
0.2499999999999984
 40
0.4999999999999969
 40
0.4999999999999969
 40
0.6249999999999977
 40
0.6249999999999977
 40
0.7499999999999984
 40
0.7499999999999984
 40
0.8749999999999992
 40
0.8749999999999992
 40
1.0
 40
1.0
 40
1.0
 40
1.0
 10
-379.5643159113619
 20
371.5211773161398
 30
0.0
 10
-379.5087034771614
 20
371.2427848119097
 30
0.0
 10
-379.448349599633
 20
370.8275992514688
 30
0.0
 10
-379.2889031626121
 20
369.7948891640714
 30
0.0
 10
-379.1898519387236
 20
369.1786614440772
 30
0.0
 10
-378.9768971119244
 20
368.1571758821381
 30
0.0
 10
-378.8947823290351
 20
367.7993512185291
 30
0.0
 10
-378.7020851190038
 20
367.0618454733907
 30
0.0
 10
-378.590580405108
 20
366.6793353403752
 30
0.0
 10
-378.3356503282704
 20
365.9116417852613
 30
0.0
 10
-378.1917323405319
 20
365.524189156085
 30
0.0
 10
-377.8632102692932
 20
364.7435580807875
 30
0.0
 10
-377.6775373371783
 20
364.3490547258946
 30
0.0
 10
-377.4742961499641
 20
363.9641436781366
 30
0.0
  0
SPLINE
  5
8C
330
1F
100
AcDbEntity
  8
0
  6
Continuous
 62
     7
370
    15
100
AcDbSpline
210
0.0
220
0.0
230
1.0
 70
     8
 71
     3
 72
     8
 73
     4
 74
     0
 42
0.00000001
 43
0.00000001
 12
1.0
 22
0.0
 32
0.0
 13
1.0
 23
0.0
 33
0.0
 40
0.0
 40
0.0
 40
0.0
 40
0.0
 40
1.0
 40
1.0
 40
1.0
 40
1.0
 10
-377.474296149937
 20
363.964143678152
 30
0.0
 10
-375.1162632352728
 20
359.4983514227875
 30
0.0
 10
-372.5930102360155
 20
355.1279490277383
 30
0.0
 10
-369.9045371521781
 20
350.8529364929971
 30
0.0
  0
SPLINE
  5
8D
330
1F
100
AcDbEntity
  8
0
  6
Continuous
 62
     7
370
    15
100
AcDbSpline
210
0.0
220
0.0
230
1.0
 70
     8
 71
     3
 72
    18
 73
    14
 74
     0
 42
0.00000001
 43
0.00000001
 12
1.0
 22
0.0
 32
0.0
 13
1.0
 23
0.0
 33
0.0
 40
0.0
 40
0.0
 40
0.0
 40
0.0
 40
0.1250000000000007
 40
0.1250000000000007
 40
0.2500000000000013
 40
0.2500000000000013
 40
0.375000000000002
 40
0.375000000000002
 40
0.5000000000000027
 40
0.5000000000000027
 40
0.7500000000000013
 40
0.7500000000000013
 40
1.0
 40
1.0
 40
1.0
 40
1.0
 10
-369.9045371521845
 20
350.8529364929934
 30
0.0
 10
-369.6724389761925
 20
350.4838710120629
 30
0.0
 10
-369.4280760819654
 20
350.1321898018976
 30
0.0
 10
-368.9185056924626
 20
349.4594994164602
 30
0.0
 10
-368.6520294304198
 20
349.1370718045898
 30
0.0
 10
-368.1084298485628
 20
348.5254165100324
 30
0.0
 10
-367.8364183112037
 20
348.2415423207875
 30
0.0
 10
-367.2972734472154
 20
347.7089022406328
 30
0.0
 10
-367.0289226588808
 20
347.4591186002664
 30
0.0
 10
-366.248955473027
 20
346.7620464372999
 30
0.0
 10
-365.7646101384521
 20
346.3679645220786
 30
0.0
 10
-364.9482509364217
 20
345.7121074192913
 30
0.0
 10
-364.6184777749764
 20
345.4519652202
 30
0.0
 10
-364.4049639251095
 20
345.2644094662176
 30
0.0
  0
SPLINE
  5
8E
330
1F
100
AcDbEntity
  8
0
  6
Continuous
 62
     7
370
    15
100
AcDbSpline
210
0.0
220
0.0
230
1.0
 70
     8
 71
     3
 72
    18
 73
    14
 74
     0
 42
0.00000001
 43
0.00000001
 12
1.0
 22
0.0
 32
0.0
 13
1.0
 23
0.0
 33
0.0
 40
0.0
 40
0.0
 40
0.0
 40
0.0
 40
0.2500000000000013
 40
0.2500000000000013
 40
0.5000000000000027
 40
0.5000000000000027
 40
0.625000000000002
 40
0.625000000000002
 40
0.7500000000000013
 40
0.7500000000000013
 40
0.8750000000000007
 40
0.8750000000000007
 40
1.0
 40
1.0
 40
1.0
 40
1.0
 10
-201.3458646885918
 20
251.1221946281532
 30
0.0
 10
-201.0769634906068
 20
251.0311601568222
 30
0.0
 10
-200.6872253092207
 20
250.8758353678336
 30
0.0
 10
-199.7131489202827
 20
250.4975649891396
 30
0.0
 10
-199.1299544482912
 20
250.2752320052916
 30
0.0
 10
-198.1388445886568
 20
249.9489135141899
 30
0.0
 10
-197.7879019484215
 20
249.8411146703758
 30
0.0
 10
-197.0528546326825
 20
249.6392424769321
 30
0.0
 10
-196.6658387833625
 20
249.5445533252643
 30
0.0
 10
-195.8735316238979
 20
249.381482470436
 30
0.0
 10
-195.4660288103635
 20
249.3123927893198
 30
0.0
 10
-194.6257214325565
 20
249.2065857110673
 30
0.0
 10
-194.1912350392894
 20
249.1701315095897
 30
0.0
 10
-193.7562717001285
 20
249.1536880169334
 30
0.0
  0
SPLINE
  5
8F
330
1F
100
AcDbEntity
  8
0
  6
Continuous
 62
     7
370
    15
100
AcDbSpline
210
0.0
220
0.0
230
1.0
 70
     8
 71
     3
 72
     8
 73
     4
 74
     0
 42
0.00000001
 43
0.00000001
 12
1.0
 22
0.0
 32
0.0
 13
1.0
 23
0.0
 33
0.0
 40
0.0
 40
0.0
 40
0.0
 40
0.0
 40
1.0
 40
1.0
 40
1.0
 40
1.0
 10
-193.7562717001568
 20
249.1536880169657
 30
0.0
 10
-188.7097657016458
 20
248.9629082963414
 30
0.0
 10
-183.6632597031348
 20
248.962908296341
 30
0.0
 10
-178.6167537046237
 20
249.1536880169646
 30
0.0
  0
SPLINE
  5
90
330
1F
100
AcDbEntity
  8
0
  6
Continuous
 62
     7
370
    15
100
AcDbSpline
210
0.0
220
0.0
230
1.0
 70
     8
 71
     3
 72
    11
 73
     7
 74
     0
 42
0.00000001
 43
0.00000001
 12
1.0
 22
0.0
 32
0.0
 13
1.0
 23
0.0
 33
0.0
 40
0.0
 40
0.0
 40
0.0
 40
0.0
 40
0.1220882842479354
 40
0.4089235244313792
 40
0.7031813049179493
 40
1.0
 40
1.0
 40
1.0
 40
1.0
 10
-8.389299245237043
 20
345.043232657889
 30
0.0
 10
-8.382310741861687
 20
345.0369452559344
 30
0.0
 10
-8.358903389973914
 20
345.0158861790327
 30
0.0
 10
-8.277482611770276
 20
345.0407142513891
 30
0.0
 10
-8.148610227785541
 20
345.1131144203787
 30
0.0
 10
-8.028417978465068
 20
345.2138323265261
 30
0.0
 10
-7.968061479641547
 20
345.2644094662191
 30
0.0
  0
SPLINE
  5
91
330
1F
100
AcDbEntity
  8
0
  6
Continuous
 62
     7
370
    15
100
AcDbSpline
210
0.0
220
0.0
230
1.0
 70
     8
 71
     3
 72
    11
 73
     7
 74
     0
 42
0.00000001
 43
0.00000001
 12
1.0
 22
0.0
 32
0.0
 13
1.0
 23
0.0
 33
0.0
 40
0.0
 40
0.0
 40
0.0
 40
0.0
 40
0.1220882842558272
 40
0.4089235244368414
 40
0.7031813049172719
 40
1.0
 40
1.0
 40
1.0
 40
1.0
 10
-379.5452417631807
 20
371.9965683264062
 30
0.0
 10
-379.5541810646564
 20
371.9936598059396
 30
0.0
 10
-379.5841224360806
 20
371.9839179830662
 30
0.0
 10
-379.6033310840712
 20
371.9009914844414
 30
0.0
 10
-379.6050668904479
 20
371.7531846415646
 30
0.0
 10
-379.5779387497478
 20
371.5987361472622
 30
0.0
 10
-379.564315911324
 20
371.5211773161606
 30
0.0
  0
SPLINE
  5
92
330
1F
100
AcDbEntity
  8
0
  6
Continuous
 62
     7
370
    15
100
AcDbSpline
210
0.0
220
0.0
230
1.0
 70
     8
 71
     3
 72
    11
 73
     7
 74
     0
 42
0.00000001
 43
0.00000001
 12
1.0
 22
0.0
 32
0.0
 13
1.0
 23
0.0
 33
0.0
 40
0.0
 40
0.0
 40
0.0
 40
0.0
 40
0.1220882842549059
 40
0.4089235244347396
 40
0.7031813049215845
 40
1.0
 40
1.0
 40
1.0
 40
1.0
 10
7.172216358461686
 20
559.3302159819801
 30
0.0
 10
7.18115565994823
 20
559.3331245024526
 30
0.0
 10
7.211097031408792
 20
559.3428663253452
 30
0.0
 10
7.230305679291282
 20
559.4257928239145
 30
0.0
 10
7.232041485703028
 20
559.5735996668063
 30
0.0
 10
7.204913344998232
 20
559.7280481611085
 30
0.0
 10
7.191290506572495
 20
559.8056069922086
 30
0.0
  0
SPLINE
  5
93
330
1F
100
AcDbEntity
  8
0
  6
Continuous
 62
     7
370
    15
100
AcDbSpline
210
0.0
220
0.0
230
1.0
 70
     8
 71
     3
 72
    11
 73
     7
 74
     0
 42
0.00000001
 43
0.00000001
 12
1.0
 22
0.0
 32
0.0
 13
1.0
 23
0.0
 33
0.0
 40
0.0
 40
0.0
 40
0.0
 40
0.0
 40
0.122088284254381
 40
0.4089235244339673
 40
0.7031813049156463
 40
1.0
 40
1.0
 40
1.0
 40
1.0
 10
-170.6249970986204
 20
679.9503754782594
 30
0.0
 10
-170.623046300491
 20
679.9595714006813
 30
0.0
 10
-170.6165122808561
 20
679.9903723004575
 30
0.0
 10
-170.6787244113461
 20
680.048470726723
 30
0.0
 10
-170.8058609889408
 20
680.1238774006123
 30
0.0
 10
-170.9531813789295
 20
680.1776079887666
 30
0.0
 10
-171.0271607161614
 20
680.2045896801743
 30
0.0
  0
SPLINE
  5
94
330
1F
100
AcDbEntity
  8
0
  6
Continuous
 62
     7
370
    15
100
AcDbSpline
210
0.0
220
0.0
230
1.0
 70
     8
 71
     3
 72
    11
 73
     7
 74
     0
 42
0.00000001
 43
0.00000001
 12
1.0
 22
0.0
 32
0.0
 13
1.0
 23
0.0
 33
0.0
 40
0.0
 40
0.0
 40
0.0
 40
0.0
 40
0.1220882842543927
 40
0.4089235244339485
 40
0.7031813049155644
 40
1.0
 40
1.0
 40
1.0
 40
1.0
 10
-201.7480283061318
 20
251.3764088301111
 30
0.0
 10
-201.7499791042612
 20
251.3672129076893
 30
0.0
 10
-201.7565131238961
 20
251.3364120079132
 30
0.0
 10
-201.6943009934056
 20
251.2783135816476
 30
0.0
 10
-201.5671644158132
 20
251.2029069077581
 30
0.0
 10
-201.4198440258233
 20
251.149176319604
 30
0.0
 10
-201.3458646885908
 20
251.1221946281963
 30
0.0
  0
SPLINE
  5
95
330
1F
100
AcDbEntity
  8
0
  6
Continuous
 62
     7
370
    15
100
AcDbSpline
210
0.0
220
0.0
230
1.0
 70
     8
 71
     3
 72
    11
 73
     7
 74
     0
 42
0.00000001
 43
0.00000001
 12
1.0
 22
0.0
 32
0.0
 13
1.0
 23
0.0
 33
0.0
 40
0.0
 40
0.0
 40
0.0
 40
0.0
 40
0.1220882842546727
 40
0.4089235244339997
 40
0.7031813049206389
 40
1.0
 40
1.0
 40
1.0
 40
1.0
 10
-363.9837261594819
 20
586.2835516504479
 30
0.0
 10
-363.9907146628462
 20
586.2898390523916
 30
0.0
 10
-364.0141220146958
 20
586.3108981292562
 30
0.0
 10
-364.0955427930141
 20
586.2860700570201
 30
0.0
 10
-364.2244151769575
 20
586.2136698879401
 30
0.0
 10
-364.3446074262848
 20
586.1129519818261
 30
0.0
 10
-364.4049639251115
 20
586.0623748421502
 30
0.0
  0
SPLINE
  5
96
330
1F
100
AcDbEntity
  8
0
  6
Continuous
 62
     7
370
    15
100
AcDbSpline
210
0.0
220
0.0
230
1.0
 70
     8
 71
     3
 72
    11
 73
     7
 74
     0
 42
0.00000001
 43
0.00000001
 12
1.0
 22
0.0
 32
0.0
 13
1.0
 23
0.0
 33
0.0
 40
0.0
 40
0.0
 40
0.0
 40
0.0
 40
0.2845268472313947
 40
0.5713623105572974
 40
0.8655849605287358
 40
1.0
 40
1.0
 40
1.0
 40
1.0
 10
-379.5643159113381
 20
559.8056069922145
 30
0.0
 10
-379.5774898828196
 20
559.731043820401
 30
0.0
 10
-379.6039447177785
 20
559.5813124803029
 30
0.0
 10
-379.604041066126
 20
559.4320302680987
 30
0.0
 10
-379.5859094126
 20
559.3447897403936
 30
0.0
 10
-379.5546730875309
 20
559.3342665702825
 30
0.0
 10
-379.5448777942785
 20
559.3309666450527
 30
0.0
  0
SPLINE
  5
97
330
1F
100
AcDbEntity
  8
0
  6
Continuous
 62
     7
370
    15
100
AcDbSpline
210
0.0
220
0.0
230
1.0
 70
     8
 71
     3
 72
    11
 73
     7
 74
     0
 42
0.00000001
 43
0.00000001
 12
1.0
 22
0.0
 32
0.0
 13
1.0
 23
0.0
 33
0.0
 40
0.0
 40
0.0
 40
0.0
 40
0.0
 40
0.2845268472372443
 40
0.5713623105564206
 40
0.865584960533442
 40
1.0
 40
1.0
 40
1.0
 40
1.0
 10
-201.3458646885895
 20
680.2045896801891
 30
0.0
 10
-201.4170252752958
 20
680.1787170882166
 30
0.0
 10
-201.5599238370162
 20
680.1267619772207
 30
0.0
 10
-201.6892541993569
 20
680.0522043113937
 30
0.0
 10
-201.7557408857543
 20
679.9928815748713
 30
0.0
 10
-201.7492360558859
 20
679.9605685388121
 30
0.0
 10
-201.7471962283461
 20
679.9504356034121
 30
0.0
  0
SPLINE
  5
98
330
1F
100
AcDbEntity
  8
0
  6
Continuous
 62
     7
370
    15
100
AcDbSpline
210
0.0
220
0.0
230
1.0
 70
     8
 71
     3
 72
    11
 73
     7
 74
     0
 42
0.00000001
 43
0.00000001
 12
1.0
 22
0.0
 32
0.0
 13
1.0
 23
0.0
 33
0.0
 40
0.0
 40
0.0
 40
0.0
 40
0.0
 40
0.2845268472312304
 40
0.5713623105588331
 40
0.8655849605306353
 40
1.0
 40
1.0
 40
1.0
 40
1.0
 10
7.191290506585263
 20
371.5211773161548
 30
0.0
 10
7.204464478006378
 20
371.5957404879679
 30
0.0
 10
7.230919312844087
 20
371.745471828066
 30
0.0
 10
7.231015661424145
 20
371.8947540402824
 30
0.0
 10
7.212884007842923
 20
371.9819945679369
 30
0.0
 10
7.181647682777653
 20
371.9925177380659
 30
0.0
 10
7.171852389526611
 20
371.9958176633014
 30
0.0
  0
SPLINE
  5
99
330
1F
100
AcDbEntity
  8
0
  6
Continuous
 62
     7
370
    15
100
AcDbSpline
210
0.0
220
0.0
230
1.0
 70
     8
 71
     3
 72
    11
 73
     7
 74
     0
 42
0.00000001
 43
0.00000001
 12
1.0
 22
0.0
 32
0.0
 13
1.0
 23
0.0
 33
0.0
 40
0.0
 40
0.0
 40
0.0
 40
0.0
 40
0.2845268472371875
 40
0.5713623105563745
 40
0.8655849605279708
 40
1.0
 40
1.0
 40
1.0
 40
1.0
 10
-171.0271607161627
 20
251.1221946281815
 30
0.0
 10
-170.9560001294565
 20
251.148067220154
 30
0.0
 10
-170.8131015677362
 20
251.2000223311501
 30
0.0
 10
-170.6837712053961
 20
251.2745799969757
 30
0.0
 10
-170.617284518998
 20
251.3339027335008
 30
0.0
 10
-170.6237893488665
 20
251.366215769559
 30
0.0
 10
-170.6258291764063
 20
251.3763487049592
 30
0.0
  0
SPLINE
  5
9A
330
1F
100
AcDbEntity
  8
0
  6
Continuous
 62
     7
370
    15
100
AcDbSpline
210
0.0
220
0.0
230
1.0
 70
     8
 71
     3
 72
    11
 73
     7
 74
     0
 42
0.00000001
 43
0.00000001
 12
1.0
 22
0.0
 32
0.0
 13
1.0
 23
0.0
 33
0.0
 40
0.0
 40
0.0
 40
0.0
 40
0.0
 40
0.284526847232016
 40
0.5713623105552976
 40
0.8655849605274547
 40
1.0
 40
1.0
 40
1.0
 40
1.0
 10
-364.4049639251224
 20
345.2644094662105
 30
0.0
 10
-364.3469773098842
 20
345.2157188863712
 30
0.0
 10
-364.230533583093
 20
345.1179426572742
 30
0.0
 10
-364.1012995691842
 20
345.043218110873
 30
0.0
 10
-364.0166812291296
 20
345.0153003197498
 30
0.0
 10
-363.9919497339712
 20
345.0370901856778
 30
0.0
 10
-363.9841942682719
 20
345.043923195842
 30
0.0
  0
SPLINE
  5
9B
330
1F
100
AcDbEntity
  8
0
  6
Continuous
 62
     7
370
    15
100
AcDbSpline
210
0.0
220
0.0
230
1.0
 70
     8
 71
     3
 72
    11
 73
     7
 74
     0
 42
0.00000001
 43
0.00000001
 12
1.0
 22
0.0
 32
0.0
 13
1.0
 23
0.0
 33
0.0
 40
0.0
 40
0.0
 40
0.0
 40
0.0
 40
0.2845268472293638
 40
0.5713623105571021
 40
0.8655849605300865
 40
1.0
 40
1.0
 40
1.0
 40
1.0
 10
-7.968061479628863
 20
586.062374842159
 30
0.0
 10
-8.026048094867955
 20
586.1110654220153
 30
0.0
 10
-8.142491821662128
 20
586.2088416511481
 30
0.0
 10
-8.271725835565041
 20
586.2835661974677
 30
0.0
 10
-8.356344175622837
 20
586.3114839886633
 30
0.0
 10
-8.38107567078039
 20
586.2896941227146
 30
0.0
 10
-8.388831136479341
 20
586.2828611125439
 30
0.0
  0
ARC
  5
9C
330
1F
100
AcDbEntity
  8
0
  6
Continuous
 62
     7
370
    15
100
AcDbCircle
 10
-186.1865127024
 20
465.6633921542
 30
0.0
 40
8.000000000000341
100
AcDbArc
 50
180.0
 51
240.0
  0
SPLINE
  5
9D
330
1F
100
AcDbEntity
  8
0
  6
Continuous
 62
     7
370
    15
100
AcDbSpline
210
0.0
220
0.0
230
1.0
 70
    24
 71
     3
 72
    10
 73
     6
 74
     0
 42
0.00000001
 43
0.00000001
 12
1.0
 22
0.0
 32
0.0
 13
1.0
 23
0.0
 33
0.0
 40
0.0
 40
0.0
 40
0.0
 40
0.0
 40
0.5
 40
0.5
 40
1.0
 40
1.0
 40
1.0
 40
1.0
 10
-194.1865127023727
 20
461.0445900006676
 30
0.0
 10
-193.5321655329319
 20
460.6668024862475
 30
0.0
 10
-192.8730386266663
 20
460.2862553894849
 30
0.0
 10
-191.5410046647125
 20
459.5172052229811
 30
0.0
 10
-190.8679946007718
 20
459.1286426813978
 30
0.0
 10
-190.1865127023753
 20
458.7351889239106
 30
0.0
  0
SPLINE
  5
9E
330
1F
100
AcDbEntity
  8
0
  6
Continuous
 62
     7
370
    15
100
AcDbSpline
210
0.0
220
0.0
230
1.0
 70
    24
 71
     3
 72
    10
 73
     6
 74
     0
 42
0.00000001
 43
0.00000001
 12
1.0
 22
0.0
 32
0.0
 13
1.0
 23
0.0
 33
0.0
 40
0.0
 40
0.0
 40
0.0
 40
0.0
 40
0.5
 40
0.5
 40
1.0
 40
1.0
 40
1.0
 40
1.0
 10
-194.1865127023737
 20
461.044590000667
 30
0.0
 10
-194.1865127023737
 20
461.7970830585126
 30
0.0
 10
-194.1865127023737
 20
462.5655979214039
 30
0.0
 10
-194.1865127023737
 20
464.1059494876054
 30
0.0
 10
-194.1865127023737
 20
464.8814957729975
 30
0.0
 10
-194.1865127023737
 20
465.6633921541833
 30
0.0
  0
ARC
  5
9F
330
1F
100
AcDbEntity
  8
0
  6
Continuous
 62
     7
370
    15
100
AcDbCircle
 10
-186.1865127024
 20
465.6633921542
 30
0.0
 40
8.000000000000341
100
AcDbArc
 50
120.0
 51
180.0
  0
SPLINE
  5
A0
330
1F
100
AcDbEntity
  8
0
  6
Continuous
 62
     7
370
    15
100
AcDbSpline
210
0.0
220
0.0
230
1.0
 70
    24
 71
     3
 72
    12
 73
     8
 74
     0
 42
0.00000001
 43
0.00000001
 12
1.0
 22
0.0
 32
0.0
 13
1.0
 23
0.0
 33
0.0
 40
0.0
 40
0.0
 40
0.0
 40
0.0
 40
0.25
 40
0.25
 40
0.5
 40
0.5
 40
1.0
 40
1.0
 40
1.0
 40
1.0
 10
-190.1865127023743
 20
472.5915953844591
 30
0.0
 10
-190.5259797367053
 20
472.3956040008072
 30
0.0
 10
-190.8669693122786
 20
472.198733577559
 30
0.0
 10
-191.5415178179151
 20
471.8092828162484
 30
0.0
 10
-191.8765359784364
 20
471.615859991088
 30
0.0
 10
-192.8756402534353
 20
471.0390268689688
 30
0.0
 10
-193.5337993137098
 20
470.6590385583497
 30
0.0
 10
-194.1865127023725
 20
470.2821943077017
 30
0.0
  0
SPLINE
  5
A1
330
1F
100
AcDbEntity
  8
0
  6
Continuous
 62
     7
370
    15
100
AcDbSpline
210
0.0
220
0.0
230
1.0
 70
    24
 71
     3
 72
    12
 73
     8
 74
     0
 42
0.00000001
 43
0.00000001
 12
1.0
 22
0.0
 32
0.0
 13
1.0
 23
0.0
 33
0.0
 40
0.0
 40
0.0
 40
0.0
 40
0.0
 40
0.2500000000000001
 40
0.2500000000000001
 40
0.5000000000000002
 40
0.5000000000000002
 40
1.0
 40
1.0
 40
1.0
 40
1.0
 10
-194.1865127023737
 20
465.6633921541833
 30
0.0
 10
-194.1865127023737
 20
466.0546690597569
 30
0.0
 10
-194.1865127023737
 20
466.448818015035
 30
0.0
 10
-194.1865127023737
 20
467.2342884688879
 30
0.0
 10
-194.1865127023737
 20
467.6229666388624
 30
0.0
 10
-194.1865127023737
 20
468.7785244125822
 30
0.0
 10
-194.1865127023737
 20
469.5349973981251
 30
0.0
 10
-194.1865127023737
 20
470.2821943077019
 30
0.0
  0
ARC
  5
A2
330
1F
100
AcDbEntity
  8
0
  6
Continuous
 62
     7
370
    15
100
AcDbCircle
 10
-186.1865127024
 20
465.6633921542
 30
0.0
 40
8.000000000000151
100
AcDbArc
 50
60.0
 51
120.0
  0
SPLINE
  5
A3
330
1F
100
AcDbEntity
  8
0
  6
Continuous
 62
     7
370
    15
100
AcDbSpline
210
0.0
220
0.0
230
1.0
 70
    24
 71
     3
 72
    12
 73
     8
 74
     0
 42
0.00000001
 43
0.00000001
 12
1.0
 22
0.0
 32
0.0
 13
1.0
 23
0.0
 33
0.0
 40
0.0
 40
0.0
 40
0.0
 40
0.0
 40
0.2500000000000001
 40
0.2500000000000001
 40
0.5000000000000001
 40
0.5000000000000001
 40
1.0
 40
1.0
 40
1.0
 40
1.0
 10
-182.1865127023739
 20
472.5915953844605
 30
0.0
 10
-182.5259797367052
 20
472.7875867681126
 30
0.0
 10
-182.8669693122779
 20
472.9844571913604
 30
0.0
 10
-183.5415178179151
 20
473.3739079526715
 30
0.0
 10
-183.8765359784366
 20
473.567330777832
 30
0.0
 10
-184.8756402534365
 20
474.1441638999517
 30
0.0
 10
-185.5337993137116
 20
474.5241522105712
 30
0.0
 10
-186.1865127023748
 20
474.9009964612195
 30
0.0
  0
SPLINE
  5
A4
330
1F
100
AcDbEntity
  8
0
  6
Continuous
 62
     7
370
    15
100
AcDbSpline
210
0.0
220
0.0
230
1.0
 70
    24
 71
     3
 72
    10
 73
     6
 74
     0
 42
0.00000001
 43
0.00000001
 12
1.0
 22
0.0
 32
0.0
 13
1.0
 23
0.0
 33
0.0
 40
0.0
 40
0.0
 40
0.0
 40
0.0
 40
0.5
 40
0.5
 40
1.0
 40
1.0
 40
1.0
 40
1.0
 10
-186.1865127023744
 20
474.9009964612176
 30
0.0
 10
-186.8408598718157
 20
474.5232089467972
 30
0.0
 10
-187.4999867780816
 20
474.1426618500345
 30
0.0
 10
-188.8320207400363
 20
473.3736116835302
 30
0.0
 10
-189.5050308039773
 20
472.9850491419465
 30
0.0
 10
-190.1865127023743
 20
472.5915953844591
 30
0.0
  0
SPLINE
  5
A5
330
1F
100
AcDbEntity
  8
0
  6
Continuous
 62
     7
370
    15
100
AcDbSpline
210
0.0
220
0.0
230
1.0
 70
    24
 71
     3
 72
    12
 73
     8
 74
     0
 42
0.00000001
 43
0.00000001
 12
1.0
 22
0.0
 32
0.0
 13
1.0
 23
0.0
 33
0.0
 40
0.0
 40
0.0
 40
0.0
 40
0.0
 40
0.2499999999999999
 40
0.2499999999999999
 40
0.4999999999999999
 40
0.4999999999999999
 40
1.0
 40
1.0
 40
1.0
 40
1.0
 10
-190.1865127023753
 20
458.7351889239106
 30
0.0
 10
-189.847045668044
 20
458.5391975402584
 30
0.0
 10
-189.5060560924705
 20
458.3423271170103
 30
0.0
 10
-188.8315075868333
 20
457.9528763556991
 30
0.0
 10
-188.4964894263117
 20
457.7594535305386
 30
0.0
 10
-187.4973851513116
 20
457.1826204084188
 30
0.0
 10
-186.8392260910364
 20
456.8026320977993
 30
0.0
 10
-186.1865127023731
 20
456.4257878471508
 30
0.0
  0
ARC
  5
A6
330
1F
100
AcDbEntity
  8
0
  6
Continuous
 62
     7
370
    15
100
AcDbCircle
 10
-186.1865127024
 20
465.6633921542
 30
0.0
 40
8.00000000000183
100
AcDbArc
 50
240.0
 51
300.0
  0
SPLINE
  5
A7
330
1F
100
AcDbEntity
  8
0
  6
Continuous
 62
     7
370
    15
100
AcDbSpline
210
0.0
220
0.0
230
1.0
 70
    24
 71
     3
 72
    10
 73
     6
 74
     0
 42
0.00000001
 43
0.00000001
 12
1.0
 22
0.0
 32
0.0
 13
1.0
 23
0.0
 33
0.0
 40
0.0
 40
0.0
 40
0.0
 40
0.0
 40
0.4999999999999999
 40
0.4999999999999999
 40
1.0
 40
1.0
 40
1.0
 40
1.0
 10
-186.1865127023744
 20
456.42578784715
 30
0.0
 10
-185.5321655329334
 20
456.8035753615702
 30
0.0
 10
-184.8730386266677
 20
457.1841224583329
 30
0.0
 10
-183.5410046647137
 20
457.9531726248368
 30
0.0
 10
-182.8679946007728
 20
458.3417351664203
 30
0.0
 10
-182.1865127023761
 20
458.7351889239075
 30
0.0
  0
SPLINE
  5
A8
330
1F
100
AcDbEntity
  8
0
  6
Continuous
 62
     7
370
    15
100
AcDbSpline
210
0.0
220
0.0
230
1.0
 70
    24
 71
     3
 72
    12
 73
     8
 74
     0
 42
0.00000001
 43
0.00000001
 12
1.0
 22
0.0
 32
0.0
 13
1.0
 23
0.0
 33
0.0
 40
0.0
 40
0.0
 40
0.0
 40
0.0
 40
0.25
 40
0.25
 40
0.5
 40
0.5
 40
1.0
 40
1.0
 40
1.0
 40
1.0
 10
-182.1865127023761
 20
458.7351889239075
 30
0.0
 10
-181.8470456680447
 20
458.9311803075598
 30
0.0
 10
-181.5060560924715
 20
459.1280507308078
 30
0.0
 10
-180.831507586834
 20
459.5175014921191
 30
0.0
 10
-180.4964894263122
 20
459.7109243172798
 30
0.0
 10
-179.4973851513116
 20
460.2877574393999
 30
0.0
 10
-178.8392260910361
 20
460.6677457500195
 30
0.0
 10
-178.1865127023724
 20
461.0445900006682
 30
0.0
  0
ARC
  5
A9
330
1F
100
AcDbEntity
  8
0
  6
Continuous
 62
     7
370
    15
100
AcDbCircle
 10
-186.1865127024
 20
465.6633921542
 30
0.0
 40
8.00000000000183
100
AcDbArc
 50
300.0
 51
0.0
  0
SPLINE
  5
AA
330
1F
100
AcDbEntity
  8
0
  6
Continuous
 62
     7
370
    15
100
AcDbSpline
210
0.0
220
0.0
230
1.0
 70
    24
 71
     3
 72
    10
 73
     6
 74
     0
 42
0.00000001
 43
0.00000001
 12
1.0
 22
0.0
 32
0.0
 13
1.0
 23
0.0
 33
0.0
 40
0.0
 40
0.0
 40
0.0
 40
0.0
 40
0.5000000000000001
 40
0.5000000000000001
 40
1.0
 40
1.0
 40
1.0
 40
1.0
 10
-178.186512702371
 20
461.0445900006683
 30
0.0
 10
-178.186512702371
 20
461.7970830585143
 30
0.0
 10
-178.186512702371
 20
462.5655979214051
 30
0.0
 10
-178.186512702371
 20
464.1059494876075
 30
0.0
 10
-178.186512702371
 20
464.881495773
 30
0.0
 10
-178.186512702371
 20
465.6633921541863
 30
0.0
  0
ARC
  5
AB
330
1F
100
AcDbEntity
  8
0
  6
Continuous
 62
     7
370
    15
100
AcDbCircle
 10
-186.1865127024
 20
465.6633921542
 30
0.0
 40
8.000000000000455
100
AcDbArc
 50
0.0
 51
60.0
  0
SPLINE
  5
AC
330
1F
100
AcDbEntity
  8
0
  6
Continuous
 62
     7
370
    15
100
AcDbSpline
210
0.0
220
0.0
230
1.0
 70
    24
 71
     3
 72
    10
 73
     6
 74
     0
 42
0.00000001
 43
0.00000001
 12
1.0
 22
0.0
 32
0.0
 13
1.0
 23
0.0
 33
0.0
 40
0.0
 40
0.0
 40
0.0
 40
0.0
 40
0.5
 40
0.5
 40
1.0
 40
1.0
 40
1.0
 40
1.0
 10
-178.1865127023719
 20
470.2821943077009
 30
0.0
 10
-178.8408598718135
 20
470.6599818221214
 30
0.0
 10
-179.4999867780798
 20
471.0405289188844
 30
0.0
 10
-180.8320207400351
 20
471.809579085389
 30
0.0
 10
-181.5050308039766
 20
472.1981416269729
 30
0.0
 10
-182.1865127023739
 20
472.5915953844605
 30
0.0
  0
SPLINE
  5
AD
330
1F
100
AcDbEntity
  8
0
  6
Continuous
 62
     7
370
    15
100
AcDbSpline
210
0.0
220
0.0
230
1.0
 70
    24
 71
     3
 72
    12
 73
     8
 74
     0
 42
0.00000001
 43
0.00000001
 12
1.0
 22
0.0
 32
0.0
 13
1.0
 23
0.0
 33
0.0
 40
0.0
 40
0.0
 40
0.0
 40
0.0
 40
0.25
 40
0.25
 40
0.5
 40
0.5
 40
1.0
 40
1.0
 40
1.0
 40
1.0
 10
-178.186512702371
 20
465.6633921541863
 30
0.0
 10
-178.186512702371
 20
466.0546690597597
 30
0.0
 10
-178.186512702371
 20
466.4488180150361
 30
0.0
 10
-178.1865127023711
 20
467.2342884688886
 30
0.0
 10
-178.186512702371
 20
467.6229666388627
 30
0.0
 10
-178.1865127023711
 20
468.778524412582
 30
0.0
 10
-178.1865127023711
 20
469.5349973981246
 30
0.0
 10
-178.1865127023711
 20
470.282194307701
 30
0.0
  0
CIRCLE
  5
AE
330
1F
100
AcDbEntity
  8
0
  6
Continuous
 62
     7
370
    15
100
AcDbCircle
 10
-186.1865127024
 20
465.6633921542
 30
0.0
 40
10.0
  0
CIRCLE
  5
AF
330
1F
100
AcDbEntity
  8
0
  6
Continuous
 62
     7
370
    15
100
AcDbCircle
 10
-186.1865127024
 20
465.6633921542
 30
0.0
 40
45.00000000000003
  0
ARC
  5
B0
330
1F
100
AcDbEntity
  8
0
  6
Continuous
 62
     8
370
     0
100
AcDbCircle
 10
-186.1865127024
 20
465.6633921542
 30
0.0
 40
215.0761060381651
100
AcDbArc
 50
274.0417677407
 51
325.9582322593
  0
ARC
  5
B1
330
1F
100
AcDbEntity
  8
0
  6
Continuous
 62
     8
370
     0
100
AcDbCircle
 10
-186.1865127024
 20
465.6633921542
 30
0.0
 40
215.0761060381651
100
AcDbArc
 50
334.0417677407
 51
25.9582322593
  0
ARC
  5
B2
330
1F
100
AcDbEntity
  8
0
  6
Continuous
 62
     8
370
     0
100
AcDbCircle
 10
-186.1865127024
 20
465.6633921542
 30
0.0
 40
215.0761060381651
100
AcDbArc
 50
34.0417677407
 51
85.9582322593
  0
ARC
  5
B3
330
1F
100
AcDbEntity
  8
0
  6
Continuous
 62
     8
370
     0
100
AcDbCircle
 10
-186.1865127024
 20
465.6633921542
 30
0.0
 40
215.0761060381651
100
AcDbArc
 50
94.0417677407
 51
145.9582322593
  0
ARC
  5
B4
330
1F
100
AcDbEntity
  8
0
  6
Continuous
 62
     8
370
     0
100
AcDbCircle
 10
-186.1865127024
 20
465.6633921542
 30
0.0
 40
215.0761060381651
100
AcDbArc
 50
154.0417677407
 51
205.9582322593
  0
ARC
  5
B5
330
1F
100
AcDbEntity
  8
0
  6
Continuous
 62
     8
370
     0
100
AcDbCircle
 10
-186.1865127024
 20
465.6633921542
 30
0.0
 40
215.0761060381651
100
AcDbArc
 50
214.0417677407
 51
265.9582322593
  0
CIRCLE
  5
B6
330
1F
100
AcDbEntity
  8
0
  6
Continuous
 62
     8
370
     0
100
AcDbCircle
 10
-186.1865127024
 20
465.6633921542
 30
0.0
 40
248.9467257732845
  0
LINE
  5
B7
330
1F
100
AcDbEntity
  8
0
  6
Continuous
 62
     8
370
     0
100
AcDbLine
 10
-220.8174380439
 20
494.3983710125
 30
0.0
 11
-369.9045371522
 21
580.4738478154
 31
0.0
  0
LINE
  5
B8
330
1F
100
AcDbEntity
  8
0
  6
Continuous
 62
     8
370
     0
100
AcDbLine
 10
-228.3871970417
 20
481.2871638274
 30
0.0
 11
-377.4742961499
 21
567.3626406302
 31
0.0
  0
LINE
  5
B9
330
1F
100
AcDbEntity
  8
0
  6
Continuous
 62
     8
370
     0
100
AcDbLine
 10
-193.7562717001
 20
421.3046416227
 30
0.0
 11
-193.7562717002
 21
249.153688017
 31
0.0
  0
LINE
  5
BA
330
1F
100
AcDbEntity
  8
0
  6
Continuous
 62
     8
370
     0
100
AcDbLine
 10
-178.6167537046
 20
421.3046416227
 30
0.0
 11
-178.6167537046
 21
249.153688017
 31
0.0
  0
LINE
  5
BB
330
1F
100
AcDbEntity
  8
0
  6
Continuous
 62
     8
370
     0
100
AcDbLine
 10
-178.6167537046
 20
510.0221426857
 30
0.0
 11
-178.6167537046
 21
682.1730962914
 31
0.0
  0
LINE
  5
BC
330
1F
100
AcDbEntity
  8
0
  6
Continuous
 62
     8
370
     0
100
AcDbLine
 10
-193.7562717001
 20
510.0221426857
 30
0.0
 11
-193.7562717001
 21
682.1730962914
 31
0.0
  0
LINE
  5
BD
330
1F
100
AcDbEntity
  8
0
  6
Continuous
 62
     8
370
     0
100
AcDbLine
 10
-151.5555873608
 20
436.9284132959
 30
0.0
 11
-2.4684882526
 21
350.852936493
 31
0.0
  0
LINE
  5
BE
330
1F
100
AcDbEntity
  8
0
  6
Continuous
 62
     8
370
     0
100
AcDbLine
 10
-143.9858283631
 20
450.039620481
 30
0.0
 11
5.1012707452
 21
363.9641436782
 31
0.0
  0
LINE
  5
BF
330
1F
100
AcDbEntity
  8
0
  6
Continuous
 62
     8
370
     0
100
AcDbLine
 10
-228.3871970417
 20
450.039620481
 30
0.0
 11
-377.4742961499
 21
363.9641436781
 31
0.0
  0
LINE
  5
C0
330
1F
100
AcDbEntity
  8
0
  6
Continuous
 62
     8
370
     0
100
AcDbLine
 10
-220.8174380439
 20
436.9284132959
 30
0.0
 11
-369.9045371522
 21
350.852936493
 31
0.0
  0
LINE
  5
C1
330
1F
100
AcDbEntity
  8
0
  6
Continuous
 62
     8
370
     0
100
AcDbLine
 10
-143.9858283631
 20
481.2871638274
 30
0.0
 11
5.1012707452
 21
567.3626406302
 31
0.0
  0
LINE
  5
C2
330
1F
100
AcDbEntity
  8
0
  6
Continuous
 62
     8
370
     0
100
AcDbLine
 10
-151.5555873608
 20
494.3983710125
 30
0.0
 11
-2.4684882526
 21
580.4738478154
 31
0.0
  0
CIRCLE
  5
C3
330
1F
100
AcDbEntity
  8
0
  6
Continuous
 62
     8
370
     0
100
AcDbCircle
 10
-186.1865127024
 20
465.6633921542
 30
0.0
 40
250.0000000000001
  0
ARC
  5
C4
330
1F
100
AcDbEntity
  8
0
  6
Continuous
 62
     8
370
     0
100
AcDbCircle
 10
-186.1865127024
 20
465.6633921542
 30
0.0
 40
214.0228318114495
100
AcDbArc
 50
34.171845638
 51
85.828154362
  0
ARC
  5
C5
330
1F
100
AcDbEntity
  8
0
  6
Continuous
 62
     8
370
     0
100
AcDbCircle
 10
-186.1865127024
 20
465.6633921542
 30
0.0
 40
214.0228318114495
100
AcDbArc
 50
94.171845638
 51
145.828154362
  0
ARC
  5
C6
330
1F
100
AcDbEntity
  8
0
  6
Continuous
 62
     8
370
     0
100
AcDbCircle
 10
-186.1865127024
 20
465.6633921542
 30
0.0
 40
214.0228318114495
100
AcDbArc
 50
154.171845638
 51
205.828154362
  0
ARC
  5
C7
330
1F
100
AcDbEntity
  8
0
  6
Continuous
 62
     8
370
     0
100
AcDbCircle
 10
-186.1865127024
 20
465.6633921542
 30
0.0
 40
214.0228318114495
100
AcDbArc
 50
334.171845638
 51
25.828154362
  0
ARC
  5
C8
330
1F
100
AcDbEntity
  8
0
  6
Continuous
 62
     8
370
     0
100
AcDbCircle
 10
-186.1865127024
 20
465.6633921542
 30
0.0
 40
214.0228318114495
100
AcDbArc
 50
214.171845638
 51
265.828154362
  0
ARC
  5
C9
330
1F
100
AcDbEntity
  8
0
  6
Continuous
 62
     8
370
     0
100
AcDbCircle
 10
-186.1865127024
 20
465.6633921542
 30
0.0
 40
214.0228318114495
100
AcDbArc
 50
274.171845638
 51
325.828154362
  0
CIRCLE
  5
CA
330
1F
100
AcDbEntity
  8
0
  6
Continuous
 62
     8
370
     0
100
AcDbCircle
 10
-186.1865127024
 20
465.6633921542
 30
0.0
 40
42.0
  0
INSERT
  5
D6
330
1F
100
AcDbEntity
  8
FORMAT
 62
     7
100
AcDbBlockReference
  2
SW_CENTERMARKSYMBOL_0
 10
-186.1865127024
 20
465.6633921542
 30
0.0
  0
ARC
  5
D7
330
1F
100
AcDbEntity
  8
0
  6
Continuous
 62
     7
370
    15
100
AcDbCircle
 10
540.0715896491
 20
218.6519762485
 30
0.0
 40
3.000000000000002
100
AcDbArc
 50
180.0
 51
275.0
  0
ARC
  5
D8
330
1F
100
AcDbEntity
  8
0
  6
Continuous
 62
     7
370
    15
100
AcDbCircle
 10
540.0715896491
 20
712.6748080599
 30
0.0
 40
3.000000000000097
100
AcDbArc
 50
85.0
 51
180.0
  0
LINE
  5
D9
330
1F
100
AcDbEntity
  8
0
  6
Continuous
 62
     7
370
    15
100
AcDbLine
 10
540.3330568774
 20
215.6633921542
 30
0.0
 11
552.3720363779
 21
216.7166663809
 31
0.0
  0
LINE
  5
DA
330
1F
100
AcDbEntity
  8
0
  6
Continuous
 62
     7
370
    15
100
AcDbLine
 10
552.3720363779
 20
714.6101179275
 30
0.0
 11
540.3330568774
 21
715.6633921542
 31
0.0
  0
ARC
  5
DB
330
1F
100
AcDbEntity
  8
0
  6
Continuous
 62
     7
370
    15
100
AcDbCircle
 10
550.8903887512
 20
233.6519762485
 30
0.0
 40
16.99999999999996
100
AcDbArc
 50
275.0
 51
0.0
  0
ARC
  5
DC
330
1F
100
AcDbEntity
  8
0
  6
Continuous
 62
     7
370
    15
100
AcDbCircle
 10
550.8903887512
 20
697.6748080599
 30
0.0
 40
17.00000000000011
100
AcDbArc
 50
23.2105082247
 51
85.0
  0
LINE
  5
DD
330
1F
100
AcDbEntity
  8
0
  6
Continuous
 62
     7
370
    15
100
AcDbLine
 10
567.8903887512
 20
233.6519762485
 30
0.0
 11
567.8903887512
 21
697.4469733737
 31
0.0
  0
LINE
  5
DE
330
1F
100
AcDbEntity
  8
0
  6
Continuous
 62
     7
370
    15
100
AcDbLine
 10
537.0715896491
 20
431.2345198302
 30
0.0
 11
530.443993365
 21
452.0863492711
 31
0.0
  0
LINE
  5
DF
330
1F
100
AcDbEntity
  8
0
  6
Continuous
 62
     7
370
    15
100
AcDbLine
 10
530.4439950179
 20
479.2404402376
 30
0.0
 11
537.0715896491
 21
500.0922644781
 31
0.0
  0
ARC
  5
E0
330
1F
100
AcDbEntity
  8
0
  6
Continuous
 62
     7
370
    15
100
AcDbCircle
 10
513.0715896491
 20
423.6633921542
 30
0.0
 40
3.000000000000057
100
AcDbArc
 50
180.0
 51
246.1416746136
  0
ARC
  5
E1
330
1F
100
AcDbEntity
  8
0
  6
Continuous
 62
     7
370
    15
100
AcDbCircle
 10
513.0715896491
 20
507.6633921542
 30
0.0
 40
3.000000000000057
100
AcDbArc
 50
113.8583253864
 51
180.0
  0
LINE
  5
E2
330
1F
100
AcDbEntity
  8
0
  6
Continuous
 62
     7
370
    15
100
AcDbLine
 10
569.8903887512
 20
697.5801491333
 30
0.0
 11
569.8903887512
 21
697.6388114404
 31
0.0
  0
LINE
  5
E3
330
1F
100
AcDbEntity
  8
0
  6
Continuous
 62
     7
370
    15
100
AcDbLine
 10
569.8903887512
 20
697.4469749634
 30
0.0
 11
569.8903887512
 21
697.5387572823
 31
0.0
  0
LINE
  5
E4
330
1F
100
AcDbEntity
  8
0
  6
Continuous
 62
     7
370
    15
100
AcDbLine
 10
537.0715896491
 20
218.6519762485
 30
0.0
 11
537.0715896491
 21
712.6748080599
 31
0.0
  0
SPLINE
  5
E5
330
1F
100
AcDbEntity
  8
0
  6
Continuous
 62
     7
370
    15
100
AcDbSpline
210
0.0
220
0.0
230
1.0
 70
     8
 71
     3
 72
    13
 73
     9
 74
     0
 42
0.00000001
 43
0.00000001
 12
1.0
 22
0.0
 32
0.0
 13
1.0
 23
0.0
 33
0.0
 40
0.0
 40
0.0
 40
0.0
 40
0.0
 40
0.1668044391874374
 40
0.3334400192107201
 40
0.4999919957334708
 40
0.6665457528044196
 40
0.833186671735364
 40
1.0
 40
1.0
 40
1.0
 40
1.0
 10
567.478430486206
 20
701.0889718535003
 30
0.0
 10
567.5057278847772
 20
700.9632190926369
 30
0.0
 10
567.5602950482676
 20
700.7118408727147
 30
0.0
 10
567.6312851481247
 20
700.3326777920688
 30
0.0
 10
567.6942972714913
 20
699.9523244701937
 30
0.0
 10
567.7483493632182
 20
699.5705906294554
 30
0.0
 10
567.7944352435529
 20
699.1875895198446
 30
0.0
 10
567.8178339281625
 20
698.9314123697801
 30
0.0
 10
567.8295393195007
 20
698.8032575677734
 30
0.0
  0
LINE
  5
E6
330
1F
100
AcDbEntity
  8
0
  6
Continuous
 62
     7
370
    15
100
AcDbLine
 10
567.8381014645
 20
698.8032575678
 30
0.0
 11
567.8871347157
 21
697.4300504975
 31
0.0
  0
LINE
  5
E7
330
1F
100
AcDbEntity
  8
0
  6
Continuous
 62
     7
370
    15
100
AcDbLine
 10
567.8829180787
 20
697.5453744984
 30
0.0
 11
567.8406006375
 21
696.3746861392
 31
0.0
  0
SPLINE
  5
E8
330
1F
100
AcDbEntity
  8
0
  6
Continuous
 62
     7
370
    15
100
AcDbSpline
210
0.0
220
0.0
230
1.0
 70
     8
 71
     3
 72
    13
 73
     9
 74
     0
 42
0.00000001
 43
0.00000001
 12
1.0
 22
0.0
 32
0.0
 13
1.0
 23
0.0
 33
0.0
 40
0.0
 40
0.0
 40
0.0
 40
0.0
 40
0.1668275796818419
 40
0.3334550338215705
 40
0.4999841034709832
 40
0.6665167100023427
 40
0.8331547682981107
 40
0.9999999999999999
 40
0.9999999999999999
 40
0.9999999999999999
 40
0.9999999999999999
 10
566.3817313480175
 20
704.3746861392146
 30
0.0
 10
566.4386195649788
 20
704.246209222382
 30
0.0
 10
566.5523277560767
 20
703.9894095089928
 30
0.0
 10
566.7106997929894
 20
703.5991747400384
 30
0.0
 10
566.8600174119018
 20
703.2056809610992
 30
0.0
 10
566.9991795679413
 20
702.8084725525952
 30
0.0
 10
567.1293218662636
 20
702.4079099506832
 30
0.0
 10
567.2077070051142
 20
702.1381975475294
 30
0.0
 10
567.2469239225604
 20
702.003257567786
 30
0.0
  0
LINE
  5
E9
330
1F
100
AcDbEntity
  8
0
  6
Continuous
 62
     7
370
    15
100
AcDbLine
 10
567.3167503394
 20
702.0032575678
 30
0.0
 11
567.529524173
 21
701.0889718535
 31
0.0
  0
LINE
  5
EA
330
1F
100
AcDbEntity
  8
0
  6
Continuous
 62
     7
370
    15
100
AcDbLine
 10
567.8767280999
 20
697.622406991
 30
0.0
 11
567.8775693681
 21
697.3716803512
 31
0.0
  0
LINE
  5
EB
330
1F
100
AcDbEntity
  8
0
  6
Continuous
 62
     7
370
    15
100
AcDbLine
 10
567.5354261944
 20
694.2179140751
 30
0.0
 11
567.2225182079
 21
692.9461147106
 31
0.0
  0
SPLINE
  5
EC
330
1F
100
AcDbEntity
  8
0
  6
Continuous
 62
     7
370
    15
100
AcDbSpline
210
0.0
220
0.0
230
1.0
 70
     8
 71
     3
 72
    24
 73
    20
 74
     0
 42
0.00000001
 43
0.00000001
 12
1.0
 22
0.0
 32
0.0
 13
1.0
 23
0.0
 33
0.0
 40
0.0
 40
0.0
 40
0.0
 40
0.0
 40
0.0531119603343019
 40
0.1143795978819768
 40
0.1760444337633505
 40
0.2373094195707081
 40
0.2989526197529462
 40
0.360216395167851
 40
0.421851928589307
 40
0.4831162397138311
 40
0.5447604321397794
 40
0.6060271207110768
 40
0.6676967011176259
 40
0.727822749775606
 40
0.788362719862897
 40
0.8404967775888603
 40
0.8929236169902182
 40
0.9462936376857722
 40
0.9999999999999999
 40
0.9999999999999999
 40
0.9999999999999999
 40
0.9999999999999999
 10
530.4401845117491
 20
452.0850355081967
 30
0.0
 10
530.3805017638618
 20
452.2651842220132
 30
0.0
 10
530.2519716049137
 20
452.6531446233164
 30
0.0
 10
529.9894587609814
 20
453.2312911630257
 30
0.0
 10
529.6713627587768
 20
453.8175269209296
 30
0.0
 10
529.3044525778191
 20
454.3807297707534
 30
0.0
 10
528.8947904035018
 20
454.9154772027561
 30
0.0
 10
528.4427961823502
 20
455.4204255627105
 30
0.0
 10
527.9530993990686
 20
455.8902177366177
 30
0.0
 10
527.426403934417
 20
456.323424902835
 30
0.0
 10
526.8676872528164
 20
456.7149782523515
 30
0.0
 10
526.2776490136514
 20
457.0631630670638
 30
0.0
 10
525.6658417028058
 20
457.3613271040643
 30
0.0
 10
525.033769291702
 20
457.6085861405555
 30
0.0
 10
524.4169813426348
 20
457.793347742083
 30
0.0
 10
523.815493241744
 20
457.9236299130151
 30
0.0
 10
523.2322793308579
 20
458.0045770722286
 30
0.0
 10
522.6383266236547
 20
458.0446613936578
 30
0.0
 10
522.2392973823015
 20
458.0318088600035
 30
0.0
 10
522.0391560588118
 20
458.02536240739
 30
0.0
  0
SPLINE
  5
ED
330
1F
100
AcDbEntity
  8
0
  6
Continuous
 62
     7
370
    15
100
AcDbSpline
210
0.0
220
0.0
230
1.0
 70
     8
 71
     3
 72
    24
 73
    20
 74
     0
 42
0.00000001
 43
0.00000001
 12
1.0
 22
0.0
 32
0.0
 13
1.0
 23
0.0
 33
0.0
 40
0.0
 40
0.0
 40
0.0
 40
0.0
 40
0.0582099866055657
 40
0.1168605079899892
 40
0.1749124067437865
 40
0.2333702810272292
 40
0.2930601608178227
 40
0.3531546108178442
 40
0.4124548300443566
 40
0.4721204087952587
 40
0.5314177448012369
 40
0.5910599095667175
 40
0.6503558813869117
 40
0.709988759886608
 40
0.7692849203672909
 40
0.8289225128786272
 40
0.8896472107905249
 40
0.9507555621033197
 40
1.0
 40
1.0
 40
1.0
 40
1.0
 10
522.0391560588118
 20
473.3014219009795
 30
0.0
 10
522.2561138760022
 20
473.2948582404006
 30
0.0
 10
522.6916714531078
 20
473.2816812452792
 30
0.0
 10
523.342682136848
 20
473.3326841131237
 30
0.0
 10
523.9878601842097
 20
473.4340217865445
 30
0.0
 10
524.6259983130115
 20
473.5897283741558
 30
0.0
 10
525.2561552169974
 20
473.7986536123061
 30
0.0
 10
525.8697204857166
 20
474.0585905736895
 30
0.0
 10
526.4601330932705
 20
474.3653106174028
 30
0.0
 10
527.0218989741107
 20
474.7141791972677
 30
0.0
 10
527.5557485497071
 20
475.1042740960531
 30
0.0
 10
528.0568868183674
 20
475.5310286648101
 30
0.0
 10
528.5247142235855
 20
475.9930905196902
 30
0.0
 10
528.9550344904173
 20
476.4856769770782
 30
0.0
 10
529.3469469021985
 20
477.0076432433428
 30
0.0
 10
529.6999029802574
 20
477.5581542751298
 30
0.0
 10
530.0098110282453
 20
478.1372666449129
 30
0.0
 10
530.26197421131
 20
478.7001664003801
 30
0.0
 10
530.3852321912136
 20
479.0746254256866
 30
0.0
 10
530.4402355126532
 20
479.2417260884668
 30
0.0
  0
ELLIPSE
  5
EE
330
1F
100
AcDbEntity
  8
0
  6
Continuous
 62
     7
370
    15
100
AcDbEllipse
 10
218.4492585671
 20
465.6633921542
 30
0.0
 11
858.6803145147323
 21
-38.80973747117446
 31
0.0
210
0.0
220
0.0
230
1.0
 40
0.0265259085
 41
1.21062766603636
 42
1.22176892719259
  0
SPLINE
  5
EF
330
1F
100
AcDbEntity
  8
0
  6
Continuous
 62
     7
370
    15
100
AcDbSpline
210
0.0
220
0.0
230
1.0
 70
     8
 71
     3
 72
    12
 73
     8
 74
     0
 42
0.00000001
 43
0.00000001
 12
1.0
 22
0.0
 32
0.0
 13
1.0
 23
0.0
 33
0.0
 40
0.0
 40
0.0
 40
0.0
 40
0.0
 40
0.2499999999999999
 40
0.2499999999999999
 40
0.4999999999999998
 40
0.4999999999999998
 40
1.0
 40
1.0
 40
1.0
 40
1.0
 10
511.4043121068285
 20
473.6132484769233
 30
0.0
 10
511.5251492656743
 20
473.6502625170226
 30
0.0
 10
511.6519100655984
 20
473.6822527408937
 30
0.0
 10
511.9177010073532
 20
473.7358276089986
 30
0.0
 10
512.0570509775007
 20
473.7573168862492
 30
0.0
 10
512.4792496364017
 20
473.803560641068
 30
0.0
 10
512.7737621412355
 20
473.8113627629314
 30
0.0
 10
513.0715896491356
 20
473.795019661453
 30
0.0
  0
LINE
  5
F0
330
1F
100
AcDbEntity
  8
0
  6
Continuous
 62
     7
370
    15
100
AcDbLine
 10
511.4043121068
 20
473.6132484769
 30
0.0
 11
537.0715896491
 21
554.3679701857
 31
0.0
  0
LINE
  5
F1
330
1F
100
AcDbEntity
  8
0
  6
Continuous
 62
     7
370
    15
100
AcDbLine
 10
511.4043121068
 20
457.7135358314
 30
0.0
 11
537.0715896491
 21
376.9588141226
 31
0.0
  0
SPLINE
  5
F2
330
1F
100
AcDbEntity
  8
0
  6
Continuous
 62
     7
370
    15
100
AcDbSpline
210
0.0
220
0.0
230
1.0
 70
     8
 71
     3
 72
    10
 73
     6
 74
     0
 42
0.00000001
 43
0.00000001
 12
1.0
 22
0.0
 32
0.0
 13
1.0
 23
0.0
 33
0.0
 40
0.0
 40
0.0
 40
0.0
 40
0.0
 40
0.5
 40
0.5
 40
1.0
 40
1.0
 40
1.0
 40
1.0
 10
513.0715896491356
 20
457.5317646469166
 30
0.0
 10
512.7734921458853
 20
457.5154067296092
 30
0.0
 10
512.4824160197194
 20
457.522906061177
 30
0.0
 10
511.9141508348104
 20
457.5850902293316
 30
0.0
 10
511.6477663438763
 20
457.6389625381107
 30
0.0
 10
511.4043121068286
 20
457.7135358314462
 30
0.0
  0
ELLIPSE
  5
F3
330
1F
100
AcDbEntity
  8
0
  6
Continuous
 62
     7
370
    15
100
AcDbEllipse
 10
218.4492585672
 20
465.6633921542
 30
0.0
 11
858.680314514637
 21
38.80973747117379
 31
0.0
210
0.0
220
0.0
230
1.0
 40
0.0265259085
 41
5.061416379987057
 42
5.07255764114329
  0
SPLINE
  5
F4
330
1F
100
AcDbEntity
  8
0
  6
Continuous
 62
     7
370
    15
100
AcDbSpline
210
0.0
220
0.0
230
1.0
 70
     8
 71
     3
 72
     8
 73
     4
 74
     0
 42
0.00000001
 43
0.00000001
 12
1.0
 22
0.0
 32
0.0
 13
1.0
 23
0.0
 33
0.0
 40
0.0
 40
0.0
 40
0.0
 40
0.0
 40
1.0
 40
1.0
 40
1.0
 40
1.0
 10
511.686801015802
 20
479.3737224111957
 30
0.0
 10
511.6152491968654
 20
477.4868186039059
 30
0.0
 10
511.5217440510861
 20
475.5676280859802
 30
0.0
 10
511.4043121068286
 20
473.6132484769233
 30
0.0
  0
LINE
  5
F5
330
1F
100
AcDbEntity
  8
0
  6
Continuous
 62
     7
370
    15
100
AcDbLine
 10
511.6868010158
 20
479.3737224112
 30
0.0
 11
537.0715896491
 21
559.2396738485
 31
0.0
  0
SPLINE
  5
F6
330
1F
100
AcDbEntity
  8
0
  6
Continuous
 62
     7
370
    15
100
AcDbSpline
210
0.0
220
0.0
230
1.0
 70
     8
 71
     3
 72
    10
 73
     6
 74
     0
 42
0.00000001
 43
0.00000001
 12
1.0
 22
0.0
 32
0.0
 13
1.0
 23
0.0
 33
0.0
 40
0.0
 40
0.0
 40
0.0
 40
0.0
 40
0.5
 40
0.5
 40
1.0
 40
1.0
 40
1.0
 40
1.0
 10
511.4043121068286
 20
457.7135358314462
 30
0.0
 10
511.4628710676478
 20
456.73895911234
 30
0.0
 10
511.5155160801901
 20
455.7717319363537
 30
0.0
 10
511.6095702784017
 20
453.851240877637
 30
0.0
 10
511.6510512824497
 20
452.8958235065232
 30
0.0
 10
511.6868010158021
 20
451.953061897178
 30
0.0
  0
LINE
  5
F7
330
1F
100
AcDbEntity
  8
0
  6
Continuous
 62
     7
370
    15
100
AcDbLine
 10
511.6868010158
 20
451.9530618972
 30
0.0
 11
537.0715896491
 21
372.0871104599
 31
0.0
  0
ELLIPSE
  5
F8
330
1F
100
AcDbEntity
  8
0
  6
Continuous
 62
     7
370
    15
100
AcDbEllipse
 10
683.7073915885
 20
465.6633921542
 30
0.0
 11
858.6803145147343
 21
-38.80973747117446
 31
0.0
210
0.0
220
0.0
230
1.0
 40
0.0265259085
 41
1.767568815281581
 42
1.772045404174535
  0
SPLINE
  5
F9
330
1F
100
AcDbEntity
  8
0
  6
Continuous
 62
     7
370
    15
100
AcDbSpline
210
0.0
220
0.0
230
1.0
 70
     8
 71
     3
 72
    10
 73
     6
 74
     0
 42
0.00000001
 43
0.00000001
 12
1.0
 22
0.0
 32
0.0
 13
1.0
 23
0.0
 33
0.0
 40
0.0
 40
0.0
 40
0.0
 40
0.0
 40
0.5
 40
0.5
 40
1.0
 40
1.0
 40
1.0
 40
1.0
 10
511.686801015802
 20
495.6184422145844
 30
0.0
 10
511.8982964347534
 20
495.667039178143
 30
0.0
 10
512.1270641244082
 20
495.7025220328268
 30
0.0
 10
512.5906124655748
 20
495.7427896373515
 30
0.0
 10
512.8280782446067
 20
495.7484633333874
 30
0.0
 10
513.0715896491356
 20
495.738777507123
 30
0.0
  0
LINE
  5
FA
330
1F
100
AcDbEntity
  8
0
  6
Continuous
 62
     7
370
    15
100
AcDbLine
 10
511.6868010158
 20
495.6184422146
 30
0.0
 11
537.0715896491
 21
575.4843936519
 31
0.0
  0
LINE
  5
FB
330
1F
100
AcDbEntity
  8
0
  6
Continuous
 62
     7
370
    15
100
AcDbLine
 10
511.6868010158
 20
435.7083420938
 30
0.0
 11
537.0715896491
 21
355.8423906565
 31
0.0
  0
SPLINE
  5
FC
330
1F
100
AcDbEntity
  8
0
  6
Continuous
 62
     7
370
    15
100
AcDbSpline
210
0.0
220
0.0
230
1.0
 70
     8
 71
     3
 72
    10
 73
     6
 74
     0
 42
0.00000001
 43
0.00000001
 12
1.0
 22
0.0
 32
0.0
 13
1.0
 23
0.0
 33
0.0
 40
0.0
 40
0.0
 40
0.0
 40
0.0
 40
0.5
 40
0.5
 40
1.0
 40
1.0
 40
1.0
 40
1.0
 10
513.0715896491356
 20
435.5880068012468
 30
0.0
 10
512.8284842206333
 20
435.5783371229459
 30
0.0
 10
512.5907838028338
 20
435.5839539935561
 30
0.0
 10
512.1257137493416
 20
435.6244054393564
 30
0.0
 10
511.8976481724973
 20
435.659894086537
 30
0.0
 10
511.686801015802
 20
435.7083420937854
 30
0.0
  0
ELLIPSE
  5
FD
330
1F
100
AcDbEntity
  8
0
  6
Continuous
 62
     7
370
    15
100
AcDbEllipse
 10
683.7073915884
 20
465.6633921542
 30
0.0
 11
858.6803145146217
 21
38.80973747117377
 31
0.0
210
0.0
220
0.0
230
1.0
 40
0.0265259085
 41
4.511139903005072
 42
4.515616491898024
  0
LINE
  5
FE
330
1F
100
AcDbEntity
  8
0
  6
Continuous
 62
     7
370
    15
100
AcDbLine
 10
511.4043121068
 20
431.7254087025
 30
0.0
 11
537.0715896491
 21
350.9706869937
 31
0.0
  0
SPLINE
  5
FF
330
1F
100
AcDbEntity
  8
0
  6
Continuous
 62
     7
370
    15
100
AcDbSpline
210
0.0
220
0.0
230
1.0
 70
     8
 71
     3
 72
    10
 73
     6
 74
     0
 42
0.00000001
 43
0.00000001
 12
1.0
 22
0.0
 32
0.0
 13
1.0
 23
0.0
 33
0.0
 40
0.0
 40
0.0
 40
0.0
 40
0.0
 40
0.4999999999999993
 40
0.4999999999999993
 40
1.0
 40
1.0
 40
1.0
 40
1.0
 10
511.686801015802
 20
435.7083420937855
 30
0.0
 10
511.6510928884392
 20
434.9913684297122
 30
0.0
 10
511.6098074388919
 20
434.2997782148195
 30
0.0
 10
511.5156641131008
 20
432.9692660898628
 30
0.0
 10
511.4628463609241
 20
432.3312517763207
 30
0.0
 10
511.4043121068286
 20
431.7254087025158
 30
0.0
  0
SPLINE
  5
100
330
1F
100
AcDbEntity
  8
0
  6
Continuous
 62
     7
370
    15
100
AcDbSpline
210
0.0
220
0.0
230
1.0
 70
     8
 71
     3
 72
    10
 73
     6
 74
     0
 42
0.00000001
 43
0.00000001
 12
1.0
 22
0.0
 32
0.0
 13
1.0
 23
0.0
 33
0.0
 40
0.0
 40
0.0
 40
0.0
 40
0.0
 40
0.4999999999999993
 40
0.4999999999999993
 40
1.0
 40
1.0
 40
1.0
 40
1.0
 10
511.4043121068286
 20
499.6013756058541
 30
0.0
 10
511.4627855089551
 20
498.9961623640081
 30
0.0
 10
511.515427078464
 20
498.3604936015927
 30
0.0
 10
511.609557383262
 20
497.0309127432768
 30
0.0
 10
511.6510358560704
 20
496.3365610158995
 30
0.0
 10
511.686801015802
 20
495.6184422145844
 30
0.0
  0
LINE
  5
101
330
1F
100
AcDbEntity
  8
0
  6
Continuous
 62
     7
370
    15
100
AcDbLine
 10
511.4043121068
 20
499.6013756059
 30
0.0
 11
537.0715896491
 21
580.3560973147
 31
0.0
  0
SPLINE
  5
102
330
1F
100
AcDbEntity
  8
0
  6
Continuous
 62
     7
370
    15
100
AcDbSpline
210
0.0
220
0.0
230
1.0
 70
     8
 71
     3
 72
    12
 73
     8
 74
     0
 42
0.00000001
 43
0.00000001
 12
1.0
 22
0.0
 32
0.0
 13
1.0
 23
0.0
 33
0.0
 40
0.0
 40
0.0
 40
0.0
 40
0.0
 40
0.2500000000000006
 40
0.2500000000000006
 40
0.5000000000000011
 40
0.5000000000000011
 40
1.0
 40
1.0
 40
1.0
 40
1.0
 10
511.4043121068286
 20
507.5512319285929
 30
0.0
 10
511.5251492656743
 20
507.635020046452
 30
0.0
 10
511.6519100655983
 20
507.7094334750329
 30
0.0
 10
511.9177010073531
 20
507.8388430065152
 30
0.0
 10
512.0570509775007
 20
507.8936797067082
 30
0.0
 10
512.4792496364017
 20
508.0226312068277
 30
0.0
 10
512.7737621412354
 20
508.0643671434271
 30
0.0
 10
513.0715896491356
 20
508.0587959860119
 30
0.0
  0
SPLINE
  5
103
330
1F
100
AcDbEntity
  8
0
  6
Continuous
 62
     7
370
    15
100
AcDbSpline
210
0.0
220
0.0
230
1.0
 70
     8
 71
     3
 72
    10
 73
     6
 74
     0
 42
0.00000001
 43
0.00000001
 12
1.0
 22
0.0
 32
0.0
 13
1.0
 23
0.0
 33
0.0
 40
0.0
 40
0.0
 40
0.0
 40
0.0
 40
0.5
 40
0.5
 40
1.0
 40
1.0
 40
1.0
 40
1.0
 10
513.0715896491356
 20
423.2679883223586
 30
0.0
 10
512.7734921458853
 20
423.262412114414
 30
0.0
 10
512.4824160197194
 20
423.3032435877962
 30
0.0
 10
511.9141508348104
 20
423.4766928881191
 30
0.0
 10
511.6477663438763
 20
423.6067419533995
 30
0.0
 10
511.4043121068286
 20
423.7755523797776
 30
0.0
  0
LINE
  5
104
330
1F
100
AcDbEntity
  8
0
  6
Continuous
 62
     7
370
    15
100
AcDbLine
 10
510.0715896491
 20
465.6633921542
 30
0.0
 11
510.0715896491
 21
507.6633921542
 31
0.0
  0
LINE
  5
105
330
1F
100
AcDbEntity
  8
0
  6
Continuous
 62
     7
370
    15
100
AcDbLine
 10
510.0715896491
 20
423.6633921542
 30
0.0
 11
510.0715896491
 21
465.6633921542
 31
0.0
  0
ELLIPSE
  5
106
330
1F
100
AcDbEntity
  8
0
  6
Continuous
 62
     7
370
    15
100
AcDbEllipse
 10
218.4492585672
 20
465.6633921542
 30
0.0
 11
858.6809313955285
 21
-0.3758109173667776
 31
0.0
210
0.0
220
0.0
230
1.0
 40
0.0524041341
 41
5.062638204996876
 42
5.063896690499941
  0
ELLIPSE
  5
107
330
1F
100
AcDbEntity
  8
0
  6
Continuous
 62
     7
370
    15
100
AcDbEllipse
 10
218.4492585671
 20
465.6633921542
 30
0.0
 11
858.6809313956238
 21
0.3758109173665503
 31
0.0
210
0.0
220
0.0
230
1.0
 40
0.0524041341
 41
1.219288616679676
 42
1.22054710218274
  0
LINE
  5
108
330
1F
100
AcDbEntity
  8
0
  6
Continuous
 62
     7
370
    15
100
AcDbLine
 10
511.4043121068
 20
507.5512319286
 30
0.0
 11
537.0715896491
 21
669.0606753462
 31
0.0
  0
LINE
  5
109
330
1F
100
AcDbEntity
  8
0
  6
Continuous
 62
     7
370
    15
100
AcDbLine
 10
511.4043121068
 20
423.7755523798
 30
0.0
 11
537.0715896491
 21
262.2661089622
 31
0.0
  0
LINE
  5
10A
330
1F
100
AcDbEntity
  8
0
  6
Continuous
 62
     7
370
    15
100
AcDbLine
 10
567.8903887512
 20
692.9461147106
 30
0.0
 11
569.3078528912
 21
692.9461147106
 31
0.0
  0
SPLINE
  5
10B
330
1F
100
AcDbEntity
  8
0
  6
Continuous
 62
     7
370
    15
100
AcDbSpline
210
0.0
220
0.0
230
1.0
 70
     8
 71
     3
 72
    18
 73
    14
 74
     0
 42
0.00000001
 43
0.00000001
 12
1.0
 22
0.0
 32
0.0
 13
1.0
 23
0.0
 33
0.0
 40
0.0
 40
0.0
 40
0.0
 40
0.0
 40
0.0619434616380854
 40
0.1256815509900521
 40
0.2507780093224675
 40
0.3754852155669141
 40
0.4999967972956019
 40
0.6245083222457529
 40
0.6868281981411924
 40
0.7492213424045787
 40
0.8743178650408454
 40
0.9396403307150532
 40
1.0
 40
1.0
 40
1.0
 40
1.0
 10
569.83810146448
 20
698.8032575677928
 30
0.0
 10
569.8467597094476
 20
698.6816637872992
 30
0.0
 10
569.8643270462998
 20
698.4349534078812
 30
0.0
 10
569.8862925292217
 20
697.9419934051326
 30
0.0
 10
569.8951681432269
 20
697.3250812266516
 30
0.0
 10
569.8745790219413
 20
696.5887833082047
 30
0.0
 10
569.8235288484514
 20
695.8549458583565
 30
0.0
 10
569.7555807278586
 20
695.2455892042036
 30
0.0
 10
569.6859862982667
 20
694.7596001468418
 30
0.0
 10
569.6061241939055
 20
694.2738187212675
 30
0.0
 10
569.5096211532316
 20
693.7845518357782
 30
0.0
 10
569.3992075433478
 20
693.3020424359548
 30
0.0
 10
569.337492125319
 20
693.0615924113483
 30
0.0
 10
569.307852891205
 20
692.9461147106433
 30
0.0
  0
SPLINE
  5
10C
330
1F
100
AcDbEntity
  8
0
  6
Continuous
 62
     7
370
    15
100
AcDbSpline
210
0.0
220
0.0
230
1.0
 70
     8
 71
     3
 72
    13
 73
     9
 74
     0
 42
0.00000001
 43
0.00000001
 12
1.0
 22
0.0
 32
0.0
 13
1.0
 23
0.0
 33
0.0
 40
0.0
 40
0.0
 40
0.0
 40
0.0
 40
0.1570871088124889
 40
0.3180061166698114
 40
0.4827569692601948
 40
0.6513396086972475
 40
0.8237539737384221
 40
1.0
 40
1.0
 40
1.0
 40
1.0
 10
569.478430486206
 20
701.0889718535003
 30
0.0
 10
569.5041846689558
 20
700.9705557358974
 30
0.0
 10
569.5563212682362
 20
700.7308349211552
 30
0.0
 10
569.6254967263213
 20
700.3648645148071
 30
0.0
 10
569.6886415670532
 20
699.9888264679485
 30
0.0
 10
569.7441951920463
 20
699.6026303126008
 30
0.0
 10
569.7925729873092
 20
699.2065083154436
 30
0.0
 10
569.8171272610152
 20
698.9386556872965
 30
0.0
 10
569.8295393195007
 20
698.8032575677734
 30
0.0
  0
SPLINE
  5
10D
330
1F
100
AcDbEntity
  8
0
  6
Continuous
 62
     7
370
    15
100
AcDbSpline
210
0.0
220
0.0
230
1.0
 70
     8
 71
     3
 72
     9
 73
     5
 74
     0
 42
0.00000001
 43
0.00000001
 12
1.0
 22
0.0
 32
0.0
 13
1.0
 23
0.0
 33
0.0
 40
0.0
 40
0.0
 40
0.0
 40
0.0
 40
0.5003583320347674
 40
1.0
 40
1.0
 40
1.0
 40
1.0
 10
569.5307337376195
 20
701.0889718535003
 30
0.0
 10
569.5246597112265
 20
701.088969894297
 30
0.0
 10
569.5125203582787
 20
701.0889659786961
 30
0.0
 10
569.4897883464915
 20
701.0889698961682
 30
0.0
 10
569.478430486206
 20
701.0889718535003
 30
0.0
  0
SPLINE
  5
10E
330
1F
100
AcDbEntity
  8
0
  6
Continuous
 62
     7
370
    15
100
AcDbSpline
210
0.0
220
0.0
230
1.0
 70
     8
 71
     3
 72
    12
 73
     8
 74
     0
 42
0.00000001
 43
0.00000001
 12
1.0
 22
0.0
 32
0.0
 13
1.0
 23
0.0
 33
0.0
 40
0.0
 40
0.0
 40
0.0
 40
0.0
 40
0.0562988870498712
 40
0.2923111037975185
 40
0.5281747320436739
 40
0.7641108291648991
 40
1.0
 40
1.0
 40
1.0
 40
1.0
 10
569.8866658573016
 20
697.6225035767226
 30
0.0
 10
569.8878584891612
 20
697.6879476369336
 30
0.0
 10
569.8940507880432
 20
698.027741662707
 30
0.0
 10
569.865151812382
 20
698.6417329427281
 30
0.0
 10
569.7976672517597
 20
699.4622279725895
 30
0.0
 10
569.6893472760837
 20
700.2793274620949
 30
0.0
 10
569.5836014113883
 20
700.8191082846772
 30
0.0
 10
569.5307337376195
 20
701.0889718535004
 30
0.0
  0
LINE
  5
10F
330
1F
100
AcDbEntity
  8
0
  6
Continuous
 62
     7
370
    15
100
AcDbLine
 10
569.8093523307
 20
699.2187618942
 30
0.0
 11
569.83195799
 21
698.8131732087
 31
0.0
  0
LINE
  5
110
330
1F
100
AcDbEntity
  8
0
  6
Continuous
 62
     7
370
    15
100
AcDbLine
 10
567.2469239226
 20
702.0032575678
 30
0.0
 11
569.2469239226
 21
702.0032575678
 31
0.0
  0
LINE
  5
111
330
1F
100
AcDbEntity
  8
0
  6
Continuous
 62
     7
370
    15
100
AcDbLine
 10
566.381731348
 20
704.3746861392
 30
0.0
 11
568.381731348
 21
704.3746861392
 31
0.0
  0
SPLINE
  5
112
330
1F
100
AcDbEntity
  8
0
  6
Continuous
 62
     7
370
    15
100
AcDbSpline
210
0.0
220
0.0
230
1.0
 70
     8
 71
     3
 72
    13
 73
     9
 74
     0
 42
0.00000001
 43
0.00000001
 12
1.0
 22
0.0
 32
0.0
 13
1.0
 23
0.0
 33
0.0
 40
0.0
 40
0.0
 40
0.0
 40
0.0
 40
0.1609727410450211
 40
0.3242230593135647
 40
0.4897509528441637
 40
0.6575564152354578
 40
0.8276394358472292
 40
1.0
 40
1.0
 40
1.0
 40
1.0
 10
568.3817313480175
 20
704.3746861392146
 30
0.0
 10
568.4366554392025
 20
704.2507330409529
 30
0.0
 10
568.5472807336371
 20
704.0010730521319
 30
0.0
 10
568.7028297193283
 20
703.6189984908352
 30
0.0
 10
568.8517721667357
 20
703.2281608186722
 30
0.0
 10
568.9925449421967
 20
702.8282005235492
 30
0.0
 10
569.1258316540865
 20
702.4195934567208
 30
0.0
 10
569.206381258418
 20
702.1426501675635
 30
0.0
 10
569.2469239225604
 20
702.003257567786
 30
0.0
  0
SPLINE
  5
113
330
1F
100
AcDbEntity
  8
0
  6
Continuous
 62
     7
370
    15
100
AcDbSpline
210
0.0
220
0.0
230
1.0
 70
     8
 71
     3
 72
    13
 73
     9
 74
     0
 42
0.00000001
 43
0.00000001
 12
1.0
 22
0.0
 32
0.0
 13
1.0
 23
0.0
 33
0.0
 40
0.0
 40
0.0
 40
0.0
 40
0.0
 40
0.192430278718176
 40
0.3872090495731507
 40
0.5794317039563925
 40
0.7715647473330534
 40
0.9653943338359293
 40
1.0
 40
1.0
 40
1.0
 40
1.0
 10
569.3167503393954
 20
702.0032575677736
 30
0.0
 10
569.3707697234225
 20
701.7928584251529
 30
0.0
 10
569.479467764536
 20
701.3694923489412
 30
0.0
 10
569.610162335488
 20
700.7294980801057
 30
0.0
 10
569.7179949576066
 20
700.0862603337719
 30
0.0
 10
569.7979185582927
 20
699.4407265177574
 30
0.0
 10
569.8439371885411
 20
698.9697891067073
 30
0.0
 10
569.8557647796699
 20
698.7133180210542
 30
0.0
 10
569.8575565419543
 20
698.674465205356
 30
0.0
  0
SPLINE
  5
114
330
1F
100
AcDbEntity
  8
0
  6
Continuous
 62
     7
370
    15
100
AcDbSpline
210
0.0
220
0.0
230
1.0
 70
     8
 71
     3
 72
     9
 73
     5
 74
     0
 42
0.00000001
 43
0.00000001
 12
1.0
 22
0.0
 32
0.0
 13
1.0
 23
0.0
 33
0.0
 40
0.0
 40
0.0
 40
0.0
 40
0.0
 40
0.6256539607777508
 40
1.0
 40
1.0
 40
1.0
 40
1.0
 10
569.8875688979177
 20
697.6868599048112
 30
0.0
 10
569.8890343850798
 20
697.6196751331761
 30
0.0
 10
569.8913767136733
 20
697.5122918576805
 30
0.0
 10
569.8875324679893
 20
697.4049588626699
 30
0.0
 10
569.8860933898437
 20
697.3647791811098
 30
0.0
  0
SPLINE
  5
115
330
1F
100
AcDbEntity
  8
0
  6
Continuous
 62
     7
370
    15
100
AcDbSpline
210
0.0
220
0.0
230
1.0
 70
     8
 71
     3
 72
    10
 73
     6
 74
     0
 42
0.00000001
 43
0.00000001
 12
1.0
 22
0.0
 32
0.0
 13
1.0
 23
0.0
 33
0.0
 40
0.0
 40
0.0
 40
0.0
 40
0.0
 40
0.3329086594268663
 40
0.6662189267050127
 40
1.0
 40
1.0
 40
1.0
 40
1.0
 10
569.2469239225605
 20
702.003257567786
 30
0.0
 10
569.2575075022984
 20
702.0032552053043
 30
0.0
 10
569.2786874293867
 20
702.0032504774908
 30
0.0
 10
569.3017123362533
 20
702.0032510950795
 30
0.0
 10
569.3117353137421
 20
702.0032554092023
 30
0.0
 10
569.3167503393921
 20
702.003257567786
 30
0.0
  0
SPLINE
  5
116
330
1F
100
AcDbEntity
  8
0
  6
Continuous
 62
     7
370
    15
100
AcDbSpline
210
0.0
220
0.0
230
1.0
 70
     8
 71
     3
 72
    11
 73
     7
 74
     0
 42
0.00000001
 43
0.00000001
 12
1.0
 22
0.0
 32
0.0
 13
1.0
 23
0.0
 33
0.0
 40
0.0
 40
0.0
 40
0.0
 40
0.0
 40
0.2496612052252841
 40
0.4989942730123318
 40
0.7497893470922783
 40
1.0
 40
1.0
 40
1.0
 40
1.0
 10
568.5049138166681
 20
704.3746861392146
 30
0.0
 10
568.49981751546
 20
704.3746856702268
 30
0.0
 10
568.4896316112698
 20
704.3746847328675
 30
0.0
 10
568.462997399349
 20
704.3746872460563
 30
0.0
 10
568.4285530006043
 20
704.3746831093144
 30
0.0
 10
568.3973264236544
 20
704.3746851300336
 30
0.0
 10
568.3817313480179
 20
704.3746861392145
 30
0.0
  0
SPLINE
  5
117
330
1F
100
AcDbEntity
  8
0
  6
Continuous
 62
     7
370
    15
100
AcDbSpline
210
0.0
220
0.0
230
1.0
 70
     8
 71
     3
 72
    11
 73
     7
 74
     0
 42
0.00000001
 43
0.00000001
 12
1.0
 22
0.0
 32
0.0
 13
1.0
 23
0.0
 33
0.0
 40
0.0
 40
0.0
 40
0.0
 40
0.0
 40
0.1832337138445612
 40
0.4547872469417321
 40
0.7325534445984772
 40
1.0
 40
1.0
 40
1.0
 40
1.0
 10
569.6009609009616
 20
700.7546988667366
 30
0.0
 10
569.5589068737467
 20
700.9814979144355
 30
0.0
 10
569.4545285098608
 20
701.5444145979856
 30
0.0
 10
569.2145890991426
 20
702.4377378005057
 30
0.0
 10
568.8982572034465
 20
703.4212332668485
 30
0.0
 10
568.6343633077264
 20
704.0609043566184
 30
0.0
 10
568.5049138166682
 20
704.3746861392146
 30
0.0
  0
LINE
  5
118
330
1F
100
AcDbEntity
  8
0
  6
Continuous
 62
     7
370
    15
100
AcDbLine
 10
567.8295393195
 20
698.8032575678
 30
0.0
 11
569.8295393195
 21
698.8032575678
 31
0.0
  0
LINE
  5
119
330
1F
100
AcDbEntity
  8
0
  6
Continuous
 62
     7
370
    15
100
AcDbLine
 10
567.4784304862
 20
701.0889718535
 30
0.0
 11
569.4784304862
 21
701.0889718535
 31
0.0
  0
LINE
  5
11A
330
1F
100
AcDbEntity
  8
0
  6
Continuous
 62
     8
370
     0
100
AcDbLine
 10
540.3330568774
 20
215.6633921542
 30
0.0
 11
540.3330568774
 21
715.6633921542
 31
0.0
  0
LINE
  5
11B
330
1F
100
AcDbEntity
  8
0
  6
Continuous
 62
     8
370
     0
100
AcDbLine
 10
552.3720363779
 20
216.7166663809
 30
0.0
 11
552.3720363779
 21
714.6101179275
 31
0.0
  0
LINE
  5
11C
330
1F
100
AcDbEntity
  8
0
  6
Continuous
 62
     8
370
     0
100
AcDbLine
 10
522.0391560588
 20
458.0253624074
 30
0.0
 11
537.0715896491
 21
410.7301247574
 31
0.0
  0
LINE
  5
11D
330
1F
100
AcDbEntity
  8
0
  6
Continuous
 62
     8
370
     0
100
AcDbLine
 10
522.0391560588
 20
473.301421901
 30
0.0
 11
537.0715896491
 21
520.596659551
 31
0.0
  0
LINE
  5
11E
330
1F
100
AcDbEntity
  8
0
  6
Continuous
 62
     8
370
     0
100
AcDbLine
 10
513.0715896491
 20
504.8469858471
 30
0.0
 11
513.0715896491
 21
508.058795986
 31
0.0
  0
LINE
  5
11F
330
1F
100
AcDbEntity
  8
0
  6
Continuous
 62
     8
370
     0
100
AcDbLine
 10
513.0715896491
 20
483.7305623809
 30
0.0
 11
513.0715896491
 21
495.7387775071
 31
0.0
  0
LINE
  5
120
330
1F
100
AcDbEntity
  8
0
  6
Continuous
 62
     8
370
     0
100
AcDbLine
 10
513.0715896491
 20
457.5317646469
 30
0.0
 11
513.0715896491
 21
473.7950196615
 31
0.0
  0
LINE
  5
121
330
1F
100
AcDbEntity
  8
0
  6
Continuous
 62
     8
370
     0
100
AcDbLine
 10
513.0715896491
 20
435.5880068012
 30
0.0
 11
513.0715896491
 21
447.5962219274
 31
0.0
  0
LINE
  5
122
330
1F
100
AcDbEntity
  8
0
  6
Continuous
 62
     8
370
     0
100
AcDbLine
 10
513.0715896491
 20
423.2679883224
 30
0.0
 11
513.0715896491
 21
426.4797984613
 31
0.0
  0
LINE
  5
123
330
1F
100
AcDbEntity
  8
0
  6
Continuous
 62
     8
370
     0
100
AcDbLine
 10
530.0401351
 20
373.0931405491
 30
0.0
 11
537.0715896491
 21
328.8482334383
 31
0.0
  0
LINE
  5
124
330
1F
100
AcDbEntity
  8
0
  6
Continuous
 62
     8
370
     0
100
AcDbLine
 10
530.0401351
 20
558.2336437593
 30
0.0
 11
537.0715896491
 21
602.4785508701
 31
0.0
  0
LINE
  5
125
330
1F
100
AcDbEntity
  8
FORMAT
  6
CENTERX2
 62
     7
370
     0
100
AcDbLine
 10
500.4537873849
 20
465.6633921542
 30
0.0
 11
577.8852510422
 21
465.6633921542
 31
0.0
  0
ARC
  5
126
330
1F
100
AcDbEntity
  8
0
  6
Continuous
 62
     7
370
    15
100
AcDbCircle
 10
-433.1979286081
 20
-166.7839920332
 30
0.0
 40
2.999999999999976
100
AcDbArc
 50
90.0
 51
185.0
  0
ARC
  5
127
330
1F
100
AcDbEntity
  8
0
  6
Continuous
 62
     7
370
    15
100
AcDbCircle
 10
60.8249032033
 20
-166.7839920332
 30
0.0
 40
3.000000000000012
100
AcDbArc
 50
355.0
 51
90.0
  0
LINE
  5
128
330
1F
100
AcDbEntity
  8
0
  6
Continuous
 62
     7
370
    15
100
AcDbLine
 10
-436.1865127024
 20
-167.0454592615
 30
0.0
 11
-435.1332384757
 21
-179.084438762
 31
0.0
  0
LINE
  5
129
330
1F
100
AcDbEntity
  8
0
  6
Continuous
 62
     7
370
    15
100
AcDbLine
 10
62.7602130709
 20
-179.084438762
 30
0.0
 11
63.8134872976
 21
-167.0454592615
 31
0.0
  0
ARC
  5
12A
330
1F
100
AcDbEntity
  8
0
  6
Continuous
 62
     7
370
    15
100
AcDbCircle
 10
-418.1979286081
 20
-177.6027911353
 30
0.0
 40
17.00000000000007
100
AcDbArc
 50
185.0
 51
270.0
  0
ARC
  5
12B
330
1F
100
AcDbEntity
  8
0
  6
Continuous
 62
     7
370
    15
100
AcDbCircle
 10
45.8249032033
 20
-177.6027911353
 30
0.0
 40
17.0
100
AcDbArc
 50
270.0
 51
355.0
  0
LINE
  5
12C
330
1F
100
AcDbEntity
  8
0
  6
Continuous
 62
     7
370
    15
100
AcDbLine
 10
-174.1865127024
 20
-194.6027911353
 30
0.0
 11
45.8249032033
 21
-194.6027911353
 31
0.0
  0
LINE
  5
12D
330
1F
100
AcDbEntity
  8
0
  6
Continuous
 62
     7
370
    15
100
AcDbLine
 10
-186.7139788324
 20
-194.6027911353
 30
0.0
 11
-185.6624626072
 21
-194.6027911353
 31
0.0
  0
LINE
  5
12E
330
1F
100
AcDbEntity
  8
0
  6
Continuous
 62
     7
370
    15
100
AcDbLine
 10
-418.1979286081
 20
-194.6027911353
 30
0.0
 11
-198.1865127024
 21
-194.6027911353
 31
0.0
  0
LINE
  5
12F
330
1F
100
AcDbEntity
  8
0
  6
Continuous
 62
     7
370
    15
100
AcDbLine
 10
-185.662505833
 20
-196.6027911353
 30
0.0
 11
-183.0798509904
 21
-196.6027911353
 31
0.0
  0
LINE
  5
130
330
1F
100
AcDbEntity
  8
0
  6
Continuous
 62
     7
370
    15
100
AcDbLine
 10
-189.292340742
 20
-196.6027911353
 30
0.0
 11
-186.713952688
 21
-196.6027911353
 31
0.0
  0
LINE
  5
131
330
1F
100
AcDbEntity
  8
0
  6
Continuous
 62
     7
370
    15
100
AcDbLine
 10
-192.8156038643
 20
-196.6027911353
 30
0.0
 11
-190.2732213629
 21
-196.6027911353
 31
0.0
  0
LINE
  5
132
330
1F
100
AcDbEntity
  8
0
  6
Continuous
 62
     7
370
    15
100
AcDbLine
 10
-196.4650246973
 20
-196.6027911353
 30
0.0
 11
-194.1337006963
 21
-196.6027911353
 31
0.0
  0
LINE
  5
133
330
1F
100
AcDbEntity
  8
0
  6
Continuous
 62
     7
370
    15
100
AcDbLine
 10
-182.0960325858
 20
-196.6027911353
 30
0.0
 11
-175.8109872261
 21
-196.6027911353
 31
0.0
  0
LINE
  5
134
330
1F
100
AcDbEntity
  8
0
  6
Continuous
 62
     7
370
    15
100
AcDbLine
 10
-170.6167537046
 20
-163.7839920332
 30
0.0
 11
-170.6167537046
 21
-149.1698849848
 31
0.0
  0
LINE
  5
135
330
1F
100
AcDbEntity
  8
0
  6
Continuous
 62
     7
370
    15
100
AcDbLine
 10
-201.7562717001
 20
-149.1699621584
 30
0.0
 11
-201.7562717001
 21
-163.7839920332
 31
0.0
  0
LINE
  5
136
330
1F
100
AcDbEntity
  8
0
  6
Continuous
 62
     7
370
    15
100
AcDbLine
 10
-254.8271118427
 20
-163.7839920332
 30
0.0
 11
-220.3379377302
 21
-157.4550072829
 31
0.0
  0
LINE
  5
137
330
1F
100
AcDbEntity
  8
0
  6
Continuous
 62
     7
370
    15
100
AcDbLine
 10
-152.0349507022
 20
-157.4550324182
 30
0.0
 11
-117.545913562
 21
-163.7839920332
 31
0.0
  0
ARC
  5
138
330
1F
100
AcDbEntity
  8
0
  6
Continuous
 62
     7
370
    15
100
AcDbCircle
 10
-228.1865127024
 20
-139.7839920332
 30
0.0
 40
3.0
100
AcDbArc
 50
90.0
 51
149.5843354536
  0
ARC
  5
139
330
1F
100
AcDbEntity
  8
0
  6
Continuous
 62
     7
370
    15
100
AcDbCircle
 10
-144.1865127024
 20
-139.7839920332
 30
0.0
 40
3.0
100
AcDbArc
 50
30.4156645464
 51
90.0
  0
LINE
  5
13A
330
1F
100
AcDbEntity
  8
0
  6
Continuous
 62
     7
370
    15
100
AcDbLine
 10
-231.1865127024
 20
-159.4457904004
 30
0.0
 11
-231.1865127024
 21
-163.7839920332
 31
0.0
  0
LINE
  5
13B
330
1F
100
AcDbEntity
  8
0
  6
Continuous
 62
     7
370
    15
100
AcDbLine
 10
-141.1865127024
 20
-163.7839920332
 30
0.0
 11
-141.1865127024
 21
-159.4457904004
 31
0.0
  0
LINE
  5
13C
330
1F
100
AcDbEntity
  8
0
  6
Continuous
 62
     7
370
    15
100
AcDbLine
 10
-186.1865127024
 20
-163.7839920332
 30
0.0
 11
60.8249032033
 21
-163.7839920332
 31
0.0
  0
LINE
  5
13D
330
1F
100
AcDbEntity
  8
0
  6
Continuous
 62
     7
370
    15
100
AcDbLine
 10
-433.1979286081
 20
-163.7839920332
 30
0.0
 11
-186.1865127024
 21
-163.7839920332
 31
0.0
  0
SPLINE
  5
13E
330
1F
100
AcDbEntity
  8
0
  6
Continuous
 62
     7
370
    15
100
AcDbSpline
210
0.0
220
0.0
230
1.0
 70
     8
 71
     3
 72
    11
 73
     7
 74
     0
 42
0.00000001
 43
0.00000001
 12
1.0
 22
0.0
 32
0.0
 13
1.0
 23
0.0
 33
0.0
 40
0.0
 40
0.0
 40
0.0
 40
0.0
 40
0.2457294849726707
 40
0.4943030136164695
 40
0.7457250731533122
 40
1.0
 40
1.0
 40
1.0
 40
1.0
 10
-174.1865127023853
 20
-193.0941337321155
 30
0.0
 10
-174.9025545834885
 20
-193.1094725441338
 30
0.0
 10
-176.342925728792
 20
-193.1403276977462
 30
0.0
 10
-178.5161565998317
 20
-193.1748118482007
 30
0.0
 10
-180.7144012564335
 20
-193.2017813252875
 30
0.0
 10
-182.1882753836092
 20
-193.2121184700906
 30
0.0
 10
-182.9293698452333
 20
-193.217316200766
 30
0.0
  0
SPLINE
  5
13F
330
1F
100
AcDbEntity
  8
0
  6
Continuous
 62
     7
370
    15
100
AcDbSpline
210
0.0
220
0.0
230
1.0
 70
     8
 71
     3
 72
    13
 73
     9
 74
     0
 42
0.00000001
 43
0.00000001
 12
1.0
 22
0.0
 32
0.0
 13
1.0
 23
0.0
 33
0.0
 40
0.0
 40
0.0
 40
0.0
 40
0.0
 40
0.196739534456903
 40
0.3936171595720199
 40
0.5917776786453846
 40
0.7893300203107751
 40
0.9882860362439237
 40
0.9999999999999999
 40
0.9999999999999999
 40
0.9999999999999999
 40
0.9999999999999999
 10
-182.9293698452377
 20
-193.2173162007708
 30
0.0
 10
-183.1012931617548
 20
-193.3885818768945
 30
0.0
 10
-183.4452604670473
 20
-193.7312334398054
 30
0.0
 10
-183.9792993381785
 20
-194.1106107390019
 30
0.0
 10
-184.5224717312368
 20
-194.3927720209857
 30
0.0
 10
-185.0740849840021
 20
-194.5525739973319
 30
0.0
 10
-185.455178871208
 20
-194.6189643218224
 30
0.0
 10
-185.6516182936206
 20
-194.6005470230597
 30
0.0
 10
-185.6625409902373
 20
-194.5995229589262
 30
0.0
  0
SPLINE
  5
140
330
1F
100
AcDbEntity
  8
0
  6
Continuous
 62
     7
370
    15
100
AcDbSpline
210
0.0
220
0.0
230
1.0
 70
     8
 71
     3
 72
    13
 73
     9
 74
     0
 42
0.00000001
 43
0.00000001
 12
1.0
 22
0.0
 32
0.0
 13
1.0
 23
0.0
 33
0.0
 40
0.0
 40
0.0
 40
0.0
 40
0.0
 40
0.0091810496166124
 40
0.2063222717923693
 40
0.4037139183173807
 40
0.6017772677012962
 40
0.8009794919770717
 40
1.0
 40
1.0
 40
1.0
 40
1.0
 10
-186.7139972540886
 20
-194.6006722486529
 30
0.0
 10
-186.7225472000584
 20
-194.6014788595877
 30
0.0
 10
-186.9146869171779
 20
-194.6196055234738
 30
0.0
 10
-187.2911144362638
 20
-194.5544849846873
 30
0.0
 10
-187.8401699438635
 20
-194.3969815404911
 30
0.0
 10
-188.3846515855752
 20
-194.1156351374907
 30
0.0
 10
-188.9222709307018
 20
-193.735656966726
 30
0.0
 10
-189.2699135617918
 20
-193.3900438862477
 30
0.0
 10
-189.443655559519
 20
-193.217316200766
 30
0.0
  0
SPLINE
  5
141
330
1F
100
AcDbEntity
  8
0
  6
Continuous
 62
     7
370
    15
100
AcDbSpline
210
0.0
220
0.0
230
1.0
 70
     8
 71
     3
 72
    11
 73
     7
 74
     0
 42
0.00000001
 43
0.00000001
 12
1.0
 22
0.0
 32
0.0
 13
1.0
 23
0.0
 33
0.0
 40
0.0
 40
0.0
 40
0.0
 40
0.0
 40
0.2542739832129104
 40
0.5056957282177947
 40
0.7542695714210643
 40
1.0
 40
1.0
 40
1.0
 40
1.0
 10
-189.4436555595322
 20
-193.2173162007659
 30
0.0
 10
-190.1847472708791
 20
-193.2121184935547
 30
0.0
 10
-191.658617731043
 20
-193.2017813827735
 30
0.0
 10
-193.8568596372464
 20
-193.1748119178049
 30
0.0
 10
-196.030093257955
 20
-193.1403277242761
 30
0.0
 10
-197.4704680709258
 20
-193.1094725662079
 30
0.0
 10
-198.1865127023619
 20
-193.0941337321156
 30
0.0
  0
SPLINE
  5
142
330
1F
100
AcDbEntity
  8
0
  6
Continuous
 62
     7
370
    15
100
AcDbSpline
210
0.0
220
0.0
230
1.0
 70
     8
 71
     3
 72
    14
 73
    10
 74
     0
 42
0.00000001
 43
0.00000001
 12
1.0
 22
0.0
 32
0.0
 13
1.0
 23
0.0
 33
0.0
 40
0.0
 40
0.0
 40
0.0
 40
0.0
 40
0.1471566781532553
 40
0.2961093122434996
 40
0.4431072144097523
 40
0.5900365885972363
 40
0.7382633555467149
 40
0.8833791015434793
 40
1.0
 40
1.0
 40
1.0
 40
1.0
 10
-191.0694400440514
 20
-196.0291527234932
 30
0.0
 10
-190.9837806010885
 20
-196.0831630383145
 30
0.0
 10
-190.8114162948184
 20
-196.1918428303327
 30
0.0
 10
-190.5508780340649
 20
-196.3226749437144
 30
0.0
 10
-190.288981260524
 20
-196.4299902967005
 30
0.0
 10
-190.0261776544611
 20
-196.5118460827463
 30
0.0
 10
-189.763563789146
 20
-196.5676194843684
 30
0.0
 10
-189.5184788710143
 20
-196.5991254817194
 30
0.0
 10
-189.3618749715838
 20
-196.6000427549696
 30
0.0
 10
-189.2920976292039
 20
-196.600451460563
 30
0.0
  0
SPLINE
  5
143
330
1F
100
AcDbEntity
  8
0
  6
Continuous
 62
     7
370
    15
100
AcDbSpline
210
0.0
220
0.0
230
1.0
 70
     8
 71
     3
 72
    10
 73
     6
 74
     0
 42
0.00000001
 43
0.00000001
 12
1.0
 22
0.0
 32
0.0
 13
1.0
 23
0.0
 33
0.0
 40
0.0
 40
0.0
 40
0.0
 40
0.0
 40
0.3329086594268663
 40
0.6662189267050127
 40
1.0
 40
1.0
 40
1.0
 40
1.0
 10
-198.1865127023682
 20
-195.9593263066583
 30
0.0
 10
-197.3967645077388
 20
-195.9699098863962
 30
0.0
 10
-195.8163153974662
 20
-195.9910898134845
 30
0.0
 10
-193.4439416736633
 20
-196.0141147203511
 30
0.0
 10
-191.8613129056611
 20
-196.0241376978399
 30
0.0
 10
-191.0694400440565
 20
-196.0291527234899
 30
0.0
  0
SPLINE
  5
144
330
1F
100
AcDbEntity
  8
0
  6
Continuous
 62
     7
370
    15
100
AcDbSpline
210
0.0
220
0.0
230
1.0
 70
     8
 71
     3
 72
    13
 73
     9
 74
     0
 42
0.00000001
 43
0.00000001
 12
1.0
 22
0.0
 32
0.0
 13
1.0
 23
0.0
 33
0.0
 40
0.0
 40
0.0
 40
0.0
 40
0.0
 40
0.1609727410450211
 40
0.3242230593135647
 40
0.4897509528441637
 40
0.6575564152354578
 40
0.8276394358472292
 40
1.0
 40
1.0
 40
1.0
 40
1.0
 10
-198.1865127023762
 20
-195.0941337321153
 30
0.0
 10
-198.1865129650736
 20
-195.1490578233003
 30
0.0
 10
-198.1865134941853
 20
-195.2596831177349
 30
0.0
 10
-198.1865153818875
 20
-195.4152321034261
 30
0.0
 10
-198.1865160894388
 20
-195.5641745508336
 30
0.0
 10
-198.1865154292296
 20
-195.7049473262944
 30
0.0
 10
-198.1865135167339
 20
-195.8382340381842
 30
0.0
 10
-198.1865129750297
 20
-195.9187836425157
 30
0.0
 10
-198.1865127023762
 20
-195.9593263066582
 30
0.0
  0
SPLINE
  5
145
330
1F
100
AcDbEntity
  8
0
  6
Continuous
 62
     7
370
    15
100
AcDbSpline
210
0.0
220
0.0
230
1.0
 70
     8
 71
     3
 72
    11
 73
     7
 74
     0
 42
0.00000001
 43
0.00000001
 12
1.0
 22
0.0
 32
0.0
 13
1.0
 23
0.0
 33
0.0
 40
0.0
 40
0.0
 40
0.0
 40
0.0
 40
0.2496612052252841
 40
0.4989942730123318
 40
0.7497893470922783
 40
1.0
 40
1.0
 40
1.0
 40
1.0
 10
-189.4436555595322
 20
-195.2173162007659
 30
0.0
 10
-190.171303130097
 20
-195.2122198995578
 30
0.0
 10
-191.6256419015354
 20
-195.2020339953677
 30
0.0
 10
-193.8108284055135
 20
-195.1753997834468
 30
0.0
 10
-195.9975089222897
 20
-195.1409553847021
 30
0.0
 10
-197.4574124328688
 20
-195.1097288077522
 30
0.0
 10
-198.1865127023619
 20
-195.0941337321156
 30
0.0
  0
SPLINE
  5
146
330
1F
100
AcDbEntity
  8
0
  6
Continuous
 62
     7
370
    15
100
AcDbSpline
210
0.0
220
0.0
230
1.0
 70
     8
 71
     3
 72
    20
 73
    16
 74
     0
 42
0.00000001
 43
0.00000001
 12
1.0
 22
0.0
 32
0.0
 13
1.0
 23
0.0
 33
0.0
 40
0.0
 40
0.0
 40
0.0
 40
0.0
 40
0.0441762780748532
 40
0.0859721007081295
 40
0.1253859427622095
 40
0.1894603472925007
 40
0.2499898690139788
 40
0.3741958225256344
 40
0.4984058725686955
 40
0.6231108756224332
 40
0.6864381681528385
 40
0.7484186842673327
 40
0.8343956336115677
 40
0.9182562925189001
 40
0.9999999999999999
 40
0.9999999999999999
 40
0.9999999999999999
 40
0.9999999999999999
 10
-186.1865127023761
 20
-196.5530030216003
 30
0.0
 10
-186.2353530395495
 20
-196.5614690885935
 30
0.0
 10
-186.3304019338673
 20
-196.5779450253602
 30
0.0
 10
-186.4692154162473
 20
-196.5930032603048
 30
0.0
 10
-186.6301424820983
 20
-196.6033128969299
 30
0.0
 10
-186.8118890979263
 20
-196.6036757471496
 30
0.0
 10
-187.0874908721497
 20
-196.5840064085904
 30
0.0
 10
-187.4291782507914
 20
-196.5221357147791
 30
0.0
 10
-187.8395943121394
 20
-196.3866509800386
 30
0.0
 10
-188.1801422772549
 20
-196.2223951421998
 30
0.0
 10
-188.4503149316843
 20
-196.0602139330424
 30
0.0
 10
-188.6770989095716
 20
-195.9060375602611
 30
0.0
 10
-188.9235858027352
 20
-195.7141658496345
 30
0.0
 10
-189.1881365602135
 20
-195.4803291017644
 30
0.0
 10
-189.359211520767
 20
-195.3042368276649
 30
0.0
 10
-189.4436555595191
 20
-195.217316200766
 30
0.0
  0
SPLINE
  5
147
330
1F
100
AcDbEntity
  8
0
  6
Continuous
 62
     7
370
    15
100
AcDbSpline
210
0.0
220
0.0
230
1.0
 70
     8
 71
     3
 72
    20
 73
    16
 74
     0
 42
0.00000001
 43
0.00000001
 12
1.0
 22
0.0
 32
0.0
 13
1.0
 23
0.0
 33
0.0
 40
0.0
 40
0.0
 40
0.0
 40
0.0
 40
0.0414060372589569
 40
0.0832140138432067
 40
0.1254239583047849
 40
0.1871394291045162
 40
0.2500244789272345
 40
0.3742163727265479
 40
0.4984188658637849
 40
0.6231187200887031
 40
0.7484119670182183
 40
0.8095180388607672
 40
0.8741092036434063
 40
0.9342209047497247
 40
1.0
 40
1.0
 40
1.0
 40
1.0
 10
-182.9293698452377
 20
-195.2173162007707
 30
0.0
 10
-182.972044852679
 20
-195.2619571195596
 30
0.0
 10
-183.0578091251151
 20
-195.3516722983109
 30
0.0
 10
-183.1882836218968
 20
-195.4784753671916
 30
0.0
 10
-183.3408547061731
 20
-195.61851769978
 30
0.0
 10
-183.5169403634769
 20
-195.7675110275662
 30
0.0
 10
-183.7818455591965
 20
-195.9697933079389
 30
0.0
 10
-184.1172598040462
 20
-196.1851512701275
 30
0.0
 10
-184.5240763226009
 20
-196.3828355073483
 30
0.0
 10
-184.9356306652177
 20
-196.5201615484779
 30
0.0
 10
-185.2796727159167
 20
-196.5832926575844
 30
0.0
 10
-185.5576743428453
 20
-196.603658159357
 30
0.0
 10
-185.7635512974904
 20
-196.6031435925301
 30
0.0
 10
-185.9745615549509
 20
-196.5881926237483
 30
0.0
 10
-186.113773292978
 20
-196.5650797237479
 30
0.0
 10
-186.1865127023761
 20
-196.553003021601
 30
0.0
  0
SPLINE
  5
148
330
1F
100
AcDbEntity
  8
0
  6
Continuous
 62
     7
370
    15
100
AcDbSpline
210
0.0
220
0.0
230
1.0
 70
     8
 71
     3
 72
    12
 73
     8
 74
     0
 42
0.00000001
 43
0.00000001
 12
1.0
 22
0.0
 32
0.0
 13
1.0
 23
0.0
 33
0.0
 40
0.0
 40
0.0
 40
0.0
 40
0.0
 40
0.12407740228386
 40
0.2482017267280393
 40
0.49764267039725
 40
0.7486460251599079
 40
1.0
 40
1.0
 40
1.0
 40
1.0
 10
-174.1865127023853
 20
-195.0941337321155
 30
0.0
 10
-174.5480619928684
 20
-195.1021009266164
 30
0.0
 10
-175.2712973003735
 20
-195.1180383285599
 30
0.0
 10
-176.7214632623554
 20
-195.145961046902
 30
0.0
 10
-178.5416042221878
 20
-195.1752482712284
 30
0.0
 10
-180.7326485804481
 20
-195.2018806650116
 30
0.0
 10
-182.1967887916325
 20
-195.2121686286879
 30
0.0
 10
-182.9293698452333
 20
-195.217316200766
 30
0.0
  0
SPLINE
  5
149
330
1F
100
AcDbEntity
  8
0
  6
Continuous
 62
     7
370
    15
100
AcDbSpline
210
0.0
220
0.0
230
1.0
 70
     8
 71
     3
 72
    14
 73
    10
 74
     0
 42
0.00000001
 43
0.00000001
 12
1.0
 22
0.0
 32
0.0
 13
1.0
 23
0.0
 33
0.0
 40
0.0
 40
0.0
 40
0.0
 40
0.0
 40
0.147877189099562
 40
0.2940810407384283
 40
0.4386115459487024
 40
0.5814686979028919
 40
0.7226524920061671
 40
0.8621629259888917
 40
0.9999999999999999
 40
0.9999999999999999
 40
0.9999999999999999
 40
0.9999999999999999
 10
-174.1865127023761
 20
-195.9593263066582
 30
0.0
 10
-174.1865124990167
 20
-195.9246672862972
 30
0.0
 10
-174.186512094599
 20
-195.8557414374845
 30
0.0
 10
-174.1865104570474
 20
-195.7431531237384
 30
0.0
 10
-174.1865094941124
 20
-195.6249186269332
 30
0.0
 10
-174.1865095209966
 20
-195.5006927700734
 30
0.0
 10
-174.186510509108
 20
-195.3708027781831
 30
0.0
 10
-174.186512113396
 20
-195.236109546359
 30
0.0
 10
-174.1865125068407
 20
-195.141268263756
 30
0.0
 10
-174.1865127023761
 20
-195.0941337321208
 30
0.0
  0
SPLINE
  5
14A
330
1F
100
AcDbEntity
  8
0
  6
Continuous
 62
     7
370
    15
100
AcDbSpline
210
0.0
220
0.0
230
1.0
 70
     8
 71
     3
 72
    10
 73
     6
 74
     0
 42
0.00000001
 43
0.00000001
 12
1.0
 22
0.0
 32
0.0
 13
1.0
 23
0.0
 33
0.0
 40
0.0
 40
0.0
 40
0.0
 40
0.0
 40
0.3975949964825652
 40
0.6989973992479837
 40
1.0
 40
1.0
 40
1.0
 40
1.0
 10
-181.3035853606957
 20
-196.0291527234899
 30
0.0
 10
-180.360318817371
 20
-196.0230528226074
 30
0.0
 10
-178.7019959853064
 20
-196.0123288072393
 30
0.0
 10
-176.3296338373916
 20
-195.9882328696062
 30
0.0
 10
-174.9005702687699
 20
-195.9689575634519
 30
0.0
 10
-174.1865127023761
 20
-195.9593263066582
 30
0.0
  0
SPLINE
  5
14B
330
1F
100
AcDbEntity
  8
0
  6
Continuous
 62
     7
370
    15
100
AcDbSpline
210
0.0
220
0.0
230
1.0
 70
     8
 71
     3
 72
    12
 73
     8
 74
     0
 42
0.00000001
 43
0.00000001
 12
1.0
 22
0.0
 32
0.0
 13
1.0
 23
0.0
 33
0.0
 40
0.0
 40
0.0
 40
0.0
 40
0.0
 40
0.1675361962942641
 40
0.3758276562989522
 40
0.58391066640468
 40
0.7919902897700217
 40
1.0
 40
1.0
 40
1.0
 40
1.0
 10
-183.0799887595024
 20
-196.5986741513494
 30
0.0
 10
-182.9797977809092
 20
-196.5973991367872
 30
0.0
 10
-182.755043121917
 20
-196.5945389445109
 30
0.0
 10
-182.4065001372475
 20
-196.5301453990371
 30
0.0
 10
-182.035548628283
 20
-196.415931468548
 30
0.0
 10
-181.6670940189669
 20
-196.2538619178807
 30
0.0
 10
-181.4247413397366
 20
-196.1040473974582
 30
0.0
 10
-181.3035853606958
 20
-196.0291527234899
 30
0.0
  0
LINE
  5
14C
330
1F
100
AcDbEntity
  8
0
  6
Continuous
 62
     7
370
    15
100
AcDbLine
 10
-182.9293698452
 20
-193.2173162008
 30
0.0
 11
-182.9293698452
 21
-195.2173162008
 31
0.0
  0
LINE
  5
14D
330
1F
100
AcDbEntity
  8
0
  6
Continuous
 62
     7
370
    15
100
AcDbLine
 10
-174.1865127024
 20
-193.0941337321
 30
0.0
 11
-174.1865127024
 21
-195.0941337321
 31
0.0
  0
LINE
  5
14E
330
1F
100
AcDbEntity
  8
0
  6
Continuous
 62
     7
370
    15
100
AcDbLine
 10
-198.1865127024
 20
-193.0941337321
 30
0.0
 11
-198.1865127024
 21
-195.0941337321
 31
0.0
  0
LINE
  5
14F
330
1F
100
AcDbEntity
  8
0
  6
Continuous
 62
     7
370
    15
100
AcDbLine
 10
-189.4436555595
 20
-193.2173162008
 30
0.0
 11
-189.4436555595
 21
-195.2173162008
 31
0.0
  0
LINE
  5
150
330
1F
100
AcDbEntity
  8
0
  6
Continuous
 62
     7
370
    15
100
AcDbLine
 10
-186.1865127024
 20
-194.6027911353
 30
0.0
 11
-186.1865127024
 21
-196.5530030216
 31
0.0
  0
SPLINE
  5
151
330
1F
100
AcDbEntity
  8
0
  6
Continuous
 62
     7
370
    15
100
AcDbSpline
210
0.0
220
0.0
230
1.0
 70
     8
 71
     3
 72
    11
 73
     7
 74
     0
 42
0.00000001
 43
0.00000001
 12
1.0
 22
0.0
 32
0.0
 13
1.0
 23
0.0
 33
0.0
 40
0.0
 40
0.0
 40
0.0
 40
0.0
 40
0.310108044046904
 40
0.6183173478703073
 40
0.9248140005966711
 40
1.0
 40
1.0
 40
1.0
 40
1.0
 10
-195.9381662114518
 20
-196.5505038485778
 30
0.0
 10
-196.0459515375102
 20
-196.5684571692853
 30
0.0
 10
-196.2608622379166
 20
-196.6042538854895
 30
0.0
 10
-196.5829077336749
 20
-196.6039767432774
 30
0.0
 10
-196.8231783673305
 20
-196.585090638657
 30
0.0
 10
-196.9555676448284
 20
-196.5528759097855
 30
0.0
 10
-196.9816464306558
 20
-196.5465300709788
 30
0.0
  0
LINE
  5
152
330
1F
100
AcDbEntity
  8
0
  6
Continuous
 62
     7
370
    15
100
AcDbLine
 10
-198.1865127024
 20
-196.5419417036
 30
0.0
 11
-195.9381662115
 21
-196.5505038486
 31
0.0
  0
SPLINE
  5
153
330
1F
100
AcDbEntity
  8
0
  6
Continuous
 62
     7
370
    15
100
AcDbSpline
210
0.0
220
0.0
230
1.0
 70
     8
 71
     3
 72
    13
 73
     9
 74
     0
 42
0.00000001
 43
0.00000001
 12
1.0
 22
0.0
 32
0.0
 13
1.0
 23
0.0
 33
0.0
 40
0.0
 40
0.0
 40
0.0
 40
0.0
 40
0.1570871088124889
 40
0.3180061166698114
 40
0.4827569692601948
 40
0.6513396086972475
 40
0.8237539737384221
 40
1.0
 40
1.0
 40
1.0
 40
1.0
 10
-198.1865127023761
 20
-196.1908328703037
 30
0.0
 10
-198.1865130327241
 20
-196.2165870530536
 30
0.0
 10
-198.1865137014784
 20
-196.268723652334
 30
0.0
 10
-198.1865161207346
 20
-196.3378991104192
 30
0.0
 10
-198.1865170398664
 20
-196.4010439511511
 30
0.0
 10
-198.1865162026332
 20
-196.4565975761441
 30
0.0
 10
-198.1865137397195
 20
-196.504975371407
 30
0.0
 10
-198.1865130506814
 20
-196.5295296451129
 30
0.0
 10
-198.1865127023761
 20
-196.5419417035984
 30
0.0
  0
SPLINE
  5
154
330
1F
100
AcDbEntity
  8
0
  6
Continuous
 62
     7
370
    15
100
AcDbSpline
210
0.0
220
0.0
230
1.0
 70
     8
 71
     3
 72
     9
 73
     5
 74
     0
 42
0.00000001
 43
0.00000001
 12
1.0
 22
0.0
 32
0.0
 13
1.0
 23
0.0
 33
0.0
 40
0.0
 40
0.0
 40
0.0
 40
0.0
 40
0.5003583320347674
 40
1.0
 40
1.0
 40
1.0
 40
1.0
 10
-191.6843550274808
 20
-196.2431361217172
 30
0.0
 10
-192.7688459321548
 20
-196.2370620953243
 30
0.0
 10
-194.93627442338
 20
-196.2249227423765
 30
0.0
 10
-197.1036176950604
 20
-196.2021907305893
 30
0.0
 10
-198.1865127023761
 20
-196.1908328703037
 30
0.0
  0
SPLINE
  5
155
330
1F
100
AcDbEntity
  8
0
  6
Continuous
 62
     7
370
    15
100
AcDbSpline
210
0.0
220
0.0
230
1.0
 70
     8
 71
     3
 72
    14
 73
    10
 74
     0
 42
0.00000001
 43
0.00000001
 12
1.0
 22
0.0
 32
0.0
 13
1.0
 23
0.0
 33
0.0
 40
0.0
 40
0.0
 40
0.0
 40
0.0
 40
0.0012165461574262
 40
0.1198193130306518
 40
0.2972228300839974
 40
0.4729818659433511
 40
0.6486302474809843
 40
0.8243325968165035
 40
1.0
 40
1.0
 40
1.0
 40
1.0
 10
-189.7865415780284
 20
-196.558926731291
 30
0.0
 10
-189.7873121323373
 20
-196.5590972280397
 30
0.0
 10
-189.8632050915749
 20
-196.5758896885497
 30
0.0
 10
-190.0520626883273
 20
-196.5960332263709
 30
0.0
 10
-190.3518998960376
 20
-196.6093223319041
 30
0.0
 10
-190.6879684776859
 20
-196.5794430504318
 30
0.0
 10
-191.0220212808024
 20
-196.5095658992972
 30
0.0
 10
-191.3547051340115
 20
-196.4018755812156
 30
0.0
 10
-191.5744790156653
 20
-196.296045766381
 30
0.0
 10
-191.684355027476
 20
-196.2431361217172
 30
0.0
  0
SPLINE
  5
156
330
1F
100
AcDbEntity
  8
0
  6
Continuous
 62
     7
370
    15
100
AcDbSpline
210
0.0
220
0.0
230
1.0
 70
     8
 71
     3
 72
     9
 73
     5
 74
     0
 42
0.00000001
 43
0.00000001
 12
1.0
 22
0.0
 32
0.0
 13
1.0
 23
0.0
 33
0.0
 40
0.0
 40
0.0
 40
0.0
 40
0.0
 40
0.1337670659923499
 40
1.0
 40
1.0
 40
1.0
 40
1.0
 10
-192.8155483694265
 20
-196.5948919681983
 30
0.0
 10
-192.845352254701
 20
-196.5974901292612
 30
0.0
 10
-193.0681566128094
 20
-196.6169131542307
 30
0.0
 10
-193.2906378064071
 20
-196.5659235710197
 30
0.0
 10
-193.4833583434988
 20
-196.521754714751
 30
0.0
  0
SPLINE
  5
157
330
1F
100
AcDbEntity
  8
0
  6
Continuous
 62
     7
370
    15
100
AcDbSpline
210
0.0
220
0.0
230
1.0
 70
     8
 71
     3
 72
     9
 73
     5
 74
     0
 42
0.00000001
 43
0.00000001
 12
1.0
 22
0.0
 32
0.0
 13
1.0
 23
0.0
 33
0.0
 40
0.0
 40
0.0
 40
0.0
 40
0.0
 40
0.8391538043110269
 40
1.0
 40
1.0
 40
1.0
 40
1.0
 10
-193.4833583434958
 20
-196.5217547147499
 30
0.0
 10
-193.6650224782991
 20
-196.5643714595172
 30
0.0
 10
-193.8815073871085
 20
-196.6151568394419
 30
0.0
 10
-194.0983365309999
 20
-196.5968057544183
 30
0.0
 10
-194.1332126739093
 20
-196.5938540522054
 30
0.0
  0
LINE
  5
158
330
1F
100
AcDbEntity
  8
0
  6
Continuous
 62
     7
370
    15
100
AcDbLine
 10
-193.7620705031
 20
-196.5622225375
 30
0.0
 11
-193.1985496069
 21
-196.5609854611
 31
0.0
  0
LINE
  5
159
330
1F
100
AcDbEntity
  8
0
  6
Continuous
 62
     7
370
    15
100
AcDbLine
 10
-198.1865127024
 20
-195.9593263067
 30
0.0
 11
-198.1865127024
 21
-196.1908328703
 31
0.0
  0
LINE
  5
15A
330
1F
100
AcDbEntity
  8
0
  6
Continuous
 62
     7
370
    15
100
AcDbLine
 10
-191.6843550275
 20
-196.023119722
 30
0.0
 11
-191.6843550275
 21
-196.2431361217
 31
0.0
  0
LINE
  5
15B
330
1F
100
AcDbEntity
  8
0
  6
Continuous
 62
     7
370
    15
100
AcDbLine
 10
-176.4722269881
 20
-195.9817517119
 30
0.0
 11
-176.4722269881
 21
-196.214094818
 31
0.0
  0
LINE
  5
15C
330
1F
100
AcDbEntity
  8
0
  6
Continuous
 62
     7
370
    15
100
AcDbLine
 10
-174.1865127024
 20
-195.9593263067
 30
0.0
 11
-174.1865127024
 21
-196.1908328703
 31
0.0
  0
SPLINE
  5
15D
330
1F
100
AcDbEntity
  8
0
  6
Continuous
 62
     7
370
    15
100
AcDbSpline
210
0.0
220
0.0
230
1.0
 70
     8
 71
     3
 72
     9
 73
     5
 74
     0
 42
0.00000001
 43
0.00000001
 12
1.0
 22
0.0
 32
0.0
 13
1.0
 23
0.0
 33
0.0
 40
0.0
 40
0.0
 40
0.0
 40
0.0
 40
0.499828815252441
 40
1.0
 40
1.0
 40
1.0
 40
1.0
 10
-174.1865127023844
 20
-196.1908328703038
 30
0.0
 10
-174.56733110579
 20
-196.1950574545836
 30
0.0
 10
-175.3292287631175
 20
-196.2035095168713
 30
0.0
 10
-176.0911406279726
 20
-196.2105655790449
 30
0.0
 10
-176.4722269880904
 20
-196.2140948180219
 30
0.0
  0
SPLINE
  5
15E
330
1F
100
AcDbEntity
  8
0
  6
Continuous
 62
     7
370
    15
100
AcDbSpline
210
0.0
220
0.0
230
1.0
 70
     8
 71
     3
 72
    11
 73
     7
 74
     0
 42
0.00000001
 43
0.00000001
 12
1.0
 22
0.0
 32
0.0
 13
1.0
 23
0.0
 33
0.0
 40
0.0
 40
0.0
 40
0.0
 40
0.0
 40
0.1947961507654846
 40
0.4621809106635281
 40
0.7302927422188547
 40
1.0
 40
1.0
 40
1.0
 40
1.0
 10
-175.811035243496
 20
-196.6021805200199
 30
0.0
 10
-175.7313098023533
 20
-196.6021523310515
 30
0.0
 10
-175.5421501251955
 20
-196.6020854488106
 30
0.0
 10
-175.2897569444918
 20
-196.593650964088
 30
0.0
 10
-175.0480905115829
 20
-196.5765824142113
 30
0.0
 10
-174.9309639801806
 20
-196.555423035915
 30
0.0
 10
-174.8722269880874
 20
-196.5448119623964
 30
0.0
  0
SPLINE
  5
15F
330
1F
100
AcDbEntity
  8
0
  6
Continuous
 62
     7
370
    15
100
AcDbSpline
210
0.0
220
0.0
230
1.0
 70
     8
 71
     3
 72
    15
 73
    11
 74
     0
 42
0.00000001
 43
0.00000001
 12
1.0
 22
0.0
 32
0.0
 13
1.0
 23
0.0
 33
0.0
 40
0.0
 40
0.0
 40
0.0
 40
0.0
 40
0.1234728395026933
 40
0.2486219006322447
 40
0.372074746769761
 40
0.4954502439542211
 40
0.6199619922672243
 40
0.7415149653736582
 40
0.8686005083680508
 40
1.0
 40
1.0
 40
1.0
 40
1.0
 10
-180.6886703772763
 20
-196.2431361217172
 30
0.0
 10
-180.7663660518822
 20
-196.2813815470425
 30
0.0
 10
-180.9228121688517
 20
-196.3583916034497
 30
0.0
 10
-181.1585777098527
 20
-196.4478009220412
 30
0.0
 10
-181.3951744039943
 20
-196.5182161827757
 30
0.0
 10
-181.6321281288623
 20
-196.5678079832695
 30
0.0
 10
-181.8683458357608
 20
-196.5971065654215
 30
0.0
 10
-182.1071581064307
 20
-196.6058807030743
 30
0.0
 10
-182.3504020700109
 20
-196.5957703017295
 30
0.0
 10
-182.5155403410307
 20
-196.5693887418643
 30
0.0
 10
-182.5994875021975
 20
-196.5559778163158
 30
0.0
  0
SPLINE
  5
160
330
1F
100
AcDbEntity
  8
0
  6
Continuous
 62
     7
370
    15
100
AcDbSpline
210
0.0
220
0.0
230
1.0
 70
     8
 71
     3
 72
     9
 73
     5
 74
     0
 42
0.00000001
 43
0.00000001
 12
1.0
 22
0.0
 32
0.0
 13
1.0
 23
0.0
 33
0.0
 40
0.0
 40
0.0
 40
0.0
 40
0.0
 40
0.4998954456000145
 40
1.0
 40
1.0
 40
1.0
 40
1.0
 10
-178.1282244349611
 20
-196.2275631513088
 30
0.0
 10
-178.5548738279797
 20
-196.2305464578387
 30
0.0
 10
-179.4083510836217
 20
-196.2365143188308
 30
0.0
 10
-180.2618377888645
 20
-196.2409285464038
 30
0.0
 10
-180.6886703772763
 20
-196.2431361217172
 30
0.0
  0
SPLINE
  5
161
330
1F
100
AcDbEntity
  8
0
  6
Continuous
 62
     7
370
    15
100
AcDbSpline
210
0.0
220
0.0
230
1.0
 70
     8
 71
     3
 72
    13
 73
     9
 74
     0
 42
0.00000001
 43
0.00000001
 12
1.0
 22
0.0
 32
0.0
 13
1.0
 23
0.0
 33
0.0
 40
0.0
 40
0.0
 40
0.0
 40
0.0
 40
0.1307128164487427
 40
0.2576208291562539
 40
0.3807216419288411
 40
0.5000129708587175
 40
0.7551894529738252
 40
1.0
 40
1.0
 40
1.0
 40
1.0
 10
-179.3372443463417
 20
-196.5940359985463
 30
0.0
 10
-179.2841973230707
 20
-196.5889202991782
 30
0.0
 10
-179.1796473754018
 20
-196.5788378088095
 30
0.0
 10
-179.0253402981219
 20
-196.5527154766303
 30
0.0
 10
-178.8758716419163
 20
-196.5197492242668
 30
0.0
 10
-178.6748976199894
 20
-196.4640197479511
 30
0.0
 10
-178.4255078730509
 20
-196.3758871726263
 30
0.0
 10
-178.2259397383187
 20
-196.2763163776319
 30
0.0
 10
-178.1282244349504
 20
-196.2275631513087
 30
0.0
  0
SPLINE
  5
162
330
1F
100
AcDbEntity
  8
0
  6
Continuous
 62
     7
370
    15
100
AcDbSpline
210
0.0
220
0.0
230
1.0
 70
     8
 71
     3
 72
    25
 73
    21
 74
     0
 42
0.00000001
 43
0.00000001
 12
1.0
 22
0.0
 32
0.0
 13
1.0
 23
0.0
 33
0.0
 40
0.0
 40
0.0
 40
0.0
 40
0.0
 40
0.0314440082083187
 40
0.0629348214803407
 40
0.125635132457228
 40
0.1881802167111676
 40
0.2506055955135834
 40
0.312935865534699
 40
0.3751992119766967
 40
0.437441792600592
 40
0.4997416735042672
 40
0.5620744629072763
 40
0.6243964568355289
 40
0.6867596551453203
 40
0.7491893017058352
 40
0.8116988424644123
 40
0.8743049841708076
 40
0.9370427644496351
 40
0.9685607113364204
 40
1.0
 40
1.0
 40
1.0
 40
1.0
 10
-176.4722269880904
 20
-196.2140948180219
 30
0.0
 10
-176.4728977723024
 20
-196.2241923870238
 30
0.0
 10
-176.4742403392028
 20
-196.2444025554703
 30
0.0
 10
-176.4885285682619
 20
-196.2827394824106
 30
0.0
 10
-176.5225195183444
 20
-196.3275590609196
 30
0.0
 10
-176.5899941569963
 20
-196.375759854788
 30
0.0
 10
-176.682859336912
 20
-196.4183367784552
 30
0.0
 10
-176.8004162742446
 20
-196.455294210822
 30
0.0
 10
-176.9418254811536
 20
-196.4867934347496
 30
0.0
 10
-177.1062957765514
 20
-196.5131033996944
 30
0.0
 10
-177.2928918461217
 20
-196.5345782816426
 30
0.0
 10
-177.5003393326156
 20
-196.5516483963368
 30
0.0
 10
-177.7261105215698
 20
-196.5648926682484
 30
0.0
 10
-177.9678168621904
 20
-196.5749037660802
 30
0.0
 10
-178.223226304396
 20
-196.5822510272621
 30
0.0
 10
-178.4901242006461
 20
-196.5874504750728
 30
0.0
 10
-178.7662712801607
 20
-196.5909540378906
 30
0.0
 10
-179.0022690524302
 20
-196.5927489648969
 30
0.0
 10
-179.1931757262006
 20
-196.593664605657
 30
0.0
 10
-179.2892614891987
 20
-196.5939123040738
 30
0.0
 10
-179.3372443463389
 20
-196.5940359985461
 30
0.0
  0
SPLINE
  5
163
330
1F
100
AcDbEntity
  8
0
  6
Continuous
 62
     7
370
    15
100
AcDbSpline
210
0.0
220
0.0
230
1.0
 70
     8
 71
     3
 72
    13
 73
     9
 74
     0
 42
0.00000001
 43
0.00000001
 12
1.0
 22
0.0
 32
0.0
 13
1.0
 23
0.0
 33
0.0
 40
0.0
 40
0.0
 40
0.0
 40
0.0
 40
0.176246113905305
 40
0.348660531533603
 40
0.5172431885004452
 40
0.6819940235626761
 40
0.8429129788332851
 40
1.0
 40
1.0
 40
1.0
 40
1.0
 10
-174.1865127023761
 20
-196.5419417035986
 30
0.0
 10
-174.1865123541664
 20
-196.5295296384903
 30
0.0
 10
-174.1865116653173
 20
-196.5049753540174
 30
0.0
 10
-174.1865092026936
 20
-196.4565975376459
 30
0.0
 10
-174.1865083656704
 20
-196.4010438991002
 30
0.0
 10
-174.1865092848419
 20
-196.3378990575162
 30
0.0
 10
-174.1865117039246
 20
-196.268723616173
 30
0.0
 10
-174.1865123722433
 20
-196.2165870390828
 30
0.0
 10
-174.1865127023761
 20
-196.1908328703069
 30
0.0
  0
LINE
  5
164
330
1F
100
AcDbEntity
  8
0
  6
Continuous
 62
     7
370
    15
100
AcDbLine
 10
-174.8722269881
 20
-196.5448119624
 30
0.0
 11
-174.1865127024
 21
-196.5419417036
 31
0.0
  0
LINE
  5
165
330
1F
100
AcDbEntity
  8
0
  6
Continuous
 62
     7
370
    15
100
AcDbLine
 10
-180.6886703773
 20
-196.023119722
 30
0.0
 11
-180.6886703773
 21
-196.2431361217
 31
0.0
  0
LINE
  5
166
330
1F
100
AcDbEntity
  8
0
  6
Continuous
 62
     7
370
    15
100
AcDbLine
 10
-178.128224435
 20
-195.9979988929
 30
0.0
 11
-178.128224435
 21
-196.2275631513
 31
0.0
  0
ELLIPSE
  5
167
330
1F
100
AcDbEntity
  8
0
  6
Continuous
 62
     7
370
    15
100
AcDbEllipse
 10
-186.1865127024
 20
-143.4598479549
 30
0.0
 11
45.0
 21
-2.842170943040401E-14
 31
0.0
210
0.0
220
0.0
230
1.0
 40
0.1589212185
 41
4.602073329470311
 42
4.822704631299074
  0
LINE
  5
168
330
1F
100
AcDbEntity
  8
0
  6
Continuous
 62
     7
370
    15
100
AcDbLine
 10
-195.5654060538
 20
-138.3992033999
 30
0.0
 11
-195.5654060538
 21
-163.7839920332
 31
0.0
  0
SPLINE
  5
169
330
1F
100
AcDbEntity
  8
0
  6
Continuous
 62
     7
370
    15
100
AcDbSpline
210
0.0
220
0.0
230
1.0
 70
     8
 71
     3
 72
    10
 73
     6
 74
     0
 42
0.00000001
 43
0.00000001
 12
1.0
 22
0.0
 32
0.0
 13
1.0
 23
0.0
 33
0.0
 40
0.0
 40
0.0
 40
0.0
 40
0.0
 40
0.5
 40
0.5
 40
1.0
 40
1.0
 40
1.0
 40
1.0
 10
-195.4958403686645
 20
-139.7839920332334
 30
0.0
 10
-195.5085585863867
 20
-139.540886604731
 30
0.0
 10
-195.5207465543404
 20
-139.3031861869314
 30
0.0
 10
-195.5441090057017
 20
-138.8381161334388
 30
0.0
 10
-195.5553087029615
 20
-138.6100505565945
 30
0.0
 10
-195.5654060537726
 20
-138.3992033998991
 30
0.0
  0
ELLIPSE
  5
16A
330
1F
100
AcDbEntity
  8
0
  6
Continuous
 62
     7
370
    15
100
AcDbEllipse
 10
-186.1865127024
 20
-310.4197939725
 30
0.0
 11
-44.99844785199655
 21
858.6809313975915
 31
0.0
210
0.0
220
0.0
230
1.0
 40
0.0004352635
 41
1.370723329578075
 42
1.378908391616372
  0
ELLIPSE
  5
16B
330
1F
100
AcDbEntity
  8
0
  6
Continuous
 62
     7
370
    15
100
AcDbEllipse
 10
-186.1865127024
 20
-310.4197939726
 30
0.0
 11
44.9984478519294
 21
858.6809313964235
 31
0.0
210
0.0
220
0.0
230
1.0
 40
0.0004352635
 41
4.904276915564656
 42
4.91246197760305
  0
SPLINE
  5
16C
330
1F
100
AcDbEntity
  8
0
  6
Continuous
 62
     7
370
    15
100
AcDbSpline
210
0.0
220
0.0
230
1.0
 70
     8
 71
     3
 72
    10
 73
     6
 74
     0
 42
0.00000001
 43
0.00000001
 12
1.0
 22
0.0
 32
0.0
 13
1.0
 23
0.0
 33
0.0
 40
0.0
 40
0.0
 40
0.0
 40
0.0
 40
0.5
 40
0.5
 40
1.0
 40
1.0
 40
1.0
 40
1.0
 10
-176.8076193509797
 20
-138.3992033998998
 30
0.0
 10
-176.8177477467028
 20
-138.6106988188511
 30
0.0
 10
-176.8289838119879
 20
-138.839466508506
 30
0.0
 10
-176.852270666645
 20
-139.3030148496726
 30
0.0
 10
-176.8644455794672
 20
-139.5404806287045
 30
0.0
 10
-176.8771850360877
 20
-139.7839920332334
 30
0.0
  0
LINE
  5
16D
330
1F
100
AcDbEntity
  8
0
  6
Continuous
 62
     7
370
    15
100
AcDbLine
 10
-176.807619351
 20
-138.3992033999
 30
0.0
 11
-176.807619351
 21
-163.7839920332
 31
0.0
  0
LINE
  5
16E
330
1F
100
AcDbEntity
  8
0
  6
Continuous
 62
     7
370
    15
100
AcDbLine
 10
-170.6215224107
 20
-149.1699555317
 30
0.0
 11
-170.6277174266
 21
-148.7515584429
 31
0.0
  0
LINE
  5
16F
330
1F
100
AcDbEntity
  8
0
  6
Continuous
 62
     7
370
    15
100
AcDbLine
 10
-201.7453079782
 20
-148.7515584429
 30
0.0
 11
-201.7501859178
 21
-149.1700330487
 31
0.0
  0
SPLINE
  5
170
330
1F
100
AcDbEntity
  8
0
  6
Continuous
 62
     7
370
    15
100
AcDbSpline
210
0.0
220
0.0
230
1.0
 70
     8
 71
     3
 72
    14
 73
    10
 74
     0
 42
0.00000001
 43
0.00000001
 12
1.0
 22
0.0
 32
0.0
 13
1.0
 23
0.0
 33
0.0
 40
0.0
 40
0.0
 40
0.0
 40
0.0
 40
0.2499999999999999
 40
0.2499999999999999
 40
0.4999999999999998
 40
0.4999999999999998
 40
0.7499999999999999
 40
0.7499999999999999
 40
1.0
 40
1.0
 40
1.0
 40
1.0
 10
-177.2378528302173
 20
-146.6778183909904
 30
0.0
 10
-177.2647565059274
 20
-147.1920386665146
 30
0.0
 10
-177.3910134000061
 20
-147.6981407006221
 30
0.0
 10
-177.8168258448015
 20
-148.6290157095931
 30
0.0
 10
-178.1166630786863
 20
-149.0538822237138
 30
0.0
 10
-178.8460226547155
 20
-149.7650224758015
 30
0.0
 10
-179.2766982457332
 20
-150.0526371921821
 30
0.0
 10
-180.2153018791426
 20
-150.4498864128743
 30
0.0
 10
-180.7206323417774
 20
-150.5588238141889
 30
0.0
 10
-181.2323709692356
 20
-150.5678319299695
 30
0.0
  0
SPLINE
  5
171
330
1F
100
AcDbEntity
  8
0
  6
Continuous
 62
     7
370
    15
100
AcDbSpline
210
0.0
220
0.0
230
1.0
 70
     8
 71
     3
 72
    14
 73
    10
 74
     0
 42
0.00000001
 43
0.00000001
 12
1.0
 22
0.0
 32
0.0
 13
1.0
 23
0.0
 33
0.0
 40
0.0
 40
0.0
 40
0.0
 40
0.0
 40
0.25
 40
0.25
 40
0.5
 40
0.5
 40
0.75
 40
0.75
 40
1.0
 40
1.0
 40
1.0
 40
1.0
 10
-191.1406544355166
 20
-150.5678319299695
 30
0.0
 10
-191.6523854739116
 20
-150.5588239477789
 30
0.0
 10
-192.1587513504865
 20
-150.4495197366302
 30
0.0
 10
-193.0962222213007
 20
-150.0526132036534
 30
0.0
 10
-193.5273180259876
 20
-149.7647773164711
 30
0.0
 10
-194.2565666604988
 20
-149.0536207081097
 30
0.0
 10
-194.5562308287608
 20
-148.6290707236179
 30
0.0
 10
-194.9823257799407
 20
-147.6973312807605
 30
0.0
 10
-195.1082686535759
 20
-147.1920433540597
 30
0.0
 10
-195.1351725745351
 20
-146.6778183909869
 30
0.0
  0
ELLIPSE
  5
172
330
1F
100
AcDbEntity
  8
0
  6
Continuous
 62
     7
370
    15
100
AcDbEllipse
 10
-186.1865127024
 20
154.8383390488
 30
0.0
 11
44.99844785198499
 21
858.6809313974818
 31
0.0
210
0.0
220
0.0
230
1.0
 40
0.0004352635
 41
4.35104423946694
 42
4.362185500622978
  0
SPLINE
  5
173
330
1F
100
AcDbEntity
  8
0
  6
Continuous
 62
     7
370
    15
100
AcDbSpline
210
0.0
220
0.0
230
1.0
 70
     8
 71
     3
 72
    12
 73
     8
 74
     0
 42
0.00000001
 43
0.00000001
 12
1.0
 22
0.0
 32
0.0
 13
1.0
 23
0.0
 33
0.0
 40
0.0
 40
0.0
 40
0.0
 40
0.0
 40
0.2500000000000006
 40
0.2500000000000006
 40
0.5000000000000011
 40
0.5000000000000011
 40
1.0
 40
1.0
 40
1.0
 40
1.0
 10
-201.1907648959984
 20
-138.1167144909263
 30
0.0
 10
-201.1963998563691
 20
-138.2375516497721
 30
0.0
 10
-201.2024233406648
 20
-138.3643124496961
 30
0.0
 10
-201.2152750394574
 20
-138.630103391451
 30
0.0
 10
-201.2221213430646
 20
-138.7694533615985
 30
0.0
 10
-201.2431738377851
 20
-139.1916520204995
 30
0.0
 10
-201.2582609776996
 20
-139.4861645253332
 30
0.0
 10
-201.2739158565421
 20
-139.7839920332333
 30
0.0
  0
LINE
  5
174
330
1F
100
AcDbEntity
  8
0
  6
Continuous
 62
     7
370
    15
100
AcDbLine
 10
-201.190764896
 20
-138.1167144909
 30
0.0
 11
-201.190764896
 21
-163.7839920332
 31
0.0
  0
LINE
  5
175
330
1F
100
AcDbEntity
  8
0
  6
Continuous
 62
     7
370
    15
100
AcDbLine
 10
-171.1822605088
 20
-138.1167144909
 30
0.0
 11
-171.1822605088
 21
-163.7839920332
 31
0.0
  0
SPLINE
  5
176
330
1F
100
AcDbEntity
  8
0
  6
Continuous
 62
     7
370
    15
100
AcDbSpline
210
0.0
220
0.0
230
1.0
 70
     8
 71
     3
 72
    10
 73
     6
 74
     0
 42
0.00000001
 43
0.00000001
 12
1.0
 22
0.0
 32
0.0
 13
1.0
 23
0.0
 33
0.0
 40
0.0
 40
0.0
 40
0.0
 40
0.0
 40
0.5
 40
0.5
 40
1.0
 40
1.0
 40
1.0
 40
1.0
 10
-171.0991095482102
 20
-139.7839920332333
 30
0.0
 10
-171.1147786189738
 20
-139.4858945299831
 30
0.0
 10
-171.1296931989237
 20
-139.1948184038171
 30
0.0
 10
-171.158030106709
 20
-138.6265532189082
 30
0.0
 10
-171.1709075856056
 20
-138.3601687279742
 30
0.0
 10
-171.1822605087539
 20
-138.1167144909263
 30
0.0
  0
ELLIPSE
  5
177
330
1F
100
AcDbEntity
  8
0
  6
Continuous
 62
     7
370
    15
100
AcDbEllipse
 10
-186.1865127024
 20
154.8383390487
 30
0.0
 11
-44.9984478519396
 21
858.6809313965202
 31
0.0
210
0.0
220
0.0
230
1.0
 40
0.0004352635
 41
1.92099980656065
 42
1.932141067716924
  0
SPLINE
  5
178
330
1F
100
AcDbEntity
  8
0
  6
Continuous
 62
     7
370
    15
100
AcDbSpline
210
0.0
220
0.0
230
1.0
 70
     8
 71
     3
 72
     8
 73
     4
 74
     0
 42
0.00000001
 43
0.00000001
 12
1.0
 22
0.0
 32
0.0
 13
1.0
 23
0.0
 33
0.0
 40
0.0
 40
0.0
 40
0.0
 40
0.0
 40
1.0
 40
1.0
 40
1.0
 40
1.0
 10
-195.5654060537766
 20
-138.3992033998996
 30
0.0
 10
-197.4864536394495
 20
-138.3275702259505
 30
0.0
 10
-199.3628006393575
 20
-138.2340093458503
 30
0.0
 10
-201.1907648959985
 20
-138.1167144909263
 30
0.0
  0
SPLINE
  5
179
330
1F
100
AcDbEntity
  8
0
  6
Continuous
 62
     7
370
    15
100
AcDbSpline
210
0.0
220
0.0
230
1.0
 70
     8
 71
     3
 72
     8
 73
     4
 74
     0
 42
0.00000001
 43
0.00000001
 12
1.0
 22
0.0
 32
0.0
 13
1.0
 23
0.0
 33
0.0
 40
0.0
 40
0.0
 40
0.0
 40
0.0
 40
1.0
 40
1.0
 40
1.0
 40
1.0
 10
-171.1822605087539
 20
-138.1167144909263
 30
0.0
 10
-173.0102247653961
 20
-138.2340093458504
 30
0.0
 10
-174.8865717653054
 20
-138.3275702259507
 30
0.0
 10
-176.8076193509797
 20
-138.3992033998998
 30
0.0
  0
SPLINE
  5
17A
330
1F
100
AcDbEntity
  8
0
  6
Continuous
 62
     7
370
    15
100
AcDbSpline
210
0.0
220
0.0
230
1.0
 70
     8
 71
     3
 72
    26
 73
    22
 74
     0
 42
0.00000001
 43
0.00000001
 12
1.0
 22
0.0
 32
0.0
 13
1.0
 23
0.0
 33
0.0
 40
0.0
 40
0.0
 40
0.0
 40
0.0
 40
0.0499033627573132
 40
0.1057719535624391
 40
0.1620526838468242
 40
0.2162713985200449
 40
0.2708416133324162
 40
0.3250579813515562
 40
0.3796090496806439
 40
0.4338243465645865
 40
0.4883686302038784
 40
0.5425844011633391
 40
0.5971363475771831
 40
0.6513542224550156
 40
0.7059286359286555
 40
0.759137103026453
 40
0.8127118693447064
 40
0.8588478346559478
 40
0.9052428967229176
 40
0.9524726258265486
 40
1.0
 40
1.0
 40
1.0
 40
1.0
 10
-220.3383760140499
 20
-157.4528285214421
 30
0.0
 10
-220.2022254122516
 20
-157.4241318919342
 30
0.0
 10
-219.9136493657646
 20
-157.3633083642999
 30
0.0
 10
-219.4703085594181
 20
-157.1979104921266
 30
0.0
 10
-219.0189022414796
 20
-156.976664550488
 30
0.0
 10
-218.5779106752355
 20
-156.7027499584372
 30
0.0
 10
-218.152485277367
 20
-156.3835281043335
 30
0.0
 10
-217.739496859499
 20
-156.0169187492381
 30
0.0
 10
-217.3438424761246
 20
-155.6071757719737
 30
0.0
 10
-216.9670262645817
 20
-155.1552031454589
 30
0.0
 10
-216.6136885427628
 20
-154.6655005615673
 30
0.0
 10
-216.2855245945216
 20
-154.1388066473234
 30
0.0
 10
-215.9869925324622
 20
-153.5800895491958
 30
0.0
 10
-215.7200022375088
 20
-152.9900514213839
 30
0.0
 10
-215.4902285218251
 20
-152.3782440807289
 30
0.0
 10
-215.2988943786744
 20
-151.7461716774572
 30
0.0
 10
-215.1554468045464
 20
-151.1293837263557
 30
0.0
 10
-215.0540652553243
 20
-150.5278956259369
 30
0.0
 10
-214.9909781367896
 20
-149.9446817149297
 30
0.0
 10
-214.9597103694936
 20
-149.3507290077591
 30
0.0
 10
-214.9697353394531
 20
-148.9516997664016
 30
0.0
 10
-214.9747635693362
 20
-148.7515584429096
 30
0.0
  0
SPLINE
  5
17B
330
1F
100
AcDbEntity
  8
0
  6
Continuous
 62
     7
370
    15
100
AcDbSpline
210
0.0
220
0.0
230
1.0
 70
     8
 71
     3
 72
    26
 73
    22
 74
     0
 42
0.00000001
 43
0.00000001
 12
1.0
 22
0.0
 32
0.0
 13
1.0
 23
0.0
 33
0.0
 40
0.0
 40
0.0
 40
0.0
 40
0.0
 40
0.0515126595666954
 40
0.103415168357105
 40
0.1547879288074348
 40
0.2065199554330471
 40
0.2593422396583419
 40
0.3125225464272655
 40
0.3650000023309176
 40
0.4178007814630537
 40
0.4702756858739722
 40
0.5230557449075401
 40
0.5755294420885313
 40
0.6283012832839605
 40
0.6807751474191829
 40
0.7335511602575027
 40
0.7872892020135008
 40
0.8413667560797484
 40
0.8948121937373655
 40
0.9486139694545671
 40
1.0
 40
1.0
 40
1.0
 40
1.0
 10
-157.3982618354165
 20
-148.7515584429096
 30
0.0
 10
-157.4033814546184
 20
-148.9685162601025
 30
0.0
 10
-157.4136594384409
 20
-149.4040738372132
 30
0.0
 10
-157.3738755872827
 20
-150.0550845209152
 30
0.0
 10
-157.2949173743588
 20
-150.7002625684214
 30
0.0
 10
-157.1738284494891
 20
-151.3384006966771
 30
0.0
 10
-157.0117968225629
 20
-151.9685576027506
 30
0.0
 10
-156.8109202235871
 20
-152.5821228636285
 30
0.0
 10
-156.5749137566174
 20
-153.1725355001677
 30
0.0
 10
-156.3078229053041
 20
-153.7343012727233
 30
0.0
 10
-156.0108786405746
 20
-154.2681512513722
 30
0.0
 10
-155.6881039764752
 20
-154.7692880123091
 30
0.0
 10
-155.3410886879724
 20
-155.2371210305165
 30
0.0
 10
-154.9739817609682
 20
-155.6674203004845
 30
0.0
 10
-154.5882222136474
 20
-156.0594108914549
 30
0.0
 10
-154.1849045571119
 20
-156.4120721516485
 30
0.0
 10
-153.7649614559853
 20
-156.7231036694178
 30
0.0
 10
-153.3336134682928
 20
-156.9874835326438
 30
0.0
 10
-152.8957657297218
 20
-157.2001403313149
 30
0.0
 10
-152.4618450734178
 20
-157.3622211420821
 30
0.0
 10
-152.1748230328107
 20
-157.4234336202717
 30
0.0
 10
-152.0346078893459
 20
-157.4533369558937
 30
0.0
  0
ELLIPSE
  5
17C
330
1F
100
AcDbEntity
  8
0
  6
Continuous
 62
     7
370
    15
100
AcDbEllipse
 10
-186.1865127024
 20
154.8383390488
 30
0.0
 11
22.22081357004996
 21
858.6803345350559
 31
0.0
210
0.0
220
0.0
230
1.0
 40
0.0455710956
 41
4.352200711949991
 42
4.363341973106219
  0
SPLINE
  5
17D
330
1F
100
AcDbEntity
  8
0
  6
Continuous
 62
     7
370
    15
100
AcDbSpline
210
0.0
220
0.0
230
1.0
 70
     8
 71
     3
 72
    12
 73
     8
 74
     0
 42
0.00000001
 43
0.00000001
 12
1.0
 22
0.0
 32
0.0
 13
1.0
 23
0.0
 33
0.0
 40
0.0
 40
0.0
 40
0.0
 40
0.0
 40
0.2500000000000018
 40
0.2500000000000018
 40
0.5000000000000036
 40
0.5000000000000036
 40
1.0
 40
1.0
 40
1.0
 40
1.0
 10
-157.4127054448983
 20
-138.1167144909263
 30
0.0
 10
-157.3429602864822
 20
-138.2375516497721
 30
0.0
 10
-157.2815281090963
 20
-138.3643124496961
 30
0.0
 10
-157.1758820167372
 20
-138.630103391451
 30
0.0
 10
-157.131815193114
 20
-138.7694533615985
 30
0.0
 10
-157.0306661655146
 20
-139.1916520204995
 30
0.0
 10
-157.002065354126
 20
-139.4861645253332
 30
0.0
 10
-157.0147175573973
 20
-139.7839920332333
 30
0.0
  0
LINE
  5
17E
330
1F
100
AcDbEntity
  8
0
  6
Continuous
 62
     7
370
    15
100
AcDbLine
 10
-157.4127054449
 20
-138.1167144909
 30
0.0
 11
-17.5414244941
 21
-163.7839920332
 31
0.0
  0
LINE
  5
17F
330
1F
100
AcDbEntity
  8
0
  6
Continuous
 62
     7
370
    15
100
AcDbLine
 10
-214.9603199599
 20
-138.1167144909
 30
0.0
 11
-354.8316009106
 21
-163.7839920332
 31
0.0
  0
SPLINE
  5
180
330
1F
100
AcDbEntity
  8
0
  6
Continuous
 62
     7
370
    15
100
AcDbSpline
210
0.0
220
0.0
230
1.0
 70
     8
 71
     3
 72
    10
 73
     6
 74
     0
 42
0.00000001
 43
0.00000001
 12
1.0
 22
0.0
 32
0.0
 13
1.0
 23
0.0
 33
0.0
 40
0.0
 40
0.0
 40
0.0
 40
0.0
 40
0.5
 40
0.5
 40
1.0
 40
1.0
 40
1.0
 40
1.0
 10
-215.3583078473555
 20
-139.7839920332333
 30
0.0
 10
-215.3709715204742
 20
-139.4858945299831
 30
0.0
 10
-215.3430677172261
 20
-139.1948184038171
 30
0.0
 10
-215.2070246707706
 20
-138.6265532189082
 30
0.0
 10
-215.1008376159476
 20
-138.3601687279742
 30
0.0
 10
-214.9603199598546
 20
-138.1167144909263
 30
0.0
  0
ELLIPSE
  5
181
330
1F
100
AcDbEntity
  8
0
  6
Continuous
 62
     7
370
    15
100
AcDbEllipse
 10
-186.1865127024
 20
154.8383390487
 30
0.0
 11
-22.22081357004939
 21
858.6803345349603
 31
0.0
210
0.0
220
0.0
230
1.0
 40
0.0455710956
 41
1.919843334073402
 42
1.930984595229633
  0
SPLINE
  5
182
330
1F
100
AcDbEntity
  8
0
  6
Continuous
 62
     7
370
    15
100
AcDbSpline
210
0.0
220
0.0
230
1.0
 70
     8
 71
     3
 72
    10
 73
     6
 74
     0
 42
0.00000001
 43
0.00000001
 12
1.0
 22
0.0
 32
0.0
 13
1.0
 23
0.0
 33
0.0
 40
0.0
 40
0.0
 40
0.0
 40
0.0
 40
0.5
 40
0.5
 40
1.0
 40
1.0
 40
1.0
 40
1.0
 10
-153.060630757288
 20
-138.3992033998998
 30
0.0
 10
-153.7340262222855
 20
-138.363495272537
 30
0.0
 10
-154.433290630837
 20
-138.3222098229897
 30
0.0
 10
-155.8854951086039
 20
-138.2280664971986
 30
0.0
 10
-156.6376196405633
 20
-138.1752487450219
 30
0.0
 10
-157.4127054448982
 20
-138.1167144909263
 30
0.0
  0
LINE
  5
183
330
1F
100
AcDbEntity
  8
0
  6
Continuous
 62
     7
370
    15
100
AcDbLine
 10
-153.0606307573
 20
-138.3992033999
 30
0.0
 11
-14.728745073
 21
-163.7839920332
 31
0.0
  0
LINE
  5
184
330
1F
100
AcDbEntity
  8
0
  6
Continuous
 62
     7
370
    15
100
AcDbLine
 10
-219.3123946475
 20
-138.3992033999
 30
0.0
 11
-357.6442803317
 21
-163.7839920332
 31
0.0
  0
SPLINE
  5
185
330
1F
100
AcDbEntity
  8
0
  6
Continuous
 62
     7
370
    15
100
AcDbSpline
210
0.0
220
0.0
230
1.0
 70
     8
 71
     3
 72
    10
 73
     6
 74
     0
 42
0.00000001
 43
0.00000001
 12
1.0
 22
0.0
 32
0.0
 13
1.0
 23
0.0
 33
0.0
 40
0.0
 40
0.0
 40
0.0
 40
0.0
 40
0.4999999999999993
 40
0.4999999999999993
 40
1.0
 40
1.0
 40
1.0
 40
1.0
 10
-214.9603199598546
 20
-138.1167144909263
 30
0.0
 10
-215.7345999881864
 20
-138.1751878930529
 30
0.0
 10
-216.4840901956259
 20
-138.2278294625617
 30
0.0
 10
-217.935662397535
 20
-138.3219597673597
 30
0.0
 10
-218.637923647529
 20
-138.3634382401682
 30
0.0
 10
-219.3123946474646
 20
-138.3992033998998
 30
0.0
  0
ELLIPSE
  5
186
330
1F
100
AcDbEntity
  8
0
  6
Continuous
 62
     7
370
    15
100
AcDbEllipse
 10
-186.1865127024
 20
-310.4197939726
 30
0.0
 11
22.22081357004996
 21
858.6803345350578
 31
0.0
210
0.0
220
0.0
230
1.0
 40
0.0455710956
 41
4.913159635074014
 42
4.913618450088141
  0
SPLINE
  5
187
330
1F
100
AcDbEntity
  8
0
  6
Continuous
 62
     7
370
    15
100
AcDbSpline
210
0.0
220
0.0
230
1.0
 70
     8
 71
     3
 72
    10
 73
     6
 74
     0
 42
0.00000001
 43
0.00000001
 12
1.0
 22
0.0
 32
0.0
 13
1.0
 23
0.0
 33
0.0
 40
0.0
 40
0.0
 40
0.0
 40
0.0
 40
0.5
 40
0.5
 40
1.0
 40
1.0
 40
1.0
 40
1.0
 10
-143.6817374058919
 20
-138.3992033998989
 30
0.0
 10
-143.5874366001917
 20
-138.6106988188504
 30
0.0
 10
-143.5147424277965
 20
-138.8394665085055
 30
0.0
 10
-143.4217100362034
 20
-139.3030148496722
 30
0.0
 10
-143.3997079935803
 20
-139.5404806287043
 30
0.0
 10
-143.403744880163
 20
-139.7839920332333
 30
0.0
  0
LINE
  5
188
330
1F
100
AcDbEntity
  8
0
  6
Continuous
 62
     7
370
    15
100
AcDbLine
 10
-143.6817374059
 20
-138.3992033999
 30
0.0
 11
-5.3498517216
 21
-163.7839920332
 31
0.0
  0
LINE
  5
189
330
1F
100
AcDbEntity
  8
0
  6
Continuous
 62
     7
370
    15
100
AcDbLine
 10
-228.6912879989
 20
-138.3992033999
 30
0.0
 11
-367.0231736831
 21
-163.7839920332
 31
0.0
  0
SPLINE
  5
18A
330
1F
100
AcDbEntity
  8
0
  6
Continuous
 62
     7
370
    15
100
AcDbSpline
210
0.0
220
0.0
230
1.0
 70
     8
 71
     3
 72
    10
 73
     6
 74
     0
 42
0.00000001
 43
0.00000001
 12
1.0
 22
0.0
 32
0.0
 13
1.0
 23
0.0
 33
0.0
 40
0.0
 40
0.0
 40
0.0
 40
0.0
 40
0.5
 40
0.5
 40
1.0
 40
1.0
 40
1.0
 40
1.0
 10
-228.9692805245894
 20
-139.7839920332333
 30
0.0
 10
-228.9733106809774
 20
-139.5408866047311
 30
0.0
 10
-228.9513940077471
 20
-139.3031861869316
 30
0.0
 10
-228.8579675970201
 20
-138.8381161334393
 30
0.0
 10
-228.7852997597516
 20
-138.6100505565951
 30
0.0
 10
-228.6912879988608
 20
-138.3992033998998
 30
0.0
  0
ELLIPSE
  5
18B
330
1F
100
AcDbEntity
  8
0
  6
Continuous
 62
     7
370
    15
100
AcDbEllipse
 10
-186.1865127024
 20
-310.4197939725
 30
0.0
 11
-22.22081357004939
 21
858.6803345349449
 31
0.0
210
0.0
220
0.0
230
1.0
 40
0.0455710956
 41
1.369566857091457
 42
1.370025672105584
  0
SPLINE
  5
18C
330
1F
100
AcDbEntity
  8
0
  6
Continuous
 62
     7
370
    15
100
AcDbSpline
210
0.0
220
0.0
230
1.0
 70
     8
 71
     3
 72
    10
 73
     6
 74
     0
 42
0.00000001
 43
0.00000001
 12
1.0
 22
0.0
 32
0.0
 13
1.0
 23
0.0
 33
0.0
 40
0.0
 40
0.0
 40
0.0
 40
0.0
 40
0.5
 40
0.5
 40
1.0
 40
1.0
 40
1.0
 40
1.0
 10
-142.4084532512758
 20
-138.1167144909263
 30
0.0
 10
-142.5456437240263
 20
-138.1752734517456
 30
0.0
 10
-142.7215609014802
 20
-138.2279184642879
 30
0.0
 10
-143.1469715761389
 20
-138.3219726624995
 30
0.0
 10
-143.3971865676082
 20
-138.3634536665474
 30
0.0
 10
-143.6817374058885
 20
-138.3992033998999
 30
0.0
  0
LINE
  5
18D
330
1F
100
AcDbEntity
  8
0
  6
Continuous
 62
     7
370
    15
100
AcDbLine
 10
-142.4084532513
 20
-138.1167144909
 30
0.0
 11
-2.5371723005
 21
-163.7839920332
 31
0.0
  0
LINE
  5
18E
330
1F
100
AcDbEntity
  8
0
  6
Continuous
 62
     7
370
    15
100
AcDbLine
 10
-229.9645721535
 20
-138.1167144909
 30
0.0
 11
-369.8358531042
 21
-163.7839920332
 31
0.0
  0
SPLINE
  5
18F
330
1F
100
AcDbEntity
  8
0
  6
Continuous
 62
     7
370
    15
100
AcDbSpline
210
0.0
220
0.0
230
1.0
 70
     8
 71
     3
 72
     8
 73
     4
 74
     0
 42
0.00000001
 43
0.00000001
 12
1.0
 22
0.0
 32
0.0
 13
1.0
 23
0.0
 33
0.0
 40
0.0
 40
0.0
 40
0.0
 40
0.0
 40
1.0
 40
1.0
 40
1.0
 40
1.0
 10
-228.6912879988609
 20
-138.3992033998998
 30
0.0
 10
-229.2608063742344
 20
-138.3276515809632
 30
0.0
 10
-229.6894555236166
 20
-138.2341464351838
 30
0.0
 10
-229.9645721534766
 20
-138.1167144909263
 30
0.0
  0
LINE
  5
190
330
1F
100
AcDbEntity
  8
0
  6
Continuous
 62
     7
370
    15
100
AcDbLine
 10
-228.1865127024
 20
-136.7839920332
 30
0.0
 11
-144.1865127024
 21
-136.7839920332
 31
0.0
  0
LINE
  5
191
330
1F
100
AcDbEntity
  8
0
  6
Continuous
 62
     8
370
     0
100
AcDbLine
 10
-186.1865127024
 20
-167.0454592615
 30
0.0
 11
63.8134872976
 21
-167.0454592615
 31
0.0
  0
LINE
  5
192
330
1F
100
AcDbEntity
  8
0
  6
Continuous
 62
     8
370
     0
100
AcDbLine
 10
-436.1865127024
 20
-167.0454592615
 30
0.0
 11
-186.1865127024
 21
-167.0454592615
 31
0.0
  0
LINE
  5
193
330
1F
100
AcDbEntity
  8
0
  6
Continuous
 62
     8
370
     0
100
AcDbLine
 10
-186.1865127024
 20
-179.084438762
 30
0.0
 11
62.7602130709
 21
-179.084438762
 31
0.0
  0
LINE
  5
194
330
1F
100
AcDbEntity
  8
0
  6
Continuous
 62
     8
370
     0
100
AcDbLine
 10
-435.1332384757
 20
-179.084438762
 30
0.0
 11
-186.1865127024
 21
-179.084438762
 31
0.0
  0
LINE
  5
195
330
1F
100
AcDbEntity
  8
0
  6
Continuous
 62
     8
370
     0
100
AcDbLine
 10
-191.1406544355
 20
-150.56783193
 30
0.0
 11
-191.1406544355
 21
-163.7839920332
 31
0.0
  0
LINE
  5
196
330
1F
100
AcDbEntity
  8
0
  6
Continuous
 62
     8
370
     0
100
AcDbLine
 10
-181.2323709692
 20
-150.56783193
 30
0.0
 11
-181.2323709692
 21
-163.7839920332
 31
0.0
  0
LINE
  5
197
330
1F
100
AcDbEntity
  8
0
  6
Continuous
 62
     8
370
     0
100
AcDbLine
 10
-195.1351725745
 20
-146.677818391
 30
0.0
 11
-195.1351725745
 21
-163.7839920332
 31
0.0
  0
LINE
  5
198
330
1F
100
AcDbEntity
  8
0
  6
Continuous
 62
     8
370
     0
100
AcDbLine
 10
-177.2378528302
 20
-146.677818391
 30
0.0
 11
-177.2378528302
 21
-163.7839920332
 31
0.0
  0
LINE
  5
199
330
1F
100
AcDbEntity
  8
0
  6
Continuous
 62
     8
370
     0
100
AcDbLine
 10
-170.6277174266
 20
-148.7515584429
 30
0.0
 11
-170.6277174266
 21
-163.7839920332
 31
0.0
  0
LINE
  5
19A
330
1F
100
AcDbEntity
  8
0
  6
Continuous
 62
     8
370
     0
100
AcDbLine
 10
-201.7453079782
 20
-148.7515584429
 30
0.0
 11
-201.7453079782
 21
-163.7839920332
 31
0.0
  0
LINE
  5
19B
330
1F
100
AcDbEntity
  8
0
  6
Continuous
 62
     8
370
     0
100
AcDbLine
 10
-214.9747635693
 20
-148.7515584429
 30
0.0
 11
-296.8925181352
 21
-163.7839920332
 31
0.0
  0
LINE
  5
19C
330
1F
100
AcDbEntity
  8
0
  6
Continuous
 62
     8
370
     0
100
AcDbLine
 10
-157.3982618354
 20
-148.7515584429
 30
0.0
 11
-75.4805072695
 21
-163.7839920332
 31
0.0
  0
LINE
  5
19D
330
1F
100
AcDbEntity
  8
0
  6
Continuous
 62
     8
370
     0
100
AcDbLine
 10
-145.5143625693
 20
-139.7839920332
 30
0.0
 11
-143.4037448802
 21
-139.7839920332
 31
0.0
  0
LINE
  5
19E
330
1F
100
AcDbEntity
  8
0
  6
Continuous
 62
     8
370
     0
100
AcDbLine
 10
-171.0991095482
 20
-139.7839920332
 30
0.0
 11
-157.0147175574
 21
-139.7839920332
 31
0.0
  0
LINE
  5
19F
330
1F
100
AcDbEntity
  8
0
  6
Continuous
 62
     8
370
     0
100
AcDbLine
 10
-195.4958403687
 20
-139.7839920332
 30
0.0
 11
-176.8771850361
 21
-139.7839920332
 31
0.0
  0
LINE
  5
1A0
330
1F
100
AcDbEntity
  8
0
  6
Continuous
 62
     8
370
     0
100
AcDbLine
 10
-215.3583078474
 20
-139.7839920332
 30
0.0
 11
-201.2739158565
 21
-139.7839920332
 31
0.0
  0
LINE
  5
1A1
330
1F
100
AcDbEntity
  8
0
  6
Continuous
 62
     8
370
     0
100
AcDbLine
 10
-228.9692805246
 20
-139.7839920332
 30
0.0
 11
-226.8586628355
 21
-139.7839920332
 31
0.0
  0
LINE
  5
1A2
330
1F
100
AcDbEntity
  8
FORMAT
  6
CENTERX2
 62
     7
370
     0
100
AcDbLine
 10
-186.1865127024
 20
-122.4425617965
 30
0.0
 11
-186.1865127024
 21
-210.2447435969
 31
0.0
  0
ENDSEC
  0
SECTION
  2
OBJECTS
  0
DICTIONARY
  5
C
330
0
100
AcDbDictionary
281
     1
  3
ACAD_GROUP
350
D
  3
ACAD_LAYOUT
350
1A
  3
ACAD_MLINESTYLE
350
17
  3
ACAD_PLOTSETTINGS
350
19
  3
ACAD_PLOTSTYLENAME
350
E
  0
DICTIONARY
  5
D
102
{ACAD_REACTORS
330
C
102
}
330
C
100
AcDbDictionary
281
     1
  0
DICTIONARY
  5
1A
102
{ACAD_REACTORS
330
C
102
}
330
C
100
AcDbDictionary
281
     1
  3
Layout1
350
1E
  3
Layout2
350
26
  3
Model
350
22
  0
DICTIONARY
  5
17
102
{ACAD_REACTORS
330
C
102
}
330
C
100
AcDbDictionary
281
     1
  3
Standard
350
18
  0
DICTIONARY
  5
19
102
{ACAD_REACTORS
330
C
102
}
330
C
100
AcDbDictionary
281
     1
  0
ACDBDICTIONARYWDFLT
  5
E
102
{ACAD_REACTORS
330
C
102
}
330
C
100
AcDbDictionary
281
     1
  3
Normal
350
F
100
AcDbDictionaryWithDefault
340
F
  0
LAYOUT
  5
1E
102
{ACAD_REACTORS
330
1A
102
}
330
1A
100
AcDbPlotSettings
  1

  2
none_device
  4

  6

 40
0.0
 41
0.0
 42
0.0
 43
0.0
 44
0.0
 45
0.0
 46
0.0
 47
0.0
 48
0.0
 49
0.0
140
0.0
141
0.0
142
1.0
143
1.0
 70
   688
 72
     0
 73
     0
 74
     5
  7

 75
    16
147
1.0
148
0.0
149
0.0
100
AcDbLayout
  1
Layout1
 70
     1
 71
     1
 10
0.0
 20
0.0
 11
420.0
 21
297.0
 12
0.0
 22
0.0
 32
0.0
 14
1.0000000000E+20
 24
1.0000000000E+20
 34
1.0000000000E+20
 15
-1.0000000000E+20
 25
-1.0000000000E+20
 35
-1.0000000000E+20
146
0.0
 13
0.0
 23
0.0
 33
0.0
 16
1.0
 26
0.0
 36
0.0
 17
0.0
 27
1.0
 37
0.0
 76
     0
330
1B
  0
LAYOUT
  5
26
102
{ACAD_REACTORS
330
1A
102
}
330
1A
100
AcDbPlotSettings
  1

  2
none_device
  4

  6

 40
0.0
 41
0.0
 42
0.0
 43
0.0
 44
0.0
 45
0.0
 46
0.0
 47
0.0
 48
0.0
 49
0.0
140
0.0
141
0.0
142
1.0
143
1.0
 70
   688
 72
     0
 73
     0
 74
     5
  7

 75
    16
147
1.0
148
0.0
149
0.0
100
AcDbLayout
  1
Layout2
 70
     1
 71
     2
 10
0.0
 20
0.0
 11
0.0
 21
0.0
 12
0.0
 22
0.0
 32
0.0
 14
0.0
 24
0.0
 34
0.0
 15
0.0
 25
0.0
 35
0.0
146
0.0
 13
0.0
 23
0.0
 33
0.0
 16
1.0
 26
0.0
 36
0.0
 17
0.0
 27
1.0
 37
0.0
 76
     0
330
23
  0
LAYOUT
  5
22
102
{ACAD_REACTORS
330
1A
102
}
330
1A
100
AcDbPlotSettings
  1

  2
none_device
  4

  6

 40
0.0
 41
0.0
 42
0.0
 43
0.0
 44
0.0
 45
0.0
 46
0.0
 47
0.0
 48
0.0
 49
0.0
140
0.0
141
0.0
142
1.0
143
1.0
 70
  1712
 72
     0
 73
     0
 74
     0
  7

 75
     0
147
1.0
148
0.0
149
0.0
100
AcDbLayout
  1
Model
 70
     1
 71
     0
 10
0.0
 20
0.0
 11
420.0
 21
297.0
 12
0.0
 22
0.0
 32
0.0
 14
0.0
 24
0.0
 34
0.0
 15
420.0
 25
297.0
 35
0.0
146
0.0
 13
0.0
 23
0.0
 33
0.0
 16
1.0
 26
0.0
 36
0.0
 17
0.0
 27
1.0
 37
0.0
 76
     0
330
1F
331
29
  0
MLINESTYLE
  5
18
102
{ACAD_REACTORS
330
17
102
}
330
17
100
AcDbMlineStyle
  2
Standard
 70
     0
  3

 62
   256
 51
90.0
 52
90.0
 71
     2
 49
0.5
 62
   256
  6
BYLAYER
 49
-0.5
 62
   256
  6
BYLAYER
  0
ACDBPLACEHOLDER
  5
F
102
{ACAD_REACTORS
330
E
102
}
330
E
  0
ENDSEC
  0
EOF
