  0
SECTION
  2
HEADER
  9
$ACADVER
  1
AC1015
  9
$ACADMAINTVER
 70
     6
  9
$DWGCODEPAGE
  3
ANSI_936
  9
$INSBASE
 10
0.0
 20
0.0
 30
0.0
  9
$EXTMIN
 10
0.0
 20
0.0
 30
0.0
  9
$EXTMAX
 10
431.8
 20
279.4
 30
0.0
  9
$LIMMIN
 10
0.0
 20
0.0
  9
$LIMMAX
 10
431.8
 20
279.4
  9
$ORTHOMODE
 70
     0
  9
$REGENMODE
 70
     1
  9
$FILLMODE
 70
     1
  9
$QTEXTMODE
 70
     0
  9
$MIRRTEXT
 70
     1
  9
$LTSCALE
 40
1.0
  9
$ATTMODE
 70
     1
  9
$TEXTSIZE
 40
2.5
  9
$TRACEWID
 40
1.0
  9
$TEXTSTYLE
  7
Standard
  9
$CLAYER
  8
0
  9
$CELTYPE
  6
ByLayer
  9
$CECOLOR
 62
   256
  9
$CELTSCALE
 40
1.0
  9
$DISPSILH
 70
     0
  9
$DIMSCALE
 40
1.0
  9
$DIMASZ
 40
2.5
  9
$DIMEXO
 40
1.0
  9
$DIMDLI
 40
3.75
  9
$DIMRND
 40
0.0
  9
$DIMDLE
 40
0.0
  9
$DIMEXE
 40
1.0
  9
$DIMTP
 40
0.0
  9
$DIMTM
 40
0.0
  9
$DIMTXT
 40
2.5
  9
$DIMCEN
 40
2.5
  9
$DIMTSZ
 40
0.0
  9
$DIMTOL
 70
     0
  9
$DIMLIM
 70
     0
  9
$DIMTIH
 70
     1
  9
$DIMTOH
 70
     1
  9
$DIMSE1
 70
     0
  9
$DIMSE2
 70
     0
  9
$DIMTAD
 70
     1
  9
$DIMZIN
 70
     0
  9
$DIMBLK
  1

  9
$DIMASO
 70
     1
  9
$DIMSHO
 70
     1
  9
$DIMPOST
  1

  9
$DIMAPOST
  1

  9
$DIMALT
 70
     0
  9
$DIMALTD
 70
     3
  9
$DIMALTF
 40
0.0393700787
  9
$DIMLFAC
 40
1.0
  9
$DIMTOFL
 70
     1
  9
$DIMTVP
 40
0.0
  9
$DIMTIX
 70
     0
  9
$DIMSOXD
 70
     0
  9
$DIMSAH
 70
     0
  9
$DIMBLK1
  1

  9
$DIMBLK2
  1

  9
$DIMSTYLE
  2
ISO-25
  9
$DIMCLRD
 70
     0
  9
$DIMCLRE
 70
     0
  9
$DIMCLRT
 70
     0
  9
$DIMTFAC
 40
1.0
  9
$DIMGAP
 40
1.524
  9
$DIMJUST
 70
     0
  9
$DIMSD1
 70
     0
  9
$DIMSD2
 70
     0
  9
$DIMTOLJ
 70
     0
  9
$DIMTZIN
 70
     0
  9
$DIMALTZ
 70
     0
  9
$DIMALTTZ
 70
     0
  9
$DIMUPT
 70
     0
  9
$DIMDEC
 70
     2
  9
$DIMTDEC
 70
     2
  9
$DIMALTU
 70
     2
  9
$DIMALTTD
 70
     3
  9
$DIMTXSTY
  7
Standard
  9
$DIMAUNIT
 70
     0
  9
$DIMADEC
 70
     2
  9
$DIMALTRND
 40
0.0
  9
$DIMAZIN
 70
     0
  9
$DIMDSEP
 70
    44
  9
$DIMATFIT
 70
     3
  9
$DIMFRAC
 70
     0
  9
$DIMLDRBLK
  1

  9
$DIMLUNIT
 70
     2
  9
$DIMLWD
 70
    -2
  9
$DIMLWE
 70
    -2
  9
$DIMTMOVE
 70
     0
  9
$LUNITS
 70
     2
  9
$LUPREC
 70
     2
  9
$SKETCHINC
 40
1.0
  9
$FILLETRAD
 40
10.0
  9
$AUNITS
 70
     0
  9
$AUPREC
 70
     2
  9
$MENU
  1
.
  9
$ELEVATION
 40
0.0
  9
$PELEVATION
 40
0.0
  9
$THICKNESS
 40
0.0
  9
$LIMCHECK
 70
     0
  9
$CHAMFERA
 40
10.0
  9
$CHAMFERB
 40
10.0
  9
$CHAMFERC
 40
20.0
  9
$CHAMFERD
 40
0.0
  9
$SKPOLY
 70
     0
  9
$TDCREATE
 40
2457193.372869607
  9
$TDUCREATE
 40
2457193.039536273
  9
$TDUPDATE
 40
2457193.37287015
  9
$TDUUPDATE
 40
2457193.039536817
  9
$TDINDWG
 40
0.0000000116
  9
$TDUSRTIMER
 40
0.0000000116
  9
$USRTIMER
 70
     1
  9
$ANGBASE
 50
0.0
  9
$ANGDIR
 70
     0
  9
$PDMODE
 70
     0
  9
$PDSIZE
 40
-1.0
  9
$PLINEWID
 40
0.0
  9
$SPLFRAME
 70
     0
  9
$SPLINETYPE
 70
     6
  9
$SPLINESEGS
 70
     8
  9
$HANDSEED
  5
3EA
  9
$SURFTAB1
 70
     6
  9
$SURFTAB2
 70
     6
  9
$SURFTYPE
 70
     6
  9
$SURFU
 70
     6
  9
$SURFV
 70
     6
  9
$UCSBASE
  2

  9
$UCSNAME
  2

  9
$UCSORG
 10
0.0
 20
0.0
 30
0.0
  9
$UCSXDIR
 10
1.0
 20
0.0
 30
0.0
  9
$UCSYDIR
 10
0.0
 20
1.0
 30
0.0
  9
$UCSORTHOREF
  2

  9
$UCSORTHOVIEW
 70
     0
  9
$UCSORGTOP
 10
0.0
 20
0.0
 30
0.0
  9
$UCSORGBOTTOM
 10
0.0
 20
0.0
 30
0.0
  9
$UCSORGLEFT
 10
0.0
 20
0.0
 30
0.0
  9
$UCSORGRIGHT
 10
0.0
 20
0.0
 30
0.0
  9
$UCSORGFRONT
 10
0.0
 20
0.0
 30
0.0
  9
$UCSORGBACK
 10
0.0
 20
0.0
 30
0.0
  9
$PUCSBASE
  2

  9
$PUCSNAME
  2

  9
$PUCSORG
 10
0.0
 20
0.0
 30
0.0
  9
$PUCSXDIR
 10
1.0
 20
0.0
 30
0.0
  9
$PUCSYDIR
 10
0.0
 20
1.0
 30
0.0
  9
$PUCSORTHOREF
  2

  9
$PUCSORTHOVIEW
 70
     0
  9
$PUCSORGTOP
 10
0.0
 20
0.0
 30
0.0
  9
$PUCSORGBOTTOM
 10
0.0
 20
0.0
 30
0.0
  9
$PUCSORGLEFT
 10
0.0
 20
0.0
 30
0.0
  9
$PUCSORGRIGHT
 10
0.0
 20
0.0
 30
0.0
  9
$PUCSORGFRONT
 10
0.0
 20
0.0
 30
0.0
  9
$PUCSORGBACK
 10
0.0
 20
0.0
 30
0.0
  9
$USERI1
 70
     0
  9
$USERI2
 70
     0
  9
$USERI3
 70
     0
  9
$USERI4
 70
     0
  9
$USERI5
 70
     0
  9
$USERR1
 40
0.0
  9
$USERR2
 40
0.0
  9
$USERR3
 40
0.0
  9
$USERR4
 40
0.0
  9
$USERR5
 40
0.0
  9
$WORLDVIEW
 70
     1
  9
$SHADEDGE
 70
     3
  9
$SHADEDIF
 70
    70
  9
$TILEMODE
 70
     1
  9
$MAXACTVP
 70
    64
  9
$PINSBASE
 10
0.0
 20
0.0
 30
0.0
  9
$PLIMCHECK
 70
     0
  9
$PEXTMIN
 10
1.0000000000E+20
 20
1.0000000000E+20
 30
1.0000000000E+20
  9
$PEXTMAX
 10
-1.0000000000E+20
 20
-1.0000000000E+20
 30
-1.0000000000E+20
  9
$PLIMMIN
 10
0.0
 20
0.0
  9
$PLIMMAX
 10
420.0
 20
297.0
  9
$UNITMODE
 70
     0
  9
$VISRETAIN
 70
     1
  9
$PLINEGEN
 70
     0
  9
$PSLTSCALE
 70
     1
  9
$TREEDEPTH
 70
  3020
  9
$CMLSTYLE
  2
Standard
  9
$CMLJUST
 70
     0
  9
$CMLSCALE
 40
20.0
  9
$PROXYGRAPHICS
 70
     1
  9
$MEASUREMENT
 70
     1
  9
$CELWEIGHT
370
    -1
  9
$ENDCAPS
280
     0
  9
$JOINSTYLE
280
     0
  9
$LWDISPLAY
290
     1
  9
$INSUNITS
 70
     4
  9
$HYPERLINKBASE
  1

  9
$STYLESHEET
  1

  9
$XEDIT
290
     1
  9
$CEPSNTYPE
380
     0
  9
$PSTYLEMODE
290
     1
  9
$FINGERPRINTGUID
  2
{A145E573-AFE3-4E6B-B432-EF0ECF5E15FC}
  9
$VERSIONGUID
  2
{FAEB1C32-E019-11D5-929B-00C0DF256EC4}
  9
$EXTNAMES
290
     1
  9
$PSVPSCALE
 40
0.0
  9
$OLESTARTUP
290
     0
  0
ENDSEC
  0
SECTION
  2
CLASSES
  0
CLASS
  1
ACDBDICTIONARYWDFLT
  2
AcDbDictionaryWithDefault
  3
ObjectDBX Classes
 90
        0
280
     0
281
     0
  0
CLASS
  1
VISUALSTYLE
  2
AcDbVisualStyle
  3
ObjectDBX Classes
 90
     4095
280
     0
281
     0
  0
CLASS
  1
MATERIAL
  2
AcDbMaterial
  3
ObjectDBX Classes
 90
     1153
280
     0
281
     0
  0
CLASS
  1
ACDBPLACEHOLDER
  2
AcDbPlaceHolder
  3
ObjectDBX Classes
 90
        0
280
     0
281
     0
  0
CLASS
  1
LAYOUT
  2
AcDbLayout
  3
ObjectDBX Classes
 90
        0
280
     0
281
     0
  0
ENDSEC
  0
SECTION
  2
TABLES
  0
TABLE
  2
VPORT
  5
8
330
0
100
AcDbSymbolTable
 70
     1
  0
VPORT
  5
29
330
8
100
AcDbSymbolTableRecord
100
AcDbViewportTableRecord
  2
*Active
 70
     0
 10
0.0
 20
0.0
 11
1.0
 21
1.0
 12
215.9
 22
139.7
 13
0.0
 23
0.0
 14
10.0
 24
10.0
 15
10.0
 25
10.0
 16
0.0
 26
0.0
 36
1.0
 17
0.0
 27
0.0
 37
0.0
 40
279.4
 41
1.5454545455
 42
50.0
 43
0.0
 44
0.0
 50
0.0
 51
0.0
 71
     0
 72
  2000
 73
     1
 74
     3
 75
     0
 76
     0
 77
     0
 78
     0
281
     0
 65
     1
110
0.0
120
0.0
130
0.0
111
1.0
121
0.0
131
0.0
112
0.0
122
1.0
132
0.0
 79
     0
146
0.0
  0
ENDTAB
  0
TABLE
  2
LTYPE
  5
5
330
0
100
AcDbSymbolTable
 70
     6
  0
LTYPE
  5
14
330
5
100
AcDbSymbolTableRecord
100
AcDbLinetypeTableRecord
  2
ByBlock
 70
     0
  3

 72
    65
 73
     0
 40
0.0
  0
LTYPE
  5
15
330
5
100
AcDbSymbolTableRecord
100
AcDbLinetypeTableRecord
  2
ByLayer
 70
     0
  3

 72
    65
 73
     0
 40
0.0
  0
LTYPE
  5
16
330
5
100
AcDbSymbolTableRecord
100
AcDbLinetypeTableRecord
  2
Continuous
 70
     0
  3
Solid line
 72
    65
 73
     0
 40
0.0
  0
LTYPE
  5
3F
330
5
100
AcDbSymbolTableRecord
100
AcDbLinetypeTableRecord
  2
HIDDEN
 70
     0
  3
Hidden __ __ __ __ __ __ __ __ __ __ __ __ __ __
 72
    65
 73
     2
 40
1.905
 49
1.27
 74
     0
 49
-0.635
 74
     0
  0
LTYPE
  5
40
330
5
100
AcDbSymbolTableRecord
100
AcDbLinetypeTableRecord
  2
PHANTOM
 70
     0
  3
Phantom ______  __  __  ______  __  __  ______
 72
    65
 73
     6
 40
12.7
 49
6.35
 74
     0
 49
-1.27
 74
     0
 49
1.27
 74
     0
 49
-1.27
 74
     0
 49
1.27
 74
     0
 49
-1.27
 74
     0
  0
LTYPE
  5
41
330
5
100
AcDbSymbolTableRecord
100
AcDbLinetypeTableRecord
  2
CENTER
 70
     0
  3
Center ____ _ ____ _ ____ _ ____ _ ____ _ ____
 72
    65
 73
     4
 40
10.16
 49
6.35
 74
     0
 49
-1.27
 74
     0
 49
1.27
 74
     0
 49
-1.27
 74
     0
  0
LTYPE
  5
42
330
5
100
AcDbSymbolTableRecord
100
AcDbLinetypeTableRecord
  2
CENTERX2
 70
     0
  3
Center (2x) ________  __  ________  __  _____
 72
    65
 73
     4
 40
20.32
 49
12.7
 74
     0
 49
-2.54
 74
     0
 49
2.54
 74
     0
 49
-2.54
 74
     0
  0
LTYPE
  5
43
330
5
100
AcDbSymbolTableRecord
100
AcDbLinetypeTableRecord
  2
DOT2
 70
     0
  3
Dot (.5x) ........................................
 72
    65
 73
     2
 40
0.635
 49
0.0
 74
     0
 49
-0.635
 74
     0
  0
ENDTAB
  0
TABLE
  2
LAYER
  5
2
330
0
100
AcDbSymbolTable
 70
     3
  0
LAYER
  5
10
330
2
100
AcDbSymbolTableRecord
100
AcDbLayerTableRecord
  2
0
 70
     0
 62
     7
  6
Continuous
370
    -3
390
F
  0
LAYER
  5
44
330
2
100
AcDbSymbolTableRecord
100
AcDbLayerTableRecord
  2
FORMAT
 70
     0
 62
     7
  6
Continuous
370
    -3
390
F
  0
LAYER
  5
45
330
2
100
AcDbSymbolTableRecord
100
AcDbLayerTableRecord
  2
PROTOTYPE
 70
     0
 62
    -7
  6
Continuous
370
    -3
390
F
  0
ENDTAB
  0
TABLE
  2
STYLE
  5
3
330
0
100
AcDbSymbolTable
 70
     2
  0
STYLE
  5
11
330
3
100
AcDbSymbolTableRecord
100
AcDbTextStyleTableRecord
  2
Standard
 70
     0
 40
0.0
 41
1.0
 50
0.0
 71
     0
 42
2.5
  3
txt
  4

  0
STYLE
  5
46
330
3
100
AcDbSymbolTableRecord
100
AcDbTextStyleTableRecord
  2
SLDTEXTSTYLE0
 70
     0
 40
0.0
 41
0.75
 50
0.0
 71
     0
 42
0.2
  3
TXT
  4

  0
ENDTAB
  0
TABLE
  2
VIEW
  5
6
330
0
100
AcDbSymbolTable
 70
     0
  0
ENDTAB
  0
TABLE
  2
UCS
  5
7
330
0
100
AcDbSymbolTable
 70
     0
  0
ENDTAB
  0
TABLE
  2
APPID
  5
9
330
0
100
AcDbSymbolTable
 70
     1
  0
APPID
  5
12
330
9
100
AcDbSymbolTableRecord
100
AcDbRegAppTableRecord
  2
ACAD
 70
     0
  0
ENDTAB
  0
TABLE
  2
DIMSTYLE
  5
A
330
0
100
AcDbSymbolTable
 70
     1
100
AcDbDimStyleTable
  0
DIMSTYLE
105
27
330
A
100
AcDbSymbolTableRecord
100
AcDbDimStyleTableRecord
  2
ISO-25
 70
     0
 41
2.5
 42
0.625
 43
3.75
 44
1.25
 73
     0
 74
     0
 77
     1
 78
     8
140
2.5
141
2.5
143
0.0393700787
147
0.625
171
     3
172
     1
178
     0
271
     2
272
     2
274
     3
278
    44
283
     0
284
     8
340
11
  0
ENDTAB
  0
TABLE
  2
BLOCK_RECORD
  5
1
330
0
100
AcDbSymbolTable
 70
     2
  0
BLOCK_RECORD
  5
1F
330
1
100
AcDbSymbolTableRecord
100
AcDbBlockTableRecord
  2
*Model_Space
340
22
  0
BLOCK_RECORD
  5
1B
330
1
100
AcDbSymbolTableRecord
100
AcDbBlockTableRecord
  2
*Paper_Space
340
1E
  0
BLOCK_RECORD
  5
23
330
1
100
AcDbSymbolTableRecord
100
AcDbBlockTableRecord
  2
*Paper_Space0
340
26
  0
BLOCK_RECORD
  5
2A8
330
1
100
AcDbSymbolTableRecord
100
AcDbBlockTableRecord
  2
SW_CENTERMARKSYMBOL_0
340
0
102
{BLKREFS
331
2B3
102
}
  0
ENDTAB
  0
ENDSEC
  0
SECTION
  2
BLOCKS
  0
BLOCK
  5
20
330
1F
100
AcDbEntity
  8
0
100
AcDbBlockBegin
  2
*Model_Space
 70
     0
 10
0.0
 20
0.0
 30
0.0
  3
*Model_Space
  1

  0
ENDBLK
  5
21
330
1F
100
AcDbEntity
  8
0
100
AcDbBlockEnd
  0
BLOCK
  5
1C
330
1B
100
AcDbEntity
 67
     1
  8
0
100
AcDbBlockBegin
  2
*Paper_Space
 70
     0
 10
0.0
 20
0.0
 30
0.0
  3
*Paper_Space
  1

  0
ENDBLK
  5
1D
330
1B
100
AcDbEntity
 67
     1
  8
0
100
AcDbBlockEnd
  0
BLOCK
  5
24
330
23
100
AcDbEntity
  8
0
100
AcDbBlockBegin
  2
*Paper_Space0
 70
     0
 10
0.0
 20
0.0
 30
0.0
  3
*Paper_Space0
  1

  0
ENDBLK
  5
25
330
23
100
AcDbEntity
  8
0
100
AcDbBlockEnd
  0
BLOCK
  5
2A9
330
2A8
100
AcDbEntity
  8
0
100
AcDbBlockBegin
  2
SW_CENTERMARKSYMBOL_0
 70
     0
 10
0.0
 20
0.0
 30
0.0
  3
SW_CENTERMARKSYMBOL_0
  1

  0
LINE
  5
2AB
330
2A8
100
AcDbEntity
  8
0
  6
Continuous
 62
     0
370
     0
100
AcDbLine
 10
0.0
 20
0.0
 30
0.0
 11
0.0
 21
2.5
 31
0.0
  0
LINE
  5
2AC
330
2A8
100
AcDbEntity
  8
0
  6
Continuous
 62
     0
370
     0
100
AcDbLine
 10
0.0
 20
0.0
 30
0.0
 11
-2.5
 21
0.0
 31
0.0
  0
LINE
  5
2AD
330
2A8
100
AcDbEntity
  8
0
  6
Continuous
 62
     0
370
     0
100
AcDbLine
 10
0.0
 20
0.0
 30
0.0
 11
0.0
 21
-2.5
 31
0.0
  0
LINE
  5
2AE
330
2A8
100
AcDbEntity
  8
0
  6
Continuous
 62
     0
370
     0
100
AcDbLine
 10
0.0
 20
0.0
 30
0.0
 11
2.5
 21
0.0
 31
0.0
  0
LINE
  5
2AF
330
2A8
100
AcDbEntity
  8
0
  6
Continuous
 62
     0
370
     0
100
AcDbLine
 10
0.0
 20
5.0
 30
0.0
 11
0.0
 21
85.0
 31
0.0
  0
LINE
  5
2B0
330
2A8
100
AcDbEntity
  8
0
  6
Continuous
 62
     0
370
     0
100
AcDbLine
 10
-5.0
 20
0.0
 30
0.0
 11
-85.0
 21
0.0
 31
0.0
  0
LINE
  5
2B1
330
2A8
100
AcDbEntity
  8
0
  6
Continuous
 62
     0
370
     0
100
AcDbLine
 10
0.0
 20
-5.0
 30
0.0
 11
0.0
 21
-85.0
 31
0.0
  0
LINE
  5
2B2
330
2A8
100
AcDbEntity
  8
0
  6
Continuous
 62
     0
370
     0
100
AcDbLine
 10
5.0
 20
0.0
 30
0.0
 11
85.0
 21
0.0
 31
0.0
  0
ENDBLK
  5
2AA
330
2A8
100
AcDbEntity
  8
0
100
AcDbBlockEnd
  0
ENDSEC
  0
SECTION
  2
ENTITIES
  0
MTEXT
  5
47
330
1F
100
AcDbEntity
  8
PROTOTYPE
100
AcDbMText
 10
21.9960649267
 20
83.9475080305
 30
0.0
 40
3.5
 41
0.0
 71
     1
 72
     1
  1
Prototype:
  7
SLDTEXTSTYLE0
 11
0.7071067811865464
 21
0.7071067811865488
 31
0.0
 73
     1
 44
1.0
  0
LINE
  5
48
330
1F
100
AcDbEntity
  8
0
  6
Continuous
 62
     7
370
    15
100
AcDbLine
 10
54.9547120912
 20
144.6705801043
 30
0.0
 11
59.9547110481
 21
144.6705801043
 31
0.0
  0
LINE
  5
49
330
1F
100
AcDbEntity
  8
0
  6
Continuous
 62
     7
370
    15
100
AcDbLine
 10
59.9547110481
 20
309.6705866608
 30
0.0
 11
54.9547120912
 21
309.6705866608
 31
0.0
  0
LINE
  5
4A
330
1F
100
AcDbEntity
  8
0
  6
Continuous
 62
     7
370
    15
100
AcDbLine
 10
61.3500688208
 20
171.29558377
 30
0.0
 11
62.0297480358
 21
184.2646231505
 31
0.0
  0
LINE
  5
4B
330
1F
100
AcDbEntity
  8
0
  6
Continuous
 62
     7
370
    15
100
AcDbLine
 10
59.9547110481
 20
144.6705801043
 30
0.0
 11
60.6556616707
 21
158.045504764
 31
0.0
  0
LINE
  5
4C
330
1F
100
AcDbEntity
  8
0
  6
Continuous
 62
     7
370
    15
100
AcDbLine
 10
60.6556616707
 20
296.2956620011
 30
0.0
 11
59.9547110481
 21
309.6705866608
 31
0.0
  0
LINE
  5
4D
330
1F
100
AcDbEntity
  8
0
  6
Continuous
 62
     7
370
    15
100
AcDbLine
 10
62.0297480358
 20
270.0765436146
 30
0.0
 11
61.3500688208
 21
283.0455829951
 31
0.0
  0
LINE
  5
4E
330
1F
100
AcDbEntity
  8
0
  6
Continuous
 62
     7
370
    15
100
AcDbLine
 10
54.9547120912
 20
222.7470689084
 30
0.0
 11
44.954711849
 21
222.2229913439
 31
0.0
  0
LINE
  5
4F
330
1F
100
AcDbEntity
  8
0
  6
Continuous
 62
     7
370
    15
100
AcDbLine
 10
44.954711849
 20
232.1181754212
 30
0.0
 11
54.9547120912
 21
231.5940978567
 31
0.0
  0
ARC
  5
50
330
1F
100
AcDbEntity
  8
0
  6
Continuous
 62
     7
370
    15
100
AcDbCircle
 10
70.3302120253
 20
227.1705833825
 30
0.0
 40
22.67267151925521
100
AcDbArc
 50
167.83116174
 51
192.16883826
  0
LINE
  5
51
330
1F
100
AcDbEntity
  8
0
  6
Continuous
 62
     7
370
    15
100
AcDbLine
 10
168.0475350452
 20
215.1705832782
 30
0.0
 11
170.5475475622
 21
215.1705832782
 31
0.0
  0
LINE
  5
52
330
1F
100
AcDbEntity
  8
0
  6
Continuous
 62
     7
370
    15
100
AcDbLine
 10
170.5475475622
 20
239.1705834868
 30
0.0
 11
168.0475350452
 21
239.1705834868
 31
0.0
  0
LINE
  5
53
330
1F
100
AcDbEntity
  8
0
  6
Continuous
 62
     7
370
    15
100
AcDbLine
 10
187.4575342966
 20
219.1705830026
 30
0.0
 11
187.9575427605
 21
219.1705830026
 31
0.0
  0
LINE
  5
54
330
1F
100
AcDbEntity
  8
0
  6
Continuous
 62
     7
370
    15
100
AcDbLine
 10
187.9575427605
 20
235.1705837625
 30
0.0
 11
187.4575342966
 21
235.1705837625
 31
0.0
  0
LINE
  5
55
330
1F
100
AcDbEntity
  8
0
  6
Continuous
 62
     7
370
    15
100
AcDbLine
 10
187.9575427605
 20
220.6705832484
 30
0.0
 11
199.4575437141
 21
220.6705832484
 31
0.0
  0
LINE
  5
56
330
1F
100
AcDbEntity
  8
0
  6
Continuous
 62
     7
370
    15
100
AcDbLine
 10
199.4575437141
 20
233.6705835166
 30
0.0
 11
187.9575427605
 21
233.6705835166
 31
0.0
  0
LINE
  5
57
330
1F
100
AcDbEntity
  8
0
  6
Continuous
 62
     7
370
    15
100
AcDbLine
 10
63.2575403882
 20
221.1705833304
 30
0.0
 11
163.0475398136
 21
221.1705833304
 31
0.0
  0
LINE
  5
58
330
1F
100
AcDbEntity
  8
0
  6
Continuous
 62
     7
370
    15
100
AcDbLine
 10
163.0475398136
 20
233.1705834347
 30
0.0
 11
63.2575403882
 21
233.1705834347
 31
0.0
  0
LINE
  5
59
330
1F
100
AcDbEntity
  8
0
  6
Continuous
 62
     7
370
    15
100
AcDbLine
 10
180.5475380255
 20
221.1705833304
 30
0.0
 11
187.4575342966
 21
221.1705833304
 31
0.0
  0
LINE
  5
5A
330
1F
100
AcDbEntity
  8
0
  6
Continuous
 62
     7
370
    15
100
AcDbLine
 10
187.4575342966
 20
233.1705834347
 30
0.0
 11
180.5475380255
 21
233.1705834347
 31
0.0
  0
LINE
  5
5B
330
1F
100
AcDbEntity
  8
0
  6
Continuous
 62
     7
370
    15
100
AcDbLine
 10
47.9547118751
 20
291.3647560033
 30
0.0
 11
43.9547116851
 21
291.3647560033
 31
0.0
  0
LINE
  5
5C
330
1F
100
AcDbEntity
  8
0
  6
Continuous
 62
     7
370
    15
100
AcDbLine
 10
43.9547116851
 20
162.9764107618
 30
0.0
 11
47.9547118751
 21
162.9764107618
 31
0.0
  0
LINE
  5
5D
330
1F
100
AcDbEntity
  8
0
  6
Continuous
 62
     7
370
    15
100
AcDbLine
 10
138.954709096
 20
273.9514303955
 30
0.0
 11
136.6575013829
 21
271.1705831441
 31
0.0
  0
LINE
  5
5E
330
1F
100
AcDbEntity
  8
0
  6
Continuous
 62
     7
370
    15
100
AcDbLine
 10
136.6575013829
 20
183.170583621
 30
0.0
 11
138.954709096
 21
180.3897363695
 31
0.0
  0
ARC
  5
5F
330
1F
100
AcDbEntity
  8
0
  6
Continuous
 62
     7
370
    15
100
AcDbCircle
 10
136.1156120279
 20
186.1705833825
 30
0.0
 40
3.000000000000041
100
AcDbArc
 50
220.0
 51
270.0
  0
ARC
  5
60
330
1F
100
AcDbEntity
  8
0
  6
Continuous
 62
     7
370
    15
100
AcDbCircle
 10
136.1156120279
 20
268.1705833825
 30
0.0
 40
3.000000000000023
100
AcDbArc
 50
90.0
 51
140.0
  0
LINE
  5
61
330
1F
100
AcDbEntity
  8
0
  6
Continuous
 62
     7
370
    15
100
AcDbLine
 10
136.1156132055
 20
183.170583621
 30
0.0
 11
136.6575013829
 21
183.170583621
 31
0.0
  0
LINE
  5
62
330
1F
100
AcDbEntity
  8
0
  6
Continuous
 62
     7
370
    15
100
AcDbLine
 10
136.6575013829
 20
271.1705831441
 30
0.0
 11
136.1156132055
 21
271.1705831441
 31
0.0
  0
LINE
  5
63
330
1F
100
AcDbEntity
  8
0
  6
Continuous
 62
     7
370
    15
100
AcDbLine
 10
133.8174816204
 20
270.0989475104
 30
0.0
 11
131.4585756494
 21
267.287713066
 31
0.0
  0
LINE
  5
64
330
1F
100
AcDbEntity
  8
0
  6
Continuous
 62
     7
370
    15
100
AcDbLine
 10
131.4585756494
 20
187.053453699
 30
0.0
 11
133.8174816204
 21
184.2422192547
 31
0.0
  0
LINE
  5
65
330
1F
100
AcDbEntity
  8
0
  6
Continuous
 62
     7
370
    15
100
AcDbLine
 10
62.0297480358
 20
184.2646231505
 30
0.0
 11
127.2795673443
 21
188.8273363563
 31
0.0
  0
LINE
  5
66
330
1F
100
AcDbEntity
  8
0
  6
Continuous
 62
     7
370
    15
100
AcDbLine
 10
127.2795673443
 20
265.5138304087
 30
0.0
 11
62.0297480358
 21
270.0765436146
 31
0.0
  0
ARC
  5
67
330
1F
100
AcDbEntity
  8
0
  6
Continuous
 62
     7
370
    15
100
AcDbCircle
 10
127.6283515835
 20
183.8395158935
 30
0.0
 40
5.000000000000005
100
AcDbArc
 50
40.0
 51
94.0
  0
ARC
  5
68
330
1F
100
AcDbEntity
  8
0
  6
Continuous
 62
     7
370
    15
100
AcDbCircle
 10
127.6283515835
 20
270.5016508715
 30
0.0
 40
5.000000000000005
100
AcDbArc
 50
266.0
 51
320.0
  0
ARC
  5
69
330
1F
100
AcDbEntity
  8
0
  6
Continuous
 62
     7
370
    15
100
AcDbCircle
 10
169.0475405061
 20
263.1705833825
 30
0.0
 40
2.0
100
AcDbArc
 50
0.0
 51
90.0
  0
ARC
  5
6A
330
1F
100
AcDbEntity
  8
0
  6
Continuous
 62
     7
370
    15
100
AcDbCircle
 10
169.0475405061
 20
191.1705833825
 30
0.0
 40
2.0
100
AcDbArc
 50
270.0
 51
0.0
  0
LINE
  5
6B
330
1F
100
AcDbEntity
  8
0
  6
Continuous
 62
     7
370
    15
100
AcDbLine
 10
169.0475370718
 20
265.1705821606
 30
0.0
 11
168.0475350452
 21
265.1705821606
 31
0.0
  0
LINE
  5
6C
330
1F
100
AcDbEntity
  8
0
  6
Continuous
 62
     7
370
    15
100
AcDbLine
 10
168.0475350452
 20
189.1705846044
 30
0.0
 11
169.0475370718
 21
189.1705846044
 31
0.0
  0
ARC
  5
6D
330
1F
100
AcDbEntity
  8
0
  6
Continuous
 62
     7
370
    15
100
AcDbCircle
 10
70.3302120253
 20
164.6705833825
 30
0.0
 40
22.67267151925521
100
AcDbArc
 50
184.2853163187
 51
189.28677898
  0
ARC
  5
6E
330
1F
100
AcDbEntity
  8
0
  6
Continuous
 62
     7
370
    15
100
AcDbCircle
 10
70.3302120253
 20
289.6705833825
 30
0.0
 40
22.67267151925521
100
AcDbArc
 50
170.71322102
 51
175.7146836813
  0
LINE
  5
6F
330
1F
100
AcDbEntity
  8
0
  6
Continuous
 62
     7
370
    15
100
AcDbLine
 10
168.0475350452
 20
152.6705814156
 30
0.0
 11
170.5475475622
 21
152.6705814156
 31
0.0
  0
LINE
  5
70
330
1F
100
AcDbEntity
  8
0
  6
Continuous
 62
     7
370
    15
100
AcDbLine
 10
170.5475475622
 20
176.6705816242
 30
0.0
 11
168.0475350452
 21
176.6705816242
 31
0.0
  0
LINE
  5
71
330
1F
100
AcDbEntity
  8
0
  6
Continuous
 62
     7
370
    15
100
AcDbLine
 10
168.0475350452
 20
277.6705851409
 30
0.0
 11
170.5475475622
 21
277.6705851409
 31
0.0
  0
LINE
  5
72
330
1F
100
AcDbEntity
  8
0
  6
Continuous
 62
     7
370
    15
100
AcDbLine
 10
170.5475475622
 20
301.6705853495
 30
0.0
 11
168.0475350452
 21
301.6705853495
 31
0.0
  0
LINE
  5
73
330
1F
100
AcDbEntity
  8
0
  6
Continuous
 62
     7
370
    15
100
AcDbLine
 10
187.4575342966
 20
156.6705820712
 30
0.0
 11
187.9575427605
 21
156.6705820712
 31
0.0
  0
LINE
  5
74
330
1F
100
AcDbEntity
  8
0
  6
Continuous
 62
     7
370
    15
100
AcDbLine
 10
187.9575427605
 20
172.6705846938
 30
0.0
 11
187.4575342966
 21
172.6705846938
 31
0.0
  0
LINE
  5
75
330
1F
100
AcDbEntity
  8
0
  6
Continuous
 62
     7
370
    15
100
AcDbLine
 10
187.4575342966
 20
281.6705820712
 30
0.0
 11
187.9575427605
 21
281.6705820712
 31
0.0
  0
LINE
  5
76
330
1F
100
AcDbEntity
  8
0
  6
Continuous
 62
     7
370
    15
100
AcDbLine
 10
187.9575427605
 20
297.6705846938
 30
0.0
 11
187.4575342966
 21
297.6705846938
 31
0.0
  0
LINE
  5
77
330
1F
100
AcDbEntity
  8
0
  6
Continuous
 62
     7
370
    15
100
AcDbLine
 10
187.9575427605
 20
158.1705851111
 30
0.0
 11
199.4575437141
 21
158.1705851111
 31
0.0
  0
LINE
  5
78
330
1F
100
AcDbEntity
  8
0
  6
Continuous
 62
     7
370
    15
100
AcDbLine
 10
199.4575437141
 20
171.170581654
 30
0.0
 11
187.9575427605
 21
171.170581654
 31
0.0
  0
LINE
  5
79
330
1F
100
AcDbEntity
  8
0
  6
Continuous
 62
     7
370
    15
100
AcDbLine
 10
187.9575427605
 20
283.1705851111
 30
0.0
 11
199.4575437141
 21
283.1705851111
 31
0.0
  0
LINE
  5
7A
330
1F
100
AcDbEntity
  8
0
  6
Continuous
 62
     7
370
    15
100
AcDbLine
 10
199.4575437141
 20
296.170581654
 30
0.0
 11
187.9575427605
 21
296.170581654
 31
0.0
  0
LINE
  5
7B
330
1F
100
AcDbEntity
  8
0
  6
Continuous
 62
     7
370
    15
100
AcDbLine
 10
63.2575403882
 20
158.6705861244
 30
0.0
 11
157.799477501
 21
158.6705861244
 31
0.0
  0
LINE
  5
7C
330
1F
100
AcDbEntity
  8
0
  6
Continuous
 62
     7
370
    15
100
AcDbLine
 10
143.8419770432
 20
170.670584366
 30
0.0
 11
63.2575403882
 21
170.670584366
 31
0.0
  0
LINE
  5
7D
330
1F
100
AcDbEntity
  8
0
  6
Continuous
 62
     7
370
    15
100
AcDbLine
 10
63.2575403882
 20
283.6705823991
 30
0.0
 11
143.8419770432
 21
283.6705823991
 31
0.0
  0
LINE
  5
7E
330
1F
100
AcDbEntity
  8
0
  6
Continuous
 62
     7
370
    15
100
AcDbLine
 10
157.799477501
 20
295.6705806407
 30
0.0
 11
63.2575403882
 21
295.6705806407
 31
0.0
  0
LINE
  5
7F
330
1F
100
AcDbEntity
  8
0
  6
Continuous
 62
     7
370
    15
100
AcDbLine
 10
180.5475380255
 20
158.6705861244
 30
0.0
 11
187.4575342966
 21
158.6705861244
 31
0.0
  0
LINE
  5
80
330
1F
100
AcDbEntity
  8
0
  6
Continuous
 62
     7
370
    15
100
AcDbLine
 10
187.4575342966
 20
170.670584366
 30
0.0
 11
180.5475380255
 21
170.670584366
 31
0.0
  0
LINE
  5
81
330
1F
100
AcDbEntity
  8
0
  6
Continuous
 62
     7
370
    15
100
AcDbLine
 10
180.5475380255
 20
283.6705823991
 30
0.0
 11
187.4575342966
 21
283.6705823991
 31
0.0
  0
LINE
  5
82
330
1F
100
AcDbEntity
  8
0
  6
Continuous
 62
     7
370
    15
100
AcDbLine
 10
187.4575342966
 20
295.6705806407
 30
0.0
 11
180.5475380255
 21
295.6705806407
 31
0.0
  0
SPLINE
  5
83
330
1F
100
AcDbEntity
  8
0
  6
Continuous
 62
     7
370
    15
100
AcDbSpline
210
0.0
220
0.0
230
1.0
 70
     8
 71
     3
 72
     8
 73
     4
 74
     0
 42
0.00000001
 43
0.00000001
 12
1.0
 22
0.0
 32
0.0
 13
1.0
 23
0.0
 33
0.0
 40
0.0
 40
0.0
 40
0.0
 40
0.0
 40
1.0
 40
1.0
 40
1.0
 40
1.0
 10
54.95471165904703
 20
221.9635093129203
 30
0.0
 10
51.6207792202167
 20
221.7505395820714
 30
0.0
 10
48.28725505897933
 20
221.531168314004
 30
0.0
 10
44.95471165904704
 20
221.2976923345942
 30
0.0
  0
LINE
  5
84
330
1F
100
AcDbEntity
  8
0
  6
Continuous
 62
     7
370
    15
100
AcDbLine
 10
54.9547120912
 20
221.9635095078
 30
0.0
 11
54.9547120912
 21
232.3776572573
 31
0.0
  0
SPLINE
  5
85
330
1F
100
AcDbEntity
  8
0
  6
Continuous
 62
     7
370
    15
100
AcDbSpline
210
0.0
220
0.0
230
1.0
 70
     8
 71
     3
 72
     8
 73
     4
 74
     0
 42
0.00000001
 43
0.00000001
 12
1.0
 22
0.0
 32
0.0
 13
1.0
 23
0.0
 33
0.0
 40
0.0
 40
0.0
 40
0.0
 40
0.0
 40
1.0
 40
1.0
 40
1.0
 40
1.0
 10
44.95471165904704
 20
233.043474430481
 30
0.0
 10
48.28725410529369
 20
232.8099985178858
 30
0.0
 10
51.62077877441949
 20
232.590627211481
 30
0.0
 10
54.95471165904703
 20
232.3776574521549
 30
0.0
  0
LINE
  5
86
330
1F
100
AcDbEntity
  8
0
  6
Continuous
 62
     7
370
    15
100
AcDbLine
 10
44.954711849
 20
285.5068934712
 30
0.0
 11
44.954711849
 21
233.0434742014
 31
0.0
  0
LINE
  5
87
330
1F
100
AcDbEntity
  8
0
  6
Continuous
 62
     7
370
    15
100
AcDbLine
 10
47.9547118751
 20
285.5068934712
 30
0.0
 11
47.9547118751
 21
309.4757539782
 31
0.0
  0
SPLINE
  5
88
330
1F
100
AcDbEntity
  8
0
  6
Continuous
 62
     7
370
    15
100
AcDbSpline
210
0.0
220
0.0
230
1.0
 70
     8
 71
     3
 72
     8
 73
     4
 74
     0
 42
0.00000001
 43
0.00000001
 12
1.0
 22
0.0
 32
0.0
 13
1.0
 23
0.0
 33
0.0
 40
0.0
 40
0.0
 40
0.0
 40
0.0
 40
1.0
 40
1.0
 40
1.0
 40
1.0
 10
54.95471165904703
 20
309.506094431133
 30
0.0
 10
52.62110985746666
 20
309.4966669774217
 30
0.0
 10
50.28772675456286
 20
309.4866279010799
 30
0.0
 10
47.95471165904704
 20
309.4757567726451
 30
0.0
  0
LINE
  5
89
330
1F
100
AcDbEntity
  8
0
  6
Continuous
 62
     7
370
    15
100
AcDbLine
 10
54.9547120912
 20
309.5060927424
 30
0.0
 11
54.9547120912
 21
309.6705866608
 31
0.0
  0
LINE
  5
8A
330
1F
100
AcDbEntity
  8
0
  6
Continuous
 62
     7
370
    15
100
AcDbLine
 10
54.9547120912
 20
144.6705801043
 30
0.0
 11
54.9547120912
 21
144.8350740227
 31
0.0
  0
SPLINE
  5
8B
330
1F
100
AcDbEntity
  8
0
  6
Continuous
 62
     7
370
    15
100
AcDbSpline
210
0.0
220
0.0
230
1.0
 70
     8
 71
     3
 72
     8
 73
     4
 74
     0
 42
0.00000001
 43
0.00000001
 12
1.0
 22
0.0
 32
0.0
 13
1.0
 23
0.0
 33
0.0
 40
0.0
 40
0.0
 40
0.0
 40
0.0
 40
1.0
 40
1.0
 40
1.0
 40
1.0
 10
47.95471165904704
 20
144.8654099924284
 30
0.0
 10
50.28772205019263
 20
144.8545388859145
 30
0.0
 10
52.62111051668924
 20
144.8444997849886
 30
0.0
 10
54.95471165904703
 20
144.8350723339404
 30
0.0
  0
LINE
  5
8C
330
1F
100
AcDbEntity
  8
0
  6
Continuous
 62
     7
370
    15
100
AcDbLine
 10
47.9547118751
 20
168.8342732939
 30
0.0
 11
47.9547118751
 21
144.8654127869
 31
0.0
  0
LINE
  5
8D
330
1F
100
AcDbEntity
  8
0
  6
Continuous
 62
     7
370
    15
100
AcDbLine
 10
44.954711849
 20
168.8342732939
 30
0.0
 11
44.954711849
 21
221.2976925637
 31
0.0
  0
LINE
  5
8E
330
1F
100
AcDbEntity
  8
0
  6
Continuous
 62
     7
370
    15
100
AcDbLine
 10
59.9547110481
 20
144.6705801043
 30
0.0
 11
59.9547110481
 21
309.6705866608
 31
0.0
  0
LWPOLYLINE
  5
8F
330
1F
100
AcDbEntity
  8
0
  6
Continuous
 62
     7
370
    15
100
AcDbPolyline
 90
        3
 70
   128
 43
0.0
 10
60.6390655024
 20
158.0455867204
 10
60.7261851413
 20
159.715708867
 10
61.3295573724
 20
171.29558377
  0
LWPOLYLINE
  5
90
330
1F
100
AcDbEntity
  8
0
  6
Continuous
 62
     7
370
    15
100
AcDbPolyline
 90
        3
 70
   128
 43
0.0
 10
60.6390655024
 20
296.2955800447
 10
61.2426649762
 20
284.7148706767
 10
61.3295573724
 20
283.0455829951
  0
LINE
  5
91
330
1F
100
AcDbEntity
  8
0
  6
Continuous
 62
     7
370
    15
100
AcDbLine
 10
62.0297480358
 20
267.8853949162
 30
0.0
 11
62.0297480358
 21
270.0765436146
 31
0.0
  0
LINE
  5
92
330
1F
100
AcDbEntity
  8
0
  6
Continuous
 62
     7
370
    15
100
AcDbLine
 10
62.0297480358
 20
240.706659444
 30
0.0
 11
62.0297480358
 21
267.8853949162
 31
0.0
  0
LINE
  5
93
330
1F
100
AcDbEntity
  8
0
  6
Continuous
 62
     7
370
    15
100
AcDbLine
 10
62.0297480358
 20
213.6345073211
 30
0.0
 11
62.0297480358
 21
220.5455834608
 31
0.0
  0
LINE
  5
94
330
1F
100
AcDbEntity
  8
0
  6
Continuous
 62
     7
370
    15
100
AcDbLine
 10
62.0297480358
 20
233.7955833043
 30
0.0
 11
62.0297480358
 21
240.706659444
 31
0.0
  0
LINE
  5
95
330
1F
100
AcDbEntity
  8
0
  6
Continuous
 62
     7
370
    15
100
AcDbLine
 10
62.0297480358
 20
213.6345073211
 30
0.0
 11
62.0297480358
 21
186.4557718488
 31
0.0
  0
LINE
  5
96
330
1F
100
AcDbEntity
  8
0
  6
Continuous
 62
     7
370
    15
100
AcDbLine
 10
62.0297480358
 20
184.2646231505
 30
0.0
 11
62.0297480358
 21
186.4557718488
 31
0.0
  0
SPLINE
  5
97
330
1F
100
AcDbEntity
  8
0
  6
Continuous
 62
     7
370
    15
100
AcDbSpline
210
0.0
220
0.0
230
1.0
 70
     8
 71
     3
 72
     8
 73
     4
 74
     0
 42
0.00000001
 43
0.00000001
 12
1.0
 22
0.0
 32
0.0
 13
1.0
 23
0.0
 33
0.0
 40
0.0
 40
0.0
 40
0.0
 40
0.0
 40
1.0
 40
1.0
 40
1.0
 40
1.0
 10
60.63906569119219
 20
233.7955833825368
 30
0.0
 10
60.66114799455269
 20
229.3790311494346
 30
0.0
 10
60.6611487064154
 20
224.9622779911327
 30
0.0
 10
60.63906569119219
 20
220.5455833825367
 30
0.0
  0
SPLINE
  5
98
330
1F
100
AcDbEntity
  8
0
  6
Continuous
 62
     7
370
    15
100
AcDbSpline
210
0.0
220
0.0
230
1.0
 70
     8
 71
     3
 72
    49
 73
    45
 74
     0
 42
0.00000001
 43
0.00000001
 12
1.0
 22
0.0
 32
0.0
 13
1.0
 23
0.0
 33
0.0
 40
0.0
 40
0.0
 40
0.0
 40
0.0
 40
0.0625000000000012
 40
0.0625000000000012
 40
0.1250000000000025
 40
0.1250000000000025
 40
0.1562500000000029
 40
0.1562500000000029
 40
0.1875000000000034
 40
0.1875000000000034
 40
0.2500000000000034
 40
0.2500000000000034
 40
0.3125000000000034
 40
0.3125000000000034
 40
0.3750000000000034
 40
0.3750000000000034
 40
0.4062500000000034
 40
0.4062500000000034
 40
0.4375000000000034
 40
0.4687500000000034
 40
0.4687500000000034
 40
0.5000000000000034
 40
0.5000000000000034
 40
0.562500000000004
 40
0.562500000000004
 40
0.593750000000004
 40
0.593750000000004
 40
0.6250000000000039
 40
0.6250000000000039
 40
0.6875000000000038
 40
0.6875000000000038
 40
0.7187500000000038
 40
0.7187500000000038
 40
0.7500000000000037
 40
0.7500000000000037
 40
0.8125000000000029
 40
0.8125000000000029
 40
0.875000000000002
 40
0.875000000000002
 40
0.9062500000000014
 40
0.9062500000000014
 40
0.937500000000001
 40
0.937500000000001
 40
1.0
 40
1.0
 40
1.0
 40
1.0
 10
61.258571575022
 20
180.9004007651916
 30
0.0
 10
61.28702636429144
 20
181.2894044843626
 30
0.0
 10
61.31578274027395
 20
181.7145266249948
 30
0.0
 10
61.37394524732606
 20
182.6397914875844
 30
0.0
 10
61.40250878166654
 20
183.1266646997122
 30
0.0
 10
61.4442783143426
 20
183.8873182048877
 30
0.0
 10
61.45803590204505
 20
184.146214085335
 30
0.0
 10
61.48519366780021
 20
184.6749181315957
 30
0.0
 10
61.49864981531665
 20
184.9459677288121
 30
0.0
 10
61.53761072667559
 20
185.7590800150049
 30
0.0
 10
61.56195013240221
 20
186.3052033014723
 30
0.0
 10
61.60714208461269
 20
187.4054532389101
 30
0.0
 10
61.62810171669656
 20
187.9637961639229
 30
0.0
 10
61.66440057660272
 20
189.0423755902941
 30
0.0
 10
61.67998236917623
 20
189.5677972267353
 30
0.0
 10
61.69920950300641
 20
190.3347336016012
 30
0.0
 10
61.70492465110536
 20
190.5872846735547
 30
0.0
 10
61.71467309159046
 20
191.0741659888144
 30
0.0
 10
61.72281724624503
 20
191.5456600039361
 30
0.0
 10
61.72776456162634
 20
191.9869207807694
 30
0.0
 10
61.73108160709125
 20
192.4128981719171
 30
0.0
 10
61.73192444172691
 20
192.6190396183847
 30
0.0
 10
61.73190431319357
 20
193.2081033791469
 30
0.0
 10
61.72854248291569
 20
193.5564348146806
 30
0.0
 10
61.71869555309495
 20
194.0145074196862
 30
0.0
 10
61.71460778791044
 20
194.156382744059
 30
0.0
 10
61.7048002709068
 20
194.4179093793526
 30
0.0
 10
61.69908030331736
 20
194.5371291824342
 30
0.0
 10
61.67989462840202
 20
194.8536284231225
 30
0.0
 10
61.66432065002546
 20
195.013104385619
 30
0.0
 10
61.63700351912539
 20
195.1750611427292
 30
0.0
 10
61.62717514802088
 20
195.2161942123186
 30
0.0
 10
61.60649574877124
 20
195.2706899589533
 30
0.0
 10
61.59566908033281
 20
195.2841962293808
 30
0.0
 10
61.56182326498727
 20
195.2845965561037
 30
0.0
 10
61.53745235732496
 20
195.2317578163596
 30
0.0
 10
61.48524481319574
 20
195.0163812335529
 30
0.0
 10
61.45802343222297
 20
194.8559419268489
 30
0.0
 10
61.41625311987727
 20
194.5421619878028
 30
0.0
 10
61.40214198754687
 20
194.4251737226575
 30
0.0
 10
61.37355038107674
 20
194.1659586963289
 30
0.0
 10
61.35898824372131
 20
194.0228049284401
 30
0.0
 10
61.31560830179841
 20
193.5633383125275
 30
0.0
 10
61.28696232341854
 20
193.2166169620413
 30
0.0
 10
61.258571575022
 20
192.8305929446162
 30
0.0
  0
LINE
  5
99
330
1F
100
AcDbEntity
  8
0
  6
Continuous
 62
     7
370
    15
100
AcDbLine
 10
61.2585719658
 20
192.8305929157
 30
0.0
 11
60.9730601294
 21
188.9520851526
 31
0.0
  0
SPLINE
  5
9A
330
1F
100
AcDbEntity
  8
0
  6
Continuous
 62
     7
370
    15
100
AcDbSpline
210
0.0
220
0.0
230
1.0
 70
     8
 71
     3
 72
    49
 73
    45
 74
     0
 42
0.00000001
 43
0.00000001
 12
1.0
 22
0.0
 32
0.0
 13
1.0
 23
0.0
 33
0.0
 40
0.0
 40
0.0
 40
0.0
 40
0.0
 40
0.0624999999999997
 40
0.0624999999999997
 40
0.1249999999999995
 40
0.1249999999999995
 40
0.1562499999999995
 40
0.1562499999999995
 40
0.1874999999999995
 40
0.1874999999999995
 40
0.2499999999999995
 40
0.2499999999999995
 40
0.3124999999999995
 40
0.3124999999999995
 40
0.3749999999999995
 40
0.3749999999999995
 40
0.4062499999999997
 40
0.4062499999999997
 40
0.4374999999999998
 40
0.4687499999999999
 40
0.4687499999999999
 40
0.5000000000000001
 40
0.5000000000000001
 40
0.5625000000000004
 40
0.5625000000000004
 40
0.5937500000000004
 40
0.5937500000000004
 40
0.6250000000000006
 40
0.6250000000000006
 40
0.6875
 40
0.6875
 40
0.7187499999999997
 40
0.7187499999999997
 40
0.7499999999999992
 40
0.7499999999999992
 40
0.8124999999999987
 40
0.8124999999999987
 40
0.8749999999999981
 40
0.8749999999999981
 40
0.9062499999999983
 40
0.9062499999999983
 40
0.9374999999999984
 40
0.9374999999999984
 40
1.0
 40
1.0
 40
1.0
 40
1.0
 10
60.97306023978776
 20
188.9520860974918
 30
0.0
 10
60.94441269848268
 20
188.5632497627242
 30
0.0
 10
60.91622557388331
 20
188.1378111445609
 30
0.0
 10
60.86071156425833
 20
187.2109226311694
 30
0.0
 10
60.8341812405553
 20
186.7225824832167
 30
0.0
 10
60.79632621568233
 20
185.9592887870205
 30
0.0
 10
60.78401694622862
 20
185.6994117105953
 30
0.0
 10
60.7600071258006
 20
185.1685385002318
 30
0.0
 10
60.74825996222393
 20
184.8963066062474
 30
0.0
 10
60.71463438763552
 20
184.0795365451713
 30
0.0
 10
60.69414722912729
 20
183.5307166340858
 30
0.0
 10
60.65679690717845
 20
182.424577837496
 30
0.0
 10
60.63986073339313
 20
181.8631812720058
 30
0.0
 10
60.61094574178863
 20
180.7786719151266
 30
0.0
 10
60.5987593185921
 20
180.2501996475987
 30
0.0
 10
60.58385202834052
 20
179.4785917197575
 30
0.0
 10
60.57945229799006
 20
179.224677220875
 30
0.0
 10
60.5719738348765
 20
178.7351913659951
 30
0.0
 10
60.56575526329191
 20
178.2611154565614
 30
0.0
 10
60.56199582766271
 20
177.8173426898225
 30
0.0
 10
60.55947519966008
 20
177.388904935503
 30
0.0
 10
60.55883497490037
 20
177.1814300326256
 30
0.0
 10
60.55884272387216
 20
176.5896932134598
 30
0.0
 10
60.56137160845527
 20
176.2397175156306
 30
0.0
 10
60.56886062730135
 20
175.7795447477559
 30
0.0
 10
60.57197781996322
 20
175.6370308974892
 30
0.0
 10
60.57949946321504
 20
175.374388916456
 30
0.0
 10
60.58389560203889
 20
175.2549512018722
 30
0.0
 10
60.59874306237553
 20
174.9378344604175
 30
0.0
 10
60.61090825133944
 20
174.7782299630499
 30
0.0
 10
60.63266983405473
 20
174.6167692285009
 30
0.0
 10
60.64056328493
 20
174.5759346103764
 30
0.0
 10
60.65730513738881
 20
174.522364316847
 30
0.0
 10
60.66614956382384
 20
174.5094071751098
 30
0.0
 10
60.69410091875436
 20
174.5109774604983
 30
0.0
 10
60.71461101229367
 20
174.5655521842313
 30
0.0
 10
60.75971510339663
 20
174.7857166592738
 30
0.0
 10
60.78368097980727
 20
174.9484598215525
 30
0.0
 10
60.82153625818604
 20
175.266735370901
 30
0.0
 10
60.83448868135479
 20
175.3853490199496
 30
0.0
 10
60.86109549334852
 20
175.6481289572101
 30
0.0
 10
60.87481271484204
 20
175.7930715937962
 30
0.0
 10
60.91621097038609
 20
176.2577768919786
 30
0.0
 10
60.94434721933676
 20
176.6088798403469
 30
0.0
 10
60.97306023978776
 20
177.000733019264
 30
0.0
  0
LINE
  5
9B
330
1F
100
AcDbEntity
  8
0
  6
Continuous
 62
     7
370
    15
100
AcDbLine
 10
60.9730601294
 20
177.0007317516
 30
0.0
 11
61.2585719658
 21
180.9003991637
 31
0.0
  0
SPLINE
  5
9C
330
1F
100
AcDbEntity
  8
0
  6
Continuous
 62
     7
370
    15
100
AcDbSpline
210
0.0
220
0.0
230
1.0
 70
     8
 71
     3
 72
    49
 73
    45
 74
     0
 42
0.00000001
 43
0.00000001
 12
1.0
 22
0.0
 32
0.0
 13
1.0
 23
0.0
 33
0.0
 40
0.0
 40
0.0
 40
0.0
 40
0.0
 40
0.0624999999999997
 40
0.0624999999999997
 40
0.1249999999999994
 40
0.1249999999999994
 40
0.1562499999999992
 40
0.1562499999999992
 40
0.1874999999999991
 40
0.1874999999999991
 40
0.2499999999999996
 40
0.2499999999999996
 40
0.3125
 40
0.3125
 40
0.3750000000000005
 40
0.3750000000000005
 40
0.4062500000000009
 40
0.4062500000000009
 40
0.4375000000000013
 40
0.4687500000000017
 40
0.4687500000000017
 40
0.5000000000000021
 40
0.5000000000000021
 40
0.5625000000000018
 40
0.5625000000000018
 40
0.5937500000000014
 40
0.5937500000000014
 40
0.625000000000001
 40
0.625000000000001
 40
0.6875
 40
0.6875
 40
0.7187499999999999
 40
0.7187499999999999
 40
0.7499999999999999
 40
0.7499999999999999
 40
0.8125000000000006
 40
0.8125000000000006
 40
0.8750000000000012
 40
0.8750000000000012
 40
0.9062500000000012
 40
0.9062500000000012
 40
0.9375000000000012
 40
0.9375000000000012
 40
1.0
 40
1.0
 40
1.0
 40
1.0
 10
61.258571575022
 20
261.5105738204576
 30
0.0
 10
61.28702636429145
 20
261.1236790505362
 30
0.0
 10
61.31578274027395
 20
260.7756427870526
 30
0.0
 10
61.37394524732606
 20
260.1602839818764
 30
0.0
 10
61.40250878166653
 20
259.9020649876086
 30
0.0
 10
61.4442783143426
 20
259.5885733662384
 30
0.0
 10
61.45803590204505
 20
259.496307134455
 30
0.0
 10
61.48519366780021
 20
259.3367441576449
 30
0.0
 10
61.49864981531665
 20
259.2693101571043
 30
0.0
 10
61.53761072667557
 20
259.1091104581977
 30
0.0
 10
61.5619501324022
 20
259.0563201178149
 30
0.0
 10
61.6071420846127
 20
259.0573596054717
 30
0.0
 10
61.62810171669656
 20
259.1129790258298
 30
0.0
 10
61.66440057660272
 20
259.3288889230432
 30
0.0
 10
61.67998236917622
 20
259.4883945273498
 30
0.0
 10
61.69920950300641
 20
259.8064685720062
 30
0.0
 10
61.70492465110536
 20
259.9261546794287
 30
0.0
 10
61.71467309159047
 20
260.186953058282
 30
0.0
 10
61.722817235851
 20
260.470196477872
 30
0.0
 10
61.72776456162633
 20
260.7975397590173
 30
0.0
 10
61.73108160709126
 20
261.1471772327573
 30
0.0
 10
61.73192444172692
 20
261.333949578237
 30
0.0
 10
61.73190431319357
 20
261.9234761321682
 30
0.0
 10
61.72854248291569
 20
262.3489592376666
 30
0.0
 10
61.71869555309495
 20
263.0343155925861
 30
0.0
 10
61.71460778791044
 20
263.2706801564909
 30
0.0
 10
61.70480027090679
 20
263.7596682156918
 30
0.0
 10
61.69908030331736
 20
264.011873747086
 30
0.0
 10
61.67989462840202
 20
264.7762874455328
 30
0.0
 10
61.66432065002546
 20
265.3014939775327
 30
0.0
 10
61.63700351912539
 20
266.1126977825325
 30
0.0
 10
61.62717514802088
 20
266.3885583765655
 30
0.0
 10
61.60649574877124
 20
266.9400104319496
 30
0.0
 10
61.59566908033281
 20
267.2151460670191
 30
0.0
 10
61.56182326498727
 20
268.0388317027274
 30
0.0
 10
61.53745235732497
 20
268.5856770207591
 30
0.0
 10
61.48524481319574
 20
269.6746724889668
 30
0.0
 10
61.45802343222297
 20
270.2036829172578
 30
0.0
 10
61.41625311987727
 20
270.9641355368436
 30
0.0
 10
61.40214198754687
 20
271.2126785833673
 30
0.0
 10
61.37355038107674
 20
271.6997042273176
 30
0.0
 10
61.35898824372131
 20
271.9394390937412
 30
0.0
 10
61.31560830179841
 20
272.6291632625258
 30
0.0
 10
61.28696232341854
 20
273.0526377796475
 30
0.0
 10
61.258571575022
 20
273.4407659998822
 30
0.0
  0
LINE
  5
9D
330
1F
100
AcDbEntity
  8
0
  6
Continuous
 62
     7
370
    15
100
AcDbLine
 10
61.2585719658
 20
273.4407676014
 30
0.0
 11
60.9730601294
 21
277.3404350135
 31
0.0
  0
SPLINE
  5
9E
330
1F
100
AcDbEntity
  8
0
  6
Continuous
 62
     7
370
    15
100
AcDbSpline
210
0.0
220
0.0
230
1.0
 70
     8
 71
     3
 72
    49
 73
    45
 74
     0
 42
0.00000001
 43
0.00000001
 12
1.0
 22
0.0
 32
0.0
 13
1.0
 23
0.0
 33
0.0
 40
0.0
 40
0.0
 40
0.0
 40
0.0
 40
0.0625000000000001
 40
0.0625000000000001
 40
0.1250000000000002
 40
0.1250000000000002
 40
0.1562500000000003
 40
0.1562500000000003
 40
0.1875000000000003
 40
0.1875000000000003
 40
0.2500000000000003
 40
0.2500000000000003
 40
0.3125000000000002
 40
0.3125000000000002
 40
0.3750000000000002
 40
0.3750000000000002
 40
0.4062500000000003
 40
0.4062500000000003
 40
0.4375000000000004
 40
0.4687500000000005
 40
0.4687500000000005
 40
0.5000000000000006
 40
0.5000000000000006
 40
0.5625000000000003
 40
0.5625000000000003
 40
0.5937500000000001
 40
0.5937500000000001
 40
0.625
 40
0.625
 40
0.6875000000000001
 40
0.6875000000000001
 40
0.7187500000000002
 40
0.7187500000000002
 40
0.7500000000000004
 40
0.7500000000000004
 40
0.8125000000000007
 40
0.8125000000000007
 40
0.8750000000000009
 40
0.8750000000000009
 40
0.9062500000000008
 40
0.9062500000000008
 40
0.9375000000000008
 40
0.9375000000000008
 40
1.0
 40
1.0
 40
1.0
 40
1.0
 10
60.97306023978776
 20
277.3404337458097
 30
0.0
 10
60.94441269848268
 20
277.7313933157969
 30
0.0
 10
60.91622557388331
 20
278.0833499503252
 30
0.0
 10
60.86071156425833
 20
278.7062593038497
 30
0.0
 10
60.8341812405553
 20
278.9680887550894
 30
0.0
 10
60.79632621568233
 20
279.2864034200519
 30
0.0
 10
60.78401694622862
 20
279.38019748471
 30
0.0
 10
60.76000712580061
 20
279.5426474177868
 30
0.0
 10
60.74825996222394
 20
279.611440618016
 30
0.0
 10
60.71463438763552
 20
279.7753492104953
 30
0.0
 10
60.69414722912729
 20
279.8301762828998
 30
0.0
 10
60.65679690717845
 20
279.832295431933
 30
0.0
 10
60.63986073339313
 20
279.7777914643443
 30
0.0
 10
60.61094574178863
 20
279.5631740993799
 30
0.0
 10
60.59875931859211
 20
279.4038411824179
 30
0.0
 10
60.58385202834049
 20
279.0852037776273
 30
0.0
 10
60.57945229799005
 20
278.9652827438001
 30
0.0
 10
60.57197383487649
 20
278.7038438558078
 30
0.0
 10
60.56575523193611
 20
278.4197313957575
 30
0.0
 10
60.56199582766271
 20
278.0910313459504
 30
0.0
 10
60.55947519966008
 20
277.739768209123
 30
0.0
 10
60.55883497490037
 20
277.5519100860208
 30
0.0
 10
60.55884272387216
 20
276.9599358937322
 30
0.0
 10
60.56137160845527
 20
276.5324170160783
 30
0.0
 10
60.56886062730135
 20
275.8432986036076
 30
0.0
 10
60.57197781996321
 20
275.6055610770537
 30
0.0
 10
60.57949946321504
 20
275.1135569862176
 30
0.0
 10
60.5838956020389
 20
274.8602382751749
 30
0.0
 10
60.59874306237553
 20
274.0919718832754
 30
0.0
 10
60.61090825133943
 20
273.5638585058489
 30
0.0
 10
60.63266983405473
 20
272.7477145268803
 30
0.0
 10
60.64056328492999
 20
272.4700669742764
 30
0.0
 10
60.65730513738882
 20
271.9160725565401
 30
0.0
 10
60.66614956382384
 20
271.6396133572395
 30
0.0
 10
60.69410091875435
 20
270.8118104029799
 30
0.0
 10
60.71461101229367
 20
270.2620258967646
 30
0.0
 10
60.75971510339663
 20
269.1667860936764
 30
0.0
 10
60.78368097980727
 20
268.6368845672564
 30
0.0
 10
60.82153625818604
 20
267.8735361775118
 30
0.0
 10
60.8344886813548
 20
267.6240297315238
 30
0.0
 10
60.86109549334851
 20
267.1351048125688
 30
0.0
 10
60.87481271484204
 20
266.8947268412707
 30
0.0
 10
60.91621097038609
 20
266.2037561140094
 30
0.0
 10
60.94434721933676
 20
265.7788057582408
 30
0.0
 10
60.97306023978776
 20
265.389080667582
 30
0.0
  0
LINE
  5
9F
330
1F
100
AcDbEntity
  8
0
  6
Continuous
 62
     7
370
    15
100
AcDbLine
 10
60.9730601294
 20
265.3890816125
 30
0.0
 11
61.2585719658
 21
261.5105738494
 31
0.0
  0
LINE
  5
A0
330
1F
100
AcDbEntity
  8
0
  6
Continuous
 62
     7
370
    15
100
AcDbLine
 10
44.954711849
 20
221.2976925637
 30
0.0
 11
44.954711849
 21
222.2229913439
 31
0.0
  0
LINE
  5
A1
330
1F
100
AcDbEntity
  8
0
  6
Continuous
 62
     7
370
    15
100
AcDbLine
 10
44.954711849
 20
232.1181754212
 30
0.0
 11
44.954711849
 21
233.0434742014
 31
0.0
  0
LINE
  5
A2
330
1F
100
AcDbEntity
  8
0
  6
Continuous
 62
     7
370
    15
100
AcDbLine
 10
168.0475350452
 20
243.039653227
 30
0.0
 11
163.0475398136
 21
243.1705841425
 31
0.0
  0
LINE
  5
A3
330
1F
100
AcDbEntity
  8
0
  6
Continuous
 62
     7
370
    15
100
AcDbLine
 10
168.0475350452
 20
211.3015135381
 30
0.0
 11
168.0475350452
 21
243.039653227
 31
0.0
  0
LINE
  5
A4
330
1F
100
AcDbEntity
  8
0
  6
Continuous
 62
     7
370
    15
100
AcDbLine
 10
168.0475350452
 20
211.3015135381
 30
0.0
 11
163.0475398136
 21
211.1705826226
 31
0.0
  0
LINE
  5
A5
330
1F
100
AcDbEntity
  8
0
  6
Continuous
 62
     7
370
    15
100
AcDbLine
 10
163.0475398136
 20
211.1705826226
 30
0.0
 11
163.0475398136
 21
243.1705841425
 31
0.0
  0
LINE
  5
A6
330
1F
100
AcDbEntity
  8
0
  6
Continuous
 62
     7
370
    15
100
AcDbLine
 10
53.3287402225
 20
222.6618552211
 30
0.0
 11
53.3287402225
 21
231.679311544
 31
0.0
  0
LINE
  5
A7
330
1F
100
AcDbEntity
  8
0
  6
Continuous
 62
     7
370
    15
100
AcDbLine
 10
54.4575404359
 20
222.7210132967
 30
0.0
 11
54.4575404359
 21
231.6201534684
 31
0.0
  0
LINE
  5
A8
330
1F
100
AcDbEntity
  8
0
  6
Continuous
 62
     7
370
    15
100
AcDbLine
 10
170.5475475622
 20
215.1705832782
 30
0.0
 11
170.5475475622
 21
239.1705834868
 31
0.0
  0
LINE
  5
A9
330
1F
100
AcDbEntity
  8
0
  6
Continuous
 62
     7
370
    15
100
AcDbLine
 10
163.0475398136
 20
211.1705826226
 30
0.0
 11
138.954709096
 21
212.4332353103
 31
0.0
  0
LINE
  5
AA
330
1F
100
AcDbEntity
  8
0
  6
Continuous
 62
     7
370
    15
100
AcDbLine
 10
138.954709096
 20
212.4332353103
 30
0.0
 11
138.954709096
 21
217.3862145844
 31
0.0
  0
LINE
  5
AB
330
1F
100
AcDbEntity
  8
0
  6
Continuous
 62
     7
370
    15
100
AcDbLine
 10
163.0475398136
 20
219.0709491822
 30
0.0
 11
138.954709096
 21
217.3862145844
 31
0.0
  0
LINE
  5
AC
330
1F
100
AcDbEntity
  8
0
  6
Continuous
 62
     7
370
    15
100
AcDbLine
 10
138.954709096
 20
241.9079314548
 30
0.0
 11
163.0475398136
 21
243.1705841425
 31
0.0
  0
LINE
  5
AD
330
1F
100
AcDbEntity
  8
0
  6
Continuous
 62
     7
370
    15
100
AcDbLine
 10
138.954709096
 20
236.9549521807
 30
0.0
 11
138.954709096
 21
241.9079314548
 31
0.0
  0
LINE
  5
AE
330
1F
100
AcDbEntity
  8
0
  6
Continuous
 62
     7
370
    15
100
AcDbLine
 10
138.954709096
 20
236.9549521807
 30
0.0
 11
163.0475398136
 21
235.2702175829
 31
0.0
  0
LINE
  5
AF
330
1F
100
AcDbEntity
  8
0
  6
Continuous
 62
     7
370
    15
100
AcDbLine
 10
180.5475380255
 20
238.1402380395
 30
0.0
 11
170.5475475622
 21
238.1402380395
 31
0.0
  0
LINE
  5
B0
330
1F
100
AcDbEntity
  8
0
  6
Continuous
 62
     7
370
    15
100
AcDbLine
 10
180.5475380255
 20
238.1402380395
 30
0.0
 11
180.5475380255
 21
232.655410711
 31
0.0
  0
LINE
  5
B1
330
1F
100
AcDbEntity
  8
0
  6
Continuous
 62
     7
370
    15
100
AcDbLine
 10
180.5475380255
 20
232.655410711
 30
0.0
 11
170.5475475622
 21
232.655410711
 31
0.0
  0
LINE
  5
B2
330
1F
100
AcDbEntity
  8
0
  6
Continuous
 62
     7
370
    15
100
AcDbLine
 10
180.5475380255
 20
221.6857560541
 30
0.0
 11
170.5475475622
 21
221.6857560541
 31
0.0
  0
LINE
  5
B3
330
1F
100
AcDbEntity
  8
0
  6
Continuous
 62
     7
370
    15
100
AcDbLine
 10
180.5475380255
 20
232.655410711
 30
0.0
 11
180.5475380255
 21
221.6857560541
 31
0.0
  0
LINE
  5
B4
330
1F
100
AcDbEntity
  8
0
  6
Continuous
 62
     7
370
    15
100
AcDbLine
 10
180.5475380255
 20
216.2009287256
 30
0.0
 11
170.5475475622
 21
216.2009287256
 31
0.0
  0
LINE
  5
B5
330
1F
100
AcDbEntity
  8
0
  6
Continuous
 62
     7
370
    15
100
AcDbLine
 10
180.5475380255
 20
221.6857560541
 30
0.0
 11
180.5475380255
 21
216.2009287256
 31
0.0
  0
LINE
  5
B6
330
1F
100
AcDbEntity
  8
0
  6
Continuous
 62
     7
370
    15
100
AcDbLine
 10
187.9575427605
 20
219.1705830026
 30
0.0
 11
187.9575427605
 21
235.1705837625
 31
0.0
  0
LINE
  5
B7
330
1F
100
AcDbEntity
  8
0
  6
Continuous
 62
     7
370
    15
100
AcDbLine
 10
187.4575342966
 20
219.1705830026
 30
0.0
 11
187.4575342966
 21
235.1705837625
 31
0.0
  0
LINE
  5
B8
330
1F
100
AcDbEntity
  8
0
  6
Continuous
 62
     7
370
    15
100
AcDbLine
 10
63.2575403882
 20
233.7955833043
 30
0.0
 11
63.2575403882
 21
220.5455834608
 31
0.0
  0
LINE
  5
B9
330
1F
100
AcDbEntity
  8
0
  6
Continuous
 62
     7
370
    15
100
AcDbLine
 10
63.2575403882
 20
220.5455834608
 30
0.0
 11
60.6390655024
 21
220.5455834608
 31
0.0
  0
LINE
  5
BA
330
1F
100
AcDbEntity
  8
0
  6
Continuous
 62
     7
370
    15
100
AcDbLine
 10
63.2575403882
 20
233.7955833043
 30
0.0
 11
60.6390655024
 21
233.7955833043
 31
0.0
  0
LINE
  5
BB
330
1F
100
AcDbEntity
  8
0
  6
Continuous
 62
     7
370
    15
100
AcDbLine
 10
199.4575437141
 20
220.6705832484
 30
0.0
 11
199.4575437141
 21
233.6705835166
 31
0.0
  0
LINE
  5
BC
330
1F
100
AcDbEntity
  8
0
  6
Continuous
 62
     7
370
    15
100
AcDbLine
 10
44.954711849
 20
255.1420727375
 30
0.0
 11
43.9547116851
 21
255.1420727375
 31
0.0
  0
LINE
  5
BD
330
1F
100
AcDbEntity
  8
0
  6
Continuous
 62
     7
370
    15
100
AcDbLine
 10
43.9547116851
 20
291.3647560033
 30
0.0
 11
43.9547116851
 21
255.1420727375
 31
0.0
  0
LINE
  5
BE
330
1F
100
AcDbEntity
  8
0
  6
Continuous
 62
     7
370
    15
100
AcDbLine
 10
44.954711849
 20
199.1990940276
 30
0.0
 11
43.9547116851
 21
199.1990940276
 31
0.0
  0
LINE
  5
BF
330
1F
100
AcDbEntity
  8
0
  6
Continuous
 62
     7
370
    15
100
AcDbLine
 10
43.9547116851
 20
199.1990940276
 30
0.0
 11
43.9547116851
 21
162.9764107618
 31
0.0
  0
LINE
  5
C0
330
1F
100
AcDbEntity
  8
0
  6
Continuous
 62
     7
370
    15
100
AcDbLine
 10
43.9547116851
 20
199.1990940276
 30
0.0
 11
44.954711849
 21
199.2519298199
 31
0.0
  0
LINE
  5
C1
330
1F
100
AcDbEntity
  8
0
  6
Continuous
 62
     7
370
    15
100
AcDbLine
 10
43.9547116851
 20
199.7570642832
 30
0.0
 11
43.9547116851
 21
199.1990940276
 31
0.0
  0
LINE
  5
C2
330
1F
100
AcDbEntity
  8
0
  6
Continuous
 62
     7
370
    15
100
AcDbLine
 10
43.9547116851
 20
255.1420727375
 30
0.0
 11
44.954711849
 21
255.0892369452
 31
0.0
  0
LINE
  5
C3
330
1F
100
AcDbEntity
  8
0
  6
Continuous
 62
     7
370
    15
100
AcDbLine
 10
43.9547116851
 20
255.1420727375
 30
0.0
 11
43.9547116851
 21
254.5841024819
 31
0.0
  0
LINE
  5
C4
330
1F
100
AcDbEntity
  8
0
  6
Continuous
 62
     7
370
    15
100
AcDbLine
 10
43.9547116851
 20
213.0776695537
 30
0.0
 11
43.9547116851
 21
199.7570642832
 31
0.0
  0
LINE
  5
C5
330
1F
100
AcDbEntity
  8
0
  6
Continuous
 62
     7
370
    15
100
AcDbLine
 10
43.9547116851
 20
254.5841024819
 30
0.0
 11
43.9547116851
 21
241.2634972113
 31
0.0
  0
LINE
  5
C6
330
1F
100
AcDbEntity
  8
0
  6
Continuous
 62
     7
370
    15
100
AcDbLine
 10
138.954709096
 20
236.9549521807
 30
0.0
 11
138.954709096
 21
233.1705834347
 31
0.0
  0
LINE
  5
C7
330
1F
100
AcDbEntity
  8
0
  6
Continuous
 62
     7
370
    15
100
AcDbLine
 10
138.954709096
 20
221.1705833304
 30
0.0
 11
138.954709096
 21
217.3862145844
 31
0.0
  0
SPLINE
  5
C8
330
1F
100
AcDbEntity
  8
0
  6
Continuous
 62
     7
370
    15
100
AcDbSpline
210
0.0
220
0.0
230
1.0
 70
     8
 71
     3
 72
     8
 73
     4
 74
     0
 42
0.00000001
 43
0.00000001
 12
1.0
 22
0.0
 32
0.0
 13
1.0
 23
0.0
 33
0.0
 40
0.0
 40
0.0
 40
0.0
 40
0.0
 40
1.0
 40
1.0
 40
1.0
 40
1.0
 10
43.95471165904704
 20
215.0596337913641
 30
0.0
 10
42.88969766167601
 20
215.932486349701
 30
0.0
 10
41.87963674142424
 20
216.9194402933795
 30
0.0
 10
40.95471165904703
 20
218.0621980151991
 30
0.0
  0
LINE
  5
C9
330
1F
100
AcDbEntity
  8
0
  6
Continuous
 62
     7
370
    15
100
AcDbLine
 10
40.954711659
 20
236.2789684537
 30
0.0
 11
40.954711659
 21
218.0621983114
 31
0.0
  0
SPLINE
  5
CA
330
1F
100
AcDbEntity
  8
0
  6
Continuous
 62
     7
370
    15
100
AcDbSpline
210
0.0
220
0.0
230
1.0
 70
     8
 71
     3
 72
     8
 73
     4
 74
     0
 42
0.00000001
 43
0.00000001
 12
1.0
 22
0.0
 32
0.0
 13
1.0
 23
0.0
 33
0.0
 40
0.0
 40
0.0
 40
0.0
 40
0.0
 40
1.0
 40
1.0
 40
1.0
 40
1.0
 10
40.95471165904703
 20
236.2789687498773
 30
0.0
 10
41.87963674142424
 20
237.421726471697
 30
0.0
 10
42.88969766167602
 20
238.4086804153756
 30
0.0
 10
43.95471165904704
 20
239.2815329737125
 30
0.0
  0
LINE
  5
CB
330
1F
100
AcDbEntity
  8
0
  6
Continuous
 62
     7
370
    15
100
AcDbLine
 10
43.9547116851
 20
239.2815328765
 30
0.0
 11
44.954711849
 21
239.323066138
 31
0.0
  0
LINE
  5
CC
330
1F
100
AcDbEntity
  8
0
  6
Continuous
 62
     7
370
    15
100
AcDbLine
 10
44.954711849
 20
215.0181006271
 30
0.0
 11
43.9547116851
 21
215.0596338886
 31
0.0
  0
LINE
  5
CD
330
1F
100
AcDbEntity
  8
0
  6
Continuous
 62
     7
370
    15
100
AcDbLine
 10
43.9547116851
 20
213.0776695537
 30
0.0
 11
43.9547116851
 21
215.0596338886
 31
0.0
  0
LINE
  5
CE
330
1F
100
AcDbEntity
  8
0
  6
Continuous
 62
     7
370
    15
100
AcDbLine
 10
43.9547116851
 20
239.2815328765
 30
0.0
 11
43.9547116851
 21
241.2634972113
 31
0.0
  0
SPLINE
  5
CF
330
1F
100
AcDbEntity
  8
0
  6
Continuous
 62
     7
370
    15
100
AcDbSpline
210
0.0
220
0.0
230
1.0
 70
     8
 71
     3
 72
     8
 73
     4
 74
     0
 42
0.00000001
 43
0.00000001
 12
1.0
 22
0.0
 32
0.0
 13
1.0
 23
0.0
 33
0.0
 40
0.0000002004270563
 40
0.0000002004270563
 40
0.0000002004270563
 40
0.0000002004270563
 40
0.0204523072432843
 40
0.0204523072432843
 40
0.0204523072432843
 40
0.0204523072432843
 10
141.3238717684398
 20
277.1760438961143
 30
0.0
 10
148.1267144055354
 20
277.4420203127259
 30
0.0
 10
154.9296399318724
 20
277.7058785422346
 30
0.0
 10
161.7326426968718
 20
277.967715886386
 30
0.0
  0
LINE
  5
D0
330
1F
100
AcDbEntity
  8
0
  6
Continuous
 62
     7
370
    15
100
AcDbLine
 10
161.7326389981
 20
277.9677142951
 30
0.0
 11
161.7326389981
 21
243.1016718599
 31
0.0
  0
SPLINE
  5
D1
330
1F
100
AcDbEntity
  8
0
  6
Continuous
 62
     7
370
    15
100
AcDbSpline
210
0.0
220
0.0
230
1.0
 70
     8
 71
     3
 72
     8
 73
     4
 74
     0
 42
0.00000001
 43
0.00000001
 12
1.0
 22
0.0
 32
0.0
 13
1.0
 23
0.0
 33
0.0
 40
0.0000006128214009
 40
0.0000006128214009
 40
0.0000006128214009
 40
0.0000006128214009
 40
0.0040442188655085
 40
0.0040442188655085
 40
0.0040442188655085
 40
0.0040442188655085
 10
161.7326426968718
 20
277.967715886386
 30
0.0
 10
162.1725316888483
 20
276.6938571076192
 30
0.0
 10
162.6109482241985
 20
275.4194870180722
 30
0.0
 10
163.0475405060778
 20
274.1444914772373
 30
0.0
  0
SPLINE
  5
D2
330
1F
100
AcDbEntity
  8
0
  6
Continuous
 62
     7
370
    15
100
AcDbSpline
210
0.0
220
0.0
230
1.0
 70
     8
 71
     3
 72
     8
 73
     4
 74
     0
 42
0.00000001
 43
0.00000001
 12
1.0
 22
0.0
 32
0.0
 13
1.0
 23
0.0
 33
0.0
 40
0.0
 40
0.0
 40
0.0
 40
0.0
 40
1.0
 40
1.0
 40
1.0
 40
1.0
 10
167.278354954123
 20
261.6891716340685
 30
0.0
 10
165.8969290965239
 20
265.8507498929744
 30
0.0
 10
164.4797889203091
 20
270.0001884217846
 30
0.0
 10
163.0475405060778
 20
274.1444914772373
 30
0.0
  0
LINE
  5
D3
330
1F
100
AcDbEntity
  8
0
  6
Continuous
 62
     7
370
    15
100
AcDbLine
 10
167.2783520056
 20
261.6891717169
 30
0.0
 11
167.2783520056
 21
243.0597958717
 31
0.0
  0
LINE
  5
D4
330
1F
100
AcDbEntity
  8
0
  6
Continuous
 62
     7
370
    15
100
AcDbLine
 10
161.7326389981
 20
211.2394949052
 30
0.0
 11
161.7326389981
 21
176.37345247
 31
0.0
  0
SPLINE
  5
D5
330
1F
100
AcDbEntity
  8
0
  6
Continuous
 62
     7
370
    15
100
AcDbSpline
210
0.0
220
0.0
230
1.0
 70
     8
 71
     3
 72
     8
 73
     4
 74
     0
 42
0.00000001
 43
0.00000001
 12
1.0
 22
0.0
 32
0.0
 13
1.0
 23
0.0
 33
0.0
 40
0.0000002004223389
 40
0.0000002004223389
 40
0.0000002004223389
 40
0.0000002004223389
 40
0.0204523072385669
 40
0.0204523072385669
 40
0.0204523072385669
 40
0.0204523072385669
 10
161.7326426968719
 20
176.3734508786877
 30
0.0
 10
154.9296399318724
 20
176.6352882228391
 30
0.0
 10
148.1267144055354
 20
176.8991464523478
 30
0.0
 10
141.3238717684398
 20
177.1651228689593
 30
0.0
  0
LINE
  5
D6
330
1F
100
AcDbEntity
  8
0
  6
Continuous
 62
     7
370
    15
100
AcDbLine
 10
167.2783520056
 20
211.2813708934
 30
0.0
 11
167.2783520056
 21
192.6519950482
 31
0.0
  0
SPLINE
  5
D7
330
1F
100
AcDbEntity
  8
0
  6
Continuous
 62
     7
370
    15
100
AcDbSpline
210
0.0
220
0.0
230
1.0
 70
     8
 71
     3
 72
     8
 73
     4
 74
     0
 42
0.00000001
 43
0.00000001
 12
1.0
 22
0.0
 32
0.0
 13
1.0
 23
0.0
 33
0.0
 40
0.0
 40
0.0
 40
0.0
 40
0.0
 40
1.0
 40
1.0
 40
1.0
 40
1.0
 10
163.0475405060779
 20
180.1966752878364
 30
0.0
 10
164.4797889203091
 20
184.3409783432891
 30
0.0
 10
165.8969290965239
 20
188.4904168720993
 30
0.0
 10
167.278354954123
 20
192.6519951310053
 30
0.0
  0
SPLINE
  5
D8
330
1F
100
AcDbEntity
  8
0
  6
Continuous
 62
     7
370
    15
100
AcDbSpline
210
0.0
220
0.0
230
1.0
 70
     8
 71
     3
 72
     8
 73
     4
 74
     0
 42
0.00000001
 43
0.00000001
 12
1.0
 22
0.0
 32
0.0
 13
1.0
 23
0.0
 33
0.0
 40
0.0000006174494552
 40
0.0000006174494552
 40
0.0000006174494552
 40
0.0000006174494552
 40
0.0040442234935628
 40
0.0040442234935628
 40
0.0040442234935628
 40
0.0040442234935628
 10
163.0475405060779
 20
180.1966752878364
 30
0.0
 10
162.6109482241985
 20
178.9216797470015
 30
0.0
 10
162.1725316888483
 20
177.6473096574545
 30
0.0
 10
161.7326426968719
 20
176.3734508786877
 30
0.0
  0
SPLINE
  5
D9
330
1F
100
AcDbEntity
  8
0
  6
Continuous
 62
     7
370
    15
100
AcDbSpline
210
0.0
220
0.0
230
1.0
 70
     8
 71
     3
 72
    10
 73
     6
 74
     0
 42
0.00000001
 43
0.00000001
 12
1.0
 22
0.0
 32
0.0
 13
1.0
 23
0.0
 33
0.0
 40
0.0
 40
0.0
 40
0.0
 40
0.0
 40
0.5
 40
0.5
 40
1.0
 40
1.0
 40
1.0
 40
1.0
 10
43.95471165904704
 20
196.1036354972077
 30
0.0
 10
43.39964464500083
 20
196.2239952414822
 30
0.0
 10
42.86784774434174
 20
196.285445294149
 30
0.0
 10
41.86171087259218
 20
196.2744383625339
 30
0.0
 10
41.38678912420564
 20
196.20306491183
 30
0.0
 10
40.95471165904703
 20
196.0402252728242
 30
0.0
  0
LINE
  5
DA
330
1F
100
AcDbEntity
  8
0
  6
Continuous
 62
     7
370
    15
100
AcDbLine
 10
40.954711659
 20
196.0402248058
 30
0.0
 11
40.954711659
 21
218.0621983114
 31
0.0
  0
LINE
  5
DB
330
1F
100
AcDbEntity
  8
0
  6
Continuous
 62
     7
370
    15
100
AcDbLine
 10
40.954711659
 20
236.2789684537
 30
0.0
 11
40.954711659
 21
258.3009419593
 31
0.0
  0
SPLINE
  5
DC
330
1F
100
AcDbEntity
  8
0
  6
Continuous
 62
     7
370
    15
100
AcDbSpline
210
0.0
220
0.0
230
1.0
 70
     8
 71
     3
 72
    10
 73
     6
 74
     0
 42
0.00000001
 43
0.00000001
 12
1.0
 22
0.0
 32
0.0
 13
1.0
 23
0.0
 33
0.0
 40
0.0
 40
0.0
 40
0.0
 40
0.0
 40
0.5
 40
0.5
 40
1.0
 40
1.0
 40
1.0
 40
1.0
 10
40.95471165904703
 20
258.3009414922496
 30
0.0
 10
41.38678912420564
 20
258.1381018532437
 30
0.0
 10
41.86171087259218
 20
258.0667284025399
 30
0.0
 10
42.86784774434174
 20
258.0557214709248
 30
0.0
 10
43.39964464500083
 20
258.1171715235915
 30
0.0
 10
43.95471165904704
 20
258.2375312678661
 30
0.0
  0
SPLINE
  5
DD
330
1F
100
AcDbEntity
  8
0
  6
Continuous
 62
     7
370
    15
100
AcDbSpline
210
0.0
220
0.0
230
1.0
 70
     8
 71
     3
 72
    20
 73
    16
 74
     0
 42
0.00000001
 43
0.00000001
 12
1.0
 22
0.0
 32
0.0
 13
1.0
 23
0.0
 33
0.0
 40
0.0
 40
0.0
 40
0.0
 40
0.0
 40
0.125
 40
0.125
 40
0.25
 40
0.25
 40
0.375
 40
0.375
 40
0.5
 40
0.5
 40
0.75
 40
0.75
 40
0.875
 40
0.875
 40
1.0
 40
1.0
 40
1.0
 40
1.0
 10
141.3238717684398
 20
177.1651228689593
 30
0.0
 10
141.1614831420783
 20
177.1714719126227
 30
0.0
 10
141.0025320693591
 20
177.1941032966567
 30
0.0
 10
140.691235555851
 20
177.2706543466371
 30
0.0
 10
140.5372390351056
 20
177.3254782203452
 30
0.0
 10
140.2461116886373
 20
177.4636377794826
 30
0.0
 10
140.1088859062241
 20
177.546490078138
 30
0.0
 10
139.8508079820819
 20
177.7392406375136
 30
0.0
 10
139.7300716156029
 20
177.8496344761923
 30
0.0
 10
139.4075402639957
 20
178.2072899094419
 30
0.0
 10
139.237561456949
 20
178.490050044381
 30
0.0
 10
139.0686920283743
 20
178.940893828593
 30
0.0
 10
139.0257029769315
 20
179.097761631207
 30
0.0
 10
138.9687021516162
 20
179.4161663922323
 30
0.0
 10
138.9547116590471
 20
179.5760780772255
 30
0.0
 10
138.9547116590471
 20
179.7366736749491
 30
0.0
  0
LINE
  5
DE
330
1F
100
AcDbEntity
  8
0
  6
Continuous
 62
     7
370
    15
100
AcDbLine
 10
138.954709096
 20
212.4332353103
 30
0.0
 11
138.954709096
 21
179.7366743538
 31
0.0
  0
SPLINE
  5
DF
330
1F
100
AcDbEntity
  8
0
  6
Continuous
 62
     7
370
    15
100
AcDbSpline
210
0.0
220
0.0
230
1.0
 70
     8
 71
     3
 72
    20
 73
    16
 74
     0
 42
0.00000001
 43
0.00000001
 12
1.0
 22
0.0
 32
0.0
 13
1.0
 23
0.0
 33
0.0
 40
0.0
 40
0.0
 40
0.0
 40
0.0
 40
0.25
 40
0.25
 40
0.375
 40
0.375
 40
0.5
 40
0.5
 40
0.625
 40
0.625
 40
0.75
 40
0.75
 40
0.875
 40
0.875
 40
1.0
 40
1.0
 40
1.0
 40
1.0
 10
138.9547116590471
 20
274.60449309012
 30
0.0
 10
138.9547116590466
 20
274.9251510903957
 30
0.0
 10
139.0124696298776
 20
275.2500470069767
 30
0.0
 10
139.1810485158778
 20
275.7003019630361
 30
0.0
 10
139.2517558199374
 20
275.8470240669211
 30
0.0
 10
139.4190674835625
 20
276.1237110209503
 30
0.0
 10
139.5145562610702
 20
276.2524518648704
 30
0.0
 10
139.7292352608138
 20
276.4906994343932
 30
0.0
 10
139.8500394935908
 20
276.6012701211303
 30
0.0
 10
140.1080571763531
 20
276.7941392732542
 30
0.0
 10
140.2451476348857
 20
276.8769687626923
 30
0.0
 10
140.5357032646795
 20
277.015061552656
 30
0.0
 10
140.6900908643277
 20
277.0701763172351
 30
0.0
 10
141.0021497175501
 20
277.1470237872161
 30
0.0
 10
141.1613628159885
 20
277.1696901479614
 30
0.0
 10
141.3238717684398
 20
277.1760438961143
 30
0.0
  0
LINE
  5
E0
330
1F
100
AcDbEntity
  8
0
  6
Continuous
 62
     7
370
    15
100
AcDbLine
 10
138.954709096
 20
274.6044924113
 30
0.0
 11
138.954709096
 21
241.9079314548
 31
0.0
  0
SPLINE
  5
E1
330
1F
100
AcDbEntity
  8
0
  6
Continuous
 62
     7
370
    15
100
AcDbSpline
210
0.0
220
0.0
230
1.0
 70
     8
 71
     3
 72
    10
 73
     6
 74
     0
 42
0.00000001
 43
0.00000001
 12
1.0
 22
0.0
 32
0.0
 13
1.0
 23
0.0
 33
0.0
 40
0.0
 40
0.0
 40
0.0
 40
0.0
 40
0.5
 40
0.5
 40
1.0
 40
1.0
 40
1.0
 40
1.0
 10
43.95471165904705
 20
268.870040802151
 30
0.0
 10
43.39964464500085
 20
268.2675323672159
 30
0.0
 10
42.86784774434175
 20
267.6479020859261
 30
0.0
 10
41.86171087259218
 20
266.3661756285859
 30
0.0
 10
41.38678912420564
 20
265.7045139154507
 30
0.0
 10
40.95471165904703
 20
265.0110485482958
 30
0.0
  0
LINE
  5
E2
330
1F
100
AcDbEntity
  8
0
  6
Continuous
 62
     7
370
    15
100
AcDbLine
 10
40.954711659
 20
265.0110503289
 30
0.0
 11
40.954711659
 21
258.3009419593
 31
0.0
  0
SPLINE
  5
E3
330
1F
100
AcDbEntity
  8
0
  6
Continuous
 62
     7
370
    15
100
AcDbSpline
210
0.0
220
0.0
230
1.0
 70
     8
 71
     3
 72
    10
 73
     6
 74
     0
 42
0.00000001
 43
0.00000001
 12
1.0
 22
0.0
 32
0.0
 13
1.0
 23
0.0
 33
0.0
 40
0.0
 40
0.0
 40
0.0
 40
0.0
 40
0.5
 40
0.5
 40
1.0
 40
1.0
 40
1.0
 40
1.0
 10
40.95471165904703
 20
189.3301182167779
 30
0.0
 10
41.38678912420564
 20
188.6366528496231
 30
0.0
 10
41.86171087259218
 20
187.9749911364878
 30
0.0
 10
42.86784774434174
 20
186.6932646791475
 30
0.0
 10
43.39964464500083
 20
186.0736343978577
 30
0.0
 10
43.95471165904704
 20
185.4711259629227
 30
0.0
  0
LINE
  5
E4
330
1F
100
AcDbEntity
  8
0
  6
Continuous
 62
     7
370
    15
100
AcDbLine
 10
40.954711659
 20
196.0402248058
 30
0.0
 11
40.954711659
 21
189.3301164362
 31
0.0
  0
LINE
  5
E5
330
1F
100
AcDbEntity
  8
0
  6
Continuous
 62
     7
370
    15
100
AcDbLine
 10
136.6575013829
 20
271.1705831441
 30
0.0
 11
136.6575013829
 21
233.1705834347
 31
0.0
  0
LINE
  5
E6
330
1F
100
AcDbEntity
  8
0
  6
Continuous
 62
     7
370
    15
100
AcDbLine
 10
136.6575013829
 20
221.1705833304
 30
0.0
 11
136.6575013829
 21
183.170583621
 31
0.0
  0
SPLINE
  5
E7
330
1F
100
AcDbEntity
  8
0
  6
Continuous
 62
     7
370
    15
100
AcDbSpline
210
0.0
220
0.0
230
1.0
 70
     8
 71
     3
 72
     8
 73
     4
 74
     0
 42
0.00000001
 43
0.00000001
 12
1.0
 22
0.0
 32
0.0
 13
1.0
 23
0.0
 33
0.0
 40
0.0
 40
0.0
 40
0.0
 40
0.0
 40
1.0
 40
1.0
 40
1.0
 40
1.0
 10
62.02974740725214
 20
186.455770664682
 30
0.0
 10
67.76103521397798
 20
186.9645118086773
 30
0.0
 10
73.49446349370082
 20
187.4663147380156
 30
0.0
 10
79.22974740725218
 20
187.9611396080125
 30
0.0
  0
LINE
  5
E8
330
1F
100
AcDbEntity
  8
0
  6
Continuous
 62
     7
370
    15
100
AcDbLine
 10
79.2297486199
 20
212.9657283056
 30
0.0
 11
79.2297486199
 21
187.9611393067
 31
0.0
  0
SPLINE
  5
E9
330
1F
100
AcDbEntity
  8
0
  6
Continuous
 62
     7
370
    15
100
AcDbSpline
210
0.0
220
0.0
230
1.0
 70
     8
 71
     3
 72
     8
 73
     4
 74
     0
 42
0.00000001
 43
0.00000001
 12
1.0
 22
0.0
 32
0.0
 13
1.0
 23
0.0
 33
0.0
 40
0.0
 40
0.0
 40
0.0
 40
0.0
 40
1.0
 40
1.0
 40
1.0
 40
1.0
 10
79.22974740725216
 20
212.9657279432785
 30
0.0
 10
73.4944634937008
 20
213.1541654338204
 30
0.0
 10
67.76103521397798
 20
213.3746199956134
 30
0.0
 10
62.02974740725214
 20
213.6345069540824
 30
0.0
  0
SPLINE
  5
EA
330
1F
100
AcDbEntity
  8
0
  6
Continuous
 62
     7
370
    15
100
AcDbSpline
210
0.0
220
0.0
230
1.0
 70
     8
 71
     3
 72
     8
 73
     4
 74
     0
 42
0.00000001
 43
0.00000001
 12
1.0
 22
0.0
 32
0.0
 13
1.0
 23
0.0
 33
0.0
 40
0.0
 40
0.0
 40
0.0
 40
0.0
 40
1.0
 40
1.0
 40
1.0
 40
1.0
 10
62.02974740725214
 20
240.7066598109929
 30
0.0
 10
67.76103521397798
 20
240.9665467694618
 30
0.0
 10
73.4944634937008
 20
241.1870013312548
 30
0.0
 10
79.22974740725216
 20
241.3754388217967
 30
0.0
  0
LINE
  5
EB
330
1F
100
AcDbEntity
  8
0
  6
Continuous
 62
     7
370
    15
100
AcDbLine
 10
79.2297486199
 20
266.3800274584
 30
0.0
 11
79.2297486199
 21
241.3754384595
 31
0.0
  0
SPLINE
  5
EC
330
1F
100
AcDbEntity
  8
0
  6
Continuous
 62
     7
370
    15
100
AcDbSpline
210
0.0
220
0.0
230
1.0
 70
     8
 71
     3
 72
     8
 73
     4
 74
     0
 42
0.00000001
 43
0.00000001
 12
1.0
 22
0.0
 32
0.0
 13
1.0
 23
0.0
 33
0.0
 40
0.0
 40
0.0
 40
0.0
 40
0.0
 40
1.0
 40
1.0
 40
1.0
 40
1.0
 10
79.22974740725216
 20
266.3800271570614
 30
0.0
 10
73.4944634937008
 20
266.8748520270583
 30
0.0
 10
67.76103521397798
 20
267.3766549563966
 30
0.0
 10
62.02974740725214
 20
267.8853961003919
 30
0.0
  0
LINE
  5
ED
330
1F
100
AcDbEntity
  8
0
  6
Continuous
 62
     7
370
    15
100
AcDbLine
 10
88.327231629
 20
246.8598881367
 30
0.0
 11
84.9547114206
 21
246.8598881367
 31
0.0
  0
LINE
  5
EE
330
1F
100
AcDbEntity
  8
0
  6
Continuous
 62
     7
370
    15
100
AcDbLine
 10
84.9547114206
 20
246.8598881367
 30
0.0
 11
84.9547114206
 21
250.2884590629
 31
0.0
  0
SPLINE
  5
EF
330
1F
100
AcDbEntity
  8
0
  6
Continuous
 62
     7
370
    15
100
AcDbSpline
210
0.0
220
0.0
230
1.0
 70
    24
 71
     3
 72
     8
 73
     4
 74
     0
 42
0.00000001
 43
0.00000001
 12
1.0
 22
0.0
 32
0.0
 13
1.0
 23
0.0
 33
0.0
 40
0.0
 40
0.0
 40
0.0
 40
0.0
 40
1.0
 40
1.0
 40
1.0
 40
1.0
 10
84.95471165904694
 20
250.2884596629133
 30
0.0
 10
88.20586499036615
 20
250.2884596629133
 30
0.0
 10
91.4569478722022
 20
250.2884596629133
 30
0.0
 10
94.7079481713973
 20
250.2884596629133
 30
0.0
  0
LWPOLYLINE
  5
F0
330
1F
100
AcDbEntity
  8
0
  6
Continuous
 62
     7
370
    15
100
AcDbPolyline
 90
       13
 70
   128
 43
0.0
 10
94.7079498304
 20
250.2884590629
 10
95.0941320492
 20
249.3399405482
 10
95.4864088429
 20
248.3764538172
 10
95.8844970895
 20
247.3986880484
 10
96.2881211174
 20
246.4073380086
 10
96.6969829036
 20
245.4031115028
 10
97.1107993258
 20
244.3867237869
 10
97.5292686356
 20
243.358903155
 10
97.9520965351
 20
242.3203779015
 10
98.3789775504
 20
241.271892153
 10
98.8096136583
 20
240.214191899
 10
99.2436919344
 20
239.148032442
 10
99.680906905
 20
238.0741737413
  0
LINE
  5
F1
330
1F
100
AcDbEntity
  8
0
  6
Continuous
 62
     7
370
    15
100
AcDbLine
 10
99.680906905
 20
238.0741737413
 30
0.0
 11
95.8402369154
 21
238.0741737413
 31
0.0
  0
LWPOLYLINE
  5
F2
330
1F
100
AcDbEntity
  8
0
  6
Continuous
 62
     7
370
    15
100
AcDbPolyline
 90
        3
 70
   128
 43
0.0
 10
95.8402369154
 20
238.0741737413
 10
95.4551797343
 20
239.0199364725
 10
95.0724843873
 20
239.9598886821
  0
LINE
  5
F3
330
1F
100
AcDbEntity
  8
0
  6
Continuous
 62
     7
370
    15
100
AcDbLine
 10
95.0724843873
 20
239.9598886821
 30
0.0
 11
89.4887845946
 21
239.9598886821
 31
0.0
  0
LWPOLYLINE
  5
F4
330
1F
100
AcDbEntity
  8
0
  6
Continuous
 62
     7
370
    15
100
AcDbPolyline
 90
        3
 70
   128
 43
0.0
 10
89.4887845946
 20
239.9598886821
 10
89.1281876696
 20
239.020495266
 10
88.764927162
 20
238.0741737413
  0
LINE
  5
F5
330
1F
100
AcDbEntity
  8
0
  6
Continuous
 62
     7
370
    15
100
AcDbLine
 10
88.764927162
 20
238.0741737413
 30
0.0
 11
84.9547114206
 21
238.0741737413
 31
0.0
  0
LWPOLYLINE
  5
F6
330
1F
100
AcDbEntity
  8
0
  6
Continuous
 62
     7
370
    15
100
AcDbPolyline
 90
        9
 70
   128
 43
0.0
 10
84.9547114206
 20
238.0741737413
 10
85.3921052052
 20
239.2136189717
 10
85.8256284131
 20
240.3429854292
 10
86.2549494935
 20
241.4614125717
 10
86.6797480715
 20
242.5680445138
 10
87.0996925963
 20
243.6620393398
 10
87.5144664181
 20
244.7425597909
 10
87.9237491621
 20
245.8087807152
 10
88.327231629
 20
246.8598881367
  0
LWPOLYLINE
  5
F7
330
1F
100
AcDbEntity
  8
0
  6
Continuous
 62
     7
370
    15
100
AcDbPolyline
 90
        5
 70
   128
 43
0.0
 10
90.3718348576
 20
243.2170310619
 10
90.7897416485
 20
244.3057154867
 10
91.2021908892
 20
245.3801842037
 10
91.6088659299
 20
246.4396008852
 10
92.0094426704
 20
247.4831441048
  0
LINE
  5
F8
330
1F
100
AcDbEntity
  8
0
  6
Continuous
 62
     7
370
    15
100
AcDbLine
 10
93.7463592721
 20
243.2170310619
 30
0.0
 11
90.3718348576
 21
243.2170310619
 31
0.0
  0
LWPOLYLINE
  5
F9
330
1F
100
AcDbEntity
  8
0
  6
Continuous
 62
     7
370
    15
100
AcDbPolyline
 90
        5
 70
   128
 43
0.0
 10
92.0094426704
 20
247.4831441048
 10
92.4353737367
 20
246.4370024952
 10
92.8670603765
 20
245.3767140958
 10
93.304171039
 20
244.3031115088
 10
93.7463592721
 20
243.2170310619
  0
SPLINE
  5
FA
330
1F
100
AcDbEntity
  8
0
  6
Continuous
 62
     7
370
    15
100
AcDbSpline
210
0.0
220
0.0
230
1.0
 70
    24
 71
     3
 72
     8
 73
     4
 74
     0
 42
0.00000001
 43
0.00000001
 12
1.0
 22
0.0
 32
0.0
 13
1.0
 23
0.0
 33
0.0
 40
0.0
 40
0.0
 40
0.0
 40
0.0
 40
1.0
 40
1.0
 40
1.0
 40
1.0
 10
84.9547116590469
 20
255.2170310914846
 30
0.0
 10
89.32644868821333
 20
255.2170310914847
 30
0.0
 10
93.69790684964097
 20
255.2170310914848
 30
0.0
 10
98.06899737333264
 20
255.2170310914848
 30
0.0
  0
LWPOLYLINE
  5
FB
330
1F
100
AcDbEntity
  8
0
  6
Continuous
 62
     7
370
    15
100
AcDbPolyline
 90
       14
 70
   128
 43
0.0
 10
98.0689961446
 20
255.2170311662
 10
98.4062615765
 20
254.3886644396
 10
98.7508695556
 20
253.5422579947
 10
99.1025816632
 20
252.67840229
 10
99.4611557556
 20
251.7976915094
 10
99.8263459636
 20
250.9007366004
 10
100.1978952421
 20
249.9881596866
 10
100.5755465461
 20
249.0605922046
 10
100.9590428306
 20
248.1186786297
 10
101.3481121493
 20
247.1630671623
 10
101.7424900068
 20
246.1944209042
 10
102.1419007314
 20
245.2134122702
 10
102.5460686518
 20
244.2207192632
 10
102.9547106458
 20
243.2170310619
  0
LWPOLYLINE
  5
FC
330
1F
100
AcDbEntity
  8
0
  6
Continuous
 62
     7
370
    15
100
AcDbPolyline
 90
       14
 70
   128
 43
0.0
 10
102.9547106458
 20
243.2170310619
 10
103.3684004081
 20
244.2331058535
 10
103.7768002583
 20
245.236199871
 10
104.1796307994
 20
246.2255959961
 10
104.576590283
 20
247.2005957368
 10
104.9674104882
 20
248.1605024639
 10
105.351808293
 20
249.1046363118
 10
105.7295080257
 20
250.0323230031
 10
106.1002489162
 20
250.942905024
 10
106.463755293
 20
251.8357360366
 10
106.8197812868
 20
252.7101771536
 10
107.1680586768
 20
253.5656099769
 10
107.508356495
 20
254.4014272842
 10
107.8404288722
 20
255.2170311662
  0
SPLINE
  5
FD
330
1F
100
AcDbEntity
  8
0
  6
Continuous
 62
     7
370
    15
100
AcDbSpline
210
0.0
220
0.0
230
1.0
 70
    24
 71
     3
 72
     8
 73
     4
 74
     0
 42
0.00000001
 43
0.00000001
 12
1.0
 22
0.0
 32
0.0
 13
1.0
 23
0.0
 33
0.0
 40
0.0
 40
0.0
 40
0.0
 40
0.0
 40
1.0
 40
1.0
 40
1.0
 40
1.0
 10
107.8404259447612
 20
255.2170310914849
 30
0.0
 10
112.2122476462349
 20
255.217031091485
 30
0.0
 10
116.5837193626341
 20
255.217031091485
 30
0.0
 10
120.9547116590469
 20
255.2170310914851
 30
0.0
  0
LINE
  5
FE
330
1F
100
AcDbEntity
  8
0
  6
Continuous
 62
     7
370
    15
100
AcDbLine
 10
120.9547098709
 20
255.2170311662
 30
0.0
 11
120.9547098709
 21
251.6598874333
 31
0.0
  0
SPLINE
  5
FF
330
1F
100
AcDbEntity
  8
0
  6
Continuous
 62
     7
370
    15
100
AcDbSpline
210
0.0
220
0.0
230
1.0
 70
    24
 71
     3
 72
     8
 73
     4
 74
     0
 42
0.00000001
 43
0.00000001
 12
1.0
 22
0.0
 32
0.0
 13
1.0
 23
0.0
 33
0.0
 40
0.0
 40
0.0
 40
0.0
 40
0.0
 40
1.0
 40
1.0
 40
1.0
 40
1.0
 10
120.954711659047
 20
251.6598882343422
 30
0.0
 10
117.3963183032576
 20
251.6598882343422
 30
0.0
 10
113.8377754476712
 20
251.6598882343422
 30
0.0
 10
110.2791026715674
 20
251.6598882343421
 30
0.0
  0
LWPOLYLINE
  5
100
330
1F
100
AcDbEntity
  8
0
  6
Continuous
 62
     7
370
    15
100
AcDbPolyline
 90
       15
 70
   128
 43
0.0
 10
110.2791007591
 20
251.6598874333
 10
109.9226053787
 20
250.7842821631
 10
109.5591139031
 20
249.8915014419
 10
109.1888871027
 20
248.9821655306
 10
108.8121708466
 20
248.0569040033
 10
108.4292333556
 20
247.1163557473
 10
108.0403428508
 20
246.1611745509
 10
107.6457601024
 20
245.1920197907
 10
107.2457533313
 20
244.2095638814
 10
106.8406205607
 20
243.2144866887
 10
106.4306225611
 20
242.2074773911
 10
106.0160499049
 20
241.1892326179
 10
105.5971931649
 20
240.1604583117
 10
105.1743354631
 20
239.1218650716
 10
104.7477748228
 20
238.0741737413
  0
LINE
  5
101
330
1F
100
AcDbEntity
  8
0
  6
Continuous
 62
     7
370
    15
100
AcDbLine
 10
104.7477748228
 20
238.0741737413
 30
0.0
 11
101.1616464687
 21
238.0741737413
 31
0.0
  0
LWPOLYLINE
  5
102
330
1F
100
AcDbEntity
  8
0
  6
Continuous
 62
     7
370
    15
100
AcDbPolyline
 90
       14
 70
   128
 43
0.0
 10
101.1616464687
 20
238.0741737413
 10
100.7082972659
 20
239.1876676682
 10
100.258349253
 20
240.2928039062
 10
99.8121488822
 20
241.3887302953
 10
99.3700426055
 20
242.4746021259
 10
98.9323731495
 20
243.5495821389
 10
98.4994757904
 20
244.6128395948
 10
98.0716820789
 20
245.6635577235
 10
97.6493272913
 20
246.7009244117
 10
97.2327318026
 20
247.7241405848
 10
96.8222197128
 20
248.7324164811
 10
96.4181076718
 20
249.724973515
 10
96.0207048787
 20
250.7010480019
 10
95.6303205324
 20
251.6598874333
  0
SPLINE
  5
103
330
1F
100
AcDbEntity
  8
0
  6
Continuous
 62
     7
370
    15
100
AcDbSpline
210
0.0
220
0.0
230
1.0
 70
    24
 71
     3
 72
     8
 73
     4
 74
     0
 42
0.00000001
 43
0.00000001
 12
1.0
 22
0.0
 32
0.0
 13
1.0
 23
0.0
 33
0.0
 40
0.0
 40
0.0
 40
0.0
 40
0.0
 40
1.0
 40
1.0
 40
1.0
 40
1.0
 10
95.63032064652654
 20
251.6598882343419
 30
0.0
 10
92.07189958820695
 20
251.6598882343419
 30
0.0
 10
88.51335822443477
 20
251.6598882343419
 30
0.0
 10
84.95471165904695
 20
251.6598882343418
 30
0.0
  0
LINE
  5
104
330
1F
100
AcDbEntity
  8
0
  6
Continuous
 62
     7
370
    15
100
AcDbLine
 10
84.9547114206
 20
251.6598874333
 30
0.0
 11
84.9547114206
 21
255.2170311662
 31
0.0
  0
LINE
  5
105
330
1F
100
AcDbEntity
  8
0
  6
Continuous
 62
     7
370
    15
100
AcDbLine
 10
120.9547098709
 20
250.2884590629
 30
0.0
 11
120.9547098709
 21
246.8598881367
 31
0.0
  0
LINE
  5
106
330
1F
100
AcDbEntity
  8
0
  6
Continuous
 62
     7
370
    15
100
AcDbLine
 10
120.9547098709
 20
246.8598881367
 30
0.0
 11
119.9261423183
 21
246.8598881367
 31
0.0
  0
SPLINE
  5
107
330
1F
100
AcDbEntity
  8
0
  6
Continuous
 62
     7
370
    15
100
AcDbSpline
210
0.0
220
0.0
230
1.0
 70
     8
 71
     3
 72
    14
 73
    10
 74
     0
 42
0.00000001
 43
0.00000001
 12
1.0
 22
0.0
 32
0.0
 13
1.0
 23
0.0
 33
0.0
 40
0.0
 40
0.0
 40
0.0
 40
0.0
 40
0.25
 40
0.25
 40
0.5
 40
0.5
 40
0.75
 40
0.75
 40
1.0
 40
1.0
 40
1.0
 40
1.0
 10
119.9261402304756
 20
246.8598882343422
 30
0.0
 10
119.7747879273893
 20
246.464050597927
 30
0.0
 10
119.5777494717741
 20
246.086663955363
 30
0.0
 10
119.0876340897335
 20
245.373472259753
 30
0.0
 10
118.7902581767768
 20
245.0352269909715
 30
0.0
 10
118.1211669063777
 20
244.4446511996977
 30
0.0
 10
117.745923613557
 20
244.1865694983229
 30
0.0
 10
116.9137393334853
 20
243.7634188636505
 30
0.0
 10
116.4723112721227
 20
243.6057181488791
 30
0.0
 10
116.0041766361235
 20
243.5062888250886
 30
0.0
  0
LWPOLYLINE
  5
108
330
1F
100
AcDbEntity
  8
0
  6
Continuous
 62
     7
370
    15
100
AcDbPolyline
 90
        6
 70
   128
 43
0.0
 10
116.0041790439
 20
243.5062886777
 10
116.8080817891
 20
242.4394707757
 10
117.620038612
 20
241.3619724664
 10
118.4393789602
 20
240.2746673304
 10
119.2654471827
 20
239.1784382614
 10
120.0975652767
 20
238.0741737413
  0
LINE
  5
109
330
1F
100
AcDbEntity
  8
0
  6
Continuous
 62
     7
370
    15
100
AcDbLine
 10
120.0975652767
 20
238.0741737413
 30
0.0
 11
115.6435411406
 21
238.0741737413
 31
0.0
  0
LWPOLYLINE
  5
10A
330
1F
100
AcDbEntity
  8
0
  6
Continuous
 62
     7
370
    15
100
AcDbPolyline
 90
        5
 70
   128
 43
0.0
 10
115.6435411406
 20
238.0741737413
 10
114.726963265
 20
239.290519208
 10
113.8176795078
 20
240.4971779886
 10
112.9165764881
 20
241.6929812732
 10
112.0245259238
 20
242.8767704967
  0
LWPOLYLINE
  5
10B
330
1F
100
AcDbEntity
  8
0
  6
Continuous
 62
     7
370
    15
100
AcDbPolyline
 90
        5
 70
   128
 43
0.0
 10
112.0245259238
 20
242.8767704967
 10
111.5444328619
 20
241.6975941139
 10
111.0582005216
 20
240.5033368248
 10
110.5662908388
 20
239.2951432246
 10
110.0691881014
 20
238.0741737413
  0
LINE
  5
10C
330
1F
100
AcDbEntity
  8
0
  6
Continuous
 62
     7
370
    15
100
AcDbLine
 10
110.0691881014
 20
238.0741737413
 30
0.0
 11
106.2285181118
 21
238.0741737413
 31
0.0
  0
LWPOLYLINE
  5
10D
330
1F
100
AcDbEntity
  8
0
  6
Continuous
 62
     7
370
    15
100
AcDbPolyline
 90
       13
 70
   128
 43
0.0
 10
106.2285181118
 20
238.0741737413
 10
106.6708963347
 20
239.1607282314
 10
107.1092661453
 20
240.2374134961
 10
107.5432848168
 20
241.3034239414
 10
107.9726319743
 20
242.35795863
 10
108.3969797922
 20
243.4002296629
 10
108.8160227967
 20
244.4294565919
 10
109.2294406129
 20
245.4448664191
 10
109.6369203163
 20
246.4457010481
 10
110.0381638838
 20
247.4312098327
 10
110.4328658415
 20
248.4006551656
 10
110.8207356168
 20
249.3533087525
 10
111.2014751864
 20
250.2884590629
  0
LINE
  5
10E
330
1F
100
AcDbEntity
  8
0
  6
Continuous
 62
     7
370
    15
100
AcDbLine
 10
111.2014751864
 20
250.2884590629
 30
0.0
 11
115.042145176
 21
250.2884590629
 31
0.0
  0
LWPOLYLINE
  5
10F
330
1F
100
AcDbEntity
  8
0
  6
Continuous
 62
     7
370
    15
100
AcDbPolyline
 90
        5
 70
   128
 43
0.0
 10
115.042145176
 20
250.2884590629
 10
114.6026801301
 20
249.2090785506
 10
114.1536336375
 20
248.1061542037
 10
113.6954601837
 20
246.9808054718
 10
113.2286142541
 20
245.8341760191
  0
SPLINE
  5
110
330
1F
100
AcDbEntity
  8
0
  6
Continuous
 62
     7
370
    15
100
AcDbSpline
210
0.0
220
0.0
230
1.0
 70
     8
 71
     3
 72
    22
 73
    18
 74
     0
 42
0.00000001
 43
0.00000001
 12
1.0
 22
0.0
 32
0.0
 13
1.0
 23
0.0
 33
0.0
 40
0.0
 40
0.0
 40
0.0
 40
0.0
 40
0.125
 40
0.125
 40
0.25
 40
0.25
 40
0.375
 40
0.375
 40
0.5
 40
0.5
 40
0.625
 40
0.625
 40
0.75
 40
0.75
 40
0.875
 40
0.875
 40
1.0
 40
1.0
 40
1.0
 40
1.0
 10
113.2286141931027
 20
245.8341757788502
 30
0.0
 10
113.5452598172671
 20
245.8455226011091
 30
0.0
 10
113.8524867790665
 20
245.8899422107217
 30
0.0
 10
114.4495090113452
 20
246.0393422200267
 30
0.0
 10
114.7417123868389
 20
246.1461501689357
 30
0.0
 10
115.2834043691516
 20
246.4086265328451
 30
0.0
 10
115.5359063367924
 20
246.5645273675898
 30
0.0
 10
116.0055994382465
 20
246.9225006782411
 30
0.0
 10
116.2160967256016
 20
247.1195322479407
 30
0.0
 10
116.5918896703791
 20
247.5433612752725
 30
0.0
 10
116.7584578265303
 20
247.7725437533375
 30
0.0
 10
117.0400932536147
 20
248.2458268497594
 30
0.0
 10
117.1561011847833
 20
248.4902736651579
 30
0.0
 10
117.3420584769112
 20
248.9927593684075
 30
0.0
 10
117.4118109721212
 20
249.2516560859748
 30
0.0
 10
117.5034736893918
 20
249.7684486887147
 30
0.0
 10
117.5261402304756
 20
250.0279752288365
 30
0.0
 10
117.5261402304756
 20
250.2884596629136
 30
0.0
  0
LINE
  5
111
330
1F
100
AcDbEntity
  8
0
  6
Continuous
 62
     7
370
    15
100
AcDbLine
 10
117.5261389447
 20
250.2884590629
 30
0.0
 11
120.9547098709
 21
250.2884590629
 31
0.0
  0
LINE
  5
112
330
1F
100
AcDbEntity
  8
0
  6
Continuous
 62
     7
370
    15
100
AcDbLine
 10
171.0475411249
 20
263.1705818328
 30
0.0
 11
171.0475411249
 21
238.1402380395
 31
0.0
  0
LINE
  5
113
330
1F
100
AcDbEntity
  8
0
  6
Continuous
 62
     7
370
    15
100
AcDbLine
 10
171.0475411249
 20
216.2009287256
 30
0.0
 11
171.0475411249
 21
191.1705849323
 31
0.0
  0
ELLIPSE
  5
114
330
1F
100
AcDbEntity
  8
0
  6
Continuous
 62
     7
370
    15
100
AcDbEllipse
 10
774.0628892585
 20
227.1705833825
 30
0.0
 11
1451.16145328697
 21
3.126388037344441E-13
 31
0.0
210
0.0
220
0.0
230
1.0
 40
0.0261859216
 41
4.280995345238424
 42
4.281578773774843
  0
ELLIPSE
  5
115
330
1F
100
AcDbEntity
  8
0
  6
Continuous
 62
     7
370
    15
100
AcDbEllipse
 10
774.0628892585
 20
227.1705833825
 30
0.0
 11
1451.16145328697
 21
5.684341886080801E-14
 31
0.0
210
0.0
220
0.0
230
1.0
 40
0.0261859216
 41
2.001606533404836
 42
2.002189961941257
  0
LINE
  5
116
330
1F
100
AcDbEntity
  8
0
  6
Continuous
 62
     7
370
    15
100
AcDbLine
 10
62.0297480358
 20
209.6163058284
 30
0.0
 11
79.2297486199
 21
209.6163058284
 31
0.0
  0
LINE
  5
117
330
1F
100
AcDbEntity
  8
0
  6
Continuous
 62
     7
370
    15
100
AcDbLine
 10
79.2297486199
 20
244.7248609367
 30
0.0
 11
62.0297480358
 21
244.7248609367
 31
0.0
  0
SPLINE
  5
118
330
1F
100
AcDbEntity
  8
0
  6
Continuous
 62
     7
370
    15
100
AcDbSpline
210
0.0
220
0.0
230
1.0
 70
     8
 71
     3
 72
     8
 73
     4
 74
     0
 42
0.00000001
 43
0.00000001
 12
1.0
 22
0.0
 32
0.0
 13
1.0
 23
0.0
 33
0.0
 40
0.0
 40
0.0
 40
0.0
 40
0.0
 40
1.0
 40
1.0
 40
1.0
 40
1.0
 10
43.95471165904704
 20
277.7405833825368
 30
0.0
 10
42.88969766167607
 20
276.8544917367241
 30
0.0
 10
41.87963674142429
 20
276.0417246471205
 30
0.0
 10
40.95471165904703
 20
275.3165833825367
 30
0.0
  0
LINE
  5
119
330
1F
100
AcDbEntity
  8
0
  6
Continuous
 62
     7
370
    15
100
AcDbLine
 10
40.954711659
 20
265.0110503289
 30
0.0
 11
40.954711659
 21
275.3165816519
 31
0.0
  0
SPLINE
  5
11A
330
1F
100
AcDbEntity
  8
0
  6
Continuous
 62
     7
370
    15
100
AcDbSpline
210
0.0
220
0.0
230
1.0
 70
     8
 71
     3
 72
     8
 73
     4
 74
     0
 42
0.00000001
 43
0.00000001
 12
1.0
 22
0.0
 32
0.0
 13
1.0
 23
0.0
 33
0.0
 40
0.0
 40
0.0
 40
0.0
 40
0.0
 40
1.0
 40
1.0
 40
1.0
 40
1.0
 10
40.95471165904703
 20
179.0245833825373
 30
0.0
 10
41.87963674142429
 20
178.2994421179536
 30
0.0
 10
42.88969766167607
 20
177.48667502835
 30
0.0
 10
43.95471165904704
 20
176.6005833825375
 30
0.0
  0
LINE
  5
11B
330
1F
100
AcDbEntity
  8
0
  6
Continuous
 62
     7
370
    15
100
AcDbLine
 10
40.954711659
 20
179.0245851132
 30
0.0
 11
40.954711659
 21
189.3301164362
 31
0.0
  0
LINE
  5
11C
330
1F
100
AcDbEntity
  8
0
  6
Continuous
 62
     7
370
    15
100
AcDbLine
 10
62.0297480358
 20
252.879463658
 30
0.0
 11
79.2297486199
 21
252.879463658
 31
0.0
  0
LINE
  5
11D
330
1F
100
AcDbEntity
  8
0
  6
Continuous
 62
     7
370
    15
100
AcDbLine
 10
79.2297486199
 20
201.461703107
 30
0.0
 11
62.0297480358
 21
201.461703107
 31
0.0
  0
LINE
  5
11E
330
1F
100
AcDbEntity
  8
0
  6
Continuous
 62
     7
370
    15
100
AcDbLine
 10
163.0475398136
 20
274.14448984
 30
0.0
 11
163.0475398136
 21
300.1826224479
 31
0.0
  0
LINE
  5
11F
330
1F
100
AcDbEntity
  8
0
  6
Continuous
 62
     7
370
    15
100
AcDbLine
 10
163.0475398136
 20
308.6705846342
 30
0.0
 11
163.0475398136
 21
300.1826224479
 31
0.0
  0
LINE
  5
120
330
1F
100
AcDbEntity
  8
0
  6
Continuous
 62
     7
370
    15
100
AcDbLine
 10
168.0475350452
 20
308.6705846342
 30
0.0
 11
163.0475398136
 21
308.6705846342
 31
0.0
  0
LINE
  5
121
330
1F
100
AcDbEntity
  8
0
  6
Continuous
 62
     7
370
    15
100
AcDbLine
 10
168.0475350452
 20
261.6984365138
 30
0.0
 11
168.0475350452
 21
308.6705846342
 31
0.0
  0
LINE
  5
122
330
1F
100
AcDbEntity
  8
0
  6
Continuous
 62
     7
370
    15
100
AcDbLine
 10
168.0475350452
 20
145.6705821308
 30
0.0
 11
168.0475350452
 21
192.6427302512
 31
0.0
  0
LINE
  5
123
330
1F
100
AcDbEntity
  8
0
  6
Continuous
 62
     7
370
    15
100
AcDbLine
 10
168.0475350452
 20
145.6705821308
 30
0.0
 11
163.0475398136
 21
145.6705821308
 31
0.0
  0
LINE
  5
124
330
1F
100
AcDbEntity
  8
0
  6
Continuous
 62
     7
370
    15
100
AcDbLine
 10
163.0475398136
 20
145.6705821308
 30
0.0
 11
163.0475398136
 21
154.1585443172
 31
0.0
  0
LINE
  5
125
330
1F
100
AcDbEntity
  8
0
  6
Continuous
 62
     7
370
    15
100
AcDbLine
 10
163.0475398136
 20
154.1585443172
 30
0.0
 11
163.0475398136
 21
180.1966769251
 31
0.0
  0
LINE
  5
126
330
1F
100
AcDbEntity
  8
0
  6
Continuous
 62
     7
370
    15
100
AcDbLine
 10
163.0475398136
 20
300.1826224479
 30
0.0
 11
138.954709096
 21
279.4687380645
 31
0.0
  0
LINE
  5
127
330
1F
100
AcDbEntity
  8
0
  6
Continuous
 62
     7
370
    15
100
AcDbLine
 10
138.954709096
 20
274.6044924113
 30
0.0
 11
138.954709096
 21
279.4687380645
 31
0.0
  0
LINE
  5
128
330
1F
100
AcDbEntity
  8
0
  6
Continuous
 62
     7
370
    15
100
AcDbLine
 10
138.954709096
 20
174.8724287006
 30
0.0
 11
163.0475398136
 21
154.1585443172
 31
0.0
  0
LINE
  5
129
330
1F
100
AcDbEntity
  8
0
  6
Continuous
 62
     7
370
    15
100
AcDbLine
 10
138.954709096
 20
174.8724287006
 30
0.0
 11
138.954709096
 21
179.7366743538
 31
0.0
  0
LINE
  5
12A
330
1F
100
AcDbEntity
  8
0
  6
Continuous
 62
     7
370
    15
100
AcDbLine
 10
170.5475475622
 20
164.6705833825
 30
0.0
 11
170.5475475622
 21
176.6705816242
 31
0.0
  0
LINE
  5
12B
330
1F
100
AcDbEntity
  8
0
  6
Continuous
 62
     7
370
    15
100
AcDbLine
 10
170.5475475622
 20
152.6705814156
 30
0.0
 11
170.5475475622
 21
164.6705833825
 31
0.0
  0
LINE
  5
12C
330
1F
100
AcDbEntity
  8
0
  6
Continuous
 62
     7
370
    15
100
AcDbLine
 10
170.5475475622
 20
277.6705851409
 30
0.0
 11
170.5475475622
 21
301.6705853495
 31
0.0
  0
LINE
  5
12D
330
1F
100
AcDbEntity
  8
0
  6
Continuous
 62
     7
370
    15
100
AcDbLine
 10
180.5475380255
 20
174.1705840084
 30
0.0
 11
170.5475475622
 21
174.1705840084
 31
0.0
  0
LINE
  5
12E
330
1F
100
AcDbEntity
  8
0
  6
Continuous
 62
     7
370
    15
100
AcDbLine
 10
180.5475380255
 20
174.1705840084
 30
0.0
 11
180.5475380255
 21
164.6705833825
 31
0.0
  0
LINE
  5
12F
330
1F
100
AcDbEntity
  8
0
  6
Continuous
 62
     7
370
    15
100
AcDbLine
 10
180.5475380255
 20
164.6705833825
 30
0.0
 11
170.5475475622
 21
164.6705833825
 31
0.0
  0
LINE
  5
130
330
1F
100
AcDbEntity
  8
0
  6
Continuous
 62
     7
370
    15
100
AcDbLine
 10
180.5475380255
 20
155.170586482
 30
0.0
 11
170.5475475622
 21
155.170586482
 31
0.0
  0
LINE
  5
131
330
1F
100
AcDbEntity
  8
0
  6
Continuous
 62
     7
370
    15
100
AcDbLine
 10
180.5475380255
 20
164.6705833825
 30
0.0
 11
180.5475380255
 21
155.170586482
 31
0.0
  0
LINE
  5
132
330
1F
100
AcDbEntity
  8
0
  6
Continuous
 62
     7
370
    15
100
AcDbLine
 10
180.5475380255
 20
299.1705802831
 30
0.0
 11
170.5475475622
 21
299.1705802831
 31
0.0
  0
LINE
  5
133
330
1F
100
AcDbEntity
  8
0
  6
Continuous
 62
     7
370
    15
100
AcDbLine
 10
180.5475380255
 20
299.1705802831
 30
0.0
 11
180.5475380255
 21
289.6705833825
 31
0.0
  0
LINE
  5
134
330
1F
100
AcDbEntity
  8
0
  6
Continuous
 62
     7
370
    15
100
AcDbLine
 10
180.5475380255
 20
289.6705833825
 30
0.0
 11
170.5475475622
 21
289.6705833825
 31
0.0
  0
LINE
  5
135
330
1F
100
AcDbEntity
  8
0
  6
Continuous
 62
     7
370
    15
100
AcDbLine
 10
180.5475380255
 20
280.1705827567
 30
0.0
 11
170.5475475622
 21
280.1705827567
 31
0.0
  0
LINE
  5
136
330
1F
100
AcDbEntity
  8
0
  6
Continuous
 62
     7
370
    15
100
AcDbLine
 10
180.5475380255
 20
289.6705833825
 30
0.0
 11
180.5475380255
 21
280.1705827567
 31
0.0
  0
LINE
  5
137
330
1F
100
AcDbEntity
  8
0
  6
Continuous
 62
     7
370
    15
100
AcDbLine
 10
187.9575427605
 20
164.6705833825
 30
0.0
 11
187.9575427605
 21
172.6705846938
 31
0.0
  0
LINE
  5
138
330
1F
100
AcDbEntity
  8
0
  6
Continuous
 62
     7
370
    15
100
AcDbLine
 10
187.9575427605
 20
156.6705820712
 30
0.0
 11
187.9575427605
 21
164.6705833825
 31
0.0
  0
LINE
  5
139
330
1F
100
AcDbEntity
  8
0
  6
Continuous
 62
     7
370
    15
100
AcDbLine
 10
187.4575342966
 20
164.6705833825
 30
0.0
 11
187.4575342966
 21
172.6705846938
 31
0.0
  0
LINE
  5
13A
330
1F
100
AcDbEntity
  8
0
  6
Continuous
 62
     7
370
    15
100
AcDbLine
 10
187.4575342966
 20
156.6705820712
 30
0.0
 11
187.4575342966
 21
164.6705833825
 31
0.0
  0
LINE
  5
13B
330
1F
100
AcDbEntity
  8
0
  6
Continuous
 62
     7
370
    15
100
AcDbLine
 10
187.9575427605
 20
281.6705820712
 30
0.0
 11
187.9575427605
 21
297.6705846938
 31
0.0
  0
LINE
  5
13C
330
1F
100
AcDbEntity
  8
0
  6
Continuous
 62
     7
370
    15
100
AcDbLine
 10
187.4575342966
 20
281.6705820712
 30
0.0
 11
187.4575342966
 21
297.6705846938
 31
0.0
  0
LINE
  5
13D
330
1F
100
AcDbEntity
  8
0
  6
Continuous
 62
     7
370
    15
100
AcDbLine
 10
63.2575403882
 20
171.29558377
 30
0.0
 11
61.3295573724
 21
171.29558377
 31
0.0
  0
LINE
  5
13E
330
1F
100
AcDbEntity
  8
0
  6
Continuous
 62
     7
370
    15
100
AcDbLine
 10
63.2575403882
 20
171.29558377
 30
0.0
 11
63.2575403882
 21
158.0455867204
 31
0.0
  0
LINE
  5
13F
330
1F
100
AcDbEntity
  8
0
  6
Continuous
 62
     7
370
    15
100
AcDbLine
 10
63.2575403882
 20
158.0455867204
 30
0.0
 11
60.6390655024
 21
158.0455867204
 31
0.0
  0
LINE
  5
140
330
1F
100
AcDbEntity
  8
0
  6
Continuous
 62
     7
370
    15
100
AcDbLine
 10
63.2575403882
 20
296.2955800447
 30
0.0
 11
63.2575403882
 21
283.0455829951
 31
0.0
  0
LINE
  5
141
330
1F
100
AcDbEntity
  8
0
  6
Continuous
 62
     7
370
    15
100
AcDbLine
 10
63.2575403882
 20
283.0455829951
 30
0.0
 11
61.3295573724
 21
283.0455829951
 31
0.0
  0
LINE
  5
142
330
1F
100
AcDbEntity
  8
0
  6
Continuous
 62
     7
370
    15
100
AcDbLine
 10
63.2575403882
 20
296.2955800447
 30
0.0
 11
60.6390655024
 21
296.2955800447
 31
0.0
  0
LINE
  5
143
330
1F
100
AcDbEntity
  8
0
  6
Continuous
 62
     7
370
    15
100
AcDbLine
 10
199.4575437141
 20
164.6705833825
 30
0.0
 11
199.4575437141
 21
171.170581654
 31
0.0
  0
LINE
  5
144
330
1F
100
AcDbEntity
  8
0
  6
Continuous
 62
     7
370
    15
100
AcDbLine
 10
199.4575437141
 20
158.1705851111
 30
0.0
 11
199.4575437141
 21
164.6705833825
 31
0.0
  0
LINE
  5
145
330
1F
100
AcDbEntity
  8
0
  6
Continuous
 62
     7
370
    15
100
AcDbLine
 10
199.4575437141
 20
283.1705851111
 30
0.0
 11
199.4575437141
 21
296.170581654
 31
0.0
  0
LINE
  5
146
330
1F
100
AcDbEntity
  8
0
  6
Continuous
 62
     7
370
     0
100
AcDbLine
 10
47.9547118751
 20
285.5068934712
 30
0.0
 11
44.954711849
 21
285.5068934712
 31
0.0
  0
LINE
  5
147
330
1F
100
AcDbEntity
  8
0
  6
Continuous
 62
     7
370
     0
100
AcDbLine
 10
47.9547118751
 20
168.8342732939
 30
0.0
 11
44.954711849
 21
168.8342732939
 31
0.0
  0
LINE
  5
148
330
1F
100
AcDbEntity
  8
0
  6
Continuous
 62
     7
370
     0
100
AcDbLine
 10
44.954711849
 20
199.8010376099
 30
0.0
 11
43.9547116851
 21
199.7570642832
 31
0.0
  0
LINE
  5
149
330
1F
100
AcDbEntity
  8
0
  6
Continuous
 62
     7
370
     0
100
AcDbLine
 10
44.954711849
 20
254.5401291552
 30
0.0
 11
43.9547116851
 21
254.5841024819
 31
0.0
  0
LINE
  5
14A
330
1F
100
AcDbEntity
  8
0
  6
Continuous
 62
     7
370
     0
100
AcDbLine
 10
44.954711849
 20
213.0634659532
 30
0.0
 11
43.9547116851
 21
213.0776695537
 31
0.0
  0
LINE
  5
14B
330
1F
100
AcDbEntity
  8
0
  6
Continuous
 62
     7
370
     0
100
AcDbLine
 10
44.954711849
 20
241.2777008119
 30
0.0
 11
43.9547116851
 21
241.2634972113
 31
0.0
  0
LINE
  5
14C
330
1F
100
AcDbEntity
  8
0
  6
Continuous
 62
     7
370
     0
100
AcDbLine
 10
60.9730601294
 20
277.3404350135
 30
0.0
 11
60.5590201897
 21
277.3557757589
 31
0.0
  0
LINE
  5
14D
330
1F
100
AcDbEntity
  8
0
  6
Continuous
 62
     7
370
     0
100
AcDbLine
 10
60.9730601294
 20
177.0007317516
 30
0.0
 11
60.5590257777
 21
176.9853910062
 31
0.0
  0
LINE
  5
14E
330
1F
100
AcDbEntity
  8
0
  6
Continuous
 62
     7
370
     0
100
AcDbLine
 10
141.3238745166
 20
277.1760454032
 30
0.0
 11
141.3238745166
 21
242.0320944491
 31
0.0
  0
LINE
  5
14F
330
1F
100
AcDbEntity
  8
0
  6
Continuous
 62
     7
370
     0
100
AcDbLine
 10
141.3238745166
 20
212.309072316
 30
0.0
 11
141.3238745166
 21
177.1651213619
 31
0.0
  0
LINE
  5
150
330
1F
100
AcDbEntity
  8
0
  6
Continuous
 62
     7
370
     0
100
AcDbLine
 10
61.2585719658
 20
273.4407676014
 30
0.0
 11
60.6141339971
 21
273.4646467122
 31
0.0
  0
LINE
  5
151
330
1F
100
AcDbEntity
  8
0
  6
Continuous
 62
     7
370
     0
100
AcDbLine
 10
61.2585719658
 20
180.9003991637
 30
0.0
 11
60.6141693873
 21
180.8765200528
 31
0.0
  0
LINE
  5
152
330
1F
100
AcDbEntity
  8
0
  6
Continuous
 62
     7
370
     0
100
AcDbLine
 10
136.1156132055
 20
183.170583621
 30
0.0
 11
136.1156132055
 21
221.1705833304
 31
0.0
  0
LINE
  5
153
330
1F
100
AcDbEntity
  8
0
  6
Continuous
 62
     7
370
     0
100
AcDbLine
 10
136.1156132055
 20
233.1705834347
 30
0.0
 11
136.1156132055
 21
271.1705831441
 31
0.0
  0
LINE
  5
154
330
1F
100
AcDbEntity
  8
0
  6
Continuous
 62
     7
370
     0
100
AcDbLine
 10
133.8174816204
 20
184.2422192547
 30
0.0
 11
133.8174816204
 21
221.1705833304
 31
0.0
  0
LINE
  5
155
330
1F
100
AcDbEntity
  8
0
  6
Continuous
 62
     7
370
     0
100
AcDbLine
 10
133.8174816204
 20
233.1705834347
 30
0.0
 11
133.8174816204
 21
270.0989475104
 31
0.0
  0
LINE
  5
156
330
1F
100
AcDbEntity
  8
0
  6
Continuous
 62
     7
370
     0
100
AcDbLine
 10
131.4585756494
 20
187.053453699
 30
0.0
 11
131.4585756494
 21
221.1705833304
 31
0.0
  0
LINE
  5
157
330
1F
100
AcDbEntity
  8
0
  6
Continuous
 62
     7
370
     0
100
AcDbLine
 10
131.4585756494
 20
233.1705834347
 30
0.0
 11
131.4585756494
 21
267.287713066
 31
0.0
  0
LINE
  5
158
330
1F
100
AcDbEntity
  8
0
  6
Continuous
 62
     7
370
     0
100
AcDbLine
 10
127.2795673443
 20
188.8273363563
 30
0.0
 11
127.2795673443
 21
221.1705833304
 31
0.0
  0
LINE
  5
159
330
1F
100
AcDbEntity
  8
0
  6
Continuous
 62
     7
370
     0
100
AcDbLine
 10
127.2795673443
 20
233.1705834347
 30
0.0
 11
127.2795673443
 21
265.5138304087
 31
0.0
  0
LINE
  5
15A
330
1F
100
AcDbEntity
  8
0
  6
Continuous
 62
     7
370
     0
100
AcDbLine
 10
79.2297486199
 20
211.9821538779
 30
0.0
 11
62.0297480358
 21
211.9821538779
 31
0.0
  0
LINE
  5
15B
330
1F
100
AcDbEntity
  8
0
  6
Continuous
 62
     7
370
     0
100
AcDbLine
 10
79.2297486199
 20
242.3590128872
 30
0.0
 11
62.0297480358
 21
242.3590128872
 31
0.0
  0
LINE
  5
15C
330
1F
100
AcDbEntity
  8
0
  6
Continuous
 62
     7
370
     0
100
AcDbLine
 10
169.0475370718
 20
265.1705821606
 30
0.0
 11
169.0475370718
 21
239.1705834868
 31
0.0
  0
LINE
  5
15D
330
1F
100
AcDbEntity
  8
0
  6
Continuous
 62
     7
370
     0
100
AcDbLine
 10
169.0475370718
 20
215.1705832782
 30
0.0
 11
169.0475370718
 21
189.1705846044
 31
0.0
  0
LINE
  5
15E
330
1F
100
AcDbEntity
  8
0
  6
Continuous
 62
     7
370
     0
100
AcDbLine
 10
79.2297486199
 20
261.5635586533
 30
0.0
 11
62.0297480358
 21
261.5635586533
 31
0.0
  0
LINE
  5
15F
330
1F
100
AcDbEntity
  8
0
  6
Continuous
 62
     7
370
     0
100
AcDbLine
 10
79.2297486199
 20
192.7776081118
 30
0.0
 11
62.0297480358
 21
192.7776081118
 31
0.0
  0
LINE
  5
160
330
1F
100
AcDbEntity
  8
0
  6
CENTERX2
 62
     7
370
     0
100
AcDbLine
 10
202.5585023031
 20
227.1705833825
 30
0.0
 11
38.954711659
 21
227.1705833825
 31
0.0
  0
LINE
  5
161
330
1F
100
AcDbEntity
  8
0
  6
CENTERX2
 62
     7
370
     0
100
AcDbLine
 10
189.9575405061
 20
227.1705833825
 30
0.0
 11
185.4575405061
 21
227.1705833825
 31
0.0
  0
ARC
  5
162
330
1F
100
AcDbEntity
  8
0
  6
Continuous
 62
     7
370
    15
100
AcDbCircle
 10
334.6260672156
 20
227.1705833825
 30
0.0
 40
52.00000000000011
100
AcDbArc
 50
164.2751725643
 51
166.53196329
  0
ARC
  5
163
330
1F
100
AcDbEntity
  8
0
  6
Continuous
 62
     7
370
    15
100
AcDbCircle
 10
334.6260672156
 20
227.1705833825
 30
0.0
 40
52.00000000000005
100
AcDbArc
 50
143.3131363949
 51
164.2751725643
  0
SPLINE
  5
164
330
1F
100
AcDbEntity
  8
0
  6
Continuous
 62
     7
370
    15
100
AcDbSpline
210
0.0
220
0.0
230
1.0
 70
     8
 71
     3
 72
    10
 73
     6
 74
     0
 42
0.00000001
 43
0.00000001
 12
1.0
 22
0.0
 32
0.0
 13
1.0
 23
0.0
 33
0.0
 40
0.0
 40
0.0
 40
0.0
 40
0.0
 40
0.5
 40
0.5
 40
1.0
 40
1.0
 40
1.0
 40
1.0
 10
292.926609795958
 20
258.2375312678661
 30
0.0
 10
293.529118230893
 20
258.1171715235915
 30
0.0
 10
294.1487485121829
 20
258.0557214709248
 30
0.0
 10
295.4304749695231
 20
258.0667284025399
 30
0.0
 10
296.0921366826584
 20
258.1381018532437
 30
0.0
 10
296.7856020498131
 20
258.3009414922496
 30
0.0
  0
ARC
  5
165
330
1F
100
AcDbEntity
  8
0
  6
Continuous
 62
     7
370
    15
100
AcDbCircle
 10
334.6260672156
 20
227.1705833825
 30
0.0
 40
49.00000000000007
100
AcDbArc
 50
140.5567650779
 51
169.2872415705
  0
SPLINE
  5
166
330
1F
100
AcDbEntity
  8
0
  6
Continuous
 62
     7
370
    15
100
AcDbSpline
210
0.0
220
0.0
230
1.0
 70
     8
 71
     3
 72
     8
 73
     4
 74
     0
 42
0.00000001
 43
0.00000001
 12
1.0
 22
0.0
 32
0.0
 13
1.0
 23
0.0
 33
0.0
 40
0.0
 40
0.0
 40
0.0
 40
0.0
 40
1.0
 40
1.0
 40
1.0
 40
1.0
 10
284.0560672155723
 20
239.2815329737125
 30
0.0
 10
284.9421588613849
 20
238.408680415376
 30
0.0
 10
285.7549259509886
 20
237.421726471698
 30
0.0
 10
286.4800672155725
 20
236.2789687498791
 30
0.0
  0
ARC
  5
167
330
1F
100
AcDbEntity
  8
0
  6
Continuous
 62
     7
370
    15
100
AcDbCircle
 10
334.6260672156
 20
227.1705833825
 30
0.0
 40
52.00000000000007
100
AcDbArc
 50
193.46803671
 51
195.7248274357
  0
ARC
  5
168
330
1F
100
AcDbEntity
  8
0
  6
Continuous
 62
     7
370
    15
100
AcDbCircle
 10
334.6260672156
 20
227.1705833825
 30
0.0
 40
49.00000000000006
100
AcDbArc
 50
190.7127584295
 51
219.4432349221
  0
SPLINE
  5
169
330
1F
100
AcDbEntity
  8
0
  6
Continuous
 62
     7
370
    15
100
AcDbSpline
210
0.0
220
0.0
230
1.0
 70
     8
 71
     3
 72
    10
 73
     6
 74
     0
 42
0.00000001
 43
0.00000001
 12
1.0
 22
0.0
 32
0.0
 13
1.0
 23
0.0
 33
0.0
 40
0.0
 40
0.0
 40
0.0
 40
0.0
 40
0.5
 40
0.5
 40
1.0
 40
1.0
 40
1.0
 40
1.0
 10
296.7856020498131
 20
196.0402252728239
 30
0.0
 10
296.0921366826584
 20
196.2030649118298
 30
0.0
 10
295.4304749695231
 20
196.2744383625336
 30
0.0
 10
294.1487485121829
 20
196.2854452941487
 30
0.0
 10
293.529118230893
 20
196.2239952414819
 30
0.0
 10
292.926609795958
 20
196.1036354972074
 30
0.0
  0
ARC
  5
16A
330
1F
100
AcDbEntity
  8
0
  6
Continuous
 62
     7
370
    15
100
AcDbCircle
 10
334.6260672156
 20
227.1705833825
 30
0.0
 40
52.00000000000004
100
AcDbArc
 50
195.7248274357
 51
216.6868636051
  0
SPLINE
  5
16B
330
1F
100
AcDbEntity
  8
0
  6
Continuous
 62
     7
370
    15
100
AcDbSpline
210
0.0
220
0.0
230
1.0
 70
     8
 71
     3
 72
     8
 73
     4
 74
     0
 42
0.00000001
 43
0.00000001
 12
1.0
 22
0.0
 32
0.0
 13
1.0
 23
0.0
 33
0.0
 40
0.0
 40
0.0
 40
0.0
 40
0.0
 40
1.0
 40
1.0
 40
1.0
 40
1.0
 10
286.4800672155731
 20
218.0621980151914
 30
0.0
 10
285.7549259509893
 20
216.9194402933723
 30
0.0
 10
284.9421588613857
 20
215.9324863496943
 30
0.0
 10
284.0560672155731
 20
215.0596337913578
 30
0.0
  0
ARC
  5
16C
330
1F
100
AcDbEntity
  8
0
  6
Continuous
 62
     7
370
    15
100
AcDbCircle
 10
397.1260672156
 20
227.1705833825
 30
0.0
 40
17.00000000000001
100
AcDbArc
 50
147.6026750161
 51
212.3973249839
  0
ARC
  5
16D
330
1F
100
AcDbEntity
  8
0
  6
Continuous
 62
     7
370
    15
100
AcDbCircle
 10
334.6260672156
 20
227.1705833825
 30
0.0
 40
49.00000000000003
100
AcDbArc
 50
320.5567650779
 51
349.2872415705
  0
ARC
  5
16E
330
1F
100
AcDbEntity
  8
0
  6
Continuous
 62
     7
370
    15
100
AcDbCircle
 10
374.9311537432
 20
186.8654968549
 30
0.0
 40
9.499999999999975
100
AcDbArc
 50
105.0364701367
 51
164.9635298633
  0
ARC
  5
16F
330
1F
100
AcDbEntity
  8
0
  6
Continuous
 62
     7
370
    15
100
AcDbCircle
 10
334.6260672156
 20
227.1705833825
 30
0.0
 40
49.00000000000001
100
AcDbArc
 50
280.7127584295
 51
309.4432349221
  0
ARC
  5
170
330
1F
100
AcDbEntity
  8
0
  6
Continuous
 62
     7
370
    15
100
AcDbCircle
 10
334.6260672156
 20
164.6705833825
 30
0.0
 40
17.0
100
AcDbArc
 50
57.6026750161
 51
122.3973249839
  0
ARC
  5
171
330
1F
100
AcDbEntity
  8
0
  6
Continuous
 62
     7
370
    15
100
AcDbCircle
 10
334.6260672156
 20
227.1705833825
 30
0.0
 40
49.00000000000004
100
AcDbArc
 50
230.5567650779
 51
259.2872415705
  0
ARC
  5
172
330
1F
100
AcDbEntity
  8
0
  6
Continuous
 62
     7
370
    15
100
AcDbCircle
 10
294.3209806879
 20
186.8654968549
 30
0.0
 40
9.49999999999998
100
AcDbArc
 50
15.0364701367
 51
74.9635298633
  0
ARC
  5
173
330
1F
100
AcDbEntity
  8
0
  6
Continuous
 62
     7
370
    15
100
AcDbCircle
 10
294.3209806879
 20
267.4756699102
 30
0.0
 40
9.499999999999988
100
AcDbArc
 50
285.0364701367
 51
344.9635298633
  0
ARC
  5
174
330
1F
100
AcDbEntity
  8
0
  6
Continuous
 62
     7
370
    15
100
AcDbCircle
 10
334.6260672156
 20
227.1705833825
 30
0.0
 40
49.00000000000004
100
AcDbArc
 50
100.7127584295
 51
129.4432349221
  0
ARC
  5
175
330
1F
100
AcDbEntity
  8
0
  6
Continuous
 62
     7
370
    15
100
AcDbCircle
 10
334.6260672156
 20
289.6705833825
 30
0.0
 40
17.00000000000001
100
AcDbArc
 50
237.6026750161
 51
302.3973249839
  0
ARC
  5
176
330
1F
100
AcDbEntity
  8
0
  6
Continuous
 62
     7
370
    15
100
AcDbCircle
 10
334.6260672156
 20
227.1705833825
 30
0.0
 40
49.00000000000001
100
AcDbArc
 50
50.5567650779
 51
79.2872415705
  0
ARC
  5
177
330
1F
100
AcDbEntity
  8
0
  6
Continuous
 62
     7
370
    15
100
AcDbCircle
 10
374.9311537432
 20
267.4756699102
 30
0.0
 40
9.500000000000002
100
AcDbArc
 50
195.0364701367
 51
254.9635298633
  0
ARC
  5
178
330
1F
100
AcDbEntity
  8
0
  6
Continuous
 62
     7
370
    15
100
AcDbCircle
 10
334.6260672156
 20
227.1705833825
 30
0.0
 40
49.00000000000002
100
AcDbArc
 50
10.7127584295
 51
39.4432349221
  0
CIRCLE
  5
179
330
1F
100
AcDbEntity
  8
0
  6
Continuous
 62
     7
370
    15
100
AcDbCircle
 10
334.6260672156
 20
227.1705833825
 30
0.0
 40
25.0
  0
ARC
  5
17A
330
1F
100
AcDbEntity
  8
0
  6
Continuous
 62
     7
370
    15
100
AcDbCircle
 10
272.1260672156
 20
227.1705833825
 30
0.0
 40
16.99999999999998
100
AcDbArc
 50
327.6026750161
 51
32.3973249839
  0
SPLINE
  5
17B
330
1F
100
AcDbEntity
  8
0
  6
Continuous
 62
     7
370
    15
100
AcDbSpline
210
0.0
220
0.0
230
1.0
 70
     8
 71
     3
 72
    49
 73
    45
 74
     0
 42
0.00000001
 43
0.00000001
 12
1.0
 22
0.0
 32
0.0
 13
1.0
 23
0.0
 33
0.0
 40
0.0
 40
0.0
 40
0.0
 40
0.0
 40
0.0624999999999997
 40
0.0624999999999997
 40
0.1249999999999994
 40
0.1249999999999994
 40
0.1562499999999992
 40
0.1562499999999992
 40
0.1874999999999991
 40
0.1874999999999991
 40
0.2499999999999996
 40
0.2499999999999996
 40
0.3125
 40
0.3125
 40
0.3750000000000005
 40
0.3750000000000005
 40
0.4062500000000009
 40
0.4062500000000009
 40
0.4375000000000013
 40
0.4687500000000017
 40
0.4687500000000017
 40
0.5000000000000021
 40
0.5000000000000021
 40
0.5625000000000018
 40
0.5625000000000018
 40
0.5937500000000014
 40
0.5937500000000014
 40
0.625000000000001
 40
0.625000000000001
 40
0.6875
 40
0.6875
 40
0.7187499999999999
 40
0.7187499999999999
 40
0.7499999999999999
 40
0.7499999999999999
 40
0.8125000000000006
 40
0.8125000000000006
 40
0.8750000000000012
 40
0.8750000000000012
 40
0.9062500000000012
 40
0.9062500000000012
 40
0.9375000000000012
 40
0.9375000000000012
 40
1.0
 40
1.0
 40
1.0
 40
1.0
 10
288.3558845982268
 20
192.8305929446159
 30
0.0
 10
288.7448883173979
 20
193.2174877145373
 30
0.0
 10
289.17001045803
 20
193.5655239780209
 30
0.0
 10
290.0952753206197
 20
194.1808827831971
 30
0.0
 10
290.5821485327476
 20
194.4391017774649
 30
0.0
 10
291.342802037923
 20
194.752593398835
 30
0.0
 10
291.6016979183703
 20
194.8448596306184
 30
0.0
 10
292.1304019646311
 20
195.0044226074285
 30
0.0
 10
292.4014515618474
 20
195.0718566079692
 30
0.0
 10
293.2145638480403
 20
195.2320563068758
 30
0.0
 10
293.7606871345076
 20
195.2848466472586
 30
0.0
 10
294.8609370719454
 20
195.2838071596018
 30
0.0
 10
295.4192799969582
 20
195.2281877392436
 30
0.0
 10
296.4978594233294
 20
195.0122778420303
 30
0.0
 10
297.0232810597706
 20
194.8527722377237
 30
0.0
 10
297.7902174346365
 20
194.5346981930673
 30
0.0
 10
298.04276850659
 20
194.4150120856448
 30
0.0
 10
298.5296498218497
 20
194.1542137067914
 30
0.0
 10
299.0011435891278
 20
193.8709702872014
 30
0.0
 10
299.4424046138047
 20
193.5436270060561
 30
0.0
 10
299.8683820049524
 20
193.1939895323162
 30
0.0
 10
300.07452345142
 20
193.0072171868365
 30
0.0
 10
300.6635872121822
 20
192.4176906329053
 30
0.0
 10
301.0119186477158
 20
191.9922075274068
 30
0.0
 10
301.4699912527215
 20
191.3068511724874
 30
0.0
 10
301.6118665770942
 20
191.0704866085826
 30
0.0
 10
301.8733932123878
 20
190.5814985493818
 30
0.0
 10
301.9926130154694
 20
190.3292930179874
 30
0.0
 10
302.3091122561577
 20
189.5648793195406
 30
0.0
 10
302.4685882186543
 20
189.0396727875408
 30
0.0
 10
302.6305449757644
 20
188.228468982541
 30
0.0
 10
302.6716780453538
 20
187.9526083885079
 30
0.0
 10
302.7261737919885
 20
187.4011563331239
 30
0.0
 10
302.739680062416
 20
187.1260206980543
 30
0.0
 10
302.7400803891389
 20
186.3023350623461
 30
0.0
 10
302.6872416493949
 20
185.7554897443144
 30
0.0
 10
302.4718650665881
 20
184.6664942761066
 30
0.0
 10
302.3114257598841
 20
184.1374838478156
 30
0.0
 10
301.997645820838
 20
183.3770312282299
 30
0.0
 10
301.8806575556927
 20
183.1284881817062
 30
0.0
 10
301.621442529364
 20
182.6414625377558
 30
0.0
 10
301.4782887614753
 20
182.4017276713324
 30
0.0
 10
301.0188221455626
 20
181.7120035025476
 30
0.0
 10
300.6721007950765
 20
181.288528985426
 30
0.0
 10
300.2860767776513
 20
180.9004007651913
 30
0.0
  0
ARC
  5
17C
330
1F
100
AcDbEntity
  8
0
  6
Continuous
 62
     7
370
    15
100
AcDbCircle
 10
294.3209806879
 20
186.8654968549
 30
0.0
 40
9.342776662150863
100
AcDbArc
 50
98.5832265389
 51
135.0
  0
SPLINE
  5
17D
330
1F
100
AcDbEntity
  8
0
  6
Continuous
 62
     7
370
    15
100
AcDbSpline
210
0.0
220
0.0
230
1.0
 70
     8
 71
     3
 72
    10
 73
     6
 74
     0
 42
0.00000001
 43
0.00000001
 12
1.0
 22
0.0
 32
0.0
 13
1.0
 23
0.0
 33
0.0
 40
0.0
 40
0.0
 40
0.0
 40
0.0
 40
0.5
 40
0.5
 40
1.0
 40
1.0
 40
1.0
 40
1.0
 10
303.5591193302429
 20
185.4711259629224
 30
0.0
 10
303.6794790745174
 20
186.0736343978575
 30
0.0
 10
303.7409291271841
 20
186.6932646791473
 30
0.0
 10
303.7299221955691
 20
187.9749911364875
 30
0.0
 10
303.6585487448652
 20
188.6366528496228
 30
0.0
 10
303.4957091058594
 20
189.3301182167776
 30
0.0
  0
ARC
  5
17E
330
1F
100
AcDbEntity
  8
0
  6
Continuous
 62
     7
370
    15
100
AcDbCircle
 10
294.3209806879
 20
186.8654968549
 30
0.0
 40
9.34277666215089
100
AcDbArc
 50
315.0
 51
351.4167734611
  0
SPLINE
  5
17F
330
1F
100
AcDbEntity
  8
0
  6
Continuous
 62
     7
370
    15
100
AcDbSpline
210
0.0
220
0.0
230
1.0
 70
     8
 71
     3
 72
    49
 73
    45
 74
     0
 42
0.00000001
 43
0.00000001
 12
1.0
 22
0.0
 32
0.0
 13
1.0
 23
0.0
 33
0.0
 40
0.0
 40
0.0
 40
0.0
 40
0.0
 40
0.0625000000000015
 40
0.0625000000000015
 40
0.125000000000003
 40
0.125000000000003
 40
0.1562500000000039
 40
0.1562500000000039
 40
0.1875000000000048
 40
0.1875000000000048
 40
0.2500000000000059
 40
0.2500000000000059
 40
0.3125000000000071
 40
0.3125000000000071
 40
0.3750000000000082
 40
0.3750000000000082
 40
0.4062500000000087
 40
0.4062500000000087
 40
0.437500000000009
 40
0.4687500000000095
 40
0.4687500000000095
 40
0.5000000000000099
 40
0.5000000000000099
 40
0.5625000000000095
 40
0.5625000000000095
 40
0.5937500000000092
 40
0.5937500000000092
 40
0.6250000000000089
 40
0.6250000000000089
 40
0.6875000000000084
 40
0.6875000000000084
 40
0.7187500000000082
 40
0.7187500000000082
 40
0.7500000000000079
 40
0.7500000000000079
 40
0.8125000000000067
 40
0.8125000000000067
 40
0.8750000000000053
 40
0.8750000000000053
 40
0.9062500000000043
 40
0.9062500000000043
 40
0.9375000000000033
 40
0.9375000000000033
 40
1.0
 40
1.0
 40
1.0
 40
1.0
 10
300.2860767776513
 20
273.4407659998822
 30
0.0
 10
300.6729715475727
 20
273.0517622807112
 30
0.0
 10
301.0210078110563
 20
272.6266401400789
 30
0.0
 10
301.6363666162326
 20
271.7013752774893
 30
0.0
 10
301.8945856105003
 20
271.2145020653614
 30
0.0
 10
302.2080772318705
 20
270.453848560186
 30
0.0
 10
302.3003434636539
 20
270.1949526797387
 30
0.0
 10
302.459906440464
 20
269.6662486334779
 30
0.0
 10
302.5273404410046
 20
269.3951990362616
 30
0.0
 10
302.6875401399113
 20
268.5820867500688
 30
0.0
 10
302.7403304802941
 20
268.0359634636014
 30
0.0
 10
302.7392909926373
 20
266.9357135261636
 30
0.0
 10
302.6836715722791
 20
266.3773706011508
 30
0.0
 10
302.4677616750658
 20
265.2987911747796
 30
0.0
 10
302.3082560707592
 20
264.7733695383383
 30
0.0
 10
301.9901820261028
 20
264.0064331634725
 30
0.0
 10
301.8704959186803
 20
263.753882091519
 30
0.0
 10
301.609697539827
 20
263.2670007762592
 30
0.0
 10
301.3264541202369
 20
262.7955070089811
 30
0.0
 10
300.9991108390917
 20
262.3542459843043
 30
0.0
 10
300.6494733653518
 20
261.9282685931566
 30
0.0
 10
300.462701019872
 20
261.722127146689
 30
0.0
 10
299.8731744659408
 20
261.1330633859268
 30
0.0
 10
299.4476913604423
 20
260.7847319503932
 30
0.0
 10
298.7623350055229
 20
260.3266593453875
 30
0.0
 10
298.525970441618
 20
260.1847840210147
 30
0.0
 10
298.0369823824172
 20
259.9232573857212
 30
0.0
 10
297.7847768510229
 20
259.8040375826395
 30
0.0
 10
297.0203631525762
 20
259.4875383419513
 30
0.0
 10
296.4951566205763
 20
259.3280623794546
 30
0.0
 10
295.6839528155765
 20
259.1661056223446
 30
0.0
 10
295.4080922215435
 20
259.1249725527552
 30
0.0
 10
294.8566401661594
 20
259.0704768061204
 30
0.0
 10
294.5815045310898
 20
259.056970535693
 30
0.0
 10
293.7578188953817
 20
259.0565702089701
 30
0.0
 10
293.2109735773499
 20
259.1094089487141
 30
0.0
 10
292.1219781091421
 20
259.3247855315209
 30
0.0
 10
291.5929676808512
 20
259.4852248382249
 30
0.0
 10
290.8325150612654
 20
259.799004777271
 30
0.0
 10
290.5839720147417
 20
259.9159930424162
 30
0.0
 10
290.0969463707914
 20
260.1752080687449
 30
0.0
 10
289.8572115043679
 20
260.3183618366337
 30
0.0
 10
289.1674873355831
 20
260.7778284525463
 30
0.0
 10
288.7440128184616
 20
261.1245498030324
 30
0.0
 10
288.3558845982268
 20
261.5105738204576
 30
0.0
  0
ARC
  5
180
330
1F
100
AcDbEntity
  8
0
  6
Continuous
 62
     7
370
    15
100
AcDbCircle
 10
294.3209806879
 20
267.4756699102
 30
0.0
 40
9.34277666215087
100
AcDbArc
 50
8.5832265389
 51
45.0
  0
SPLINE
  5
181
330
1F
100
AcDbEntity
  8
0
  6
Continuous
 62
     7
370
    15
100
AcDbSpline
210
0.0
220
0.0
230
1.0
 70
     8
 71
     3
 72
    10
 73
     6
 74
     0
 42
0.00000001
 43
0.00000001
 12
1.0
 22
0.0
 32
0.0
 13
1.0
 23
0.0
 33
0.0
 40
0.0
 40
0.0
 40
0.0
 40
0.0
 40
0.5000000000000001
 40
0.5000000000000001
 40
1.0
 40
1.0
 40
1.0
 40
1.0
 10
303.4957091058594
 20
265.0110485482958
 30
0.0
 10
303.6585487448652
 20
265.7045139154507
 30
0.0
 10
303.7299221955691
 20
266.3661756285859
 30
0.0
 10
303.7409291271841
 20
267.6479020859261
 30
0.0
 10
303.6794790745174
 20
268.2675323672159
 30
0.0
 10
303.5591193302429
 20
268.870040802151
 30
0.0
  0
ARC
  5
182
330
1F
100
AcDbEntity
  8
0
  6
Continuous
 62
     7
370
    15
100
AcDbCircle
 10
294.3209806879
 20
267.4756699102
 30
0.0
 40
9.34277666215089
100
AcDbArc
 50
225.0
 51
261.4167734611
  0
SPLINE
  5
183
330
1F
100
AcDbEntity
  8
0
  6
Continuous
 62
     7
370
    15
100
AcDbSpline
210
0.0
220
0.0
230
1.0
 70
     8
 71
     3
 72
     8
 73
     4
 74
     0
 42
0.00000001
 43
0.00000001
 12
1.0
 22
0.0
 32
0.0
 13
1.0
 23
0.0
 33
0.0
 40
0.0
 40
0.0
 40
0.0
 40
0.0
 40
1.0
 40
1.0
 40
1.0
 40
1.0
 10
322.5151176243997
 20
176.6005833825359
 30
0.0
 10
323.3879701827364
 20
177.4866750283486
 30
0.0
 10
324.3749241264146
 20
178.2994421179523
 30
0.0
 10
325.5176818482339
 20
179.0245833825362
 30
0.0
  0
ARC
  5
184
330
1F
100
AcDbEntity
  8
0
  6
Continuous
 62
     7
370
    15
100
AcDbCircle
 10
334.6260672156
 20
227.1705833825
 30
0.0
 40
52.00000000000005
100
AcDbArc
 50
254.2751725643
 51
256.53196329
  0
ARC
  5
185
330
1F
100
AcDbEntity
  8
0
  6
Continuous
 62
     7
370
    15
100
AcDbCircle
 10
334.6260672156
 20
227.1705833825
 30
0.0
 40
52.00000000000006
100
AcDbArc
 50
233.3131363949
 51
254.2751725643
  0
ARC
  5
186
330
1F
100
AcDbEntity
  8
0
  6
Continuous
 62
     7
370
    15
100
AcDbCircle
 10
334.6260672156
 20
227.1705833825
 30
0.0
 40
52.00000000000005
100
AcDbArc
 50
103.46803671
 51
105.7248274357
  0
SPLINE
  5
187
330
1F
100
AcDbEntity
  8
0
  6
Continuous
 62
     7
370
    15
100
AcDbSpline
210
0.0
220
0.0
230
1.0
 70
     8
 71
     3
 72
     8
 73
     4
 74
     0
 42
0.00000001
 43
0.00000001
 12
1.0
 22
0.0
 32
0.0
 13
1.0
 23
0.0
 33
0.0
 40
0.0
 40
0.0
 40
0.0
 40
0.0
 40
1.0
 40
1.0
 40
1.0
 40
1.0
 10
325.5176818482309
 20
275.3165833825367
 30
0.0
 10
324.3749241264115
 20
276.0417246471205
 30
0.0
 10
323.3879701827333
 20
276.8544917367241
 30
0.0
 10
322.5151176243966
 20
277.7405833825368
 30
0.0
  0
ARC
  5
188
330
1F
100
AcDbEntity
  8
0
  6
Continuous
 62
     7
370
    15
100
AcDbCircle
 10
334.6260672156
 20
227.1705833825
 30
0.0
 40
52.00000000000006
100
AcDbArc
 50
105.7248274357
 51
126.6868636051
  0
ARC
  5
189
330
1F
100
AcDbEntity
  8
0
  6
Continuous
 62
     7
370
    15
100
AcDbCircle
 10
334.6260672156
 20
227.1705833825
 30
0.0
 40
52.00000000000004
100
AcDbArc
 50
74.2751725643
 51
76.53196329
  0
ARC
  5
18A
330
1F
100
AcDbEntity
  8
0
  6
Continuous
 62
     7
370
    15
100
AcDbCircle
 10
334.6260672156
 20
227.1705833825
 30
0.0
 40
52.00000000000004
100
AcDbArc
 50
53.3131363949
 51
74.2751725643
  0
SPLINE
  5
18B
330
1F
100
AcDbEntity
  8
0
  6
Continuous
 62
     7
370
    15
100
AcDbSpline
210
0.0
220
0.0
230
1.0
 70
     8
 71
     3
 72
    10
 73
     6
 74
     0
 42
0.00000001
 43
0.00000001
 12
1.0
 22
0.0
 32
0.0
 13
1.0
 23
0.0
 33
0.0
 40
0.0
 40
0.0
 40
0.0
 40
0.0
 40
0.5
 40
0.5
 40
1.0
 40
1.0
 40
1.0
 40
1.0
 10
365.6930151009018
 20
268.870040802151
 30
0.0
 10
365.5726553566273
 20
268.2675323672159
 30
0.0
 10
365.5112053039606
 20
267.6479020859261
 30
0.0
 10
365.5222122355756
 20
266.3661756285859
 30
0.0
 10
365.5935856862795
 20
265.7045139154507
 30
0.0
 10
365.7564253252854
 20
265.0110485482958
 30
0.0
  0
SPLINE
  5
18C
330
1F
100
AcDbEntity
  8
0
  6
Continuous
 62
     7
370
    15
100
AcDbSpline
210
0.0
220
0.0
230
1.0
 70
     8
 71
     3
 72
     8
 73
     4
 74
     0
 42
0.00000001
 43
0.00000001
 12
1.0
 22
0.0
 32
0.0
 13
1.0
 23
0.0
 33
0.0
 40
0.0
 40
0.0
 40
0.0
 40
0.0
 40
1.0
 40
1.0
 40
1.0
 40
1.0
 10
346.7370168067481
 20
277.7405833825368
 30
0.0
 10
345.8641642484114
 20
276.8544917367241
 30
0.0
 10
344.8772103047332
 20
276.0417246471205
 30
0.0
 10
343.7344525829138
 20
275.3165833825367
 30
0.0
  0
ARC
  5
18D
330
1F
100
AcDbEntity
  8
0
  6
Continuous
 62
     7
370
    15
100
AcDbCircle
 10
334.6260672156
 20
227.1705833825
 30
0.0
 40
52.00000000000004
100
AcDbArc
 50
283.46803671
 51
285.7248274357
  0
SPLINE
  5
18E
330
1F
100
AcDbEntity
  8
0
  6
Continuous
 62
     7
370
    15
100
AcDbSpline
210
0.0
220
0.0
230
1.0
 70
     8
 71
     3
 72
    10
 73
     6
 74
     0
 42
0.00000001
 43
0.00000001
 12
1.0
 22
0.0
 32
0.0
 13
1.0
 23
0.0
 33
0.0
 40
0.0
 40
0.0
 40
0.0
 40
0.0
 40
0.5
 40
0.5
 40
1.0
 40
1.0
 40
1.0
 40
1.0
 10
365.7564253252856
 20
189.3301182167779
 30
0.0
 10
365.5935856862798
 20
188.6366528496231
 30
0.0
 10
365.5222122355759
 20
187.9749911364878
 30
0.0
 10
365.5112053039609
 20
186.6932646791475
 30
0.0
 10
365.5726553566276
 20
186.0736343978577
 30
0.0
 10
365.6930151009021
 20
185.4711259629227
 30
0.0
  0
ARC
  5
18F
330
1F
100
AcDbEntity
  8
0
  6
Continuous
 62
     7
370
    15
100
AcDbCircle
 10
334.6260672156
 20
227.1705833825
 30
0.0
 40
52.00000000000001
100
AcDbArc
 50
285.7248274357
 51
306.6868636051
  0
SPLINE
  5
190
330
1F
100
AcDbEntity
  8
0
  6
Continuous
 62
     7
370
    15
100
AcDbSpline
210
0.0
220
0.0
230
1.0
 70
     8
 71
     3
 72
     8
 73
     4
 74
     0
 42
0.00000001
 43
0.00000001
 12
1.0
 22
0.0
 32
0.0
 13
1.0
 23
0.0
 33
0.0
 40
0.0
 40
0.0
 40
0.0
 40
0.0
 40
1.0
 40
1.0
 40
1.0
 40
1.0
 10
343.7344525829168
 20
179.0245833825373
 30
0.0
 10
344.8772103047363
 20
178.2994421179536
 30
0.0
 10
345.8641642484146
 20
177.48667502835
 30
0.0
 10
346.7370168067513
 20
176.6005833825375
 30
0.0
  0
SPLINE
  5
191
330
1F
100
AcDbEntity
  8
0
  6
Continuous
 62
     7
370
    15
100
AcDbSpline
210
0.0
220
0.0
230
1.0
 70
     8
 71
     3
 72
    49
 73
    45
 74
     0
 42
0.00000001
 43
0.00000001
 12
1.0
 22
0.0
 32
0.0
 13
1.0
 23
0.0
 33
0.0
 40
0.0
 40
0.0
 40
0.0
 40
0.0
 40
0.0625000000000012
 40
0.0625000000000012
 40
0.1250000000000025
 40
0.1250000000000025
 40
0.1562500000000029
 40
0.1562500000000029
 40
0.1875000000000034
 40
0.1875000000000034
 40
0.2500000000000034
 40
0.2500000000000034
 40
0.3125000000000034
 40
0.3125000000000034
 40
0.3750000000000034
 40
0.3750000000000034
 40
0.4062500000000034
 40
0.4062500000000034
 40
0.4375000000000034
 40
0.4687500000000034
 40
0.4687500000000034
 40
0.5000000000000034
 40
0.5000000000000034
 40
0.562500000000004
 40
0.562500000000004
 40
0.593750000000004
 40
0.593750000000004
 40
0.6250000000000039
 40
0.6250000000000039
 40
0.6875000000000038
 40
0.6875000000000038
 40
0.7187500000000038
 40
0.7187500000000038
 40
0.7500000000000037
 40
0.7500000000000037
 40
0.8125000000000029
 40
0.8125000000000029
 40
0.875000000000002
 40
0.875000000000002
 40
0.9062500000000014
 40
0.9062500000000014
 40
0.937500000000001
 40
0.937500000000001
 40
1.0
 40
1.0
 40
1.0
 40
1.0
 10
368.9660576534937
 20
180.9004007651916
 30
0.0
 10
368.5791628835723
 20
181.2894044843626
 30
0.0
 10
368.2311266200887
 20
181.7145266249948
 30
0.0
 10
367.6157678149125
 20
182.6397914875844
 30
0.0
 10
367.3575488206448
 20
183.1266646997122
 30
0.0
 10
367.0440571992746
 20
183.8873182048877
 30
0.0
 10
366.9517909674911
 20
184.146214085335
 30
0.0
 10
366.792227990681
 20
184.6749181315957
 30
0.0
 10
366.7247939901404
 20
184.9459677288121
 30
0.0
 10
366.5645942912337
 20
185.7590800150049
 30
0.0
 10
366.5118039508509
 20
186.3052033014723
 30
0.0
 10
366.5128434385077
 20
187.4054532389101
 30
0.0
 10
366.5684628588659
 20
187.9637961639229
 30
0.0
 10
366.7843727560792
 20
189.0423755902941
 30
0.0
 10
366.9438783603858
 20
189.5677972267353
 30
0.0
 10
367.2619524050422
 20
190.3347336016012
 30
0.0
 10
367.3816385124647
 20
190.5872846735547
 30
0.0
 10
367.642436891318
 20
191.0741659888144
 30
0.0
 10
367.9256799496961
 20
191.5456600039361
 30
0.0
 10
368.2530235920533
 20
191.9869207807694
 30
0.0
 10
368.6026610657933
 20
192.4128981719171
 30
0.0
 10
368.789433411273
 20
192.6190396183847
 30
0.0
 10
369.3789599652041
 20
193.2081033791469
 30
0.0
 10
369.8044430707027
 20
193.5564348146806
 30
0.0
 10
370.489799425622
 20
194.0145074196862
 30
0.0
 10
370.7261639895269
 20
194.156382744059
 30
0.0
 10
371.2151520487278
 20
194.4179093793526
 30
0.0
 10
371.467357580122
 20
194.5371291824342
 30
0.0
 10
372.2317712785688
 20
194.8536284231225
 30
0.0
 10
372.7569778105687
 20
195.013104385619
 30
0.0
 10
373.5681816155684
 20
195.1750611427292
 30
0.0
 10
373.8440422096015
 20
195.2161942123186
 30
0.0
 10
374.3954942649855
 20
195.2706899589533
 30
0.0
 10
374.6706299000551
 20
195.2841962293808
 30
0.0
 10
375.4943155357633
 20
195.2845965561037
 30
0.0
 10
376.0411608537951
 20
195.2317578163596
 30
0.0
 10
377.1301563220028
 20
195.0163812335529
 30
0.0
 10
377.6591667502938
 20
194.8559419268489
 30
0.0
 10
378.4196193698795
 20
194.5421619878028
 30
0.0
 10
378.6681624164033
 20
194.4251737226575
 30
0.0
 10
379.1551880603536
 20
194.1659586963289
 30
0.0
 10
379.394922926777
 20
194.0228049284401
 30
0.0
 10
380.0846470955618
 20
193.5633383125275
 30
0.0
 10
380.5081216126835
 20
193.2166169620413
 30
0.0
 10
380.8962498329182
 20
192.8305929446162
 30
0.0
  0
ARC
  5
192
330
1F
100
AcDbEntity
  8
0
  6
Continuous
 62
     7
370
    15
100
AcDbCircle
 10
374.9311537432
 20
186.8654968549
 30
0.0
 40
9.342776662150879
100
AcDbArc
 50
188.5832265389
 51
225.0
  0
SPLINE
  5
193
330
1F
100
AcDbEntity
  8
0
  6
Continuous
 62
     7
370
    15
100
AcDbSpline
210
0.0
220
0.0
230
1.0
 70
     8
 71
     3
 72
    10
 73
     6
 74
     0
 42
0.00000001
 43
0.00000001
 12
1.0
 22
0.0
 32
0.0
 13
1.0
 23
0.0
 33
0.0
 40
0.0
 40
0.0
 40
0.0
 40
0.0
 40
0.5
 40
0.5
 40
1.0
 40
1.0
 40
1.0
 40
1.0
 10
376.325524635187
 20
196.1036354972077
 30
0.0
 10
375.7230162002519
 20
196.2239952414822
 30
0.0
 10
375.1033859189621
 20
196.285445294149
 30
0.0
 10
373.8216594616219
 20
196.2744383625339
 30
0.0
 10
373.1599977484865
 20
196.20306491183
 30
0.0
 10
372.4665323813318
 20
196.0402252728242
 30
0.0
  0
ARC
  5
194
330
1F
100
AcDbEntity
  8
0
  6
Continuous
 62
     7
370
    15
100
AcDbCircle
 10
374.9311537432
 20
186.8654968549
 30
0.0
 40
9.34277666215087
100
AcDbArc
 50
45.0
 51
81.4167734611
  0
ARC
  5
195
330
1F
100
AcDbEntity
  8
0
  6
Continuous
 62
     7
370
    15
100
AcDbCircle
 10
374.9311537432
 20
267.4756699102
 30
0.0
 40
9.34277666215087
100
AcDbArc
 50
135.0
 51
171.4167734611
  0
SPLINE
  5
196
330
1F
100
AcDbEntity
  8
0
  6
Continuous
 62
     7
370
    15
100
AcDbSpline
210
0.0
220
0.0
230
1.0
 70
     8
 71
     3
 72
    49
 73
    45
 74
     0
 42
0.00000001
 43
0.00000001
 12
1.0
 22
0.0
 32
0.0
 13
1.0
 23
0.0
 33
0.0
 40
0.0
 40
0.0
 40
0.0
 40
0.0
 40
0.0624999999999997
 40
0.0624999999999997
 40
0.1249999999999994
 40
0.1249999999999994
 40
0.1562499999999992
 40
0.1562499999999992
 40
0.1874999999999991
 40
0.1874999999999991
 40
0.2499999999999996
 40
0.2499999999999996
 40
0.3125
 40
0.3125
 40
0.3750000000000005
 40
0.3750000000000005
 40
0.4062500000000009
 40
0.4062500000000009
 40
0.4375000000000013
 40
0.4687500000000017
 40
0.4687500000000017
 40
0.5000000000000021
 40
0.5000000000000021
 40
0.5625000000000018
 40
0.5625000000000018
 40
0.5937500000000014
 40
0.5937500000000014
 40
0.625000000000001
 40
0.625000000000001
 40
0.6875
 40
0.6875
 40
0.7187499999999999
 40
0.7187499999999999
 40
0.7499999999999999
 40
0.7499999999999999
 40
0.8125000000000006
 40
0.8125000000000006
 40
0.8750000000000012
 40
0.8750000000000012
 40
0.9062500000000012
 40
0.9062500000000012
 40
0.9375000000000012
 40
0.9375000000000012
 40
1.0
 40
1.0
 40
1.0
 40
1.0
 10
380.8962498329179
 20
261.5105738204576
 30
0.0
 10
380.5072461137469
 20
261.1236790505362
 30
0.0
 10
380.0821239731147
 20
260.7756427870526
 30
0.0
 10
379.156859110525
 20
260.1602839818764
 30
0.0
 10
378.6699858983972
 20
259.9020649876086
 30
0.0
 10
377.9093323932217
 20
259.5885733662384
 30
0.0
 10
377.6504365127744
 20
259.496307134455
 30
0.0
 10
377.1217324665137
 20
259.3367441576449
 30
0.0
 10
376.8506828692973
 20
259.2693101571043
 30
0.0
 10
376.0375705831045
 20
259.1091104581977
 30
0.0
 10
375.4914472966371
 20
259.0563201178149
 30
0.0
 10
374.3911973591993
 20
259.0573596054717
 30
0.0
 10
373.8328544341866
 20
259.1129790258298
 30
0.0
 10
372.7542750078153
 20
259.3288889230432
 30
0.0
 10
372.2288533713741
 20
259.4883945273498
 30
0.0
 10
371.4619169965083
 20
259.8064685720062
 30
0.0
 10
371.2093659245547
 20
259.9261546794287
 30
0.0
 10
370.722484609295
 20
260.186953058282
 30
0.0
 10
370.2509908420169
 20
260.470196477872
 30
0.0
 10
369.80972981734
 20
260.7975397590173
 30
0.0
 10
369.3837524261924
 20
261.1471772327573
 30
0.0
 10
369.1776109797248
 20
261.333949578237
 30
0.0
 10
368.5885472189626
 20
261.9234761321682
 30
0.0
 10
368.2402157834289
 20
262.3489592376666
 30
0.0
 10
367.7821431784233
 20
263.0343155925861
 30
0.0
 10
367.6402678540505
 20
263.2706801564909
 30
0.0
 10
367.3787412187569
 20
263.7596682156918
 30
0.0
 10
367.2595214156753
 20
264.011873747086
 30
0.0
 10
366.943022174987
 20
264.7762874455328
 30
0.0
 10
366.7835462124904
 20
265.3014939775327
 30
0.0
 10
366.6215894553803
 20
266.1126977825325
 30
0.0
 10
366.580456385791
 20
266.3885583765655
 30
0.0
 10
366.5259606391562
 20
266.9400104319496
 30
0.0
 10
366.5124543687287
 20
267.2151460670191
 30
0.0
 10
366.5120540420058
 20
268.0388317027274
 30
0.0
 10
366.5648927817498
 20
268.5856770207591
 30
0.0
 10
366.7802693645567
 20
269.6746724889668
 30
0.0
 10
366.9407086712607
 20
270.2036829172578
 30
0.0
 10
367.2544886103067
 20
270.9641355368436
 30
0.0
 10
367.371476875452
 20
271.2126785833673
 30
0.0
 10
367.6306919017807
 20
271.6997042273176
 30
0.0
 10
367.7738456696695
 20
271.9394390937412
 30
0.0
 10
368.2333122855821
 20
272.6291632625258
 30
0.0
 10
368.5800336360683
 20
273.0526377796475
 30
0.0
 10
368.9660576534934
 20
273.4407659998822
 30
0.0
  0
ARC
  5
197
330
1F
100
AcDbEntity
  8
0
  6
Continuous
 62
     7
370
    15
100
AcDbCircle
 10
374.9311537432
 20
267.4756699102
 30
0.0
 40
9.342776662150918
100
AcDbArc
 50
278.5832265389
 51
315.0
  0
SPLINE
  5
198
330
1F
100
AcDbEntity
  8
0
  6
Continuous
 62
     7
370
    15
100
AcDbSpline
210
0.0
220
0.0
230
1.0
 70
     8
 71
     3
 72
    10
 73
     6
 74
     0
 42
0.00000001
 43
0.00000001
 12
1.0
 22
0.0
 32
0.0
 13
1.0
 23
0.0
 33
0.0
 40
0.0
 40
0.0
 40
0.0
 40
0.0
 40
0.5
 40
0.5
 40
1.0
 40
1.0
 40
1.0
 40
1.0
 10
372.4665323813316
 20
258.3009414922496
 30
0.0
 10
373.1599977484864
 20
258.1381018532437
 30
0.0
 10
373.8216594616217
 20
258.0667284025399
 30
0.0
 10
375.1033859189619
 20
258.0557214709248
 30
0.0
 10
375.7230162002517
 20
258.1171715235915
 30
0.0
 10
376.3255246351868
 20
258.2375312678661
 30
0.0
  0
ARC
  5
199
330
1F
100
AcDbEntity
  8
0
  6
Continuous
 62
     7
370
    15
100
AcDbCircle
 10
334.6260672156
 20
227.1705833825
 30
0.0
 40
52.00000000000001
100
AcDbArc
 50
13.46803671
 51
15.7248274357
  0
SPLINE
  5
19A
330
1F
100
AcDbEntity
  8
0
  6
Continuous
 62
     7
370
    15
100
AcDbSpline
210
0.0
220
0.0
230
1.0
 70
     8
 71
     3
 72
     8
 73
     4
 74
     0
 42
0.00000001
 43
0.00000001
 12
1.0
 22
0.0
 32
0.0
 13
1.0
 23
0.0
 33
0.0
 40
0.0
 40
0.0
 40
0.0
 40
0.0
 40
1.0
 40
1.0
 40
1.0
 40
1.0
 10
382.7720672155726
 20
236.2789687498773
 30
0.0
 10
383.4972084801562
 20
237.421726471697
 30
0.0
 10
384.3099755697598
 20
238.4086804153756
 30
0.0
 10
385.1960672155724
 20
239.2815329737125
 30
0.0
  0
ARC
  5
19B
330
1F
100
AcDbEntity
  8
0
  6
Continuous
 62
     7
370
    15
100
AcDbCircle
 10
334.6260672156
 20
227.1705833825
 30
0.0
 40
51.99999999999997
100
AcDbArc
 50
15.7248274357
 51
36.6868636051
  0
SPLINE
  5
19C
330
1F
100
AcDbEntity
  8
0
  6
Continuous
 62
     7
370
    15
100
AcDbSpline
210
0.0
220
0.0
230
1.0
 70
     8
 71
     3
 72
     8
 73
     4
 74
     0
 42
0.00000001
 43
0.00000001
 12
1.0
 22
0.0
 32
0.0
 13
1.0
 23
0.0
 33
0.0
 40
0.0
 40
0.0
 40
0.0
 40
0.0
 40
1.0
 40
1.0
 40
1.0
 40
1.0
 10
385.1960672155731
 20
215.0596337913641
 30
0.0
 10
384.3099755697604
 20
215.932486349701
 30
0.0
 10
383.4972084801568
 20
216.9194402933795
 30
0.0
 10
382.7720672155731
 20
218.0621980151991
 30
0.0
  0
ARC
  5
19D
330
1F
100
AcDbEntity
  8
0
  6
Continuous
 62
     7
370
    15
100
AcDbCircle
 10
334.6260672156
 20
227.1705833825
 30
0.0
 40
52.00000000000001
100
AcDbArc
 50
344.2751725643
 51
346.53196329
  0
ARC
  5
19E
330
1F
100
AcDbEntity
  8
0
  6
Continuous
 62
     7
370
    15
100
AcDbCircle
 10
334.6260672156
 20
227.1705833825
 30
0.0
 40
52.00000000000001
100
AcDbArc
 50
323.3131363949
 51
344.2751725643
  0
ARC
  5
19F
330
1F
100
AcDbEntity
  8
0
  6
Continuous
 62
     7
370
    15
100
AcDbCircle
 10
378.8202410397
 20
182.9764095584
 30
0.0
 40
9.34277666215091
100
AcDbArc
 50
225.0
 51
45.0
  0
LINE
  5
1A0
330
1F
100
AcDbEntity
  8
0
  6
Continuous
 62
     7
370
    15
100
AcDbLine
 10
385.4265806917
 20
189.5827507231
 30
0.0
 11
381.5374931041
 21
193.4718383106
 31
0.0
  0
ARC
  5
1A1
330
1F
100
AcDbEntity
  8
0
  6
Continuous
 62
     7
370
    15
100
AcDbCircle
 10
396.2308287727
 20
209.8254586066
 30
0.0
 40
12.00000000000003
100
AcDbArc
 50
164.2751725643
 51
237.0381243682
  0
ARC
  5
1A2
330
1F
100
AcDbEntity
  8
0
  6
Continuous
 62
     7
370
    15
100
AcDbCircle
 10
378.8202410397
 20
182.9764095584
 30
0.0
 40
19.99999999999999
100
AcDbArc
 50
54.2068962213
 51
57.0381243682
  0
ARC
  5
1A3
330
1F
100
AcDbEntity
  8
0
  6
Continuous
 62
     7
370
    15
100
AcDbCircle
 10
378.8202410397
 20
182.9764095584
 30
0.0
 40
20.00000000000028
100
AcDbArc
 50
215.7931037787
 51
54.2068962213
  0
ARC
  5
1A4
330
1F
100
AcDbEntity
  8
0
  6
Continuous
 62
     7
370
    15
100
AcDbCircle
 10
378.8202410397
 20
182.9764095584
 30
0.0
 40
20.00000000000027
100
AcDbArc
 50
212.9618756318
 51
215.7931037787
  0
ARC
  5
1A5
330
1F
100
AcDbEntity
  8
0
  6
Continuous
 62
     7
370
    15
100
AcDbCircle
 10
351.9711919915
 20
165.5658218254
 30
0.0
 40
12.00000000000002
100
AcDbArc
 50
32.9618756318
 51
105.7248274357
  0
LINE
  5
1A6
330
1F
100
AcDbEntity
  8
0
  6
Continuous
 62
     7
370
    15
100
AcDbLine
 10
368.3248122875
 20
180.259157494
 30
0.0
 11
372.2138998751
 21
176.3700699064
 31
0.0
  0
ARC
  5
1A7
330
1F
100
AcDbEntity
  8
0
  6
Continuous
 62
     7
370
    15
100
AcDbCircle
 10
378.8202410397
 20
182.9764095584
 30
0.0
 40
20.57648557211346
100
AcDbArc
 50
27.1415373016
 51
57.0381243682
  0
ARC
  5
1A8
330
1F
100
AcDbEntity
  8
0
  6
Continuous
 62
     7
370
    15
100
AcDbCircle
 10
378.8202410397
 20
182.9764095584
 30
0.0
 40
20.05240777928304
100
AcDbArc
 50
27.1415373016
 51
54.2573780095
  0
LINE
  5
1A9
330
1F
100
AcDbEntity
  8
0
  6
Continuous
 62
     7
370
    15
100
AcDbLine
 10
390.5174432043
 20
199.1990940276
 30
0.0
 11
390.5337562505
 21
199.2519298199
 31
0.0
  0
ARC
  5
1AA
330
1F
100
AcDbEntity
  8
0
  6
Continuous
 62
     7
370
    15
100
AcDbCircle
 10
290.4318933914
 20
182.9764095584
 30
0.0
 40
9.34277666215093
100
AcDbArc
 50
135.0
 51
315.0
  0
LINE
  5
1AB
330
1F
100
AcDbEntity
  8
0
  6
Continuous
 62
     7
370
    15
100
AcDbLine
 10
297.0382345561
 20
176.3700699064
 30
0.0
 11
300.9273221437
 21
180.259157494
 31
0.0
  0
ARC
  5
1AC
330
1F
100
AcDbEntity
  8
0
  6
Continuous
 62
     7
370
    15
100
AcDbCircle
 10
317.2809424396
 20
165.5658218254
 30
0.0
 40
12.00000000000002
100
AcDbArc
 50
74.2751725643
 51
147.0381243682
  0
ARC
  5
1AD
330
1F
100
AcDbEntity
  8
0
  6
Continuous
 62
     7
370
    15
100
AcDbCircle
 10
290.4318933914
 20
182.9764095584
 30
0.0
 40
20.00000000000027
100
AcDbArc
 50
324.2068962213
 51
327.0381243682
  0
ARC
  5
1AE
330
1F
100
AcDbEntity
  8
0
  6
Continuous
 62
     7
370
    15
100
AcDbCircle
 10
290.4318933914
 20
182.9764095584
 30
0.0
 40
20.00000000000072
100
AcDbArc
 50
125.7931037787
 51
324.2068962213
  0
ARC
  5
1AF
330
1F
100
AcDbEntity
  8
0
  6
Continuous
 62
     7
370
    15
100
AcDbCircle
 10
290.4318933914
 20
182.9764095584
 30
0.0
 40
20.00000000000072
100
AcDbArc
 50
122.9618756318
 51
125.7931037787
  0
ARC
  5
1B0
330
1F
100
AcDbEntity
  8
0
  6
Continuous
 62
     7
370
    15
100
AcDbCircle
 10
273.0213056585
 20
209.8254586066
 30
0.0
 40
12.00000000000008
100
AcDbArc
 50
302.9618756318
 51
15.7248274357
  0
LINE
  5
1B1
330
1F
100
AcDbEntity
  8
0
  6
Continuous
 62
     7
370
    15
100
AcDbLine
 10
287.714641327
 20
193.4718383106
 30
0.0
 11
283.8255537394
 21
189.5827507231
 31
0.0
  0
ARC
  5
1B2
330
1F
100
AcDbEntity
  8
0
  6
Continuous
 62
     7
370
    15
100
AcDbCircle
 10
290.4318933914
 20
182.9764095584
 30
0.0
 40
20.05240777928309
100
AcDbArc
 50
125.7426219905
 51
152.8584626984
  0
ARC
  5
1B3
330
1F
100
AcDbEntity
  8
0
  6
Continuous
 62
     7
370
    15
100
AcDbCircle
 10
290.4318933914
 20
182.9764095584
 30
0.0
 40
20.57648557211349
100
AcDbArc
 50
122.9618756318
 51
152.8584626984
  0
LINE
  5
1B4
330
1F
100
AcDbEntity
  8
0
  6
Continuous
 62
     7
370
    15
100
AcDbLine
 10
278.7346912269
 20
199.1990940276
 30
0.0
 11
278.7183781806
 21
199.2519298199
 31
0.0
  0
ARC
  5
1B5
330
1F
100
AcDbEntity
  8
0
  6
Continuous
 62
     7
370
    15
100
AcDbCircle
 10
290.4318933914
 20
271.3647572067
 30
0.0
 40
9.342776662150849
100
AcDbArc
 50
45.0
 51
225.0
  0
LINE
  5
1B6
330
1F
100
AcDbEntity
  8
0
  6
Continuous
 62
     7
370
    15
100
AcDbLine
 10
283.8255537394
 20
264.758416042
 30
0.0
 11
287.714641327
 21
260.8693284544
 31
0.0
  0
ARC
  5
1B7
330
1F
100
AcDbEntity
  8
0
  6
Continuous
 62
     7
370
    15
100
AcDbCircle
 10
273.0213056585
 20
244.5157081585
 30
0.0
 40
12.00000000000001
100
AcDbArc
 50
344.2751725643
 51
57.0381243682
  0
ARC
  5
1B8
330
1F
100
AcDbEntity
  8
0
  6
Continuous
 62
     7
370
    15
100
AcDbCircle
 10
290.4318933914
 20
271.3647572067
 30
0.0
 40
20.00000000000026
100
AcDbArc
 50
234.2068962213
 51
237.0381243682
  0
ARC
  5
1B9
330
1F
100
AcDbEntity
  8
0
  6
Continuous
 62
     7
370
    15
100
AcDbCircle
 10
290.4318933914
 20
271.3647572067
 30
0.0
 40
20.00000000000031
100
AcDbArc
 50
35.7931037787
 51
234.2068962213
  0
ARC
  5
1BA
330
1F
100
AcDbEntity
  8
0
  6
Continuous
 62
     7
370
    15
100
AcDbCircle
 10
290.4318933914
 20
271.3647572067
 30
0.0
 40
20.00000000000027
100
AcDbArc
 50
32.9618756318
 51
35.7931037787
  0
ARC
  5
1BB
330
1F
100
AcDbEntity
  8
0
  6
Continuous
 62
     7
370
    15
100
AcDbCircle
 10
317.2809424396
 20
288.7753449396
 30
0.0
 40
12.00000000000004
100
AcDbArc
 50
212.9618756318
 51
285.7248274357
  0
LINE
  5
1BC
330
1F
100
AcDbEntity
  8
0
  6
Continuous
 62
     7
370
    15
100
AcDbLine
 10
300.9273221437
 20
274.0820092711
 30
0.0
 11
297.0382345561
 21
277.9710968587
 31
0.0
  0
ARC
  5
1BD
330
1F
100
AcDbEntity
  8
0
  6
Continuous
 62
     7
370
    15
100
AcDbCircle
 10
290.4318933914
 20
271.3647572067
 30
0.0
 40
20.57648557211348
100
AcDbArc
 50
207.1415373016
 51
237.0381243682
  0
ARC
  5
1BE
330
1F
100
AcDbEntity
  8
0
  6
Continuous
 62
     7
370
    15
100
AcDbCircle
 10
290.4318933914
 20
271.3647572067
 30
0.0
 40
20.05240777928304
100
AcDbArc
 50
207.1415373016
 51
234.2573780095
  0
LINE
  5
1BF
330
1F
100
AcDbEntity
  8
0
  6
Continuous
 62
     7
370
    15
100
AcDbLine
 10
278.7346912269
 20
255.1420727375
 30
0.0
 11
278.7183781806
 21
255.0892369452
 31
0.0
  0
ARC
  5
1C0
330
1F
100
AcDbEntity
  8
0
  6
Continuous
 62
     7
370
    15
100
AcDbCircle
 10
273.0213056585
 20
244.5157081585
 30
0.0
 40
11.42351442788654
100
AcDbArc
 50
344.2751725643
 51
57.0381243682
  0
ARC
  5
1C1
330
1F
100
AcDbEntity
  8
0
  6
Continuous
 62
     7
370
    15
100
AcDbCircle
 10
273.0213056585
 20
209.8254586066
 30
0.0
 40
11.42351442788662
100
AcDbArc
 50
302.9618756318
 51
15.7248274357
  0
SPLINE
  5
1C2
330
1F
100
AcDbEntity
  8
0
  6
Continuous
 62
     7
370
    15
100
AcDbSpline
210
0.0
220
0.0
230
1.0
 70
     8
 71
     3
 72
    49
 73
    45
 74
     0
 42
0.00000001
 43
0.00000001
 12
1.0
 22
0.0
 32
0.0
 13
1.0
 23
0.0
 33
0.0
 40
0.0
 40
0.0
 40
0.0
 40
0.0
 40
0.0624999999999988
 40
0.0624999999999988
 40
0.1249999999999976
 40
0.1249999999999976
 40
0.1562499999999971
 40
0.1562499999999971
 40
0.1874999999999966
 40
0.1874999999999966
 40
0.2499999999999959
 40
0.2499999999999959
 40
0.3124999999999951
 40
0.3124999999999951
 40
0.3749999999999943
 40
0.3749999999999943
 40
0.4062499999999942
 40
0.4062499999999942
 40
0.4374999999999939
 40
0.4687499999999937
 40
0.4687499999999937
 40
0.4999999999999934
 40
0.4999999999999934
 40
0.5624999999999936
 40
0.5624999999999936
 40
0.5937499999999937
 40
0.5937499999999937
 40
0.6249999999999937
 40
0.6249999999999937
 40
0.6874999999999944
 40
0.6874999999999944
 40
0.7187499999999949
 40
0.7187499999999949
 40
0.7499999999999952
 40
0.7499999999999952
 40
0.8124999999999961
 40
0.8124999999999961
 40
0.8749999999999969
 40
0.8749999999999969
 40
0.9062499999999974
 40
0.9062499999999974
 40
0.9374999999999981
 40
0.9374999999999981
 40
1.0
 40
1.0
 40
1.0
 40
1.0
 10
284.4562168522992
 20
265.389080667582
 30
0.0
 10
284.0652572823121
 20
265.7779170023497
 30
0.0
 10
283.7133006477838
 20
266.2033556205129
 30
0.0
 10
283.0903912942592
 20
267.1302441339044
 30
0.0
 10
282.8285618430195
 20
267.6185842818571
 30
0.0
 10
282.5102471780571
 20
268.3818779780534
 30
0.0
 10
282.416453113399
 20
268.6417550544785
 30
0.0
 10
282.2540031803222
 20
269.172628264842
 30
0.0
 10
282.185209980093
 20
269.4448601588265
 30
0.0
 10
282.0213013876137
 20
270.2616302199026
 30
0.0
 10
281.9664743152092
 20
270.810450130988
 30
0.0
 10
281.9643551661759
 20
271.9165889275779
 30
0.0
 10
282.0188591337646
 20
272.477985493068
 30
0.0
 10
282.233476498729
 20
273.5624948499472
 30
0.0
 10
282.392809415691
 20
274.0909671174751
 30
0.0
 10
282.7114468204817
 20
274.8625750453163
 30
0.0
 10
282.8313678543088
 20
275.1164895441988
 30
0.0
 10
283.0928067423011
 20
275.6059753990787
 30
0.0
 10
283.3769192023514
 20
276.0800514884899
 30
0.0
 10
283.7056192521586
 20
276.5238240752514
 30
0.0
 10
284.0568823889859
 20
276.9522618295708
 30
0.0
 10
284.2447405120882
 20
277.1597367324482
 30
0.0
 10
284.8367147043767
 20
277.751473551614
 30
0.0
 10
285.2642335820306
 20
278.1014492494432
 30
0.0
 10
285.9533519945012
 20
278.5616220173179
 30
0.0
 10
286.1910895210553
 20
278.7041358675846
 30
0.0
 10
286.6830936118913
 20
278.9667778486178
 30
0.0
 10
286.9364123229341
 20
279.0862155632017
 30
0.0
 10
287.7046787148335
 20
279.4033323046563
 30
0.0
 10
288.2327920922601
 20
279.562936802024
 30
0.0
 10
289.0489360712287
 20
279.7243975365729
 30
0.0
 10
289.3265836238326
 20
279.7652321546973
 30
0.0
 10
289.8805780415688
 20
279.8188024482268
 30
0.0
 10
290.1570372408695
 20
279.831759589964
 30
0.0
 10
290.984840195129
 20
279.8301893045754
 30
0.0
 10
291.5346247013444
 20
279.7756145808425
 30
0.0
 10
292.6298645044325
 20
279.5554501058
 30
0.0
 10
293.1597660308525
 20
279.3927069435212
 30
0.0
 10
293.9231144205971
 20
279.0744313941727
 30
0.0
 10
294.1726208665851
 20
278.9558177451242
 30
0.0
 10
294.6615457855401
 20
278.6930378078636
 30
0.0
 10
294.9019237568382
 20
278.5480951712776
 30
0.0
 10
295.5928944840995
 20
278.0833898730951
 30
0.0
 10
296.0178448398681
 20
277.7322869247268
 30
0.0
 10
296.4075699305269
 20
277.3404337458097
 30
0.0
  0
SPLINE
  5
1C3
330
1F
100
AcDbEntity
  8
0
  6
Continuous
 62
     7
370
    15
100
AcDbSpline
210
0.0
220
0.0
230
1.0
 70
     8
 71
     3
 72
    49
 73
    45
 74
     0
 42
0.00000001
 43
0.00000001
 12
1.0
 22
0.0
 32
0.0
 13
1.0
 23
0.0
 33
0.0
 40
0.0
 40
0.0
 40
0.0
 40
0.0
 40
0.0625000000000001
 40
0.0625000000000001
 40
0.1250000000000002
 40
0.1250000000000002
 40
0.1562500000000003
 40
0.1562500000000003
 40
0.1875000000000003
 40
0.1875000000000003
 40
0.2500000000000003
 40
0.2500000000000003
 40
0.3125000000000002
 40
0.3125000000000002
 40
0.3750000000000002
 40
0.3750000000000002
 40
0.4062500000000003
 40
0.4062500000000003
 40
0.4375000000000004
 40
0.4687500000000005
 40
0.4687500000000005
 40
0.5000000000000006
 40
0.5000000000000006
 40
0.5625000000000003
 40
0.5625000000000003
 40
0.5937500000000001
 40
0.5937500000000001
 40
0.625
 40
0.625
 40
0.6875000000000001
 40
0.6875000000000001
 40
0.7187500000000002
 40
0.7187500000000002
 40
0.7500000000000004
 40
0.7500000000000004
 40
0.8125000000000007
 40
0.8125000000000007
 40
0.8750000000000009
 40
0.8750000000000009
 40
0.9062500000000008
 40
0.9062500000000008
 40
0.9375000000000008
 40
0.9375000000000008
 40
1.0
 40
1.0
 40
1.0
 40
1.0
 10
296.4075699305269
 20
177.0007330192637
 30
0.0
 10
296.0187335957593
 20
176.6097734492766
 30
0.0
 10
295.593294977596
 20
176.2578168147483
 30
0.0
 10
294.6664064642045
 20
175.6349074612237
 30
0.0
 10
294.1780663162518
 20
175.3730780099841
 30
0.0
 10
293.4147726200555
 20
175.0547633450216
 30
0.0
 10
293.1548955436305
 20
174.9609692803635
 30
0.0
 10
292.6240223332669
 20
174.7985193472867
 30
0.0
 10
292.3517904392825
 20
174.7297261470574
 30
0.0
 10
291.5350203782064
 20
174.5658175545782
 30
0.0
 10
290.9862004671209
 20
174.5109904821737
 30
0.0
 10
289.8800616705311
 20
174.5088713331405
 30
0.0
 10
289.3186651050408
 20
174.5633753007291
 30
0.0
 10
288.2341557481617
 20
174.7779926656935
 30
0.0
 10
287.7056834806338
 20
174.9373255826556
 30
0.0
 10
286.9340755527926
 20
175.2559629874462
 30
0.0
 10
286.6801610539101
 20
175.3758840212734
 30
0.0
 10
286.1906751990302
 20
175.6373229092657
 30
0.0
 10
285.716599109619
 20
175.9214353693159
 30
0.0
 10
285.2728265228576
 20
176.250135419123
 30
0.0
 10
284.8443887685381
 20
176.6013985559504
 30
0.0
 10
284.6369138656607
 20
176.7892566790527
 30
0.0
 10
284.0451770464949
 20
177.3812308713413
 30
0.0
 10
283.6952013486657
 20
177.8087497489952
 30
0.0
 10
283.235028580791
 20
178.4978681614658
 30
0.0
 10
283.0925147305243
 20
178.7356056880198
 30
0.0
 10
282.8298727494911
 20
179.2276097788559
 30
0.0
 10
282.7104350349073
 20
179.4809284898986
 30
0.0
 10
282.3933182934526
 20
180.2491948817981
 30
0.0
 10
282.2337137960851
 20
180.7773082592246
 30
0.0
 10
282.0722530615361
 20
181.5934522381932
 30
0.0
 10
282.0314184434116
 20
181.8710997907971
 30
0.0
 10
281.9778481498822
 20
182.4250942085334
 30
0.0
 10
281.9648910081449
 20
182.701553407834
 30
0.0
 10
281.9664612935335
 20
183.5293563620936
 30
0.0
 10
282.0210360172665
 20
184.0791408683089
 30
0.0
 10
282.241200492309
 20
185.1743806713971
 30
0.0
 10
282.4039436545877
 20
185.704282197817
 30
0.0
 10
282.7222192039362
 20
186.4676305875617
 30
0.0
 10
282.8408328529848
 20
186.7171370335497
 30
0.0
 10
283.1036127902453
 20
187.2060619525046
 30
0.0
 10
283.2485554268314
 20
187.4464399238028
 30
0.0
 10
283.7132607250138
 20
188.137410651064
 30
0.0
 10
284.0643636733822
 20
188.5623610068326
 30
0.0
 10
284.4562168522992
 20
188.9520860974915
 30
0.0
  0
ARC
  5
1C4
330
1F
100
AcDbEntity
  8
0
  6
Continuous
 62
     7
370
    15
100
AcDbCircle
 10
334.6260672156
 20
227.1705833825
 30
0.0
 40
52.5764855721135
100
AcDbArc
 50
193.829813965
 51
195.7248274357
  0
SPLINE
  5
1C5
330
1F
100
AcDbEntity
  8
0
  6
Continuous
 62
     7
370
    15
100
AcDbSpline
210
0.0
220
0.0
230
1.0
 70
     8
 71
     3
 72
     8
 73
     4
 74
     0
 42
0.00000001
 43
0.00000001
 12
1.0
 22
0.0
 32
0.0
 13
1.0
 23
0.0
 33
0.0
 40
0.0
 40
0.0
 40
0.0
 40
0.0
 40
1.0
 40
1.0
 40
1.0
 40
1.0
 10
284.0560672155731
 20
215.0596337913578
 30
0.0
 10
283.8961962456653
 20
214.9021514522034
 30
0.0
 10
283.7354311552014
 20
214.7500163583478
 30
0.0
 10
283.5737725346559
 20
214.6027656353095
 30
0.0
  0
ARC
  5
1C6
330
1F
100
AcDbEntity
  8
0
  6
Continuous
 62
     7
370
    15
100
AcDbCircle
 10
334.6260672156
 20
227.1705833825
 30
0.0
 40
52.57648557211352
100
AcDbArc
 50
164.2751725643
 51
166.170186035
  0
SPLINE
  5
1C7
330
1F
100
AcDbEntity
  8
0
  6
Continuous
 62
     7
370
    15
100
AcDbSpline
210
0.0
220
0.0
230
1.0
 70
     8
 71
     3
 72
     8
 73
     4
 74
     0
 42
0.00000001
 43
0.00000001
 12
1.0
 22
0.0
 32
0.0
 13
1.0
 23
0.0
 33
0.0
 40
0.0
 40
0.0
 40
0.0
 40
0.0
 40
1.0
 40
1.0
 40
1.0
 40
1.0
 10
283.5737725346551
 20
239.7384011297608
 30
0.0
 10
283.7354311552006
 20
239.5911504067224
 30
0.0
 10
283.8961962456646
 20
239.4390153128668
 30
0.0
 10
284.0560672155723
 20
239.2815329737125
 30
0.0
  0
LINE
  5
1C8
330
1F
100
AcDbEntity
  8
0
  6
Continuous
 62
     7
370
    15
100
AcDbLine
 10
284.4562155846
 20
188.9520851526
 30
0.0
 11
288.3558829967
 21
192.8305929157
 31
0.0
  0
LINE
  5
1C9
330
1F
100
AcDbEntity
  8
0
  6
Continuous
 62
     7
370
    15
100
AcDbLine
 10
288.3558829967
 20
261.5105738494
 30
0.0
 11
284.4562155846
 21
265.3890816125
 31
0.0
  0
LINE
  5
1CA
330
1F
100
AcDbEntity
  8
0
  6
Continuous
 62
     7
370
    15
100
AcDbLine
 10
296.4075689856
 20
277.3404350135
 30
0.0
 11
300.2860767487
 21
273.4407676014
 31
0.0
  0
LINE
  5
1CB
330
1F
100
AcDbEntity
  8
0
  6
Continuous
 62
     7
370
    15
100
AcDbLine
 10
300.2860767487
 20
180.9003991637
 30
0.0
 11
296.4075689856
 21
177.0007317516
 31
0.0
  0
ARC
  5
1CC
330
1F
100
AcDbEntity
  8
0
  6
Continuous
 62
     7
370
    15
100
AcDbCircle
 10
290.4318933914
 20
271.3647572067
 30
0.0
 40
20.20963111713221
100
AcDbArc
 50
35.5165712697
 51
62.8584626984
  0
ARC
  5
1CD
330
1F
100
AcDbEntity
  8
0
  6
Continuous
 62
     7
370
    15
100
AcDbCircle
 10
290.4318933914
 20
271.3647572067
 30
0.0
 40
20.5764855721135
100
AcDbArc
 50
32.9618756318
 51
62.8584626984
  0
LINE
  5
1CE
330
1F
100
AcDbEntity
  8
0
  6
Continuous
 62
     7
370
    15
100
AcDbLine
 10
306.6545778606
 20
283.0619593713
 30
0.0
 11
306.8814722542
 21
283.1053068492
 31
0.0
  0
ARC
  5
1CF
330
1F
100
AcDbEntity
  8
0
  6
Continuous
 62
     7
370
    15
100
AcDbCircle
 10
290.4318933914
 20
182.9764095584
 30
0.0
 40
20.57648557211351
100
AcDbArc
 50
297.1415373016
 51
327.0381243682
  0
ARC
  5
1D0
330
1F
100
AcDbEntity
  8
0
  6
Continuous
 62
     7
370
    15
100
AcDbCircle
 10
290.4318933914
 20
182.9764095584
 30
0.0
 40
20.20963111713223
100
AcDbArc
 50
297.1415373016
 51
324.4834287303
  0
LINE
  5
1D1
330
1F
100
AcDbEntity
  8
0
  6
Continuous
 62
     7
370
    15
100
AcDbLine
 10
306.6545778606
 20
171.2792073938
 30
0.0
 11
306.8814722542
 21
171.2358599159
 31
0.0
  0
ARC
  5
1D2
330
1F
100
AcDbEntity
  8
0
  6
Continuous
 62
     7
370
    15
100
AcDbCircle
 10
317.2809424396
 20
288.7753449396
 30
0.0
 40
11.4235144278866
100
AcDbArc
 50
212.9618756318
 51
285.7248274357
  0
ARC
  5
1D3
330
1F
100
AcDbEntity
  8
0
  6
Continuous
 62
     7
370
    15
100
AcDbCircle
 10
317.2809424396
 20
165.5658218254
 30
0.0
 40
11.42351442788656
100
AcDbArc
 50
74.2751725643
 51
147.0381243682
  0
ARC
  5
1D4
330
1F
100
AcDbEntity
  8
0
  6
Continuous
 62
     7
370
    15
100
AcDbCircle
 10
378.8202410397
 20
271.3647572067
 30
0.0
 40
9.342776662150849
100
AcDbArc
 50
315.0
 51
135.0
  0
LINE
  5
1D5
330
1F
100
AcDbEntity
  8
0
  6
Continuous
 62
     7
370
    15
100
AcDbLine
 10
372.2138998751
 20
277.9710968587
 30
0.0
 11
368.3248122875
 21
274.0820092711
 31
0.0
  0
ARC
  5
1D6
330
1F
100
AcDbEntity
  8
0
  6
Continuous
 62
     7
370
    15
100
AcDbCircle
 10
351.9711919915
 20
288.7753449396
 30
0.0
 40
12.00000000000004
100
AcDbArc
 50
254.2751725643
 51
327.0381243682
  0
ARC
  5
1D7
330
1F
100
AcDbEntity
  8
0
  6
Continuous
 62
     7
370
    15
100
AcDbCircle
 10
378.8202410397
 20
271.3647572067
 30
0.0
 40
20.00000000000027
100
AcDbArc
 50
144.2068962213
 51
147.0381243682
  0
ARC
  5
1D8
330
1F
100
AcDbEntity
  8
0
  6
Continuous
 62
     7
370
    15
100
AcDbCircle
 10
378.8202410397
 20
271.3647572067
 30
0.0
 40
20.00000000000114
100
AcDbArc
 50
305.7931037787
 51
144.2068962213
  0
ARC
  5
1D9
330
1F
100
AcDbEntity
  8
0
  6
Continuous
 62
     7
370
    15
100
AcDbCircle
 10
378.8202410397
 20
271.3647572067
 30
0.0
 40
20.00000000000114
100
AcDbArc
 50
302.9618756318
 51
305.7931037787
  0
ARC
  5
1DA
330
1F
100
AcDbEntity
  8
0
  6
Continuous
 62
     7
370
    15
100
AcDbCircle
 10
396.2308287727
 20
244.5157081585
 30
0.0
 40
12.0000000000001
100
AcDbArc
 50
122.9618756318
 51
195.7248274357
  0
LINE
  5
1DB
330
1F
100
AcDbEntity
  8
0
  6
Continuous
 62
     7
370
    15
100
AcDbLine
 10
381.5374931041
 20
260.8693284544
 30
0.0
 11
385.4265806917
 21
264.758416042
 31
0.0
  0
ARC
  5
1DC
330
1F
100
AcDbEntity
  8
0
  6
Continuous
 62
     7
370
    15
100
AcDbCircle
 10
334.6260672156
 20
227.1705833825
 30
0.0
 40
52.5764855721135
100
AcDbArc
 50
103.829813965
 51
105.7248274357
  0
SPLINE
  5
1DD
330
1F
100
AcDbEntity
  8
0
  6
Continuous
 62
     7
370
    15
100
AcDbSpline
210
0.0
220
0.0
230
1.0
 70
     8
 71
     3
 72
     8
 73
     4
 74
     0
 42
0.00000001
 43
0.00000001
 12
1.0
 22
0.0
 32
0.0
 13
1.0
 23
0.0
 33
0.0
 40
0.0
 40
0.0
 40
0.0
 40
0.0
 40
1.0
 40
1.0
 40
1.0
 40
1.0
 10
322.5151176243966
 20
277.7405833825368
 30
0.0
 10
322.3576352852422
 20
277.9004543524445
 30
0.0
 10
322.2055001913865
 20
278.0612194429085
 30
0.0
 10
322.0582494683481
 20
278.222878063454
 30
0.0
  0
ARC
  5
1DE
330
1F
100
AcDbEntity
  8
0
  6
Continuous
 62
     7
370
    15
100
AcDbCircle
 10
334.6260672156
 20
227.1705833825
 30
0.0
 40
52.5764855721135
100
AcDbArc
 50
254.2751725643
 51
256.170186035
  0
SPLINE
  5
1DF
330
1F
100
AcDbEntity
  8
0
  6
Continuous
 62
     7
370
    15
100
AcDbSpline
210
0.0
220
0.0
230
1.0
 70
     8
 71
     3
 72
     8
 73
     4
 74
     0
 42
0.00000001
 43
0.00000001
 12
1.0
 22
0.0
 32
0.0
 13
1.0
 23
0.0
 33
0.0
 40
0.0
 40
0.0
 40
0.0
 40
0.0
 40
1.0
 40
1.0
 40
1.0
 40
1.0
 10
322.0582494683513
 20
176.1182887016187
 30
0.0
 10
322.2055001913897
 20
176.2799473221642
 30
0.0
 10
322.3576352852454
 20
176.4407124126282
 30
0.0
 10
322.5151176243997
 20
176.6005833825359
 30
0.0
  0
ARC
  5
1E0
330
1F
100
AcDbEntity
  8
0
  6
Continuous
 62
     7
370
    15
100
AcDbCircle
 10
334.6260672156
 20
227.1705833825
 30
0.0
 40
52.57648557211349
100
AcDbArc
 50
283.829813965
 51
285.7248274357
  0
SPLINE
  5
1E1
330
1F
100
AcDbEntity
  8
0
  6
Continuous
 62
     7
370
    15
100
AcDbSpline
210
0.0
220
0.0
230
1.0
 70
     8
 71
     3
 72
     8
 73
     4
 74
     0
 42
0.00000001
 43
0.00000001
 12
1.0
 22
0.0
 32
0.0
 13
1.0
 23
0.0
 33
0.0
 40
0.0
 40
0.0
 40
0.0
 40
0.0
 40
1.0
 40
1.0
 40
1.0
 40
1.0
 10
346.7370168067513
 20
176.6005833825375
 30
0.0
 10
346.8944991459057
 20
176.4407124126297
 30
0.0
 10
347.0466342397613
 20
176.2799473221657
 30
0.0
 10
347.1938849627998
 20
176.1182887016203
 30
0.0
  0
ARC
  5
1E2
330
1F
100
AcDbEntity
  8
0
  6
Continuous
 62
     7
370
    15
100
AcDbCircle
 10
334.6260672156
 20
227.1705833825
 30
0.0
 40
52.57648557211344
100
AcDbArc
 50
74.2751725643
 51
76.170186035
  0
SPLINE
  5
1E3
330
1F
100
AcDbEntity
  8
0
  6
Continuous
 62
     7
370
    15
100
AcDbSpline
210
0.0
220
0.0
230
1.0
 70
     8
 71
     3
 72
     8
 73
     4
 74
     0
 42
0.00000001
 43
0.00000001
 12
1.0
 22
0.0
 32
0.0
 13
1.0
 23
0.0
 33
0.0
 40
0.0
 40
0.0
 40
0.0
 40
0.0
 40
1.0
 40
1.0
 40
1.0
 40
1.0
 10
347.1938849627966
 20
278.222878063454
 30
0.0
 10
347.0466342397582
 20
278.0612194429085
 30
0.0
 10
346.8944991459026
 20
277.9004543524445
 30
0.0
 10
346.7370168067481
 20
277.7405833825368
 30
0.0
  0
ARC
  5
1E4
330
1F
100
AcDbEntity
  8
0
  6
Continuous
 62
     7
370
    15
100
AcDbCircle
 10
351.9711919915
 20
288.7753449396
 30
0.0
 40
11.4235144278866
100
AcDbArc
 50
254.2751725643
 51
327.0381243682
  0
ARC
  5
1E5
330
1F
100
AcDbEntity
  8
0
  6
Continuous
 62
     7
370
    15
100
AcDbCircle
 10
351.9711919915
 20
165.5658218254
 30
0.0
 40
11.42351442788656
100
AcDbArc
 50
32.9618756318
 51
105.7248274357
  0
ARC
  5
1E6
330
1F
100
AcDbEntity
  8
0
  6
Continuous
 62
     7
370
    15
100
AcDbCircle
 10
378.8202410397
 20
271.3647572067
 30
0.0
 40
20.05240777928306
100
AcDbArc
 50
305.7426219905
 51
332.8584626984
  0
ARC
  5
1E7
330
1F
100
AcDbEntity
  8
0
  6
Continuous
 62
     7
370
    15
100
AcDbCircle
 10
378.8202410397
 20
271.3647572067
 30
0.0
 40
20.57648557211347
100
AcDbArc
 50
302.9618756318
 51
332.8584626984
  0
LINE
  5
1E8
330
1F
100
AcDbEntity
  8
0
  6
Continuous
 62
     7
370
    15
100
AcDbLine
 10
390.5174432043
 20
255.1420727375
 30
0.0
 11
390.5337562505
 21
255.0892369452
 31
0.0
  0
ARC
  5
1E9
330
1F
100
AcDbEntity
  8
0
  6
Continuous
 62
     7
370
    15
100
AcDbCircle
 10
378.8202410397
 20
182.9764095584
 30
0.0
 40
20.20963111713223
100
AcDbArc
 50
215.5165712697
 51
242.8584626984
  0
ARC
  5
1EA
330
1F
100
AcDbEntity
  8
0
  6
Continuous
 62
     7
370
    15
100
AcDbCircle
 10
378.8202410397
 20
182.9764095584
 30
0.0
 40
20.57648557211351
100
AcDbArc
 50
212.9618756318
 51
242.8584626984
  0
LINE
  5
1EB
330
1F
100
AcDbEntity
  8
0
  6
Continuous
 62
     7
370
    15
100
AcDbLine
 10
362.5975565705
 20
171.2792073938
 30
0.0
 11
362.370662177
 21
171.2358599159
 31
0.0
  0
ARC
  5
1EC
330
1F
100
AcDbEntity
  8
0
  6
Continuous
 62
     7
370
    15
100
AcDbCircle
 10
378.8202410397
 20
271.3647572067
 30
0.0
 40
20.5764855721135
100
AcDbArc
 50
117.1415373016
 51
147.0381243682
  0
ARC
  5
1ED
330
1F
100
AcDbEntity
  8
0
  6
Continuous
 62
     7
370
    15
100
AcDbCircle
 10
378.8202410397
 20
271.3647572067
 30
0.0
 40
20.20963111713221
100
AcDbArc
 50
117.1415373016
 51
144.4834287303
  0
LINE
  5
1EE
330
1F
100
AcDbEntity
  8
0
  6
Continuous
 62
     7
370
    15
100
AcDbLine
 10
362.5975565705
 20
283.0619593713
 30
0.0
 11
362.370662177
 21
283.1053068492
 31
0.0
  0
LINE
  5
1EF
330
1F
100
AcDbEntity
  8
0
  6
Continuous
 62
     7
370
    15
100
AcDbLine
 10
372.8445654456
 20
177.0007317516
 30
0.0
 11
368.9660576824
 21
180.9003991637
 31
0.0
  0
LINE
  5
1F0
330
1F
100
AcDbEntity
  8
0
  6
Continuous
 62
     7
370
    15
100
AcDbLine
 10
368.9660576824
 20
273.4407676014
 30
0.0
 11
372.8445654456
 21
277.3404350135
 31
0.0
  0
SPLINE
  5
1F1
330
1F
100
AcDbEntity
  8
0
  6
Continuous
 62
     7
370
    15
100
AcDbSpline
210
0.0
220
0.0
230
1.0
 70
     8
 71
     3
 72
    49
 73
    45
 74
     0
 42
0.00000001
 43
0.00000001
 12
1.0
 22
0.0
 32
0.0
 13
1.0
 23
0.0
 33
0.0
 40
0.0
 40
0.0
 40
0.0
 40
0.0
 40
0.0624999999999997
 40
0.0624999999999997
 40
0.1249999999999995
 40
0.1249999999999995
 40
0.1562499999999995
 40
0.1562499999999995
 40
0.1874999999999995
 40
0.1874999999999995
 40
0.2499999999999995
 40
0.2499999999999995
 40
0.3124999999999995
 40
0.3124999999999995
 40
0.3749999999999995
 40
0.3749999999999995
 40
0.4062499999999997
 40
0.4062499999999997
 40
0.4374999999999998
 40
0.4687499999999999
 40
0.4687499999999999
 40
0.5000000000000001
 40
0.5000000000000001
 40
0.5625000000000004
 40
0.5625000000000004
 40
0.5937500000000004
 40
0.5937500000000004
 40
0.6250000000000006
 40
0.6250000000000006
 40
0.6875
 40
0.6875
 40
0.7187499999999997
 40
0.7187499999999997
 40
0.7499999999999992
 40
0.7499999999999992
 40
0.8124999999999987
 40
0.8124999999999987
 40
0.8749999999999981
 40
0.8749999999999981
 40
0.9062499999999983
 40
0.9062499999999983
 40
0.9374999999999984
 40
0.9374999999999984
 40
1.0
 40
1.0
 40
1.0
 40
1.0
 10
384.7959175788458
 20
188.9520860974918
 30
0.0
 10
385.1868771488329
 20
188.5632497627242
 30
0.0
 10
385.5388337833612
 20
188.1378111445609
 30
0.0
 10
386.1617431368858
 20
187.2109226311694
 30
0.0
 10
386.4235725881255
 20
186.7225824832167
 30
0.0
 10
386.741887253088
 20
185.9592887870205
 30
0.0
 10
386.8356813177461
 20
185.6994117105953
 30
0.0
 10
386.9981312508228
 20
185.1685385002318
 30
0.0
 10
387.0669244510521
 20
184.8963066062474
 30
0.0
 10
387.2308330435313
 20
184.0795365451713
 30
0.0
 10
387.2856601159359
 20
183.5307166340858
 30
0.0
 10
387.2877792649691
 20
182.424577837496
 30
0.0
 10
387.2332752973805
 20
181.8631812720058
 30
0.0
 10
387.0186579324161
 20
180.7786719151266
 30
0.0
 10
386.859325015454
 20
180.2501996475987
 30
0.0
 10
386.5406876106634
 20
179.4785917197575
 30
0.0
 10
386.4207665768362
 20
179.224677220875
 30
0.0
 10
386.1593276888439
 20
178.7351913659951
 30
0.0
 10
385.8752149637228
 20
178.2611154565614
 30
0.0
 10
385.5465151789866
 20
177.8173426898225
 30
0.0
 10
385.1952520421592
 20
177.388904935503
 30
0.0
 10
385.0073939190569
 20
177.1814300326256
 30
0.0
 10
384.4154197267683
 20
176.5896932134598
 30
0.0
 10
383.9879008491145
 20
176.2397175156306
 30
0.0
 10
383.2987824366439
 20
175.7795447477559
 30
0.0
 10
383.0610449100898
 20
175.6370308974892
 30
0.0
 10
382.5690408192538
 20
175.374388916456
 30
0.0
 10
382.315722108211
 20
175.2549512018722
 30
0.0
 10
381.5474557163116
 20
174.9378344604175
 30
0.0
 10
381.019342338885
 20
174.7782299630499
 30
0.0
 10
380.2031983599164
 20
174.6167692285009
 30
0.0
 10
379.9255508073126
 20
174.5759346103764
 30
0.0
 10
379.3715563895763
 20
174.522364316847
 30
0.0
 10
379.0950971902756
 20
174.5094071751098
 30
0.0
 10
378.2672942360161
 20
174.5109774604983
 30
0.0
 10
377.7175097298007
 20
174.5655521842313
 30
0.0
 10
376.6222699267125
 20
174.7857166592738
 30
0.0
 10
376.0923684002926
 20
174.9484598215525
 30
0.0
 10
375.3290200105479
 20
175.266735370901
 30
0.0
 10
375.07951356456
 20
175.3853490199496
 30
0.0
 10
374.5905886456051
 20
175.6481289572101
 30
0.0
 10
374.3502106743068
 20
175.7930715937962
 30
0.0
 10
373.6592399470456
 20
176.2577768919786
 30
0.0
 10
373.234289591277
 20
176.6088798403469
 30
0.0
 10
372.8445645006182
 20
177.000733019264
 30
0.0
  0
SPLINE
  5
1F2
330
1F
100
AcDbEntity
  8
0
  6
Continuous
 62
     7
370
    15
100
AcDbSpline
210
0.0
220
0.0
230
1.0
 70
     8
 71
     3
 72
    49
 73
    45
 74
     0
 42
0.00000001
 43
0.00000001
 12
1.0
 22
0.0
 32
0.0
 13
1.0
 23
0.0
 33
0.0
 40
0.0
 40
0.0
 40
0.0
 40
0.0
 40
0.0625000000000001
 40
0.0625000000000001
 40
0.1250000000000002
 40
0.1250000000000002
 40
0.1562500000000003
 40
0.1562500000000003
 40
0.1875000000000003
 40
0.1875000000000003
 40
0.2500000000000003
 40
0.2500000000000003
 40
0.3125000000000002
 40
0.3125000000000002
 40
0.3750000000000002
 40
0.3750000000000002
 40
0.4062500000000003
 40
0.4062500000000003
 40
0.4375000000000004
 40
0.4687500000000005
 40
0.4687500000000005
 40
0.5000000000000006
 40
0.5000000000000006
 40
0.5625000000000003
 40
0.5625000000000003
 40
0.5937500000000001
 40
0.5937500000000001
 40
0.625
 40
0.625
 40
0.6875000000000001
 40
0.6875000000000001
 40
0.7187500000000002
 40
0.7187500000000002
 40
0.7500000000000004
 40
0.7500000000000004
 40
0.8125000000000007
 40
0.8125000000000007
 40
0.8750000000000009
 40
0.8750000000000009
 40
0.9062500000000008
 40
0.9062500000000008
 40
0.9375000000000008
 40
0.9375000000000008
 40
1.0
 40
1.0
 40
1.0
 40
1.0
 10
372.8445645006178
 20
277.3404337458097
 30
0.0
 10
373.2334008353855
 20
277.7313933157969
 30
0.0
 10
373.6588394535487
 20
278.0833499503252
 30
0.0
 10
374.5857279669402
 20
278.7062593038497
 30
0.0
 10
375.074068114893
 20
278.9680887550894
 30
0.0
 10
375.8373618110892
 20
279.2864034200519
 30
0.0
 10
376.0972388875143
 20
279.38019748471
 30
0.0
 10
376.6281120978779
 20
279.5426474177868
 30
0.0
 10
376.9003439918623
 20
279.611440618016
 30
0.0
 10
377.7171140529384
 20
279.7753492104953
 30
0.0
 10
378.2659339640238
 20
279.8301762828998
 30
0.0
 10
379.3720727606137
 20
279.832295431933
 30
0.0
 10
379.9334693261039
 20
279.7777914643443
 30
0.0
 10
381.017978682983
 20
279.5631740993799
 30
0.0
 10
381.5464509505109
 20
279.4038411824179
 30
0.0
 10
382.3180588783521
 20
279.0852037776273
 30
0.0
 10
382.5719733772346
 20
278.9652827438001
 30
0.0
 10
383.0614592321145
 20
278.7038438558078
 30
0.0
 10
383.5355353215257
 20
278.4197313957575
 30
0.0
 10
383.9793079082871
 20
278.0910313459504
 30
0.0
 10
384.4077456626066
 20
277.739768209123
 30
0.0
 10
384.615220565484
 20
277.5519100860208
 30
0.0
 10
385.2069573846499
 20
276.9599358937322
 30
0.0
 10
385.556933082479
 20
276.5324170160783
 30
0.0
 10
386.0171058503537
 20
275.8432986036076
 30
0.0
 10
386.1596197006204
 20
275.6055610770537
 30
0.0
 10
386.4222616816536
 20
275.1135569862176
 30
0.0
 10
386.5416993962374
 20
274.8602382751749
 30
0.0
 10
386.8588161376921
 20
274.0919718832754
 30
0.0
 10
387.0184206350597
 20
273.5638585058489
 30
0.0
 10
387.1798813696087
 20
272.7477145268803
 30
0.0
 10
387.2207159877331
 20
272.4700669742764
 30
0.0
 10
387.2742862812626
 20
271.9160725565401
 30
0.0
 10
387.2872434229998
 20
271.6396133572395
 30
0.0
 10
387.2856731376112
 20
270.8118104029799
 30
0.0
 10
387.2310984138783
 20
270.2620258967646
 30
0.0
 10
387.0109339388357
 20
269.1667860936764
 30
0.0
 10
386.848190776557
 20
268.6368845672564
 30
0.0
 10
386.5299152272085
 20
267.8735361775118
 30
0.0
 10
386.41130157816
 20
267.6240297315238
 30
0.0
 10
386.1485216408994
 20
267.1351048125688
 30
0.0
 10
386.0035790043134
 20
266.8947268412707
 30
0.0
 10
385.5388737061309
 20
266.2037561140094
 30
0.0
 10
385.1877707577626
 20
265.7788057582408
 30
0.0
 10
384.7959175788455
 20
265.389080667582
 30
0.0
  0
LINE
  5
1F3
330
1F
100
AcDbEntity
  8
0
  6
Continuous
 62
     7
370
    15
100
AcDbLine
 10
380.8962514345
 20
192.8305929157
 30
0.0
 11
384.7959188465
 21
188.9520851526
 31
0.0
  0
LINE
  5
1F4
330
1F
100
AcDbEntity
  8
0
  6
Continuous
 62
     7
370
    15
100
AcDbLine
 10
384.7959188465
 20
265.3890816125
 30
0.0
 11
380.8962514345
 21
261.5105738494
 31
0.0
  0
ARC
  5
1F5
330
1F
100
AcDbEntity
  8
0
  6
Continuous
 62
     7
370
    15
100
AcDbCircle
 10
396.2308287727
 20
244.5157081585
 30
0.0
 40
11.42351442788664
100
AcDbArc
 50
122.9618756318
 51
195.7248274357
  0
ARC
  5
1F6
330
1F
100
AcDbEntity
  8
0
  6
Continuous
 62
     7
370
    15
100
AcDbCircle
 10
396.2308287727
 20
209.8254586066
 30
0.0
 40
11.42351442788658
100
AcDbArc
 50
164.2751725643
 51
237.0381243682
  0
ARC
  5
1F7
330
1F
100
AcDbEntity
  8
0
  6
Continuous
 62
     7
370
    15
100
AcDbCircle
 10
334.6260672156
 20
227.1705833825
 30
0.0
 40
52.57648557211348
100
AcDbArc
 50
344.2751725643
 51
346.170186035
  0
SPLINE
  5
1F8
330
1F
100
AcDbEntity
  8
0
  6
Continuous
 62
     7
370
    15
100
AcDbSpline
210
0.0
220
0.0
230
1.0
 70
     8
 71
     3
 72
     8
 73
     4
 74
     0
 42
0.00000001
 43
0.00000001
 12
1.0
 22
0.0
 32
0.0
 13
1.0
 23
0.0
 33
0.0
 40
0.0
 40
0.0
 40
0.0
 40
0.0
 40
1.0
 40
1.0
 40
1.0
 40
1.0
 10
385.6783618964903
 20
214.6027656353155
 30
0.0
 10
385.5167032759449
 20
214.750016358354
 30
0.0
 10
385.3559381854809
 20
214.9021514522097
 30
0.0
 10
385.1960672155731
 20
215.0596337913641
 30
0.0
  0
ARC
  5
1F9
330
1F
100
AcDbEntity
  8
0
  6
Continuous
 62
     7
370
    15
100
AcDbCircle
 10
334.6260672156
 20
227.1705833825
 30
0.0
 40
52.57648557211343
100
AcDbArc
 50
13.829813965
 51
15.7248274357
  0
SPLINE
  5
1FA
330
1F
100
AcDbEntity
  8
0
  6
Continuous
 62
     7
370
    15
100
AcDbSpline
210
0.0
220
0.0
230
1.0
 70
     8
 71
     3
 72
     8
 73
     4
 74
     0
 42
0.00000001
 43
0.00000001
 12
1.0
 22
0.0
 32
0.0
 13
1.0
 23
0.0
 33
0.0
 40
0.0
 40
0.0
 40
0.0
 40
0.0
 40
1.0
 40
1.0
 40
1.0
 40
1.0
 10
385.1960672155724
 20
239.2815329737125
 30
0.0
 10
385.3559381854801
 20
239.439015312867
 30
0.0
 10
385.5167032759441
 20
239.5911504067226
 30
0.0
 10
385.6783618964895
 20
239.7384011297611
 30
0.0
  0
ARC
  5
1FB
330
1F
100
AcDbEntity
  8
0
  6
Continuous
 62
     7
370
    15
100
AcDbCircle
 10
254.5245691022
 20
219.1705833825
 30
0.0
 40
3.052407779283049
100
AcDbArc
 50
61.5505344047
 51
135.8241677692
  0
ARC
  5
1FC
330
1F
100
AcDbEntity
  8
0
  6
Continuous
 62
     7
370
    15
100
AcDbCircle
 10
272.1260672156
 20
227.1705833825
 30
0.0
 40
17.00000000000005
100
AcDbArc
 50
198.2231143429
 51
211.96042662
  0
ARC
  5
1FD
330
1F
100
AcDbEntity
  8
0
  6
Continuous
 62
     7
370
    15
100
AcDbCircle
 10
334.6260672156
 20
227.1705833825
 30
0.0
 40
77.44759222071697
100
AcDbArc
 50
186.6722910972
 51
206.8927091341
  0
ARC
  5
1FE
330
1F
100
AcDbEntity
  8
0
  6
Continuous
 62
     7
370
    15
100
AcDbCircle
 10
269.0747177678
 20
193.9249733629
 30
0.0
 40
3.947592220716918
100
AcDbArc
 50
206.8927091341
 51
332.8584626984
  0
ARC
  5
1FF
330
1F
100
AcDbEntity
  8
0
  6
Continuous
 62
     7
370
    15
100
AcDbCircle
 10
334.6260672156
 20
227.1705833825
 30
0.0
 40
82.50000000000006
100
AcDbArc
 50
184.0821420305
 51
225.0
  0
ARC
  5
200
330
1F
100
AcDbEntity
  8
0
  6
Continuous
 62
     7
370
    15
100
AcDbCircle
 10
254.5245691022
 20
235.1705833825
 30
0.0
 40
3.052407779283049
100
AcDbArc
 50
224.1758322308
 51
298.4494655953
  0
ARC
  5
201
330
1F
100
AcDbEntity
  8
0
  6
Continuous
 62
     7
370
    15
100
AcDbCircle
 10
269.0747177678
 20
260.4161934022
 30
0.0
 40
3.947592220716954
100
AcDbArc
 50
27.1415373016
 51
153.1072908659
  0
ARC
  5
202
330
1F
100
AcDbEntity
  8
0
  6
Continuous
 62
     7
370
    15
100
AcDbCircle
 10
334.6260672156
 20
227.1705833825
 30
0.0
 40
77.44759222071698
100
AcDbArc
 50
153.1072908659
 51
173.3277089028
  0
ARC
  5
203
330
1F
100
AcDbEntity
  8
0
  6
Continuous
 62
     7
370
    15
100
AcDbCircle
 10
272.1260672156
 20
227.1705833825
 30
0.0
 40
17.00000000000004
100
AcDbArc
 50
148.03957338
 51
161.7768856571
  0
ARC
  5
204
330
1F
100
AcDbEntity
  8
0
  6
Continuous
 62
     7
370
    15
100
AcDbCircle
 10
334.6260672156
 20
227.1705833825
 30
0.0
 40
82.50000000000007
100
AcDbArc
 50
135.0
 51
175.9178579695
  0
SPLINE
  5
205
330
1F
100
AcDbEntity
  8
0
  6
Continuous
 62
     7
370
    15
100
AcDbSpline
210
0.0
220
0.0
230
1.0
 70
     8
 71
     3
 72
     8
 73
     4
 74
     0
 42
0.00000001
 43
0.00000001
 12
1.0
 22
0.0
 32
0.0
 13
1.0
 23
0.0
 33
0.0
 40
0.0
 40
0.0
 40
0.0
 40
0.0
 40
1.0
 40
1.0
 40
1.0
 40
1.0
 10
255.7740669307029
 20
231.8194635362455
 30
0.0
 10
255.8333765353288
 20
232.0280795124961
 30
0.0
 10
255.8991076853714
 20
232.2450824129989
 30
0.0
 10
255.9786856977234
 20
232.486791628735
 30
0.0
  0
ARC
  5
206
330
1F
100
AcDbEntity
  8
0
  6
Continuous
 62
     7
370
    15
100
AcDbCircle
 10
254.5245691022
 20
235.1705833825
 30
0.0
 40
3.57648557211346
100
AcDbArc
 50
231.3442925135
 51
290.4484625926
  0
SPLINE
  5
207
330
1F
100
AcDbEntity
  8
0
  6
Continuous
 62
     7
370
    15
100
AcDbSpline
210
0.0
220
0.0
230
1.0
 70
     8
 71
     3
 72
     8
 73
     4
 74
     0
 42
0.00000001
 43
0.00000001
 12
1.0
 22
0.0
 32
0.0
 13
1.0
 23
0.0
 33
0.0
 40
0.0
 40
0.0
 40
0.0
 40
0.0
 40
1.0
 40
1.0
 40
1.0
 40
1.0
 10
252.290556166976
 20
232.3776574521538
 30
0.0
 10
252.3040248289057
 20
232.5906271830026
 30
0.0
 10
252.3187055377686
 20
232.80999845107
 30
0.0
 10
252.3353681619187
 20
233.0434744304799
 30
0.0
  0
ARC
  5
208
330
1F
100
AcDbEntity
  8
0
  6
Continuous
 62
     7
370
    15
100
AcDbCircle
 10
254.5245691022
 20
219.1705833825
 30
0.0
 40
3.576485572113471
100
AcDbArc
 50
69.5515374075
 51
128.6557074865
  0
SPLINE
  5
209
330
1F
100
AcDbEntity
  8
0
  6
Continuous
 62
     7
370
    15
100
AcDbSpline
210
0.0
220
0.0
230
1.0
 70
     8
 71
     3
 72
     8
 73
     4
 74
     0
 42
0.00000001
 43
0.00000001
 12
1.0
 22
0.0
 32
0.0
 13
1.0
 23
0.0
 33
0.0
 40
0.0
 40
0.0
 40
0.0
 40
0.0
 40
1.0
 40
1.0
 40
1.0
 40
1.0
 10
255.9786856977214
 20
221.8543751363397
 30
0.0
 10
255.8991077404734
 20
222.0960841847042
 30
0.0
 10
255.8333765736345
 20
222.3130871178367
 30
0.0
 10
255.7740669307018
 20
222.5217032288279
 30
0.0
  0
SPLINE
  5
20A
330
1F
100
AcDbEntity
  8
0
  6
Continuous
 62
     7
370
    15
100
AcDbSpline
210
0.0
220
0.0
230
1.0
 70
     8
 71
     3
 72
     8
 73
     4
 74
     0
 42
0.00000001
 43
0.00000001
 12
1.0
 22
0.0
 32
0.0
 13
1.0
 23
0.0
 33
0.0
 40
0.0
 40
0.0
 40
0.0
 40
0.0
 40
1.0
 40
1.0
 40
1.0
 40
1.0
 10
252.3353681619188
 20
221.297692334593
 30
0.0
 10
252.318705542537
 20
221.5311682471882
 30
0.0
 10
252.3040248307067
 20
221.750539553593
 30
0.0
 10
252.2905561669761
 20
221.9635093129191
 30
0.0
  0
ARC
  5
20B
330
1F
100
AcDbEntity
  8
0
  6
Continuous
 62
     7
370
    15
100
AcDbCircle
 10
334.6260672156
 20
227.1705833825
 30
0.0
 40
76.92351442788656
100
AcDbArc
 50
187.4404551337
 51
206.8927091341
  0
SPLINE
  5
20C
330
1F
100
AcDbEntity
  8
0
  6
Continuous
 62
     7
370
    15
100
AcDbSpline
210
0.0
220
0.0
230
1.0
 70
     8
 71
     3
 72
     8
 73
     4
 74
     0
 42
0.00000001
 43
0.00000001
 12
1.0
 22
0.0
 32
0.0
 13
1.0
 23
0.0
 33
0.0
 40
0.0
 40
0.0
 40
0.0
 40
0.0
 40
1.0
 40
1.0
 40
1.0
 40
1.0
 10
258.3502506400741
 20
217.209314503613
 30
0.0
 10
258.1350947212644
 20
217.5068617848562
 30
0.0
 10
257.9193380457356
 20
217.8252191043508
 30
0.0
 10
257.7030308892805
 20
218.1719155294349
 30
0.0
  0
ARC
  5
20D
330
1F
100
AcDbEntity
  8
0
  6
Continuous
 62
     7
370
    15
100
AcDbCircle
 10
334.6260672156
 20
227.1705833825
 30
0.0
 40
76.92351442788659
100
AcDbArc
 50
153.1072908659
 51
172.5595448663
  0
SPLINE
  5
20E
330
1F
100
AcDbEntity
  8
0
  6
Continuous
 62
     7
370
    15
100
AcDbSpline
210
0.0
220
0.0
230
1.0
 70
     8
 71
     3
 72
     8
 73
     4
 74
     0
 42
0.00000001
 43
0.00000001
 12
1.0
 22
0.0
 32
0.0
 13
1.0
 23
0.0
 33
0.0
 40
0.0
 40
0.0
 40
0.0
 40
0.0
 40
1.0
 40
1.0
 40
1.0
 40
1.0
 10
257.7030308892799
 20
236.1692512356338
 30
0.0
 10
257.919338045735
 20
236.5159476607179
 30
0.0
 10
258.1350947212638
 20
236.8343049802125
 30
0.0
 10
258.3502506400735
 20
237.1318522614557
 30
0.0
  0
ARC
  5
20F
330
1F
100
AcDbEntity
  8
0
  6
Continuous
 62
     7
370
    15
100
AcDbCircle
 10
269.0747177678
 20
260.4161934022
 30
0.0
 40
3.423514427886523
100
AcDbArc
 50
27.1415373016
 51
153.1072908659
  0
ARC
  5
210
330
1F
100
AcDbEntity
  8
0
  6
Continuous
 62
     7
370
    15
100
AcDbCircle
 10
269.0747177678
 20
193.9249733629
 30
0.0
 40
3.423514427886535
100
AcDbArc
 50
206.8927091341
 51
332.8584626984
  0
ARC
  5
211
330
1F
100
AcDbEntity
  8
0
  6
Continuous
 62
     7
370
    15
100
AcDbCircle
 10
334.6260672156
 20
227.1705833825
 30
0.0
 40
77.44759222071694
100
AcDbArc
 50
6.6722910972
 51
26.8927091341
  0
ARC
  5
212
330
1F
100
AcDbEntity
  8
0
  6
Continuous
 62
     7
370
    15
100
AcDbCircle
 10
400.1774166633
 20
260.4161934022
 30
0.0
 40
3.947592220716982
100
AcDbArc
 50
26.8927091341
 51
152.8584626984
  0
ARC
  5
213
330
1F
100
AcDbEntity
  8
0
  6
Continuous
 62
     7
370
    15
100
AcDbCircle
 10
414.7275653289
 20
235.1705833825
 30
0.0
 40
3.0524077792831
100
AcDbArc
 50
241.5505344048
 51
315.8241677692
  0
ARC
  5
214
330
1F
100
AcDbEntity
  8
0
  6
Continuous
 62
     7
370
    15
100
AcDbCircle
 10
397.1260672156
 20
227.1705833825
 30
0.0
 40
17.0
100
AcDbArc
 50
18.2231143429
 51
31.96042662
  0
ARC
  5
215
330
1F
100
AcDbEntity
  8
0
  6
Continuous
 62
     7
370
    15
100
AcDbCircle
 10
334.6260672156
 20
227.1705833825
 30
0.0
 40
82.50000000000003
100
AcDbArc
 50
4.0821420305
 51
45.0
  0
ARC
  5
216
330
1F
100
AcDbEntity
  8
0
  6
Continuous
 62
     7
370
    15
100
AcDbCircle
 10
400.1774166633
 20
193.9249733629
 30
0.0
 40
3.947592220716954
100
AcDbArc
 50
207.1415373016
 51
333.1072908659
  0
ARC
  5
217
330
1F
100
AcDbEntity
  8
0
  6
Continuous
 62
     7
370
    15
100
AcDbCircle
 10
334.6260672156
 20
227.1705833825
 30
0.0
 40
77.44759222071693
100
AcDbArc
 50
333.1072908659
 51
353.3277089028
  0
ARC
  5
218
330
1F
100
AcDbEntity
  8
0
  6
Continuous
 62
     7
370
    15
100
AcDbCircle
 10
397.1260672156
 20
227.1705833825
 30
0.0
 40
16.99999999999999
100
AcDbArc
 50
328.03957338
 51
341.7768856571
  0
ARC
  5
219
330
1F
100
AcDbEntity
  8
0
  6
Continuous
 62
     7
370
    15
100
AcDbCircle
 10
414.7275653289
 20
219.1705833825
 30
0.0
 40
3.052407779283065
100
AcDbArc
 50
44.1758322308
 51
118.4494655952
  0
ARC
  5
21A
330
1F
100
AcDbEntity
  8
0
  6
Continuous
 62
     7
370
    15
100
AcDbCircle
 10
334.6260672156
 20
227.1705833825
 30
0.0
 40
82.5
100
AcDbArc
 50
315.0
 51
355.9178579695
  0
ARC
  5
21B
330
1F
100
AcDbEntity
  8
0
  6
Continuous
 62
     7
370
    15
100
AcDbCircle
 10
400.1774166633
 20
260.4161934022
 30
0.0
 40
3.423514427886522
100
AcDbArc
 50
26.8927091341
 51
152.8584626984
  0
ARC
  5
21C
330
1F
100
AcDbEntity
  8
0
  6
Continuous
 62
     7
370
    15
100
AcDbCircle
 10
400.1774166633
 20
193.9249733629
 30
0.0
 40
3.423514427886574
100
AcDbArc
 50
207.1415373016
 51
333.1072908659
  0
SPLINE
  5
21D
330
1F
100
AcDbEntity
  8
0
  6
Continuous
 62
     7
370
    15
100
AcDbSpline
210
0.0
220
0.0
230
1.0
 70
     8
 71
     3
 72
     8
 73
     4
 74
     0
 42
0.00000001
 43
0.00000001
 12
1.0
 22
0.0
 32
0.0
 13
1.0
 23
0.0
 33
0.0
 40
0.0
 40
0.0
 40
0.0
 40
0.0
 40
1.0
 40
1.0
 40
1.0
 40
1.0
 10
410.9018837910698
 20
237.131852261467
 30
0.0
 10
411.1170397098795
 20
236.8343049802241
 30
0.0
 10
411.3327963854082
 20
236.5159476607299
 30
0.0
 10
411.5491035418633
 20
236.1692512356462
 30
0.0
  0
ARC
  5
21E
330
1F
100
AcDbEntity
  8
0
  6
Continuous
 62
     7
370
    15
100
AcDbCircle
 10
334.6260672156
 20
227.1705833825
 30
0.0
 40
76.92351442788653
100
AcDbArc
 50
7.4404551337
 51
26.8927091341
  0
ARC
  5
21F
330
1F
100
AcDbEntity
  8
0
  6
Continuous
 62
     7
370
    15
100
AcDbCircle
 10
334.6260672156
 20
227.1705833825
 30
0.0
 40
76.92351442788654
100
AcDbArc
 50
333.1072908659
 51
352.5595448663
  0
SPLINE
  5
220
330
1F
100
AcDbEntity
  8
0
  6
Continuous
 62
     7
370
    15
100
AcDbSpline
210
0.0
220
0.0
230
1.0
 70
     8
 71
     3
 72
     8
 73
     4
 74
     0
 42
0.00000001
 43
0.00000001
 12
1.0
 22
0.0
 32
0.0
 13
1.0
 23
0.0
 33
0.0
 40
0.0
 40
0.0
 40
0.0
 40
0.0
 40
1.0
 40
1.0
 40
1.0
 40
1.0
 10
411.5491035418639
 20
218.171915529432
 30
0.0
 10
411.3327963854088
 20
217.8252191043483
 30
0.0
 10
411.1170397098801
 20
217.5068617848541
 30
0.0
 10
410.9018837910704
 20
217.2093145036112
 30
0.0
  0
ARC
  5
221
330
1F
100
AcDbEntity
  8
0
  6
Continuous
 62
     7
370
    15
100
AcDbCircle
 10
414.7275653289
 20
235.1705833825
 30
0.0
 40
3.576485572113473
100
AcDbArc
 50
249.5515374075
 51
308.6557074865
  0
SPLINE
  5
222
330
1F
100
AcDbEntity
  8
0
  6
Continuous
 62
     7
370
    15
100
AcDbSpline
210
0.0
220
0.0
230
1.0
 70
     8
 71
     3
 72
     8
 73
     4
 74
     0
 42
0.00000001
 43
0.00000001
 12
1.0
 22
0.0
 32
0.0
 13
1.0
 23
0.0
 33
0.0
 40
0.0
 40
0.0
 40
0.0
 40
0.0
 40
1.0
 40
1.0
 40
1.0
 40
1.0
 10
413.2734487334278
 20
232.4867916287318
 30
0.0
 10
413.3530266906756
 20
232.2450825803678
 30
0.0
 10
413.4187578575145
 20
232.0280796472356
 30
0.0
 10
413.4780675004471
 20
231.8194635362446
 30
0.0
  0
SPLINE
  5
223
330
1F
100
AcDbEntity
  8
0
  6
Continuous
 62
     7
370
    15
100
AcDbSpline
210
0.0
220
0.0
230
1.0
 70
     8
 71
     3
 72
     8
 73
     4
 74
     0
 42
0.00000001
 43
0.00000001
 12
1.0
 22
0.0
 32
0.0
 13
1.0
 23
0.0
 33
0.0
 40
0.0
 40
0.0
 40
0.0
 40
0.0
 40
1.0
 40
1.0
 40
1.0
 40
1.0
 10
416.9167662692259
 20
233.043474430481
 30
0.0
 10
416.9334288886077
 20
232.8099985178858
 30
0.0
 10
416.948109600438
 20
232.590627211481
 30
0.0
 10
416.9615782641686
 20
232.3776574521549
 30
0.0
  0
ARC
  5
224
330
1F
100
AcDbEntity
  8
0
  6
Continuous
 62
     7
370
    15
100
AcDbCircle
 10
414.7275653289
 20
219.1705833825
 30
0.0
 40
3.576485572113472
100
AcDbArc
 50
51.3442925135
 51
110.4484625925
  0
SPLINE
  5
225
330
1F
100
AcDbEntity
  8
0
  6
Continuous
 62
     7
370
    15
100
AcDbSpline
210
0.0
220
0.0
230
1.0
 70
     8
 71
     3
 72
     8
 73
     4
 74
     0
 42
0.00000001
 43
0.00000001
 12
1.0
 22
0.0
 32
0.0
 13
1.0
 23
0.0
 33
0.0
 40
0.0
 40
0.0
 40
0.0
 40
0.0
 40
1.0
 40
1.0
 40
1.0
 40
1.0
 10
413.4780675004463
 20
222.5217032288302
 30
0.0
 10
413.4187578958205
 20
222.3130872525798
 30
0.0
 10
413.353026745778
 20
222.0960843520772
 30
0.0
 10
413.2734487334263
 20
221.8543751363416
 30
0.0
  0
SPLINE
  5
226
330
1F
100
AcDbEntity
  8
0
  6
Continuous
 62
     7
370
    15
100
AcDbSpline
210
0.0
220
0.0
230
1.0
 70
     8
 71
     3
 72
     8
 73
     4
 74
     0
 42
0.00000001
 43
0.00000001
 12
1.0
 22
0.0
 32
0.0
 13
1.0
 23
0.0
 33
0.0
 40
0.0
 40
0.0
 40
0.0
 40
0.0
 40
1.0
 40
1.0
 40
1.0
 40
1.0
 10
416.9615782641687
 20
221.9635093129203
 30
0.0
 10
416.9481096022391
 20
221.7505395820714
 30
0.0
 10
416.9334288933762
 20
221.531168314004
 30
0.0
 10
416.916766269226
 20
221.2976923345942
 30
0.0
  0
CIRCLE
  5
227
330
1F
100
AcDbEntity
  8
0
  6
Continuous
 62
     7
370
    15
100
AcDbCircle
 10
272.1260672156
 20
227.1705833825
 30
0.0
 40
14.99999999999997
  0
CIRCLE
  5
228
330
1F
100
AcDbEntity
  8
0
  6
Continuous
 62
     7
370
    15
100
AcDbCircle
 10
334.6260672156
 20
289.6705833825
 30
0.0
 40
15.00000000000006
  0
CIRCLE
  5
229
330
1F
100
AcDbEntity
  8
0
  6
Continuous
 62
     7
370
    15
100
AcDbCircle
 10
334.6260672156
 20
164.6705833825
 30
0.0
 40
15.0
  0
CIRCLE
  5
22A
330
1F
100
AcDbEntity
  8
0
  6
Continuous
 62
     7
370
    15
100
AcDbCircle
 10
397.1260672156
 20
227.1705833825
 30
0.0
 40
15.0
  0
ARC
  5
22B
330
1F
100
AcDbEntity
  8
0
  6
Continuous
 62
     7
370
    15
100
AcDbCircle
 10
301.380457196
 20
161.6192339348
 30
0.0
 40
3.790368882867848
100
AcDbArc
 50
117.1415373016
 51
243.1072908659
  0
ARC
  5
22C
330
1F
100
AcDbEntity
  8
0
  6
Continuous
 62
     7
370
    15
100
AcDbCircle
 10
334.6260672156
 20
227.1705833825
 30
0.0
 40
77.29036888286785
100
AcDbArc
 50
243.1072908659
 51
263.0866093951
  0
ARC
  5
22D
330
1F
100
AcDbEntity
  8
0
  6
Continuous
 62
     7
370
    15
100
AcDbCircle
 10
334.6260672156
 20
164.6705833825
 30
0.0
 40
17.00000000000001
100
AcDbArc
 50
236.8210297602
 51
252.524313806
  0
ARC
  5
22E
330
1F
100
AcDbEntity
  8
0
  6
Continuous
 62
     7
370
    15
100
AcDbCircle
 10
326.6260672156
 20
147.0690852692
 30
0.0
 40
3.209631117132194
100
AcDbArc
 50
316.6398421765
 51
25.5862682237
  0
ARC
  5
22F
330
1F
100
AcDbEntity
  8
0
  6
Continuous
 62
     7
370
    15
100
AcDbCircle
 10
334.6260672156
 20
227.1705833825
 30
0.0
 40
82.50000000000003
100
AcDbArc
 50
225.0
 51
266.0615957032
  0
ARC
  5
230
330
1F
100
AcDbEntity
  8
0
  6
Continuous
 62
     7
370
    15
100
AcDbCircle
 10
326.6260672156
 20
307.2720814959
 30
0.0
 40
3.209631117132203
100
AcDbArc
 50
334.4137317763
 51
43.3601578235
  0
ARC
  5
231
330
1F
100
AcDbEntity
  8
0
  6
Continuous
 62
     7
370
    15
100
AcDbCircle
 10
334.6260672156
 20
289.6705833825
 30
0.0
 40
17.00000000000001
100
AcDbArc
 50
107.475686194
 51
123.1789702398
  0
ARC
  5
232
330
1F
100
AcDbEntity
  8
0
  6
Continuous
 62
     7
370
    15
100
AcDbCircle
 10
334.6260672156
 20
227.1705833825
 30
0.0
 40
77.29036888286788
100
AcDbArc
 50
96.913390605
 51
116.8927091341
  0
ARC
  5
233
330
1F
100
AcDbEntity
  8
0
  6
Continuous
 62
     7
370
    15
100
AcDbCircle
 10
301.380457196
 20
292.7219328303
 30
0.0
 40
3.790368882867898
100
AcDbArc
 50
116.8927091341
 51
242.8584626984
  0
ARC
  5
234
330
1F
100
AcDbEntity
  8
0
  6
Continuous
 62
     7
370
    15
100
AcDbCircle
 10
334.6260672156
 20
227.1705833825
 30
0.0
 40
82.50000000000007
100
AcDbArc
 50
93.9384042968
 51
135.0
  0
ARC
  5
235
330
1F
100
AcDbEntity
  8
0
  6
Continuous
 62
     7
370
    15
100
AcDbCircle
 10
301.380457196
 20
292.7219328303
 30
0.0
 40
3.423514427886523
100
AcDbArc
 50
116.8927091341
 51
242.8584626984
  0
ARC
  5
236
330
1F
100
AcDbEntity
  8
0
  6
Continuous
 62
     7
370
    15
100
AcDbCircle
 10
301.380457196
 20
161.6192339348
 30
0.0
 40
3.423514427886549
100
AcDbArc
 50
117.1415373016
 51
243.1072908659
  0
SPLINE
  5
237
330
1F
100
AcDbEntity
  8
0
  6
Continuous
 62
     7
370
    15
100
AcDbSpline
210
0.0
220
0.0
230
1.0
 70
     8
 71
     3
 72
     8
 73
     4
 74
     0
 42
0.00000001
 43
0.00000001
 12
1.0
 22
0.0
 32
0.0
 13
1.0
 23
0.0
 33
0.0
 40
0.0
 40
0.0
 40
0.0
 40
0.0
 40
1.0
 40
1.0
 40
1.0
 40
1.0
 10
324.6647983366478
 20
303.4463999580349
 30
0.0
 10
324.8730352403044
 20
303.5969756989697
 30
0.0
 10
325.0915518189596
 20
303.7478451075023
 30
0.0
 10
325.3227141640995
 20
303.898992358935
 30
0.0
  0
ARC
  5
238
330
1F
100
AcDbEntity
  8
0
  6
Continuous
 62
     7
370
    15
100
AcDbCircle
 10
334.6260672156
 20
227.1705833825
 30
0.0
 40
76.92351442788659
100
AcDbArc
 50
97.4404551337
 51
116.8927091341
  0
ARC
  5
239
330
1F
100
AcDbEntity
  8
0
  6
Continuous
 62
     7
370
    15
100
AcDbCircle
 10
334.6260672156
 20
227.1705833825
 30
0.0
 40
76.92351442788657
100
AcDbArc
 50
243.1072908659
 51
262.5595448663
  0
SPLINE
  5
23A
330
1F
100
AcDbEntity
  8
0
  6
Continuous
 62
     7
370
    15
100
AcDbSpline
210
0.0
220
0.0
230
1.0
 70
     8
 71
     3
 72
     8
 73
     4
 74
     0
 42
0.00000001
 43
0.00000001
 12
1.0
 22
0.0
 32
0.0
 13
1.0
 23
0.0
 33
0.0
 40
0.0
 40
0.0
 40
0.0
 40
0.0
 40
1.0
 40
1.0
 40
1.0
 40
1.0
 10
325.3227141641044
 20
150.4421744061379
 30
0.0
 10
325.0915518189644
 20
150.5933216575706
 30
0.0
 10
324.8730352403091
 20
150.7441910661032
 30
0.0
 10
324.6647983366525
 20
150.8947668070379
 30
0.0
  0
ARC
  5
23B
330
1F
100
AcDbEntity
  8
0
  6
Continuous
 62
     7
370
    15
100
AcDbCircle
 10
326.6260672156
 20
147.0690852692
 30
0.0
 40
3.576485572113471
100
AcDbArc
 50
321.3442925135
 51
20.4484625925
  0
SPLINE
  5
23C
330
1F
100
AcDbEntity
  8
0
  6
Continuous
 62
     7
370
    15
100
AcDbSpline
210
0.0
220
0.0
230
1.0
 70
     8
 71
     3
 72
     8
 73
     4
 74
     0
 42
0.00000001
 43
0.00000001
 12
1.0
 22
0.0
 32
0.0
 13
1.0
 23
0.0
 33
0.0
 40
0.0
 40
0.0
 40
0.0
 40
0.0
 40
1.0
 40
1.0
 40
1.0
 40
1.0
 10
329.9771870618639
 20
148.3185830976658
 30
0.0
 10
329.8311740114577
 20
148.3600946656936
 30
0.0
 10
329.6805562597103
 20
148.4049779283742
 30
0.0
 10
329.5209492472442
 20
148.455227372587
 30
0.0
  0
SPLINE
  5
23D
330
1F
100
AcDbEntity
  8
0
  6
Continuous
 62
     7
370
    15
100
AcDbSpline
210
0.0
220
0.0
230
1.0
 70
     8
 71
     3
 72
     8
 73
     4
 74
     0
 42
0.00000001
 43
0.00000001
 12
1.0
 22
0.0
 32
0.0
 13
1.0
 23
0.0
 33
0.0
 40
0.0
 40
0.0
 40
0.0
 40
0.0
 40
1.0
 40
1.0
 40
1.0
 40
1.0
 10
329.4189931459551
 20
144.8350723339404
 30
0.0
 10
329.2699239741258
 20
144.8444997876518
 30
0.0
 10
329.1175405006211
 20
144.8545388639936
 30
0.0
 10
328.9596368379715
 20
144.8654099924284
 30
0.0
  0
ARC
  5
23E
330
1F
100
AcDbEntity
  8
0
  6
Continuous
 62
     7
370
    15
100
AcDbCircle
 10
326.6260672156
 20
307.2720814959
 30
0.0
 40
3.576485572113508
100
AcDbArc
 50
339.5515374075
 51
38.6557074865
  0
SPLINE
  5
23F
330
1F
100
AcDbEntity
  8
0
  6
Continuous
 62
     7
370
    15
100
AcDbSpline
210
0.0
220
0.0
230
1.0
 70
     8
 71
     3
 72
     8
 73
     4
 74
     0
 42
0.00000001
 43
0.00000001
 12
1.0
 22
0.0
 32
0.0
 13
1.0
 23
0.0
 33
0.0
 40
0.0
 40
0.0
 40
0.0
 40
0.0
 40
1.0
 40
1.0
 40
1.0
 40
1.0
 10
329.5209492472475
 20
305.8859393924893
 30
0.0
 10
329.6805551176203
 20
305.9361884771341
 30
0.0
 10
329.8311741265967
 20
305.9810721321151
 30
0.0
 10
329.9771870618644
 20
306.0225836674089
 30
0.0
  0
SPLINE
  5
240
330
1F
100
AcDbEntity
  8
0
  6
Continuous
 62
     7
370
    15
100
AcDbSpline
210
0.0
220
0.0
230
1.0
 70
     8
 71
     3
 72
     8
 73
     4
 74
     0
 42
0.00000001
 43
0.00000001
 12
1.0
 22
0.0
 32
0.0
 13
1.0
 23
0.0
 33
0.0
 40
0.0
 40
0.0
 40
0.0
 40
0.0
 40
1.0
 40
1.0
 40
1.0
 40
1.0
 10
328.9596368379715
 20
309.4757567726451
 30
0.0
 10
329.1175401822188
 20
309.486627879159
 30
0.0
 10
329.2699240162366
 20
309.4966669800848
 30
0.0
 10
329.4189931459551
 20
309.506094431133
 30
0.0
  0
ARC
  5
241
330
1F
100
AcDbEntity
  8
0
  6
Continuous
 62
     7
370
    15
100
AcDbCircle
 10
334.6260672156
 20
227.1705833825
 30
0.0
 40
77.29036888286782
100
AcDbArc
 50
276.913390605
 51
296.8927091341
  0
ARC
  5
242
330
1F
100
AcDbEntity
  8
0
  6
Continuous
 62
     7
370
    15
100
AcDbCircle
 10
367.8716772352
 20
161.6192339348
 30
0.0
 40
3.790368882867848
100
AcDbArc
 50
296.8927091341
 51
62.8584626984
  0
ARC
  5
243
330
1F
100
AcDbEntity
  8
0
  6
Continuous
 62
     7
370
    15
100
AcDbCircle
 10
342.6260672156
 20
147.0690852692
 30
0.0
 40
3.209631117132194
100
AcDbArc
 50
154.4137317764
 51
223.3601578235
  0
ARC
  5
244
330
1F
100
AcDbEntity
  8
0
  6
Continuous
 62
     7
370
    15
100
AcDbCircle
 10
334.6260672156
 20
164.6705833825
 30
0.0
 40
17.00000000000003
100
AcDbArc
 50
287.475686194
 51
303.1789702399
  0
ARC
  5
245
330
1F
100
AcDbEntity
  8
0
  6
Continuous
 62
     7
370
    15
100
AcDbCircle
 10
334.6260672156
 20
227.1705833825
 30
0.0
 40
82.49999999999999
100
AcDbArc
 50
273.9384042968
 51
315.0
  0
SPLINE
  5
246
330
1F
100
AcDbEntity
  8
0
  6
Continuous
 62
     7
370
    15
100
AcDbSpline
210
0.0
220
0.0
230
1.0
 70
     8
 71
     3
 72
     8
 73
     4
 74
     0
 42
0.00000001
 43
0.00000001
 12
1.0
 22
0.0
 32
0.0
 13
1.0
 23
0.0
 33
0.0
 40
0.0
 40
0.0
 40
0.0
 40
0.0
 40
1.0
 40
1.0
 40
1.0
 40
1.0
 10
339.2749473692803
 20
306.0225836674089
 30
0.0
 10
339.4209604196864
 20
305.9810720993812
 30
0.0
 10
339.5715781714339
 20
305.9361888367006
 30
0.0
 10
339.7311851838998
 20
305.8859393924879
 30
0.0
  0
ARC
  5
247
330
1F
100
AcDbEntity
  8
0
  6
Continuous
 62
     7
370
    15
100
AcDbCircle
 10
342.6260672156
 20
307.2720814959
 30
0.0
 40
3.576485572113508
100
AcDbArc
 50
141.3442925135
 51
200.4484625925
  0
ARC
  5
248
330
1F
100
AcDbEntity
  8
0
  6
Continuous
 62
     7
370
    15
100
AcDbCircle
 10
342.6260672156
 20
307.2720814959
 30
0.0
 40
3.209631117132254
100
AcDbArc
 50
136.6398421765
 51
205.5862682237
  0
SPLINE
  5
249
330
1F
100
AcDbEntity
  8
0
  6
Continuous
 62
     7
370
    15
100
AcDbSpline
210
0.0
220
0.0
230
1.0
 70
     8
 71
     3
 72
     8
 73
     4
 74
     0
 42
0.00000001
 43
0.00000001
 12
1.0
 22
0.0
 32
0.0
 13
1.0
 23
0.0
 33
0.0
 40
0.0
 40
0.0
 40
0.0
 40
0.0
 40
1.0
 40
1.0
 40
1.0
 40
1.0
 10
339.8331412851896
 20
309.506094431133
 30
0.0
 10
339.9822104570189
 20
309.4966669774217
 30
0.0
 10
340.1345939305236
 20
309.4866279010799
 30
0.0
 10
340.2924975931732
 20
309.4757567726451
 30
0.0
  0
ARC
  5
24A
330
1F
100
AcDbEntity
  8
0
  6
Continuous
 62
     7
370
    15
100
AcDbCircle
 10
342.6260672156
 20
147.0690852692
 30
0.0
 40
3.576485572113498
100
AcDbArc
 50
159.5515374075
 51
218.6557074865
  0
SPLINE
  5
24B
330
1F
100
AcDbEntity
  8
0
  6
Continuous
 62
     7
370
    15
100
AcDbSpline
210
0.0
220
0.0
230
1.0
 70
     8
 71
     3
 72
     8
 73
     4
 74
     0
 42
0.00000001
 43
0.00000001
 12
1.0
 22
0.0
 32
0.0
 13
1.0
 23
0.0
 33
0.0
 40
0.0
 40
0.0
 40
0.0
 40
0.0
 40
1.0
 40
1.0
 40
1.0
 40
1.0
 10
339.7311851838966
 20
148.4552273725828
 30
0.0
 10
339.5715793135239
 20
148.404978287938
 30
0.0
 10
339.4209603045475
 20
148.3600946329571
 30
0.0
 10
339.2749473692799
 20
148.3185830976633
 30
0.0
  0
SPLINE
  5
24C
330
1F
100
AcDbEntity
  8
0
  6
Continuous
 62
     7
370
    15
100
AcDbSpline
210
0.0
220
0.0
230
1.0
 70
     8
 71
     3
 72
     8
 73
     4
 74
     0
 42
0.00000001
 43
0.00000001
 12
1.0
 22
0.0
 32
0.0
 13
1.0
 23
0.0
 33
0.0
 40
0.0
 40
0.0
 40
0.0
 40
0.0
 40
1.0
 40
1.0
 40
1.0
 40
1.0
 10
340.2924975931732
 20
144.8654099924284
 30
0.0
 10
340.1345942489259
 20
144.8545388859145
 30
0.0
 10
339.9822104149081
 20
144.8444997849886
 30
0.0
 10
339.8331412851896
 20
144.8350723339404
 30
0.0
  0
ARC
  5
24D
330
1F
100
AcDbEntity
  8
0
  6
Continuous
 62
     7
370
    15
100
AcDbCircle
 10
367.8716772352
 20
292.7219328303
 30
0.0
 40
3.790368882867898
100
AcDbArc
 50
297.1415373016
 51
63.1072908659
  0
ARC
  5
24E
330
1F
100
AcDbEntity
  8
0
  6
Continuous
 62
     7
370
    15
100
AcDbCircle
 10
334.6260672156
 20
227.1705833825
 30
0.0
 40
77.29036888286785
100
AcDbArc
 50
63.1072908659
 51
83.086609395
  0
ARC
  5
24F
330
1F
100
AcDbEntity
  8
0
  6
Continuous
 62
     7
370
    15
100
AcDbCircle
 10
334.6260672156
 20
289.6705833825
 30
0.0
 40
16.99999999999998
100
AcDbArc
 50
56.8210297602
 51
72.524313806
  0
ARC
  5
250
330
1F
100
AcDbEntity
  8
0
  6
Continuous
 62
     7
370
    15
100
AcDbCircle
 10
334.6260672156
 20
227.1705833825
 30
0.0
 40
82.50000000000003
100
AcDbArc
 50
45.0
 51
86.0615957032
  0
ARC
  5
251
330
1F
100
AcDbEntity
  8
0
  6
Continuous
 62
     7
370
    15
100
AcDbCircle
 10
334.6260672156
 20
227.1705833825
 30
0.0
 40
76.92351442788653
100
AcDbArc
 50
277.4404551337
 51
296.8927091341
  0
SPLINE
  5
252
330
1F
100
AcDbEntity
  8
0
  6
Continuous
 62
     7
370
    15
100
AcDbSpline
210
0.0
220
0.0
230
1.0
 70
     8
 71
     3
 72
     8
 73
     4
 74
     0
 42
0.00000001
 43
0.00000001
 12
1.0
 22
0.0
 32
0.0
 13
1.0
 23
0.0
 33
0.0
 40
0.0
 40
0.0
 40
0.0
 40
0.0
 40
1.0
 40
1.0
 40
1.0
 40
1.0
 10
344.5873360945017
 20
150.8947668070392
 30
0.0
 10
344.3790991908451
 20
150.7441910661044
 30
0.0
 10
344.16058261219
 20
150.5933216575718
 30
0.0
 10
343.92942026705
 20
150.4421744061391
 30
0.0
  0
ARC
  5
253
330
1F
100
AcDbEntity
  8
0
  6
Continuous
 62
     7
370
    15
100
AcDbCircle
 10
334.6260672156
 20
227.1705833825
 30
0.0
 40
76.92351442788657
100
AcDbArc
 50
63.1072908659
 51
82.5595448663
  0
SPLINE
  5
254
330
1F
100
AcDbEntity
  8
0
  6
Continuous
 62
     7
370
    15
100
AcDbSpline
210
0.0
220
0.0
230
1.0
 70
     8
 71
     3
 72
     8
 73
     4
 74
     0
 42
0.00000001
 43
0.00000001
 12
1.0
 22
0.0
 32
0.0
 13
1.0
 23
0.0
 33
0.0
 40
0.0
 40
0.0
 40
0.0
 40
0.0
 40
1.0
 40
1.0
 40
1.0
 40
1.0
 10
343.9294202670452
 20
303.898992358935
 30
0.0
 10
344.1605826121851
 20
303.7478451075023
 30
0.0
 10
344.3790991908403
 20
303.5969756989697
 30
0.0
 10
344.5873360944969
 20
303.4463999580349
 30
0.0
  0
ARC
  5
255
330
1F
100
AcDbEntity
  8
0
  6
Continuous
 62
     7
370
    15
100
AcDbCircle
 10
367.8716772352
 20
292.7219328303
 30
0.0
 40
3.423514427886549
100
AcDbArc
 50
297.1415373016
 51
63.1072908659
  0
ARC
  5
256
330
1F
100
AcDbEntity
  8
0
  6
Continuous
 62
     7
370
    15
100
AcDbCircle
 10
367.8716772352
 20
161.6192339348
 30
0.0
 40
3.423514427886523
100
AcDbArc
 50
296.8927091341
 51
62.8584626984
  0
ARC
  5
257
330
1F
100
AcDbEntity
  8
0
  6
Continuous
 62
     7
370
    15
100
AcDbCircle
 10
334.6260672156
 20
227.1705833825
 30
0.0
 40
82.50000000000006
100
AcDbArc
 50
176.3813114471
 51
183.6186885529
  0
ARC
  5
258
330
1F
100
AcDbEntity
  8
0
  6
Continuous
 62
     7
370
    15
100
AcDbCircle
 10
334.6260672156
 20
227.1705833825
 30
0.0
 40
82.50000000000003
100
AcDbArc
 50
86.3813114471
 51
93.6186885529
  0
ARC
  5
259
330
1F
100
AcDbEntity
  8
0
  6
Continuous
 62
     7
370
    15
100
AcDbCircle
 10
334.6260672156
 20
227.1705833825
 30
0.0
 40
82.50000000000003
100
AcDbArc
 50
266.3813114471
 51
273.6186885529
  0
ARC
  5
25A
330
1F
100
AcDbEntity
  8
0
  6
Continuous
 62
     7
370
    15
100
AcDbCircle
 10
334.6260672156
 20
227.1705833825
 30
0.0
 40
82.49999999999996
100
AcDbArc
 50
356.3813114471
 51
3.6186885529
  0
ARC
  5
25B
330
1F
100
AcDbEntity
  8
0
  6
Continuous
 62
     7
370
    15
100
AcDbCircle
 10
334.6260672156
 20
227.1705833825
 30
0.0
 40
53.2367192015898
100
AcDbArc
 50
127.1607055201
 51
142.838071735
  0
ARC
  5
25C
330
1F
100
AcDbEntity
  8
0
  6
Continuous
 62
     7
370
    15
100
AcDbCircle
 10
334.6260672156
 20
227.1705833825
 30
0.0
 40
53.23671920158975
100
AcDbArc
 50
217.1607055201
 51
232.838071735
  0
ARC
  5
25D
330
1F
100
AcDbEntity
  8
0
  6
Continuous
 62
     7
370
    15
100
AcDbCircle
 10
334.6260672156
 20
227.1705833825
 30
0.0
 40
53.23671920158971
100
AcDbArc
 50
37.1607055201
 51
52.838071735
  0
ARC
  5
25E
330
1F
100
AcDbEntity
  8
0
  6
Continuous
 62
     7
370
    15
100
AcDbCircle
 10
334.6260672156
 20
227.1705833825
 30
0.0
 40
53.23671920158977
100
AcDbArc
 50
307.1607055201
 51
322.838071735
  0
LINE
  5
25F
330
1F
100
AcDbEntity
  8
0
  6
Continuous
 62
     7
370
    15
100
AcDbLine
 10
253.1260659639
 20
211.1705826226
 30
0.0
 11
253.6924516503
 21
211.1705826226
 31
0.0
  0
LINE
  5
260
330
1F
100
AcDbEntity
  8
0
  6
Continuous
 62
     7
370
    15
100
AcDbLine
 10
253.1260659639
 20
243.1705841425
 30
0.0
 11
253.1260659639
 21
239.9768322337
 31
0.0
  0
LINE
  5
261
330
1F
100
AcDbEntity
  8
0
  6
Continuous
 62
     7
370
    15
100
AcDbLine
 10
253.1260659639
 20
214.3643345314
 30
0.0
 11
253.1260659639
 21
211.1705826226
 31
0.0
  0
LINE
  5
262
330
1F
100
AcDbEntity
  8
0
  6
Continuous
 62
     7
370
    15
100
AcDbLine
 10
253.1260659639
 20
243.1705841425
 30
0.0
 11
253.6924516503
 21
243.1705841425
 31
0.0
  0
LINE
  5
263
330
1F
100
AcDbEntity
  8
0
  6
Continuous
 62
     7
370
    15
100
AcDbLine
 10
350.6260679755
 20
308.6705846342
 30
0.0
 11
350.6260679755
 21
308.1041989478
 31
0.0
  0
LINE
  5
264
330
1F
100
AcDbEntity
  8
0
  6
Continuous
 62
     7
370
    15
100
AcDbLine
 10
318.6260664556
 20
308.6705846342
 30
0.0
 11
318.6260664556
 21
308.1041989478
 31
0.0
  0
LINE
  5
265
330
1F
100
AcDbEntity
  8
0
  6
Continuous
 62
     7
370
    15
100
AcDbLine
 10
350.6260679755
 20
308.6705846342
 30
0.0
 11
347.4323160667
 21
308.6705846342
 31
0.0
  0
LINE
  5
266
330
1F
100
AcDbEntity
  8
0
  6
Continuous
 62
     7
370
    15
100
AcDbLine
 10
321.8198183645
 20
308.6705846342
 30
0.0
 11
318.6260664556
 21
308.6705846342
 31
0.0
  0
LINE
  5
267
330
1F
100
AcDbEntity
  8
0
  6
Continuous
 62
     7
370
    15
100
AcDbLine
 10
318.6260664556
 20
145.6705821308
 30
0.0
 11
318.6260664556
 21
146.2369678172
 31
0.0
  0
LINE
  5
268
330
1F
100
AcDbEntity
  8
0
  6
Continuous
 62
     7
370
    15
100
AcDbLine
 10
350.6260679755
 20
145.6705821308
 30
0.0
 11
350.6260679755
 21
146.2369678172
 31
0.0
  0
LINE
  5
269
330
1F
100
AcDbEntity
  8
0
  6
Continuous
 62
     7
370
    15
100
AcDbLine
 10
318.6260664556
 20
145.6705821308
 30
0.0
 11
321.8198183645
 21
145.6705821308
 31
0.0
  0
LINE
  5
26A
330
1F
100
AcDbEntity
  8
0
  6
Continuous
 62
     7
370
    15
100
AcDbLine
 10
347.4323160667
 20
145.6705821308
 30
0.0
 11
350.6260679755
 21
145.6705821308
 31
0.0
  0
LINE
  5
26B
330
1F
100
AcDbEntity
  8
0
  6
Continuous
 62
     7
370
    15
100
AcDbLine
 10
416.1260684673
 20
211.1705826226
 30
0.0
 11
416.1260684673
 21
214.3643345314
 31
0.0
  0
LINE
  5
26C
330
1F
100
AcDbEntity
  8
0
  6
Continuous
 62
     7
370
    15
100
AcDbLine
 10
416.1260684673
 20
239.9768322337
 30
0.0
 11
416.1260684673
 21
243.1705841425
 31
0.0
  0
LINE
  5
26D
330
1F
100
AcDbEntity
  8
0
  6
Continuous
 62
     7
370
    15
100
AcDbLine
 10
416.1260684673
 20
211.1705826226
 30
0.0
 11
415.5596827809
 21
211.1705826226
 31
0.0
  0
LINE
  5
26E
330
1F
100
AcDbEntity
  8
0
  6
Continuous
 62
     7
370
    15
100
AcDbLine
 10
416.1260684673
 20
243.1705841425
 30
0.0
 11
415.5596827809
 21
243.1705841425
 31
0.0
  0
LINE
  5
26F
330
1F
100
AcDbEntity
  8
0
  6
Continuous
 62
     7
370
     0
100
AcDbLine
 10
300.2860767487
 20
180.9003991637
 30
0.0
 11
300.9273221437
 21
180.259157494
 31
0.0
  0
LINE
  5
270
330
1F
100
AcDbEntity
  8
0
  6
Continuous
 62
     7
370
     0
100
AcDbLine
 10
288.3558829967
 20
192.8305929157
 30
0.0
 11
287.714641327
 21
193.4718383106
 31
0.0
  0
LINE
  5
271
330
1F
100
AcDbEntity
  8
0
  6
Continuous
 62
     7
370
     0
100
AcDbLine
 10
288.3558829967
 20
261.5105738494
 30
0.0
 11
287.714641327
 21
260.8693284544
 31
0.0
  0
LINE
  5
272
330
1F
100
AcDbEntity
  8
0
  6
Continuous
 62
     7
370
     0
100
AcDbLine
 10
300.2860767487
 20
273.4407676014
 30
0.0
 11
300.9273221437
 21
274.0820092711
 31
0.0
  0
LINE
  5
273
330
1F
100
AcDbEntity
  8
0
  6
Continuous
 62
     7
370
     0
100
AcDbLine
 10
380.8962514345
 20
192.8305929157
 30
0.0
 11
381.5374931041
 21
193.4718383106
 31
0.0
  0
LINE
  5
274
330
1F
100
AcDbEntity
  8
0
  6
Continuous
 62
     7
370
     0
100
AcDbLine
 10
368.9660576824
 20
180.9003991637
 30
0.0
 11
368.3248122875
 21
180.259157494
 31
0.0
  0
LINE
  5
275
330
1F
100
AcDbEntity
  8
0
  6
Continuous
 62
     7
370
     0
100
AcDbLine
 10
368.9660576824
 20
273.4407676014
 30
0.0
 11
368.3248122875
 21
274.0820092711
 31
0.0
  0
LINE
  5
276
330
1F
100
AcDbEntity
  8
0
  6
Continuous
 62
     7
370
     0
100
AcDbLine
 10
380.8962514345
 20
261.5105738494
 30
0.0
 11
381.5374931041
 21
260.8693284544
 31
0.0
  0
LINE
  5
277
330
1F
100
AcDbEntity
  8
0
  6
Continuous
 62
     7
370
     0
100
AcDbLine
 10
390.0155124906
 20
200.2407559755
 30
0.0
 11
389.7018579487
 21
199.7570642832
 31
0.0
  0
LINE
  5
278
330
1F
100
AcDbEntity
  8
0
  6
Continuous
 62
     7
370
     0
100
AcDbLine
 10
397.1308951918
 20
192.3631993684
 30
0.0
 11
396.664522374
 21
192.1241214129
 31
0.0
  0
LINE
  5
279
330
1F
100
AcDbEntity
  8
0
  6
Continuous
 62
     7
370
     0
100
AcDbLine
 10
272.1212392393
 20
192.3631993684
 30
0.0
 11
272.5876120571
 21
192.1241214129
 31
0.0
  0
LINE
  5
27A
330
1F
100
AcDbEntity
  8
0
  6
Continuous
 62
     7
370
     0
100
AcDbLine
 10
279.2366219405
 20
200.2407559755
 30
0.0
 11
279.5502764825
 21
199.7570642832
 31
0.0
  0
LINE
  5
27B
330
1F
100
AcDbEntity
  8
0
  6
Continuous
 62
     7
370
     0
100
AcDbLine
 10
279.2366219405
 20
254.1004107895
 30
0.0
 11
279.5502764825
 21
254.5841024819
 31
0.0
  0
LINE
  5
27C
330
1F
100
AcDbEntity
  8
0
  6
Continuous
 62
     7
370
     0
100
AcDbLine
 10
272.1212392393
 20
261.9779673967
 30
0.0
 11
272.5876120571
 21
262.2170453522
 31
0.0
  0
LINE
  5
27D
330
1F
100
AcDbEntity
  8
0
  6
Continuous
 62
     7
370
     0
100
AcDbLine
 10
284.0172869805
 20
241.4197349551
 30
0.0
 11
284.5721987728
 21
241.2634972113
 31
0.0
  0
LINE
  5
27E
330
1F
100
AcDbEntity
  8
0
  6
Continuous
 62
     7
370
     0
100
AcDbLine
 10
284.0172869805
 20
212.92143181
 30
0.0
 11
284.5721987728
 21
213.0776695537
 31
0.0
  0
LINE
  5
27F
330
1F
100
AcDbEntity
  8
0
  6
Continuous
 62
     7
370
     0
100
AcDbLine
 10
296.4075689856
 20
277.3404350135
 30
0.0
 11
297.0382345561
 21
277.9710968587
 31
0.0
  0
LINE
  5
280
330
1F
100
AcDbEntity
  8
0
  6
Continuous
 62
     7
370
     0
100
AcDbLine
 10
284.4562155846
 20
265.3890816125
 30
0.0
 11
283.8255537394
 21
264.758416042
 31
0.0
  0
LINE
  5
281
330
1F
100
AcDbEntity
  8
0
  6
Continuous
 62
     7
370
     0
100
AcDbLine
 10
284.4562155846
 20
188.9520851526
 30
0.0
 11
283.8255537394
 21
189.5827507231
 31
0.0
  0
LINE
  5
282
330
1F
100
AcDbEntity
  8
0
  6
Continuous
 62
     7
370
     0
100
AcDbLine
 10
296.4075689856
 20
177.0007317516
 30
0.0
 11
297.0382345561
 21
176.3700699064
 31
0.0
  0
LINE
  5
283
330
1F
100
AcDbEntity
  8
0
  6
Continuous
 62
     7
370
     0
100
AcDbLine
 10
299.8186832014
 20
289.6754113588
 30
0.0
 11
299.6513282601
 21
289.3489492687
 31
0.0
  0
LINE
  5
284
330
1F
100
AcDbEntity
  8
0
  6
Continuous
 62
     7
370
     0
100
AcDbLine
 10
307.6962398086
 20
282.5600286576
 30
0.0
 11
307.2125481162
 21
282.2463741156
 31
0.0
  0
LINE
  5
285
330
1F
100
AcDbEntity
  8
0
  6
Continuous
 62
     7
370
     0
100
AcDbLine
 10
307.6962398086
 20
171.7811381075
 30
0.0
 11
307.2125481162
 21
172.0947926494
 31
0.0
  0
LINE
  5
286
330
1F
100
AcDbEntity
  8
0
  6
Continuous
 62
     7
370
     0
100
AcDbLine
 10
299.8186832014
 20
164.6657554063
 30
0.0
 11
299.6513282601
 21
164.9922174963
 31
0.0
  0
LINE
  5
287
330
1F
100
AcDbEntity
  8
0
  6
Continuous
 62
     7
370
     0
100
AcDbLine
 10
320.376915643
 20
277.7793636176
 30
0.0
 11
320.5331533868
 21
277.2244518253
 31
0.0
  0
LINE
  5
288
330
1F
100
AcDbEntity
  8
0
  6
Continuous
 62
     7
370
     0
100
AcDbLine
 10
320.376915643
 20
176.5618031475
 30
0.0
 11
320.5331533868
 21
177.1167149398
 31
0.0
  0
LINE
  5
289
330
1F
100
AcDbEntity
  8
0
  6
Continuous
 62
     7
370
     0
100
AcDbLine
 10
348.8752187882
 20
176.5618031475
 30
0.0
 11
348.7189810444
 21
177.1167149398
 31
0.0
  0
LINE
  5
28A
330
1F
100
AcDbEntity
  8
0
  6
Continuous
 62
     7
370
     0
100
AcDbLine
 10
348.8752187882
 20
277.7793636176
 30
0.0
 11
348.7189810444
 21
277.2244518253
 31
0.0
  0
LINE
  5
28B
330
1F
100
AcDbEntity
  8
0
  6
Continuous
 62
     7
370
     0
100
AcDbLine
 10
361.5558946226
 20
282.5600286576
 30
0.0
 11
362.0395863149
 21
282.2463741156
 31
0.0
  0
LINE
  5
28C
330
1F
100
AcDbEntity
  8
0
  6
Continuous
 62
     7
370
     0
100
AcDbLine
 10
361.5558946226
 20
171.7811381075
 30
0.0
 11
362.0395863149
 21
172.0947926494
 31
0.0
  0
LINE
  5
28D
330
1F
100
AcDbEntity
  8
0
  6
Continuous
 62
     7
370
     0
100
AcDbLine
 10
397.1308951918
 20
261.9779673967
 30
0.0
 11
396.664522374
 21
262.2170453522
 31
0.0
  0
LINE
  5
28E
330
1F
100
AcDbEntity
  8
0
  6
Continuous
 62
     7
370
     0
100
AcDbLine
 10
390.0155124906
 20
254.1004107895
 30
0.0
 11
389.7018579487
 21
254.5841024819
 31
0.0
  0
LINE
  5
28F
330
1F
100
AcDbEntity
  8
0
  6
Continuous
 62
     7
370
     0
100
AcDbLine
 10
369.4334512297
 20
164.6657554063
 30
0.0
 11
369.6008061711
 21
164.9922174963
 31
0.0
  0
LINE
  5
290
330
1F
100
AcDbEntity
  8
0
  6
Continuous
 62
     7
370
     0
100
AcDbLine
 10
369.4334512297
 20
289.6754113588
 30
0.0
 11
369.6008061711
 21
289.3489492687
 31
0.0
  0
LINE
  5
291
330
1F
100
AcDbEntity
  8
0
  6
Continuous
 62
     7
370
     0
100
AcDbLine
 10
372.8445654456
 20
177.0007317516
 30
0.0
 11
372.2138998751
 21
176.3700699064
 31
0.0
  0
LINE
  5
292
330
1F
100
AcDbEntity
  8
0
  6
Continuous
 62
     7
370
     0
100
AcDbLine
 10
372.8445654456
 20
277.3404350135
 30
0.0
 11
372.2138998751
 21
277.9710968587
 31
0.0
  0
LINE
  5
293
330
1F
100
AcDbEntity
  8
0
  6
Continuous
 62
     7
370
     0
100
AcDbLine
 10
384.7959188465
 20
188.9520851526
 30
0.0
 11
385.4265806917
 21
189.5827507231
 31
0.0
  0
LINE
  5
294
330
1F
100
AcDbEntity
  8
0
  6
Continuous
 62
     7
370
     0
100
AcDbLine
 10
384.7959188465
 20
265.3890816125
 30
0.0
 11
385.4265806917
 21
264.758416042
 31
0.0
  0
LINE
  5
295
330
1F
100
AcDbEntity
  8
0
  6
Continuous
 62
     7
370
     0
100
AcDbLine
 10
385.2348474506
 20
241.4197349551
 30
0.0
 11
384.6799356583
 21
241.2634972113
 31
0.0
  0
LINE
  5
296
330
1F
100
AcDbEntity
  8
0
  6
Continuous
 62
     7
370
     0
100
AcDbLine
 10
385.2348474506
 20
212.92143181
 30
0.0
 11
384.6799356583
 21
213.0776695537
 31
0.0
  0
LINE
  5
297
330
1F
100
AcDbEntity
  8
0
  6
Continuous
 62
     7
370
     0
100
AcDbLine
 10
266.0214414541
 20
192.3764465007
 30
0.0
 11
265.5540367309
 21
192.1393951031
 31
0.0
  0
LINE
  5
298
330
1F
100
AcDbEntity
  8
0
  6
Continuous
 62
     7
370
     0
100
AcDbLine
 10
266.0214414541
 20
261.9647202644
 30
0.0
 11
265.5540367309
 21
262.2017716619
 31
0.0
  0
LINE
  5
299
330
1F
100
AcDbEntity
  8
0
  6
Continuous
 62
     7
370
     0
100
AcDbLine
 10
403.2306929771
 20
261.9647202644
 30
0.0
 11
403.6980977002
 21
262.2017716619
 31
0.0
  0
LINE
  5
29A
330
1F
100
AcDbEntity
  8
0
  6
Continuous
 62
     7
370
     0
100
AcDbLine
 10
403.2306929771
 20
192.3764465007
 30
0.0
 11
403.6980977002
 21
192.1393951031
 31
0.0
  0
LINE
  5
29B
330
1F
100
AcDbEntity
  8
0
  6
Continuous
 62
     7
370
     0
100
AcDbLine
 10
299.8319303337
 20
295.775209144
 30
0.0
 11
299.665994728
 21
296.1023939404
 31
0.0
  0
LINE
  5
29C
330
1F
100
AcDbEntity
  8
0
  6
Continuous
 62
     7
370
     0
100
AcDbLine
 10
299.8319303337
 20
158.565957621
 30
0.0
 11
299.665994728
 21
158.2387728247
 31
0.0
  0
LINE
  5
29D
330
1F
100
AcDbEntity
  8
0
  6
Continuous
 62
     7
370
     0
100
AcDbLine
 10
369.4202040974
 20
158.565957621
 30
0.0
 11
369.5861397032
 21
158.2387728247
 31
0.0
  0
LINE
  5
29E
330
1F
100
AcDbEntity
  8
0
  6
Continuous
 62
     7
370
     0
100
AcDbLine
 10
369.4202040974
 20
295.775209144
 30
0.0
 11
369.5861397032
 21
296.1023939404
 31
0.0
  0
ARC
  5
29F
330
1F
100
AcDbEntity
  8
0
  6
Continuous
 62
     7
370
     0
100
AcDbCircle
 10
334.6260672156
 20
227.1705833825
 30
0.0
 40
49.6705670024481
100
AcDbArc
 50
220.5621191025
 51
229.4295331249
  0
ARC
  5
2A0
330
1F
100
AcDbEntity
  8
0
  6
Continuous
 62
     7
370
     0
100
AcDbCircle
 10
334.6260672156
 20
227.1705833825
 30
0.0
 40
52.16714083933451
100
AcDbArc
 50
217.755301393
 51
232.2393004596
  0
ARC
  5
2A1
330
1F
100
AcDbEntity
  8
0
  6
Continuous
 62
     7
370
     0
100
AcDbCircle
 10
334.6260672156
 20
227.1705833825
 30
0.0
 40
52.16714083933447
100
AcDbArc
 50
127.755301393
 51
142.2393004596
  0
ARC
  5
2A2
330
1F
100
AcDbEntity
  8
0
  6
Continuous
 62
     7
370
     0
100
AcDbCircle
 10
334.6260672156
 20
227.1705833825
 30
0.0
 40
49.67056700244807
100
AcDbArc
 50
130.5621191025
 51
139.4295331249
  0
ARC
  5
2A3
330
1F
100
AcDbEntity
  8
0
  6
Continuous
 62
     7
370
     0
100
AcDbCircle
 10
334.6260672156
 20
227.1705833825
 30
0.0
 40
49.670567002448
100
AcDbArc
 50
40.5621191025
 51
49.4295331249
  0
ARC
  5
2A4
330
1F
100
AcDbEntity
  8
0
  6
Continuous
 62
     7
370
     0
100
AcDbCircle
 10
334.6260672156
 20
227.1705833825
 30
0.0
 40
52.16714083933446
100
AcDbArc
 50
37.755301393
 51
52.2393004596
  0
ARC
  5
2A5
330
1F
100
AcDbEntity
  8
0
  6
Continuous
 62
     7
370
     0
100
AcDbCircle
 10
334.6260672156
 20
227.1705833825
 30
0.0
 40
49.67056700244803
100
AcDbArc
 50
310.5621191025
 51
319.4295331249
  0
ARC
  5
2A6
330
1F
100
AcDbEntity
  8
0
  6
Continuous
 62
     7
370
     0
100
AcDbCircle
 10
334.6260672156
 20
227.1705833825
 30
0.0
 40
52.1671408393345
100
AcDbArc
 50
307.755301393
 51
322.2393004596
  0
CIRCLE
  5
2A7
330
1F
100
AcDbEntity
  8
0
  6
CENTERX2
 62
     7
370
     0
100
AcDbCircle
 10
334.6260672156
 20
227.1705833825
 30
0.0
 40
62.50000000000189
  0
INSERT
  5
2B3
330
1F
100
AcDbEntity
  8
0
  6
Continuous
 62
     7
370
     0
100
AcDbBlockReference
  2
SW_CENTERMARKSYMBOL_0
 10
334.6260672156
 20
227.1705833825
 30
0.0
  0
LINE
  5
2B4
330
1F
100
AcDbEntity
  8
0
  6
Continuous
 62
     7
370
    15
100
AcDbLine
 10
54.9547120912
 20
-54.7373601968
 30
0.0
 11
59.9547110481
 21
-54.7373601968
 31
0.0
  0
LINE
  5
2B5
330
1F
100
AcDbEntity
  8
0
  6
Continuous
 62
     7
370
    15
100
AcDbLine
 10
59.9547110481
 20
110.2626463597
 30
0.0
 11
54.9547120912
 21
110.2626463597
 31
0.0
  0
LINE
  5
2B6
330
1F
100
AcDbEntity
  8
0
  6
Continuous
 62
     7
370
    15
100
AcDbLine
 10
61.3500688208
 20
-28.1123565311
 30
0.0
 11
62.0297480358
 21
-15.1433171506
 31
0.0
  0
LINE
  5
2B7
330
1F
100
AcDbEntity
  8
0
  6
Continuous
 62
     7
370
    15
100
AcDbLine
 10
59.9547110481
 20
-54.7373601968
 30
0.0
 11
60.6556616707
 21
-41.3624355371
 31
0.0
  0
LINE
  5
2B8
330
1F
100
AcDbEntity
  8
0
  6
Continuous
 62
     7
370
    15
100
AcDbLine
 10
60.6556616707
 20
96.8877217
 30
0.0
 11
59.9547110481
 21
110.2626463597
 31
0.0
  0
LINE
  5
2B9
330
1F
100
AcDbEntity
  8
0
  6
Continuous
 62
     7
370
    15
100
AcDbLine
 10
62.0297480358
 20
70.6686033135
 30
0.0
 11
61.3500688208
 21
83.637642694
 31
0.0
  0
LINE
  5
2BA
330
1F
100
AcDbEntity
  8
0
  6
Continuous
 62
     7
370
    15
100
AcDbLine
 10
54.9547120912
 20
23.3391286073
 30
0.0
 11
47.9547118751
 21
22.9722741259
 31
0.0
  0
LINE
  5
2BB
330
1F
100
AcDbEntity
  8
0
  6
Continuous
 62
     7
370
    15
100
AcDbLine
 10
47.9547118751
 20
32.553012037
 30
0.0
 11
54.9547120912
 21
32.1861575556
 31
0.0
  0
ARC
  5
2BC
330
1F
100
AcDbEntity
  8
0
  6
Continuous
 62
     7
370
    15
100
AcDbCircle
 10
70.3302120253
 20
27.7626430815
 30
0.0
 40
22.67267151925521
100
AcDbArc
 50
167.83116174
 51
192.16883826
  0
LINE
  5
2BD
330
1F
100
AcDbEntity
  8
0
  6
Continuous
 62
     7
370
    15
100
AcDbLine
 10
168.0475350452
 20
15.7626429771
 30
0.0
 11
170.5475475622
 21
15.7626429771
 31
0.0
  0
LINE
  5
2BE
330
1F
100
AcDbEntity
  8
0
  6
Continuous
 62
     7
370
    15
100
AcDbLine
 10
170.5475475622
 20
39.7626431858
 30
0.0
 11
168.0475350452
 21
39.7626431858
 31
0.0
  0
LINE
  5
2BF
330
1F
100
AcDbEntity
  8
0
  6
Continuous
 62
     7
370
    15
100
AcDbLine
 10
187.4575342966
 20
19.7626427015
 30
0.0
 11
187.9575427605
 21
19.7626427015
 31
0.0
  0
LINE
  5
2C0
330
1F
100
AcDbEntity
  8
0
  6
Continuous
 62
     7
370
    15
100
AcDbLine
 10
187.9575427605
 20
35.7626434614
 30
0.0
 11
187.4575342966
 21
35.7626434614
 31
0.0
  0
LINE
  5
2C1
330
1F
100
AcDbEntity
  8
0
  6
Continuous
 62
     7
370
    15
100
AcDbLine
 10
187.9575427605
 20
21.2626429473
 30
0.0
 11
199.4575437141
 21
21.2626429473
 31
0.0
  0
LINE
  5
2C2
330
1F
100
AcDbEntity
  8
0
  6
Continuous
 62
     7
370
    15
100
AcDbLine
 10
199.4575437141
 20
34.2626432156
 30
0.0
 11
187.9575427605
 21
34.2626432156
 31
0.0
  0
LINE
  5
2C3
330
1F
100
AcDbEntity
  8
0
  6
Continuous
 62
     7
370
    15
100
AcDbLine
 10
180.5475380255
 20
21.7626430293
 30
0.0
 11
187.4575342966
 21
21.7626430293
 31
0.0
  0
LINE
  5
2C4
330
1F
100
AcDbEntity
  8
0
  6
Continuous
 62
     7
370
    15
100
AcDbLine
 10
187.4575342966
 20
33.7626431336
 30
0.0
 11
180.5475380255
 21
33.7626431336
 31
0.0
  0
LINE
  5
2C5
330
1F
100
AcDbEntity
  8
0
  6
Continuous
 62
     7
370
    15
100
AcDbLine
 10
63.2575403882
 20
21.7626430293
 30
0.0
 11
163.0475398136
 21
21.7626430293
 31
0.0
  0
LINE
  5
2C6
330
1F
100
AcDbEntity
  8
0
  6
Continuous
 62
     7
370
    15
100
AcDbLine
 10
163.0475398136
 20
33.7626431336
 30
0.0
 11
63.2575403882
 21
33.7626431336
 31
0.0
  0
LINE
  5
2C7
330
1F
100
AcDbEntity
  8
0
  6
Continuous
 62
     7
370
    15
100
AcDbLine
 10
44.954711849
 20
91.9568157022
 30
0.0
 11
43.9547116851
 21
91.9568157022
 31
0.0
  0
LINE
  5
2C8
330
1F
100
AcDbEntity
  8
0
  6
Continuous
 62
     7
370
    15
100
AcDbLine
 10
43.9547116851
 20
-36.4315295393
 30
0.0
 11
44.954711849
 21
-36.4315295393
 31
0.0
  0
LINE
  5
2C9
330
1F
100
AcDbEntity
  8
0
  6
Continuous
 62
     7
370
    15
100
AcDbLine
 10
138.954709096
 20
74.5434900945
 30
0.0
 11
136.6575013829
 21
71.762642843
 31
0.0
  0
LINE
  5
2CA
330
1F
100
AcDbEntity
  8
0
  6
Continuous
 62
     7
370
    15
100
AcDbLine
 10
136.6575013829
 20
-16.2373566801
 30
0.0
 11
138.954709096
 21
-19.0182039315
 31
0.0
  0
LINE
  5
2CB
330
1F
100
AcDbEntity
  8
0
  6
Continuous
 62
     7
370
    15
100
AcDbLine
 10
136.1156132055
 20
-16.2373566801
 30
0.0
 11
136.6575013829
 21
-16.2373566801
 31
0.0
  0
LINE
  5
2CC
330
1F
100
AcDbEntity
  8
0
  6
Continuous
 62
     7
370
    15
100
AcDbLine
 10
136.6575013829
 20
71.762642843
 30
0.0
 11
136.1156132055
 21
71.762642843
 31
0.0
  0
ARC
  5
2CD
330
1F
100
AcDbEntity
  8
0
  6
Continuous
 62
     7
370
    15
100
AcDbCircle
 10
136.1156120279
 20
-13.2373569185
 30
0.0
 40
3.000000000000032
100
AcDbArc
 50
220.0
 51
270.0
  0
ARC
  5
2CE
330
1F
100
AcDbEntity
  8
0
  6
Continuous
 62
     7
370
    15
100
AcDbCircle
 10
136.1156120279
 20
68.7626430815
 30
0.0
 40
3.000000000000032
100
AcDbArc
 50
90.0
 51
140.0
  0
LINE
  5
2CF
330
1F
100
AcDbEntity
  8
0
  6
Continuous
 62
     7
370
    15
100
AcDbLine
 10
133.8174816204
 20
70.6910072093
 30
0.0
 11
131.4585756494
 21
67.879772765
 31
0.0
  0
LINE
  5
2D0
330
1F
100
AcDbEntity
  8
0
  6
Continuous
 62
     7
370
    15
100
AcDbLine
 10
131.4585756494
 20
-12.354486602
 30
0.0
 11
133.8174816204
 21
-15.1657210464
 31
0.0
  0
LINE
  5
2D1
330
1F
100
AcDbEntity
  8
0
  6
Continuous
 62
     7
370
    15
100
AcDbLine
 10
62.0297480358
 20
-15.1433171506
 30
0.0
 11
84.9547114206
 21
-13.540246504
 31
0.0
  0
LINE
  5
2D2
330
1F
100
AcDbEntity
  8
0
  6
Continuous
 62
     7
370
    15
100
AcDbLine
 10
88.8822440041
 20
-13.2656069274
 30
0.0
 11
95.7420829667
 21
-12.7859199221
 31
0.0
  0
LINE
  5
2D3
330
1F
100
AcDbEntity
  8
0
  6
Continuous
 62
     7
370
    15
100
AcDbLine
 10
99.680906905
 20
-12.5104905839
 30
0.0
 11
101.0840598477
 21
-12.412373888
 31
0.0
  0
LINE
  5
2D4
330
1F
100
AcDbEntity
  8
0
  6
Continuous
 62
     7
370
    15
100
AcDbLine
 10
104.8109631968
 20
-12.1517637546
 30
0.0
 11
106.2285181118
 21
-12.052637505
 31
0.0
  0
LINE
  5
2D5
330
1F
100
AcDbEntity
  8
0
  6
Continuous
 62
     7
370
    15
100
AcDbLine
 10
110.1118054224
 20
-11.7810899193
 30
0.0
 11
115.6042914821
 21
-11.3970199401
 31
0.0
  0
LINE
  5
2D6
330
1F
100
AcDbEntity
  8
0
  6
Continuous
 62
     7
370
    15
100
AcDbLine
 10
120.0975652767
 20
-11.0828177805
 30
0.0
 11
127.2795673443
 21
-10.5806039447
 31
0.0
  0
LINE
  5
2D7
330
1F
100
AcDbEntity
  8
0
  6
Continuous
 62
     7
370
    15
100
AcDbLine
 10
127.2795673443
 20
66.1058901077
 30
0.0
 11
62.0297480358
 21
70.6686033135
 31
0.0
  0
ARC
  5
2D8
330
1F
100
AcDbEntity
  8
0
  6
Continuous
 62
     7
370
    15
100
AcDbCircle
 10
127.6283515835
 20
-15.5684244075
 30
0.0
 40
4.999999999999996
100
AcDbArc
 50
40.0
 51
94.0
  0
ARC
  5
2D9
330
1F
100
AcDbEntity
  8
0
  6
Continuous
 62
     7
370
    15
100
AcDbCircle
 10
127.6283515835
 20
71.0937105705
 30
0.0
 40
5.000000000000005
100
AcDbArc
 50
266.0
 51
320.0
  0
LINE
  5
2DA
330
1F
100
AcDbEntity
  8
0
  6
Continuous
 62
     7
370
    15
100
AcDbLine
 10
169.0475370718
 20
65.7626418596
 30
0.0
 11
168.0475350452
 21
65.7626418596
 31
0.0
  0
LINE
  5
2DB
330
1F
100
AcDbEntity
  8
0
  6
Continuous
 62
     7
370
    15
100
AcDbLine
 10
168.0475350452
 20
-10.2373556966
 30
0.0
 11
169.0475370718
 21
-10.2373556966
 31
0.0
  0
ARC
  5
2DC
330
1F
100
AcDbEntity
  8
0
  6
Continuous
 62
     7
370
    15
100
AcDbCircle
 10
169.0475405061
 20
63.7626430815
 30
0.0
 40
2.000000000000007
100
AcDbArc
 50
0.0
 51
90.0
  0
ARC
  5
2DD
330
1F
100
AcDbEntity
  8
0
  6
Continuous
 62
     7
370
    15
100
AcDbCircle
 10
169.0475405061
 20
-8.2373569185
 30
0.0
 40
2.0
100
AcDbArc
 50
270.0
 51
0.0
  0
LINE
  5
2DE
330
1F
100
AcDbEntity
  8
0
  6
Continuous
 62
     7
370
    15
100
AcDbLine
 10
168.0475350452
 20
78.2626448398
 30
0.0
 11
170.5475475622
 21
78.2626448398
 31
0.0
  0
LINE
  5
2DF
330
1F
100
AcDbEntity
  8
0
  6
Continuous
 62
     7
370
    15
100
AcDbLine
 10
170.5475475622
 20
102.2626450484
 30
0.0
 11
168.0475350452
 21
102.2626450484
 31
0.0
  0
LINE
  5
2E0
330
1F
100
AcDbEntity
  8
0
  6
Continuous
 62
     7
370
    15
100
AcDbLine
 10
168.0475350452
 20
-46.7373588855
 30
0.0
 11
170.5475475622
 21
-46.7373588855
 31
0.0
  0
LINE
  5
2E1
330
1F
100
AcDbEntity
  8
0
  6
Continuous
 62
     7
370
    15
100
AcDbLine
 10
170.5475475622
 20
-22.7373586769
 30
0.0
 11
168.0475350452
 21
-22.7373586769
 31
0.0
  0
LINE
  5
2E2
330
1F
100
AcDbEntity
  8
0
  6
Continuous
 62
     7
370
    15
100
AcDbLine
 10
187.4575342966
 20
82.2626417702
 30
0.0
 11
187.9575427605
 21
82.2626417702
 31
0.0
  0
LINE
  5
2E3
330
1F
100
AcDbEntity
  8
0
  6
Continuous
 62
     7
370
    15
100
AcDbLine
 10
187.9575427605
 20
98.2626443928
 30
0.0
 11
187.4575342966
 21
98.2626443928
 31
0.0
  0
LINE
  5
2E4
330
1F
100
AcDbEntity
  8
0
  6
Continuous
 62
     7
370
    15
100
AcDbLine
 10
187.4575342966
 20
-42.7373582298
 30
0.0
 11
187.9575427605
 21
-42.7373582298
 31
0.0
  0
LINE
  5
2E5
330
1F
100
AcDbEntity
  8
0
  6
Continuous
 62
     7
370
    15
100
AcDbLine
 10
187.9575427605
 20
-26.7373556072
 30
0.0
 11
187.4575342966
 21
-26.7373556072
 31
0.0
  0
LINE
  5
2E6
330
1F
100
AcDbEntity
  8
0
  6
Continuous
 62
     7
370
    15
100
AcDbLine
 10
187.9575427605
 20
83.76264481
 30
0.0
 11
199.4575437141
 21
83.76264481
 31
0.0
  0
LINE
  5
2E7
330
1F
100
AcDbEntity
  8
0
  6
Continuous
 62
     7
370
    15
100
AcDbLine
 10
199.4575437141
 20
96.7626413529
 30
0.0
 11
187.9575427605
 21
96.7626413529
 31
0.0
  0
LINE
  5
2E8
330
1F
100
AcDbEntity
  8
0
  6
Continuous
 62
     7
370
    15
100
AcDbLine
 10
187.9575427605
 20
-41.23735519
 30
0.0
 11
199.4575437141
 21
-41.23735519
 31
0.0
  0
LINE
  5
2E9
330
1F
100
AcDbEntity
  8
0
  6
Continuous
 62
     7
370
    15
100
AcDbLine
 10
199.4575437141
 20
-28.2373586471
 30
0.0
 11
187.9575427605
 21
-28.2373586471
 31
0.0
  0
LINE
  5
2EA
330
1F
100
AcDbEntity
  8
0
  6
Continuous
 62
     7
370
    15
100
AcDbLine
 10
63.2575403882
 20
84.262642098
 30
0.0
 11
143.8419770432
 21
84.262642098
 31
0.0
  0
LINE
  5
2EB
330
1F
100
AcDbEntity
  8
0
  6
Continuous
 62
     7
370
    15
100
AcDbLine
 10
157.799477501
 20
96.2626403396
 30
0.0
 11
63.2575403882
 21
96.2626403396
 31
0.0
  0
LINE
  5
2EC
330
1F
100
AcDbEntity
  8
0
  6
Continuous
 62
     7
370
    15
100
AcDbLine
 10
180.5475380255
 20
84.262642098
 30
0.0
 11
187.4575342966
 21
84.262642098
 31
0.0
  0
LINE
  5
2ED
330
1F
100
AcDbEntity
  8
0
  6
Continuous
 62
     7
370
    15
100
AcDbLine
 10
187.4575342966
 20
96.2626403396
 30
0.0
 11
180.5475380255
 21
96.2626403396
 31
0.0
  0
LINE
  5
2EE
330
1F
100
AcDbEntity
  8
0
  6
Continuous
 62
     7
370
    15
100
AcDbLine
 10
180.5475380255
 20
-40.7373541767
 30
0.0
 11
187.4575342966
 21
-40.7373541767
 31
0.0
  0
LINE
  5
2EF
330
1F
100
AcDbEntity
  8
0
  6
Continuous
 62
     7
370
    15
100
AcDbLine
 10
187.4575342966
 20
-28.7373559351
 30
0.0
 11
180.5475380255
 21
-28.7373559351
 31
0.0
  0
LINE
  5
2F0
330
1F
100
AcDbEntity
  8
0
  6
Continuous
 62
     7
370
    15
100
AcDbLine
 10
63.2575403882
 20
-40.7373541767
 30
0.0
 11
157.799477501
 21
-40.7373541767
 31
0.0
  0
LINE
  5
2F1
330
1F
100
AcDbEntity
  8
0
  6
Continuous
 62
     7
370
    15
100
AcDbLine
 10
143.8419770432
 20
-28.7373559351
 30
0.0
 11
63.2575403882
 21
-28.7373559351
 31
0.0
  0
LINE
  5
2F2
330
1F
100
AcDbEntity
  8
0
  6
Continuous
 62
     7
370
    15
100
AcDbLine
 10
54.9547120912
 20
-54.7373601968
 30
0.0
 11
54.9547120912
 21
-54.5728662784
 31
0.0
  0
SPLINE
  5
2F3
330
1F
100
AcDbEntity
  8
0
  6
Continuous
 62
     7
370
    15
100
AcDbSpline
210
0.0
220
0.0
230
1.0
 70
     8
 71
     3
 72
     8
 73
     4
 74
     0
 42
0.00000001
 43
0.00000001
 12
1.0
 22
0.0
 32
0.0
 13
1.0
 23
0.0
 33
0.0
 40
0.0
 40
0.0
 40
0.0
 40
0.0
 40
1.0
 40
1.0
 40
1.0
 40
1.0
 10
44.95471165904704
 20
-54.52805597219579
 30
0.0
 10
48.28725410529369
 20
-54.54471859157757
 30
0.0
 10
51.62077877441949
 20
-54.55939930340788
 30
0.0
 10
54.95471165904703
 20
-54.57286796713846
 30
0.0
  0
LINE
  5
2F4
330
1F
100
AcDbEntity
  8
0
  6
Continuous
 62
     7
370
    15
100
AcDbLine
 10
44.954711849
 20
-30.5736670072
 30
0.0
 11
44.954711849
 21
-54.5280584867
 31
0.0
  0
LINE
  5
2F5
330
1F
100
AcDbEntity
  8
0
  6
Continuous
 62
     7
370
    15
100
AcDbLine
 10
47.9547118751
 20
-30.5736670072
 30
0.0
 11
47.9547118751
 21
22.0962125075
 31
0.0
  0
SPLINE
  5
2F6
330
1F
100
AcDbEntity
  8
0
  6
Continuous
 62
     7
370
    15
100
AcDbSpline
210
0.0
220
0.0
230
1.0
 70
     8
 71
     3
 72
     8
 73
     4
 74
     0
 42
0.00000001
 43
0.00000001
 12
1.0
 22
0.0
 32
0.0
 13
1.0
 23
0.0
 33
0.0
 40
0.0
 40
0.0
 40
0.0
 40
0.0
 40
1.0
 40
1.0
 40
1.0
 40
1.0
 10
54.95471165904703
 20
22.55556901183964
 30
0.0
 10
52.62110985746666
 20
22.40649984001045
 30
0.0
 10
50.28772675456286
 20
22.25411636650568
 30
0.0
 10
47.95471165904704
 20
22.0962127038561
 30
0.0
  0
LINE
  5
2F7
330
1F
100
AcDbEntity
  8
0
  6
Continuous
 62
     7
370
    15
100
AcDbLine
 10
54.9547120912
 20
22.5555692067
 30
0.0
 11
54.9547120912
 21
32.9697169562
 31
0.0
  0
SPLINE
  5
2F8
330
1F
100
AcDbEntity
  8
0
  6
Continuous
 62
     7
370
    15
100
AcDbSpline
210
0.0
220
0.0
230
1.0
 70
     8
 71
     3
 72
     8
 73
     4
 74
     0
 42
0.00000001
 43
0.00000001
 12
1.0
 22
0.0
 32
0.0
 13
1.0
 23
0.0
 33
0.0
 40
0.0
 40
0.0
 40
0.0
 40
0.0
 40
1.0
 40
1.0
 40
1.0
 40
1.0
 10
47.95471165904704
 20
33.42907345905781
 30
0.0
 10
50.28772205019263
 20
33.27117011481049
 30
0.0
 10
52.62111051668924
 20
33.11878628079269
 30
0.0
 10
54.95471165904703
 20
32.96971715107426
 30
0.0
  0
LINE
  5
2F9
330
1F
100
AcDbEntity
  8
0
  6
Continuous
 62
     7
370
    15
100
AcDbLine
 10
47.9547118751
 20
33.4290736554
 30
0.0
 11
47.9547118751
 21
86.0989531701
 31
0.0
  0
LINE
  5
2FA
330
1F
100
AcDbEntity
  8
0
  6
Continuous
 62
     7
370
    15
100
AcDbLine
 10
44.954711849
 20
86.0989531701
 30
0.0
 11
44.954711849
 21
110.0533446496
 31
0.0
  0
SPLINE
  5
2FB
330
1F
100
AcDbEntity
  8
0
  6
Continuous
 62
     7
370
    15
100
AcDbSpline
210
0.0
220
0.0
230
1.0
 70
     8
 71
     3
 72
     8
 73
     4
 74
     0
 42
0.00000001
 43
0.00000001
 12
1.0
 22
0.0
 32
0.0
 13
1.0
 23
0.0
 33
0.0
 40
0.0
 40
0.0
 40
0.0
 40
0.0
 40
1.0
 40
1.0
 40
1.0
 40
1.0
 10
54.95471165904703
 20
110.0981541300541
 30
0.0
 10
51.6207792202167
 20
110.0846854681244
 30
0.0
 10
48.28725505897933
 20
110.0700047592616
 30
0.0
 10
44.95471165904704
 20
110.0533421351114
 30
0.0
  0
LINE
  5
2FC
330
1F
100
AcDbEntity
  8
0
  6
Continuous
 62
     7
370
    15
100
AcDbLine
 10
54.9547120912
 20
110.0981524413
 30
0.0
 11
54.9547120912
 21
110.2626463597
 31
0.0
  0
LINE
  5
2FD
330
1F
100
AcDbEntity
  8
0
  6
Continuous
 62
     7
370
    15
100
AcDbLine
 10
59.9547110481
 20
-54.7373601968
 30
0.0
 11
59.9547110481
 21
110.2626463597
 31
0.0
  0
SPLINE
  5
2FE
330
1F
100
AcDbEntity
  8
0
  6
Continuous
 62
     7
370
    15
100
AcDbSpline
210
0.0
220
0.0
230
1.0
 70
     8
 71
     3
 72
     8
 73
     4
 74
     0
 42
0.00000001
 43
0.00000001
 12
1.0
 22
0.0
 32
0.0
 13
1.0
 23
0.0
 33
0.0
 40
0.0
 40
0.0
 40
0.0
 40
0.0
 40
1.0
 40
1.0
 40
1.0
 40
1.0
 10
60.63906569119219
 20
34.38764308145734
 30
0.0
 10
60.6611487064154
 20
29.97094847286144
 30
0.0
 10
60.66114799455269
 20
25.55419531455955
 30
0.0
 10
60.63906569119219
 20
21.13764308145735
 30
0.0
  0
LINE
  5
2FF
330
1F
100
AcDbEntity
  8
0
  6
Continuous
 62
     7
370
    15
100
AcDbLine
 10
62.0297480358
 20
14.22656702
 30
0.0
 11
62.0297480358
 21
21.1376431597
 31
0.0
  0
LINE
  5
300
330
1F
100
AcDbEntity
  8
0
  6
Continuous
 62
     7
370
    15
100
AcDbLine
 10
62.0297480358
 20
34.3876430032
 30
0.0
 11
62.0297480358
 21
41.2987191429
 31
0.0
  0
LINE
  5
301
330
1F
100
AcDbEntity
  8
0
  6
Continuous
 62
     7
370
    15
100
AcDbLine
 10
62.0297480358
 20
-12.9521684522
 30
0.0
 11
62.0297480358
 21
14.22656702
 31
0.0
  0
LINE
  5
302
330
1F
100
AcDbEntity
  8
0
  6
Continuous
 62
     7
370
    15
100
AcDbLine
 10
62.0297480358
 20
-15.1433171506
 30
0.0
 11
62.0297480358
 21
-12.9521684522
 31
0.0
  0
LINE
  5
303
330
1F
100
AcDbEntity
  8
0
  6
Continuous
 62
     7
370
    15
100
AcDbLine
 10
62.0297480358
 20
68.4774546151
 30
0.0
 11
62.0297480358
 21
70.6686033135
 31
0.0
  0
LINE
  5
304
330
1F
100
AcDbEntity
  8
0
  6
Continuous
 62
     7
370
    15
100
AcDbLine
 10
62.0297480358
 20
41.2987191429
 30
0.0
 11
62.0297480358
 21
68.4774546151
 31
0.0
  0
LWPOLYLINE
  5
305
330
1F
100
AcDbEntity
  8
0
  6
Continuous
 62
     7
370
    15
100
AcDbPolyline
 90
        3
 70
   128
 43
0.0
 10
61.3295573724
 20
-28.1123565311
 10
61.2426649762
 20
-29.7816442127
 10
60.6390655024
 20
-41.3623535807
  0
LWPOLYLINE
  5
306
330
1F
100
AcDbEntity
  8
0
  6
Continuous
 62
     7
370
    15
100
AcDbPolyline
 90
        3
 70
   128
 43
0.0
 10
60.6390655024
 20
96.8876397436
 10
60.7261851413
 20
95.217517597
 10
61.3295573724
 20
83.637642694
  0
SPLINE
  5
307
330
1F
100
AcDbEntity
  8
0
  6
Continuous
 62
     7
370
    15
100
AcDbSpline
210
0.0
220
0.0
230
1.0
 70
     8
 71
     3
 72
    49
 73
    45
 74
     0
 42
0.00000001
 43
0.00000001
 12
1.0
 22
0.0
 32
0.0
 13
1.0
 23
0.0
 33
0.0
 40
0.0
 40
0.0
 40
0.0
 40
0.0
 40
0.0625000000000015
 40
0.0625000000000015
 40
0.125000000000003
 40
0.125000000000003
 40
0.1562500000000039
 40
0.1562500000000039
 40
0.1875000000000048
 40
0.1875000000000048
 40
0.2500000000000059
 40
0.2500000000000059
 40
0.3125000000000071
 40
0.3125000000000071
 40
0.3750000000000082
 40
0.3750000000000082
 40
0.4062500000000087
 40
0.4062500000000087
 40
0.437500000000009
 40
0.4687500000000095
 40
0.4687500000000095
 40
0.5000000000000099
 40
0.5000000000000099
 40
0.5625000000000095
 40
0.5625000000000095
 40
0.5937500000000092
 40
0.5937500000000092
 40
0.6250000000000089
 40
0.6250000000000089
 40
0.6875000000000084
 40
0.6875000000000084
 40
0.7187500000000082
 40
0.7187500000000082
 40
0.7500000000000079
 40
0.7500000000000079
 40
0.8125000000000067
 40
0.8125000000000067
 40
0.8750000000000053
 40
0.8750000000000053
 40
0.9062500000000043
 40
0.9062500000000043
 40
0.9375000000000033
 40
0.9375000000000033
 40
1.0
 40
1.0
 40
1.0
 40
1.0
 10
61.258571575022
 20
62.10263351937835
 30
0.0
 10
61.28702636429145
 20
61.71573874945696
 30
0.0
 10
61.31578274027395
 20
61.36770248597334
 30
0.0
 10
61.37394524732606
 20
60.75234368079717
 30
0.0
 10
61.40250878166653
 20
60.4941246865294
 30
0.0
 10
61.4442783143426
 20
60.18063306515923
 30
0.0
 10
61.45803590204505
 20
60.08836683337584
 30
0.0
 10
61.48519366780022
 20
59.92880385656573
 30
0.0
 10
61.49864981531665
 20
59.86136985602509
 30
0.0
 10
61.53761072667558
 20
59.70117015711843
 30
0.0
 10
61.5619501324022
 20
59.64837981673564
 30
0.0
 10
61.6071420846127
 20
59.64941930439249
 30
0.0
 10
61.62810171669656
 20
59.70503872475064
 30
0.0
 10
61.66440057660272
 20
59.92094862196396
 30
0.0
 10
61.67998236917624
 20
60.08045422627062
 30
0.0
 10
61.69920950300641
 20
60.398528270927
 30
0.0
 10
61.70492465110534
 20
60.51821437834951
 30
0.0
 10
61.71467309159046
 20
60.77901275720286
 30
0.0
 10
61.722817235851
 20
61.06225617679289
 30
0.0
 10
61.72776456162634
 20
61.38959945793815
 30
0.0
 10
61.73108160709126
 20
61.7392369316781
 30
0.0
 10
61.73192444172691
 20
61.92600927715782
 30
0.0
 10
61.73190431319357
 20
62.51553583108899
 30
0.0
 10
61.72854248291569
 20
62.94101893658755
 30
0.0
 10
61.71869555309495
 20
63.62637529150692
 30
0.0
 10
61.71460778791044
 20
63.86273985541177
 30
0.0
 10
61.70480027090679
 20
64.35172791461261
 30
0.0
 10
61.69908030331735
 20
64.60393344600693
 30
0.0
 10
61.67989462840202
 20
65.3683471444537
 30
0.0
 10
61.66432065002546
 20
65.89355367645358
 30
0.0
 10
61.63700351912539
 20
66.70475748145333
 30
0.0
 10
61.62717514802088
 20
66.98061807548642
 30
0.0
 10
61.60649574877124
 20
67.53207013087044
 30
0.0
 10
61.5956690803328
 20
67.80720576593998
 30
0.0
 10
61.56182326498727
 20
68.63089140164819
 30
0.0
 10
61.53745235732497
 20
69.17773671968
 30
0.0
 10
61.48524481319575
 20
70.26673218788775
 30
0.0
 10
61.45802343222297
 20
70.79574261617866
 30
0.0
 10
61.41625311987727
 20
71.55619523576439
 30
0.0
 10
61.40214198754687
 20
71.80473828228817
 30
0.0
 10
61.37355038107673
 20
72.29176392623849
 30
0.0
 10
61.35898824372131
 20
72.53149879266196
 30
0.0
 10
61.3156083017984
 20
73.2212229614467
 30
0.0
 10
61.28696232341854
 20
73.64469747856828
 30
0.0
 10
61.258571575022
 20
74.03282569880298
 30
0.0
  0
LINE
  5
308
330
1F
100
AcDbEntity
  8
0
  6
Continuous
 62
     7
370
    15
100
AcDbLine
 10
61.2585719658
 20
74.0328273003
 30
0.0
 11
60.9730601294
 21
77.9324947124
 31
0.0
  0
SPLINE
  5
309
330
1F
100
AcDbEntity
  8
0
  6
Continuous
 62
     7
370
    15
100
AcDbSpline
210
0.0
220
0.0
230
1.0
 70
     8
 71
     3
 72
    49
 73
    45
 74
     0
 42
0.00000001
 43
0.00000001
 12
1.0
 22
0.0
 32
0.0
 13
1.0
 23
0.0
 33
0.0
 40
0.0
 40
0.0
 40
0.0
 40
0.0
 40
0.0624999999999988
 40
0.0624999999999988
 40
0.1249999999999976
 40
0.1249999999999976
 40
0.1562499999999971
 40
0.1562499999999971
 40
0.1874999999999966
 40
0.1874999999999966
 40
0.2499999999999959
 40
0.2499999999999959
 40
0.3124999999999951
 40
0.3124999999999951
 40
0.3749999999999943
 40
0.3749999999999943
 40
0.4062499999999942
 40
0.4062499999999942
 40
0.4374999999999939
 40
0.4687499999999937
 40
0.4687499999999937
 40
0.4999999999999934
 40
0.4999999999999934
 40
0.5624999999999936
 40
0.5624999999999936
 40
0.5937499999999937
 40
0.5937499999999937
 40
0.6249999999999937
 40
0.6249999999999937
 40
0.6874999999999944
 40
0.6874999999999944
 40
0.7187499999999949
 40
0.7187499999999949
 40
0.7499999999999952
 40
0.7499999999999952
 40
0.8124999999999961
 40
0.8124999999999961
 40
0.8749999999999969
 40
0.8749999999999969
 40
0.9062499999999974
 40
0.9062499999999974
 40
0.9374999999999981
 40
0.9374999999999981
 40
1.0
 40
1.0
 40
1.0
 40
1.0
 10
60.97306023978776
 20
77.93249344473058
 30
0.0
 10
60.94441269848267
 20
78.32345301471769
 30
0.0
 10
60.91622557388331
 20
78.67540964924602
 30
0.0
 10
60.86071156425833
 20
79.29831900277055
 30
0.0
 10
60.8341812405553
 20
79.56014845401022
 30
0.0
 10
60.79632621568233
 20
79.8784631189727
 30
0.0
 10
60.78401694622862
 20
79.9722571836308
 30
0.0
 10
60.7600071258006
 20
80.13470711670756
 30
0.0
 10
60.74825996222394
 20
80.20350031693683
 30
0.0
 10
60.71463438763552
 20
80.36740890941604
 30
0.0
 10
60.69414722912728
 20
80.42223598182058
 30
0.0
 10
60.65679690717844
 20
80.42435513085377
 30
0.0
 10
60.63986073339313
 20
80.36985116326511
 30
0.0
 10
60.61094574178863
 20
80.15523379830069
 30
0.0
 10
60.5987593185921
 20
79.99590088133864
 30
0.0
 10
60.5838520283405
 20
79.67726347654802
 30
0.0
 10
60.57945229799006
 20
79.55734244272084
 30
0.0
 10
60.57197383487649
 20
79.29590355472851
 30
0.0
 10
60.56575523193612
 20
79.01179109467827
 30
0.0
 10
60.56199582766271
 20
78.68309104487115
 30
0.0
 10
60.55947519966008
 20
78.33182790804378
 30
0.0
 10
60.55883497490037
 20
78.14396978494145
 30
0.0
 10
60.55884272387216
 20
77.55199559265291
 30
0.0
 10
60.56137160845527
 20
77.124476714999
 30
0.0
 10
60.56886062730135
 20
76.43535830252839
 30
0.0
 10
60.57197781996321
 20
76.19762077597437
 30
0.0
 10
60.57949946321503
 20
75.70561668513832
 30
0.0
 10
60.5838956020389
 20
75.45229797409556
 30
0.0
 10
60.59874306237553
 20
74.68403158219611
 30
0.0
 10
60.61090825133944
 20
74.15591820476958
 30
0.0
 10
60.63266983405475
 20
73.33977422580097
 30
0.0
 10
60.64056328492999
 20
73.06212667319708
 30
0.0
 10
60.65730513738882
 20
72.50813225546084
 30
0.0
 10
60.66614956382382
 20
72.23167305616013
 30
0.0
 10
60.69410091875436
 20
71.40387010190055
 30
0.0
 10
60.71461101229367
 20
70.85408559568526
 30
0.0
 10
60.75971510339663
 20
69.7588457925971
 30
0.0
 10
60.78368097980727
 20
69.22894426617714
 30
0.0
 10
60.82153625818604
 20
68.46559587643247
 30
0.0
 10
60.8344886813548
 20
68.21608943044453
 30
0.0
 10
60.86109549334852
 20
67.7271645114896
 30
0.0
 10
60.87481271484204
 20
67.48678654019139
 30
0.0
 10
60.91621097038609
 20
66.79581581293014
 30
0.0
 10
60.94434721933676
 20
66.37086545716154
 30
0.0
 10
60.97306023978776
 20
65.98114036650271
 30
0.0
  0
LINE
  5
30A
330
1F
100
AcDbEntity
  8
0
  6
Continuous
 62
     7
370
    15
100
AcDbLine
 10
60.9730601294
 20
65.9811413114
 30
0.0
 11
61.2585719658
 21
62.1026335483
 31
0.0
  0
SPLINE
  5
30B
330
1F
100
AcDbEntity
  8
0
  6
Continuous
 62
     7
370
    15
100
AcDbSpline
210
0.0
220
0.0
230
1.0
 70
     8
 71
     3
 72
    49
 73
    45
 74
     0
 42
0.00000001
 43
0.00000001
 12
1.0
 22
0.0
 32
0.0
 13
1.0
 23
0.0
 33
0.0
 40
0.0
 40
0.0
 40
0.0
 40
0.0
 40
0.0624999999999997
 40
0.0624999999999997
 40
0.1249999999999994
 40
0.1249999999999994
 40
0.1562499999999992
 40
0.1562499999999992
 40
0.1874999999999991
 40
0.1874999999999991
 40
0.2499999999999996
 40
0.2499999999999996
 40
0.3125
 40
0.3125
 40
0.3750000000000005
 40
0.3750000000000005
 40
0.4062500000000009
 40
0.4062500000000009
 40
0.4375000000000013
 40
0.4687500000000017
 40
0.4687500000000017
 40
0.5000000000000021
 40
0.5000000000000021
 40
0.5625000000000018
 40
0.5625000000000018
 40
0.5937500000000014
 40
0.5937500000000014
 40
0.625000000000001
 40
0.625000000000001
 40
0.6875
 40
0.6875
 40
0.7187499999999999
 40
0.7187499999999999
 40
0.7499999999999999
 40
0.7499999999999999
 40
0.8125000000000006
 40
0.8125000000000006
 40
0.8750000000000012
 40
0.8750000000000012
 40
0.9062500000000012
 40
0.9062500000000012
 40
0.9375000000000012
 40
0.9375000000000012
 40
1.0
 40
1.0
 40
1.0
 40
1.0
 10
61.258571575022
 20
-18.50753953588807
 30
0.0
 10
61.28702636429145
 20
-18.11853581671705
 30
0.0
 10
61.31578274027395
 20
-17.69341367608488
 30
0.0
 10
61.37394524732606
 20
-16.76814881349523
 30
0.0
 10
61.40250878166653
 20
-16.28127560136735
 30
0.0
 10
61.4442783143426
 20
-15.52062209619187
 30
0.0
 10
61.45803590204505
 20
-15.26172621574458
 30
0.0
 10
61.48519366780021
 20
-14.73302216948383
 30
0.0
 10
61.49864981531665
 20
-14.46197257226744
 30
0.0
 10
61.53761072667557
 20
-13.64886028607465
 30
0.0
 10
61.5619501324022
 20
-13.10273699960724
 30
0.0
 10
61.6071420846127
 20
-12.00248706216951
 30
0.0
 10
61.62810171669656
 20
-11.44414413715669
 30
0.0
 10
61.66440057660272
 20
-10.36556471078545
 30
0.0
 10
61.67998236917622
 20
-9.840143074344256
 30
0.0
 10
61.69920950300641
 20
-9.073206699478407
 30
0.0
 10
61.70492465110536
 20
-8.820655627524875
 30
0.0
 10
61.71467309159047
 20
-8.333774312265174
 30
0.0
 10
61.722817235851
 20
-7.862280544987062
 30
0.0
 10
61.72776456162633
 20
-7.42101952031024
 30
0.0
 10
61.73108160709126
 20
-6.995042129162514
 30
0.0
 10
61.73192444172692
 20
-6.788900682694936
 30
0.0
 10
61.73190431319357
 20
-6.199836921932731
 30
0.0
 10
61.72854248291569
 20
-5.851505486399066
 30
0.0
 10
61.71869555309495
 20
-5.39343288139349
 30
0.0
 10
61.71460778791044
 20
-5.251557557020628
 30
0.0
 10
61.70480027090679
 20
-4.990030921727132
 30
0.0
 10
61.69908030331736
 20
-4.87081111864552
 30
0.0
 10
61.67989462840202
 20
-4.554311877957247
 30
0.0
 10
61.66432065002546
 20
-4.394835915460665
 30
0.0
 10
61.63700351912539
 20
-4.232879158350523
 30
0.0
 10
61.62717514802088
 20
-4.191746088761175
 30
0.0
 10
61.60649574877124
 20
-4.137250342126434
 30
0.0
 10
61.59566908033281
 20
-4.123744071698965
 30
0.0
 10
61.56182326498727
 20
-4.123343744976089
 30
0.0
 10
61.53745235732497
 20
-4.176182484720139
 30
0.0
 10
61.48524481319574
 20
-4.391559067526911
 30
0.0
 10
61.45802343222297
 20
-4.551998374230918
 30
0.0
 10
61.41625311987727
 20
-4.865778313277024
 30
0.0
 10
61.40214198754687
 20
-4.982766578422317
 30
0.0
 10
61.37355038107674
 20
-5.241981604750978
 30
0.0
 10
61.35898824372131
 20
-5.385135372639787
 30
0.0
 10
61.31560830179841
 20
-5.844601988552397
 30
0.0
 10
61.28696232341854
 20
-6.191323339038552
 30
0.0
 10
61.258571575022
 20
-6.577347356463689
 30
0.0
  0
LINE
  5
30C
330
1F
100
AcDbEntity
  8
0
  6
Continuous
 62
     7
370
    15
100
AcDbLine
 10
61.2585719658
 20
-6.5773473854
 30
0.0
 11
60.9730601294
 21
-10.4558551485
 31
0.0
  0
SPLINE
  5
30D
330
1F
100
AcDbEntity
  8
0
  6
Continuous
 62
     7
370
    15
100
AcDbSpline
210
0.0
220
0.0
230
1.0
 70
     8
 71
     3
 72
    49
 73
    45
 74
     0
 42
0.00000001
 43
0.00000001
 12
1.0
 22
0.0
 32
0.0
 13
1.0
 23
0.0
 33
0.0
 40
0.0
 40
0.0
 40
0.0
 40
0.0
 40
0.0625000000000001
 40
0.0625000000000001
 40
0.1250000000000002
 40
0.1250000000000002
 40
0.1562500000000003
 40
0.1562500000000003
 40
0.1875000000000003
 40
0.1875000000000003
 40
0.2500000000000003
 40
0.2500000000000003
 40
0.3125000000000002
 40
0.3125000000000002
 40
0.3750000000000002
 40
0.3750000000000002
 40
0.4062500000000003
 40
0.4062500000000003
 40
0.4375000000000004
 40
0.4687500000000005
 40
0.4687500000000005
 40
0.5000000000000006
 40
0.5000000000000006
 40
0.5625000000000003
 40
0.5625000000000003
 40
0.5937500000000001
 40
0.5937500000000001
 40
0.625
 40
0.625
 40
0.6875000000000001
 40
0.6875000000000001
 40
0.7187500000000002
 40
0.7187500000000002
 40
0.7500000000000004
 40
0.7500000000000004
 40
0.8125000000000007
 40
0.8125000000000007
 40
0.8750000000000009
 40
0.8750000000000009
 40
0.9062500000000008
 40
0.9062500000000008
 40
0.9375000000000008
 40
0.9375000000000008
 40
1.0
 40
1.0
 40
1.0
 40
1.0
 10
60.97306023978776
 20
-10.45585420358814
 30
0.0
 10
60.94441269848268
 20
-10.84469053835582
 30
0.0
 10
60.91622557388331
 20
-11.27012915651906
 30
0.0
 10
60.86071156425833
 20
-12.19701766991057
 30
0.0
 10
60.8341812405553
 20
-12.68535781786333
 30
0.0
 10
60.79632621568233
 20
-13.44865151405954
 30
0.0
 10
60.78401694622862
 20
-13.70852859048466
 30
0.0
 10
60.76000712580061
 20
-14.23940180084825
 30
0.0
 10
60.74825996222394
 20
-14.51163369483267
 30
0.0
 10
60.71463438763552
 20
-15.32840375590874
 30
0.0
 10
60.69414722912729
 20
-15.87722366699417
 30
0.0
 10
60.65679690717845
 20
-16.98336246358403
 30
0.0
 10
60.63986073339313
 20
-17.54475902907424
 30
0.0
 10
60.61094574178863
 20
-18.62926838595341
 30
0.0
 10
60.59875931859211
 20
-19.15774065348131
 30
0.0
 10
60.58385202834049
 20
-19.92934858132246
 30
0.0
 10
60.57945229799005
 20
-20.18326308020495
 30
0.0
 10
60.57197383487649
 20
-20.6727489350849
 30
0.0
 10
60.56575523193611
 20
-21.14682502449607
 30
0.0
 10
60.56199582766271
 20
-21.59059761125748
 30
0.0
 10
60.55947519966008
 20
-22.01903536557697
 30
0.0
 10
60.55883497490037
 20
-22.22651026845438
 30
0.0
 10
60.55884272387216
 20
-22.81824708762017
 30
0.0
 10
60.56137160845527
 20
-23.16822278544937
 30
0.0
 10
60.56886062730135
 20
-23.62839555332402
 30
0.0
 10
60.57197781996321
 20
-23.77090940359075
 30
0.0
 10
60.57949946321504
 20
-24.03355138462395
 30
0.0
 10
60.5838956020389
 20
-24.15298909920778
 30
0.0
 10
60.59874306237553
 20
-24.47010584066243
 30
0.0
 10
60.61090825133943
 20
-24.62971033803001
 30
0.0
 10
60.63266983405473
 20
-24.79117107257897
 30
0.0
 10
60.64056328492999
 20
-24.83200569070342
 30
0.0
 10
60.65730513738882
 20
-24.88557598423285
 30
0.0
 10
60.66614956382384
 20
-24.8985331259701
 30
0.0
 10
60.69410091875435
 20
-24.89696284058147
 30
0.0
 10
60.71461101229367
 20
-24.84238811684853
 30
0.0
 10
60.75971510339663
 20
-24.62222364180599
 30
0.0
 10
60.78368097980727
 20
-24.45948047952722
 30
0.0
 10
60.82153625818604
 20
-24.14120493017877
 30
0.0
 10
60.8344886813548
 20
-24.0225912811302
 30
0.0
 10
60.86109549334851
 20
-23.75981134386964
 30
0.0
 10
60.87481271484204
 20
-23.61486870728361
 30
0.0
 10
60.91621097038609
 20
-23.15016340910115
 30
0.0
 10
60.94434721933676
 20
-22.7990604607328
 30
0.0
 10
60.97306023978776
 20
-22.40720728181576
 30
0.0
  0
LINE
  5
30E
330
1F
100
AcDbEntity
  8
0
  6
Continuous
 62
     7
370
    15
100
AcDbLine
 10
60.9730601294
 20
-22.4072085495
 30
0.0
 11
61.2585719658
 21
-18.5075411374
 31
0.0
  0
LINE
  5
30F
330
1F
100
AcDbEntity
  8
0
  6
Continuous
 62
     7
370
    15
100
AcDbLine
 10
47.9547118751
 20
22.0962125075
 30
0.0
 11
47.9547118751
 21
22.9722741259
 31
0.0
  0
LINE
  5
310
330
1F
100
AcDbEntity
  8
0
  6
Continuous
 62
     7
370
    15
100
AcDbLine
 10
47.9547118751
 20
32.553012037
 30
0.0
 11
47.9547118751
 21
33.4290736554
 31
0.0
  0
LINE
  5
311
330
1F
100
AcDbEntity
  8
0
  6
Continuous
 62
     7
370
    15
100
AcDbLine
 10
168.0475350452
 20
43.6317129259
 30
0.0
 11
163.0475398136
 21
43.7626438414
 31
0.0
  0
LINE
  5
312
330
1F
100
AcDbEntity
  8
0
  6
Continuous
 62
     7
370
    15
100
AcDbLine
 10
168.0475350452
 20
11.893573237
 30
0.0
 11
168.0475350452
 21
43.6317129259
 31
0.0
  0
LINE
  5
313
330
1F
100
AcDbEntity
  8
0
  6
Continuous
 62
     7
370
    15
100
AcDbLine
 10
168.0475350452
 20
11.893573237
 30
0.0
 11
163.0475398136
 21
11.7626423215
 31
0.0
  0
LINE
  5
314
330
1F
100
AcDbEntity
  8
0
  6
Continuous
 62
     7
370
    15
100
AcDbLine
 10
163.0475398136
 20
11.7626423215
 30
0.0
 11
163.0475398136
 21
43.7626438414
 31
0.0
  0
LINE
  5
315
330
1F
100
AcDbEntity
  8
0
  6
Continuous
 62
     7
370
    15
100
AcDbLine
 10
53.3287402225
 20
23.25391492
 30
0.0
 11
53.3287402225
 21
32.2713712429
 31
0.0
  0
LINE
  5
316
330
1F
100
AcDbEntity
  8
0
  6
Continuous
 62
     7
370
    15
100
AcDbLine
 10
54.4575404359
 20
23.3130729956
 30
0.0
 11
54.4575404359
 21
32.2122131673
 31
0.0
  0
LINE
  5
317
330
1F
100
AcDbEntity
  8
0
  6
Continuous
 62
     7
370
    15
100
AcDbLine
 10
170.5475475622
 20
15.7626429771
 30
0.0
 11
170.5475475622
 21
39.7626431858
 31
0.0
  0
LINE
  5
318
330
1F
100
AcDbEntity
  8
0
  6
Continuous
 62
     7
370
    15
100
AcDbLine
 10
138.954709096
 20
42.4999911537
 30
0.0
 11
163.0475398136
 21
43.7626438414
 31
0.0
  0
LINE
  5
319
330
1F
100
AcDbEntity
  8
0
  6
Continuous
 62
     7
370
    15
100
AcDbLine
 10
138.954709096
 20
37.5470118796
 30
0.0
 11
138.954709096
 21
42.4999911537
 31
0.0
  0
LINE
  5
31A
330
1F
100
AcDbEntity
  8
0
  6
Continuous
 62
     7
370
    15
100
AcDbLine
 10
138.954709096
 20
37.5470118796
 30
0.0
 11
163.0475398136
 21
35.8622772818
 31
0.0
  0
LINE
  5
31B
330
1F
100
AcDbEntity
  8
0
  6
Continuous
 62
     7
370
    15
100
AcDbLine
 10
163.0475398136
 20
11.7626423215
 30
0.0
 11
138.954709096
 21
13.0252950092
 31
0.0
  0
LINE
  5
31C
330
1F
100
AcDbEntity
  8
0
  6
Continuous
 62
     7
370
    15
100
AcDbLine
 10
138.954709096
 20
13.0252950092
 30
0.0
 11
138.954709096
 21
17.9782742833
 31
0.0
  0
LINE
  5
31D
330
1F
100
AcDbEntity
  8
0
  6
Continuous
 62
     7
370
    15
100
AcDbLine
 10
163.0475398136
 20
19.6630088811
 30
0.0
 11
138.954709096
 21
17.9782742833
 31
0.0
  0
LINE
  5
31E
330
1F
100
AcDbEntity
  8
0
  6
Continuous
 62
     7
370
    15
100
AcDbLine
 10
180.5475380255
 20
38.7322977384
 30
0.0
 11
170.5475475622
 21
38.7322977384
 31
0.0
  0
LINE
  5
31F
330
1F
100
AcDbEntity
  8
0
  6
Continuous
 62
     7
370
    15
100
AcDbLine
 10
180.5475380255
 20
33.2474704099
 30
0.0
 11
170.5475475622
 21
33.2474704099
 31
0.0
  0
LINE
  5
320
330
1F
100
AcDbEntity
  8
0
  6
Continuous
 62
     7
370
    15
100
AcDbLine
 10
180.5475380255
 20
38.7322977384
 30
0.0
 11
180.5475380255
 21
33.2474704099
 31
0.0
  0
LINE
  5
321
330
1F
100
AcDbEntity
  8
0
  6
Continuous
 62
     7
370
    15
100
AcDbLine
 10
180.5475380255
 20
22.277815753
 30
0.0
 11
170.5475475622
 21
22.277815753
 31
0.0
  0
LINE
  5
322
330
1F
100
AcDbEntity
  8
0
  6
Continuous
 62
     7
370
    15
100
AcDbLine
 10
180.5475380255
 20
33.2474704099
 30
0.0
 11
180.5475380255
 21
22.277815753
 31
0.0
  0
LINE
  5
323
330
1F
100
AcDbEntity
  8
0
  6
Continuous
 62
     7
370
    15
100
AcDbLine
 10
180.5475380255
 20
16.7929884245
 30
0.0
 11
170.5475475622
 21
16.7929884245
 31
0.0
  0
LINE
  5
324
330
1F
100
AcDbEntity
  8
0
  6
Continuous
 62
     7
370
    15
100
AcDbLine
 10
180.5475380255
 20
22.277815753
 30
0.0
 11
180.5475380255
 21
16.7929884245
 31
0.0
  0
LINE
  5
325
330
1F
100
AcDbEntity
  8
0
  6
Continuous
 62
     7
370
    15
100
AcDbLine
 10
187.9575427605
 20
19.7626427015
 30
0.0
 11
187.9575427605
 21
35.7626434614
 31
0.0
  0
LINE
  5
326
330
1F
100
AcDbEntity
  8
0
  6
Continuous
 62
     7
370
    15
100
AcDbLine
 10
187.4575342966
 20
19.7626427015
 30
0.0
 11
187.4575342966
 21
35.7626434614
 31
0.0
  0
LINE
  5
327
330
1F
100
AcDbEntity
  8
0
  6
Continuous
 62
     7
370
    15
100
AcDbLine
 10
63.2575403882
 20
21.1376431597
 30
0.0
 11
60.6390655024
 21
21.1376431597
 31
0.0
  0
LINE
  5
328
330
1F
100
AcDbEntity
  8
0
  6
Continuous
 62
     7
370
    15
100
AcDbLine
 10
63.2575403882
 20
34.3876430032
 30
0.0
 11
60.6390655024
 21
34.3876430032
 31
0.0
  0
LINE
  5
329
330
1F
100
AcDbEntity
  8
0
  6
Continuous
 62
     7
370
    15
100
AcDbLine
 10
63.2575403882
 20
34.3876430032
 30
0.0
 11
63.2575403882
 21
21.1376431597
 31
0.0
  0
LINE
  5
32A
330
1F
100
AcDbEntity
  8
0
  6
Continuous
 62
     7
370
    15
100
AcDbLine
 10
199.4575437141
 20
21.2626429473
 30
0.0
 11
199.4575437141
 21
34.2626432156
 31
0.0
  0
LINE
  5
32B
330
1F
100
AcDbEntity
  8
0
  6
Continuous
 62
     7
370
    15
100
AcDbLine
 10
47.9547118751
 20
55.7341324364
 30
0.0
 11
43.9547116851
 21
55.7341324364
 31
0.0
  0
LINE
  5
32C
330
1F
100
AcDbEntity
  8
0
  6
Continuous
 62
     7
370
    15
100
AcDbLine
 10
43.9547116851
 20
91.9568157022
 30
0.0
 11
43.9547116851
 21
55.7341324364
 31
0.0
  0
LINE
  5
32D
330
1F
100
AcDbEntity
  8
0
  6
Continuous
 62
     7
370
    15
100
AcDbLine
 10
47.9547118751
 20
-0.2088462735
 30
0.0
 11
43.9547116851
 21
-0.2088462735
 31
0.0
  0
LINE
  5
32E
330
1F
100
AcDbEntity
  8
0
  6
Continuous
 62
     7
370
    15
100
AcDbLine
 10
43.9547116851
 20
-0.2088462735
 30
0.0
 11
43.9547116851
 21
-36.4315295393
 31
0.0
  0
LINE
  5
32F
330
1F
100
AcDbEntity
  8
0
  6
Continuous
 62
     7
370
    15
100
AcDbLine
 10
43.9547116851
 20
55.7341324364
 30
0.0
 11
47.9547118751
 21
55.5072380429
 31
0.0
  0
LINE
  5
330
330
1F
100
AcDbEntity
  8
0
  6
Continuous
 62
     7
370
    15
100
AcDbLine
 10
43.9547116851
 20
55.7341324364
 30
0.0
 11
43.9547116851
 21
55.1761621808
 31
0.0
  0
LINE
  5
331
330
1F
100
AcDbEntity
  8
0
  6
Continuous
 62
     7
370
    15
100
AcDbLine
 10
43.9547116851
 20
-0.2088462735
 30
0.0
 11
47.9547118751
 21
0.0180481201
 31
0.0
  0
LINE
  5
332
330
1F
100
AcDbEntity
  8
0
  6
Continuous
 62
     7
370
    15
100
AcDbLine
 10
43.9547116851
 20
0.3491239821
 30
0.0
 11
43.9547116851
 21
-0.2088462735
 31
0.0
  0
LINE
  5
333
330
1F
100
AcDbEntity
  8
0
  6
Continuous
 62
     7
370
    15
100
AcDbLine
 10
43.9547116851
 20
55.1761621808
 30
0.0
 11
43.9547116851
 21
41.8555569102
 31
0.0
  0
LINE
  5
334
330
1F
100
AcDbEntity
  8
0
  6
Continuous
 62
     7
370
    15
100
AcDbLine
 10
43.9547116851
 20
13.6697292527
 30
0.0
 11
43.9547116851
 21
0.3491239821
 31
0.0
  0
LINE
  5
335
330
1F
100
AcDbEntity
  8
0
  6
Continuous
 62
     7
370
    15
100
AcDbLine
 10
138.954709096
 20
37.5470118796
 30
0.0
 11
138.954709096
 21
33.7626431336
 31
0.0
  0
LINE
  5
336
330
1F
100
AcDbEntity
  8
0
  6
Continuous
 62
     7
370
    15
100
AcDbLine
 10
138.954709096
 20
21.7626430293
 30
0.0
 11
138.954709096
 21
17.9782742833
 31
0.0
  0
LINE
  5
337
330
1F
100
AcDbEntity
  8
0
  6
Continuous
 62
     7
370
    15
100
AcDbLine
 10
43.9547116851
 20
39.8735925754
 30
0.0
 11
47.9547118751
 21
40.0397265529
 31
0.0
  0
LINE
  5
338
330
1F
100
AcDbEntity
  8
0
  6
Continuous
 62
     7
370
    15
100
AcDbLine
 10
43.9547116851
 20
39.8735925754
 30
0.0
 11
43.9547116851
 21
41.8555569102
 31
0.0
  0
SPLINE
  5
339
330
1F
100
AcDbEntity
  8
0
  6
Continuous
 62
     7
370
    15
100
AcDbSpline
210
0.0
220
0.0
230
1.0
 70
     8
 71
     3
 72
     8
 73
     4
 74
     0
 42
0.00000001
 43
0.00000001
 12
1.0
 22
0.0
 32
0.0
 13
1.0
 23
0.0
 33
0.0
 40
0.0
 40
0.0
 40
0.0
 40
0.0
 40
1.0
 40
1.0
 40
1.0
 40
1.0
 10
43.95471165904704
 20
15.65169349028151
 30
0.0
 10
42.88969766167607
 20
16.52454604861825
 30
0.0
 10
41.87963674142429
 20
17.51149999229651
 30
0.0
 10
40.95471165904703
 20
18.65425771411584
 30
0.0
  0
LINE
  5
33A
330
1F
100
AcDbEntity
  8
0
  6
Continuous
 62
     7
370
    15
100
AcDbLine
 10
40.954711659
 20
36.8710281526
 30
0.0
 11
40.954711659
 21
18.6542580103
 31
0.0
  0
SPLINE
  5
33B
330
1F
100
AcDbEntity
  8
0
  6
Continuous
 62
     7
370
    15
100
AcDbSpline
210
0.0
220
0.0
230
1.0
 70
     8
 71
     3
 72
     8
 73
     4
 74
     0
 42
0.00000001
 43
0.00000001
 12
1.0
 22
0.0
 32
0.0
 13
1.0
 23
0.0
 33
0.0
 40
0.0
 40
0.0
 40
0.0
 40
0.0
 40
1.0
 40
1.0
 40
1.0
 40
1.0
 10
40.95471165904703
 20
36.87102844879878
 30
0.0
 10
41.87963674142429
 20
38.0137861706181
 30
0.0
 10
42.88969766167607
 20
39.00074011429634
 30
0.0
 10
43.95471165904704
 20
39.87359267263306
 30
0.0
  0
LINE
  5
33C
330
1F
100
AcDbEntity
  8
0
  6
Continuous
 62
     7
370
    15
100
AcDbLine
 10
47.9547118751
 20
15.48555961
 30
0.0
 11
43.9547116851
 21
15.6516935875
 31
0.0
  0
LINE
  5
33D
330
1F
100
AcDbEntity
  8
0
  6
Continuous
 62
     7
370
    15
100
AcDbLine
 10
43.9547116851
 20
13.6697292527
 30
0.0
 11
43.9547116851
 21
15.6516935875
 31
0.0
  0
LINE
  5
33E
330
1F
100
AcDbEntity
  8
0
  6
Continuous
 62
     7
370
    15
100
AcDbLine
 10
161.7326389981
 20
78.559773994
 30
0.0
 11
161.7326389981
 21
43.6937315588
 31
0.0
  0
SPLINE
  5
33F
330
1F
100
AcDbEntity
  8
0
  6
Continuous
 62
     7
370
    15
100
AcDbSpline
210
0.0
220
0.0
230
1.0
 70
     8
 71
     3
 72
     8
 73
     4
 74
     0
 42
0.00000001
 43
0.00000001
 12
1.0
 22
0.0
 32
0.0
 13
1.0
 23
0.0
 33
0.0
 40
0.0000002004270563
 40
0.0000002004270563
 40
0.0000002004270563
 40
0.0000002004270563
 40
0.0204523072432843
 40
0.0204523072432843
 40
0.0204523072432843
 40
0.0204523072432843
 10
141.3238717684398
 20
77.76810359503513
 30
0.0
 10
148.1267144055354
 20
78.03408001164667
 30
0.0
 10
154.9296399318724
 20
78.29793824115538
 30
0.0
 10
161.7326426968719
 20
78.55977558530677
 30
0.0
  0
SPLINE
  5
340
330
1F
100
AcDbEntity
  8
0
  6
Continuous
 62
     7
370
    15
100
AcDbSpline
210
0.0
220
0.0
230
1.0
 70
     8
 71
     3
 72
     8
 73
     4
 74
     0
 42
0.00000001
 43
0.00000001
 12
1.0
 22
0.0
 32
0.0
 13
1.0
 23
0.0
 33
0.0
 40
0.0000006128214009
 40
0.0000006128214009
 40
0.0000006128214009
 40
0.0000006128214009
 40
0.0040442188655085
 40
0.0040442188655085
 40
0.0040442188655085
 40
0.0040442188655085
 10
161.7326426968719
 20
78.55977558530677
 30
0.0
 10
162.1725316888483
 20
77.28591680654002
 30
0.0
 10
162.6109482241985
 20
76.01154671699292
 30
0.0
 10
163.0475405060778
 20
74.73655117615804
 30
0.0
  0
SPLINE
  5
341
330
1F
100
AcDbEntity
  8
0
  6
Continuous
 62
     7
370
    15
100
AcDbSpline
210
0.0
220
0.0
230
1.0
 70
     8
 71
     3
 72
     8
 73
     4
 74
     0
 42
0.00000001
 43
0.00000001
 12
1.0
 22
0.0
 32
0.0
 13
1.0
 23
0.0
 33
0.0
 40
0.0
 40
0.0
 40
0.0
 40
0.0
 40
1.0
 40
1.0
 40
1.0
 40
1.0
 10
167.278354954123
 20
62.28123133298919
 30
0.0
 10
165.8969290965239
 20
66.44280959189511
 30
0.0
 10
164.4797889203091
 20
70.59224812070542
 30
0.0
 10
163.0475405060778
 20
74.73655117615804
 30
0.0
  0
LINE
  5
342
330
1F
100
AcDbEntity
  8
0
  6
Continuous
 62
     7
370
    15
100
AcDbLine
 10
167.2783520056
 20
62.2812314158
 30
0.0
 11
167.2783520056
 21
43.6518555706
 31
0.0
  0
LINE
  5
343
330
1F
100
AcDbEntity
  8
0
  6
Continuous
 62
     7
370
    15
100
AcDbLine
 10
161.7326389981
 20
11.8315546041
 30
0.0
 11
161.7326389981
 21
-23.0344878311
 31
0.0
  0
SPLINE
  5
344
330
1F
100
AcDbEntity
  8
0
  6
Continuous
 62
     7
370
    15
100
AcDbSpline
210
0.0
220
0.0
230
1.0
 70
     8
 71
     3
 72
     8
 73
     4
 74
     0
 42
0.00000001
 43
0.00000001
 12
1.0
 22
0.0
 32
0.0
 13
1.0
 23
0.0
 33
0.0
 40
0.0000002004223389
 40
0.0000002004223389
 40
0.0000002004223389
 40
0.0000002004223389
 40
0.0204523072385669
 40
0.0204523072385669
 40
0.0204523072385669
 40
0.0204523072385669
 10
161.7326426968719
 20
-23.03448942239134
 30
0.0
 10
154.9296399318724
 20
-22.77265207823997
 30
0.0
 10
148.1267144055354
 20
-22.50879384873124
 30
0.0
 10
141.3238717684398
 20
-22.24281743211969
 30
0.0
  0
LINE
  5
345
330
1F
100
AcDbEntity
  8
0
  6
Continuous
 62
     7
370
    15
100
AcDbLine
 10
167.2783520056
 20
11.8734305923
 30
0.0
 11
167.2783520056
 21
-6.7559452529
 31
0.0
  0
SPLINE
  5
346
330
1F
100
AcDbEntity
  8
0
  6
Continuous
 62
     7
370
    15
100
AcDbSpline
210
0.0
220
0.0
230
1.0
 70
     8
 71
     3
 72
     8
 73
     4
 74
     0
 42
0.00000001
 43
0.00000001
 12
1.0
 22
0.0
 32
0.0
 13
1.0
 23
0.0
 33
0.0
 40
0.0
 40
0.0
 40
0.0
 40
0.0
 40
1.0
 40
1.0
 40
1.0
 40
1.0
 10
163.0475405060778
 20
-19.21126501324263
 30
0.0
 10
164.4797889203091
 20
-15.06696195779
 30
0.0
 10
165.8969290965239
 20
-10.9175234289797
 30
0.0
 10
167.278354954123
 20
-6.755945170073788
 30
0.0
  0
SPLINE
  5
347
330
1F
100
AcDbEntity
  8
0
  6
Continuous
 62
     7
370
    15
100
AcDbSpline
210
0.0
220
0.0
230
1.0
 70
     8
 71
     3
 72
     8
 73
     4
 74
     0
 42
0.00000001
 43
0.00000001
 12
1.0
 22
0.0
 32
0.0
 13
1.0
 23
0.0
 33
0.0
 40
0.0000006174494552
 40
0.0000006174494552
 40
0.0000006174494552
 40
0.0000006174494552
 40
0.0040442234935628
 40
0.0040442234935628
 40
0.0040442234935628
 40
0.0040442234935628
 10
163.0475405060778
 20
-19.21126501324263
 30
0.0
 10
162.6109482241985
 20
-20.48626055407751
 30
0.0
 10
162.1725316888483
 20
-21.7606306436246
 30
0.0
 10
161.7326426968718
 20
-23.03448942239135
 30
0.0
  0
LINE
  5
348
330
1F
100
AcDbEntity
  8
0
  6
Continuous
 62
     7
370
    15
100
AcDbLine
 10
40.954711659
 20
36.8710281526
 30
0.0
 11
40.954711659
 21
58.8930016582
 31
0.0
  0
SPLINE
  5
349
330
1F
100
AcDbEntity
  8
0
  6
Continuous
 62
     7
370
    15
100
AcDbSpline
210
0.0
220
0.0
230
1.0
 70
     8
 71
     3
 72
    10
 73
     6
 74
     0
 42
0.00000001
 43
0.00000001
 12
1.0
 22
0.0
 32
0.0
 13
1.0
 23
0.0
 33
0.0
 40
0.0
 40
0.0
 40
0.0
 40
0.0
 40
0.5000000000000001
 40
0.5000000000000001
 40
1.0
 40
1.0
 40
1.0
 40
1.0
 10
40.95471165904703
 20
58.89300119117041
 30
0.0
 10
41.38678912420564
 20
58.73016155216454
 30
0.0
 10
41.86171087259218
 20
58.65878810146066
 30
0.0
 10
42.86784774434174
 20
58.64778116984561
 30
0.0
 10
43.39964464500083
 20
58.70923122251233
 30
0.0
 10
43.95471165904704
 20
58.82959096678686
 30
0.0
  0
SPLINE
  5
34A
330
1F
100
AcDbEntity
  8
0
  6
Continuous
 62
     7
370
    15
100
AcDbSpline
210
0.0
220
0.0
230
1.0
 70
     8
 71
     3
 72
    10
 73
     6
 74
     0
 42
0.00000001
 43
0.00000001
 12
1.0
 22
0.0
 32
0.0
 13
1.0
 23
0.0
 33
0.0
 40
0.0
 40
0.0
 40
0.0
 40
0.0
 40
0.5
 40
0.5
 40
1.0
 40
1.0
 40
1.0
 40
1.0
 10
43.95471165904705
 20
-3.304304803872098
 30
0.0
 10
43.39964464500085
 20
-3.183945059597553
 30
0.0
 10
42.86784774434175
 20
-3.122495006930823
 30
0.0
 10
41.86171087259218
 20
-3.133501938545832
 30
0.0
 10
41.38678912420564
 20
-3.204875389249705
 30
0.0
 10
40.95471165904703
 20
-3.367715028255561
 30
0.0
  0
LINE
  5
34B
330
1F
100
AcDbEntity
  8
0
  6
Continuous
 62
     7
370
    15
100
AcDbLine
 10
40.954711659
 20
-3.3677154953
 30
0.0
 11
40.954711659
 21
18.6542580103
 31
0.0
  0
SPLINE
  5
34C
330
1F
100
AcDbEntity
  8
0
  6
Continuous
 62
     7
370
    15
100
AcDbSpline
210
0.0
220
0.0
230
1.0
 70
     8
 71
     3
 72
    20
 73
    16
 74
     0
 42
0.00000001
 43
0.00000001
 12
1.0
 22
0.0
 32
0.0
 13
1.0
 23
0.0
 33
0.0
 40
0.0
 40
0.0
 40
0.0
 40
0.0
 40
0.125
 40
0.125
 40
0.25
 40
0.25
 40
0.375
 40
0.375
 40
0.5
 40
0.5
 40
0.75
 40
0.75
 40
0.875
 40
0.875
 40
1.0
 40
1.0
 40
1.0
 40
1.0
 10
141.3238717684398
 20
-22.24281743211969
 30
0.0
 10
141.1614831420783
 20
-22.2364683884563
 30
0.0
 10
141.0025320693591
 20
-22.21383700442235
 30
0.0
 10
140.691235555851
 20
-22.13728595444194
 30
0.0
 10
140.5372390351055
 20
-22.08246208073377
 30
0.0
 10
140.2461116886372
 20
-21.94430252159642
 30
0.0
 10
140.1088859062241
 20
-21.86145022294098
 30
0.0
 10
139.8508079820818
 20
-21.66869966356542
 30
0.0
 10
139.7300716156029
 20
-21.55830582488672
 30
0.0
 10
139.4075402639957
 20
-21.20065039163709
 30
0.0
 10
139.2375614569489
 20
-20.91789025669807
 30
0.0
 10
139.0686920283743
 20
-20.46704647248603
 30
0.0
 10
139.0257029769315
 20
-20.31017866987196
 30
0.0
 10
138.9687021516162
 20
-19.99177390884677
 30
0.0
 10
138.9547116590471
 20
-19.83186222385354
 30
0.0
 10
138.9547116590471
 20
-19.67126662612992
 30
0.0
  0
LINE
  5
34D
330
1F
100
AcDbEntity
  8
0
  6
Continuous
 62
     7
370
    15
100
AcDbLine
 10
138.954709096
 20
13.0252950092
 30
0.0
 11
138.954709096
 21
-19.6712659473
 31
0.0
  0
SPLINE
  5
34E
330
1F
100
AcDbEntity
  8
0
  6
Continuous
 62
     7
370
    15
100
AcDbSpline
210
0.0
220
0.0
230
1.0
 70
     8
 71
     3
 72
    20
 73
    16
 74
     0
 42
0.00000001
 43
0.00000001
 12
1.0
 22
0.0
 32
0.0
 13
1.0
 23
0.0
 33
0.0
 40
0.0
 40
0.0
 40
0.0
 40
0.0
 40
0.25
 40
0.25
 40
0.375
 40
0.375
 40
0.5
 40
0.5
 40
0.625
 40
0.625
 40
0.75
 40
0.75
 40
0.875
 40
0.875
 40
1.0
 40
1.0
 40
1.0
 40
1.0
 10
138.9547116590471
 20
75.19655278904087
 30
0.0
 10
138.9547116590466
 20
75.5172107893165
 30
0.0
 10
139.0124696298776
 20
75.84210670589748
 30
0.0
 10
139.1810485158778
 20
76.29236166195687
 30
0.0
 10
139.2517558199374
 20
76.43908376584184
 30
0.0
 10
139.4190674835625
 20
76.71577071987117
 30
0.0
 10
139.5145562610702
 20
76.84451156379116
 30
0.0
 10
139.7292352608138
 20
77.082759133314
 30
0.0
 10
139.8500394935908
 20
77.19332982005106
 30
0.0
 10
140.1080571763531
 20
77.386198972175
 30
0.0
 10
140.2451476348857
 20
77.4690284616131
 30
0.0
 10
140.5357032646795
 20
77.60712125157677
 30
0.0
 10
140.6900908643277
 20
77.66223601615583
 30
0.0
 10
141.0021497175501
 20
77.73908348613686
 30
0.0
 10
141.1613628159885
 20
77.76174984688217
 30
0.0
 10
141.3238717684398
 20
77.76810359503513
 30
0.0
  0
LINE
  5
34F
330
1F
100
AcDbEntity
  8
0
  6
Continuous
 62
     7
370
    15
100
AcDbLine
 10
138.954709096
 20
75.1965521102
 30
0.0
 11
138.954709096
 21
42.4999911537
 31
0.0
  0
SPLINE
  5
350
330
1F
100
AcDbEntity
  8
0
  6
Continuous
 62
     7
370
    15
100
AcDbSpline
210
0.0
220
0.0
230
1.0
 70
     8
 71
     3
 72
    10
 73
     6
 74
     0
 42
0.00000001
 43
0.00000001
 12
1.0
 22
0.0
 32
0.0
 13
1.0
 23
0.0
 33
0.0
 40
0.0
 40
0.0
 40
0.0
 40
0.0
 40
0.5
 40
0.5
 40
1.0
 40
1.0
 40
1.0
 40
1.0
 10
43.95471165904705
 20
69.4621005010719
 30
0.0
 10
43.39964464500085
 20
68.85959206613683
 30
0.0
 10
42.86784774434175
 20
68.23996178484701
 30
0.0
 10
41.86171087259218
 20
66.95823532750677
 30
0.0
 10
41.38678912420564
 20
66.2965736143715
 30
0.0
 10
40.95471165904703
 20
65.6031082472167
 30
0.0
  0
LINE
  5
351
330
1F
100
AcDbEntity
  8
0
  6
Continuous
 62
     7
370
    15
100
AcDbLine
 10
40.954711659
 20
65.6031100278
 30
0.0
 11
40.954711659
 21
58.8930016582
 31
0.0
  0
SPLINE
  5
352
330
1F
100
AcDbEntity
  8
0
  6
Continuous
 62
     7
370
    15
100
AcDbSpline
210
0.0
220
0.0
230
1.0
 70
     8
 71
     3
 72
    10
 73
     6
 74
     0
 42
0.00000001
 43
0.00000001
 12
1.0
 22
0.0
 32
0.0
 13
1.0
 23
0.0
 33
0.0
 40
0.0
 40
0.0
 40
0.0
 40
0.0
 40
0.5
 40
0.5
 40
1.0
 40
1.0
 40
1.0
 40
1.0
 10
40.95471165904703
 20
-10.07782208430172
 30
0.0
 10
41.38678912420564
 20
-10.77128745145649
 30
0.0
 10
41.86171087259218
 20
-11.4329491645918
 30
0.0
 10
42.86784774434174
 20
-12.71467562193201
 30
0.0
 10
43.39964464500083
 20
-13.33430590322184
 30
0.0
 10
43.95471165904704
 20
-13.93681433815692
 30
0.0
  0
LINE
  5
353
330
1F
100
AcDbEntity
  8
0
  6
Continuous
 62
     7
370
    15
100
AcDbLine
 10
40.954711659
 20
-3.3677154953
 30
0.0
 11
40.954711659
 21
-10.0778238649
 31
0.0
  0
LINE
  5
354
330
1F
100
AcDbEntity
  8
0
  6
Continuous
 62
     7
370
    15
100
AcDbLine
 10
136.6575013829
 20
21.7626430293
 30
0.0
 11
136.6575013829
 21
-16.2373566801
 31
0.0
  0
LINE
  5
355
330
1F
100
AcDbEntity
  8
0
  6
Continuous
 62
     7
370
    15
100
AcDbLine
 10
136.6575013829
 20
71.762642843
 30
0.0
 11
136.6575013829
 21
33.7626431336
 31
0.0
  0
SPLINE
  5
356
330
1F
100
AcDbEntity
  8
0
  6
Continuous
 62
     7
370
    15
100
AcDbSpline
210
0.0
220
0.0
230
1.0
 70
     8
 71
     3
 72
    19
 73
    15
 74
     0
 42
0.00000001
 43
0.00000001
 12
1.0
 22
0.0
 32
0.0
 13
1.0
 23
0.0
 33
0.0
 40
0.0
 40
0.0
 40
0.0
 40
0.0
 40
0.0667137607742043
 40
0.1614288578645515
 40
0.2565679155384283
 40
0.3520264755299067
 40
0.4474393283628051
 40
0.5425128668827907
 40
0.6382597198749896
 40
0.734459188900708
 40
0.8305937997208162
 40
0.9262530980605793
 40
0.9989133222577337
 40
1.0
 40
1.0
 40
1.0
 40
1.0
 10
117.3553418351144
 20
-4.545615034787683
 30
0.0
 10
117.3312842142504
 20
-4.605215946233615
 30
0.0
 10
117.2730714225573
 20
-4.749433675091182
 30
0.0
 10
117.1435873650816
 20
-4.970604524973145
 30
0.0
 10
116.9706013169831
 20
-5.208610912431633
 30
0.0
 10
116.763179441728
 20
-5.437169312378219
 30
0.0
 10
116.5235024286771
 20
-5.65472906430764
 30
0.0
 10
116.2510431372846
 20
-5.85997282212726
 30
0.0
 10
115.9448992706758
 20
-6.051207185096503
 30
0.0
 10
115.6067316966167
 20
-6.227253957215822
 30
0.0
 10
115.2407817527974
 20
-6.386877606070013
 30
0.0
 10
114.8787988122264
 20
-6.51411597172024
 30
0.0
 10
114.6384724952353
 20
-6.58920550604903
 30
0.0
 10
114.528894905709
 20
-6.616144216446101
 30
0.0
 10
114.5272802544564
 20
-6.616541164605618
 30
0.0
  0
ELLIPSE
  5
357
330
1F
100
AcDbEntity
  8
0
  6
Continuous
 62
     7
370
    15
100
AcDbEllipse
 10
101.3237049324
 20
27.7626430815
 30
0.0
 11
-1.989519660128280E-13
 21
40.14197959261207
 31
0.0
210
0.0
220
0.0
230
1.0
 40
0.4073079628
 41
3.552749191552577
 42
3.752018633673601
  0
ELLIPSE
  5
358
330
1F
100
AcDbEntity
  8
0
  6
Continuous
 62
     7
370
    15
100
AcDbEllipse
 10
126.7901401833
 20
27.7626430815
 30
0.0
 11
6.963318810448982E-13
 21
38.3241546075803
 31
0.0
210
0.0
220
0.0
230
1.0
 40
0.7546024
 41
2.839038129618915
 42
2.90805485718849
  0
ELLIPSE
  5
359
330
1F
100
AcDbEntity
  8
0
  6
Continuous
 62
     7
370
    15
100
AcDbEllipse
 10
103.656625311
 20
27.7626430815
 30
0.0
 11
1.989519660128281E-13
 21
39.97891203561748
 31
0.0
210
0.0
220
0.0
230
1.0
 40
0.4073079628
 41
2.598828695564588
 42
2.782508260104633
  0
ELLIPSE
  5
35A
330
1F
100
AcDbEntity
  8
0
  6
Continuous
 62
     7
370
    15
100
AcDbEllipse
 10
80.3403128027
 20
27.7626430815
 30
0.0
 11
-1.989519660128281E-13
 21
41.61056119621561
 31
0.0
210
0.0
220
0.0
230
1.0
 40
0.3840023995
 41
3.434552253546613
 42
3.569728514861522
  0
SPLINE
  5
35B
330
1F
100
AcDbEntity
  8
0
  6
Continuous
 62
     7
370
    15
100
AcDbSpline
210
0.0
220
0.0
230
1.0
 70
     8
 71
     3
 72
     8
 73
     4
 74
     0
 42
0.00000001
 43
0.00000001
 12
1.0
 22
0.0
 32
0.0
 13
1.0
 23
0.0
 33
0.0
 40
0.0
 40
0.0
 40
0.0
 40
0.0
 40
1.0
 40
1.0
 40
1.0
 40
1.0
 10
79.22974740725216
 20
66.97208685598241
 30
0.0
 10
73.4944634937008
 20
67.46691172597927
 30
0.0
 10
67.76103521397798
 20
67.9687146553176
 30
0.0
 10
62.02974740725214
 20
68.47745579931286
 30
0.0
  0
SPLINE
  5
35C
330
1F
100
AcDbEntity
  8
0
  6
Continuous
 62
     7
370
    15
100
AcDbSpline
210
0.0
220
0.0
230
1.0
 70
     8
 71
     3
 72
     8
 73
     4
 74
     0
 42
0.00000001
 43
0.00000001
 12
1.0
 22
0.0
 32
0.0
 13
1.0
 23
0.0
 33
0.0
 40
0.0
 40
0.0
 40
0.0
 40
0.0
 40
1.0
 40
1.0
 40
1.0
 40
1.0
 10
62.02974740725214
 20
-12.95216963639691
 30
0.0
 10
67.76103521397798
 20
-12.44342849240165
 30
0.0
 10
73.4944634937008
 20
-11.94162556306329
 30
0.0
 10
79.22974740725216
 20
-11.44680069306644
 30
0.0
  0
LINE
  5
35D
330
1F
100
AcDbEntity
  8
0
  6
Continuous
 62
     7
370
    15
100
AcDbLine
 10
79.2297486199
 20
13.5577880045
 30
0.0
 11
79.2297486199
 21
-11.4468009944
 31
0.0
  0
SPLINE
  5
35E
330
1F
100
AcDbEntity
  8
0
  6
Continuous
 62
     7
370
    15
100
AcDbSpline
210
0.0
220
0.0
230
1.0
 70
     8
 71
     3
 72
     8
 73
     4
 74
     0
 42
0.00000001
 43
0.00000001
 12
1.0
 22
0.0
 32
0.0
 13
1.0
 23
0.0
 33
0.0
 40
0.0
 40
0.0
 40
0.0
 40
0.0
 40
1.0
 40
1.0
 40
1.0
 40
1.0
 10
79.22974740725216
 20
13.55778764219904
 30
0.0
 10
73.4944634937008
 20
13.74622513274093
 30
0.0
 10
67.76103521397798
 20
13.96667969453392
 30
0.0
 10
62.02974740725214
 20
14.22656665300287
 30
0.0
  0
SPLINE
  5
35F
330
1F
100
AcDbEntity
  8
0
  6
Continuous
 62
     7
370
    15
100
AcDbSpline
210
0.0
220
0.0
230
1.0
 70
     8
 71
     3
 72
     8
 73
     4
 74
     0
 42
0.00000001
 43
0.00000001
 12
1.0
 22
0.0
 32
0.0
 13
1.0
 23
0.0
 33
0.0
 40
0.0
 40
0.0
 40
0.0
 40
0.0
 40
1.0
 40
1.0
 40
1.0
 40
1.0
 10
62.02974740725214
 20
41.29871950991339
 30
0.0
 10
67.76103521397798
 20
41.55860646838234
 30
0.0
 10
73.49446349370082
 20
41.77906103017532
 30
0.0
 10
79.22974740725218
 20
41.96749852071721
 30
0.0
  0
LINE
  5
360
330
1F
100
AcDbEntity
  8
0
  6
Continuous
 62
     7
370
    15
100
AcDbLine
 10
79.2297486199
 20
66.9720871573
 30
0.0
 11
79.2297486199
 21
41.9674981584
 31
0.0
  0
SPLINE
  5
361
330
1F
100
AcDbEntity
  8
0
  6
Continuous
 62
     7
370
    15
100
AcDbSpline
210
0.0
220
0.0
230
1.0
 70
     8
 71
     3
 72
     8
 73
     4
 74
     0
 42
0.00000001
 43
0.00000001
 12
1.0
 22
0.0
 32
0.0
 13
1.0
 23
0.0
 33
0.0
 40
0.0
 40
0.0
 40
0.0
 40
0.0
 40
1.0
 40
1.0
 40
1.0
 40
1.0
 10
120.954711659047
 20
0.9724644521877102
 30
0.0
 10
116.583858278726
 20
0.5299738769658711
 30
0.0
 10
112.2123788176889
 20
0.0931384425934753
 30
0.0
 10
107.8404259447612
 20
-0.3387875410644815
 30
0.0
  0
ELLIPSE
  5
362
330
1F
100
AcDbEntity
  8
0
  6
Continuous
 62
     7
370
    15
100
AcDbEllipse
 10
95.9516687606
 20
27.7626430815
 30
0.0
 11
-2.131628207280301E-13
 21
40.51747668314338
 31
0.0
210
0.0
220
0.0
230
1.0
 40
0.4073079628
 41
3.579833655879332
 42
3.945965464189474
  0
ELLIPSE
  5
363
330
1F
100
AcDbEntity
  8
0
  6
Continuous
 62
     7
370
    15
100
AcDbEllipse
 10
109.0286614829
 20
27.7626430815
 30
0.0
 11
1.989519660128281E-13
 21
39.60341494508616
 31
0.0
210
0.0
220
0.0
230
1.0
 40
0.4073079628
 41
2.394613561432771
 42
2.755529837674682
  0
SPLINE
  5
364
330
1F
100
AcDbEntity
  8
0
  6
Continuous
 62
     7
370
    15
100
AcDbSpline
210
0.0
220
0.0
230
1.0
 70
     8
 71
     3
 72
     8
 73
     4
 74
     0
 42
0.00000001
 43
0.00000001
 12
1.0
 22
0.0
 32
0.0
 13
1.0
 23
0.0
 33
0.0
 40
0.0
 40
0.0
 40
0.0
 40
0.0
 40
1.0
 40
1.0
 40
1.0
 40
1.0
 10
98.06899737333266
 20
-1.29615253706393
 30
0.0
 10
93.6980015496652
 20
-1.72094395217718
 30
0.0
 10
89.32653885118539
 20
-2.141297119079913
 30
0.0
 10
84.95471165904691
 20
-2.55773718663796
 30
0.0
  0
ELLIPSE
  5
365
330
1F
100
AcDbEntity
  8
0
  6
Continuous
 62
     7
370
    15
100
AcDbEllipse
 10
774.0628892585
 20
27.7626430815
 30
0.0
 11
1451.16145328697
 21
1.314504061156185E-13
 31
0.0
210
0.0
220
0.0
230
1.0
 40
0.0261859216
 41
4.280995345238423
 42
4.281578773774843
  0
ELLIPSE
  5
366
330
1F
100
AcDbEntity
  8
0
  6
Continuous
 62
     7
370
    15
100
AcDbEllipse
 10
774.0628892585
 20
27.7626430815
 30
0.0
 11
1451.16145328697
 21
3.907985046680552E-13
 31
0.0
210
0.0
220
0.0
230
1.0
 40
0.0261859216
 41
2.001606533404837
 42
2.002189961941257
  0
LINE
  5
367
330
1F
100
AcDbEntity
  8
0
  6
Continuous
 62
     7
370
    15
100
AcDbLine
 10
171.0475411249
 20
63.7626415317
 30
0.0
 11
171.0475411249
 21
38.7322977384
 31
0.0
  0
LINE
  5
368
330
1F
100
AcDbEntity
  8
0
  6
Continuous
 62
     7
370
    15
100
AcDbLine
 10
171.0475411249
 20
16.7929884245
 30
0.0
 11
171.0475411249
 21
-8.2373553688
 31
0.0
  0
LINE
  5
369
330
1F
100
AcDbEntity
  8
0
  6
Continuous
 62
     7
370
    15
100
AcDbLine
 10
79.2297486199
 20
45.3169206356
 30
0.0
 11
62.0297480358
 21
45.3169206356
 31
0.0
  0
LINE
  5
36A
330
1F
100
AcDbEntity
  8
0
  6
Continuous
 62
     7
370
    15
100
AcDbLine
 10
62.0297480358
 20
10.2083655273
 30
0.0
 11
79.2297486199
 21
10.2083655273
 31
0.0
  0
SPLINE
  5
36B
330
1F
100
AcDbEntity
  8
0
  6
Continuous
 62
     7
370
    15
100
AcDbSpline
210
0.0
220
0.0
230
1.0
 70
     8
 71
     3
 72
     8
 73
     4
 74
     0
 42
0.00000001
 43
0.00000001
 12
1.0
 22
0.0
 32
0.0
 13
1.0
 23
0.0
 33
0.0
 40
0.0
 40
0.0
 40
0.0
 40
0.0
 40
1.0
 40
1.0
 40
1.0
 40
1.0
 10
43.95471165904704
 20
78.33264308145773
 30
0.0
 10
42.88969766167611
 20
77.44655143564508
 30
0.0
 10
41.87963674142435
 20
76.63378434604145
 30
0.0
 10
40.95471165904703
 20
75.90864308145756
 30
0.0
  0
LINE
  5
36C
330
1F
100
AcDbEntity
  8
0
  6
Continuous
 62
     7
370
    15
100
AcDbLine
 10
40.954711659
 20
65.6031100278
 30
0.0
 11
40.954711659
 21
75.9086413508
 31
0.0
  0
SPLINE
  5
36D
330
1F
100
AcDbEntity
  8
0
  6
Continuous
 62
     7
370
    15
100
AcDbSpline
210
0.0
220
0.0
230
1.0
 70
     8
 71
     3
 72
     8
 73
     4
 74
     0
 42
0.00000001
 43
0.00000001
 12
1.0
 22
0.0
 32
0.0
 13
1.0
 23
0.0
 33
0.0
 40
0.0
 40
0.0
 40
0.0
 40
0.0
 40
1.0
 40
1.0
 40
1.0
 40
1.0
 10
40.95471165904703
 20
-20.38335691854246
 30
0.0
 10
41.87963674142424
 20
-21.10849818312615
 30
0.0
 10
42.88969766167602
 20
-21.92126527272969
 30
0.0
 10
43.95471165904704
 20
-22.80735691854233
 30
0.0
  0
LINE
  5
36E
330
1F
100
AcDbEntity
  8
0
  6
Continuous
 62
     7
370
    15
100
AcDbLine
 10
40.954711659
 20
-20.3833551879
 30
0.0
 11
40.954711659
 21
-10.0778238649
 31
0.0
  0
SPLINE
  5
36F
330
1F
100
AcDbEntity
  8
0
  6
Continuous
 62
     7
370
    15
100
AcDbSpline
210
0.0
220
0.0
230
1.0
 70
     8
 71
     3
 72
     8
 73
     4
 74
     0
 42
0.00000001
 43
0.00000001
 12
1.0
 22
0.0
 32
0.0
 13
1.0
 23
0.0
 33
0.0
 40
0.0
 40
0.0
 40
0.0
 40
0.0
 40
1.0
 40
1.0
 40
1.0
 40
1.0
 10
107.8404259447612
 20
-2.425930046454163
 30
0.0
 10
112.2122476462349
 20
-2.008651133218495
 30
0.0
 10
116.5837193626341
 20
-1.587405980731597
 30
0.0
 10
120.9547116590469
 20
-1.16166117856302
 30
0.0
  0
LINE
  5
370
330
1F
100
AcDbEntity
  8
0
  6
Continuous
 62
     7
370
    15
100
AcDbLine
 10
107.8404288722
 20
-2.4259304429
 30
0.0
 11
107.8404288722
 21
-0.3387881244
 31
0.0
  0
LINE
  5
371
330
1F
100
AcDbEntity
  8
0
  6
Continuous
 62
     7
370
    15
100
AcDbLine
 10
120.9547098709
 20
-1.1616619105
 30
0.0
 11
120.9547098709
 21
0.9724637692
 31
0.0
  0
SPLINE
  5
372
330
1F
100
AcDbEntity
  8
0
  6
Continuous
 62
     7
370
    15
100
AcDbSpline
210
0.0
220
0.0
230
1.0
 70
     8
 71
     3
 72
     8
 73
     4
 74
     0
 42
0.00000001
 43
0.00000001
 12
1.0
 22
0.0
 32
0.0
 13
1.0
 23
0.0
 33
0.0
 40
0.0
 40
0.0
 40
0.0
 40
0.0
 40
1.0
 40
1.0
 40
1.0
 40
1.0
 10
84.9547116590469
 20
-4.576152546670688
 30
0.0
 10
89.32644868821333
 20
-4.171498237992115
 30
0.0
 10
93.69790684964097
 20
-3.76361484341655
 30
0.0
 10
98.06899737333264
 20
-3.352112378711785
 30
0.0
  0
ELLIPSE
  5
373
330
1F
100
AcDbEntity
  8
0
  6
Continuous
 62
     7
370
    15
100
AcDbEllipse
 10
109.011217727
 20
27.7626430815
 30
0.0
 11
1.989519660128281E-13
 21
41.10768756168701
 31
0.0
210
0.0
220
0.0
230
1.0
 40
0.4073079628
 41
2.429365764082659
 42
2.771477199240262
  0
ELLIPSE
  5
374
330
1F
100
AcDbEntity
  8
0
  6
Continuous
 62
     7
370
    15
100
AcDbEllipse
 10
95.9342250047
 20
27.7626430815
 30
0.0
 11
-2.131628207280301E-13
 21
42.02174929974422
 31
0.0
210
0.0
220
0.0
230
1.0
 40
0.4073079628
 41
3.564239631042279
 42
3.910884396477226
  0
SPLINE
  5
375
330
1F
100
AcDbEntity
  8
0
  6
Continuous
 62
     7
370
    15
100
AcDbSpline
210
0.0
220
0.0
230
1.0
 70
     8
 71
     3
 72
     8
 73
     4
 74
     0
 42
0.00000001
 43
0.00000001
 12
1.0
 22
0.0
 32
0.0
 13
1.0
 23
0.0
 33
0.0
 40
0.0
 40
0.0
 40
0.0
 40
0.0
 40
1.0
 40
1.0
 40
1.0
 40
1.0
 10
120.954711659047
 20
-4.229427090576506
 30
0.0
 10
117.3963183032576
 20
-4.542787297720306
 30
0.0
 10
113.8377754476712
 20
-4.854461126445067
 30
0.0
 10
110.2791026715674
 20
-5.164587294347149
 30
0.0
  0
ELLIPSE
  5
376
330
1F
100
AcDbEntity
  8
0
  6
Continuous
 62
     7
370
    15
100
AcDbEllipse
 10
99.8243201636
 20
27.7626430815
 30
0.0
 11
-1.989519660128281E-13
 21
41.74983761349741
 31
0.0
210
0.0
220
0.0
230
1.0
 40
0.4073079628
 41
3.435327585919808
 42
3.803731204807109
  0
LWPOLYLINE
  5
377
330
1F
100
AcDbEntity
  8
0
  6
Continuous
 62
     7
370
    15
100
AcDbPolyline
 90
        3
 70
   128
 43
0.0
 10
104.7477748228
 20
-12.1990153367
 10
103.0442666245
 20
-12.3224789078
 10
101.1616464687
 20
-12.4588915879
  0
ELLIPSE
  5
378
330
1F
100
AcDbEntity
  8
0
  6
Continuous
 62
     7
370
    15
100
AcDbEllipse
 10
105.1211225681
 20
27.7626430815
 30
0.0
 11
2.131628207280301E-13
 21
41.37959924793381
 31
0.0
210
0.0
220
0.0
230
1.0
 40
0.4073079628
 41
2.543447498041413
 42
2.904451673226601
  0
SPLINE
  5
379
330
1F
100
AcDbEntity
  8
0
  6
Continuous
 62
     7
370
    15
100
AcDbSpline
210
0.0
220
0.0
230
1.0
 70
     8
 71
     3
 72
     8
 73
     4
 74
     0
 42
0.00000001
 43
0.00000001
 12
1.0
 22
0.0
 32
0.0
 13
1.0
 23
0.0
 33
0.0
 40
0.0
 40
0.0
 40
0.0
 40
0.0
 40
1.0
 40
1.0
 40
1.0
 40
1.0
 10
95.63032064652654
 20
-6.432692980234314
 30
0.0
 10
92.07189958820695
 20
-6.738751082617594
 30
0.0
 10
88.51335822443477
 20
-7.043427567649655
 30
0.0
 10
84.95471165904695
 20
-7.346826861051508
 30
0.0
  0
LINE
  5
37A
330
1F
100
AcDbEntity
  8
0
  6
Continuous
 62
     7
370
    15
100
AcDbLine
 10
84.9547114206
 20
-7.3468284483
 30
0.0
 11
84.9547114206
 21
-4.5761512394
 31
0.0
  0
LINE
  5
37B
330
1F
100
AcDbEntity
  8
0
  6
Continuous
 62
     7
370
    15
100
AcDbLine
 10
120.9547098709
 20
-1.1616619105
 30
0.0
 11
120.9547098709
 21
-4.2294272954
 31
0.0
  0
LINE
  5
37C
330
1F
100
AcDbEntity
  8
0
  6
Continuous
 62
     7
370
    15
100
AcDbLine
 10
102.9547106458
 20
-10.5614634032
 30
0.0
 11
102.9547106458
 21
-8.9259119506
 31
0.0
  0
LINE
  5
37D
330
1F
100
AcDbEntity
  8
0
  6
Continuous
 62
     7
370
    15
100
AcDbLine
 10
84.9547114206
 20
-4.5761512394
 30
0.0
 11
84.9547114206
 21
-2.5577368016
 31
0.0
  0
LINE
  5
37E
330
1F
100
AcDbEntity
  8
0
  6
Continuous
 62
     7
370
    15
100
AcDbLine
 10
98.0689961446
 20
-3.3521121169
 30
0.0
 11
98.0689961446
 21
-1.2961523409
 31
0.0
  0
LINE
  5
37F
330
1F
100
AcDbEntity
  8
0
  6
Continuous
 62
     7
370
    15
100
AcDbLine
 10
62.0297480358
 20
53.4715233569
 30
0.0
 11
79.2297486199
 21
53.4715233569
 31
0.0
  0
LINE
  5
380
330
1F
100
AcDbEntity
  8
0
  6
Continuous
 62
     7
370
    15
100
AcDbLine
 10
79.2297486199
 20
2.053762806
 30
0.0
 11
62.0297480358
 21
2.053762806
 31
0.0
  0
SPLINE
  5
381
330
1F
100
AcDbEntity
  8
0
  6
Continuous
 62
     7
370
    15
100
AcDbSpline
210
0.0
220
0.0
230
1.0
 70
     8
 71
     3
 72
    22
 73
    18
 74
     0
 42
0.00000001
 43
0.00000001
 12
1.0
 22
0.0
 32
0.0
 13
1.0
 23
0.0
 33
0.0
 40
0.0
 40
0.0
 40
0.0
 40
0.0
 40
0.125
 40
0.125
 40
0.25
 40
0.25
 40
0.375
 40
0.375
 40
0.5
 40
0.5
 40
0.625
 40
0.625
 40
0.75
 40
0.75
 40
0.875
 40
0.875
 40
1.0
 40
1.0
 40
1.0
 40
1.0
 10
113.2286141931027
 20
-8.551461475050676
 30
0.0
 10
113.5452598172671
 20
-8.520734601679846
 30
0.0
 10
113.8524867790665
 20
-8.473775134589753
 30
0.0
 10
114.4495090113452
 20
-8.349109037514422
 30
0.0
 10
114.7417123868389
 20
-8.27023224096543
 30
0.0
 10
115.2834043691516
 20
-8.087799656965004
 30
0.0
 10
115.5359063367924
 20
-7.983899871251456
 30
0.0
 10
116.0055994382465
 20
-7.749774748813588
 30
0.0
 10
116.2160967256016
 20
-7.622824459299078
 30
0.0
 10
116.5918896703791
 20
-7.350141369341687
 30
0.0
 10
116.7584578265303
 20
-7.20287496528791
 30
0.0
 10
117.0400932536147
 20
-6.896616383241142
 30
0.0
 10
117.1561011847833
 20
-6.737415696564879
 30
0.0
 10
117.3420584769112
 20
-6.406368505545566
 30
0.0
 10
117.4118109721212
 20
-6.233918694398946
 30
0.0
 10
117.5034736893918
 20
-5.884895481736055
 30
0.0
 10
117.5261402304756
 20
-5.707267127317284
 30
0.0
 10
117.5261402304756
 20
-5.526371205677248
 30
0.0
  0
LINE
  5
382
330
1F
100
AcDbEntity
  8
0
  6
Continuous
 62
     7
370
    15
100
AcDbLine
 10
117.5261389447
 20
-5.5263722117
 30
0.0
 11
117.5261389447
 21
-4.5306132908
 31
0.0
  0
LINE
  5
383
330
1F
100
AcDbEntity
  8
0
  6
Continuous
 62
     7
370
    15
100
AcDbLine
 10
120.9547098709
 20
-5.2340598578
 30
0.0
 11
120.9547098709
 21
-7.3877470369
 31
0.0
  0
LWPOLYLINE
  5
384
330
1F
100
AcDbEntity
  8
0
  6
Continuous
 62
     7
370
    15
100
AcDbPolyline
 90
        3
 70
   128
 43
0.0
 10
120.9547098709
 20
-7.3877470369
 10
120.1553594304
 20
-7.4517996783
 10
119.9261423183
 20
-7.4701616342
  0
SPLINE
  5
385
330
1F
100
AcDbEntity
  8
0
  6
Continuous
 62
     7
370
    15
100
AcDbSpline
210
0.0
220
0.0
230
1.0
 70
     8
 71
     3
 72
    14
 73
    10
 74
     0
 42
0.00000001
 43
0.00000001
 12
1.0
 22
0.0
 32
0.0
 13
1.0
 23
0.0
 33
0.0
 40
0.0
 40
0.0
 40
0.0
 40
0.0
 40
0.25
 40
0.25
 40
0.5
 40
0.5
 40
0.75
 40
0.75
 40
1.0
 40
1.0
 40
1.0
 40
1.0
 10
119.9261402304756
 20
-7.470163090096661
 30
0.0
 10
119.7747879273893
 20
-7.703494862622444
 30
0.0
 10
119.5777494717741
 20
-7.921201337520001
 30
0.0
 10
119.0876340897335
 20
-8.328617168489608
 30
0.0
 10
118.7902581767768
 20
-8.519677687742908
 30
0.0
 10
118.1211669063777
 20
-8.856276602655367
 30
0.0
 10
117.745923613557
 20
-9.005084038383966
 30
0.0
 10
116.9137393334853
 20
-9.261752505582365
 30
0.0
 10
116.4723112721227
 20
-9.36517396760883
 30
0.0
 10
116.0041766361235
 20
-9.444579339720885
 30
0.0
  0
ELLIPSE
  5
386
330
1F
100
AcDbEntity
  8
0
  6
Continuous
 62
     7
370
    15
100
AcDbEllipse
 10
126.7302672463
 20
27.7626430815
 30
0.0
 11
7.531752999057063E-13
 21
39.8299093613651
 31
0.0
210
0.0
220
0.0
230
1.0
 40
0.7546024
 41
2.776674090183533
 42
2.919081165877454
  0
LWPOLYLINE
  5
387
330
1F
100
AcDbEntity
  8
0
  6
Continuous
 62
     7
370
    15
100
AcDbPolyline
 90
        3
 70
   128
 43
0.0
 10
120.0975652767
 20
-11.0853099997
 10
117.8819414211
 20
-11.2462052877
 10
115.6435411406
 20
-11.4087061758
  0
ELLIPSE
  5
388
330
1F
100
AcDbEntity
  8
0
  6
Continuous
 62
     7
370
    15
100
AcDbEllipse
 10
122.2638402682
 20
27.7626430815
 30
0.0
 11
7.247535904753022E-13
 21
40.14179845834772
 31
0.0
210
0.0
220
0.0
230
1.0
 40
0.7546024
 41
2.79676930568862
 42
2.921258346006479
  0
ELLIPSE
  5
389
330
1F
100
AcDbEntity
  8
0
  6
Continuous
 62
     7
370
    15
100
AcDbEllipse
 10
105.1500456788
 20
27.7626430815
 30
0.0
 11
-2.131628207280301E-13
 21
41.37757756685001
 31
0.0
210
0.0
220
0.0
230
1.0
 40
0.4073079628
 41
3.437782255387832
 42
3.561743746527632
  0
LWPOLYLINE
  5
38A
330
1F
100
AcDbEntity
  8
0
  6
Continuous
 62
     7
370
    15
100
AcDbPolyline
 90
        3
 70
   128
 43
0.0
 10
110.0691881014
 20
-11.8131721193
 10
108.211199565
 20
-11.9479195947
 10
106.2285181118
 20
-12.0916748221
  0
ELLIPSE
  5
38B
330
1F
100
AcDbEntity
  8
0
  6
Continuous
 62
     7
370
    15
100
AcDbEllipse
 10
101.3062611766
 20
27.7626430815
 30
0.0
 11
-2.131628207280301E-13
 21
41.64625220921294
 31
0.0
210
0.0
220
0.0
230
1.0
 40
0.4073079628
 41
3.436006034903042
 42
3.764435065376968
  0
LWPOLYLINE
  5
38C
330
1F
100
AcDbEntity
  8
0
  6
Continuous
 62
     7
370
    15
100
AcDbPolyline
 90
        3
 70
   128
 43
0.0
 10
111.2014751864
 20
-6.0634286875
 10
112.7028640343
 20
-5.9361876721
 10
115.042145176
 20
-5.7376296992
  0
ELLIPSE
  5
38D
330
1F
100
AcDbEntity
  8
0
  6
Continuous
 62
     7
370
    15
100
AcDbEllipse
 10
105.1500456788
 20
27.7626430815
 30
0.0
 11
-2.131628207280301E-13
 21
41.37757756685
 31
0.0
210
0.0
220
0.0
230
1.0
 40
0.4073079628
 41
3.641498680358513
 42
3.768878070652581
  0
LWPOLYLINE
  5
38E
330
1F
100
AcDbEntity
  8
0
  6
Continuous
 62
     7
370
    15
100
AcDbPolyline
 90
        3
 70
   128
 43
0.0
 10
117.5261389447
 20
-5.5263722117
 10
119.7265561653
 20
-5.3388671751
 10
120.9547098709
 20
-5.2340598578
  0
LINE
  5
38F
330
1F
100
AcDbEntity
  8
0
  6
Continuous
 62
     7
370
    15
100
AcDbLine
 10
120.9547098709
 20
-5.2340598578
 30
0.0
 11
120.9547098709
 21
-4.2294272954
 31
0.0
  0
LINE
  5
390
330
1F
100
AcDbEntity
  8
0
  6
Continuous
 62
     7
370
    15
100
AcDbLine
 10
111.2014751864
 20
-6.0634286875
 30
0.0
 11
111.2014751864
 21
-5.0839828129
 31
0.0
  0
LINE
  5
391
330
1F
100
AcDbEntity
  8
0
  6
Continuous
 62
     7
370
    15
100
AcDbLine
 10
115.042145176
 20
-5.7376296992
 30
0.0
 11
115.042145176
 21
-4.7483565087
 31
0.0
  0
LINE
  5
392
330
1F
100
AcDbEntity
  8
0
  6
Continuous
 62
     7
370
    15
100
AcDbLine
 10
106.2285181118
 20
-12.0916748221
 30
0.0
 11
106.2285181118
 21
-10.913305896
 31
0.0
  0
SPLINE
  5
393
330
1F
100
AcDbEntity
  8
0
  6
Continuous
 62
     7
370
    15
100
AcDbSpline
210
0.0
220
0.0
230
1.0
 70
     8
 71
     3
 72
     8
 73
     4
 74
     0
 42
0.00000001
 43
0.00000001
 12
1.0
 22
0.0
 32
0.0
 13
1.0
 23
0.0
 33
0.0
 40
0.0
 40
0.0
 40
0.0
 40
0.0
 40
1.0
 40
1.0
 40
1.0
 40
1.0
 10
84.95471165904694
 20
-8.264634473941983
 30
0.0
 10
88.20586499036615
 20
-7.99451245475373
 30
0.0
 10
91.4569478722022
 20
-7.723510747962951
 30
0.0
 10
94.7079481713973
 20
-7.451567708745777
 30
0.0
  0
LINE
  5
394
330
1F
100
AcDbEntity
  8
0
  6
Continuous
 62
     7
370
    15
100
AcDbLine
 10
84.9547114206
 20
-8.2646356697
 30
0.0
 11
84.9547114206
 21
-7.3468284483
 31
0.0
  0
LINE
  5
395
330
1F
100
AcDbEntity
  8
0
  6
Continuous
 62
     7
370
    15
100
AcDbLine
 10
94.7079498304
 20
-7.4515687103
 30
0.0
 11
94.7079498304
 21
-6.5118381555
 31
0.0
  0
ELLIPSE
  5
396
330
1F
100
AcDbEntity
  8
0
  6
Continuous
 62
     7
370
    15
100
AcDbEllipse
 10
103.6391815552
 20
27.7626430815
 30
0.0
 11
1.989519660128281E-13
 21
41.48318465221831
 31
0.0
210
0.0
220
0.0
230
1.0
 40
0.4073079628
 41
2.584657543553998
 42
2.905128263630895
  0
LINE
  5
397
330
1F
100
AcDbEntity
  8
0
  6
Continuous
 62
     7
370
    15
100
AcDbLine
 10
99.680906905
 20
-12.5661613221
 30
0.0
 11
99.680906905
 21
-11.4020714338
 31
0.0
  0
LWPOLYLINE
  5
398
330
1F
100
AcDbEntity
  8
0
  6
Continuous
 62
     7
370
    15
100
AcDbPolyline
 90
        3
 70
   128
 43
0.0
 10
88.327231629
 20
-9.9812010104
 10
86.5649905039
 20
-10.1201319868
 10
84.9547114206
 20
-10.2469892974
  0
LINE
  5
399
330
1F
100
AcDbEntity
  8
0
  6
Continuous
 62
     7
370
    15
100
AcDbLine
 10
84.9547114206
 20
-10.2469892974
 30
0.0
 11
84.9547114206
 21
-8.2646356697
 31
0.0
  0
LWPOLYLINE
  5
39A
330
1F
100
AcDbEntity
  8
0
  6
Continuous
 62
     7
370
    15
100
AcDbPolyline
 90
        3
 70
   128
 43
0.0
 10
99.680906905
 20
-12.5661613221
 10
97.8773150576
 20
-12.696796077
 10
95.8402369154
 20
-12.8443063969
  0
ELLIPSE
  5
39B
330
1F
100
AcDbEntity
  8
0
  6
Continuous
 62
     7
370
    15
100
AcDbEllipse
 10
99.795397053
 20
27.7626430815
 30
0.0
 11
2.273736754432321E-13
 21
41.75185929458122
 31
0.0
210
0.0
220
0.0
230
1.0
 40
0.4073079628
 41
2.86016997289899
 42
2.90686701792434
  0
LWPOLYLINE
  5
39C
330
1F
100
AcDbEntity
  8
0
  6
Continuous
 62
     7
370
    15
100
AcDbPolyline
 90
        3
 70
   128
 43
0.0
 10
95.0724843873
 20
-12.3467528994
 10
92.3877011968
 20
-12.5437574262
 10
89.4887845946
 20
-12.75637837
  0
ELLIPSE
  5
39D
330
1F
100
AcDbEntity
  8
0
  6
Continuous
 62
     7
370
    15
100
AcDbEllipse
 10
84.1377712045
 20
27.7626430815
 30
0.0
 11
-1.989519660128281E-13
 21
42.8482337626372
 31
0.0
210
0.0
220
0.0
230
1.0
 40
0.3840023995
 41
3.426658571151155
 42
3.472830674909014
  0
LWPOLYLINE
  5
39E
330
1F
100
AcDbEntity
  8
0
  6
Continuous
 62
     7
370
    15
100
AcDbPolyline
 90
        3
 70
   128
 43
0.0
 10
88.764927162
 20
-13.3563699002
 10
87.0335537923
 20
-13.4816104347
 10
84.9547114206
 20
-13.6319519753
  0
ELLIPSE
  5
39F
330
1F
100
AcDbEntity
  8
0
  6
Continuous
 62
     7
370
    15
100
AcDbEllipse
 10
80.3248081489
 20
27.7626430815
 30
0.0
 11
-1.989519660128281E-13
 21
43.11476604116141
 31
0.0
210
0.0
220
0.0
230
1.0
 40
0.3840023995
 41
3.425020283803402
 42
3.646069818779141
  0
ELLIPSE
  5
3A0
330
1F
100
AcDbEntity
  8
0
  6
Continuous
 62
     7
370
    15
100
AcDbEllipse
 10
83.7702566931
 20
27.7626430815
 30
0.0
 11
-2.131628207280301E-13
 21
42.8739236208082
 31
0.0
210
0.0
220
0.0
230
1.0
 40
0.3840023995
 41
3.554176940341879
 42
3.665706426885823
  0
LWPOLYLINE
  5
3A1
330
1F
100
AcDbEntity
  8
0
  6
Continuous
 62
     7
370
    15
100
AcDbPolyline
 90
        3
 70
   128
 43
0.0
 10
93.7463592721
 20
-11.2586067791
 10
92.0814227296
 20
-11.3844582612
 10
90.3718348576
 20
-11.513628977
  0
ELLIPSE
  5
3A2
330
1F
100
AcDbEntity
  8
0
  6
Continuous
 62
     7
370
    15
100
AcDbEllipse
 10
99.795397053
 20
27.7626430815
 30
0.0
 11
2.273736754432321E-13
 21
41.75185929458124
 31
0.0
210
0.0
220
0.0
230
1.0
 40
0.4073079628
 41
2.666029326028843
 42
2.777926559317333
  0
LWPOLYLINE
  5
3A3
330
1F
100
AcDbEntity
  8
0
  6
Continuous
 62
     7
370
    15
100
AcDbPolyline
 90
        3
 70
   128
 43
0.0
 10
91.7153570784
 20
-9.7821438486
 10
92.3008721305
 20
-9.7376229043
 10
92.3229332996
 20
-9.7359465236
  0
LINE
  5
3A4
330
1F
100
AcDbEntity
  8
0
  6
Continuous
 62
     7
370
    15
100
AcDbLine
 10
84.9547114206
 20
-13.6319519753
 30
0.0
 11
84.9547114206
 21
-12.0750339503
 31
0.0
  0
LINE
  5
3A5
330
1F
100
AcDbEntity
  8
0
  6
Continuous
 62
     7
370
    15
100
AcDbLine
 10
120.0975652767
 20
-11.0853099997
 30
0.0
 11
120.0975652767
 21
-9.5211537356
 31
0.0
  0
LINE
  5
3A6
330
1F
100
AcDbEntity
  8
0
  6
Continuous
 62
     7
370
    15
100
AcDbLine
 10
163.0475398136
 20
74.7365495389
 30
0.0
 11
163.0475398136
 21
100.7746821468
 31
0.0
  0
LINE
  5
3A7
330
1F
100
AcDbEntity
  8
0
  6
Continuous
 62
     7
370
    15
100
AcDbLine
 10
163.0475398136
 20
109.2626443332
 30
0.0
 11
163.0475398136
 21
100.7746821468
 31
0.0
  0
LINE
  5
3A8
330
1F
100
AcDbEntity
  8
0
  6
Continuous
 62
     7
370
    15
100
AcDbLine
 10
168.0475350452
 20
109.2626443332
 30
0.0
 11
163.0475398136
 21
109.2626443332
 31
0.0
  0
LINE
  5
3A9
330
1F
100
AcDbEntity
  8
0
  6
Continuous
 62
     7
370
    15
100
AcDbLine
 10
168.0475350452
 20
62.2904962128
 30
0.0
 11
168.0475350452
 21
109.2626443332
 31
0.0
  0
LINE
  5
3AA
330
1F
100
AcDbEntity
  8
0
  6
Continuous
 62
     7
370
    15
100
AcDbLine
 10
168.0475350452
 20
-53.7373581702
 30
0.0
 11
168.0475350452
 21
-6.7652100498
 31
0.0
  0
LINE
  5
3AB
330
1F
100
AcDbEntity
  8
0
  6
Continuous
 62
     7
370
    15
100
AcDbLine
 10
168.0475350452
 20
-53.7373581702
 30
0.0
 11
163.0475398136
 21
-53.7373581702
 31
0.0
  0
LINE
  5
3AC
330
1F
100
AcDbEntity
  8
0
  6
Continuous
 62
     7
370
    15
100
AcDbLine
 10
163.0475398136
 20
-53.7373581702
 30
0.0
 11
163.0475398136
 21
-45.2493959839
 31
0.0
  0
LINE
  5
3AD
330
1F
100
AcDbEntity
  8
0
  6
Continuous
 62
     7
370
    15
100
AcDbLine
 10
163.0475398136
 20
-45.2493959839
 30
0.0
 11
163.0475398136
 21
-19.211263376
 31
0.0
  0
LINE
  5
3AE
330
1F
100
AcDbEntity
  8
0
  6
Continuous
 62
     7
370
    15
100
AcDbLine
 10
163.0475398136
 20
100.7746821468
 30
0.0
 11
138.954709096
 21
80.0607977634
 31
0.0
  0
LINE
  5
3AF
330
1F
100
AcDbEntity
  8
0
  6
Continuous
 62
     7
370
    15
100
AcDbLine
 10
138.954709096
 20
75.1965521102
 30
0.0
 11
138.954709096
 21
80.0607977634
 31
0.0
  0
LINE
  5
3B0
330
1F
100
AcDbEntity
  8
0
  6
Continuous
 62
     7
370
    15
100
AcDbLine
 10
138.954709096
 20
-24.5355116005
 30
0.0
 11
163.0475398136
 21
-45.2493959839
 31
0.0
  0
LINE
  5
3B1
330
1F
100
AcDbEntity
  8
0
  6
Continuous
 62
     7
370
    15
100
AcDbLine
 10
138.954709096
 20
-24.5355116005
 30
0.0
 11
138.954709096
 21
-19.6712659473
 31
0.0
  0
LINE
  5
3B2
330
1F
100
AcDbEntity
  8
0
  6
Continuous
 62
     7
370
    15
100
AcDbLine
 10
170.5475475622
 20
78.2626448398
 30
0.0
 11
170.5475475622
 21
102.2626450484
 31
0.0
  0
LINE
  5
3B3
330
1F
100
AcDbEntity
  8
0
  6
Continuous
 62
     7
370
    15
100
AcDbLine
 10
170.5475475622
 20
-34.7373569185
 30
0.0
 11
170.5475475622
 21
-22.7373586769
 31
0.0
  0
LINE
  5
3B4
330
1F
100
AcDbEntity
  8
0
  6
Continuous
 62
     7
370
    15
100
AcDbLine
 10
170.5475475622
 20
-46.7373588855
 30
0.0
 11
170.5475475622
 21
-34.7373569185
 31
0.0
  0
LINE
  5
3B5
330
1F
100
AcDbEntity
  8
0
  6
Continuous
 62
     7
370
    15
100
AcDbLine
 10
180.5475380255
 20
99.762639982
 30
0.0
 11
170.5475475622
 21
99.762639982
 31
0.0
  0
LINE
  5
3B6
330
1F
100
AcDbEntity
  8
0
  6
Continuous
 62
     7
370
    15
100
AcDbLine
 10
180.5475380255
 20
99.762639982
 30
0.0
 11
180.5475380255
 21
90.2626430815
 31
0.0
  0
LINE
  5
3B7
330
1F
100
AcDbEntity
  8
0
  6
Continuous
 62
     7
370
    15
100
AcDbLine
 10
180.5475380255
 20
90.2626430815
 30
0.0
 11
170.5475475622
 21
90.2626430815
 31
0.0
  0
LINE
  5
3B8
330
1F
100
AcDbEntity
  8
0
  6
Continuous
 62
     7
370
    15
100
AcDbLine
 10
180.5475380255
 20
80.7626424556
 30
0.0
 11
170.5475475622
 21
80.7626424556
 31
0.0
  0
LINE
  5
3B9
330
1F
100
AcDbEntity
  8
0
  6
Continuous
 62
     7
370
    15
100
AcDbLine
 10
180.5475380255
 20
90.2626430815
 30
0.0
 11
180.5475380255
 21
80.7626424556
 31
0.0
  0
LINE
  5
3BA
330
1F
100
AcDbEntity
  8
0
  6
Continuous
 62
     7
370
    15
100
AcDbLine
 10
180.5475380255
 20
-25.2373562927
 30
0.0
 11
170.5475475622
 21
-25.2373562927
 31
0.0
  0
LINE
  5
3BB
330
1F
100
AcDbEntity
  8
0
  6
Continuous
 62
     7
370
    15
100
AcDbLine
 10
180.5475380255
 20
-25.2373562927
 30
0.0
 11
180.5475380255
 21
-34.7373569185
 31
0.0
  0
LINE
  5
3BC
330
1F
100
AcDbEntity
  8
0
  6
Continuous
 62
     7
370
    15
100
AcDbLine
 10
180.5475380255
 20
-34.7373569185
 30
0.0
 11
170.5475475622
 21
-34.7373569185
 31
0.0
  0
LINE
  5
3BD
330
1F
100
AcDbEntity
  8
0
  6
Continuous
 62
     7
370
    15
100
AcDbLine
 10
180.5475380255
 20
-44.2373538191
 30
0.0
 11
170.5475475622
 21
-44.2373538191
 31
0.0
  0
LINE
  5
3BE
330
1F
100
AcDbEntity
  8
0
  6
Continuous
 62
     7
370
    15
100
AcDbLine
 10
180.5475380255
 20
-34.7373569185
 30
0.0
 11
180.5475380255
 21
-44.2373538191
 31
0.0
  0
LINE
  5
3BF
330
1F
100
AcDbEntity
  8
0
  6
Continuous
 62
     7
370
    15
100
AcDbLine
 10
187.9575427605
 20
82.2626417702
 30
0.0
 11
187.9575427605
 21
98.2626443928
 31
0.0
  0
LINE
  5
3C0
330
1F
100
AcDbEntity
  8
0
  6
Continuous
 62
     7
370
    15
100
AcDbLine
 10
187.4575342966
 20
82.2626417702
 30
0.0
 11
187.4575342966
 21
98.2626443928
 31
0.0
  0
LINE
  5
3C1
330
1F
100
AcDbEntity
  8
0
  6
Continuous
 62
     7
370
    15
100
AcDbLine
 10
187.4575342966
 20
-34.7373569185
 30
0.0
 11
187.4575342966
 21
-26.7373556072
 31
0.0
  0
LINE
  5
3C2
330
1F
100
AcDbEntity
  8
0
  6
Continuous
 62
     7
370
    15
100
AcDbLine
 10
187.4575342966
 20
-42.7373582298
 30
0.0
 11
187.4575342966
 21
-34.7373569185
 31
0.0
  0
LINE
  5
3C3
330
1F
100
AcDbEntity
  8
0
  6
Continuous
 62
     7
370
    15
100
AcDbLine
 10
187.9575427605
 20
-34.7373569185
 30
0.0
 11
187.9575427605
 21
-26.7373556072
 31
0.0
  0
LINE
  5
3C4
330
1F
100
AcDbEntity
  8
0
  6
Continuous
 62
     7
370
    15
100
AcDbLine
 10
187.9575427605
 20
-42.7373582298
 30
0.0
 11
187.9575427605
 21
-34.7373569185
 31
0.0
  0
LINE
  5
3C5
330
1F
100
AcDbEntity
  8
0
  6
Continuous
 62
     7
370
    15
100
AcDbLine
 10
63.2575403882
 20
83.637642694
 30
0.0
 11
61.3295573724
 21
83.637642694
 31
0.0
  0
LINE
  5
3C6
330
1F
100
AcDbEntity
  8
0
  6
Continuous
 62
     7
370
    15
100
AcDbLine
 10
63.2575403882
 20
96.8876397436
 30
0.0
 11
60.6390655024
 21
96.8876397436
 31
0.0
  0
LINE
  5
3C7
330
1F
100
AcDbEntity
  8
0
  6
Continuous
 62
     7
370
    15
100
AcDbLine
 10
63.2575403882
 20
96.8876397436
 30
0.0
 11
63.2575403882
 21
83.637642694
 31
0.0
  0
LINE
  5
3C8
330
1F
100
AcDbEntity
  8
0
  6
Continuous
 62
     7
370
    15
100
AcDbLine
 10
63.2575403882
 20
-28.1123565311
 30
0.0
 11
63.2575403882
 21
-41.3623535807
 31
0.0
  0
LINE
  5
3C9
330
1F
100
AcDbEntity
  8
0
  6
Continuous
 62
     7
370
    15
100
AcDbLine
 10
63.2575403882
 20
-41.3623535807
 30
0.0
 11
60.6390655024
 21
-41.3623535807
 31
0.0
  0
LINE
  5
3CA
330
1F
100
AcDbEntity
  8
0
  6
Continuous
 62
     7
370
    15
100
AcDbLine
 10
63.2575403882
 20
-28.1123565311
 30
0.0
 11
61.3295573724
 21
-28.1123565311
 31
0.0
  0
LINE
  5
3CB
330
1F
100
AcDbEntity
  8
0
  6
Continuous
 62
     7
370
    15
100
AcDbLine
 10
199.4575437141
 20
83.76264481
 30
0.0
 11
199.4575437141
 21
96.7626413529
 31
0.0
  0
LINE
  5
3CC
330
1F
100
AcDbEntity
  8
0
  6
Continuous
 62
     7
370
    15
100
AcDbLine
 10
199.4575437141
 20
-34.7373569185
 30
0.0
 11
199.4575437141
 21
-28.2373586471
 31
0.0
  0
LINE
  5
3CD
330
1F
100
AcDbEntity
  8
0
  6
Continuous
 62
     7
370
    15
100
AcDbLine
 10
199.4575437141
 20
-41.23735519
 30
0.0
 11
199.4575437141
 21
-34.7373569185
 31
0.0
  0
LINE
  5
3CE
330
1F
100
AcDbEntity
  8
0
  6
Continuous
 62
     7
370
     0
100
AcDbLine
 10
47.9547118751
 20
-30.5736670072
 30
0.0
 11
44.954711849
 21
-30.5736670072
 31
0.0
  0
LINE
  5
3CF
330
1F
100
AcDbEntity
  8
0
  6
Continuous
 62
     7
370
     0
100
AcDbLine
 10
47.9547118751
 20
86.0989531701
 30
0.0
 11
44.954711849
 21
86.0989531701
 31
0.0
  0
LINE
  5
3D0
330
1F
100
AcDbEntity
  8
0
  6
Continuous
 62
     7
370
     0
100
AcDbLine
 10
47.9547118751
 20
55.000274462
 30
0.0
 11
43.9547116851
 21
55.1761621808
 31
0.0
  0
LINE
  5
3D1
330
1F
100
AcDbEntity
  8
0
  6
Continuous
 62
     7
370
     0
100
AcDbLine
 10
47.9547118751
 20
0.5250117009
 30
0.0
 11
43.9547116851
 21
0.3491239821
 31
0.0
  0
LINE
  5
3D2
330
1F
100
AcDbEntity
  8
0
  6
Continuous
 62
     7
370
     0
100
AcDbLine
 10
47.9547118751
 20
41.9123703813
 30
0.0
 11
43.9547116851
 21
41.8555569102
 31
0.0
  0
LINE
  5
3D3
330
1F
100
AcDbEntity
  8
0
  6
Continuous
 62
     7
370
     0
100
AcDbLine
 10
47.9547118751
 20
13.6129157816
 30
0.0
 11
43.9547116851
 21
13.6697292527
 31
0.0
  0
LINE
  5
3D4
330
1F
100
AcDbEntity
  8
0
  6
Continuous
 62
     7
370
     0
100
AcDbLine
 10
60.9730601294
 20
77.9324947124
 30
0.0
 11
60.5590201897
 21
77.9478354578
 31
0.0
  0
LINE
  5
3D5
330
1F
100
AcDbEntity
  8
0
  6
Continuous
 62
     7
370
     0
100
AcDbLine
 10
60.9730601294
 20
-22.4072085495
 30
0.0
 11
60.5590257777
 21
-22.4225492949
 31
0.0
  0
LINE
  5
3D6
330
1F
100
AcDbEntity
  8
0
  6
Continuous
 62
     7
370
     0
100
AcDbLine
 10
141.3238745166
 20
77.7681051021
 30
0.0
 11
141.3238745166
 21
42.624154148
 31
0.0
  0
LINE
  5
3D7
330
1F
100
AcDbEntity
  8
0
  6
Continuous
 62
     7
370
     0
100
AcDbLine
 10
141.3238745166
 20
12.9011320149
 30
0.0
 11
141.3238745166
 21
-22.2428189392
 31
0.0
  0
LINE
  5
3D8
330
1F
100
AcDbEntity
  8
0
  6
Continuous
 62
     7
370
     0
100
AcDbLine
 10
61.2585719658
 20
74.0328273003
 30
0.0
 11
60.6141339971
 21
74.0567064112
 31
0.0
  0
LINE
  5
3D9
330
1F
100
AcDbEntity
  8
0
  6
Continuous
 62
     7
370
     0
100
AcDbLine
 10
61.2585719658
 20
-18.5075411374
 30
0.0
 11
60.6141693873
 21
-18.5314202482
 31
0.0
  0
LINE
  5
3DA
330
1F
100
AcDbEntity
  8
0
  6
Continuous
 62
     7
370
     0
100
AcDbLine
 10
136.1156132055
 20
-16.2373566801
 30
0.0
 11
136.1156132055
 21
21.7626430293
 31
0.0
  0
LINE
  5
3DB
330
1F
100
AcDbEntity
  8
0
  6
Continuous
 62
     7
370
     0
100
AcDbLine
 10
136.1156132055
 20
33.7626431336
 30
0.0
 11
136.1156132055
 21
71.762642843
 31
0.0
  0
LINE
  5
3DC
330
1F
100
AcDbEntity
  8
0
  6
Continuous
 62
     7
370
     0
100
AcDbLine
 10
133.8174816204
 20
-15.1657210464
 30
0.0
 11
133.8174816204
 21
21.7626430293
 31
0.0
  0
LINE
  5
3DD
330
1F
100
AcDbEntity
  8
0
  6
Continuous
 62
     7
370
     0
100
AcDbLine
 10
133.8174816204
 20
33.7626431336
 30
0.0
 11
133.8174816204
 21
70.6910072093
 31
0.0
  0
LINE
  5
3DE
330
1F
100
AcDbEntity
  8
0
  6
Continuous
 62
     7
370
     0
100
AcDbLine
 10
131.4585756494
 20
-12.354486602
 30
0.0
 11
131.4585756494
 21
21.7626430293
 31
0.0
  0
LINE
  5
3DF
330
1F
100
AcDbEntity
  8
0
  6
Continuous
 62
     7
370
     0
100
AcDbLine
 10
131.4585756494
 20
33.7626431336
 30
0.0
 11
131.4585756494
 21
67.879772765
 31
0.0
  0
LINE
  5
3E0
330
1F
100
AcDbEntity
  8
0
  6
Continuous
 62
     7
370
     0
100
AcDbLine
 10
127.2795673443
 20
-10.5806039447
 30
0.0
 11
127.2795673443
 21
21.7626430293
 31
0.0
  0
LINE
  5
3E1
330
1F
100
AcDbEntity
  8
0
  6
Continuous
 62
     7
370
     0
100
AcDbLine
 10
127.2795673443
 20
33.7626431336
 30
0.0
 11
127.2795673443
 21
66.1058901077
 31
0.0
  0
LINE
  5
3E2
330
1F
100
AcDbEntity
  8
0
  6
Continuous
 62
     7
370
     0
100
AcDbLine
 10
79.2297486199
 20
12.5742135768
 30
0.0
 11
62.0297480358
 21
12.5742135768
 31
0.0
  0
LINE
  5
3E3
330
1F
100
AcDbEntity
  8
0
  6
Continuous
 62
     7
370
     0
100
AcDbLine
 10
79.2297486199
 20
42.9510725861
 30
0.0
 11
62.0297480358
 21
42.9510725861
 31
0.0
  0
LINE
  5
3E4
330
1F
100
AcDbEntity
  8
0
  6
Continuous
 62
     7
370
     0
100
AcDbLine
 10
169.0475370718
 20
65.7626418596
 30
0.0
 11
169.0475370718
 21
39.7626431858
 31
0.0
  0
LINE
  5
3E5
330
1F
100
AcDbEntity
  8
0
  6
Continuous
 62
     7
370
     0
100
AcDbLine
 10
169.0475370718
 20
15.7626429771
 30
0.0
 11
169.0475370718
 21
-10.2373556966
 31
0.0
  0
LINE
  5
3E6
330
1F
100
AcDbEntity
  8
0
  6
Continuous
 62
     7
370
     0
100
AcDbLine
 10
79.2297486199
 20
62.1556183522
 30
0.0
 11
62.0297480358
 21
62.1556183522
 31
0.0
  0
LINE
  5
3E7
330
1F
100
AcDbEntity
  8
0
  6
Continuous
 62
     7
370
     0
100
AcDbLine
 10
79.2297486199
 20
-6.6303321893
 30
0.0
 11
62.0297480358
 21
-6.6303321893
 31
0.0
  0
LINE
  5
3E8
330
1F
100
AcDbEntity
  8
0
  6
CENTERX2
 62
     7
370
     0
100
AcDbLine
 10
189.9575405061
 20
27.7626430815
 30
0.0
 11
185.4575405061
 21
27.7626430815
 31
0.0
  0
LINE
  5
3E9
330
1F
100
AcDbEntity
  8
0
  6
CENTERX2
 62
     7
370
     0
100
AcDbLine
 10
202.375017219
 20
27.7626430815
 30
0.0
 11
38.954711659
 21
27.7626430815
 31
0.0
  0
ENDSEC
  0
SECTION
  2
OBJECTS
  0
DICTIONARY
  5
C
330
0
100
AcDbDictionary
281
     1
  3
ACAD_GROUP
350
D
  3
ACAD_LAYOUT
350
1A
  3
ACAD_MLINESTYLE
350
17
  3
ACAD_PLOTSETTINGS
350
19
  3
ACAD_PLOTSTYLENAME
350
E
  0
DICTIONARY
  5
D
102
{ACAD_REACTORS
330
C
102
}
330
C
100
AcDbDictionary
281
     1
  0
DICTIONARY
  5
1A
102
{ACAD_REACTORS
330
C
102
}
330
C
100
AcDbDictionary
281
     1
  3
Layout1
350
1E
  3
Layout2
350
26
  3
Model
350
22
  0
DICTIONARY
  5
17
102
{ACAD_REACTORS
330
C
102
}
330
C
100
AcDbDictionary
281
     1
  3
Standard
350
18
  0
DICTIONARY
  5
19
102
{ACAD_REACTORS
330
C
102
}
330
C
100
AcDbDictionary
281
     1
  0
ACDBDICTIONARYWDFLT
  5
E
102
{ACAD_REACTORS
330
C
102
}
330
C
100
AcDbDictionary
281
     1
  3
Normal
350
F
100
AcDbDictionaryWithDefault
340
F
  0
LAYOUT
  5
1E
102
{ACAD_REACTORS
330
1A
102
}
330
1A
100
AcDbPlotSettings
  1

  2
none_device
  4

  6

 40
0.0
 41
0.0
 42
0.0
 43
0.0
 44
0.0
 45
0.0
 46
0.0
 47
0.0
 48
0.0
 49
0.0
140
0.0
141
0.0
142
1.0
143
1.0
 70
   688
 72
     0
 73
     0
 74
     5
  7

 75
    16
147
1.0
148
0.0
149
0.0
100
AcDbLayout
  1
Layout1
 70
     1
 71
     1
 10
0.0
 20
0.0
 11
420.0
 21
297.0
 12
0.0
 22
0.0
 32
0.0
 14
1.0000000000E+20
 24
1.0000000000E+20
 34
1.0000000000E+20
 15
-1.0000000000E+20
 25
-1.0000000000E+20
 35
-1.0000000000E+20
146
0.0
 13
0.0
 23
0.0
 33
0.0
 16
1.0
 26
0.0
 36
0.0
 17
0.0
 27
1.0
 37
0.0
 76
     0
330
1B
  0
LAYOUT
  5
26
102
{ACAD_REACTORS
330
1A
102
}
330
1A
100
AcDbPlotSettings
  1

  2
none_device
  4

  6

 40
0.0
 41
0.0
 42
0.0
 43
0.0
 44
0.0
 45
0.0
 46
0.0
 47
0.0
 48
0.0
 49
0.0
140
0.0
141
0.0
142
1.0
143
1.0
 70
   688
 72
     0
 73
     0
 74
     5
  7

 75
    16
147
1.0
148
0.0
149
0.0
100
AcDbLayout
  1
Layout2
 70
     1
 71
     2
 10
0.0
 20
0.0
 11
0.0
 21
0.0
 12
0.0
 22
0.0
 32
0.0
 14
0.0
 24
0.0
 34
0.0
 15
0.0
 25
0.0
 35
0.0
146
0.0
 13
0.0
 23
0.0
 33
0.0
 16
1.0
 26
0.0
 36
0.0
 17
0.0
 27
1.0
 37
0.0
 76
     0
330
23
  0
LAYOUT
  5
22
102
{ACAD_REACTORS
330
1A
102
}
330
1A
100
AcDbPlotSettings
  1

  2
none_device
  4

  6

 40
0.0
 41
0.0
 42
0.0
 43
0.0
 44
0.0
 45
0.0
 46
0.0
 47
0.0
 48
0.0
 49
0.0
140
0.0
141
0.0
142
1.0
143
1.0
 70
  1712
 72
     0
 73
     0
 74
     0
  7

 75
     0
147
1.0
148
0.0
149
0.0
100
AcDbLayout
  1
Model
 70
     1
 71
     0
 10
0.0
 20
0.0
 11
431.8
 21
279.4
 12
0.0
 22
0.0
 32
0.0
 14
0.0
 24
0.0
 34
0.0
 15
431.8
 25
279.4
 35
0.0
146
0.0
 13
0.0
 23
0.0
 33
0.0
 16
1.0
 26
0.0
 36
0.0
 17
0.0
 27
1.0
 37
0.0
 76
     0
330
1F
331
29
  0
MLINESTYLE
  5
18
102
{ACAD_REACTORS
330
17
102
}
330
17
100
AcDbMlineStyle
  2
Standard
 70
     0
  3

 62
   256
 51
90.0
 52
90.0
 71
     2
 49
0.5
 62
   256
  6
BYLAYER
 49
-0.5
 62
   256
  6
BYLAYER
  0
ACDBPLACEHOLDER
  5
F
102
{ACAD_REACTORS
330
E
102
}
330
E
  0
ENDSEC
  0
EOF
