  0
SECTION
  2
HEADER
  9
$ACADVER
  1
AC1009
  9
$DWGCODEPAGE
  3
ansi_1252
  9
$INSBASE
 10
0.0
 20
0.0
 30
0.0
  9
$EXTMIN
 10
0.0
 20
0.0
 30
0.0
  9
$EXTMAX
 10
841.0
 20
594.0
 30
0.0
  9
$LIMMIN
 10
0.0
 20
0.0
  9
$LIMMAX
 10
841.0
 20
594.0
  9
$ORTHOMODE
 70
     0
  9
$REGENMODE
 70
     1
  9
$FILLMODE
 70
     1
  9
$QTEXTMODE
 70
     0
  9
$MIRRTEXT
 70
     1
  9
$DRAGMODE
 70
     2
  9
$LTSCALE
 40
1.0
  9
$OSMODE
 70
    37
  9
$ATTMODE
 70
     1
  9
$TEXTSIZE
 40
2.5
  9
$TRACEWID
 40
1.0
  9
$TEXTSTYLE
  7
STANDARD
  9
$CLAYER
  8
0
  9
$CELTYPE
  6
BYLAYER
  9
$CECOLOR
 62
   256
  9
$DIMSCALE
 40
1.0
  9
$DIMASZ
 40
2.5
  9
$DIMEXO
 40
1.0
  9
$DIMDLI
 40
3.75
  9
$DIMRND
 40
0.0
  9
$DIMDLE
 40
0.0
  9
$DIMEXE
 40
1.0
  9
$DIMTP
 40
0.0
  9
$DIMTM
 40
0.0
  9
$DIMTXT
 40
2.5
  9
$DIMCEN
 40
2.5
  9
$DIMTSZ
 40
0.0
  9
$DIMTOL
 70
     0
  9
$DIMLIM
 70
     0
  9
$DIMTIH
 70
     1
  9
$DIMTOH
 70
     1
  9
$DIMSE1
 70
     0
  9
$DIMSE2
 70
     0
  9
$DIMTAD
 70
     1
  9
$DIMZIN
 70
     0
  9
$DIMBLK
  1

  9
$DIMASO
 70
     1
  9
$DIMSHO
 70
     1
  9
$DIMPOST
  1

  9
$DIMAPOST
  1

  9
$DIMALT
 70
     0
  9
$DIMALTD
 70
     3
  9
$DIMALTF
 40
0.0393700787
  9
$DIMLFAC
 40
1.0
  9
$DIMTOFL
 70
     1
  9
$DIMTVP
 40
0.0
  9
$DIMTIX
 70
     0
  9
$DIMSOXD
 70
     0
  9
$DIMSAH
 70
     0
  9
$DIMBLK1
  1

  9
$DIMBLK2
  1

  9
$DIMSTYLE
  2
ISO-25
  9
$DIMCLRD
 70
     0
  9
$DIMCLRE
 70
     0
  9
$DIMCLRT
 70
     0
  9
$DIMTFAC
 40
1.0
  9
$DIMGAP
 40
1.524
  9
$LUNITS
 70
     2
  9
$LUPREC
 70
     2
  9
$SKETCHINC
 40
1.0
  9
$FILLETRAD
 40
10.0
  9
$AUNITS
 70
     0
  9
$AUPREC
 70
     2
  9
$MENU
  1
.
  9
$ELEVATION
 40
0.0
  9
$PELEVATION
 40
0.0
  9
$THICKNESS
 40
0.0
  9
$LIMCHECK
 70
     0
  9
$CHAMFERA
 40
10.0
  9
$CHAMFERB
 40
10.0
  9
$SKPOLY
 70
     0
  9
$TDCREATE
 40
2458095.490440359
  9
$TDUPDATE
 40
2458095.490441088
  9
$TDINDWG
 40
0.0000000116
  9
$TDUSRTIMER
 40
0.0000000116
  9
$USRTIMER
 70
     1
  9
$ANGBASE
 50
0.0
  9
$ANGDIR
 70
     0
  9
$PDMODE
 70
     0
  9
$PDSIZE
 40
-1.0
  9
$PLINEWID
 40
0.0
  9
$COORDS
 70
     1
  9
$SPLFRAME
 70
     0
  9
$SPLINETYPE
 70
     6
  9
$SPLINESEGS
 70
     8
  9
$ATTDIA
 70
     0
  9
$ATTREQ
 70
     1
  9
$HANDLING
 70
     1
  9
$HANDSEED
  5
806
  9
$SURFTAB1
 70
     6
  9
$SURFTAB2
 70
     6
  9
$SURFTYPE
 70
     6
  9
$SURFU
 70
     6
  9
$SURFV
 70
     6
  9
$UCSNAME
  2

  9
$UCSORG
 10
0.0
 20
0.0
 30
0.0
  9
$UCSXDIR
 10
1.0
 20
0.0
 30
0.0
  9
$UCSYDIR
 10
0.0
 20
1.0
 30
0.0
  9
$PUCSNAME
  2

  9
$PUCSORG
 10
0.0
 20
0.0
 30
0.0
  9
$PUCSXDIR
 10
1.0
 20
0.0
 30
0.0
  9
$PUCSYDIR
 10
0.0
 20
1.0
 30
0.0
  9
$USERI1
 70
     0
  9
$USERI2
 70
     0
  9
$USERI3
 70
     0
  9
$USERI4
 70
     0
  9
$USERI5
 70
     0
  9
$USERR1
 40
0.0
  9
$USERR2
 40
0.0
  9
$USERR3
 40
0.0
  9
$USERR4
 40
0.0
  9
$USERR5
 40
0.0
  9
$WORLDVIEW
 70
     1
  9
$SHADEDGE
 70
     3
  9
$SHADEDIF
 70
    70
  9
$TILEMODE
 70
     1
  9
$MAXACTVP
 70
    64
  9
$PLIMCHECK
 70
     0
  9
$PEXTMIN
 10
1.0000000000E+20
 20
1.0000000000E+20
 30
1.0000000000E+20
  9
$PEXTMAX
 10
-1.0000000000E+20
 20
-1.0000000000E+20
 30
-1.0000000000E+20
  9
$PLIMMIN
 10
0.0
 20
0.0
  9
$PLIMMAX
 10
420.0
 20
297.0
  9
$UNITMODE
 70
     0
  9
$VISRETAIN
 70
     1
  9
$PLINEGEN
 70
     0
  9
$PSLTSCALE
 70
     1
  0
ENDSEC
  0
SECTION
  2
TABLES
  0
TABLE
  2
VPORT
 70
     1
  0
VPORT
  2
*ACTIVE
 70
     0
 10
0.0
 20
0.0
 11
1.0
 21
1.0
 12
420.5
 22
297.0
 13
0.0
 23
0.0
 14
10.0
 24
10.0
 15
10.0
 25
10.0
 16
0.0
 26
0.0
 36
1.0
 17
0.0
 27
0.0
 37
0.0
 40
594.0
 41
1.4158249158
 42
50.0
 43
0.0
 44
0.0
 50
0.0
 51
0.0
 71
     0
 72
  2000
 73
     1
 74
     3
 75
     0
 76
     0
 77
     0
 78
     0
  0
ENDTAB
  0
TABLE
  2
LTYPE
 70
     6
  0
LTYPE
  2
CONTINUOUS
 70
     0
  3
Solid line
 72
    65
 73
     0
 40
0.0
  0
LTYPE
  2
HIDDEN
 70
     0
  3
Hidden __ __ __ __ __ __ __ __ __ __ __ __ __ __
 72
    65
 73
     2
 40
1.905
 49
1.27
 49
-0.635
  0
LTYPE
  2
PHANTOM
 70
     0
  3
Phantom ______  __  __  ______  __  __  ______
 72
    65
 73
     6
 40
12.7
 49
6.35
 49
-1.27
 49
1.27
 49
-1.27
 49
1.27
 49
-1.27
  0
LTYPE
  2
CENTER
 70
     0
  3
Center ____ _ ____ _ ____ _ ____ _ ____ _ ____
 72
    65
 73
     4
 40
10.16
 49
6.35
 49
-1.27
 49
1.27
 49
-1.27
  0
LTYPE
  2
CENTERX2
 70
     0
  3
Center (2x) ________  __  ________  __  _____
 72
    65
 73
     4
 40
20.32
 49
12.7
 49
-2.54
 49
2.54
 49
-2.54
  0
LTYPE
  2
DOT2
 70
     0
  3
Dot (.5x) ........................................
 72
    65
 73
     2
 40
0.635
 49
0.0
 49
-0.635
  0
ENDTAB
  0
TABLE
  2
LAYER
 70
     3
  0
LAYER
  2
0
 70
     0
 62
     7
  6
CONTINUOUS
  0
LAYER
  2
FORMAT
 70
     0
 62
     7
  6
CONTINUOUS
  0
LAYER
  2
PROTOTYPE
 70
     0
 62
     7
  6
CONTINUOUS
  0
ENDTAB
  0
TABLE
  2
STYLE
 70
     1
  0
STYLE
  2
STANDARD
 70
     0
 40
0.0
 41
1.0
 50
0.0
 71
     0
 42
2.5
  3
txt
  4

  0
ENDTAB
  0
TABLE
  2
VIEW
 70
     0
  0
ENDTAB
  0
TABLE
  2
UCS
 70
     0
  0
ENDTAB
  0
TABLE
  2
APPID
 70
     1
  0
APPID
  2
ACAD
 70
     0
  0
ENDTAB
  0
TABLE
  2
DIMSTYLE
 70
     1
  0
DIMSTYLE
  2
ISO-25
 70
     0
  3

  4

  5

  6

  7

 40
1.0
 41
2.5
 42
0.625
 43
3.75
 44
1.25
 45
0.0
 46
0.0
 47
0.0
 48
0.0
140
2.5
141
2.5
142
0.0
143
0.0393700787
144
1.0
145
0.0
146
1.0
147
0.625
 71
     0
 72
     0
 73
     0
 74
     0
 75
     0
 76
     0
 77
     1
 78
     8
170
     0
171
     3
172
     1
173
     0
174
     0
175
     0
176
     0
177
     0
178
     0
  0
ENDTAB
  0
ENDSEC
  0
SECTION
  2
BLOCKS
  0
BLOCK
  8
0
  2
$MODEL_SPACE
 70
     0
 10
0.0
 20
0.0
 30
0.0
  3
$MODEL_SPACE
  1

  0
ENDBLK
  5
21
  8
0
  0
BLOCK
 67
     1
  8
0
  2
$PAPER_SPACE
 70
     0
 10
0.0
 20
0.0
 30
0.0
  3
$PAPER_SPACE
  1

  0
ENDBLK
  5
1D
 67
     1
  8
0
  0
BLOCK
  8
0
  2
SW_CENTERMARKSYMBOL_0
 70
     0
 10
0.0
 20
0.0
 30
0.0
  3
SW_CENTERMARKSYMBOL_0
  1

  0
ARC
  5
273
  8
FORMAT
 62
     0
 10
51.265241636
 20
-51.265241636
 30
0.0
 40
72.49999999999996
 50
135.0
 51
136.9757165349
  0
ARC
  5
274
  8
FORMAT
 62
     0
 10
51.265241636
 20
-51.265241636
 30
0.0
 40
72.49999999999996
 50
133.0242834651
 51
135.0
  0
ARC
  5
275
  8
FORMAT
 62
     0
 10
51.265241636
 20
-51.265241636
 30
0.0
 40
72.5
 50
225.0
 51
226.9757165349
  0
ARC
  5
276
  8
FORMAT
 62
     0
 10
51.265241636
 20
-51.265241636
 30
0.0
 40
72.5
 50
223.0242834651
 51
225.0
  0
ARC
  5
277
  8
FORMAT
 62
     0
 10
51.265241636
 20
-51.265241636
 30
0.0
 40
72.50000000000007
 50
315.0
 51
316.9757165349
  0
ARC
  5
278
  8
FORMAT
 62
     0
 10
51.265241636
 20
-51.265241636
 30
0.0
 40
72.50000000000007
 50
313.0242834651
 51
315.0
  0
ARC
  5
279
  8
FORMAT
 62
     0
 10
51.265241636
 20
-51.265241636
 30
0.0
 40
72.50000000000006
 50
45.0
 51
46.9757165349
  0
ARC
  5
27A
  8
FORMAT
 62
     0
 10
51.265241636
 20
-51.265241636
 30
0.0
 40
72.50000000000004
 50
43.0242834651
 51
45.0
  0
ARC
  5
27B
  8
FORMAT
 62
     0
 10
51.265241636
 20
-51.265241636
 30
0.0
 40
72.49999999999999
 50
138.9514330699
 51
221.0485669301
  0
ARC
  5
27C
  8
FORMAT
 62
     0
 10
51.265241636
 20
-51.265241636
 30
0.0
 40
72.50000000000006
 50
228.9514330699
 51
311.0485669301
  0
ARC
  5
27D
  8
FORMAT
 62
     0
 10
51.265241636
 20
-51.265241636
 30
0.0
 40
72.50000000000001
 50
48.9514330699
 51
131.0485669301
  0
ARC
  5
27E
  8
FORMAT
 62
     0
 10
51.265241636
 20
-51.265241636
 30
0.0
 40
72.50000000000007
 50
318.9514330699
 51
41.0485669301
  0
LINE
  5
27F
  8
FORMAT
 62
     0
 10
0.0
 20
0.0
 30
0.0
 11
-1.767766953
 21
1.767766953
 31
0.0
  0
LINE
  5
280
  8
FORMAT
 62
     0
 10
0.0
 20
0.0
 30
0.0
 11
1.767766953
 21
-1.767766953
 31
0.0
  0
LINE
  5
281
  8
FORMAT
 62
     0
 10
-3.5355339059
 20
3.5355339059
 30
0.0
 11
-8.4852813742
 21
8.4852813742
 31
0.0
  0
LINE
  5
282
  8
FORMAT
 62
     0
 10
3.5355339059
 20
-3.5355339059
 30
0.0
 11
8.4852813742
 21
-8.4852813742
 31
0.0
  0
LINE
  5
283
  8
FORMAT
 62
     0
 10
0.0
 20
-102.530483272
 30
0.0
 11
-1.767766953
 21
-104.298250225
 31
0.0
  0
LINE
  5
284
  8
FORMAT
 62
     0
 10
0.0
 20
-102.530483272
 30
0.0
 11
1.767766953
 21
-100.7627163191
 31
0.0
  0
LINE
  5
285
  8
FORMAT
 62
     0
 10
-3.5355339059
 20
-106.066017178
 30
0.0
 11
-8.4852813742
 21
-111.0157646463
 31
0.0
  0
LINE
  5
286
  8
FORMAT
 62
     0
 10
3.5355339059
 20
-98.9949493661
 30
0.0
 11
8.4852813742
 21
-94.0452018978
 31
0.0
  0
LINE
  5
287
  8
FORMAT
 62
     0
 10
102.530483272
 20
-102.530483272
 30
0.0
 11
104.298250225
 21
-104.298250225
 31
0.0
  0
LINE
  5
288
  8
FORMAT
 62
     0
 10
102.530483272
 20
-102.530483272
 30
0.0
 11
100.7627163191
 21
-100.7627163191
 31
0.0
  0
LINE
  5
289
  8
FORMAT
 62
     0
 10
106.066017178
 20
-106.066017178
 30
0.0
 11
111.0157646463
 21
-111.0157646463
 31
0.0
  0
LINE
  5
28A
  8
FORMAT
 62
     0
 10
98.9949493661
 20
-98.9949493661
 30
0.0
 11
94.0452018978
 21
-94.0452018978
 31
0.0
  0
LINE
  5
28B
  8
FORMAT
 62
     0
 10
51.265241636
 20
-51.265241636
 30
0.0
 11
51.265241636
 21
-48.765241636
 31
0.0
  0
LINE
  5
28C
  8
FORMAT
 62
     0
 10
51.265241636
 20
-51.265241636
 30
0.0
 11
48.765241636
 21
-51.265241636
 31
0.0
  0
LINE
  5
28D
  8
FORMAT
 62
     0
 10
51.265241636
 20
-51.265241636
 30
0.0
 11
51.265241636
 21
-53.765241636
 31
0.0
  0
LINE
  5
28E
  8
FORMAT
 62
     0
 10
51.265241636
 20
-51.265241636
 30
0.0
 11
53.765241636
 21
-51.265241636
 31
0.0
  0
LINE
  5
28F
  8
FORMAT
 62
     0
 10
51.265241636
 20
-46.265241636
 30
0.0
 11
51.265241636
 21
200.0468287
 31
0.0
  0
LINE
  5
290
  8
FORMAT
 62
     0
 10
46.265241636
 20
-51.265241636
 30
0.0
 11
-47.3132021267
 21
-51.265241636
 31
0.0
  0
LINE
  5
291
  8
FORMAT
 62
     0
 10
51.265241636
 20
-56.265241636
 30
0.0
 11
51.265241636
 21
-146.39371528
 31
0.0
  0
LINE
  5
292
  8
FORMAT
 62
     0
 10
56.265241636
 20
-51.265241636
 30
0.0
 11
148.7345475675
 21
-51.265241636
 31
0.0
  0
LINE
  5
293
  8
FORMAT
 62
     0
 10
102.530483272
 20
0.0
 30
0.0
 11
104.298250225
 21
1.767766953
 31
0.0
  0
LINE
  5
294
  8
FORMAT
 62
     0
 10
102.530483272
 20
0.0
 30
0.0
 11
100.7627163191
 21
-1.767766953
 31
0.0
  0
LINE
  5
295
  8
FORMAT
 62
     0
 10
106.066017178
 20
3.5355339059
 30
0.0
 11
111.0157646463
 21
8.4852813742
 31
0.0
  0
LINE
  5
296
  8
FORMAT
 62
     0
 10
98.9949493661
 20
-3.5355339059
 30
0.0
 11
94.0452018978
 21
-8.4852813742
 31
0.0
  0
ENDBLK
  5
272
  8
0
  0
ENDSEC
  0
SECTION
  2
ENTITIES
  0
ARC
  5
46
  8
0
  6
CONTINUOUS
 62
     7
 10
159.5973096793
 20
240.9892656977
 30
0.0
 40
3.0
 50
180.0
 51
270.0
  0
ARC
  5
47
  8
0
  6
CONTINUOUS
 62
     7
 10
159.5973096793
 20
419.9892656977
 30
0.0
 40
3.0
 50
90.0
 51
180.0
  0
ARC
  5
48
  8
0
  6
CONTINUOUS
 62
     7
 10
317.5973096793
 20
419.9892656977
 30
0.0
 40
3.0
 50
0.0
 51
90.0
  0
ARC
  5
49
  8
0
  6
CONTINUOUS
 62
     7
 10
317.5973096793
 20
240.9892656977
 30
0.0
 40
3.0
 50
270.0
 51
0.0
  0
ARC
  5
4A
  8
0
  6
CONTINUOUS
 62
     7
 10
310.5973096793
 20
419.9892656977
 30
0.0
 40
3.0
 50
90.0
 51
180.0
  0
ARC
  5
4B
  8
0
  6
CONTINUOUS
 62
     7
 10
166.5973096793
 20
419.9892656977
 30
0.0
 40
3.0
 50
0.0
 51
90.0
  0
LINE
  5
4C
  8
0
  6
CONTINUOUS
 62
     7
 10
317.5973133152
 20
422.9892668898
 30
0.0
 11
310.5973065799
 21
422.9892668898
 31
0.0
  0
LINE
  5
4D
  8
0
  6
CONTINUOUS
 62
     7
 10
166.5973127788
 20
422.9892668898
 30
0.0
 11
159.5973060435
 21
422.9892668898
 31
0.0
  0
LINE
  5
4E
  8
0
  6
CONTINUOUS
 62
     7
 10
159.5973060435
 20
237.9892645056
 30
0.0
 11
165.5973107522
 21
237.9892645056
 31
0.0
  0
LINE
  5
4F
  8
0
  6
CONTINUOUS
 62
     7
 10
311.5973086065
 20
237.9892645056
 30
0.0
 11
317.5973133152
 21
237.9892645056
 31
0.0
  0
LINE
  5
50
  8
0
  6
CONTINUOUS
 62
     7
 10
277.1873683637
 20
433.592158335
 30
0.0
 11
276.5973084574
 21
450.4892630155
 31
0.0
  0
LINE
  5
51
  8
0
  6
CONTINUOUS
 62
     7
 10
200.5973109012
 20
450.4892630155
 30
0.0
 11
200.007250995
 21
433.592158335
 31
0.0
  0
LINE
  5
52
  8
0
  6
CONTINUOUS
 62
     7
 10
192.0973085767
 20
432.4892637904
 30
0.0
 11
191.7304568892
 21
425.4892645056
 31
0.0
  0
LINE
  5
53
  8
0
  6
CONTINUOUS
 62
     7
 10
285.4641624695
 20
425.4892645056
 30
0.0
 11
285.097310782
 21
432.4892637904
 31
0.0
  0
LINE
  5
54
  8
0
  6
CONTINUOUS
 62
     7
 10
285.097310782
 20
432.4892637904
 30
0.0
 11
285.097310782
 21
433.0539507444
 31
0.0
  0
LINE
  5
55
  8
0
  6
CONTINUOUS
 62
     7
 10
192.0973085767
 20
433.0539507444
 30
0.0
 11
192.0973085767
 21
432.4892637904
 31
0.0
  0
LINE
  5
56
  8
0
  6
CONTINUOUS
 62
     7
 10
200.03734389
 20
434.453996795
 30
0.0
 11
192.0973085767
 21
433.0539507444
 31
0.0
  0
LINE
  5
57
  8
0
  6
CONTINUOUS
 62
     7
 10
285.097310782
 20
433.0539507444
 30
0.0
 11
277.1572754687
 21
434.453996795
 31
0.0
  0
LINE
  5
58
  8
0
  6
CONTINUOUS
 62
     7
 10
192.7335620826
 20
425.4892645056
 30
0.0
 11
193.1302868729
 21
417.9193107064
 31
0.0
  0
LINE
  5
59
  8
0
  6
CONTINUOUS
 62
     7
 10
284.0643324857
 20
417.9193107064
 30
0.0
 11
284.4610572761
 21
425.4892645056
 31
0.0
  0
LINE
  5
5A
  8
0
  6
CONTINUOUS
 62
     7
 10
193.1302868729
 20
417.9193107064
 30
0.0
 11
199.0969986623
 21
416.8672216709
 31
0.0
  0
LINE
  5
5B
  8
0
  6
CONTINUOUS
 62
     7
 10
278.0976206964
 20
416.8672216709
 30
0.0
 11
284.0643324857
 21
417.9193107064
 31
0.0
  0
LINE
  5
5C
  8
0
  6
CONTINUOUS
 62
     7
 10
320.5973119443
 20
272.4892673667
 30
0.0
 11
323.5973105734
 21
275.4892659958
 31
0.0
  0
LINE
  5
5D
  8
0
  6
CONTINUOUS
 62
     7
 10
323.5973105734
 20
385.4892653997
 30
0.0
 11
320.5973119443
 21
388.4892640288
 31
0.0
  0
LINE
  5
5E
  8
0
  6
CONTINUOUS
 62
     7
 10
156.5973074144
 20
388.4892640288
 30
0.0
 11
153.5973087853
 21
385.4892653997
 31
0.0
  0
LINE
  5
5F
  8
0
  6
CONTINUOUS
 62
     7
 10
153.5973087853
 20
275.4892659958
 30
0.0
 11
156.5973074144
 21
272.4892673667
 31
0.0
  0
ARC
  5
60
  8
0
  6
CONTINUOUS
 62
     7
 10
221.2973096793
 20
454.2309223286
 30
0.0
 40
19.0
 50
131.1922807232
 51
166.4426152828
  0
ARC
  5
61
  8
0
  6
CONTINUOUS
 62
     7
 10
255.8973096793
 20
454.2309223286
 30
0.0
 40
19.00000000000001
 50
13.557598514
 51
48.8075000383
  0
ARC
  5
62
  8
0
  6
CONTINUOUS
 62
     7
 10
301.5973096793
 20
378.4352840126
 30
0.0
 40
6.000000000000051
 50
351.529431365
 51
0.0
  0
ARC
  5
63
  8
0
  6
CONTINUOUS
 62
     7
 10
301.5973096793
 20
282.5432473828
 30
0.0
 40
6.0
 50
0.0
 51
8.4708605842
  0
ARC
  5
64
  8
0
  6
CONTINUOUS
 62
     7
 10
175.5973096793
 20
282.5432473828
 30
0.0
 40
6.000000000000013
 50
171.529431365
 51
180.0
  0
ARC
  5
65
  8
0
  6
CONTINUOUS
 62
     7
 10
175.5973096793
 20
378.4352840126
 30
0.0
 40
6.000000000000026
 50
180.0
 51
188.4708605842
  0
LINE
  5
66
  8
0
  6
CONTINUOUS
 62
     7
 10
202.8267406827
 20
458.6849240239
 30
0.0
 11
202.6836858099
 21
450.4892630155
 31
0.0
  0
LINE
  5
67
  8
0
  6
CONTINUOUS
 62
     7
 10
274.5109335488
 20
450.4892630155
 30
0.0
 11
274.367878676
 21
458.6849240239
 31
0.0
  0
LINE
  5
68
  8
0
  6
CONTINUOUS
 62
     7
 10
268.41051364
 20
468.5284671958
 30
0.0
 11
268.0973098582
 21
480.4892716582
 31
0.0
  0
LINE
  5
69
  8
0
  6
CONTINUOUS
 62
     7
 10
209.0973095005
 20
480.4892716582
 30
0.0
 11
208.7841057187
 21
468.5284671958
 31
0.0
  0
LINE
  5
6A
  8
0
  6
CONTINUOUS
 62
     7
 10
251.2357835626
 20
530.489268678
 30
0.0
 11
251.2209913662
 21
530.5444774802
 31
0.0
  0
LINE
  5
6B
  8
0
  6
CONTINUOUS
 62
     7
 10
225.9736279925
 20
530.5444774802
 30
0.0
 11
225.9588357961
 21
530.489268678
 31
0.0
  0
ARC
  5
6C
  8
0
  6
CONTINUOUS
 62
     7
 10
250.9312131981
 20
530.4668251056
 30
0.0
 40
0.3000000000000682
 50
15.0
 51
90.0
  0
ARC
  5
6D
  8
0
  6
CONTINUOUS
 62
     7
 10
226.2634061606
 20
530.4668251056
 30
0.0
 40
0.3000000000000682
 50
90.0
 51
165.0
  0
LINE
  5
6E
  8
0
  6
CONTINUOUS
 62
     7
 10
227.097309657
 20
539.2737416203
 30
0.0
 11
227.097309657
 21
530.7668177064
 31
0.0
  0
LINE
  5
6F
  8
0
  6
CONTINUOUS
 62
     7
 10
250.0973097017
 20
530.7668177064
 30
0.0
 11
250.0973097017
 21
539.2737416203
 31
0.0
  0
LINE
  5
70
  8
0
  6
CONTINUOUS
 62
     7
 10
265.0936511313
 20
480.4892716582
 30
0.0
 11
264.6657493865
 21
486.6085378106
 31
0.0
  0
LINE
  5
71
  8
0
  6
CONTINUOUS
 62
     7
 10
212.5288699722
 20
486.6085378106
 30
0.0
 11
212.1009682273
 21
480.4892716582
 31
0.0
  0
LINE
  5
72
  8
0
  6
CONTINUOUS
 62
     7
 10
169.195382387
 20
330.4892656977
 30
0.0
 11
156.9992364352
 21
330.4892656977
 31
0.0
  0
ARC
  5
73
  8
0
  6
CONTINUOUS
 62
     7
 10
159.588272259
 20
328.9809664447
 30
0.0
 40
2.996343293672745
 50
89.8272566079
 51
149.7761286717
  0
LINE
  5
74
  8
0
  6
CONTINUOUS
 62
     7
 10
159.5973060435
 20
331.9772961202
 30
0.0
 11
166.5973127788
 21
331.9772961202
 31
0.0
  0
ARC
  5
75
  8
0
  6
CONTINUOUS
 62
     7
 10
166.6098074922
 20
328.9870091535
 30
0.0
 40
2.990313070776338
 50
30.1572095437
 51
90.2394051767
  0
LINE
  5
76
  8
0
  6
CONTINUOUS
 62
     7
 10
156.5973074144
 20
240.9892631347
 30
0.0
 11
156.5973074144
 21
419.9892682607
 31
0.0
  0
ARC
  5
77
  8
0
  6
CONTINUOUS
 62
     7
 10
159.58481133
 20
331.991522242
 30
0.0
 40
2.990313070776338
 50
210.1572095437
 51
270.2394051767
  0
LINE
  5
78
  8
0
  6
CONTINUOUS
 62
     7
 10
320.5973119443
 20
240.9892631347
 30
0.0
 11
320.5973119443
 21
419.9892682607
 31
0.0
  0
ARC
  5
79
  8
0
  6
CONTINUOUS
 62
     7
 10
317.6098080287
 20
331.991522242
 30
0.0
 40
2.990313070776338
 50
269.7605948233
 51
329.8427904563
  0
ARC
  5
7A
  8
0
  6
CONTINUOUS
 62
     7
 10
317.6063470996
 20
328.9809664447
 30
0.0
 40
2.996343293672794
 50
30.2238713283
 51
90.1727433921
  0
LINE
  5
7B
  8
0
  6
CONTINUOUS
 62
     7
 10
317.5973133152
 20
331.9772961202
 30
0.0
 11
310.5973065799
 21
331.9772961202
 31
0.0
  0
LINE
  5
7C
  8
0
  6
CONTINUOUS
 62
     7
 10
307.9992369717
 20
330.4892656977
 30
0.0
 11
320.1953829234
 21
330.4892656977
 31
0.0
  0
ARC
  5
7D
  8
0
  6
CONTINUOUS
 62
     7
 10
310.5848118665
 20
328.9870091535
 30
0.0
 40
2.990313070776338
 50
89.7605948233
 51
149.8427904563
  0
LINE
  5
7E
  8
0
  6
CONTINUOUS
 62
     7
 10
307.5973079508
 20
255.9915361579
 30
0.0
 11
307.5973079508
 21
419.9892682607
 31
0.0
  0
ARC
  5
7F
  8
0
  6
CONTINUOUS
 62
     7
 10
310.588264343
 20
331.997550193
 30
0.0
 40
2.996328561429592
 50
210.2237088504
 51
270.17290587
  0
LINE
  5
80
  8
0
  6
CONTINUOUS
 62
     7
 10
166.5973127788
 20
329.0012352753
 30
0.0
 11
159.5973060435
 21
329.0012352753
 31
0.0
  0
ARC
  5
81
  8
0
  6
CONTINUOUS
 62
     7
 10
166.6063550157
 20
331.997550193
 30
0.0
 40
2.996328561429592
 50
269.82709413
 51
329.7762911496
  0
LINE
  5
82
  8
0
  6
CONTINUOUS
 62
     7
 10
169.5973114079
 20
255.9915361579
 30
0.0
 11
169.5973114079
 21
419.9892682607
 31
0.0
  0
LINE
  5
83
  8
0
  6
CONTINUOUS
 62
     7
 10
310.5973065799
 20
329.0012352753
 30
0.0
 11
317.5973133152
 21
329.0012352753
 31
0.0
  0
ARC
  5
84
  8
0
  6
CONTINUOUS
 62
     7
 10
173.6042715874
 20
238.0809852177
 30
0.0
 40
17.3690815340364
 50
117.4509640267
 51
125.1514636625
  0
ARC
  5
85
  8
0
  6
CONTINUOUS
 62
     7
 10
165.0158096514
 20
250.3152758121
 30
0.0
 40
2.421298746997486
 50
125.6616496115
 51
177.2436851273
  0
ARC
  5
86
  8
0
  6
CONTINUOUS
 62
     7
 10
312.1788097072
 20
250.3152758121
 30
0.0
 40
2.421298746997486
 50
2.7563148727
 51
54.3383503885
  0
ARC
  5
87
  8
0
  6
CONTINUOUS
 62
     7
 10
303.5903477713
 20
238.0809852177
 30
0.0
 40
17.36908153403643
 50
54.8485363375
 51
62.5490359733
  0
LINE
  5
88
  8
0
  6
CONTINUOUS
 62
     7
 10
269.4684886342
 20
425.4892645056
 30
0.0
 11
207.7261307245
 21
425.4892645056
 31
0.0
  0
LINE
  5
89
  8
0
  6
CONTINUOUS
 62
     7
 10
269.3953611856
 20
432.4892637904
 30
0.0
 11
207.7992581731
 21
432.4892637904
 31
0.0
  0
LINE
  5
8A
  8
0
  6
CONTINUOUS
 62
     7
 10
250.4954398578
 20
435.3577894743
 30
0.0
 11
251.3259579396
 21
435.0274530823
 31
0.0
  0
POLYLINE
  5
8B
  8
0
  6
CONTINUOUS
 62
     7
 66
     1
 10
0.0
 20
0.0
 30
0.0
  0
VERTEX
  5
37E
  8
0
  6
CONTINUOUS
 62
     7
 10
251.3259579396
 20
435.0274530823
 30
0.0
  0
VERTEX
  5
37F
  8
0
  6
CONTINUOUS
 62
     7
 10
251.7538624784
 20
434.8713112648
 30
0.0
  0
VERTEX
  5
380
  8
0
  6
CONTINUOUS
 62
     7
 10
252.2421698054
 20
434.7192151125
 30
0.0
  0
VERTEX
  5
381
  8
0
  6
CONTINUOUS
 62
     7
 10
252.7872356554
 20
434.5721928056
 30
0.0
  0
VERTEX
  5
382
  8
0
  6
CONTINUOUS
 62
     7
 10
253.3854111066
 20
434.431257623
 30
0.0
  0
VERTEX
  5
383
  8
0
  6
CONTINUOUS
 62
     7
 10
254.0099830335
 20
434.3018112357
 30
0.0
  0
VERTEX
  5
384
  8
0
  6
CONTINUOUS
 62
     7
 10
254.6820347166
 20
434.1783476646
 30
0.0
  0
VERTEX
  5
385
  8
0
  6
CONTINUOUS
 62
     7
 10
255.3967372482
 20
434.0615970667
 30
0.0
  0
VERTEX
  5
386
  8
0
  6
CONTINUOUS
 62
     7
 10
256.1492589271
 20
433.9522895987
 30
0.0
  0
VERTEX
  5
387
  8
0
  6
CONTINUOUS
 62
     7
 10
256.9347699141
 20
433.8511628683
 30
0.0
  0
VERTEX
  5
388
  8
0
  6
CONTINUOUS
 62
     7
 10
257.7447337067
 20
433.7592078026
 30
0.0
  0
VERTEX
  5
389
  8
0
  6
CONTINUOUS
 62
     7
 10
258.5852690941
 20
433.6753813203
 30
0.0
  0
VERTEX
  5
38A
  8
0
  6
CONTINUOUS
 62
     7
 10
259.4504174745
 20
433.6001379068
 30
0.0
  0
VERTEX
  5
38B
  8
0
  6
CONTINUOUS
 62
     7
 10
260.3342165207
 20
433.53396185
 30
0.0
  0
VERTEX
  5
38C
  8
0
  6
CONTINUOUS
 62
     7
 10
261.2307001805
 20
433.4773150857
 30
0.0
  0
VERTEX
  5
38D
  8
0
  6
CONTINUOUS
 62
     7
 10
262.1275284296
 20
433.4308458145
 30
0.0
  0
VERTEX
  5
38E
  8
0
  6
CONTINUOUS
 62
     7
 10
263.0345732873
 20
433.3937195714
 30
0.0
  0
VERTEX
  5
38F
  8
0
  6
CONTINUOUS
 62
     7
 10
263.9455725407
 20
433.3661077197
 30
0.0
  0
VERTEX
  5
390
  8
0
  6
CONTINUOUS
 62
     7
 10
264.8542602515
 20
433.3481741722
 30
0.0
  0
VERTEX
  5
391
  8
0
  6
CONTINUOUS
 62
     7
 10
265.7543742066
 20
433.3400977428
 30
0.0
  0
VERTEX
  5
392
  8
0
  6
CONTINUOUS
 62
     7
 10
266.5878091907
 20
433.3415133531
 30
0.0
  0
VERTEX
  5
393
  8
0
  6
CONTINUOUS
 62
     7
 10
267.4111132478
 20
433.3515045817
 30
0.0
  0
VERTEX
  5
394
  8
0
  6
CONTINUOUS
 62
     7
 10
268.2193596816
 20
433.3700043733
 30
0.0
  0
VERTEX
  5
395
  8
0
  6
CONTINUOUS
 62
     7
 10
269.0076255208
 20
433.396923321
 30
0.0
  0
SEQEND
  5
805
  8
0
  6
CONTINUOUS
 62
     7
  0
LINE
  5
8C
  8
0
  6
CONTINUOUS
 62
     7
 10
207.7992581731
 20
433.0539507444
 30
0.0
 11
269.3953611856
 21
433.0539507444
 31
0.0
  0
POLYLINE
  5
8D
  8
0
  6
CONTINUOUS
 62
     7
 66
     1
 10
0.0
 20
0.0
 30
0.0
  0
VERTEX
  5
396
  8
0
  6
CONTINUOUS
 62
     7
 10
225.8686614191
 20
435.0274530823
 30
0.0
  0
VERTEX
  5
397
  8
0
  6
CONTINUOUS
 62
     7
 10
225.4407568803
 20
434.8713112648
 30
0.0
  0
VERTEX
  5
398
  8
0
  6
CONTINUOUS
 62
     7
 10
224.9524495533
 20
434.7192151125
 30
0.0
  0
VERTEX
  5
399
  8
0
  6
CONTINUOUS
 62
     7
 10
224.4073837032
 20
434.5721928056
 30
0.0
  0
VERTEX
  5
39A
  8
0
  6
CONTINUOUS
 62
     7
 10
223.8092082521
 20
434.431257623
 30
0.0
  0
VERTEX
  5
39B
  8
0
  6
CONTINUOUS
 62
     7
 10
223.1846363252
 20
434.3018112357
 30
0.0
  0
VERTEX
  5
39C
  8
0
  6
CONTINUOUS
 62
     7
 10
222.5125846421
 20
434.1783476646
 30
0.0
  0
VERTEX
  5
39D
  8
0
  6
CONTINUOUS
 62
     7
 10
221.7978821104
 20
434.0615970667
 30
0.0
  0
VERTEX
  5
39E
  8
0
  6
CONTINUOUS
 62
     7
 10
221.0453604316
 20
433.9522895987
 30
0.0
  0
VERTEX
  5
39F
  8
0
  6
CONTINUOUS
 62
     7
 10
220.2598494446
 20
433.8511628683
 30
0.0
  0
VERTEX
  5
3A0
  8
0
  6
CONTINUOUS
 62
     7
 10
219.449885652
 20
433.7592078026
 30
0.0
  0
VERTEX
  5
3A1
  8
0
  6
CONTINUOUS
 62
     7
 10
218.6093502646
 20
433.6753813203
 30
0.0
  0
VERTEX
  5
3A2
  8
0
  6
CONTINUOUS
 62
     7
 10
217.7442018842
 20
433.6001379068
 30
0.0
  0
VERTEX
  5
3A3
  8
0
  6
CONTINUOUS
 62
     7
 10
216.8604028379
 20
433.53396185
 30
0.0
  0
VERTEX
  5
3A4
  8
0
  6
CONTINUOUS
 62
     7
 10
215.9639191782
 20
433.4773150857
 30
0.0
  0
VERTEX
  5
3A5
  8
0
  6
CONTINUOUS
 62
     7
 10
215.0670909291
 20
433.4308458145
 30
0.0
  0
VERTEX
  5
3A6
  8
0
  6
CONTINUOUS
 62
     7
 10
214.1600460714
 20
433.3937195714
 30
0.0
  0
VERTEX
  5
3A7
  8
0
  6
CONTINUOUS
 62
     7
 10
213.249046818
 20
433.3661077197
 30
0.0
  0
VERTEX
  5
3A8
  8
0
  6
CONTINUOUS
 62
     7
 10
212.3403591072
 20
433.3481741722
 30
0.0
  0
VERTEX
  5
3A9
  8
0
  6
CONTINUOUS
 62
     7
 10
211.4402451521
 20
433.3400977428
 30
0.0
  0
VERTEX
  5
3AA
  8
0
  6
CONTINUOUS
 62
     7
 10
210.606810168
 20
433.3415133531
 30
0.0
  0
VERTEX
  5
3AB
  8
0
  6
CONTINUOUS
 62
     7
 10
209.7835061109
 20
433.3515045817
 30
0.0
  0
VERTEX
  5
3AC
  8
0
  6
CONTINUOUS
 62
     7
 10
208.9752596771
 20
433.3700043733
 30
0.0
  0
VERTEX
  5
3AD
  8
0
  6
CONTINUOUS
 62
     7
 10
208.1869938379
 20
433.396923321
 30
0.0
  0
SEQEND
  5
804
  8
0
  6
CONTINUOUS
 62
     7
  0
LINE
  5
8E
  8
0
  6
CONTINUOUS
 62
     7
 10
226.6991795009
 20
435.3577894743
 30
0.0
 11
225.8686614191
 21
435.0274530823
 31
0.0
  0
POLYLINE
  5
8F
  8
0
  6
CONTINUOUS
 62
     7
 66
     1
 10
0.0
 20
0.0
 30
0.0
  0
VERTEX
  5
3AE
  8
0
  6
CONTINUOUS
 62
     7
 10
250.4954398578
 20
435.3577894743
 30
0.0
  0
VERTEX
  5
3AF
  8
0
  6
CONTINUOUS
 62
     7
 10
244.5468031769
 20
435.4241592462
 30
0.0
  0
VERTEX
  5
3B0
  8
0
  6
CONTINUOUS
 62
     7
 10
238.5975096793
 20
435.4463247235
 30
0.0
  0
VERTEX
  5
3B1
  8
0
  6
CONTINUOUS
 62
     7
 10
232.6483442416
 20
435.4241592462
 30
0.0
  0
VERTEX
  5
3B2
  8
0
  6
CONTINUOUS
 62
     7
 10
226.6991795009
 20
435.3577894743
 30
0.0
  0
SEQEND
  5
803
  8
0
  6
CONTINUOUS
 62
     7
  0
LINE
  5
90
  8
0
  6
CONTINUOUS
 62
     7
 10
269.0650843983
 20
417.9193107064
 30
0.0
 11
208.1295349603
 21
417.9193107064
 31
0.0
  0
ARC
  5
91
  8
0
  6
CONTINUOUS
 62
     7
 10
211.9998997299
 20
364.9998961979
 30
0.0
 40
52.0699654365668
 50
88.1887161921
 51
93.1276326241
  0
ARC
  5
92
  8
0
  6
CONTINUOUS
 62
     7
 10
265.1947196288
 20
364.9998961979
 30
0.0
 40
52.0699654365668
 50
86.8723673759
 51
91.8112838079
  0
POLYLINE
  5
93
  8
0
  6
CONTINUOUS
 62
     7
 66
     1
 10
0.0
 20
0.0
 30
0.0
  0
VERTEX
  5
3B3
  8
0
  6
CONTINUOUS
 62
     7
 10
213.6457064157
 20
417.0438451345
 30
0.0
  0
VERTEX
  5
3B4
  8
0
  6
CONTINUOUS
 62
     7
 10
219.8816915011
 20
416.8825177129
 30
0.0
  0
VERTEX
  5
3B5
  8
0
  6
CONTINUOUS
 62
     7
 10
226.1186880028
 20
416.7666313823
 30
0.0
  0
VERTEX
  5
3B6
  8
0
  6
CONTINUOUS
 62
     7
 10
232.3577250322
 20
416.6968343432
 30
0.0
  0
VERTEX
  5
3B7
  8
0
  6
CONTINUOUS
 62
     7
 10
238.5971096793
 20
416.673514026
 30
0.0
  0
VERTEX
  5
3B8
  8
0
  6
CONTINUOUS
 62
     7
 10
244.8352337783
 20
416.6968194421
 30
0.0
  0
VERTEX
  5
3B9
  8
0
  6
CONTINUOUS
 62
     7
 10
251.0730107283
 20
416.7665866788
 30
0.0
  0
VERTEX
  5
3BA
  8
0
  6
CONTINUOUS
 62
     7
 10
257.3114675438
 20
416.8824879105
 30
0.0
  0
VERTEX
  5
3BB
  8
0
  6
CONTINUOUS
 62
     7
 10
263.548912943
 20
417.0438451345
 30
0.0
  0
SEQEND
  5
802
  8
0
  6
CONTINUOUS
 62
     7
  0
LINE
  5
94
  8
0
  6
CONTINUOUS
 62
     7
 10
269.3953611856
 20
432.4892637904
 30
0.0
 11
279.6073281174
 21
432.4892637904
 31
0.0
  0
LINE
  5
95
  8
0
  6
CONTINUOUS
 62
     7
 10
269.4684886342
 20
425.4892645056
 30
0.0
 11
279.9686328476
 21
425.4892645056
 31
0.0
  0
LINE
  5
96
  8
0
  6
CONTINUOUS
 62
     7
 10
207.7992581731
 20
432.4892637904
 30
0.0
 11
197.5872912412
 21
432.4892637904
 31
0.0
  0
LINE
  5
97
  8
0
  6
CONTINUOUS
 62
     7
 10
207.7261307245
 20
425.4892645056
 30
0.0
 11
197.2259865111
 21
425.4892645056
 31
0.0
  0
LINE
  5
98
  8
0
  6
CONTINUOUS
 62
     7
 10
279.6073281174
 20
433.0539507444
 30
0.0
 11
269.3953611856
 21
433.0539507444
 31
0.0
  0
LINE
  5
99
  8
0
  6
CONTINUOUS
 62
     7
 10
197.5872912412
 20
433.0539507444
 30
0.0
 11
207.7992581731
 21
433.0539507444
 31
0.0
  0
ARC
  5
9A
  8
0
  6
CONTINUOUS
 62
     7
 10
275.5780432731
 20
308.4906054702
 30
0.0
 40
125.0790095439459
 50
89.4593879677
 51
93.0111411755
  0
ARC
  5
9B
  8
0
  6
CONTINUOUS
 62
     7
 10
201.6165760856
 20
308.4906054702
 30
0.0
 40
125.0790095439459
 50
86.9888588245
 51
90.5406120323
  0
LINE
  5
9C
  8
0
  6
CONTINUOUS
 62
     7
 10
276.5973084574
 20
450.4892630155
 30
0.0
 11
251.8153083479
 21
450.4892630155
 31
0.0
  0
POLYLINE
  5
9D
  8
0
  6
CONTINUOUS
 62
     7
 66
     1
 10
0.0
 20
0.0
 30
0.0
  0
VERTEX
  5
3BC
  8
0
  6
CONTINUOUS
 62
     7
 10
276.7582037454
 20
433.5640472944
 30
0.0
  0
VERTEX
  5
3BD
  8
0
  6
CONTINUOUS
 62
     7
 10
276.9692935949
 20
433.5564998563
 30
0.0
  0
VERTEX
  5
3BE
  8
0
  6
CONTINUOUS
 62
     7
 10
277.1100276118
 20
433.5610894139
 30
0.0
  0
VERTEX
  5
3BF
  8
0
  6
CONTINUOUS
 62
     7
 10
277.1801934546
 20
433.5783524091
 30
0.0
  0
VERTEX
  5
3C0
  8
0
  6
CONTINUOUS
 62
     7
 10
277.178133369
 20
433.59183796
 30
0.0
  0
SEQEND
  5
801
  8
0
  6
CONTINUOUS
 62
     7
  0
POLYLINE
  5
9E
  8
0
  6
CONTINUOUS
 62
     7
 66
     1
 10
0.0
 20
0.0
 30
0.0
  0
VERTEX
  5
3C1
  8
0
  6
CONTINUOUS
 62
     7
 10
200.4364156132
 20
433.5640472944
 30
0.0
  0
VERTEX
  5
3C2
  8
0
  6
CONTINUOUS
 62
     7
 10
200.2253257638
 20
433.5564998563
 30
0.0
  0
VERTEX
  5
3C3
  8
0
  6
CONTINUOUS
 62
     7
 10
200.0845917469
 20
433.5610894139
 30
0.0
  0
VERTEX
  5
3C4
  8
0
  6
CONTINUOUS
 62
     7
 10
200.0144259041
 20
433.5783524091
 30
0.0
  0
VERTEX
  5
3C5
  8
0
  6
CONTINUOUS
 62
     7
 10
200.0164859896
 20
433.59183796
 30
0.0
  0
SEQEND
  5
800
  8
0
  6
CONTINUOUS
 62
     7
  0
LINE
  5
9F
  8
0
  6
CONTINUOUS
 62
     7
 10
200.5973109012
 20
450.4892630155
 30
0.0
 11
225.3793110108
 21
450.4892630155
 31
0.0
  0
LINE
  5
A0
  8
0
  6
CONTINUOUS
 62
     7
 10
279.0372879213
 20
417.9193107064
 30
0.0
 11
269.0650843983
 21
417.9193107064
 31
0.0
  0
LINE
  5
A1
  8
0
  6
CONTINUOUS
 62
     7
 10
198.1573314374
 20
417.9193107064
 30
0.0
 11
208.1295349603
 21
417.9193107064
 31
0.0
  0
ARC
  5
A2
  8
0
  6
CONTINUOUS
 62
     7
 10
272.8915433187
 20
481.484644877
 30
0.0
 40
64.6748925563241
 50
265.6941139154
 51
269.9422744821
  0
ARC
  5
A3
  8
0
  6
CONTINUOUS
 62
     7
 10
204.30307604
 20
481.484644877
 30
0.0
 40
64.6748925563241
 50
270.0577255179
 51
274.3058860846
  0
LINE
  5
A4
  8
0
  6
CONTINUOUS
 62
     7
 10
220.5973104542
 20
413.5915664609
 30
0.0
 11
233.7115951782
 21
413.5915664609
 31
0.0
  0
LINE
  5
A5
  8
0
  6
CONTINUOUS
 62
     7
 10
233.7115951782
 20
413.5915664609
 30
0.0
 11
238.5973096793
 21
401.6080079253
 31
0.0
  0
LINE
  5
A6
  8
0
  6
CONTINUOUS
 62
     7
 10
238.5973096793
 20
401.6080079253
 30
0.0
 11
243.4830241805
 21
413.5915664609
 31
0.0
  0
LINE
  5
A7
  8
0
  6
CONTINUOUS
 62
     7
 10
243.4830241805
 20
413.5915664609
 30
0.0
 11
256.5973089045
 21
413.5915664609
 31
0.0
  0
LINE
  5
A8
  8
0
  6
CONTINUOUS
 62
     7
 10
256.5973089045
 20
413.5915664609
 30
0.0
 11
256.5973089045
 21
410.039293545
 31
0.0
  0
LINE
  5
A9
  8
0
  6
CONTINUOUS
 62
     7
 10
256.5973089045
 20
410.039293545
 30
0.0
 11
245.921700724
 21
410.039293545
 31
0.0
  0
LINE
  5
AA
  8
0
  6
CONTINUOUS
 62
     7
 10
245.921700724
 20
410.039293545
 30
0.0
 11
240.3903742056
 21
396.4722035105
 31
0.0
  0
LINE
  5
AB
  8
0
  6
CONTINUOUS
 62
     7
 10
240.3903742056
 20
396.4722035105
 30
0.0
 11
236.8042451531
 21
396.4722035105
 31
0.0
  0
LINE
  5
AC
  8
0
  6
CONTINUOUS
 62
     7
 10
236.8042451531
 20
396.4722035105
 30
0.0
 11
231.2729186347
 21
410.039293545
 31
0.0
  0
LINE
  5
AD
  8
0
  6
CONTINUOUS
 62
     7
 10
231.2729186347
 20
410.039293545
 30
0.0
 11
220.5973104542
 21
410.039293545
 31
0.0
  0
LINE
  5
AE
  8
0
  6
CONTINUOUS
 62
     7
 10
220.5973104542
 20
410.039293545
 30
0.0
 11
220.5973104542
 21
413.5915664609
 31
0.0
  0
LINE
  5
AF
  8
0
  6
CONTINUOUS
 62
     7
 10
223.9698297312
 20
405.245873111
 30
0.0
 11
220.5973104542
 21
405.245873111
 31
0.0
  0
LINE
  5
B0
  8
0
  6
CONTINUOUS
 62
     7
 10
230.35054607
 20
408.6697501714
 30
0.0
 11
235.3235054729
 21
396.4722035105
 31
0.0
  0
LINE
  5
B1
  8
0
  6
CONTINUOUS
 62
     7
 10
235.3235054729
 20
396.4722035105
 30
0.0
 11
231.4828364147
 21
396.4722035105
 31
0.0
  0
LINE
  5
B2
  8
0
  6
CONTINUOUS
 62
     7
 10
231.4828364147
 20
396.4722035105
 30
0.0
 11
230.7150815582
 21
398.3553303058
 31
0.0
  0
LINE
  5
B3
  8
0
  6
CONTINUOUS
 62
     7
 10
230.7150815582
 20
398.3553303058
 30
0.0
 11
225.1313836282
 21
398.3553303058
 31
0.0
  0
LINE
  5
B4
  8
0
  6
CONTINUOUS
 62
     7
 10
225.1313836282
 20
398.3553303058
 30
0.0
 11
224.4075252643
 21
396.4722035105
 31
0.0
  0
LINE
  5
B5
  8
0
  6
CONTINUOUS
 62
     7
 10
224.4075252643
 20
396.4722035105
 30
0.0
 11
220.5973104542
 21
396.4722035105
 31
0.0
  0
LINE
  5
B6
  8
0
  6
CONTINUOUS
 62
     7
 10
220.5973104542
 20
396.4722035105
 30
0.0
 11
223.9698297312
 21
405.245873111
 31
0.0
  0
LINE
  5
B7
  8
0
  6
CONTINUOUS
 62
     7
 10
227.6520407727
 20
405.8682797129
 30
0.0
 11
229.388959237
 21
401.6080079253
 31
0.0
  0
LINE
  5
B8
  8
0
  6
CONTINUOUS
 62
     7
 10
226.0144338911
 20
401.6080079253
 30
0.0
 11
227.6520407727
 21
405.8682797129
 31
0.0
  0
LINE
  5
B9
  8
0
  6
CONTINUOUS
 62
     7
 10
229.388959237
 20
401.6080079253
 30
0.0
 11
226.0144338911
 21
401.6080079253
 31
0.0
  0
LINE
  5
BA
  8
0
  6
CONTINUOUS
 62
     7
 10
220.5973104542
 20
405.245873111
 30
0.0
 11
220.5973104542
 21
408.6697501714
 31
0.0
  0
LINE
  5
BB
  8
0
  6
CONTINUOUS
 62
     7
 10
220.5973104542
 20
408.6697501714
 30
0.0
 11
230.35054607
 21
408.6697501714
 31
0.0
  0
LINE
  5
BC
  8
0
  6
CONTINUOUS
 62
     7
 10
256.5973089045
 20
408.6697501714
 30
0.0
 11
256.5973089045
 21
405.245873111
 31
0.0
  0
LINE
  5
BD
  8
0
  6
CONTINUOUS
 62
     7
 10
256.5973089045
 20
405.245873111
 30
0.0
 11
255.5687376266
 21
405.245873111
 31
0.0
  0
ARC
  5
BE
  8
0
  6
CONTINUOUS
 62
     7
 10
250.5283693408
 20
407.1775982751
 30
0.0
 40
5.397858331434631
 50
281.9579764608
 51
339.0306297939
  0
LINE
  5
BF
  8
0
  6
CONTINUOUS
 62
     7
 10
251.6467743521
 20
401.8968743856
 30
0.0
 11
255.7401661729
 21
396.4722035105
 31
0.0
  0
LINE
  5
C0
  8
0
  6
CONTINUOUS
 62
     7
 10
255.7401661729
 20
396.4722035105
 30
0.0
 11
251.2861411055
 21
396.4722035105
 31
0.0
  0
LINE
  5
C1
  8
0
  6
CONTINUOUS
 62
     7
 10
251.2861411055
 20
396.4722035105
 30
0.0
 11
247.6671258887
 21
401.2682167466
 31
0.0
  0
LINE
  5
C2
  8
0
  6
CONTINUOUS
 62
     7
 10
247.6671258887
 20
401.2682167466
 30
0.0
 11
245.711782944
 21
396.4722035105
 31
0.0
  0
LINE
  5
C3
  8
0
  6
CONTINUOUS
 62
     7
 10
245.711782944
 20
396.4722035105
 30
0.0
 11
241.8711138857
 21
396.4722035105
 31
0.0
  0
LINE
  5
C4
  8
0
  6
CONTINUOUS
 62
     7
 10
241.8711138857
 20
396.4722035105
 30
0.0
 11
246.8440732887
 21
408.6697501714
 31
0.0
  0
LINE
  5
C5
  8
0
  6
CONTINUOUS
 62
     7
 10
246.8440732887
 20
408.6697501714
 30
0.0
 11
250.684742347
 21
408.6697501714
 31
0.0
  0
LINE
  5
C6
  8
0
  6
CONTINUOUS
 62
     7
 10
250.684742347
 20
408.6697501714
 30
0.0
 11
248.8712123563
 21
404.2215672906
 31
0.0
  0
ARC
  5
C7
  8
0
  6
CONTINUOUS
 62
     7
 10
248.7149019344
 20
408.6726605303
 30
0.0
 40
4.453836994817798
 50
272.0112471597
 51
359.9625600828
  0
LINE
  5
C8
  8
0
  6
CONTINUOUS
 62
     7
 10
253.1687379783
 20
408.6697501714
 30
0.0
 11
256.5973089045
 21
408.6697501714
 31
0.0
  0
ARC
  5
C9
  8
0
  6
CONTINUOUS
 62
     7
 10
272.933846269
 20
416.1302806813
 30
0.0
 40
0.6879495581651358
 50
76.8574908748
 51
98.9868369987
  0
LINE
  5
CA
  8
0
  6
CONTINUOUS
 62
     7
 10
271.9214023059
 20
394.4892687376
 30
0.0
 11
263.548912943
 21
394.4892687376
 31
0.0
  0
LINE
  5
CB
  8
0
  6
CONTINUOUS
 62
     7
 10
205.2732170528
 20
394.4892687376
 30
0.0
 11
213.6457064157
 21
394.4892687376
 31
0.0
  0
ARC
  5
CC
  8
0
  6
CONTINUOUS
 62
     7
 10
204.2607730897
 20
416.1302806813
 30
0.0
 40
0.6879495581651358
 50
81.0131630013
 51
103.1425091252
  0
LINE
  5
CD
  8
0
  6
CONTINUOUS
 62
     7
 10
263.548912943
 20
394.4892687376
 30
0.0
 11
213.6457064157
 21
394.4892687376
 31
0.0
  0
LINE
  5
CE
  8
0
  6
CONTINUOUS
 62
     7
 10
222.0867150431
 20
389.8626630779
 30
0.0
 11
222.5973089194
 21
391.9868385072
 31
0.0
  0
LINE
  5
CF
  8
0
  6
CONTINUOUS
 62
     7
 10
218.9735793477
 20
389.4502548154
 30
0.0
 11
222.0867150431
 21
389.8626630779
 31
0.0
  0
LINE
  5
D0
  8
0
  6
CONTINUOUS
 62
     7
 10
218.9735793477
 20
389.4502548154
 30
0.0
 11
213.6457064157
 21
391.4408860381
 31
0.0
  0
LINE
  5
D1
  8
0
  6
CONTINUOUS
 62
     7
 10
213.6457064157
 20
391.4408860381
 30
0.0
 11
213.6457064157
 21
394.4892687376
 31
0.0
  0
LINE
  5
D2
  8
0
  6
CONTINUOUS
 62
     7
 10
263.548912943
 20
391.4408860381
 30
0.0
 11
263.548912943
 21
394.4892687376
 31
0.0
  0
LINE
  5
D3
  8
0
  6
CONTINUOUS
 62
     7
 10
258.221040011
 20
389.4502548154
 30
0.0
 11
263.548912943
 21
391.4408860381
 31
0.0
  0
LINE
  5
D4
  8
0
  6
CONTINUOUS
 62
     7
 10
258.221040011
 20
389.4502548154
 30
0.0
 11
255.1079043155
 21
389.8626630779
 31
0.0
  0
LINE
  5
D5
  8
0
  6
CONTINUOUS
 62
     7
 10
255.1079043155
 20
389.8626630779
 30
0.0
 11
254.5973104393
 21
391.9868385072
 31
0.0
  0
LINE
  5
D6
  8
0
  6
CONTINUOUS
 62
     7
 10
254.5973104393
 20
391.9868385072
 30
0.0
 11
222.5973089194
 21
391.9868385072
 31
0.0
  0
LINE
  5
D7
  8
0
  6
CONTINUOUS
 62
     7
 10
263.548912943
 20
391.4408860381
 30
0.0
 11
271.9214023059
 21
394.4892687376
 31
0.0
  0
LINE
  5
D8
  8
0
  6
CONTINUOUS
 62
     7
 10
213.6457064157
 20
391.4408860381
 30
0.0
 11
205.2732170528
 21
394.4892687376
 31
0.0
  0
LINE
  5
D9
  8
0
  6
CONTINUOUS
 62
     7
 10
226.6991795009
 20
435.3577894743
 30
0.0
 11
226.5417561835
 21
439.9258670981
 31
0.0
  0
ARC
  5
DA
  8
0
  6
CONTINUOUS
 62
     7
 10
312.3566887737
 20
416.3454998283
 30
0.0
 40
88.99570987435608
 50
157.4396540754
 51
164.6353812761
  0
LINE
  5
DB
  8
0
  6
CONTINUOUS
 62
     7
 10
225.3793110108
 20
450.4892630155
 30
0.0
 11
230.1712897574
 21
450.4892630155
 31
0.0
  0
LINE
  5
DC
  8
0
  6
CONTINUOUS
 62
     7
 10
250.4954398578
 20
435.3577894743
 30
0.0
 11
250.6528631752
 21
439.9258670981
 31
0.0
  0
ARC
  5
DD
  8
0
  6
CONTINUOUS
 62
     7
 10
164.837930585
 20
416.3454998283
 30
0.0
 40
88.9957098743582
 50
15.3646187239
 51
22.5603459246
  0
LINE
  5
DE
  8
0
  6
CONTINUOUS
 62
     7
 10
251.8153083479
 20
450.4892630155
 30
0.0
 11
247.0233296012
 21
450.4892630155
 31
0.0
  0
LINE
  5
DF
  8
0
  6
CONTINUOUS
 62
     7
 10
250.6528631752
 20
439.9258670981
 30
0.0
 11
226.5417561835
 21
439.9258670981
 31
0.0
  0
LINE
  5
E0
  8
0
  6
CONTINUOUS
 62
     7
 10
192.0973085767
 20
432.4892637904
 30
0.0
 11
197.5872912412
 21
432.4892637904
 31
0.0
  0
LINE
  5
E1
  8
0
  6
CONTINUOUS
 62
     7
 10
191.7304568892
 20
425.4892645056
 30
0.0
 11
197.2259865111
 21
425.4892645056
 31
0.0
  0
LINE
  5
E2
  8
0
  6
CONTINUOUS
 62
     7
 10
285.097310782
 20
432.4892637904
 30
0.0
 11
279.6073281174
 21
432.4892637904
 31
0.0
  0
LINE
  5
E3
  8
0
  6
CONTINUOUS
 62
     7
 10
285.4641624695
 20
425.4892645056
 30
0.0
 11
279.9686328476
 21
425.4892645056
 31
0.0
  0
LINE
  5
E4
  8
0
  6
CONTINUOUS
 62
     7
 10
279.6073281174
 20
433.0539507444
 30
0.0
 11
285.097310782
 21
433.0539507444
 31
0.0
  0
LINE
  5
E5
  8
0
  6
CONTINUOUS
 62
     7
 10
197.5872912412
 20
433.0539507444
 30
0.0
 11
192.0973085767
 21
433.0539507444
 31
0.0
  0
ARC
  5
E6
  8
0
  6
CONTINUOUS
 62
     7
 10
238.5973096793
 20
538.7648623591
 30
0.0
 40
71.62949240941397
 50
256.0236932056
 51
283.9763067944
  0
LINE
  5
E7
  8
0
  6
CONTINUOUS
 62
     7
 10
193.1302868729
 20
417.9193107064
 30
0.0
 11
198.1573314374
 21
417.9193107064
 31
0.0
  0
LINE
  5
E8
  8
0
  6
CONTINUOUS
 62
     7
 10
284.0643324857
 20
417.9193107064
 30
0.0
 11
279.0372879213
 21
417.9193107064
 31
0.0
  0
ARC
  5
E9
  8
0
  6
CONTINUOUS
 62
     7
 10
202.7920127612
 20
418.0448545342
 30
0.0
 40
1.808692817351391
 50
265.8372268239
 51
316.5165313086
  0
LINE
  5
EA
  8
0
  6
CONTINUOUS
 62
     7
 10
202.6607193952
 20
416.2409333165
 30
0.0
 11
199.0973078614
 21
416.8692407782
 31
0.0
  0
ARC
  5
EB
  8
0
  6
CONTINUOUS
 62
     7
 10
274.4026065974
 20
418.0448545342
 30
0.0
 40
1.808692817351432
 50
223.4834686914
 51
274.1627731761
  0
LINE
  5
EC
  8
0
  6
CONTINUOUS
 62
     7
 10
274.5338999634
 20
416.2409333165
 30
0.0
 11
278.0973114973
 21
416.8692407782
 31
0.0
  0
ARC
  5
ED
  8
0
  6
CONTINUOUS
 62
     7
 10
232.0973096793
 20
384.4722011079
 30
0.0
 40
1.500000000000057
 50
90.0
 51
270.0
  0
LINE
  5
EE
  8
0
  6
CONTINUOUS
 62
     7
 10
245.0973098134
 20
385.9722008581
 30
0.0
 11
232.0973095452
 21
385.9722008581
 31
0.0
  0
LINE
  5
EF
  8
0
  6
CONTINUOUS
 62
     7
 10
245.0973098134
 20
382.972202229
 30
0.0
 11
232.0973095452
 21
382.972202229
 31
0.0
  0
ARC
  5
F0
  8
0
  6
CONTINUOUS
 62
     7
 10
245.0973096793
 20
384.4722011079
 30
0.0
 40
1.500000000000057
 50
270.0
 51
90.0
  0
LINE
  5
F1
  8
0
  6
CONTINUOUS
 62
     7
 10
222.5973089194
 20
316.7826514344
 30
0.0
 11
222.5973089194
 21
391.9868385072
 31
0.0
  0
LINE
  5
F2
  8
0
  6
CONTINUOUS
 62
     7
 10
222.5973089194
 20
316.7826514344
 30
0.0
 11
222.0867150431
 21
315.218866768
 31
0.0
  0
LINE
  5
F3
  8
0
  6
CONTINUOUS
 62
     7
 10
222.0867150431
 20
315.218866768
 30
0.0
 11
222.0867150431
 21
389.8626630779
 31
0.0
  0
LINE
  5
F4
  8
0
  6
CONTINUOUS
 62
     7
 10
254.5973104393
 20
316.7826514344
 30
0.0
 11
255.1079043155
 21
315.218866768
 31
0.0
  0
LINE
  5
F5
  8
0
  6
CONTINUOUS
 62
     7
 10
254.5973104393
 20
316.7826514344
 30
0.0
 11
254.5973104393
 21
391.9868385072
 31
0.0
  0
LINE
  5
F6
  8
0
  6
CONTINUOUS
 62
     7
 10
255.1079043155
 20
315.218866768
 30
0.0
 11
255.1079043155
 21
389.8626630779
 31
0.0
  0
LINE
  5
F7
  8
0
  6
CONTINUOUS
 62
     7
 10
261.2830144321
 20
312.6623751248
 30
0.0
 11
215.9116049265
 21
312.6623751248
 31
0.0
  0
LINE
  5
F8
  8
0
  6
CONTINUOUS
 62
     7
 10
215.7665663367
 20
314.6024914111
 30
0.0
 11
215.9116049265
 21
312.6623751248
 31
0.0
  0
LINE
  5
F9
  8
0
  6
CONTINUOUS
 62
     7
 10
222.0867150431
 20
315.218866768
 30
0.0
 11
215.7665663367
 21
314.6024914111
 31
0.0
  0
LINE
  5
FA
  8
0
  6
CONTINUOUS
 62
     7
 10
222.5973089194
 20
316.7826514344
 30
0.0
 11
254.5973104393
 21
316.7826514344
 31
0.0
  0
LINE
  5
FB
  8
0
  6
CONTINUOUS
 62
     7
 10
255.1079043155
 20
315.218866768
 30
0.0
 11
261.428053022
 21
314.6024914111
 31
0.0
  0
LINE
  5
FC
  8
0
  6
CONTINUOUS
 62
     7
 10
261.428053022
 20
314.6024914111
 30
0.0
 11
261.2830144321
 21
312.6623751248
 31
0.0
  0
LINE
  5
FD
  8
0
  6
CONTINUOUS
 62
     7
 10
204.3050662583
 20
394.4892687376
 30
0.0
 11
205.2732170528
 21
394.4892687376
 31
0.0
  0
POLYLINE
  5
FE
  8
0
  6
CONTINUOUS
 62
     7
 66
     1
 10
0.0
 20
0.0
 30
0.0
  0
VERTEX
  5
3C6
  8
0
  6
CONTINUOUS
 62
     7
 10
204.3050662583
 20
394.4892687376
 30
0.0
  0
VERTEX
  5
3C7
  8
0
  6
CONTINUOUS
 62
     7
 10
203.709064514
 20
402.6599553998
 30
0.0
  0
VERTEX
  5
3C8
  8
0
  6
CONTINUOUS
 62
     7
 10
203.3136473005
 20
406.9967521007
 30
0.0
  0
VERTEX
  5
3C9
  8
0
  6
CONTINUOUS
 62
     7
 10
203.1192094987
 20
407.4954120095
 30
0.0
  0
SEQEND
  5
7FF
  8
0
  6
CONTINUOUS
 62
     7
  0
LINE
  5
FF
  8
0
  6
CONTINUOUS
 62
     7
 10
202.6607193952
 20
416.2409333165
 30
0.0
 11
203.1192094987
 21
407.4954120095
 31
0.0
  0
POLYLINE
  5
100
  8
0
  6
CONTINUOUS
 62
     7
 66
     1
 10
0.0
 20
0.0
 30
0.0
  0
VERTEX
  5
3CA
  8
0
  6
CONTINUOUS
 62
     7
 10
272.8895531004
 20
394.4892687376
 30
0.0
  0
VERTEX
  5
3CB
  8
0
  6
CONTINUOUS
 62
     7
 10
273.4855548447
 20
402.6599553998
 30
0.0
  0
VERTEX
  5
3CC
  8
0
  6
CONTINUOUS
 62
     7
 10
273.8809720581
 20
406.9967521007
 30
0.0
  0
VERTEX
  5
3CD
  8
0
  6
CONTINUOUS
 62
     7
 10
274.07540986
 20
407.4954120095
 30
0.0
  0
SEQEND
  5
7FE
  8
0
  6
CONTINUOUS
 62
     7
  0
LINE
  5
101
  8
0
  6
CONTINUOUS
 62
     7
 10
272.8895531004
 20
394.4892687376
 30
0.0
 11
271.9214023059
 21
394.4892687376
 31
0.0
  0
LINE
  5
102
  8
0
  6
CONTINUOUS
 62
     7
 10
274.5338999634
 20
416.2409333165
 30
0.0
 11
274.07540986
 21
407.4954120095
 31
0.0
  0
ARC
  5
103
  8
0
  6
CONTINUOUS
 62
     7
 10
310.4351141254
 20
264.847694606
 30
0.0
 40
134.9689108498146
 50
106.1515713707
 51
108.3599695701
  0
LINE
  5
104
  8
0
  6
CONTINUOUS
 62
     7
 10
267.9217946684
 20
392.946190166
 30
0.0
 11
258.221040011
 21
389.4502548154
 31
0.0
  0
ARC
  5
105
  8
0
  6
CONTINUOUS
 62
     7
 10
166.7595052333
 20
264.847694606
 30
0.0
 40
134.9689108498146
 50
71.6400304299
 51
73.8484286293
  0
LINE
  5
106
  8
0
  6
CONTINUOUS
 62
     7
 10
209.2728246903
 20
392.946190166
 30
0.0
 11
218.9735793477
 21
389.4502548154
 31
0.0
  0
LINE
  5
107
  8
0
  6
CONTINUOUS
 62
     7
 10
323.5973105734
 20
385.4892653997
 30
0.0
 11
323.5973105734
 21
275.4892659958
 31
0.0
  0
LINE
  5
108
  8
0
  6
CONTINUOUS
 62
     7
 10
153.5973087853
 20
385.4892653997
 30
0.0
 11
153.5973087853
 21
275.4892659958
 31
0.0
  0
POLYLINE
  5
109
  8
0
  6
CONTINUOUS
 62
     7
 66
     1
 10
0.0
 20
0.0
 30
0.0
  0
VERTEX
  5
3CE
  8
0
  6
CONTINUOUS
 62
     7
 10
208.7841113066
 20
468.5284671958
 30
0.0
  0
VERTEX
  5
3CF
  8
0
  6
CONTINUOUS
 62
     7
 10
208.7841057187
 20
468.5284671958
 30
0.0
  0
VERTEX
  5
3D0
  8
0
  6
CONTINUOUS
 62
     7
 10
208.8083946114
 20
468.5398963864
 30
0.0
  0
VERTEX
  5
3D1
  8
0
  6
CONTINUOUS
 62
     7
 10
208.8809856182
 20
468.5731706794
 30
0.0
  0
VERTEX
  5
3D2
  8
0
  6
CONTINUOUS
 62
     7
 10
209.0014819955
 20
468.6267403538
 30
0.0
  0
VERTEX
  5
3D3
  8
0
  6
CONTINUOUS
 62
     7
 10
209.169492588
 20
468.6991003926
 30
0.0
  0
VERTEX
  5
3D4
  8
0
  6
CONTINUOUS
 62
     7
 10
209.3922016179
 20
468.7912491734
 30
0.0
  0
VERTEX
  5
3D5
  8
0
  6
CONTINUOUS
 62
     7
 10
209.6646525865
 20
468.8977626736
 30
0.0
  0
VERTEX
  5
3D6
  8
0
  6
CONTINUOUS
 62
     7
 10
209.9859309351
 20
469.0148858006
 30
0.0
  0
VERTEX
  5
3D7
  8
0
  6
CONTINUOUS
 62
     7
 10
210.3551295554
 20
469.1388932641
 30
0.0
  0
VERTEX
  5
3D8
  8
0
  6
CONTINUOUS
 62
     7
 10
210.751658768
 20
469.2602036174
 30
0.0
  0
VERTEX
  5
3D9
  8
0
  6
CONTINUOUS
 62
     7
 10
211.1911778306
 20
469.3810371335
 30
0.0
  0
VERTEX
  5
3DA
  8
0
  6
CONTINUOUS
 62
     7
 10
211.6727200305
 20
469.4979218419
 30
0.0
  0
VERTEX
  5
3DB
  8
0
  6
CONTINUOUS
 62
     7
 10
212.1953205174
 20
469.6074453767
 30
0.0
  0
VERTEX
  5
3DC
  8
0
  6
CONTINUOUS
 62
     7
 10
212.7741579866
 20
469.7087434705
 30
0.0
  0
VERTEX
  5
3DD
  8
0
  6
CONTINUOUS
 62
     7
 10
213.3956518924
 20
469.7955427344
 30
0.0
  0
VERTEX
  5
3DE
  8
0
  6
CONTINUOUS
 62
     7
 10
214.0582078105
 20
469.8644904073
 30
0.0
  0
VERTEX
  5
3DF
  8
0
  6
CONTINUOUS
 62
     7
 10
214.7602257287
 20
469.9122039254
 30
0.0
  0
VERTEX
  5
3E0
  8
0
  6
CONTINUOUS
 62
     7
 10
215.4571865653
 20
469.9348089869
 30
0.0
  0
VERTEX
  5
3E1
  8
0
  6
CONTINUOUS
 62
     7
 10
216.1880214667
 20
469.9332890685
 30
0.0
  0
VERTEX
  5
3E2
  8
0
  6
CONTINUOUS
 62
     7
 10
216.9504393792
 20
469.905230182
 30
0.0
  0
VERTEX
  5
3E3
  8
0
  6
CONTINUOUS
 62
     7
 10
217.7421436613
 20
469.8482481416
 30
0.0
  0
VERTEX
  5
3E4
  8
0
  6
CONTINUOUS
 62
     7
 10
218.5917128777
 20
469.7561142619
 30
0.0
  0
VERTEX
  5
3E5
  8
0
  6
CONTINUOUS
 62
     7
 10
219.4700916266
 20
469.6279791768
 30
0.0
  0
VERTEX
  5
3E6
  8
0
  6
CONTINUOUS
 62
     7
 10
220.3732882595
 20
469.4618908341
 30
0.0
  0
VERTEX
  5
3E7
  8
0
  6
CONTINUOUS
 62
     7
 10
221.2973092651
 20
469.2559120829
 30
0.0
  0
SEQEND
  5
7FD
  8
0
  6
CONTINUOUS
 62
     7
  0
POLYLINE
  5
10A
  8
0
  6
CONTINUOUS
 62
     7
 66
     1
 10
0.0
 20
0.0
 30
0.0
  0
VERTEX
  5
3E8
  8
0
  6
CONTINUOUS
 62
     7
 10
202.826744408
 20
458.6849240239
 30
0.0
  0
VERTEX
  5
3E9
  8
0
  6
CONTINUOUS
 62
     7
 10
202.8267406827
 20
458.6849240239
 30
0.0
  0
VERTEX
  5
3EA
  8
0
  6
CONTINUOUS
 62
     7
 10
202.8438546663
 20
458.6998996909
 30
0.0
  0
VERTEX
  5
3EB
  8
0
  6
CONTINUOUS
 62
     7
 10
202.8949917262
 20
458.7339339431
 30
0.0
  0
VERTEX
  5
3EC
  8
0
  6
CONTINUOUS
 62
     7
 10
202.9798538392
 20
458.7706504042
 30
0.0
  0
VERTEX
  5
3ED
  8
0
  6
CONTINUOUS
 62
     7
 10
203.0981467074
 20
458.7901262219
 30
0.0
  0
VERTEX
  5
3EE
  8
0
  6
CONTINUOUS
 62
     7
 10
203.2494493728
 20
458.7717828925
 30
0.0
  0
VERTEX
  5
3EF
  8
0
  6
CONTINUOUS
 62
     7
 10
203.4333148008
 20
458.6982009585
 30
0.0
  0
VERTEX
  5
3F0
  8
0
  6
CONTINUOUS
 62
     7
 10
203.592518807
 20
458.5970667775
 30
0.0
  0
VERTEX
  5
3F1
  8
0
  6
CONTINUOUS
 62
     7
 10
203.769634009
 20
458.4520933802
 30
0.0
  0
VERTEX
  5
3F2
  8
0
  6
CONTINUOUS
 62
     7
 10
203.9642692512
 20
458.2599429066
 30
0.0
  0
VERTEX
  5
3F3
  8
0
  6
CONTINUOUS
 62
     7
 10
204.1760371035
 20
458.0173371012
 30
0.0
  0
VERTEX
  5
3F4
  8
0
  6
CONTINUOUS
 62
     7
 10
204.4130512481
 20
457.7098218377
 30
0.0
  0
VERTEX
  5
3F5
  8
0
  6
CONTINUOUS
 62
     7
 10
204.6676152354
 20
457.3432979758
 30
0.0
  0
VERTEX
  5
3F6
  8
0
  6
CONTINUOUS
 62
     7
 10
204.9389095014
 20
456.9165287192
 30
0.0
  0
VERTEX
  5
3F7
  8
0
  6
CONTINUOUS
 62
     7
 10
205.2261293834
 20
456.428232568
 30
0.0
  0
VERTEX
  5
3F8
  8
0
  6
CONTINUOUS
 62
     7
 10
205.5165641909
 20
455.899733084
 30
0.0
  0
VERTEX
  5
3F9
  8
0
  6
CONTINUOUS
 62
     7
 10
205.8204249447
 20
455.3125304754
 30
0.0
  0
VERTEX
  5
3FA
  8
0
  6
CONTINUOUS
 62
     7
 10
206.136649937
 20
454.6667141493
 30
0.0
  0
VERTEX
  5
3FB
  8
0
  6
CONTINUOUS
 62
     7
 10
206.4641662842
 20
453.9623660619
 30
0.0
  0
VERTEX
  5
3FC
  8
0
  6
CONTINUOUS
 62
     7
 10
206.8082825249
 20
453.1848830755
 30
0.0
  0
VERTEX
  5
3FD
  8
0
  6
CONTINUOUS
 62
     7
 10
207.162296862
 20
452.3462084706
 30
0.0
  0
VERTEX
  5
3FE
  8
0
  6
CONTINUOUS
 62
     7
 10
207.5247769212
 20
451.4473406251
 30
0.0
  0
VERTEX
  5
3FF
  8
0
  6
CONTINUOUS
 62
     7
 10
207.8942977792
 20
450.4892630155
 30
0.0
  0
SEQEND
  5
7FC
  8
0
  6
CONTINUOUS
 62
     7
  0
POLYLINE
  5
10B
  8
0
  6
CONTINUOUS
 62
     7
 66
     1
 10
0.0
 20
0.0
 30
0.0
  0
VERTEX
  5
400
  8
0
  6
CONTINUOUS
 62
     7
 10
274.3678749507
 20
458.6849240239
 30
0.0
  0
VERTEX
  5
401
  8
0
  6
CONTINUOUS
 62
     7
 10
274.367878676
 20
458.6849240239
 30
0.0
  0
VERTEX
  5
402
  8
0
  6
CONTINUOUS
 62
     7
 10
274.3507646924
 20
458.6998996909
 30
0.0
  0
VERTEX
  5
403
  8
0
  6
CONTINUOUS
 62
     7
 10
274.2996276324
 20
458.7339339431
 30
0.0
  0
VERTEX
  5
404
  8
0
  6
CONTINUOUS
 62
     7
 10
274.2147655194
 20
458.7706504042
 30
0.0
  0
VERTEX
  5
405
  8
0
  6
CONTINUOUS
 62
     7
 10
274.0964726513
 20
458.7901262219
 30
0.0
  0
VERTEX
  5
406
  8
0
  6
CONTINUOUS
 62
     7
 10
273.9451699858
 20
458.7717828925
 30
0.0
  0
VERTEX
  5
407
  8
0
  6
CONTINUOUS
 62
     7
 10
273.7613045579
 20
458.6982009585
 30
0.0
  0
VERTEX
  5
408
  8
0
  6
CONTINUOUS
 62
     7
 10
273.6021005517
 20
458.5970667775
 30
0.0
  0
VERTEX
  5
409
  8
0
  6
CONTINUOUS
 62
     7
 10
273.4249853497
 20
458.4520933802
 30
0.0
  0
VERTEX
  5
40A
  8
0
  6
CONTINUOUS
 62
     7
 10
273.2303501075
 20
458.2599429066
 30
0.0
  0
VERTEX
  5
40B
  8
0
  6
CONTINUOUS
 62
     7
 10
273.0185822552
 20
458.0173371012
 30
0.0
  0
VERTEX
  5
40C
  8
0
  6
CONTINUOUS
 62
     7
 10
272.7815681105
 20
457.7098218377
 30
0.0
  0
VERTEX
  5
40D
  8
0
  6
CONTINUOUS
 62
     7
 10
272.5270041233
 20
457.3432979758
 30
0.0
  0
VERTEX
  5
40E
  8
0
  6
CONTINUOUS
 62
     7
 10
272.2557098573
 20
456.9165287192
 30
0.0
  0
VERTEX
  5
40F
  8
0
  6
CONTINUOUS
 62
     7
 10
271.9684899753
 20
456.428232568
 30
0.0
  0
VERTEX
  5
410
  8
0
  6
CONTINUOUS
 62
     7
 10
271.6780551677
 20
455.899733084
 30
0.0
  0
VERTEX
  5
411
  8
0
  6
CONTINUOUS
 62
     7
 10
271.374194414
 20
455.3125304754
 30
0.0
  0
VERTEX
  5
412
  8
0
  6
CONTINUOUS
 62
     7
 10
271.0579694217
 20
454.6667141493
 30
0.0
  0
VERTEX
  5
413
  8
0
  6
CONTINUOUS
 62
     7
 10
270.7304530745
 20
453.9623660619
 30
0.0
  0
VERTEX
  5
414
  8
0
  6
CONTINUOUS
 62
     7
 10
270.3863368338
 20
453.1848830755
 30
0.0
  0
VERTEX
  5
415
  8
0
  6
CONTINUOUS
 62
     7
 10
270.0323224967
 20
452.3462084706
 30
0.0
  0
VERTEX
  5
416
  8
0
  6
CONTINUOUS
 62
     7
 10
269.6698424375
 20
451.4473406251
 30
0.0
  0
VERTEX
  5
417
  8
0
  6
CONTINUOUS
 62
     7
 10
269.3003215795
 20
450.4892630155
 30
0.0
  0
SEQEND
  5
7FB
  8
0
  6
CONTINUOUS
 62
     7
  0
POLYLINE
  5
10C
  8
0
  6
CONTINUOUS
 62
     7
 66
     1
 10
0.0
 20
0.0
 30
0.0
  0
VERTEX
  5
418
  8
0
  6
CONTINUOUS
 62
     7
 10
268.4105099147
 20
468.5284671958
 30
0.0
  0
VERTEX
  5
419
  8
0
  6
CONTINUOUS
 62
     7
 10
268.41051364
 20
468.5284671958
 30
0.0
  0
VERTEX
  5
41A
  8
0
  6
CONTINUOUS
 62
     7
 10
268.3862247472
 20
468.5398963864
 30
0.0
  0
VERTEX
  5
41B
  8
0
  6
CONTINUOUS
 62
     7
 10
268.3136337405
 20
468.5731706794
 30
0.0
  0
VERTEX
  5
41C
  8
0
  6
CONTINUOUS
 62
     7
 10
268.1931373631
 20
468.6267403538
 30
0.0
  0
VERTEX
  5
41D
  8
0
  6
CONTINUOUS
 62
     7
 10
268.0251267707
 20
468.6991003926
 30
0.0
  0
VERTEX
  5
41E
  8
0
  6
CONTINUOUS
 62
     7
 10
267.8024177408
 20
468.7912491734
 30
0.0
  0
VERTEX
  5
41F
  8
0
  6
CONTINUOUS
 62
     7
 10
267.5299667721
 20
468.8977626736
 30
0.0
  0
VERTEX
  5
420
  8
0
  6
CONTINUOUS
 62
     7
 10
267.2086884236
 20
469.0148858006
 30
0.0
  0
VERTEX
  5
421
  8
0
  6
CONTINUOUS
 62
     7
 10
266.8394898033
 20
469.1388932641
 30
0.0
  0
VERTEX
  5
422
  8
0
  6
CONTINUOUS
 62
     7
 10
266.4429605907
 20
469.2602036174
 30
0.0
  0
VERTEX
  5
423
  8
0
  6
CONTINUOUS
 62
     7
 10
266.003441528
 20
469.3810371335
 30
0.0
  0
VERTEX
  5
424
  8
0
  6
CONTINUOUS
 62
     7
 10
265.5218993282
 20
469.4979218419
 30
0.0
  0
VERTEX
  5
425
  8
0
  6
CONTINUOUS
 62
     7
 10
264.9992988413
 20
469.6074453767
 30
0.0
  0
VERTEX
  5
426
  8
0
  6
CONTINUOUS
 62
     7
 10
264.4204613721
 20
469.7087434705
 30
0.0
  0
VERTEX
  5
427
  8
0
  6
CONTINUOUS
 62
     7
 10
263.7989674663
 20
469.7955427344
 30
0.0
  0
VERTEX
  5
428
  8
0
  6
CONTINUOUS
 62
     7
 10
263.1364115482
 20
469.8644904073
 30
0.0
  0
VERTEX
  5
429
  8
0
  6
CONTINUOUS
 62
     7
 10
262.43439363
 20
469.9122039254
 30
0.0
  0
VERTEX
  5
42A
  8
0
  6
CONTINUOUS
 62
     7
 10
261.7374327933
 20
469.9348089869
 30
0.0
  0
VERTEX
  5
42B
  8
0
  6
CONTINUOUS
 62
     7
 10
261.006597892
 20
469.9332890685
 30
0.0
  0
VERTEX
  5
42C
  8
0
  6
CONTINUOUS
 62
     7
 10
260.2441799795
 20
469.905230182
 30
0.0
  0
VERTEX
  5
42D
  8
0
  6
CONTINUOUS
 62
     7
 10
259.4524756973
 20
469.8482481416
 30
0.0
  0
VERTEX
  5
42E
  8
0
  6
CONTINUOUS
 62
     7
 10
258.602906481
 20
469.7561142619
 30
0.0
  0
VERTEX
  5
42F
  8
0
  6
CONTINUOUS
 62
     7
 10
257.7245277321
 20
469.6279791768
 30
0.0
  0
VERTEX
  5
430
  8
0
  6
CONTINUOUS
 62
     7
 10
256.8213310992
 20
469.4618908341
 30
0.0
  0
VERTEX
  5
431
  8
0
  6
CONTINUOUS
 62
     7
 10
255.8973100936
 20
469.2559120829
 30
0.0
  0
SEQEND
  5
7FA
  8
0
  6
CONTINUOUS
 62
     7
  0
LINE
  5
10D
  8
0
  6
CONTINUOUS
 62
     7
 10
209.2728246903
 20
360.5114286418
 30
0.0
 11
215.7665663367
 21
314.6024914111
 31
0.0
  0
LINE
  5
10E
  8
0
  6
CONTINUOUS
 62
     7
 10
209.2728246903
 20
360.5114286418
 30
0.0
 11
209.2728246903
 21
392.946190166
 31
0.0
  0
LINE
  5
10F
  8
0
  6
CONTINUOUS
 62
     7
 10
267.9217946684
 20
360.5114286418
 30
0.0
 11
267.9217946684
 21
392.946190166
 31
0.0
  0
LINE
  5
110
  8
0
  6
CONTINUOUS
 62
     7
 10
267.9217946684
 20
360.5114286418
 30
0.0
 11
261.428053022
 21
314.6024914111
 31
0.0
  0
LINE
  5
111
  8
0
  6
CONTINUOUS
 62
     7
 10
207.3398330217
 20
368.3706586833
 30
0.0
 11
203.1192094987
 21
398.4019560392
 31
0.0
  0
POLYLINE
  5
112
  8
0
  6
CONTINUOUS
 62
     7
 66
     1
 10
0.0
 20
0.0
 30
0.0
  0
VERTEX
  5
432
  8
0
  6
CONTINUOUS
 62
     7
 10
203.1192094987
 20
398.4019560392
 30
0.0
  0
VERTEX
  5
433
  8
0
  6
CONTINUOUS
 62
     7
 10
203.2916718131
 20
397.9192552741
 30
0.0
  0
VERTEX
  5
434
  8
0
  6
CONTINUOUS
 62
     7
 10
203.6355645364
 20
396.2158439334
 30
0.0
  0
VERTEX
  5
435
  8
0
  6
CONTINUOUS
 62
     7
 10
204.150597096
 20
393.2931599791
 30
0.0
  0
VERTEX
  5
436
  8
0
  6
CONTINUOUS
 62
     7
 10
204.8363373583
 20
389.1536323006
 30
0.0
  0
VERTEX
  5
437
  8
0
  6
CONTINUOUS
 62
     7
 10
205.6922190791
 20
383.8007254179
 30
0.0
  0
VERTEX
  5
438
  8
0
  6
CONTINUOUS
 62
     7
 10
206.7175195521
 20
377.2388985033
 30
0.0
  0
VERTEX
  5
439
  8
0
  6
CONTINUOUS
 62
     7
 10
207.9113875484
 20
369.4736389096
 30
0.0
  0
VERTEX
  5
43A
  8
0
  6
CONTINUOUS
 62
     7
 10
209.2728246903
 20
360.5114286418
 30
0.0
  0
SEQEND
  5
7F9
  8
0
  6
CONTINUOUS
 62
     7
  0
LINE
  5
113
  8
0
  6
CONTINUOUS
 62
     7
 10
215.9116049265
 20
312.6623751248
 30
0.0
 11
216.6751087611
 21
305.7221145953
 31
0.0
  0
LINE
  5
114
  8
0
  6
CONTINUOUS
 62
     7
 10
216.6751087611
 20
305.7221145953
 30
0.0
 11
216.6002844428
 21
305.7168824251
 31
0.0
  0
POLYLINE
  5
115
  8
0
  6
CONTINUOUS
 62
     7
 66
     1
 10
0.0
 20
0.0
 30
0.0
  0
VERTEX
  5
43B
  8
0
  6
CONTINUOUS
 62
     7
 10
207.3398330217
 20
368.3706586833
 30
0.0
  0
VERTEX
  5
43C
  8
0
  6
CONTINUOUS
 62
     7
 10
207.3701941376
 20
368.279016542
 30
0.0
  0
VERTEX
  5
43D
  8
0
  6
CONTINUOUS
 62
     7
 10
207.4041576093
 20
368.1614128525
 30
0.0
  0
VERTEX
  5
43E
  8
0
  6
CONTINUOUS
 62
     7
 10
207.4416973596
 20
368.0179221208
 30
0.0
  0
VERTEX
  5
43F
  8
0
  6
CONTINUOUS
 62
     7
 10
207.4827891743
 20
367.848648655
 30
0.0
  0
VERTEX
  5
440
  8
0
  6
CONTINUOUS
 62
     7
 10
207.5274032509
 20
367.6537042136
 30
0.0
  0
VERTEX
  5
441
  8
0
  6
CONTINUOUS
 62
     7
 10
207.5755097871
 20
367.4332303579
 30
0.0
  0
VERTEX
  5
442
  8
0
  6
CONTINUOUS
 62
     7
 10
207.6270771181
 20
367.1873686488
 30
0.0
  0
VERTEX
  5
443
  8
0
  6
CONTINUOUS
 62
     7
 10
207.6820679908
 20
366.9162979002
 30
0.0
  0
VERTEX
  5
444
  8
0
  6
CONTINUOUS
 62
     7
 10
207.7404470151
 20
366.6201969261
 30
0.0
  0
VERTEX
  5
445
  8
0
  6
CONTINUOUS
 62
     7
 10
207.8021694874
 20
366.2992706175
 30
0.0
  0
VERTEX
  5
446
  8
0
  6
CONTINUOUS
 62
     7
 10
207.8671981549
 20
365.9537424917
 30
0.0
  0
VERTEX
  5
447
  8
0
  6
CONTINUOUS
 62
     7
 10
207.9354845887
 20
365.5838472421
 30
0.0
  0
VERTEX
  5
448
  8
0
  6
CONTINUOUS
 62
     7
 10
208.0069840854
 20
365.1898419137
 30
0.0
  0
VERTEX
  5
449
  8
0
  6
CONTINUOUS
 62
     7
 10
208.0816463536
 20
364.7719910021
 30
0.0
  0
VERTEX
  5
44A
  8
0
  6
CONTINUOUS
 62
     7
 10
208.1594192391
 20
364.3305888052
 30
0.0
  0
VERTEX
  5
44B
  8
0
  6
CONTINUOUS
 62
     7
 10
208.2402524507
 20
363.8659370716
 30
0.0
  0
VERTEX
  5
44C
  8
0
  6
CONTINUOUS
 62
     7
 10
208.3240882462
 20
363.3783487256
 30
0.0
  0
VERTEX
  5
44D
  8
0
  6
CONTINUOUS
 62
     7
 10
208.4108688837
 20
362.8681664939
 30
0.0
  0
VERTEX
  5
44E
  8
0
  6
CONTINUOUS
 62
     7
 10
208.5005347585
 20
362.3357368286
 30
0.0
  0
VERTEX
  5
44F
  8
0
  6
CONTINUOUS
 62
     7
 10
208.5930244034
 20
361.7814285333
 30
0.0
  0
VERTEX
  5
450
  8
0
  6
CONTINUOUS
 62
     7
 10
208.6882744884
 20
361.2056197251
 30
0.0
  0
VERTEX
  5
451
  8
0
  6
CONTINUOUS
 62
     7
 10
208.7862216836
 20
360.6087052847
 30
0.0
  0
VERTEX
  5
452
  8
0
  6
CONTINUOUS
 62
     7
 10
208.8867952084
 20
359.9910987194
 30
0.0
  0
VERTEX
  5
453
  8
0
  6
CONTINUOUS
 62
     7
 10
208.989926145
 20
359.3532209869
 30
0.0
  0
VERTEX
  5
454
  8
0
  6
CONTINUOUS
 62
     7
 10
209.0955474382
 20
358.6955135341
 30
0.0
  0
VERTEX
  5
455
  8
0
  6
CONTINUOUS
 62
     7
 10
209.2035827195
 20
358.0184271212
 30
0.0
  0
VERTEX
  5
456
  8
0
  6
CONTINUOUS
 62
     7
 10
209.3139574831
 20
357.3224236841
 30
0.0
  0
VERTEX
  5
457
  8
0
  6
CONTINUOUS
 62
     7
 10
209.4265990859
 20
356.6079856481
 30
0.0
  0
VERTEX
  5
458
  8
0
  6
CONTINUOUS
 62
     7
 10
209.5414292967
 20
355.8756028886
 30
0.0
  0
VERTEX
  5
459
  8
0
  6
CONTINUOUS
 62
     7
 10
209.6583661591
 20
355.12577832
 30
0.0
  0
VERTEX
  5
45A
  8
0
  6
CONTINUOUS
 62
     7
 10
209.7773333048
 20
354.3590260322
 30
0.0
  0
VERTEX
  5
45B
  8
0
  6
CONTINUOUS
 62
     7
 10
209.8982469147
 20
353.5758750166
 30
0.0
  0
VERTEX
  5
45C
  8
0
  6
CONTINUOUS
 62
     7
 10
210.0210231697
 20
352.7768598522
 30
0.0
  0
VERTEX
  5
45D
  8
0
  6
CONTINUOUS
 62
     7
 10
210.1455801135
 20
351.9625337447
 30
0.0
  0
VERTEX
  5
45E
  8
0
  6
CONTINUOUS
 62
     7
 10
210.2718302017
 20
351.133453625
 30
0.0
  0
VERTEX
  5
45F
  8
0
  6
CONTINUOUS
 62
     7
 10
210.3996877527
 20
350.2901894624
 30
0.0
  0
VERTEX
  5
460
  8
0
  6
CONTINUOUS
 62
     7
 10
210.5290633594
 20
349.4333205397
 30
0.0
  0
VERTEX
  5
461
  8
0
  6
CONTINUOUS
 62
     7
 10
210.6598694777
 20
348.5634373154
 30
0.0
  0
VERTEX
  5
462
  8
0
  6
CONTINUOUS
 62
     7
 10
210.7920167005
 20
347.6811339731
 30
0.0
  0
VERTEX
  5
463
  8
0
  6
CONTINUOUS
 62
     7
 10
210.9254137581
 20
346.787019598
 30
0.0
  0
VERTEX
  5
464
  8
0
  6
CONTINUOUS
 62
     7
 10
211.059969381
 20
345.8817079316
 30
0.0
  0
VERTEX
  5
465
  8
0
  6
CONTINUOUS
 62
     7
 10
211.1955885744
 20
344.965820166
 30
0.0
  0
VERTEX
  5
466
  8
0
  6
CONTINUOUS
 62
     7
 10
211.3321819311
 20
344.0399868067
 30
0.0
  0
VERTEX
  5
467
  8
0
  6
CONTINUOUS
 62
     7
 10
211.4696525937
 20
343.1048430155
 30
0.0
  0
VERTEX
  5
468
  8
0
  6
CONTINUOUS
 62
     7
 10
211.6079074299
 20
342.1610314052
 30
0.0
  0
VERTEX
  5
469
  8
0
  6
CONTINUOUS
 62
     7
 10
211.7468533074
 20
341.2092001761
 30
0.0
  0
VERTEX
  5
46A
  8
0
  6
CONTINUOUS
 62
     7
 10
211.8863896435
 20
340.2500040482
 30
0.0
  0
VERTEX
  5
46B
  8
0
  6
CONTINUOUS
 62
     7
 10
212.0264270311
 20
339.2841023977
 30
0.0
  0
VERTEX
  5
46C
  8
0
  6
CONTINUOUS
 62
     7
 10
212.1668630248
 20
338.312157395
 30
0.0
  0
VERTEX
  5
46D
  8
0
  6
CONTINUOUS
 62
     7
 10
212.3076063549
 20
337.3348372641
 30
0.0
  0
VERTEX
  5
46E
  8
0
  6
CONTINUOUS
 62
     7
 10
212.4485564386
 20
336.3528144199
 30
0.0
  0
VERTEX
  5
46F
  8
0
  6
CONTINUOUS
 62
     7
 10
212.5896182811
 20
335.3667626741
 30
0.0
  0
VERTEX
  5
470
  8
0
  6
CONTINUOUS
 62
     7
 10
212.7306950247
 20
334.3773595641
 30
0.0
  0
VERTEX
  5
471
  8
0
  6
CONTINUOUS
 62
     7
 10
212.8716898119
 20
333.385285421
 30
0.0
  0
VERTEX
  5
472
  8
0
  6
CONTINUOUS
 62
     7
 10
213.0125039225
 20
332.3912213908
 30
0.0
  0
VERTEX
  5
473
  8
0
  6
CONTINUOUS
 62
     7
 10
213.1530442243
 20
331.395850715
 30
0.0
  0
VERTEX
  5
474
  8
0
  6
CONTINUOUS
 62
     7
 10
213.2932101345
 20
330.3998570935
 30
0.0
  0
VERTEX
  5
475
  8
0
  6
CONTINUOUS
 62
     7
 10
213.4329085206
 20
329.4039249539
 30
0.0
  0
VERTEX
  5
476
  8
0
  6
CONTINUOUS
 62
     7
 10
213.5720406627
 20
328.4087383307
 30
0.0
  0
VERTEX
  5
477
  8
0
  6
CONTINUOUS
 62
     7
 10
213.7105134284
 20
327.4149812876
 30
0.0
  0
VERTEX
  5
478
  8
0
  6
CONTINUOUS
 62
     7
 10
213.8482299602
 20
326.423336717
 30
0.0
  0
VERTEX
  5
479
  8
0
  6
CONTINUOUS
 62
     7
 10
213.9850971257
 20
325.4344854157
 30
0.0
  0
VERTEX
  5
47A
  8
0
  6
CONTINUOUS
 62
     7
 10
214.1210199302
 20
324.4491070162
 30
0.0
  0
VERTEX
  5
47B
  8
0
  6
CONTINUOUS
 62
     7
 10
214.2559052413
 20
323.4678785901
 30
0.0
  0
VERTEX
  5
47C
  8
0
  6
CONTINUOUS
 62
     7
 10
214.3896599268
 20
322.4914744149
 30
0.0
  0
VERTEX
  5
47D
  8
0
  6
CONTINUOUS
 62
     7
 10
214.5221908545
 20
321.5205650429
 30
0.0
  0
VERTEX
  5
47E
  8
0
  6
CONTINUOUS
 62
     7
 10
214.65341048
 20
320.5558182324
 30
0.0
  0
VERTEX
  5
47F
  8
0
  6
CONTINUOUS
 62
     7
 10
214.7832275336
 20
319.5978961538
 30
0.0
  0
VERTEX
  5
480
  8
0
  6
CONTINUOUS
 62
     7
 10
214.9115507459
 20
318.6474563207
 30
0.0
  0
VERTEX
  5
481
  8
0
  6
CONTINUOUS
 62
     7
 10
215.0382925724
 20
317.7051534529
 30
0.0
  0
VERTEX
  5
482
  8
0
  6
CONTINUOUS
 62
     7
 10
215.1633673316
 20
316.7716338883
 30
0.0
  0
VERTEX
  5
483
  8
0
  6
CONTINUOUS
 62
     7
 10
215.2866893416
 20
315.8475383769
 30
0.0
  0
VERTEX
  5
484
  8
0
  6
CONTINUOUS
 62
     7
 10
215.4081710582
 20
314.9335039432
 30
0.0
  0
VERTEX
  5
485
  8
0
  6
CONTINUOUS
 62
     7
 10
215.5277323877
 20
314.0301564361
 30
0.0
  0
VERTEX
  5
486
  8
0
  6
CONTINUOUS
 62
     7
 10
215.645289511
 20
313.1381170477
 30
0.0
  0
VERTEX
  5
487
  8
0
  6
CONTINUOUS
 62
     7
 10
215.7607604718
 20
312.2580004509
 30
0.0
  0
VERTEX
  5
488
  8
0
  6
CONTINUOUS
 62
     7
 10
215.8740689015
 20
311.39040828
 30
0.0
  0
VERTEX
  5
489
  8
0
  6
CONTINUOUS
 62
     7
 10
215.9851347064
 20
310.5359384443
 30
0.0
  0
VERTEX
  5
48A
  8
0
  6
CONTINUOUS
 62
     7
 10
216.0938815182
 20
309.6951795395
 30
0.0
  0
VERTEX
  5
48B
  8
0
  6
CONTINUOUS
 62
     7
 10
216.2002348309
 20
308.8687052603
 30
0.0
  0
VERTEX
  5
48C
  8
0
  6
CONTINUOUS
 62
     7
 10
216.3041238641
 20
308.0570874388
 30
0.0
  0
VERTEX
  5
48D
  8
0
  6
CONTINUOUS
 62
     7
 10
216.405474112
 20
307.2608811434
 30
0.0
  0
VERTEX
  5
48E
  8
0
  6
CONTINUOUS
 62
     7
 10
216.5042166566
 20
306.4806339915
 30
0.0
  0
VERTEX
  5
48F
  8
0
  6
CONTINUOUS
 62
     7
 10
216.6002844428
 20
305.7168824251
 30
0.0
  0
SEQEND
  5
7F8
  8
0
  6
CONTINUOUS
 62
     7
  0
LINE
  5
116
  8
0
  6
CONTINUOUS
 62
     7
 10
260.5195105975
 20
305.7221145953
 30
0.0
 11
260.5943349158
 21
305.7168824251
 31
0.0
  0
LINE
  5
117
  8
0
  6
CONTINUOUS
 62
     7
 10
261.2830144321
 20
312.6623751248
 30
0.0
 11
260.5195105975
 21
305.7221145953
 31
0.0
  0
POLYLINE
  5
118
  8
0
  6
CONTINUOUS
 62
     7
 66
     1
 10
0.0
 20
0.0
 30
0.0
  0
VERTEX
  5
490
  8
0
  6
CONTINUOUS
 62
     7
 10
274.07540986
 20
398.4019560392
 30
0.0
  0
VERTEX
  5
491
  8
0
  6
CONTINUOUS
 62
     7
 10
273.9029475456
 20
397.9192552741
 30
0.0
  0
VERTEX
  5
492
  8
0
  6
CONTINUOUS
 62
     7
 10
273.5590548223
 20
396.2158439334
 30
0.0
  0
VERTEX
  5
493
  8
0
  6
CONTINUOUS
 62
     7
 10
273.0440222626
 20
393.2931599791
 30
0.0
  0
VERTEX
  5
494
  8
0
  6
CONTINUOUS
 62
     7
 10
272.3582820004
 20
389.1536323006
 30
0.0
  0
VERTEX
  5
495
  8
0
  6
CONTINUOUS
 62
     7
 10
271.5024002796
 20
383.8007254179
 30
0.0
  0
VERTEX
  5
496
  8
0
  6
CONTINUOUS
 62
     7
 10
270.4770998066
 20
377.2388985033
 30
0.0
  0
VERTEX
  5
497
  8
0
  6
CONTINUOUS
 62
     7
 10
269.2832318103
 20
369.4736389096
 30
0.0
  0
VERTEX
  5
498
  8
0
  6
CONTINUOUS
 62
     7
 10
267.9217946684
 20
360.5114286418
 30
0.0
  0
SEQEND
  5
7F7
  8
0
  6
CONTINUOUS
 62
     7
  0
LINE
  5
119
  8
0
  6
CONTINUOUS
 62
     7
 10
269.854786337
 20
368.3706586833
 30
0.0
 11
274.07540986
 21
398.4019560392
 31
0.0
  0
POLYLINE
  5
11A
  8
0
  6
CONTINUOUS
 62
     7
 66
     1
 10
0.0
 20
0.0
 30
0.0
  0
VERTEX
  5
499
  8
0
  6
CONTINUOUS
 62
     7
 10
269.854786337
 20
368.3706586833
 30
0.0
  0
VERTEX
  5
49A
  8
0
  6
CONTINUOUS
 62
     7
 10
269.824425221
 20
368.279016542
 30
0.0
  0
VERTEX
  5
49B
  8
0
  6
CONTINUOUS
 62
     7
 10
269.7904617494
 20
368.1614128525
 30
0.0
  0
VERTEX
  5
49C
  8
0
  6
CONTINUOUS
 62
     7
 10
269.752921999
 20
368.0179221208
 30
0.0
  0
VERTEX
  5
49D
  8
0
  6
CONTINUOUS
 62
     7
 10
269.7118301844
 20
367.848648655
 30
0.0
  0
VERTEX
  5
49E
  8
0
  6
CONTINUOUS
 62
     7
 10
269.6672161078
 20
367.6537042136
 30
0.0
  0
VERTEX
  5
49F
  8
0
  6
CONTINUOUS
 62
     7
 10
269.6191095715
 20
367.4332303579
 30
0.0
  0
VERTEX
  5
4A0
  8
0
  6
CONTINUOUS
 62
     7
 10
269.5675422406
 20
367.1873686488
 30
0.0
  0
VERTEX
  5
4A1
  8
0
  6
CONTINUOUS
 62
     7
 10
269.5125513678
 20
366.9162979002
 30
0.0
  0
VERTEX
  5
4A2
  8
0
  6
CONTINUOUS
 62
     7
 10
269.4541723436
 20
366.6201969261
 30
0.0
  0
VERTEX
  5
4A3
  8
0
  6
CONTINUOUS
 62
     7
 10
269.3924498712
 20
366.2992706175
 30
0.0
  0
VERTEX
  5
4A4
  8
0
  6
CONTINUOUS
 62
     7
 10
269.3274212038
 20
365.9537424917
 30
0.0
  0
VERTEX
  5
4A5
  8
0
  6
CONTINUOUS
 62
     7
 10
269.25913477
 20
365.5838472421
 30
0.0
  0
VERTEX
  5
4A6
  8
0
  6
CONTINUOUS
 62
     7
 10
269.1876352733
 20
365.1898419137
 30
0.0
  0
VERTEX
  5
4A7
  8
0
  6
CONTINUOUS
 62
     7
 10
269.1129730051
 20
364.7719910021
 30
0.0
  0
VERTEX
  5
4A8
  8
0
  6
CONTINUOUS
 62
     7
 10
269.0352001196
 20
364.3305888052
 30
0.0
  0
VERTEX
  5
4A9
  8
0
  6
CONTINUOUS
 62
     7
 10
268.954366908
 20
363.8659370716
 30
0.0
  0
VERTEX
  5
4AA
  8
0
  6
CONTINUOUS
 62
     7
 10
268.8705311125
 20
363.3783487256
 30
0.0
  0
VERTEX
  5
4AB
  8
0
  6
CONTINUOUS
 62
     7
 10
268.783750475
 20
362.8681664939
 30
0.0
  0
VERTEX
  5
4AC
  8
0
  6
CONTINUOUS
 62
     7
 10
268.6940846002
 20
362.3357368286
 30
0.0
  0
VERTEX
  5
4AD
  8
0
  6
CONTINUOUS
 62
     7
 10
268.6015949553
 20
361.7814285333
 30
0.0
  0
VERTEX
  5
4AE
  8
0
  6
CONTINUOUS
 62
     7
 10
268.5063448703
 20
361.2056197251
 30
0.0
  0
VERTEX
  5
4AF
  8
0
  6
CONTINUOUS
 62
     7
 10
268.4083976751
 20
360.6087052847
 30
0.0
  0
VERTEX
  5
4B0
  8
0
  6
CONTINUOUS
 62
     7
 10
268.3078241503
 20
359.9910987194
 30
0.0
  0
VERTEX
  5
4B1
  8
0
  6
CONTINUOUS
 62
     7
 10
268.2046932136
 20
359.3532209869
 30
0.0
  0
VERTEX
  5
4B2
  8
0
  6
CONTINUOUS
 62
     7
 10
268.0990719205
 20
358.6955135341
 30
0.0
  0
VERTEX
  5
4B3
  8
0
  6
CONTINUOUS
 62
     7
 10
267.9910366392
 20
358.0184271212
 30
0.0
  0
VERTEX
  5
4B4
  8
0
  6
CONTINUOUS
 62
     7
 10
267.8806618756
 20
357.3224236841
 30
0.0
  0
VERTEX
  5
4B5
  8
0
  6
CONTINUOUS
 62
     7
 10
267.7680202728
 20
356.6079856481
 30
0.0
  0
VERTEX
  5
4B6
  8
0
  6
CONTINUOUS
 62
     7
 10
267.653190062
 20
355.8756028886
 30
0.0
  0
VERTEX
  5
4B7
  8
0
  6
CONTINUOUS
 62
     7
 10
267.5362531995
 20
355.12577832
 30
0.0
  0
VERTEX
  5
4B8
  8
0
  6
CONTINUOUS
 62
     7
 10
267.4172860538
 20
354.3590260322
 30
0.0
  0
VERTEX
  5
4B9
  8
0
  6
CONTINUOUS
 62
     7
 10
267.296372444
 20
353.5758750166
 30
0.0
  0
VERTEX
  5
4BA
  8
0
  6
CONTINUOUS
 62
     7
 10
267.173596189
 20
352.7768598522
 30
0.0
  0
VERTEX
  5
4BB
  8
0
  6
CONTINUOUS
 62
     7
 10
267.0490392452
 20
351.9625337447
 30
0.0
  0
VERTEX
  5
4BC
  8
0
  6
CONTINUOUS
 62
     7
 10
266.922789157
 20
351.133453625
 30
0.0
  0
VERTEX
  5
4BD
  8
0
  6
CONTINUOUS
 62
     7
 10
266.794931606
 20
350.2901894624
 30
0.0
  0
VERTEX
  5
4BE
  8
0
  6
CONTINUOUS
 62
     7
 10
266.6655559992
 20
349.4333205397
 30
0.0
  0
VERTEX
  5
4BF
  8
0
  6
CONTINUOUS
 62
     7
 10
266.534749881
 20
348.5634373154
 30
0.0
  0
VERTEX
  5
4C0
  8
0
  6
CONTINUOUS
 62
     7
 10
266.4026026582
 20
347.6811339731
 30
0.0
  0
VERTEX
  5
4C1
  8
0
  6
CONTINUOUS
 62
     7
 10
266.2692056006
 20
346.787019598
 30
0.0
  0
VERTEX
  5
4C2
  8
0
  6
CONTINUOUS
 62
     7
 10
266.1346499776
 20
345.8817079316
 30
0.0
  0
VERTEX
  5
4C3
  8
0
  6
CONTINUOUS
 62
     7
 10
265.9990307843
 20
344.965820166
 30
0.0
  0
VERTEX
  5
4C4
  8
0
  6
CONTINUOUS
 62
     7
 10
265.8624374276
 20
344.0399868067
 30
0.0
  0
VERTEX
  5
4C5
  8
0
  6
CONTINUOUS
 62
     7
 10
265.724966765
 20
343.1048430155
 30
0.0
  0
VERTEX
  5
4C6
  8
0
  6
CONTINUOUS
 62
     7
 10
265.5867119288
 20
342.1610314052
 30
0.0
  0
VERTEX
  5
4C7
  8
0
  6
CONTINUOUS
 62
     7
 10
265.4477660512
 20
341.2092001761
 30
0.0
  0
VERTEX
  5
4C8
  8
0
  6
CONTINUOUS
 62
     7
 10
265.3082297152
 20
340.2500040482
 30
0.0
  0
VERTEX
  5
4C9
  8
0
  6
CONTINUOUS
 62
     7
 10
265.1681923276
 20
339.2841023977
 30
0.0
  0
VERTEX
  5
4CA
  8
0
  6
CONTINUOUS
 62
     7
 10
265.0277563339
 20
338.312157395
 30
0.0
  0
VERTEX
  5
4CB
  8
0
  6
CONTINUOUS
 62
     7
 10
264.8870130038
 20
337.3348372641
 30
0.0
  0
VERTEX
  5
4CC
  8
0
  6
CONTINUOUS
 62
     7
 10
264.74606292
 20
336.3528144199
 30
0.0
  0
VERTEX
  5
4CD
  8
0
  6
CONTINUOUS
 62
     7
 10
264.6050010776
 20
335.3667626741
 30
0.0
  0
VERTEX
  5
4CE
  8
0
  6
CONTINUOUS
 62
     7
 10
264.463924334
 20
334.3773595641
 30
0.0
  0
VERTEX
  5
4CF
  8
0
  6
CONTINUOUS
 62
     7
 10
264.3229295468
 20
333.385285421
 30
0.0
  0
VERTEX
  5
4D0
  8
0
  6
CONTINUOUS
 62
     7
 10
264.1821154361
 20
332.3912213908
 30
0.0
  0
VERTEX
  5
4D1
  8
0
  6
CONTINUOUS
 62
     7
 10
264.0415751343
 20
331.395850715
 30
0.0
  0
VERTEX
  5
4D2
  8
0
  6
CONTINUOUS
 62
     7
 10
263.9014092242
 20
330.3998570935
 30
0.0
  0
VERTEX
  5
4D3
  8
0
  6
CONTINUOUS
 62
     7
 10
263.761710838
 20
329.4039249539
 30
0.0
  0
VERTEX
  5
4D4
  8
0
  6
CONTINUOUS
 62
     7
 10
263.622578696
 20
328.4087383307
 30
0.0
  0
VERTEX
  5
4D5
  8
0
  6
CONTINUOUS
 62
     7
 10
263.4841059303
 20
327.4149812876
 30
0.0
  0
VERTEX
  5
4D6
  8
0
  6
CONTINUOUS
 62
     7
 10
263.3463893985
 20
326.423336717
 30
0.0
  0
VERTEX
  5
4D7
  8
0
  6
CONTINUOUS
 62
     7
 10
263.209522233
 20
325.4344854157
 30
0.0
  0
VERTEX
  5
4D8
  8
0
  6
CONTINUOUS
 62
     7
 10
263.0735994285
 20
324.4491070162
 30
0.0
  0
VERTEX
  5
4D9
  8
0
  6
CONTINUOUS
 62
     7
 10
262.9387141174
 20
323.4678785901
 30
0.0
  0
VERTEX
  5
4DA
  8
0
  6
CONTINUOUS
 62
     7
 10
262.8049594318
 20
322.4914744149
 30
0.0
  0
VERTEX
  5
4DB
  8
0
  6
CONTINUOUS
 62
     7
 10
262.6724285042
 20
321.5205650429
 30
0.0
  0
VERTEX
  5
4DC
  8
0
  6
CONTINUOUS
 62
     7
 10
262.5412088787
 20
320.5558182324
 30
0.0
  0
VERTEX
  5
4DD
  8
0
  6
CONTINUOUS
 62
     7
 10
262.411391825
 20
319.5978961538
 30
0.0
  0
VERTEX
  5
4DE
  8
0
  6
CONTINUOUS
 62
     7
 10
262.2830686128
 20
318.6474563207
 30
0.0
  0
VERTEX
  5
4DF
  8
0
  6
CONTINUOUS
 62
     7
 10
262.1563267862
 20
317.7051534529
 30
0.0
  0
VERTEX
  5
4E0
  8
0
  6
CONTINUOUS
 62
     7
 10
262.0312520271
 20
316.7716338883
 30
0.0
  0
VERTEX
  5
4E1
  8
0
  6
CONTINUOUS
 62
     7
 10
261.9079300171
 20
315.8475383769
 30
0.0
  0
VERTEX
  5
4E2
  8
0
  6
CONTINUOUS
 62
     7
 10
261.7864483004
 20
314.9335039432
 30
0.0
  0
VERTEX
  5
4E3
  8
0
  6
CONTINUOUS
 62
     7
 10
261.6668869709
 20
314.0301564361
 30
0.0
  0
VERTEX
  5
4E4
  8
0
  6
CONTINUOUS
 62
     7
 10
261.5493298476
 20
313.1381170477
 30
0.0
  0
VERTEX
  5
4E5
  8
0
  6
CONTINUOUS
 62
     7
 10
261.4338588869
 20
312.2580004509
 30
0.0
  0
VERTEX
  5
4E6
  8
0
  6
CONTINUOUS
 62
     7
 10
261.3205504572
 20
311.39040828
 30
0.0
  0
VERTEX
  5
4E7
  8
0
  6
CONTINUOUS
 62
     7
 10
261.2094846522
 20
310.5359384443
 30
0.0
  0
VERTEX
  5
4E8
  8
0
  6
CONTINUOUS
 62
     7
 10
261.1007378405
 20
309.6951795395
 30
0.0
  0
VERTEX
  5
4E9
  8
0
  6
CONTINUOUS
 62
     7
 10
260.9943845278
 20
308.8687052603
 30
0.0
  0
VERTEX
  5
4EA
  8
0
  6
CONTINUOUS
 62
     7
 10
260.8904954946
 20
308.0570874388
 30
0.0
  0
VERTEX
  5
4EB
  8
0
  6
CONTINUOUS
 62
     7
 10
260.7891452467
 20
307.2608811434
 30
0.0
  0
VERTEX
  5
4EC
  8
0
  6
CONTINUOUS
 62
     7
 10
260.690402702
 20
306.4806339915
 30
0.0
  0
VERTEX
  5
4ED
  8
0
  6
CONTINUOUS
 62
     7
 10
260.5943349158
 20
305.7168824251
 30
0.0
  0
SEQEND
  5
7F6
  8
0
  6
CONTINUOUS
 62
     7
  0
LINE
  5
11B
  8
0
  6
CONTINUOUS
 62
     7
 10
307.5973079508
 20
253.0493987377
 30
0.0
 11
307.5973079508
 21
255.9915361579
 31
0.0
  0
LINE
  5
11C
  8
0
  6
CONTINUOUS
 62
     7
 10
169.5973114079
 20
253.0493987377
 30
0.0
 11
169.5973114079
 21
255.9915361579
 31
0.0
  0
LINE
  5
11D
  8
0
  6
CONTINUOUS
 62
     7
 10
307.5973079508
 20
240.9892631347
 30
0.0
 11
307.5973079508
 21
253.0493987377
 31
0.0
  0
LINE
  5
11E
  8
0
  6
CONTINUOUS
 62
     7
 10
169.5973114079
 20
240.9892631347
 30
0.0
 11
169.5973114079
 21
253.0493987377
 31
0.0
  0
LINE
  5
11F
  8
0
  6
CONTINUOUS
 62
     7
 10
162.5973121231
 20
250.4317117508
 30
0.0
 11
162.5973121231
 21
240.9892631347
 31
0.0
  0
LINE
  5
120
  8
0
  6
CONTINUOUS
 62
     7
 10
314.5973072355
 20
250.4317117508
 30
0.0
 11
314.5973072355
 21
240.9892631347
 31
0.0
  0
LINE
  5
121
  8
0
  6
CONTINUOUS
 62
     7
 10
203.1192094987
 20
407.4954120095
 30
0.0
 11
203.1192094987
 21
398.4019560392
 31
0.0
  0
LINE
  5
122
  8
0
  6
CONTINUOUS
 62
     7
 10
274.07540986
 20
407.4954120095
 30
0.0
 11
274.07540986
 21
398.4019560392
 31
0.0
  0
ARC
  5
123
  8
0
  6
CONTINUOUS
 62
     7
 10
301.5880909946
 20
282.6435004297
 30
0.0
 40
6.008520906354454
 50
7.4679733099
 51
78.9262007075
  0
ARC
  5
124
  8
0
  6
CONTINUOUS
 62
     7
 10
301.5872781884
 20
378.3357941638
 30
0.0
 40
6.009426047711502
 50
281.0800069186
 51
352.525819064
  0
ARC
  5
125
  8
0
  6
CONTINUOUS
 62
     7
 10
175.6073411703
 20
378.3357941638
 30
0.0
 40
6.009426047711524
 50
187.474180936
 51
258.9199930814
  0
ARC
  5
126
  8
0
  6
CONTINUOUS
 62
     7
 10
175.6065283641
 20
282.6435004297
 30
0.0
 40
6.008520906354454
 50
101.0737992925
 51
172.5320266901
  0
ARC
  5
127
  8
0
  6
CONTINUOUS
 62
     7
 10
165.5973096793
 20
240.9892656977
 30
0.0
 40
3.0
 50
180.0
 51
270.0
  0
LINE
  5
128
  8
0
  6
CONTINUOUS
 62
     7
 10
165.5973107522
 20
237.9892645056
 30
0.0
 11
166.5973127788
 21
237.9892645056
 31
0.0
  0
ARC
  5
129
  8
0
  6
CONTINUOUS
 62
     7
 10
166.5973096793
 20
240.9892656977
 30
0.0
 40
3.0
 50
270.0
 51
0.0
  0
ARC
  5
12A
  8
0
  6
CONTINUOUS
 62
     7
 10
310.5973096793
 20
240.9892656977
 30
0.0
 40
3.0
 50
180.0
 51
270.0
  0
ARC
  5
12B
  8
0
  6
CONTINUOUS
 62
     7
 10
311.5973096793
 20
240.9892656977
 30
0.0
 40
3.0
 50
270.0
 51
0.0
  0
LINE
  5
12C
  8
0
  6
CONTINUOUS
 62
     7
 10
311.5973086065
 20
237.9892645056
 30
0.0
 11
310.5973065799
 21
237.9892645056
 31
0.0
  0
LINE
  5
12D
  8
0
  6
CONTINUOUS
 62
     7
 10
260.5195105975
 20
305.7221145953
 30
0.0
 11
260.7656628793
 21
297.5803007956
 31
0.0
  0
LINE
  5
12E
  8
0
  6
CONTINUOUS
 62
     7
 10
216.6751087611
 20
305.7221145953
 30
0.0
 11
216.4289564794
 21
297.5803007956
 31
0.0
  0
POLYLINE
  5
12F
  8
0
  6
CONTINUOUS
 62
     7
 66
     1
 10
0.0
 20
0.0
 30
0.0
  0
VERTEX
  5
4EE
  8
0
  6
CONTINUOUS
 62
     7
 10
195.3200795656
 20
292.6078727122
 30
0.0
  0
VERTEX
  5
4EF
  8
0
  6
CONTINUOUS
 62
     7
 10
190.497598142
 20
291.6676131661
 30
0.0
  0
VERTEX
  5
4F0
  8
0
  6
CONTINUOUS
 62
     7
 10
174.4524524515
 20
288.5401462789
 30
0.0
  0
SEQEND
  5
7F5
  8
0
  6
CONTINUOUS
 62
     7
  0
POLYLINE
  5
130
  8
0
  6
CONTINUOUS
 62
     7
 66
     1
 10
0.0
 20
0.0
 30
0.0
  0
VERTEX
  5
4F1
  8
0
  6
CONTINUOUS
 62
     7
 10
195.3200795656
 20
368.3706586833
 30
0.0
  0
VERTEX
  5
4F2
  8
0
  6
CONTINUOUS
 62
     7
 10
190.497598142
 20
369.3109182294
 30
0.0
  0
VERTEX
  5
4F3
  8
0
  6
CONTINUOUS
 62
     7
 10
174.4524524515
 20
372.4383851166
 30
0.0
  0
SEQEND
  5
7F4
  8
0
  6
CONTINUOUS
 62
     7
  0
LINE
  5
131
  8
0
  6
CONTINUOUS
 62
     7
 10
195.3200795656
 20
368.3706586833
 30
0.0
 11
195.3200795656
 21
292.6078727122
 31
0.0
  0
POLYLINE
  5
132
  8
0
  6
CONTINUOUS
 62
     7
 66
     1
 10
0.0
 20
0.0
 30
0.0
  0
VERTEX
  5
4F4
  8
0
  6
CONTINUOUS
 62
     7
 10
281.8745397931
 20
368.3706586833
 30
0.0
  0
VERTEX
  5
4F5
  8
0
  6
CONTINUOUS
 62
     7
 10
286.6970212167
 20
369.3109182294
 30
0.0
  0
VERTEX
  5
4F6
  8
0
  6
CONTINUOUS
 62
     7
 10
302.7421669071
 20
372.4383851166
 30
0.0
  0
SEQEND
  5
7F3
  8
0
  6
CONTINUOUS
 62
     7
  0
POLYLINE
  5
133
  8
0
  6
CONTINUOUS
 62
     7
 66
     1
 10
0.0
 20
0.0
 30
0.0
  0
VERTEX
  5
4F7
  8
0
  6
CONTINUOUS
 62
     7
 10
281.8745397931
 20
292.6078727122
 30
0.0
  0
VERTEX
  5
4F8
  8
0
  6
CONTINUOUS
 62
     7
 10
286.6970212167
 20
291.6676131661
 30
0.0
  0
VERTEX
  5
4F9
  8
0
  6
CONTINUOUS
 62
     7
 10
302.7421669071
 20
288.5401462789
 30
0.0
  0
SEQEND
  5
7F2
  8
0
  6
CONTINUOUS
 62
     7
  0
LINE
  5
134
  8
0
  6
CONTINUOUS
 62
     7
 10
281.8745397931
 20
368.3706586833
 30
0.0
 11
281.8745397931
 21
292.6078727122
 31
0.0
  0
POLYLINE
  5
135
  8
0
  6
CONTINUOUS
 62
     7
 66
     1
 10
0.0
 20
0.0
 30
0.0
  0
VERTEX
  5
4FA
  8
0
  6
CONTINUOUS
 62
     7
 10
260.5943349158
 20
305.7168824251
 30
0.0
  0
VERTEX
  5
4FB
  8
0
  6
CONTINUOUS
 62
     7
 10
260.6066786652
 20
304.9172805275
 30
0.0
  0
VERTEX
  5
4FC
  8
0
  6
CONTINUOUS
 62
     7
 10
260.6194098448
 20
304.1378566648
 30
0.0
  0
VERTEX
  5
4FD
  8
0
  6
CONTINUOUS
 62
     7
 10
260.6325172787
 20
303.3792273726
 30
0.0
  0
VERTEX
  5
4FE
  8
0
  6
CONTINUOUS
 62
     7
 10
260.6459935164
 20
302.6419905598
 30
0.0
  0
VERTEX
  5
4FF
  8
0
  6
CONTINUOUS
 62
     7
 10
260.6598236566
 20
301.9267292346
 30
0.0
  0
VERTEX
  5
500
  8
0
  6
CONTINUOUS
 62
     7
 10
260.6740002489
 20
301.2340059157
 30
0.0
  0
VERTEX
  5
501
  8
0
  6
CONTINUOUS
 62
     7
 10
260.6885102546
 20
300.5643700834
 30
0.0
  0
VERTEX
  5
502
  8
0
  6
CONTINUOUS
 62
     7
 10
260.7033443605
 20
299.9183470036
 30
0.0
  0
VERTEX
  5
503
  8
0
  6
CONTINUOUS
 62
     7
 10
260.7184876656
 20
299.2964470412
 30
0.0
  0
VERTEX
  5
504
  8
0
  6
CONTINUOUS
 62
     7
 10
260.7339308565
 20
298.6991619344
 30
0.0
  0
VERTEX
  5
505
  8
0
  6
CONTINUOUS
 62
     7
 10
260.7496590322
 20
298.1269610698
 30
0.0
  0
VERTEX
  5
506
  8
0
  6
CONTINUOUS
 62
     7
 10
260.7656628793
 20
297.5803007956
 30
0.0
  0
SEQEND
  5
7F1
  8
0
  6
CONTINUOUS
 62
     7
  0
LINE
  5
136
  8
0
  6
CONTINUOUS
 62
     7
 10
269.854786337
 20
368.3706586833
 30
0.0
 11
281.8745397931
 21
368.3706586833
 31
0.0
  0
LINE
  5
137
  8
0
  6
CONTINUOUS
 62
     7
 10
195.3200795656
 20
292.6078727122
 30
0.0
 11
281.8745397931
 21
292.6078727122
 31
0.0
  0
LINE
  5
138
  8
0
  6
CONTINUOUS
 62
     7
 10
207.3398330217
 20
368.3706586833
 30
0.0
 11
195.3200795656
 21
368.3706586833
 31
0.0
  0
POLYLINE
  5
139
  8
0
  6
CONTINUOUS
 62
     7
 66
     1
 10
0.0
 20
0.0
 30
0.0
  0
VERTEX
  5
507
  8
0
  6
CONTINUOUS
 62
     7
 10
216.6002844428
 20
305.7168824251
 30
0.0
  0
VERTEX
  5
508
  8
0
  6
CONTINUOUS
 62
     7
 10
216.5879406934
 20
304.9172805275
 30
0.0
  0
VERTEX
  5
509
  8
0
  6
CONTINUOUS
 62
     7
 10
216.5752095139
 20
304.1378566648
 30
0.0
  0
VERTEX
  5
50A
  8
0
  6
CONTINUOUS
 62
     7
 10
216.5621020799
 20
303.3792273726
 30
0.0
  0
VERTEX
  5
50B
  8
0
  6
CONTINUOUS
 62
     7
 10
216.5486258423
 20
302.6419905598
 30
0.0
  0
VERTEX
  5
50C
  8
0
  6
CONTINUOUS
 62
     7
 10
216.534795702
 20
301.9267292346
 30
0.0
  0
VERTEX
  5
50D
  8
0
  6
CONTINUOUS
 62
     7
 10
216.5206191098
 20
301.2340059157
 30
0.0
  0
VERTEX
  5
50E
  8
0
  6
CONTINUOUS
 62
     7
 10
216.5061091041
 20
300.5643700834
 30
0.0
  0
VERTEX
  5
50F
  8
0
  6
CONTINUOUS
 62
     7
 10
216.4912749981
 20
299.9183470036
 30
0.0
  0
VERTEX
  5
510
  8
0
  6
CONTINUOUS
 62
     7
 10
216.4761316931
 20
299.2964470412
 30
0.0
  0
VERTEX
  5
511
  8
0
  6
CONTINUOUS
 62
     7
 10
216.4606885021
 20
298.6991619344
 30
0.0
  0
VERTEX
  5
512
  8
0
  6
CONTINUOUS
 62
     7
 10
216.4449603265
 20
298.1269610698
 30
0.0
  0
VERTEX
  5
513
  8
0
  6
CONTINUOUS
 62
     7
 10
216.4289564794
 20
297.5803007956
 30
0.0
  0
SEQEND
  5
7F0
  8
0
  6
CONTINUOUS
 62
     7
  0
LINE
  5
13A
  8
0
  6
CONTINUOUS
 62
     7
 10
268.0973098582
 20
480.4892716582
 30
0.0
 11
209.0973095005
 21
480.4892716582
 31
0.0
  0
POLYLINE
  5
13B
  8
0
  6
CONTINUOUS
 62
     7
 66
     1
 10
0.0
 20
0.0
 30
0.0
  0
VERTEX
  5
514
  8
0
  6
CONTINUOUS
 62
     7
 10
255.6549445694
 20
528.6287841971
 30
0.0
  0
VERTEX
  5
515
  8
0
  6
CONTINUOUS
 62
     7
 10
258.322777689
 20
485.495197552
 30
0.0
  0
VERTEX
  5
516
  8
0
  6
CONTINUOUS
 62
     7
 10
258.6315521007
 20
480.4892716582
 30
0.0
  0
SEQEND
  5
7EF
  8
0
  6
CONTINUOUS
 62
     7
  0
POLYLINE
  5
13C
  8
0
  6
CONTINUOUS
 62
     7
 66
     1
 10
0.0
 20
0.0
 30
0.0
  0
VERTEX
  5
517
  8
0
  6
CONTINUOUS
 62
     7
 10
221.5396747893
 20
528.6287841971
 30
0.0
  0
VERTEX
  5
518
  8
0
  6
CONTINUOUS
 62
     7
 10
218.8718416696
 20
485.495197552
 30
0.0
  0
VERTEX
  5
519
  8
0
  6
CONTINUOUS
 62
     7
 10
218.5630672579
 20
480.4892716582
 30
0.0
  0
SEQEND
  5
7EE
  8
0
  6
CONTINUOUS
 62
     7
  0
ARC
  5
13D
  8
0
  6
CONTINUOUS
 62
     7
 10
253.7639519367
 20
528.6017176912
 30
0.0
 40
1.89118632944236
 50
0.8200405622
 51
86.4468565494
  0
ARC
  5
13E
  8
0
  6
CONTINUOUS
 62
     7
 10
223.430667422
 20
528.6017176912
 30
0.0
 40
1.89118632944236
 50
93.5531434506
 51
179.1799594378
  0
LINE
  5
13F
  8
0
  6
CONTINUOUS
 62
     7
 10
253.881156907
 20
530.489268678
 30
0.0
 11
223.3134624516
 21
530.489268678
 31
0.0
  0
LINE
  5
140
  8
0
  6
CONTINUOUS
 62
     7
 10
264.0469823932
 20
527.5416252787
 30
0.0
 11
264.7582520699
 21
480.4892716582
 31
0.0
  0
LINE
  5
141
  8
0
  6
CONTINUOUS
 62
     7
 10
259.0469834363
 20
527.5416252787
 30
0.0
 11
259.7582512503
 21
480.4892716582
 31
0.0
  0
ARC
  5
142
  8
0
  6
CONTINUOUS
 62
     7
 10
256.2260992923
 20
527.6741097924
 30
0.0
 40
2.823993537556726
 50
357.3110453004
 51
85.4667069918
  0
LINE
  5
143
  8
0
  6
CONTINUOUS
 62
     7
 10
253.881156907
 20
530.489268678
 30
0.0
 11
256.4493031209
 21
530.489268678
 31
0.0
  0
LINE
  5
144
  8
0
  6
CONTINUOUS
 62
     7
 10
218.1476359224
 20
527.5416252787
 30
0.0
 11
217.4363681083
 21
480.4892716582
 31
0.0
  0
ARC
  5
145
  8
0
  6
CONTINUOUS
 62
     7
 10
220.9685200664
 20
527.6741097924
 30
0.0
 40
2.823993537556731
 50
94.5332930082
 51
182.6889546996
  0
LINE
  5
146
  8
0
  6
CONTINUOUS
 62
     7
 10
223.3134624516
 20
530.489268678
 30
0.0
 11
220.7453162378
 21
530.489268678
 31
0.0
  0
LINE
  5
147
  8
0
  6
CONTINUOUS
 62
     7
 10
213.1476369655
 20
527.5416252787
 30
0.0
 11
212.4363672888
 21
480.4892716582
 31
0.0
  0
ARC
  5
148
  8
0
  6
CONTINUOUS
 62
     7
 10
261.2261003554
 20
527.6741116485
 30
0.0
 40
2.823991520768661
 50
357.3110056784
 51
85.4667466139
  0
LINE
  5
149
  8
0
  6
CONTINUOUS
 62
     7
 10
261.4493020778
 20
530.489268678
 30
0.0
 11
256.4493031209
 21
530.489268678
 31
0.0
  0
ARC
  5
14A
  8
0
  6
CONTINUOUS
 62
     7
 10
215.9685190033
 20
527.6741116485
 30
0.0
 40
2.823991520768661
 50
94.5332533861
 51
182.6889943216
  0
LINE
  5
14B
  8
0
  6
CONTINUOUS
 62
     7
 10
220.7453162378
 20
530.489268678
 30
0.0
 11
215.7453172808
 21
530.489268678
 31
0.0
  0
LINE
  5
14C
  8
0
  6
CONTINUOUS
 62
     7
 10
227.0162259197
 20
530.7668177064
 30
0.0
 11
250.931213141
 21
530.7668177064
 31
0.0
  0
LINE
  5
14D
  8
0
  6
CONTINUOUS
 62
     7
 10
226.2634062176
 20
530.7668177064
 30
0.0
 11
227.0162259197
 21
530.7668177064
 31
0.0
  0
ARC
  5
14E
  8
0
  6
CONTINUOUS
 62
     7
 10
238.5973096793
 20
550.7737762248
 30
0.0
 40
11.50003473165278
 50
240.2519628085
 51
299.7480371915
  0
LINE
  5
14F
  8
0
  6
CONTINUOUS
 62
     7
 10
244.3034746652
 20
540.7892642195
 30
0.0
 11
232.8911446934
 21
540.7892642195
 31
0.0
  0
POLYLINE
  5
150
  8
0
  6
CONTINUOUS
 62
     7
 66
     1
 10
0.0
 20
0.0
 30
0.0
  0
VERTEX
  5
51A
  8
0
  6
CONTINUOUS
 62
     7
 10
248.5817815145
 20
540.7892642195
 30
0.0
  0
VERTEX
  5
51B
  8
0
  6
CONTINUOUS
 62
     7
 10
248.4212447857
 20
544.4661555465
 30
0.0
  0
VERTEX
  5
51C
  8
0
  6
CONTINUOUS
 62
     7
 10
248.2532919353
 20
548.312920111
 30
0.0
  0
VERTEX
  5
51D
  8
0
  6
CONTINUOUS
 62
     7
 10
248.078049623
 20
552.3266372855
 30
0.0
  0
VERTEX
  5
51E
  8
0
  6
CONTINUOUS
 62
     7
 10
247.8956491655
 20
556.5042821343
 30
0.0
  0
VERTEX
  5
51F
  8
0
  6
CONTINUOUS
 62
     7
 10
247.706230261
 20
560.8426956113
 30
0.0
  0
VERTEX
  5
520
  8
0
  6
CONTINUOUS
 62
     7
 10
247.5099335393
 20
565.338614362
 30
0.0
  0
VERTEX
  5
521
  8
0
  6
CONTINUOUS
 62
     7
 10
247.3069089433
 20
569.9886409219
 30
0.0
  0
VERTEX
  5
522
  8
0
  6
CONTINUOUS
 62
     7
 10
247.0973101413
 20
574.7892586167
 30
0.0
  0
SEQEND
  5
7ED
  8
0
  6
CONTINUOUS
 62
     7
  0
POLYLINE
  5
151
  8
0
  6
CONTINUOUS
 62
     7
 66
     1
 10
0.0
 20
0.0
 30
0.0
  0
VERTEX
  5
523
  8
0
  6
CONTINUOUS
 62
     7
 10
250.0973097017
 20
539.2737416203
 30
0.0
  0
VERTEX
  5
524
  8
0
  6
CONTINUOUS
 62
     7
 10
250.0954666143
 20
539.2755744632
 30
0.0
  0
VERTEX
  5
525
  8
0
  6
CONTINUOUS
 62
     7
 10
250.0807256406
 20
539.2903266127
 30
0.0
  0
VERTEX
  5
526
  8
0
  6
CONTINUOUS
 62
     7
 10
250.051263251
 20
539.3197862084
 30
0.0
  0
VERTEX
  5
527
  8
0
  6
CONTINUOUS
 62
     7
 10
250.0071166983
 20
539.363938349
 30
0.0
  0
VERTEX
  5
528
  8
0
  6
CONTINUOUS
 62
     7
 10
249.9483418619
 20
539.4227085288
 30
0.0
  0
VERTEX
  5
529
  8
0
  6
CONTINUOUS
 62
     7
 10
249.8750160416
 20
539.496037143
 30
0.0
  0
VERTEX
  5
52A
  8
0
  6
CONTINUOUS
 62
     7
 10
249.7872314384
 20
539.5838198836
 30
0.0
  0
VERTEX
  5
52B
  8
0
  6
CONTINUOUS
 62
     7
 10
249.6851016736
 20
539.6859524424
 30
0.0
  0
VERTEX
  5
52C
  8
0
  6
CONTINUOUS
 62
     7
 10
249.5687562009
 20
539.8022858079
 30
0.0
  0
VERTEX
  5
52D
  8
0
  6
CONTINUOUS
 62
     7
 10
249.4383458948
 20
539.9327007706
 30
0.0
  0
VERTEX
  5
52E
  8
0
  6
CONTINUOUS
 62
     7
 10
249.2940374618
 20
540.0770036156
 30
0.0
  0
VERTEX
  5
52F
  8
0
  6
CONTINUOUS
 62
     7
 10
249.136015304
 20
540.2350304301
 30
0.0
  0
VERTEX
  5
530
  8
0
  6
CONTINUOUS
 62
     7
 10
248.9644824495
 20
540.4065576966
 30
0.0
  0
VERTEX
  5
531
  8
0
  6
CONTINUOUS
 62
     7
 10
248.779659622
 20
540.5913917001
 30
0.0
  0
VERTEX
  5
532
  8
0
  6
CONTINUOUS
 62
     7
 10
248.5817815145
 20
540.7892642195
 30
0.0
  0
SEQEND
  5
7EC
  8
0
  6
CONTINUOUS
 62
     7
  0
POLYLINE
  5
152
  8
0
  6
CONTINUOUS
 62
     7
 66
     1
 10
0.0
 20
0.0
 30
0.0
  0
VERTEX
  5
533
  8
0
  6
CONTINUOUS
 62
     7
 10
228.6128378441
 20
540.7892642195
 30
0.0
  0
VERTEX
  5
534
  8
0
  6
CONTINUOUS
 62
     7
 10
228.4149597367
 20
540.5913917001
 30
0.0
  0
VERTEX
  5
535
  8
0
  6
CONTINUOUS
 62
     7
 10
228.2301369091
 20
540.4065576966
 30
0.0
  0
VERTEX
  5
536
  8
0
  6
CONTINUOUS
 62
     7
 10
228.0586040547
 20
540.2350304301
 30
0.0
  0
VERTEX
  5
537
  8
0
  6
CONTINUOUS
 62
     7
 10
227.9005818968
 20
540.0770036156
 30
0.0
  0
VERTEX
  5
538
  8
0
  6
CONTINUOUS
 62
     7
 10
227.7562734639
 20
539.9327007706
 30
0.0
  0
VERTEX
  5
539
  8
0
  6
CONTINUOUS
 62
     7
 10
227.6258631578
 20
539.8022858079
 30
0.0
  0
VERTEX
  5
53A
  8
0
  6
CONTINUOUS
 62
     7
 10
227.5095176851
 20
539.6859524424
 30
0.0
  0
VERTEX
  5
53B
  8
0
  6
CONTINUOUS
 62
     7
 10
227.4073879203
 20
539.5838198836
 30
0.0
  0
VERTEX
  5
53C
  8
0
  6
CONTINUOUS
 62
     7
 10
227.319603317
 20
539.496037143
 30
0.0
  0
VERTEX
  5
53D
  8
0
  6
CONTINUOUS
 62
     7
 10
227.2462774968
 20
539.4227085288
 30
0.0
  0
VERTEX
  5
53E
  8
0
  6
CONTINUOUS
 62
     7
 10
227.1875026604
 20
539.363938349
 30
0.0
  0
VERTEX
  5
53F
  8
0
  6
CONTINUOUS
 62
     7
 10
227.1433561077
 20
539.3197862084
 30
0.0
  0
VERTEX
  5
540
  8
0
  6
CONTINUOUS
 62
     7
 10
227.1138937181
 20
539.2903266127
 30
0.0
  0
VERTEX
  5
541
  8
0
  6
CONTINUOUS
 62
     7
 10
227.0991527444
 20
539.2755744632
 30
0.0
  0
VERTEX
  5
542
  8
0
  6
CONTINUOUS
 62
     7
 10
227.097309657
 20
539.2737416203
 30
0.0
  0
SEQEND
  5
7EB
  8
0
  6
CONTINUOUS
 62
     7
  0
POLYLINE
  5
153
  8
0
  6
CONTINUOUS
 62
     7
 66
     1
 10
0.0
 20
0.0
 30
0.0
  0
VERTEX
  5
543
  8
0
  6
CONTINUOUS
 62
     7
 10
230.0973092174
 20
574.7892586167
 30
0.0
  0
VERTEX
  5
544
  8
0
  6
CONTINUOUS
 62
     7
 10
229.8877104154
 20
569.9886409219
 30
0.0
  0
VERTEX
  5
545
  8
0
  6
CONTINUOUS
 62
     7
 10
229.6846858194
 20
565.338614362
 30
0.0
  0
VERTEX
  5
546
  8
0
  6
CONTINUOUS
 62
     7
 10
229.4883890977
 20
560.8426956113
 30
0.0
  0
VERTEX
  5
547
  8
0
  6
CONTINUOUS
 62
     7
 10
229.2989701932
 20
556.5042821343
 30
0.0
  0
VERTEX
  5
548
  8
0
  6
CONTINUOUS
 62
     7
 10
229.1165697357
 20
552.3266372855
 30
0.0
  0
VERTEX
  5
549
  8
0
  6
CONTINUOUS
 62
     7
 10
228.9413274234
 20
548.312920111
 30
0.0
  0
VERTEX
  5
54A
  8
0
  6
CONTINUOUS
 62
     7
 10
228.7733745729
 20
544.4661555465
 30
0.0
  0
VERTEX
  5
54B
  8
0
  6
CONTINUOUS
 62
     7
 10
228.6128378441
 20
540.7892642195
 30
0.0
  0
SEQEND
  5
7EA
  8
0
  6
CONTINUOUS
 62
     7
  0
LINE
  5
154
  8
0
  6
CONTINUOUS
 62
     7
 10
230.0973092174
 20
574.7892586167
 30
0.0
 11
230.8513428984
 21
574.7892586167
 31
0.0
  0
POLYLINE
  5
155
  8
0
  6
CONTINUOUS
 62
     7
 66
     1
 10
0.0
 20
0.0
 30
0.0
  0
VERTEX
  5
54C
  8
0
  6
CONTINUOUS
 62
     7
 10
232.8911446934
 20
540.7892642195
 30
0.0
  0
VERTEX
  5
54D
  8
0
  6
CONTINUOUS
 62
     7
 10
232.6189912824
 20
544.4661555465
 30
0.0
  0
VERTEX
  5
54E
  8
0
  6
CONTINUOUS
 62
     7
 10
232.3513505949
 20
548.312920111
 30
0.0
  0
VERTEX
  5
54F
  8
0
  6
CONTINUOUS
 62
     7
 10
232.0884256592
 20
552.3266372855
 30
0.0
  0
VERTEX
  5
550
  8
0
  6
CONTINUOUS
 62
     7
 10
231.8304139158
 20
556.5042821343
 30
0.0
  0
VERTEX
  5
551
  8
0
  6
CONTINUOUS
 62
     7
 10
231.577511408
 20
560.8426956113
 30
0.0
  0
VERTEX
  5
552
  8
0
  6
CONTINUOUS
 62
     7
 10
231.32990766
 20
565.338614362
 30
0.0
  0
VERTEX
  5
553
  8
0
  6
CONTINUOUS
 62
     7
 10
231.0877907989
 20
569.9886409219
 30
0.0
  0
VERTEX
  5
554
  8
0
  6
CONTINUOUS
 62
     7
 10
230.8513428984
 20
574.7892586167
 30
0.0
  0
SEQEND
  5
7E9
  8
0
  6
CONTINUOUS
 62
     7
  0
POLYLINE
  5
156
  8
0
  6
CONTINUOUS
 62
     7
 66
     1
 10
0.0
 20
0.0
 30
0.0
  0
VERTEX
  5
555
  8
0
  6
CONTINUOUS
 62
     7
 10
246.3432764603
 20
574.7892586167
 30
0.0
  0
VERTEX
  5
556
  8
0
  6
CONTINUOUS
 62
     7
 10
246.1068285597
 20
569.9886409219
 30
0.0
  0
VERTEX
  5
557
  8
0
  6
CONTINUOUS
 62
     7
 10
245.8647116987
 20
565.338614362
 30
0.0
  0
VERTEX
  5
558
  8
0
  6
CONTINUOUS
 62
     7
 10
245.6171079507
 20
560.8426956113
 30
0.0
  0
VERTEX
  5
559
  8
0
  6
CONTINUOUS
 62
     7
 10
245.3642054429
 20
556.5042821343
 30
0.0
  0
VERTEX
  5
55A
  8
0
  6
CONTINUOUS
 62
     7
 10
245.1061936995
 20
552.3266372855
 30
0.0
  0
VERTEX
  5
55B
  8
0
  6
CONTINUOUS
 62
     7
 10
244.8432687638
 20
548.312920111
 30
0.0
  0
VERTEX
  5
55C
  8
0
  6
CONTINUOUS
 62
     7
 10
244.5756280763
 20
544.4661555465
 30
0.0
  0
VERTEX
  5
55D
  8
0
  6
CONTINUOUS
 62
     7
 10
244.3034746652
 20
540.7892642195
 30
0.0
  0
SEQEND
  5
7E8
  8
0
  6
CONTINUOUS
 62
     7
  0
LINE
  5
157
  8
0
  6
CONTINUOUS
 62
     7
 10
246.3432764603
 20
574.7892586167
 30
0.0
 11
247.0973101413
 21
574.7892586167
 31
0.0
  0
LINE
  5
158
  8
0
  6
CONTINUOUS
 62
     7
 10
246.3432764603
 20
574.7892586167
 30
0.0
 11
230.8513428984
 21
574.7892586167
 31
0.0
  0
LINE
  5
159
  8
0
  6
CONTINUOUS
 62
     7
 10
194.6072415417
 20
372.7026944633
 30
0.0
 11
169.6489737337
 21
377.5540915902
 31
0.0
  0
ARC
  5
15A
  8
0
  6
CONTINUOUS
 62
     7
 10
195.752096769
 20
378.5924570474
 30
0.0
 40
5.999999999999992
 50
259.0
 51
8.0
  0
LINE
  5
15B
  8
0
  6
CONTINUOUS
 62
     7
 10
199.1557017868
 20
397.4863318379
 30
0.0
 11
201.6937048143
 21
379.4274953778
 31
0.0
  0
ARC
  5
15C
  8
0
  6
CONTINUOUS
 62
     7
 10
205.0973096793
 20
398.3213704679
 30
0.0
 40
6.0
 50
180.0
 51
188.0
  0
LINE
  5
15D
  8
0
  6
CONTINUOUS
 62
     7
 10
199.0973078614
 20
416.8692407782
 30
0.0
 11
199.0973078614
 21
398.3213705595
 31
0.0
  0
LINE
  5
15E
  8
0
  6
CONTINUOUS
 62
     7
 10
278.0973114973
 20
416.8692407782
 30
0.0
 11
278.0973114973
 21
398.3213705595
 31
0.0
  0
ARC
  5
15F
  8
0
  6
CONTINUOUS
 62
     7
 10
272.0973096793
 20
398.3213704679
 30
0.0
 40
6.000000000000028
 50
352.0
 51
0.0
  0
LINE
  5
160
  8
0
  6
CONTINUOUS
 62
     7
 10
278.0389175719
 20
397.4863318379
 30
0.0
 11
275.5009145444
 21
379.4274953778
 31
0.0
  0
ARC
  5
161
  8
0
  6
CONTINUOUS
 62
     7
 10
281.4425225897
 20
378.5924570474
 30
0.0
 40
6.00000000000002
 50
172.0
 51
281.0
  0
LINE
  5
162
  8
0
  6
CONTINUOUS
 62
     7
 10
282.587377817
 20
372.7026944633
 30
0.0
 11
307.5456456249
 21
377.5540915902
 31
0.0
  0
LINE
  5
163
  8
0
  6
CONTINUOUS
 62
     7
 10
307.5456456249
 20
283.4244398053
 30
0.0
 11
282.0565015977
 21
288.3790274735
 31
0.0
  0
ARC
  5
164
  8
0
  6
CONTINUOUS
 62
     7
 10
280.9116491175
 20
282.4892656977
 30
0.0
 40
6.000000000000044
 50
79.0
 51
90.0
  0
LINE
  5
165
  8
0
  6
CONTINUOUS
 62
     7
 10
280.9116491085
 20
288.489266264
 30
0.0
 11
196.2829702502
 21
288.489266264
 31
0.0
  0
ARC
  5
166
  8
0
  6
CONTINUOUS
 62
     7
 10
196.2829702412
 20
282.4892656977
 30
0.0
 40
6.000000000000044
 50
90.0
 51
101.0
  0
LINE
  5
167
  8
0
  6
CONTINUOUS
 62
     7
 10
169.6489737337
 20
283.4244398053
 30
0.0
 11
195.138117761
 21
288.3790274735
 31
0.0
  0
LINE
  5
168
  8
0
  6
CONTINUOUS
 62
     7
 10
159.5973060435
 20
331.9772961202
 30
0.0
 11
159.5973060435
 21
422.9892668898
 31
0.0
  0
LINE
  5
169
  8
0
  6
CONTINUOUS
 62
     7
 10
159.5973060435
 20
237.9892645056
 30
0.0
 11
159.5973060435
 21
329.0012352753
 31
0.0
  0
LINE
  5
16A
  8
0
  6
CONTINUOUS
 62
     7
 10
317.5973133152
 20
331.9772961202
 30
0.0
 11
317.5973133152
 21
422.9892668898
 31
0.0
  0
LINE
  5
16B
  8
0
  6
CONTINUOUS
 62
     7
 10
317.5973133152
 20
237.9892645056
 30
0.0
 11
317.5973133152
 21
329.0012352753
 31
0.0
  0
LINE
  5
16C
  8
0
  6
CONTINUOUS
 62
     7
 10
310.5973065799
 20
329.0012352753
 30
0.0
 11
310.5973065799
 21
253.4944070156
 31
0.0
  0
ARC
  5
16D
  8
0
  6
CONTINUOUS
 62
     7
 10
310.3542452166
 20
256.2530305046
 30
0.0
 40
2.769310813318101
 50
185.4182711359
 51
275.0353079992
  0
LINE
  5
16E
  8
0
  6
CONTINUOUS
 62
     7
 10
310.5973065799
 20
422.9892668898
 30
0.0
 11
310.5973065799
 21
331.9772961202
 31
0.0
  0
LINE
  5
16F
  8
0
  6
CONTINUOUS
 62
     7
 10
166.5973127788
 20
422.9892668898
 30
0.0
 11
166.5973127788
 21
331.9772961202
 31
0.0
  0
ARC
  5
170
  8
0
  6
CONTINUOUS
 62
     7
 10
166.8403741421
 20
256.2530305046
 30
0.0
 40
2.769310813318101
 50
264.9646920008
 51
354.5817288641
  0
LINE
  5
171
  8
0
  6
CONTINUOUS
 62
     7
 10
166.5973127788
 20
329.0012352753
 30
0.0
 11
166.5973127788
 21
253.4944070156
 31
0.0
  0
LINE
  5
172
  8
0
  6
CONTINUOUS
 62
     7
 10
166.5973127788
 20
253.4944070156
 30
0.0
 11
165.5973107522
 21
253.4944070156
 31
0.0
  0
LINE
  5
173
  8
0
  6
CONTINUOUS
 62
     7
 10
310.5973065799
 20
253.4944070156
 30
0.0
 11
311.5973086065
 21
253.4944070156
 31
0.0
  0
LINE
  5
174
  8
0
  6
CONTINUOUS
 62
     7
 10
269.4684886342
 20
425.4892645056
 30
0.0
 11
269.3953611856
 21
432.4892637904
 31
0.0
  0
LINE
  5
175
  8
0
  6
CONTINUOUS
 62
     7
 10
207.7261307245
 20
425.4892645056
 30
0.0
 11
207.7992581731
 21
432.4892637904
 31
0.0
  0
LINE
  5
176
  8
0
  6
CONTINUOUS
 62
     7
 10
269.0076255208
 20
433.396923321
 30
0.0
 11
269.3953611856
 21
433.0539507444
 31
0.0
  0
LINE
  5
177
  8
0
  6
CONTINUOUS
 62
     7
 10
208.1869938379
 20
433.396923321
 30
0.0
 11
207.7992581731
 21
433.0539507444
 31
0.0
  0
LINE
  5
178
  8
0
  6
CONTINUOUS
 62
     7
 10
269.3953611856
 20
433.0539507444
 30
0.0
 11
269.3953611856
 21
432.4892637904
 31
0.0
  0
LINE
  5
179
  8
0
  6
CONTINUOUS
 62
     7
 10
207.7992581731
 20
433.0539507444
 30
0.0
 11
207.7992581731
 21
432.4892637904
 31
0.0
  0
LINE
  5
17A
  8
0
  6
CONTINUOUS
 62
     7
 10
269.0650843983
 20
417.9193107064
 30
0.0
 11
269.1427641516
 21
425.4892645056
 31
0.0
  0
LINE
  5
17B
  8
0
  6
CONTINUOUS
 62
     7
 10
208.1295349603
 20
417.9193107064
 30
0.0
 11
208.051855207
 21
425.4892645056
 31
0.0
  0
LINE
  5
17C
  8
0
  6
CONTINUOUS
 62
     7
 10
209.1589425659
 20
416.992302018
 30
0.0
 11
208.1295349603
 21
417.9193107064
 31
0.0
  0
LINE
  5
17D
  8
0
  6
CONTINUOUS
 62
     7
 10
268.0356767928
 20
416.992302018
 30
0.0
 11
269.0650843983
 21
417.9193107064
 31
0.0
  0
LINE
  5
17E
  8
0
  6
CONTINUOUS
 62
     7
 10
279.9686328476
 20
425.4892645056
 30
0.0
 11
279.6073281174
 21
432.4892637904
 31
0.0
  0
LINE
  5
17F
  8
0
  6
CONTINUOUS
 62
     7
 10
197.2259865111
 20
425.4892645056
 30
0.0
 11
197.5872912412
 21
432.4892637904
 31
0.0
  0
LINE
  5
180
  8
0
  6
CONTINUOUS
 62
     7
 10
279.6073281174
 20
433.0539507444
 30
0.0
 11
279.6073281174
 21
432.4892637904
 31
0.0
  0
LINE
  5
181
  8
0
  6
CONTINUOUS
 62
     7
 10
197.5872912412
 20
433.0539507444
 30
0.0
 11
197.5872912412
 21
432.4892637904
 31
0.0
  0
LINE
  5
182
  8
0
  6
CONTINUOUS
 62
     7
 10
276.7582037454
 20
433.5640472944
 30
0.0
 11
279.6073281174
 21
433.0539507444
 31
0.0
  0
LINE
  5
183
  8
0
  6
CONTINUOUS
 62
     7
 10
200.4364156132
 20
433.5640472944
 30
0.0
 11
197.5872912412
 21
433.0539507444
 31
0.0
  0
LINE
  5
184
  8
0
  6
CONTINUOUS
 62
     7
 10
251.3259579396
 20
435.0274530823
 30
0.0
 11
251.8153083479
 21
450.4892630155
 31
0.0
  0
LINE
  5
185
  8
0
  6
CONTINUOUS
 62
     7
 10
225.8686614191
 20
435.0274530823
 30
0.0
 11
225.3793110108
 21
450.4892630155
 31
0.0
  0
LINE
  5
186
  8
0
  6
CONTINUOUS
 62
     7
 10
279.0372879213
 20
417.9193107064
 30
0.0
 11
279.428871811
 21
425.4892645056
 31
0.0
  0
LINE
  5
187
  8
0
  6
CONTINUOUS
 62
     7
 10
198.1573314374
 20
417.9193107064
 30
0.0
 11
197.7657475477
 21
425.4892645056
 31
0.0
  0
LINE
  5
188
  8
0
  6
CONTINUOUS
 62
     7
 10
272.8263833528
 20
416.8097851451
 30
0.0
 11
279.0372879213
 21
417.9193107064
 31
0.0
  0
LINE
  5
189
  8
0
  6
CONTINUOUS
 62
     7
 10
204.3682360059
 20
416.8097851451
 30
0.0
 11
198.1573314374
 21
417.9193107064
 31
0.0
  0
LINE
  5
18A
  8
0
  6
CONTINUOUS
 62
     7
 10
271.9214023059
 20
394.4892687376
 30
0.0
 11
273.0902680164
 21
416.800211149
 31
0.0
  0
LINE
  5
18B
  8
0
  6
CONTINUOUS
 62
     7
 10
263.548912943
 20
394.4892687376
 30
0.0
 11
263.548912943
 21
417.0438451345
 31
0.0
  0
LINE
  5
18C
  8
0
  6
CONTINUOUS
 62
     7
 10
213.6457064157
 20
394.4892687376
 30
0.0
 11
213.6457064157
 21
417.0438451345
 31
0.0
  0
LINE
  5
18D
  8
0
  6
CONTINUOUS
 62
     7
 10
205.2732170528
 20
394.4892687376
 30
0.0
 11
204.1043513423
 21
416.800211149
 31
0.0
  0
LINE
  5
18E
  8
0
  6
CONTINUOUS
 62
     7
 10
221.2973092651
 20
450.4892630155
 30
0.0
 11
221.2973092651
 21
469.2559120829
 31
0.0
  0
LINE
  5
18F
  8
0
  6
CONTINUOUS
 62
     7
 10
255.8973100936
 20
450.4892630155
 30
0.0
 11
255.8973100936
 21
469.2559120829
 31
0.0
  0
LINE
  5
190
  8
0
  6
CONTINUOUS
 62
     7
 10
232.0973095452
 20
385.9722008581
 30
0.0
 11
232.0973095452
 21
382.972202229
 31
0.0
  0
LINE
  5
191
  8
0
  6
CONTINUOUS
 62
     7
 10
245.0973098134
 20
385.9722008581
 30
0.0
 11
245.0973098134
 21
382.972202229
 31
0.0
  0
LINE
  5
192
  8
0
  6
CONTINUOUS
 62
     7
 10
166.5973127788
 20
253.4944070156
 30
0.0
 11
166.5973127788
 21
252.0233420308
 31
0.0
  0
LINE
  5
193
  8
0
  6
CONTINUOUS
 62
     7
 10
165.5973107522
 20
252.0233420308
 30
0.0
 11
166.5973127788
 21
252.0233420308
 31
0.0
  0
LINE
  5
194
  8
0
  6
CONTINUOUS
 62
     7
 10
165.5973107522
 20
252.0233420308
 30
0.0
 11
165.5973107522
 21
253.4944070156
 31
0.0
  0
LINE
  5
195
  8
0
  6
CONTINUOUS
 62
     7
 10
310.5973065799
 20
253.4944070156
 30
0.0
 11
310.5973065799
 21
252.0233420308
 31
0.0
  0
POLYLINE
  5
196
  8
0
  6
CONTINUOUS
 62
     7
 66
     1
 10
0.0
 20
0.0
 30
0.0
  0
VERTEX
  5
55E
  8
0
  6
CONTINUOUS
 62
     7
 10
310.5973065799
 20
252.0233420308
 30
0.0
  0
VERTEX
  5
55F
  8
0
  6
CONTINUOUS
 62
     7
 10
310.349574775
 20
252.0268438037
 30
0.0
  0
VERTEX
  5
560
  8
0
  6
CONTINUOUS
 62
     7
 10
310.1035268014
 20
252.0373342211
 30
0.0
  0
VERTEX
  5
561
  8
0
  6
CONTINUOUS
 62
     7
 10
309.8608539408
 20
252.0547387774
 30
0.0
  0
VERTEX
  5
562
  8
0
  6
CONTINUOUS
 62
     7
 10
309.6232102221
 20
252.0789308126
 30
0.0
  0
VERTEX
  5
563
  8
0
  6
CONTINUOUS
 62
     7
 10
309.3922198718
 20
252.1097613151
 30
0.0
  0
VERTEX
  5
564
  8
0
  6
CONTINUOUS
 62
     7
 10
309.1694698637
 20
252.1470067675
 30
0.0
  0
VERTEX
  5
565
  8
0
  6
CONTINUOUS
 62
     7
 10
308.956465215
 20
252.1904138501
 30
0.0
  0
VERTEX
  5
566
  8
0
  6
CONTINUOUS
 62
     7
 10
308.7546736901
 20
252.2396919902
 30
0.0
  0
VERTEX
  5
567
  8
0
  6
CONTINUOUS
 62
     7
 10
308.5654661959
 20
252.2945059116
 30
0.0
  0
VERTEX
  5
568
  8
0
  6
CONTINUOUS
 62
     7
 10
308.3901391333
 20
252.3544681843
 30
0.0
  0
VERTEX
  5
569
  8
0
  6
CONTINUOUS
 62
     7
 10
308.2298845952
 20
252.4191764767
 30
0.0
  0
VERTEX
  5
56A
  8
0
  6
CONTINUOUS
 62
     7
 10
308.0858127182
 20
252.4881986554
 30
0.0
  0
VERTEX
  5
56B
  8
0
  6
CONTINUOUS
 62
     7
 10
307.9588920778
 20
252.5610504325
 30
0.0
  0
VERTEX
  5
56C
  8
0
  6
CONTINUOUS
 62
     7
 10
307.8499869412
 20
252.6372326191
 30
0.0
  0
VERTEX
  5
56D
  8
0
  6
CONTINUOUS
 62
     7
 10
307.7598572677
 20
252.7162385757
 30
0.0
  0
VERTEX
  5
56E
  8
0
  6
CONTINUOUS
 62
     7
 10
307.6891065543
 20
252.7975169595
 30
0.0
  0
VERTEX
  5
56F
  8
0
  6
CONTINUOUS
 62
     7
 10
307.6382265394
 20
252.8805164273
 30
0.0
  0
VERTEX
  5
570
  8
0
  6
CONTINUOUS
 62
     7
 10
307.6075524991
 20
252.9646707351
 30
0.0
  0
VERTEX
  5
571
  8
0
  6
CONTINUOUS
 62
     7
 10
307.5973079508
 20
253.0493987377
 30
0.0
  0
SEQEND
  5
7E7
  8
0
  6
CONTINUOUS
 62
     7
  0
ARC
  5
197
  8
0
  6
CONTINUOUS
 62
     7
 10
165.5052649075
 20
259.1087872707
 30
0.0
 40
7.086043090813226
 50
254.4378663574
 51
270.7442781081
  0
ARC
  5
198
  8
0
  6
CONTINUOUS
 62
     7
 10
311.6893544511
 20
259.1087872707
 30
0.0
 40
7.086043090813226
 50
269.2557218919
 51
285.5621336426
  0
LINE
  5
199
  8
0
  6
CONTINUOUS
 62
     7
 10
311.5973086065
 20
252.0233420308
 30
0.0
 11
311.5973086065
 21
253.4944070156
 31
0.0
  0
LINE
  5
19A
  8
0
  6
CONTINUOUS
 62
     7
 10
311.5973086065
 20
252.0233420308
 30
0.0
 11
310.5973065799
 21
252.0233420308
 31
0.0
  0
POLYLINE
  5
19B
  8
0
  6
CONTINUOUS
 62
     7
 66
     1
 10
0.0
 20
0.0
 30
0.0
  0
VERTEX
  5
572
  8
0
  6
CONTINUOUS
 62
     7
 10
166.5973127788
 20
252.0233420308
 30
0.0
  0
VERTEX
  5
573
  8
0
  6
CONTINUOUS
 62
     7
 10
166.8450445836
 20
252.0268438037
 30
0.0
  0
VERTEX
  5
574
  8
0
  6
CONTINUOUS
 62
     7
 10
167.0910925573
 20
252.0373342211
 30
0.0
  0
VERTEX
  5
575
  8
0
  6
CONTINUOUS
 62
     7
 10
167.3337654179
 20
252.0547387774
 30
0.0
  0
VERTEX
  5
576
  8
0
  6
CONTINUOUS
 62
     7
 10
167.5714091366
 20
252.0789308126
 30
0.0
  0
VERTEX
  5
577
  8
0
  6
CONTINUOUS
 62
     7
 10
167.8023994868
 20
252.1097613151
 30
0.0
  0
VERTEX
  5
578
  8
0
  6
CONTINUOUS
 62
     7
 10
168.025149495
 20
252.1470067675
 30
0.0
  0
VERTEX
  5
579
  8
0
  6
CONTINUOUS
 62
     7
 10
168.2381541436
 20
252.1904138501
 30
0.0
  0
VERTEX
  5
57A
  8
0
  6
CONTINUOUS
 62
     7
 10
168.4399456685
 20
252.2396919902
 30
0.0
  0
VERTEX
  5
57B
  8
0
  6
CONTINUOUS
 62
     7
 10
168.6291531628
 20
252.2945059116
 30
0.0
  0
VERTEX
  5
57C
  8
0
  6
CONTINUOUS
 62
     7
 10
168.8044802254
 20
252.3544681843
 30
0.0
  0
VERTEX
  5
57D
  8
0
  6
CONTINUOUS
 62
     7
 10
168.9647347635
 20
252.4191764767
 30
0.0
  0
VERTEX
  5
57E
  8
0
  6
CONTINUOUS
 62
     7
 10
169.1088066405
 20
252.4881986554
 30
0.0
  0
VERTEX
  5
57F
  8
0
  6
CONTINUOUS
 62
     7
 10
169.2357272809
 20
252.5610504325
 30
0.0
  0
VERTEX
  5
580
  8
0
  6
CONTINUOUS
 62
     7
 10
169.3446324175
 20
252.6372326191
 30
0.0
  0
VERTEX
  5
581
  8
0
  6
CONTINUOUS
 62
     7
 10
169.434762091
 20
252.7162385757
 30
0.0
  0
VERTEX
  5
582
  8
0
  6
CONTINUOUS
 62
     7
 10
169.5055128043
 20
252.7975169595
 30
0.0
  0
VERTEX
  5
583
  8
0
  6
CONTINUOUS
 62
     7
 10
169.5563928192
 20
252.8805164273
 30
0.0
  0
VERTEX
  5
584
  8
0
  6
CONTINUOUS
 62
     7
 10
169.5870668596
 20
252.9646707351
 30
0.0
  0
VERTEX
  5
585
  8
0
  6
CONTINUOUS
 62
     7
 10
169.5973114079
 20
253.0493987377
 30
0.0
  0
SEQEND
  5
7E6
  8
0
  6
CONTINUOUS
 62
     7
  0
LINE
  5
19C
  8
0
  6
CONTINUOUS
 62
     7
 10
310.5973065799
 20
252.0233420308
 30
0.0
 11
310.5973065799
 21
239.9632064278
 31
0.0
  0
POLYLINE
  5
19D
  8
0
  6
CONTINUOUS
 62
     7
 66
     1
 10
0.0
 20
0.0
 30
0.0
  0
VERTEX
  5
586
  8
0
  6
CONTINUOUS
 62
     7
 10
310.5973065799
 20
239.9632064278
 30
0.0
  0
VERTEX
  5
587
  8
0
  6
CONTINUOUS
 62
     7
 10
310.349574775
 20
239.9667082007
 30
0.0
  0
VERTEX
  5
588
  8
0
  6
CONTINUOUS
 62
     7
 10
310.1035268014
 20
239.9771986182
 30
0.0
  0
VERTEX
  5
589
  8
0
  6
CONTINUOUS
 62
     7
 10
309.8608539408
 20
239.9946031745
 30
0.0
  0
VERTEX
  5
58A
  8
0
  6
CONTINUOUS
 62
     7
 10
309.6232102221
 20
240.0188026603
 30
0.0
  0
VERTEX
  5
58B
  8
0
  6
CONTINUOUS
 62
     7
 10
309.3922198718
 20
240.0496257122
 30
0.0
  0
VERTEX
  5
58C
  8
0
  6
CONTINUOUS
 62
     7
 10
309.1694698637
 20
240.0868711646
 30
0.0
  0
VERTEX
  5
58D
  8
0
  6
CONTINUOUS
 62
     7
 10
308.956465215
 20
240.1302856977
 30
0.0
  0
VERTEX
  5
58E
  8
0
  6
CONTINUOUS
 62
     7
 10
308.7546736901
 20
240.1795563872
 30
0.0
  0
VERTEX
  5
58F
  8
0
  6
CONTINUOUS
 62
     7
 10
308.5654661959
 20
240.2343703087
 30
0.0
  0
VERTEX
  5
590
  8
0
  6
CONTINUOUS
 62
     7
 10
308.3901391333
 20
240.2943325813
 30
0.0
  0
VERTEX
  5
591
  8
0
  6
CONTINUOUS
 62
     7
 10
308.2298845952
 20
240.3590483244
 30
0.0
  0
VERTEX
  5
592
  8
0
  6
CONTINUOUS
 62
     7
 10
308.0858127182
 20
240.4280630524
 30
0.0
  0
VERTEX
  5
593
  8
0
  6
CONTINUOUS
 62
     7
 10
307.9588920778
 20
240.5009148295
 30
0.0
  0
VERTEX
  5
594
  8
0
  6
CONTINUOUS
 62
     7
 10
307.8499869412
 20
240.5771044667
 30
0.0
  0
VERTEX
  5
595
  8
0
  6
CONTINUOUS
 62
     7
 10
307.7598572677
 20
240.6561029728
 30
0.0
  0
VERTEX
  5
596
  8
0
  6
CONTINUOUS
 62
     7
 10
307.6891065543
 20
240.7373813565
 30
0.0
  0
VERTEX
  5
597
  8
0
  6
CONTINUOUS
 62
     7
 10
307.6382265394
 20
240.8203808244
 30
0.0
  0
VERTEX
  5
598
  8
0
  6
CONTINUOUS
 62
     7
 10
307.6075524991
 20
240.9045351322
 30
0.0
  0
VERTEX
  5
599
  8
0
  6
CONTINUOUS
 62
     7
 10
307.5973079508
 20
240.9892631347
 30
0.0
  0
SEQEND
  5
7E5
  8
0
  6
CONTINUOUS
 62
     7
  0
LINE
  5
19E
  8
0
  6
CONTINUOUS
 62
     7
 10
166.5973127788
 20
252.0233420308
 30
0.0
 11
166.5973127788
 21
239.9632064278
 31
0.0
  0
POLYLINE
  5
19F
  8
0
  6
CONTINUOUS
 62
     7
 66
     1
 10
0.0
 20
0.0
 30
0.0
  0
VERTEX
  5
59A
  8
0
  6
CONTINUOUS
 62
     7
 10
166.5973127788
 20
239.9632064278
 30
0.0
  0
VERTEX
  5
59B
  8
0
  6
CONTINUOUS
 62
     7
 10
166.8450445836
 20
239.9667082007
 30
0.0
  0
VERTEX
  5
59C
  8
0
  6
CONTINUOUS
 62
     7
 10
167.0910925573
 20
239.9771986182
 30
0.0
  0
VERTEX
  5
59D
  8
0
  6
CONTINUOUS
 62
     7
 10
167.3337654179
 20
239.9946031745
 30
0.0
  0
VERTEX
  5
59E
  8
0
  6
CONTINUOUS
 62
     7
 10
167.5714091366
 20
240.0188026603
 30
0.0
  0
VERTEX
  5
59F
  8
0
  6
CONTINUOUS
 62
     7
 10
167.8023994868
 20
240.0496257122
 30
0.0
  0
VERTEX
  5
5A0
  8
0
  6
CONTINUOUS
 62
     7
 10
168.025149495
 20
240.0868711646
 30
0.0
  0
VERTEX
  5
5A1
  8
0
  6
CONTINUOUS
 62
     7
 10
168.2381541436
 20
240.1302856977
 30
0.0
  0
VERTEX
  5
5A2
  8
0
  6
CONTINUOUS
 62
     7
 10
168.4399456685
 20
240.1795563872
 30
0.0
  0
VERTEX
  5
5A3
  8
0
  6
CONTINUOUS
 62
     7
 10
168.6291531628
 20
240.2343703087
 30
0.0
  0
VERTEX
  5
5A4
  8
0
  6
CONTINUOUS
 62
     7
 10
168.8044802254
 20
240.2943325813
 30
0.0
  0
VERTEX
  5
5A5
  8
0
  6
CONTINUOUS
 62
     7
 10
168.9647347635
 20
240.3590483244
 30
0.0
  0
VERTEX
  5
5A6
  8
0
  6
CONTINUOUS
 62
     7
 10
169.1088066405
 20
240.4280630524
 30
0.0
  0
VERTEX
  5
5A7
  8
0
  6
CONTINUOUS
 62
     7
 10
169.2357272809
 20
240.5009148295
 30
0.0
  0
VERTEX
  5
5A8
  8
0
  6
CONTINUOUS
 62
     7
 10
169.3446324175
 20
240.5771044667
 30
0.0
  0
VERTEX
  5
5A9
  8
0
  6
CONTINUOUS
 62
     7
 10
169.434762091
 20
240.6561029728
 30
0.0
  0
VERTEX
  5
5AA
  8
0
  6
CONTINUOUS
 62
     7
 10
169.5055128043
 20
240.7373813565
 30
0.0
  0
VERTEX
  5
5AB
  8
0
  6
CONTINUOUS
 62
     7
 10
169.5563928192
 20
240.8203808244
 30
0.0
  0
VERTEX
  5
5AC
  8
0
  6
CONTINUOUS
 62
     7
 10
169.5870668596
 20
240.9045351322
 30
0.0
  0
VERTEX
  5
5AD
  8
0
  6
CONTINUOUS
 62
     7
 10
169.5973114079
 20
240.9892631347
 30
0.0
  0
SEQEND
  5
7E4
  8
0
  6
CONTINUOUS
 62
     7
  0
LINE
  5
1A0
  8
0
  6
CONTINUOUS
 62
     7
 10
165.5973107522
 20
239.9632064278
 30
0.0
 11
165.5973107522
 21
252.0233420308
 31
0.0
  0
POLYLINE
  5
1A1
  8
0
  6
CONTINUOUS
 62
     7
 66
     1
 10
0.0
 20
0.0
 30
0.0
  0
VERTEX
  5
5AE
  8
0
  6
CONTINUOUS
 62
     7
 10
165.5973107522
 20
239.9632064278
 30
0.0
  0
VERTEX
  5
5AF
  8
0
  6
CONTINUOUS
 62
     7
 10
165.3495714968
 20
239.9667082007
 30
0.0
  0
VERTEX
  5
5B0
  8
0
  6
CONTINUOUS
 62
     7
 10
165.1035235232
 20
239.9771986182
 30
0.0
  0
VERTEX
  5
5B1
  8
0
  6
CONTINUOUS
 62
     7
 10
164.8608506625
 20
239.9946031745
 30
0.0
  0
VERTEX
  5
5B2
  8
0
  6
CONTINUOUS
 62
     7
 10
164.6232143944
 20
240.0188026603
 30
0.0
  0
VERTEX
  5
5B3
  8
0
  6
CONTINUOUS
 62
     7
 10
164.3922240442
 20
240.0496257122
 30
0.0
  0
VERTEX
  5
5B4
  8
0
  6
CONTINUOUS
 62
     7
 10
164.1694665855
 20
240.0868711646
 30
0.0
  0
VERTEX
  5
5B5
  8
0
  6
CONTINUOUS
 62
     7
 10
163.9564619368
 20
240.1302856977
 30
0.0
  0
VERTEX
  5
5B6
  8
0
  6
CONTINUOUS
 62
     7
 10
163.7546704119
 20
240.1795563872
 30
0.0
  0
VERTEX
  5
5B7
  8
0
  6
CONTINUOUS
 62
     7
 10
163.5654629176
 20
240.2343703087
 30
0.0
  0
VERTEX
  5
5B8
  8
0
  6
CONTINUOUS
 62
     7
 10
163.390135855
 20
240.2943325813
 30
0.0
  0
VERTEX
  5
5B9
  8
0
  6
CONTINUOUS
 62
     7
 10
163.2298887675
 20
240.3590483244
 30
0.0
  0
VERTEX
  5
5BA
  8
0
  6
CONTINUOUS
 62
     7
 10
163.08580944
 20
240.4280630524
 30
0.0
  0
VERTEX
  5
5BB
  8
0
  6
CONTINUOUS
 62
     7
 10
162.9588887995
 20
240.5009148295
 30
0.0
  0
VERTEX
  5
5BC
  8
0
  6
CONTINUOUS
 62
     7
 10
162.8499911135
 20
240.5771044667
 30
0.0
  0
VERTEX
  5
5BD
  8
0
  6
CONTINUOUS
 62
     7
 10
162.75986144
 20
240.6561029728
 30
0.0
  0
VERTEX
  5
5BE
  8
0
  6
CONTINUOUS
 62
     7
 10
162.6891107267
 20
240.7373813565
 30
0.0
  0
VERTEX
  5
5BF
  8
0
  6
CONTINUOUS
 62
     7
 10
162.6382232612
 20
240.8203808244
 30
0.0
  0
VERTEX
  5
5C0
  8
0
  6
CONTINUOUS
 62
     7
 10
162.6075566714
 20
240.9045351322
 30
0.0
  0
VERTEX
  5
5C1
  8
0
  6
CONTINUOUS
 62
     7
 10
162.5973121231
 20
240.9892631347
 30
0.0
  0
SEQEND
  5
7E3
  8
0
  6
CONTINUOUS
 62
     7
  0
POLYLINE
  5
1A2
  8
0
  6
CONTINUOUS
 62
     7
 66
     1
 10
0.0
 20
0.0
 30
0.0
  0
VERTEX
  5
5C2
  8
0
  6
CONTINUOUS
 62
     7
 10
311.5973086065
 20
239.9632064278
 30
0.0
  0
VERTEX
  5
5C3
  8
0
  6
CONTINUOUS
 62
     7
 10
311.8450478619
 20
239.9667082007
 30
0.0
  0
VERTEX
  5
5C4
  8
0
  6
CONTINUOUS
 62
     7
 10
312.0910958355
 20
239.9771986182
 30
0.0
  0
VERTEX
  5
5C5
  8
0
  6
CONTINUOUS
 62
     7
 10
312.3337686961
 20
239.9946031745
 30
0.0
  0
VERTEX
  5
5C6
  8
0
  6
CONTINUOUS
 62
     7
 10
312.5714049643
 20
240.0188026603
 30
0.0
  0
VERTEX
  5
5C7
  8
0
  6
CONTINUOUS
 62
     7
 10
312.8023953145
 20
240.0496257122
 30
0.0
  0
VERTEX
  5
5C8
  8
0
  6
CONTINUOUS
 62
     7
 10
313.0251527732
 20
240.0868711646
 30
0.0
  0
VERTEX
  5
5C9
  8
0
  6
CONTINUOUS
 62
     7
 10
313.2381574219
 20
240.1302856977
 30
0.0
  0
VERTEX
  5
5CA
  8
0
  6
CONTINUOUS
 62
     7
 10
313.4399489468
 20
240.1795563872
 30
0.0
  0
VERTEX
  5
5CB
  8
0
  6
CONTINUOUS
 62
     7
 10
313.629156441
 20
240.2343703087
 30
0.0
  0
VERTEX
  5
5CC
  8
0
  6
CONTINUOUS
 62
     7
 10
313.8044835036
 20
240.2943325813
 30
0.0
  0
VERTEX
  5
5CD
  8
0
  6
CONTINUOUS
 62
     7
 10
313.9647305911
 20
240.3590483244
 30
0.0
  0
VERTEX
  5
5CE
  8
0
  6
CONTINUOUS
 62
     7
 10
314.1088099187
 20
240.4280630524
 30
0.0
  0
VERTEX
  5
5CF
  8
0
  6
CONTINUOUS
 62
     7
 10
314.2357305592
 20
240.5009148295
 30
0.0
  0
VERTEX
  5
5D0
  8
0
  6
CONTINUOUS
 62
     7
 10
314.3446282452
 20
240.5771044667
 30
0.0
  0
VERTEX
  5
5D1
  8
0
  6
CONTINUOUS
 62
     7
 10
314.4347579187
 20
240.6561029728
 30
0.0
  0
VERTEX
  5
5D2
  8
0
  6
CONTINUOUS
 62
     7
 10
314.505508632
 20
240.7373813565
 30
0.0
  0
VERTEX
  5
5D3
  8
0
  6
CONTINUOUS
 62
     7
 10
314.5563960975
 20
240.8203808244
 30
0.0
  0
VERTEX
  5
5D4
  8
0
  6
CONTINUOUS
 62
     7
 10
314.5870626872
 20
240.9045351322
 30
0.0
  0
VERTEX
  5
5D5
  8
0
  6
CONTINUOUS
 62
     7
 10
314.5973072355
 20
240.9892631347
 30
0.0
  0
SEQEND
  5
7E2
  8
0
  6
CONTINUOUS
 62
     7
  0
LINE
  5
1A3
  8
0
  6
CONTINUOUS
 62
     7
 10
311.5973086065
 20
239.9632064278
 30
0.0
 11
311.5973086065
 21
252.0233420308
 31
0.0
  0
LINE
  5
1A4
  8
0
  6
CONTINUOUS
 62
     7
 10
310.5973065799
 20
239.9632064278
 30
0.0
 11
311.5973086065
 21
239.9632064278
 31
0.0
  0
LINE
  5
1A5
  8
0
  6
CONTINUOUS
 62
     7
 10
166.5973127788
 20
239.9632064278
 30
0.0
 11
165.5973107522
 21
239.9632064278
 31
0.0
  0
LINE
  5
1A6
  8
0
  6
CONTINUOUS
 62
     7
 10
302.7421669071
 20
372.4383851166
 30
0.0
 11
302.7421669071
 21
288.5401462789
 31
0.0
  0
LINE
  5
1A7
  8
0
  6
CONTINUOUS
 62
     7
 10
174.4524524515
 20
372.4383851166
 30
0.0
 11
174.4524524515
 21
288.5401462789
 31
0.0
  0
LINE
  5
1A8
  8
0
  6
CONTINUOUS
 62
     7
 10
165.5973107522
 20
237.9892645056
 30
0.0
 11
165.5973107522
 21
239.9632064278
 31
0.0
  0
LINE
  5
1A9
  8
0
  6
CONTINUOUS
 62
     7
 10
166.5973127788
 20
239.9632064278
 30
0.0
 11
166.5973127788
 21
237.9892645056
 31
0.0
  0
LINE
  5
1AA
  8
0
  6
CONTINUOUS
 62
     7
 10
310.5973065799
 20
239.9632064278
 30
0.0
 11
310.5973065799
 21
237.9892645056
 31
0.0
  0
LINE
  5
1AB
  8
0
  6
CONTINUOUS
 62
     7
 10
311.5973086065
 20
237.9892645056
 30
0.0
 11
311.5973086065
 21
239.9632064278
 31
0.0
  0
LINE
  5
1AC
  8
0
  6
CONTINUOUS
 62
     7
 10
260.7656628793
 20
297.5803007956
 30
0.0
 11
216.4289564794
 21
297.5803007956
 31
0.0
  0
LINE
  5
1AD
  8
0
  6
CONTINUOUS
 62
     7
 10
255.6549445694
 20
528.6287841971
 30
0.0
 11
221.5396747893
 21
528.6287841971
 31
0.0
  0
LINE
  5
1AE
  8
0
  6
CONTINUOUS
 62
     7
 10
264.0469823932
 20
527.5416252787
 30
0.0
 11
259.0469834363
 21
527.5416252787
 31
0.0
  0
LINE
  5
1AF
  8
0
  6
CONTINUOUS
 62
     7
 10
218.1476359224
 20
527.5416252787
 30
0.0
 11
213.1476369655
 21
527.5416252787
 31
0.0
  0
LINE
  5
1B0
  8
0
  6
CONTINUOUS
 62
     7
 10
251.2209913662
 20
530.5444774802
 30
0.0
 11
225.9736279925
 21
530.5444774802
 31
0.0
  0
LINE
  5
1B1
  8
FORMAT
  6
CENTERX2
 10
238.5973096793
 20
273.4892656977
 30
0.0
 11
238.5973096793
 21
578.1377190071
 31
0.0
  0
LINE
  5
1B2
  8
FORMAT
  6
CENTERX2
 10
325.5973096793
 20
330.4892656977
 30
0.0
 11
319.5973096793
 21
330.4892656977
 31
0.0
  0
LINE
  5
1B3
  8
FORMAT
  6
CENTERX2
 10
151.5973096793
 20
330.4892656977
 30
0.0
 11
319.5973096793
 21
330.4892656977
 31
0.0
  0
LINE
  5
1B4
  8
FORMAT
  6
CENTERX2
 10
168.5973096793
 20
330.4892656977
 30
0.0
 11
157.5973096793
 21
330.4892656977
 31
0.0
  0
LINE
  5
1B5
  8
0
  6
CONTINUOUS
 62
     7
 10
545.2737191115
 20
450.4892630155
 30
0.0
 11
544.6761080418
 21
433.3759573872
 31
0.0
  0
LINE
  5
1B6
  8
0
  6
CONTINUOUS
 62
     7
 10
689.8713239823
 20
433.3759573872
 30
0.0
 11
689.2737129126
 21
450.4892630155
 31
0.0
  0
LINE
  5
1B7
  8
0
  6
CONTINUOUS
 62
     7
 10
647.1237090771
 20
467.1235410149
 30
0.0
 11
646.7737161909
 21
480.4892716582
 31
0.0
  0
LINE
  5
1B8
  8
0
  6
CONTINUOUS
 62
     7
 10
587.7737158333
 20
480.4892716582
 30
0.0
 11
587.4237229471
 21
467.1235410149
 31
0.0
  0
LINE
  5
1B9
  8
0
  6
CONTINUOUS
 62
     7
 10
540.7927909289
 20
432.4892637904
 30
0.0
 11
540.4259317909
 21
425.4892645056
 31
0.0
  0
LINE
  5
1BA
  8
0
  6
CONTINUOUS
 62
     7
 10
694.1215002333
 20
425.4892645056
 30
0.0
 11
693.7546410952
 21
432.4892637904
 31
0.0
  0
LINE
  5
1BB
  8
0
  6
CONTINUOUS
 62
     7
 10
540.7927909289
 20
433.0539507444
 30
0.0
 11
540.7927909289
 21
432.4892637904
 31
0.0
  0
LINE
  5
1BC
  8
0
  6
CONTINUOUS
 62
     7
 10
544.6888485347
 20
433.7409315284
 30
0.0
 11
540.7927909289
 21
433.0539507444
 31
0.0
  0
LINE
  5
1BD
  8
0
  6
CONTINUOUS
 62
     7
 10
693.7546410952
 20
433.0539507444
 30
0.0
 11
689.8585834895
 21
433.7409315284
 31
0.0
  0
LINE
  5
1BE
  8
0
  6
CONTINUOUS
 62
     7
 10
693.7546410952
 20
432.4892637904
 30
0.0
 11
693.7546410952
 21
433.0539507444
 31
0.0
  0
LINE
  5
1BF
  8
0
  6
CONTINUOUS
 62
     7
 10
541.2737184559
 20
425.4892645056
 30
0.0
 11
541.6704395209
 21
417.9193107064
 31
0.0
  0
LINE
  5
1C0
  8
0
  6
CONTINUOUS
 62
     7
 10
692.8769925032
 20
417.9193107064
 30
0.0
 11
693.2737135683
 21
425.4892645056
 31
0.0
  0
LINE
  5
1C1
  8
0
  6
CONTINUOUS
 62
     7
 10
541.6704395209
 20
417.9193107064
 30
0.0
 11
548.7357282434
 21
416.673514026
 31
0.0
  0
LINE
  5
1C2
  8
0
  6
CONTINUOUS
 62
     7
 10
685.8117037807
 20
416.673514026
 30
0.0
 11
692.8769925032
 21
417.9193107064
 31
0.0
  0
LINE
  5
1C3
  8
0
  6
CONTINUOUS
 62
     7
 10
643.7700574641
 20
480.4892716582
 30
0.0
 11
640.4038143699
 21
528.6287841971
 31
0.0
  0
ARC
  5
1C4
  8
0
  6
CONTINUOUS
 62
     7
 10
638.4086858398
 20
528.4892656977
 30
0.0
 40
2.000000000000123
 50
4.0
 51
90.0
  0
LINE
  5
1C5
  8
0
  6
CONTINUOUS
 62
     7
 10
629.9121898954
 20
530.489268678
 30
0.0
 11
629.8973976989
 21
530.5444774802
 31
0.0
  0
LINE
  5
1C6
  8
0
  6
CONTINUOUS
 62
     7
 10
604.6500343253
 20
530.5444774802
 30
0.0
 11
604.6352421288
 21
530.489268678
 31
0.0
  0
ARC
  5
1C7
  8
0
  6
CONTINUOUS
 62
     7
 10
629.6076195308
 20
530.4668251056
 30
0.0
 40
0.3000000000000682
 50
15.0
 51
90.0
  0
ARC
  5
1C8
  8
0
  6
CONTINUOUS
 62
     7
 10
604.9398124933
 20
530.4668251056
 30
0.0
 40
0.3000000000000682
 50
90.0
 51
165.0
  0
LINE
  5
1C9
  8
0
  6
CONTINUOUS
 62
     7
 10
605.7737159897
 20
539.2737416203
 30
0.0
 11
605.7737159897
 21
530.7668177064
 31
0.0
  0
LINE
  5
1CA
  8
0
  6
CONTINUOUS
 62
     7
 10
628.7737160344
 20
530.7668177064
 30
0.0
 11
628.7737160344
 21
539.2737416203
 31
0.0
  0
CIRCLE
  5
1CB
  8
0
  6
CONTINUOUS
 62
     7
 10
617.2737160121
 20
330.4892656977
 30
0.0
 40
55.00000000000006
  0
CIRCLE
  5
1CC
  8
0
  6
CONTINUOUS
 62
     7
 10
617.2737160121
 20
330.4892656977
 30
0.0
 40
58.0
  0
CIRCLE
  5
1CD
  8
0
  6
CONTINUOUS
 62
     7
 10
617.2737160121
 20
330.4892656977
 30
0.0
 40
36.50000000000006
  0
CIRCLE
  5
1CE
  8
0
  6
CONTINUOUS
 62
     7
 10
617.2737160121
 20
330.4892656977
 30
0.0
 40
32.5
  0
CIRCLE
  5
1CF
  8
0
  6
CONTINUOUS
 62
     7
 10
668.5389576481
 20
381.7545073338
 30
0.0
 40
9.499999999999886
  0
CIRCLE
  5
1D0
  8
0
  6
CONTINUOUS
 62
     7
 10
668.5389576481
 20
279.2240240617
 30
0.0
 40
9.499999999999886
  0
CIRCLE
  5
1D1
  8
0
  6
CONTINUOUS
 62
     7
 10
566.0084743761
 20
381.7545073338
 30
0.0
 40
9.5
  0
CIRCLE
  5
1D2
  8
0
  6
CONTINUOUS
 62
     7
 10
566.0084743761
 20
279.2240240617
 30
0.0
 40
9.5
  0
POLYLINE
  5
1D3
  8
0
  6
CONTINUOUS
 62
     7
 66
     1
 10
0.0
 20
0.0
 30
0.0
  0
VERTEX
  5
5D6
  8
0
  6
CONTINUOUS
 62
     7
 10
524.785687903
 20
329.0012352753
 30
0.0
  0
VERTEX
  5
5D7
  8
0
  6
CONTINUOUS
 62
     7
 10
524.8114222084
 20
329.0269723746
 30
0.0
  0
VERTEX
  5
5D8
  8
0
  6
CONTINUOUS
 62
     7
 10
524.8900705372
 20
329.105620587
 30
0.0
  0
VERTEX
  5
5D9
  8
0
  6
CONTINUOUS
 62
     7
 10
525.0108444487
 20
329.2263925194
 30
0.0
  0
VERTEX
  5
5DA
  8
0
  6
CONTINUOUS
 62
     7
 10
525.1730435882
 20
329.388593056
 30
0.0
  0
VERTEX
  5
5DB
  8
0
  6
CONTINUOUS
 62
     7
 10
525.3010147606
 20
329.5165674879
 30
0.0
  0
VERTEX
  5
5DC
  8
0
  6
CONTINUOUS
 62
     7
 10
525.441242138
 20
329.6567931191
 30
0.0
  0
VERTEX
  5
5DD
  8
0
  6
CONTINUOUS
 62
     7
 10
525.5962067638
 20
329.8117543107
 30
0.0
  0
VERTEX
  5
5DE
  8
0
  6
CONTINUOUS
 62
     7
 10
525.7603579555
 20
329.9759059099
 30
0.0
  0
VERTEX
  5
5DF
  8
0
  6
CONTINUOUS
 62
     7
 10
526.0097735916
 20
330.2253222444
 30
0.0
  0
VERTEX
  5
5E0
  8
0
  6
CONTINUOUS
 62
     7
 10
526.2737178598
 20
330.4892656977
 30
0.0
  0
SEQEND
  5
7E1
  8
0
  6
CONTINUOUS
 62
     7
  0
POLYLINE
  5
1D4
  8
0
  6
CONTINUOUS
 62
     7
 66
     1
 10
0.0
 20
0.0
 30
0.0
  0
VERTEX
  5
5E1
  8
0
  6
CONTINUOUS
 62
     7
 10
526.2737178598
 20
330.4892656977
 30
0.0
  0
VERTEX
  5
5E2
  8
0
  6
CONTINUOUS
 62
     7
 10
526.0314026271
 20
330.7315780929
 30
0.0
  0
VERTEX
  5
5E3
  8
0
  6
CONTINUOUS
 62
     7
 10
525.7992872392
 20
330.9636919819
 30
0.0
  0
VERTEX
  5
5E4
  8
0
  6
CONTINUOUS
 62
     7
 10
525.5727299844
 20
331.1902500807
 30
0.0
  0
VERTEX
  5
5E5
  8
0
  6
CONTINUOUS
 62
     7
 10
525.36414353
 20
331.3988417738
 30
0.0
  0
VERTEX
  5
5E6
  8
0
  6
CONTINUOUS
 62
     7
 10
525.1529642735
 20
331.6100170721
 30
0.0
  0
VERTEX
  5
5E7
  8
0
  6
CONTINUOUS
 62
     7
 10
525.0593253766
 20
331.7036544557
 30
0.0
  0
VERTEX
  5
5E8
  8
0
  6
CONTINUOUS
 62
     7
 10
524.9772721325
 20
331.7857063028
 30
0.0
  0
VERTEX
  5
5E9
  8
0
  6
CONTINUOUS
 62
     7
 10
524.9095761572
 20
331.8534033259
 30
0.0
  0
VERTEX
  5
5EA
  8
0
  6
CONTINUOUS
 62
     7
 10
524.8555370961
 20
331.907442969
 30
0.0
  0
VERTEX
  5
5EB
  8
0
  6
CONTINUOUS
 62
     7
 10
524.8151251469
 20
331.9478531719
 30
0.0
  0
VERTEX
  5
5EC
  8
0
  6
CONTINUOUS
 62
     7
 10
524.7917005216
 20
331.971283036
 30
0.0
  0
VERTEX
  5
5ED
  8
0
  6
CONTINUOUS
 62
     7
 10
524.785687903
 20
331.9772961202
 30
0.0
  0
SEQEND
  5
7E0
  8
0
  6
CONTINUOUS
 62
     7
  0
ARC
  5
1D5
  8
0
  6
CONTINUOUS
 62
     7
 10
617.2737160121
 20
330.4892656977
 30
0.0
 40
92.50000000000011
 50
0.921746366
 51
179.078253634
  0
POLYLINE
  5
1D6
  8
0
  6
CONTINUOUS
 62
     7
 66
     1
 10
0.0
 20
0.0
 30
0.0
  0
VERTEX
  5
5EE
  8
0
  6
CONTINUOUS
 62
     7
 10
708.2737141643
 20
330.4892656977
 30
0.0
  0
VERTEX
  5
5EF
  8
0
  6
CONTINUOUS
 62
     7
 10
708.5160293971
 20
330.7315780929
 30
0.0
  0
VERTEX
  5
5F0
  8
0
  6
CONTINUOUS
 62
     7
 10
708.748144785
 20
330.9636919819
 30
0.0
  0
VERTEX
  5
5F1
  8
0
  6
CONTINUOUS
 62
     7
 10
708.9747020398
 20
331.1902500807
 30
0.0
  0
VERTEX
  5
5F2
  8
0
  6
CONTINUOUS
 62
     7
 10
709.1832884942
 20
331.3988417738
 30
0.0
  0
VERTEX
  5
5F3
  8
0
  6
CONTINUOUS
 62
     7
 10
709.3944677506
 20
331.6100170721
 30
0.0
  0
VERTEX
  5
5F4
  8
0
  6
CONTINUOUS
 62
     7
 10
709.4881066476
 20
331.7036544557
 30
0.0
  0
VERTEX
  5
5F5
  8
0
  6
CONTINUOUS
 62
     7
 10
709.5701598917
 20
331.7857063028
 30
0.0
  0
VERTEX
  5
5F6
  8
0
  6
CONTINUOUS
 62
     7
 10
709.637855867
 20
331.8534033259
 30
0.0
  0
VERTEX
  5
5F7
  8
0
  6
CONTINUOUS
 62
     7
 10
709.6918949281
 20
331.907442969
 30
0.0
  0
VERTEX
  5
5F8
  8
0
  6
CONTINUOUS
 62
     7
 10
709.7323068772
 20
331.9478531719
 30
0.0
  0
VERTEX
  5
5F9
  8
0
  6
CONTINUOUS
 62
     7
 10
709.7557315026
 20
331.971283036
 30
0.0
  0
VERTEX
  5
5FA
  8
0
  6
CONTINUOUS
 62
     7
 10
709.7617441212
 20
331.9772961202
 30
0.0
  0
SEQEND
  5
7DF
  8
0
  6
CONTINUOUS
 62
     7
  0
POLYLINE
  5
1D7
  8
0
  6
CONTINUOUS
 62
     7
 66
     1
 10
0.0
 20
0.0
 30
0.0
  0
VERTEX
  5
5FB
  8
0
  6
CONTINUOUS
 62
     7
 10
709.7617441212
 20
329.0012352753
 30
0.0
  0
VERTEX
  5
5FC
  8
0
  6
CONTINUOUS
 62
     7
 10
709.7360098158
 20
329.0269723746
 30
0.0
  0
VERTEX
  5
5FD
  8
0
  6
CONTINUOUS
 62
     7
 10
709.657361487
 20
329.105620587
 30
0.0
  0
VERTEX
  5
5FE
  8
0
  6
CONTINUOUS
 62
     7
 10
709.5365875755
 20
329.2263925194
 30
0.0
  0
VERTEX
  5
5FF
  8
0
  6
CONTINUOUS
 62
     7
 10
709.3743884359
 20
329.388593056
 30
0.0
  0
VERTEX
  5
600
  8
0
  6
CONTINUOUS
 62
     7
 10
709.2464172636
 20
329.5165674879
 30
0.0
  0
VERTEX
  5
601
  8
0
  6
CONTINUOUS
 62
     7
 10
709.1061898862
 20
329.6567931191
 30
0.0
  0
VERTEX
  5
602
  8
0
  6
CONTINUOUS
 62
     7
 10
708.9512252603
 20
329.8117543107
 30
0.0
  0
VERTEX
  5
603
  8
0
  6
CONTINUOUS
 62
     7
 10
708.7870740686
 20
329.9759059099
 30
0.0
  0
VERTEX
  5
604
  8
0
  6
CONTINUOUS
 62
     7
 10
708.5376584326
 20
330.2253222444
 30
0.0
  0
VERTEX
  5
605
  8
0
  6
CONTINUOUS
 62
     7
 10
708.2737141643
 20
330.4892656977
 30
0.0
  0
SEQEND
  5
7DE
  8
0
  6
CONTINUOUS
 62
     7
  0
ARC
  5
1D8
  8
0
  6
CONTINUOUS
 62
     7
 10
617.2737160121
 20
330.4892656977
 30
0.0
 40
92.50000000000011
 50
180.921746366
 51
359.078253634
  0
LINE
  5
1D9
  8
0
  6
CONTINUOUS
 62
     7
 10
571.5552621876
 20
239.9632064278
 30
0.0
 11
567.1657302771
 21
252.0233420308
 31
0.0
  0
LINE
  5
1DA
  8
0
  6
CONTINUOUS
 62
     7
 10
662.9921698366
 20
239.9632064278
 30
0.0
 11
667.381701747
 21
252.0233420308
 31
0.0
  0
ARC
  5
1DB
  8
0
  6
CONTINUOUS
 62
     7
 10
574.3743386267
 20
240.9892656977
 30
0.0
 40
3.0
 50
200.0
 51
270.0
  0
LINE
  5
1DC
  8
0
  6
CONTINUOUS
 62
     7
 10
617.2737160121
 20
237.9892645056
 30
0.0
 11
574.374338368
 21
237.9892645056
 31
0.0
  0
LINE
  5
1DD
  8
0
  6
CONTINUOUS
 62
     7
 10
617.2737160121
 20
237.9892645056
 30
0.0
 11
660.1730936561
 21
237.9892645056
 31
0.0
  0
ARC
  5
1DE
  8
0
  6
CONTINUOUS
 62
     7
 10
660.1730933975
 20
240.9892656977
 30
0.0
 40
3.000000000000019
 50
270.0
 51
340.0
  0
ARC
  5
1DF
  8
0
  6
CONTINUOUS
 62
     7
 10
564.3466532167
 20
250.9972785301
 30
0.0
 40
3.000000000000009
 50
20.0
 51
56.3436756121
  0
ARC
  5
1E0
  8
0
  6
CONTINUOUS
 62
     7
 10
670.2007788075
 20
250.9972785301
 30
0.0
 40
3.000000000000116
 50
123.6563243879
 51
160.0
  0
LINE
  5
1E1
  8
0
  6
CONTINUOUS
 62
     7
 10
554.3802583013
 20
432.4892637904
 30
0.0
 11
680.1671737228
 21
432.4892637904
 31
0.0
  0
LINE
  5
1E2
  8
0
  6
CONTINUOUS
 62
     7
 10
554.3166973983
 20
425.4892645056
 30
0.0
 11
680.2307346259
 21
425.4892645056
 31
0.0
  0
LINE
  5
1E3
  8
0
  6
CONTINUOUS
 62
     7
 10
680.1671737228
 20
433.0539507444
 30
0.0
 11
554.3802583013
 21
433.0539507444
 31
0.0
  0
ARC
  5
1E4
  8
0
  6
CONTINUOUS
 62
     7
 10
556.1129994836
 20
507.6880432598
 30
0.0
 40
74.13422566629829
 50
269.0481583296
 51
276.9316885451
  0
LINE
  5
1E5
  8
0
  6
CONTINUOUS
 62
     7
 10
565.0599540566
 20
434.0956834729
 30
0.0
 11
573.9204154704
 21
435.2081371124
 31
0.0
  0
POLYLINE
  5
1E6
  8
0
  6
CONTINUOUS
 62
     7
 66
     1
 10
0.0
 20
0.0
 30
0.0
  0
VERTEX
  5
606
  8
0
  6
CONTINUOUS
 62
     7
 10
660.6270165537
 20
435.2081371124
 30
0.0
  0
VERTEX
  5
607
  8
0
  6
CONTINUOUS
 62
     7
 10
657.0857593213
 20
435.1549325164
 30
0.0
  0
VERTEX
  5
608
  8
0
  6
CONTINUOUS
 62
     7
 10
653.5317429696
 20
435.1062951262
 30
0.0
  0
VERTEX
  5
609
  8
0
  6
CONTINUOUS
 62
     7
 10
649.9666066264
 20
435.0622472937
 30
0.0
  0
VERTEX
  5
60A
  8
0
  6
CONTINUOUS
 62
     7
 10
646.3919819687
 20
435.0227815683
 30
0.0
  0
VERTEX
  5
60B
  8
0
  6
CONTINUOUS
 62
     7
 10
642.808418477
 20
434.9879128511
 30
0.0
  0
VERTEX
  5
60C
  8
0
  6
CONTINUOUS
 62
     7
 10
639.2164674942
 20
434.9576336916
 30
0.0
  0
VERTEX
  5
60D
  8
0
  6
CONTINUOUS
 62
     7
 10
635.6177830492
 20
434.9319515403
 30
0.0
  0
VERTEX
  5
60E
  8
0
  6
CONTINUOUS
 62
     7
 10
632.0140228961
 20
434.9108738477
 30
0.0
  0
VERTEX
  5
60F
  8
0
  6
CONTINUOUS
 62
     7
 10
628.3334100042
 20
434.8941100414
 30
0.0
  0
VERTEX
  5
610
  8
0
  6
CONTINUOUS
 62
     7
 10
624.6486778726
 20
434.8821369584
 30
0.0
  0
VERTEX
  5
611
  8
0
  6
CONTINUOUS
 62
     7
 10
620.9615915903
 20
434.8749471481
 30
0.0
  0
VERTEX
  5
612
  8
0
  6
CONTINUOUS
 62
     7
 10
617.2739160121
 20
434.8725480612
 30
0.0
  0
VERTEX
  5
613
  8
0
  6
CONTINUOUS
 62
     7
 10
613.658628881
 20
434.8748502906
 30
0.0
  0
VERTEX
  5
614
  8
0
  6
CONTINUOUS
 62
     7
 10
610.0438965839
 20
434.8817644294
 30
0.0
  0
VERTEX
  5
615
  8
0
  6
CONTINUOUS
 62
     7
 10
606.4313833956
 20
434.8932681258
 30
0.0
  0
VERTEX
  5
616
  8
0
  6
CONTINUOUS
 62
     7
 10
602.8227505629
 20
434.9093837316
 30
0.0
  0
VERTEX
  5
617
  8
0
  6
CONTINUOUS
 62
     7
 10
599.2185564135
 20
434.9300888951
 30
0.0
  0
VERTEX
  5
618
  8
0
  6
CONTINUOUS
 62
     7
 10
595.6193522905
 20
434.955405968
 30
0.0
  0
VERTEX
  5
619
  8
0
  6
CONTINUOUS
 62
     7
 10
592.0267903601
 20
434.9853200491
 30
0.0
  0
VERTEX
  5
61A
  8
0
  6
CONTINUOUS
 62
     7
 10
588.4425265138
 20
435.0198162372
 30
0.0
  0
VERTEX
  5
61B
  8
0
  6
CONTINUOUS
 62
     7
 10
584.7955772076
 20
435.0597438987
 30
0.0
  0
VERTEX
  5
61C
  8
0
  6
CONTINUOUS
 62
     7
 10
581.1584198271
 20
435.1044399317
 30
0.0
  0
VERTEX
  5
61D
  8
0
  6
CONTINUOUS
 62
     7
 10
577.5327847694
 20
435.1539117868
 30
0.0
  0
VERTEX
  5
61E
  8
0
  6
CONTINUOUS
 62
     7
 10
573.9204154704
 20
435.2081371124
 30
0.0
  0
SEQEND
  5
7DD
  8
0
  6
CONTINUOUS
 62
     7
  0
LINE
  5
1E7
  8
0
  6
CONTINUOUS
 62
     7
 10
669.4874779676
 20
434.0956834729
 30
0.0
 11
660.6270165537
 21
435.2081371124
 31
0.0
  0
ARC
  5
1E8
  8
0
  6
CONTINUOUS
 62
     7
 10
678.4344325406
 20
507.6880432598
 30
0.0
 40
74.13422566629832
 50
263.0683114549
 51
270.9518416704
  0
LINE
  5
1E9
  8
0
  6
CONTINUOUS
 62
     7
 10
555.0195143913
 20
417.9193107064
 30
0.0
 11
587.0704555307
 21
417.9193107064
 31
0.0
  0
LINE
  5
1EA
  8
0
  6
CONTINUOUS
 62
     7
 10
647.4769764934
 20
417.9193107064
 30
0.0
 11
679.5279176329
 21
417.9193107064
 31
0.0
  0
POLYLINE
  5
1EB
  8
0
  6
CONTINUOUS
 62
     7
 66
     1
 10
0.0
 20
0.0
 30
0.0
  0
VERTEX
  5
61F
  8
0
  6
CONTINUOUS
 62
     7
 10
558.0238678847
 20
416.800211149
 30
0.0
  0
VERTEX
  5
620
  8
0
  6
CONTINUOUS
 62
     7
 10
567.396843562
 20
416.6046334083
 30
0.0
  0
VERTEX
  5
621
  8
0
  6
CONTINUOUS
 62
     7
 10
576.7705680226
 20
416.4496687825
 30
0.0
  0
VERTEX
  5
622
  8
0
  6
CONTINUOUS
 62
     7
 10
582.9373949562
 20
416.3746488865
 30
0.0
  0
SEQEND
  5
7DC
  8
0
  6
CONTINUOUS
 62
     7
  0
ARC
  5
1EC
  8
0
  6
CONTINUOUS
 62
     7
 10
556.7668878946
 20
362.7124593158
 30
0.0
 40
54.10235574410194
 50
88.6687062293
 51
90.7812917253
  0
ARC
  5
1ED
  8
0
  6
CONTINUOUS
 62
     7
 10
677.7805441296
 20
362.7124593158
 30
0.0
 40
54.10235574410194
 50
89.2187082747
 51
91.3312937707
  0
POLYLINE
  5
1EE
  8
0
  6
CONTINUOUS
 62
     7
 66
     1
 10
0.0
 20
0.0
 30
0.0
  0
VERTEX
  5
623
  8
0
  6
CONTINUOUS
 62
     7
 10
676.5235641394
 20
416.800211149
 30
0.0
  0
VERTEX
  5
624
  8
0
  6
CONTINUOUS
 62
     7
 10
667.1505884622
 20
416.6046334083
 30
0.0
  0
VERTEX
  5
625
  8
0
  6
CONTINUOUS
 62
     7
 10
657.7768640016
 20
416.4496687825
 30
0.0
  0
VERTEX
  5
626
  8
0
  6
CONTINUOUS
 62
     7
 10
651.6195477341
 20
416.3747606452
 30
0.0
  0
SEQEND
  5
7DB
  8
0
  6
CONTINUOUS
 62
     7
  0
ARC
  5
1EF
  8
0
  6
CONTINUOUS
 62
     7
 10
617.2737160121
 20
397.2309223286
 30
0.0
 40
76.00000000000003
 50
108.6127957525
 51
135.51137276
  0
POLYLINE
  5
1F0
  8
0
  6
CONTINUOUS
 62
     7
 66
     1
 10
0.0
 20
0.0
 30
0.0
  0
VERTEX
  5
627
  8
0
  6
CONTINUOUS
 62
     7
 10
593.0167229269
 20
469.2559120829
 30
0.0
  0
VERTEX
  5
628
  8
0
  6
CONTINUOUS
 62
     7
 10
593.7231441383
 20
469.4652584965
 30
0.0
  0
VERTEX
  5
629
  8
0
  6
CONTINUOUS
 62
     7
 10
594.4705547188
 20
469.6332988913
 30
0.0
  0
VERTEX
  5
62A
  8
0
  6
CONTINUOUS
 62
     7
 10
595.2562836353
 20
469.7620598252
 30
0.0
  0
VERTEX
  5
62B
  8
0
  6
CONTINUOUS
 62
     7
 10
596.0776579921
 20
469.8536274607
 30
0.0
  0
VERTEX
  5
62C
  8
0
  6
CONTINUOUS
 62
     7
 10
596.9701611791
 20
469.9120847161
 30
0.0
  0
VERTEX
  5
62D
  8
0
  6
CONTINUOUS
 62
     7
 10
597.8993528877
 20
469.9361649926
 30
0.0
  0
VERTEX
  5
62E
  8
0
  6
CONTINUOUS
 62
     7
 10
598.862008879
 20
469.9290720399
 30
0.0
  0
VERTEX
  5
62F
  8
0
  6
CONTINUOUS
 62
     7
 10
599.854906777
 20
469.8940245087
 30
0.0
  0
VERTEX
  5
630
  8
0
  6
CONTINUOUS
 62
     7
 10
600.9777688776
 20
469.8273269112
 30
0.0
  0
VERTEX
  5
631
  8
0
  6
CONTINUOUS
 62
     7
 10
602.1339574252
 20
469.7357592757
 30
0.0
  0
VERTEX
  5
632
  8
0
  6
CONTINUOUS
 62
     7
 10
603.3196782117
 20
469.6242687876
 30
0.0
  0
VERTEX
  5
633
  8
0
  6
CONTINUOUS
 62
     7
 10
604.5584247802
 20
469.494971412
 30
0.0
  0
VERTEX
  5
634
  8
0
  6
CONTINUOUS
 62
     7
 10
605.8245559578
 20
469.3554518397
 30
0.0
  0
VERTEX
  5
635
  8
0
  6
CONTINUOUS
 62
     7
 10
607.1144600753
 20
469.2114619191
 30
0.0
  0
VERTEX
  5
636
  8
0
  6
CONTINUOUS
 62
     7
 10
608.3171886747
 20
469.0803018983
 30
0.0
  0
VERTEX
  5
637
  8
0
  6
CONTINUOUS
 62
     7
 10
609.5380533841
 20
468.954372185
 30
0.0
  0
VERTEX
  5
638
  8
0
  6
CONTINUOUS
 62
     7
 10
610.7739985344
 20
468.8379494126
 30
0.0
  0
VERTEX
  5
639
  8
0
  6
CONTINUOUS
 62
     7
 10
612.0219675247
 20
468.7353400166
 30
0.0
  0
VERTEX
  5
63A
  8
0
  6
CONTINUOUS
 62
     7
 10
613.3234600891
 20
468.6482278283
 30
0.0
  0
VERTEX
  5
63B
  8
0
  6
CONTINUOUS
 62
     7
 10
614.6356246789
 20
468.5831991608
 30
0.0
  0
VERTEX
  5
63C
  8
0
  6
CONTINUOUS
 62
     7
 10
615.9539476392
 20
468.5425189908
 30
0.0
  0
VERTEX
  5
63D
  8
0
  6
CONTINUOUS
 62
     7
 10
617.2739160121
 20
468.5284671958
 30
0.0
  0
VERTEX
  5
63E
  8
0
  6
CONTINUOUS
 62
     7
 10
618.4665980871
 20
468.5398963864
 30
0.0
  0
VERTEX
  5
63F
  8
0
  6
CONTINUOUS
 62
     7
 10
619.6580699068
 20
468.5731706794
 30
0.0
  0
VERTEX
  5
640
  8
0
  6
CONTINUOUS
 62
     7
 10
620.8449639269
 20
468.6267403538
 30
0.0
  0
VERTEX
  5
641
  8
0
  6
CONTINUOUS
 62
     7
 10
622.0239128341
 20
468.6991003926
 30
0.0
  0
VERTEX
  5
642
  8
0
  6
CONTINUOUS
 62
     7
 10
623.2296826672
 20
468.7912491734
 30
0.0
  0
VERTEX
  5
643
  8
0
  6
CONTINUOUS
 62
     7
 10
624.4251460192
 20
468.8977626736
 30
0.0
  0
VERTEX
  5
644
  8
0
  6
CONTINUOUS
 62
     7
 10
625.6074902956
 20
469.0148858006
 30
0.0
  0
VERTEX
  5
645
  8
0
  6
CONTINUOUS
 62
     7
 10
626.7739038338
 20
469.1388932641
 30
0.0
  0
VERTEX
  5
646
  8
0
  6
CONTINUOUS
 62
     7
 10
627.8709412907
 20
469.2602036174
 30
0.0
  0
VERTEX
  5
647
  8
0
  6
CONTINUOUS
 62
     7
 10
628.9525020291
 20
469.3810371335
 30
0.0
  0
VERTEX
  5
648
  8
0
  6
CONTINUOUS
 62
     7
 10
630.0164393504
 20
469.4979218419
 30
0.0
  0
VERTEX
  5
649
  8
0
  6
CONTINUOUS
 62
     7
 10
631.0606037621
 20
469.6074453767
 30
0.0
  0
VERTEX
  5
64A
  8
0
  6
CONTINUOUS
 62
     7
 10
632.1109745075
 20
469.7087434705
 30
0.0
  0
VERTEX
  5
64B
  8
0
  6
CONTINUOUS
 62
     7
 10
633.1392747705
 20
469.7955427344
 30
0.0
  0
VERTEX
  5
64C
  8
0
  6
CONTINUOUS
 62
     7
 10
634.142888466
 20
469.8644904073
 30
0.0
  0
VERTEX
  5
64D
  8
0
  6
CONTINUOUS
 62
     7
 10
635.1192013715
 20
469.9122039254
 30
0.0
  0
VERTEX
  5
64E
  8
0
  6
CONTINUOUS
 62
     7
 10
636.0129823331
 20
469.9348089869
 30
0.0
  0
VERTEX
  5
64F
  8
0
  6
CONTINUOUS
 62
     7
 10
636.8810066377
 20
469.9332890685
 30
0.0
  0
VERTEX
  5
650
  8
0
  6
CONTINUOUS
 62
     7
 10
637.720828632
 20
469.905230182
 30
0.0
  0
VERTEX
  5
651
  8
0
  6
CONTINUOUS
 62
     7
 10
638.5300045256
 20
469.8482481416
 30
0.0
  0
VERTEX
  5
652
  8
0
  6
CONTINUOUS
 62
     7
 10
639.33444185
 20
469.7561142619
 30
0.0
  0
VERTEX
  5
653
  8
0
  6
CONTINUOUS
 62
     7
 10
640.1043904369
 20
469.6279791768
 30
0.0
  0
VERTEX
  5
654
  8
0
  6
CONTINUOUS
 62
     7
 10
640.837320814
 20
469.4618908341
 30
0.0
  0
VERTEX
  5
655
  8
0
  6
CONTINUOUS
 62
     7
 10
641.5307090972
 20
469.2559120829
 30
0.0
  0
SEQEND
  5
7DA
  8
0
  6
CONTINUOUS
 62
     7
  0
ARC
  5
1F1
  8
0
  6
CONTINUOUS
 62
     7
 10
617.2737160121
 20
397.2309223286
 30
0.0
 40
76.00000000000004
 50
44.48862724
 51
71.3872042475
  0
POLYLINE
  5
1F2
  8
0
  6
CONTINUOUS
 62
     7
 66
     1
 10
0.0
 20
0.0
 30
0.0
  0
VERTEX
  5
656
  8
0
  6
CONTINUOUS
 62
     7
 10
571.1310820077
 20
450.4892630155
 30
0.0
  0
VERTEX
  5
657
  8
0
  6
CONTINUOUS
 62
     7
 10
571.6225632821
 20
450.7704553778
 30
0.0
  0
VERTEX
  5
658
  8
0
  6
CONTINUOUS
 62
     7
 10
573.2875855063
 20
451.6754476006
 30
0.0
  0
VERTEX
  5
659
  8
0
  6
CONTINUOUS
 62
     7
 10
574.9843099509
 20
452.5257749136
 30
0.0
  0
VERTEX
  5
65A
  8
0
  6
CONTINUOUS
 62
     7
 10
576.7098793183
 20
453.3206997092
 30
0.0
  0
VERTEX
  5
65B
  8
0
  6
CONTINUOUS
 62
     7
 10
578.4614437614
 20
454.0594694789
 30
0.0
  0
VERTEX
  5
65C
  8
0
  6
CONTINUOUS
 62
     7
 10
580.2361608837
 20
454.7413391645
 30
0.0
  0
VERTEX
  5
65D
  8
0
  6
CONTINUOUS
 62
     7
 10
582.0820422266
 20
455.3825435813
 30
0.0
  0
VERTEX
  5
65E
  8
0
  6
CONTINUOUS
 62
     7
 10
583.9509458636
 20
455.9649256642
 30
0.0
  0
VERTEX
  5
65F
  8
0
  6
CONTINUOUS
 62
     7
 10
585.8397872542
 20
456.4888206895
 30
0.0
  0
VERTEX
  5
660
  8
0
  6
CONTINUOUS
 62
     7
 10
587.745487446
 20
456.9545862849
 30
0.0
  0
VERTEX
  5
661
  8
0
  6
CONTINUOUS
 62
     7
 10
589.6649656241
 20
457.3625651772
 30
0.0
  0
VERTEX
  5
662
  8
0
  6
CONTINUOUS
 62
     7
 10
591.449379677
 20
457.688870805
 30
0.0
  0
VERTEX
  5
663
  8
0
  6
CONTINUOUS
 62
     7
 10
593.2443064992
 20
457.9684016879
 30
0.0
  0
VERTEX
  5
664
  8
0
  6
CONTINUOUS
 62
     7
 10
595.04771767
 20
458.2029012616
 30
0.0
  0
VERTEX
  5
665
  8
0
  6
CONTINUOUS
 62
     7
 10
596.857584769
 20
458.394112962
 30
0.0
  0
VERTEX
  5
666
  8
0
  6
CONTINUOUS
 62
     7
 10
598.6718812381
 20
458.5437504227
 30
0.0
  0
VERTEX
  5
667
  8
0
  6
CONTINUOUS
 62
     7
 10
600.9425462578
 20
458.6754766877
 30
0.0
  0
VERTEX
  5
668
  8
0
  6
CONTINUOUS
 62
     7
 10
603.2182078232
 20
458.7535885747
 30
0.0
  0
VERTEX
  5
669
  8
0
  6
CONTINUOUS
 62
     7
 10
605.4969278519
 20
458.7873844083
 30
0.0
  0
VERTEX
  5
66A
  8
0
  6
CONTINUOUS
 62
     7
 10
607.776769193
 20
458.7861923154
 30
0.0
  0
VERTEX
  5
66B
  8
0
  6
CONTINUOUS
 62
     7
 10
610.9411877003
 20
458.7503252204
 30
0.0
  0
VERTEX
  5
66C
  8
0
  6
CONTINUOUS
 62
     7
 10
614.1072090138
 20
458.7063667948
 30
0.0
  0
VERTEX
  5
66D
  8
0
  6
CONTINUOUS
 62
     7
 10
617.2739160121
 20
458.6849240239
 30
0.0
  0
VERTEX
  5
66E
  8
0
  6
CONTINUOUS
 62
     7
 10
619.9134150409
 20
458.6998996909
 30
0.0
  0
VERTEX
  5
66F
  8
0
  6
CONTINUOUS
 62
     7
 10
622.5524817017
 20
458.7339339431
 30
0.0
  0
VERTEX
  5
670
  8
0
  6
CONTINUOUS
 62
     7
 10
625.1905418356
 20
458.7706504042
 30
0.0
  0
VERTEX
  5
671
  8
0
  6
CONTINUOUS
 62
     7
 10
627.8282476012
 20
458.7901262219
 30
0.0
  0
VERTEX
  5
672
  8
0
  6
CONTINUOUS
 62
     7
 10
630.4644325171
 20
458.7717828925
 30
0.0
  0
VERTEX
  5
673
  8
0
  6
CONTINUOUS
 62
     7
 10
633.097069094
 20
458.6982009585
 30
0.0
  0
VERTEX
  5
674
  8
0
  6
CONTINUOUS
 62
     7
 10
635.0701970403
 20
458.5970667775
 30
0.0
  0
VERTEX
  5
675
  8
0
  6
CONTINUOUS
 62
     7
 10
637.0396872406
 20
458.4520933802
 30
0.0
  0
VERTEX
  5
676
  8
0
  6
CONTINUOUS
 62
     7
 10
639.0033268724
 20
458.2599429066
 30
0.0
  0
VERTEX
  5
677
  8
0
  6
CONTINUOUS
 62
     7
 10
640.9589049761
 20
458.0173371012
 30
0.0
  0
VERTEX
  5
678
  8
0
  6
CONTINUOUS
 62
     7
 10
642.9740709607
 20
457.7098218377
 30
0.0
  0
VERTEX
  5
679
  8
0
  6
CONTINUOUS
 62
     7
 10
644.9782063608
 20
457.3432979758
 30
0.0
  0
VERTEX
  5
67A
  8
0
  6
CONTINUOUS
 62
     7
 10
646.9680701737
 20
456.9165287192
 30
0.0
  0
VERTEX
  5
67B
  8
0
  6
CONTINUOUS
 62
     7
 10
648.9404195343
 20
456.428232568
 30
0.0
  0
VERTEX
  5
67C
  8
0
  6
CONTINUOUS
 62
     7
 10
650.8178168331
 20
455.899733084
 30
0.0
  0
VERTEX
  5
67D
  8
0
  6
CONTINUOUS
 62
     7
 10
652.6766286586
 20
455.3125304754
 30
0.0
  0
VERTEX
  5
67E
  8
0
  6
CONTINUOUS
 62
     7
 10
654.5137630199
 20
454.6667141493
 30
0.0
  0
VERTEX
  5
67F
  8
0
  6
CONTINUOUS
 62
     7
 10
656.3261242007
 20
453.9623660619
 30
0.0
  0
VERTEX
  5
680
  8
0
  6
CONTINUOUS
 62
     7
 10
658.1439131294
 20
453.1848830755
 30
0.0
  0
VERTEX
  5
681
  8
0
  6
CONTINUOUS
 62
     7
 10
659.9336692487
 20
452.3462084706
 30
0.0
  0
VERTEX
  5
682
  8
0
  6
CONTINUOUS
 62
     7
 10
661.6922111605
 20
451.4473406251
 30
0.0
  0
VERTEX
  5
683
  8
0
  6
CONTINUOUS
 62
     7
 10
663.4163500164
 20
450.4892630155
 30
0.0
  0
SEQEND
  5
7D9
  8
0
  6
CONTINUOUS
 62
     7
  0
LINE
  5
1F3
  8
0
  6
CONTINUOUS
 62
     7
 10
573.9204154704
 20
435.2081371124
 30
0.0
 11
573.4872387145
 21
450.4892630155
 31
0.0
  0
LINE
  5
1F4
  8
0
  6
CONTINUOUS
 62
     7
 10
660.6270165537
 20
435.2081371124
 30
0.0
 11
661.0601933096
 21
450.4892630155
 31
0.0
  0
LINE
  5
1F5
  8
0
  6
CONTINUOUS
 62
     7
 10
543.89355121
 20
432.4892637904
 30
0.0
 11
554.3802583013
 21
432.4892637904
 31
0.0
  0
LINE
  5
1F6
  8
0
  6
CONTINUOUS
 62
     7
 10
543.5340532456
 20
425.4892645056
 30
0.0
 11
554.3166973983
 21
425.4892645056
 31
0.0
  0
LINE
  5
1F7
  8
0
  6
CONTINUOUS
 62
     7
 10
690.6538808142
 20
432.4892637904
 30
0.0
 11
680.1671737228
 21
432.4892637904
 31
0.0
  0
LINE
  5
1F8
  8
0
  6
CONTINUOUS
 62
     7
 10
691.0133787785
 20
425.4892645056
 30
0.0
 11
680.2307346259
 21
425.4892645056
 31
0.0
  0
LINE
  5
1F9
  8
0
  6
CONTINUOUS
 62
     7
 10
554.3802583013
 20
433.0539507444
 30
0.0
 11
543.89355121
 21
433.0539507444
 31
0.0
  0
ARC
  5
1FA
  8
0
  6
CONTINUOUS
 62
     7
 10
552.1795775675
 20
333.5433372196
 30
0.0
 40
100.0571972781085
 50
88.4526201025
 51
93.6558464375
  0
LINE
  5
1FB
  8
0
  6
CONTINUOUS
 62
     7
 10
680.1671737228
 20
433.0539507444
 30
0.0
 11
690.6538808142
 21
433.0539507444
 31
0.0
  0
ARC
  5
1FC
  8
0
  6
CONTINUOUS
 62
     7
 10
682.3678544567
 20
333.5433372196
 30
0.0
 40
100.0571972781085
 50
86.3441535625
 51
91.5473798975
  0
LINE
  5
1FD
  8
0
  6
CONTINUOUS
 62
     7
 10
555.0195143913
 20
417.9193107064
 30
0.0
 11
544.6824484859
 21
417.9193107064
 31
0.0
  0
LINE
  5
1FE
  8
0
  6
CONTINUOUS
 62
     7
 10
679.5279176329
 20
417.9193107064
 30
0.0
 11
689.8649835382
 21
417.9193107064
 31
0.0
  0
ARC
  5
1FF
  8
0
  6
CONTINUOUS
 62
     7
 10
554.5925676055
 20
473.175261837
 30
0.0
 40
56.38378113030872
 50
265.1627958459
 51
271.4599920335
  0
ARC
  5
200
  8
0
  6
CONTINUOUS
 62
     7
 10
679.9548644187
 20
473.175261837
 30
0.0
 40
56.38378113030871
 50
268.5400079665
 51
274.8372041541
  0
LINE
  5
201
  8
0
  6
CONTINUOUS
 62
     7
 10
564.7737176512
 20
450.4892630155
 30
0.0
 11
545.2737191115
 21
450.4892630155
 31
0.0
  0
ARC
  5
202
  8
0
  6
CONTINUOUS
 62
     7
 10
545.174896298
 20
436.8189072488
 30
0.0
 40
3.478538919906696
 50
261.8099929093
 51
280.3458180877
  0
ARC
  5
203
  8
0
  6
CONTINUOUS
 62
     7
 10
689.3725357262
 20
436.8189072488
 30
0.0
 40
3.478538919906696
 50
259.6541819123
 51
278.1900070907
  0
LINE
  5
204
  8
0
  6
CONTINUOUS
 62
     7
 10
669.773714373
 20
450.4892630155
 30
0.0
 11
689.2737129126
 21
450.4892630155
 31
0.0
  0
LINE
  5
205
  8
0
  6
CONTINUOUS
 62
     7
 10
573.4872387145
 20
450.4892630155
 30
0.0
 11
564.7737176512
 21
450.4892630155
 31
0.0
  0
LINE
  5
206
  8
0
  6
CONTINUOUS
 62
     7
 10
661.0601933096
 20
450.4892630155
 30
0.0
 11
669.773714373
 21
450.4892630155
 31
0.0
  0
LINE
  5
207
  8
0
  6
CONTINUOUS
 62
     7
 10
567.273715267
 20
372.3391396578
 30
0.0
 11
567.273715267
 21
391.1698748942
 31
0.0
  0
LINE
  5
208
  8
0
  6
CONTINUOUS
 62
     7
 10
667.2737167571
 20
372.3391396578
 30
0.0
 11
667.2737167571
 21
391.1698748942
 31
0.0
  0
LINE
  5
209
  8
0
  6
CONTINUOUS
 62
     7
 10
550.4886114393
 20
394.4892687376
 30
0.0
 11
549.8983540927
 21
394.4892687376
 31
0.0
  0
LINE
  5
20A
  8
0
  6
CONTINUOUS
 62
     7
 10
549.8983540927
 20
394.4892687376
 30
0.0
 11
548.716319481
 21
417.0438451345
 31
0.0
  0
ARC
  5
20B
  8
0
  6
CONTINUOUS
 62
     7
 10
549.1043129077
 20
413.256414887
 30
0.0
 40
3.807251866988925
 50
78.8889683489
 51
95.8491127817
  0
LINE
  5
20C
  8
0
  6
CONTINUOUS
 62
     7
 10
684.6490779315
 20
394.4892687376
 30
0.0
 11
685.8311125432
 21
417.0438451345
 31
0.0
  0
LINE
  5
20D
  8
0
  6
CONTINUOUS
 62
     7
 10
684.0588205849
 20
394.4892687376
 30
0.0
 11
684.6490779315
 21
394.4892687376
 31
0.0
  0
ARC
  5
20E
  8
0
  6
CONTINUOUS
 62
     7
 10
685.4431191164
 20
413.256414887
 30
0.0
 40
3.807251866988925
 50
84.1508872183
 51
101.1110316511
  0
LINE
  5
20F
  8
0
  6
CONTINUOUS
 62
     7
 10
563.7429298256
 20
389.4502548154
 30
0.0
 11
561.6685689782
 21
390.2052594002
 31
0.0
  0
LINE
  5
210
  8
0
  6
CONTINUOUS
 62
     7
 10
565.5541957711
 20
391.2436393674
 30
0.0
 11
563.7429298256
 21
389.4502548154
 31
0.0
  0
LINE
  5
211
  8
0
  6
CONTINUOUS
 62
     7
 10
670.8045021985
 20
389.4502548154
 30
0.0
 11
672.878863046
 21
390.2052594002
 31
0.0
  0
LINE
  5
212
  8
0
  6
CONTINUOUS
 62
     7
 10
668.9932362531
 20
391.2436393674
 30
0.0
 11
670.8045021985
 21
389.4502548154
 31
0.0
  0
LINE
  5
213
  8
0
  6
CONTINUOUS
 62
     7
 10
550.3362470661
 20
394.3298859174
 30
0.0
 11
549.8983540927
 21
394.4892687376
 31
0.0
  0
LINE
  5
214
  8
0
  6
CONTINUOUS
 62
     7
 10
684.2111849581
 20
394.3298859174
 30
0.0
 11
684.6490779315
 21
394.4892687376
 31
0.0
  0
LINE
  5
215
  8
0
  6
CONTINUOUS
 62
     7
 10
646.7737161909
 20
480.4892716582
 30
0.0
 11
587.7737158333
 21
480.4892716582
 31
0.0
  0
LINE
  5
216
  8
0
  6
CONTINUOUS
 62
     7
 10
540.7927909289
 20
432.4892637904
 30
0.0
 11
543.89355121
 21
432.4892637904
 31
0.0
  0
LINE
  5
217
  8
0
  6
CONTINUOUS
 62
     7
 10
540.4259317909
 20
425.4892645056
 30
0.0
 11
543.5340532456
 21
425.4892645056
 31
0.0
  0
LINE
  5
218
  8
0
  6
CONTINUOUS
 62
     7
 10
693.7546410952
 20
432.4892637904
 30
0.0
 11
690.6538808142
 21
432.4892637904
 31
0.0
  0
LINE
  5
219
  8
0
  6
CONTINUOUS
 62
     7
 10
694.1215002333
 20
425.4892645056
 30
0.0
 11
691.0133787785
 21
425.4892645056
 31
0.0
  0
LINE
  5
21A
  8
0
  6
CONTINUOUS
 62
     7
 10
543.89355121
 20
433.0539507444
 30
0.0
 11
540.7927909289
 21
433.0539507444
 31
0.0
  0
LINE
  5
21B
  8
0
  6
CONTINUOUS
 62
     7
 10
690.6538808142
 20
433.0539507444
 30
0.0
 11
693.7546410952
 21
433.0539507444
 31
0.0
  0
LINE
  5
21C
  8
0
  6
CONTINUOUS
 62
     7
 10
541.6704395209
 20
417.9193107064
 30
0.0
 11
544.6824484859
 21
417.9193107064
 31
0.0
  0
LINE
  5
21D
  8
0
  6
CONTINUOUS
 62
     7
 10
692.8769925032
 20
417.9193107064
 30
0.0
 11
689.8649835382
 21
417.9193107064
 31
0.0
  0
LINE
  5
21E
  8
0
  6
CONTINUOUS
 62
     7
 10
562.6098418032
 20
372.8832443829
 30
0.0
 11
562.6098418032
 21
389.8626630779
 31
0.0
  0
LINE
  5
21F
  8
0
  6
CONTINUOUS
 62
     7
 10
671.937590221
 20
372.8832443829
 30
0.0
 11
671.937590221
 21
389.8626630779
 31
0.0
  0
POLYLINE
  5
220
  8
0
  6
CONTINUOUS
 62
     7
 66
     1
 10
0.0
 20
0.0
 30
0.0
  0
VERTEX
  5
684
  8
0
  6
CONTINUOUS
 62
     7
 10
594.6905051713
 20
528.6287841971
 30
0.0
  0
VERTEX
  5
685
  8
0
  6
CONTINUOUS
 62
     7
 10
591.6964521055
 20
486.7092398579
 30
0.0
  0
VERTEX
  5
686
  8
0
  6
CONTINUOUS
 62
     7
 10
591.2534145062
 20
480.4892716582
 30
0.0
  0
SEQEND
  5
7D8
  8
0
  6
CONTINUOUS
 62
     7
  0
POLYLINE
  5
221
  8
0
  6
CONTINUOUS
 62
     7
 66
     1
 10
0.0
 20
0.0
 30
0.0
  0
VERTEX
  5
687
  8
0
  6
CONTINUOUS
 62
     7
 10
624.2351943982
 20
528.6287841971
 30
0.0
  0
VERTEX
  5
688
  8
0
  6
CONTINUOUS
 62
     7
 10
625.7754692231
 20
485.495197552
 30
0.0
  0
VERTEX
  5
689
  8
0
  6
CONTINUOUS
 62
     7
 10
625.953739265
 20
480.4892716582
 30
0.0
  0
SEQEND
  5
7D7
  8
0
  6
CONTINUOUS
 62
     7
  0
POLYLINE
  5
222
  8
0
  6
CONTINUOUS
 62
     7
 66
     1
 10
0.0
 20
0.0
 30
0.0
  0
VERTEX
  5
68A
  8
0
  6
CONTINUOUS
 62
     7
 10
624.6938176808
 20
530.489268678
 30
0.0
  0
VERTEX
  5
68B
  8
0
  6
CONTINUOUS
 62
     7
 10
624.816313142
 20
530.4792401965
 30
0.0
  0
VERTEX
  5
68C
  8
0
  6
CONTINUOUS
 62
     7
 10
624.9379909021
 20
530.4492590602
 30
0.0
  0
VERTEX
  5
68D
  8
0
  6
CONTINUOUS
 62
     7
 10
625.0580369849
 20
530.3994891818
 30
0.0
  0
VERTEX
  5
68E
  8
0
  6
CONTINUOUS
 62
     7
 10
625.1756499876
 20
530.330273288
 30
0.0
  0
VERTEX
  5
68F
  8
0
  6
CONTINUOUS
 62
     7
 10
625.2900452708
 20
530.2420882161
 30
0.0
  0
VERTEX
  5
690
  8
0
  6
CONTINUOUS
 62
     7
 10
625.400456356
 20
530.1355151112
 30
0.0
  0
VERTEX
  5
691
  8
0
  6
CONTINUOUS
 62
     7
 10
625.5061484297
 20
530.0112692292
 30
0.0
  0
VERTEX
  5
692
  8
0
  6
CONTINUOUS
 62
     7
 10
625.6064127554
 20
529.8701701339
 30
0.0
  0
VERTEX
  5
693
  8
0
  6
CONTINUOUS
 62
     7
 10
625.7005815749
 20
529.7131565984
 30
0.0
  0
VERTEX
  5
694
  8
0
  6
CONTINUOUS
 62
     7
 10
625.7880243827
 20
529.5413015063
 30
0.0
  0
VERTEX
  5
695
  8
0
  6
CONTINUOUS
 62
     7
 10
625.868158171
 20
529.355737346
 30
0.0
  0
VERTEX
  5
696
  8
0
  6
CONTINUOUS
 62
     7
 10
625.9404474293
 20
529.1577009137
 30
0.0
  0
VERTEX
  5
697
  8
0
  6
CONTINUOUS
 62
     7
 10
626.004408801
 20
528.9485184129
 30
0.0
  0
VERTEX
  5
698
  8
0
  6
CONTINUOUS
 62
     7
 10
626.0596148093
 20
528.7295756514
 30
0.0
  0
VERTEX
  5
699
  8
0
  6
CONTINUOUS
 62
     7
 10
626.1056975816
 20
528.5023627455
 30
0.0
  0
VERTEX
  5
69A
  8
0
  6
CONTINUOUS
 62
     7
 10
626.1423488502
 20
528.2683847125
 30
0.0
  0
VERTEX
  5
69B
  8
0
  6
CONTINUOUS
 62
     7
 10
626.1693236773
 20
528.029191273
 30
0.0
  0
VERTEX
  5
69C
  8
0
  6
CONTINUOUS
 62
     7
 10
626.1864413862
 20
527.7864066537
 30
0.0
  0
VERTEX
  5
69D
  8
0
  6
CONTINUOUS
 62
     7
 10
626.1935892869
 20
527.5416252787
 30
0.0
  0
SEQEND
  5
7D6
  8
0
  6
CONTINUOUS
 62
     7
  0
LINE
  5
223
  8
0
  6
CONTINUOUS
 62
     7
 10
626.1935892869
 20
527.5416252787
 30
0.0
 11
626.6042401437
 21
480.4892716582
 31
0.0
  0
POLYLINE
  5
224
  8
0
  6
CONTINUOUS
 62
     7
 66
     1
 10
0.0
 20
0.0
 30
0.0
  0
VERTEX
  5
69E
  8
0
  6
CONTINUOUS
 62
     7
 10
623.2110976596
 20
530.489268678
 30
0.0
  0
VERTEX
  5
69F
  8
0
  6
CONTINUOUS
 62
     7
 10
623.4050465171
 20
530.453401583
 30
0.0
  0
VERTEX
  5
6A0
  8
0
  6
CONTINUOUS
 62
     7
 10
623.5769369994
 20
530.3581682618
 30
0.0
  0
VERTEX
  5
6A1
  8
0
  6
CONTINUOUS
 62
     7
 10
623.7382746656
 20
530.2061466153
 30
0.0
  0
VERTEX
  5
6A2
  8
0
  6
CONTINUOUS
 62
     7
 10
623.8820401375
 20
530.0036547358
 30
0.0
  0
VERTEX
  5
6A3
  8
0
  6
CONTINUOUS
 62
     7
 10
624.0063651819
 20
529.7550139601
 30
0.0
  0
VERTEX
  5
6A4
  8
0
  6
CONTINUOUS
 62
     7
 10
624.1047738475
 20
529.4739929612
 30
0.0
  0
VERTEX
  5
6A5
  8
0
  6
CONTINUOUS
 62
     7
 10
624.1777262074
 20
529.1635123666
 30
0.0
  0
VERTEX
  5
6A6
  8
0
  6
CONTINUOUS
 62
     7
 10
624.2157912236
 20
528.9001492436
 30
0.0
  0
VERTEX
  5
6A7
  8
0
  6
CONTINUOUS
 62
     7
 10
624.2351943982
 20
528.6287841971
 30
0.0
  0
SEQEND
  5
7D5
  8
0
  6
CONTINUOUS
 62
     7
  0
LINE
  5
225
  8
0
  6
CONTINUOUS
 62
     7
 10
623.2110976596
 20
530.489268678
 30
0.0
 11
624.6938176808
 21
530.489268678
 31
0.0
  0
LINE
  5
226
  8
0
  6
CONTINUOUS
 62
     7
 10
634.8538433556
 20
527.5416252787
 30
0.0
 11
635.2644932811
 21
480.4892716582
 31
0.0
  0
LINE
  5
227
  8
0
  6
CONTINUOUS
 62
     7
 10
633.3540712838
 20
530.489268678
 30
0.0
 11
624.6938176808
 21
530.489268678
 31
0.0
  0
POLYLINE
  5
228
  8
0
  6
CONTINUOUS
 62
     7
 66
     1
 10
0.0
 20
0.0
 30
0.0
  0
VERTEX
  5
6A8
  8
0
  6
CONTINUOUS
 62
     7
 10
633.3540712838
 20
530.489268678
 30
0.0
  0
VERTEX
  5
6A9
  8
0
  6
CONTINUOUS
 62
     7
 10
633.476568142
 20
530.4792401965
 30
0.0
  0
VERTEX
  5
6AA
  8
0
  6
CONTINUOUS
 62
     7
 10
633.5982454364
 20
530.4492590602
 30
0.0
  0
VERTEX
  5
6AB
  8
0
  6
CONTINUOUS
 62
     7
 10
633.7182910536
 20
530.3994891818
 30
0.0
  0
VERTEX
  5
6AC
  8
0
  6
CONTINUOUS
 62
     7
 10
633.8359040563
 20
530.330273288
 30
0.0
  0
VERTEX
  5
6AD
  8
0
  6
CONTINUOUS
 62
     7
 10
633.9502984081
 20
530.2420882161
 30
0.0
  0
VERTEX
  5
6AE
  8
0
  6
CONTINUOUS
 62
     7
 10
634.0607104246
 20
530.1355151112
 30
0.0
  0
VERTEX
  5
6AF
  8
0
  6
CONTINUOUS
 62
     7
 10
634.1664024983
 20
530.0112692292
 30
0.0
  0
VERTEX
  5
6B0
  8
0
  6
CONTINUOUS
 62
     7
 10
634.2666668241
 20
529.8701701339
 30
0.0
  0
VERTEX
  5
6B1
  8
0
  6
CONTINUOUS
 62
     7
 10
634.3608347122
 20
529.7131565984
 30
0.0
  0
VERTEX
  5
6B2
  8
0
  6
CONTINUOUS
 62
     7
 10
634.4482784514
 20
529.5413015063
 30
0.0
  0
VERTEX
  5
6B3
  8
0
  6
CONTINUOUS
 62
     7
 10
634.528413171
 20
529.355737346
 30
0.0
  0
VERTEX
  5
6B4
  8
0
  6
CONTINUOUS
 62
     7
 10
634.6007005666
 20
529.1577009137
 30
0.0
  0
VERTEX
  5
6B5
  8
0
  6
CONTINUOUS
 62
     7
 10
634.6646619384
 20
528.9485184129
 30
0.0
  0
VERTEX
  5
6B6
  8
0
  6
CONTINUOUS
 62
     7
 10
634.719868878
 20
528.7295756514
 30
0.0
  0
VERTEX
  5
6B7
  8
0
  6
CONTINUOUS
 62
     7
 10
634.7659525816
 20
528.5023627455
 30
0.0
  0
VERTEX
  5
6B8
  8
0
  6
CONTINUOUS
 62
     7
 10
634.8026038502
 20
528.2683847125
 30
0.0
  0
VERTEX
  5
6B9
  8
0
  6
CONTINUOUS
 62
     7
 10
634.8295768146
 20
528.029191273
 30
0.0
  0
VERTEX
  5
6BA
  8
0
  6
CONTINUOUS
 62
     7
 10
634.8466963862
 20
527.7864066537
 30
0.0
  0
VERTEX
  5
6BB
  8
0
  6
CONTINUOUS
 62
     7
 10
634.8538433556
 20
527.5416252787
 30
0.0
  0
SEQEND
  5
7D4
  8
0
  6
CONTINUOUS
 62
     7
  0
ARC
  5
229
  8
0
  6
CONTINUOUS
 62
     7
 10
596.7101848367
 20
528.4629966107
 30
0.0
 40
2.02647266815096
 50
89.1938101912
 51
175.3073351137
  0
LINE
  5
22A
  8
0
  6
CONTINUOUS
 62
     7
 10
623.2110976596
 20
530.489268678
 30
0.0
 11
596.738697717
 21
530.489268678
 31
0.0
  0
LINE
  5
22B
  8
0
  6
CONTINUOUS
 62
     7
 10
687.8922411595
 20
408.6697501714
 30
0.0
 11
685.3922435437
 21
408.6697501714
 31
0.0
  0
LINE
  5
22C
  8
0
  6
CONTINUOUS
 62
     7
 10
687.7128013764
 20
405.245873111
 30
0.0
 11
687.8922411595
 21
408.6697501714
 31
0.0
  0
LINE
  5
22D
  8
0
  6
CONTINUOUS
 62
     7
 10
687.7128013764
 20
405.245873111
 30
0.0
 11
685.2128037606
 21
405.245873111
 31
0.0
  0
LINE
  5
22E
  8
0
  6
CONTINUOUS
 62
     7
 10
687.2529962455
 20
396.4722035105
 30
0.0
 11
687.7128013764
 21
405.245873111
 31
0.0
  0
LINE
  5
22F
  8
0
  6
CONTINUOUS
 62
     7
 10
687.2529962455
 20
396.4722035105
 30
0.0
 11
684.7529986297
 21
396.4722035105
 31
0.0
  0
LINE
  5
230
  8
0
  6
CONTINUOUS
 62
     7
 10
688.1501802598
 20
413.5915664609
 30
0.0
 11
685.650182644
 21
413.5915664609
 31
0.0
  0
LINE
  5
231
  8
0
  6
CONTINUOUS
 62
     7
 10
687.964020053
 20
410.039293545
 30
0.0
 11
688.1501802598
 21
413.5915664609
 31
0.0
  0
LINE
  5
232
  8
0
  6
CONTINUOUS
 62
     7
 10
687.964020053
 20
410.039293545
 30
0.0
 11
685.4640149866
 21
410.039293545
 31
0.0
  0
LINE
  5
233
  8
0
  6
CONTINUOUS
 62
     7
 10
638.4086867218
 20
530.489268678
 30
0.0
 11
633.3540712838
 21
530.489268678
 31
0.0
  0
LINE
  5
234
  8
0
  6
CONTINUOUS
 62
     7
 10
556.7737163399
 20
379.5253289516
 30
0.0
 11
556.7737163399
 21
383.9836856003
 31
0.0
  0
LINE
  5
235
  8
0
  6
CONTINUOUS
 62
     7
 10
677.7737156843
 20
379.5253289516
 30
0.0
 11
677.7737156843
 21
383.9836856003
 31
0.0
  0
LINE
  5
236
  8
0
  6
CONTINUOUS
 62
     7
 10
621.5167904627
 20
530.7668177064
 30
0.0
 11
629.6076194738
 21
530.7668177064
 31
0.0
  0
LINE
  5
237
  8
0
  6
CONTINUOUS
 62
     7
 10
604.9398125504
 20
530.7668177064
 30
0.0
 11
621.5167904627
 21
530.7668177064
 31
0.0
  0
POLYLINE
  5
238
  8
0
  6
CONTINUOUS
 62
     7
 66
     1
 10
0.0
 20
0.0
 30
0.0
  0
VERTEX
  5
6BC
  8
0
  6
CONTINUOUS
 62
     7
 10
607.2892441769
 20
540.7892642195
 30
0.0
  0
VERTEX
  5
6BD
  8
0
  6
CONTINUOUS
 62
     7
 10
607.0913660695
 20
540.5913917001
 30
0.0
  0
VERTEX
  5
6BE
  8
0
  6
CONTINUOUS
 62
     7
 10
606.9065432419
 20
540.4065576966
 30
0.0
  0
VERTEX
  5
6BF
  8
0
  6
CONTINUOUS
 62
     7
 10
606.7350103874
 20
540.2350304301
 30
0.0
  0
VERTEX
  5
6C0
  8
0
  6
CONTINUOUS
 62
     7
 10
606.5769882296
 20
540.0770036156
 30
0.0
  0
VERTEX
  5
6C1
  8
0
  6
CONTINUOUS
 62
     7
 10
606.4326797967
 20
539.9327007706
 30
0.0
  0
VERTEX
  5
6C2
  8
0
  6
CONTINUOUS
 62
     7
 10
606.3022694905
 20
539.8022858079
 30
0.0
  0
VERTEX
  5
6C3
  8
0
  6
CONTINUOUS
 62
     7
 10
606.1859240179
 20
539.6859524424
 30
0.0
  0
VERTEX
  5
6C4
  8
0
  6
CONTINUOUS
 62
     7
 10
606.083794253
 20
539.5838198836
 30
0.0
  0
VERTEX
  5
6C5
  8
0
  6
CONTINUOUS
 62
     7
 10
605.9960096498
 20
539.496037143
 30
0.0
  0
VERTEX
  5
6C6
  8
0
  6
CONTINUOUS
 62
     7
 10
605.9226838295
 20
539.4227085288
 30
0.0
  0
VERTEX
  5
6C7
  8
0
  6
CONTINUOUS
 62
     7
 10
605.8639089931
 20
539.363938349
 30
0.0
  0
VERTEX
  5
6C8
  8
0
  6
CONTINUOUS
 62
     7
 10
605.8197624405
 20
539.3197862084
 30
0.0
  0
VERTEX
  5
6C9
  8
0
  6
CONTINUOUS
 62
     7
 10
605.7903000508
 20
539.2903266127
 30
0.0
  0
VERTEX
  5
6CA
  8
0
  6
CONTINUOUS
 62
     7
 10
605.7755590771
 20
539.2755744632
 30
0.0
  0
VERTEX
  5
6CB
  8
0
  6
CONTINUOUS
 62
     7
 10
605.7737159897
 20
539.2737416203
 30
0.0
  0
SEQEND
  5
7D3
  8
0
  6
CONTINUOUS
 62
     7
  0
POLYLINE
  5
239
  8
0
  6
CONTINUOUS
 62
     7
 66
     1
 10
0.0
 20
0.0
 30
0.0
  0
VERTEX
  5
6CC
  8
0
  6
CONTINUOUS
 62
     7
 10
608.7737155501
 20
574.7892586167
 30
0.0
  0
VERTEX
  5
6CD
  8
0
  6
CONTINUOUS
 62
     7
 10
608.5641167481
 20
569.9886409219
 30
0.0
  0
VERTEX
  5
6CE
  8
0
  6
CONTINUOUS
 62
     7
 10
608.3610921521
 20
565.338614362
 30
0.0
  0
VERTEX
  5
6CF
  8
0
  6
CONTINUOUS
 62
     7
 10
608.1647954304
 20
560.8426956113
 30
0.0
  0
VERTEX
  5
6D0
  8
0
  6
CONTINUOUS
 62
     7
 10
607.975376526
 20
556.5042821343
 30
0.0
  0
VERTEX
  5
6D1
  8
0
  6
CONTINUOUS
 62
     7
 10
607.7929760684
 20
552.3266372855
 30
0.0
  0
VERTEX
  5
6D2
  8
0
  6
CONTINUOUS
 62
     7
 10
607.6177337561
 20
548.312920111
 30
0.0
  0
VERTEX
  5
6D3
  8
0
  6
CONTINUOUS
 62
     7
 10
607.4497809057
 20
544.4661555465
 30
0.0
  0
VERTEX
  5
6D4
  8
0
  6
CONTINUOUS
 62
     7
 10
607.2892441769
 20
540.7892642195
 30
0.0
  0
SEQEND
  5
7D2
  8
0
  6
CONTINUOUS
 62
     7
  0
LINE
  5
23A
  8
0
  6
CONTINUOUS
 62
     7
 10
608.7737155501
 20
574.7892586167
 30
0.0
 11
609.5277492312
 21
574.7892586167
 31
0.0
  0
POLYLINE
  5
23B
  8
0
  6
CONTINUOUS
 62
     7
 66
     1
 10
0.0
 20
0.0
 30
0.0
  0
VERTEX
  5
6D5
  8
0
  6
CONTINUOUS
 62
     7
 10
611.5675510262
 20
540.7892642195
 30
0.0
  0
VERTEX
  5
6D6
  8
0
  6
CONTINUOUS
 62
     7
 10
611.2953976151
 20
544.4661555465
 30
0.0
  0
VERTEX
  5
6D7
  8
0
  6
CONTINUOUS
 62
     7
 10
611.0277569276
 20
548.312920111
 30
0.0
  0
VERTEX
  5
6D8
  8
0
  6
CONTINUOUS
 62
     7
 10
610.7648319919
 20
552.3266372855
 30
0.0
  0
VERTEX
  5
6D9
  8
0
  6
CONTINUOUS
 62
     7
 10
610.5068202485
 20
556.5042821343
 30
0.0
  0
VERTEX
  5
6DA
  8
0
  6
CONTINUOUS
 62
     7
 10
610.2539177407
 20
560.8426956113
 30
0.0
  0
VERTEX
  5
6DB
  8
0
  6
CONTINUOUS
 62
     7
 10
610.0063139927
 20
565.338614362
 30
0.0
  0
VERTEX
  5
6DC
  8
0
  6
CONTINUOUS
 62
     7
 10
609.7641971317
 20
569.9886409219
 30
0.0
  0
VERTEX
  5
6DD
  8
0
  6
CONTINUOUS
 62
     7
 10
609.5277492312
 20
574.7892586167
 30
0.0
  0
SEQEND
  5
7D1
  8
0
  6
CONTINUOUS
 62
     7
  0
ARC
  5
23C
  8
0
  6
CONTINUOUS
 62
     7
 10
617.2737160121
 20
550.7737762248
 30
0.0
 40
11.50003473165278
 50
240.2519628085
 51
299.7480371915
  0
POLYLINE
  5
23D
  8
0
  6
CONTINUOUS
 62
     7
 66
     1
 10
0.0
 20
0.0
 30
0.0
  0
VERTEX
  5
6DE
  8
0
  6
CONTINUOUS
 62
     7
 10
625.019682793
 20
574.7892586167
 30
0.0
  0
VERTEX
  5
6DF
  8
0
  6
CONTINUOUS
 62
     7
 10
624.7832348925
 20
569.9886409219
 30
0.0
  0
VERTEX
  5
6E0
  8
0
  6
CONTINUOUS
 62
     7
 10
624.5411180314
 20
565.338614362
 30
0.0
  0
VERTEX
  5
6E1
  8
0
  6
CONTINUOUS
 62
     7
 10
624.2935142834
 20
560.8426956113
 30
0.0
  0
VERTEX
  5
6E2
  8
0
  6
CONTINUOUS
 62
     7
 10
624.0406117757
 20
556.5042821343
 30
0.0
  0
VERTEX
  5
6E3
  8
0
  6
CONTINUOUS
 62
     7
 10
623.7826000322
 20
552.3266372855
 30
0.0
  0
VERTEX
  5
6E4
  8
0
  6
CONTINUOUS
 62
     7
 10
623.5196750966
 20
548.312920111
 30
0.0
  0
VERTEX
  5
6E5
  8
0
  6
CONTINUOUS
 62
     7
 10
623.252034409
 20
544.4661555465
 30
0.0
  0
VERTEX
  5
6E6
  8
0
  6
CONTINUOUS
 62
     7
 10
622.979880998
 20
540.7892642195
 30
0.0
  0
SEQEND
  5
7D0
  8
0
  6
CONTINUOUS
 62
     7
  0
LINE
  5
23E
  8
0
  6
CONTINUOUS
 62
     7
 10
625.019682793
 20
574.7892586167
 30
0.0
 11
625.773716474
 21
574.7892586167
 31
0.0
  0
POLYLINE
  5
23F
  8
0
  6
CONTINUOUS
 62
     7
 66
     1
 10
0.0
 20
0.0
 30
0.0
  0
VERTEX
  5
6E7
  8
0
  6
CONTINUOUS
 62
     7
 10
627.2581878473
 20
540.7892642195
 30
0.0
  0
VERTEX
  5
6E8
  8
0
  6
CONTINUOUS
 62
     7
 10
627.0976511185
 20
544.4661555465
 30
0.0
  0
VERTEX
  5
6E9
  8
0
  6
CONTINUOUS
 62
     7
 10
626.929698268
 20
548.312920111
 30
0.0
  0
VERTEX
  5
6EA
  8
0
  6
CONTINUOUS
 62
     7
 10
626.7544559558
 20
552.3266372855
 30
0.0
  0
VERTEX
  5
6EB
  8
0
  6
CONTINUOUS
 62
     7
 10
626.5720554982
 20
556.5042821343
 30
0.0
  0
VERTEX
  5
6EC
  8
0
  6
CONTINUOUS
 62
     7
 10
626.3826365937
 20
560.8426956113
 30
0.0
  0
VERTEX
  5
6ED
  8
0
  6
CONTINUOUS
 62
     7
 10
626.186339872
 20
565.338614362
 30
0.0
  0
VERTEX
  5
6EE
  8
0
  6
CONTINUOUS
 62
     7
 10
625.9833152761
 20
569.9886409219
 30
0.0
  0
VERTEX
  5
6EF
  8
0
  6
CONTINUOUS
 62
     7
 10
625.773716474
 20
574.7892586167
 30
0.0
  0
SEQEND
  5
7CF
  8
0
  6
CONTINUOUS
 62
     7
  0
POLYLINE
  5
240
  8
0
  6
CONTINUOUS
 62
     7
 66
     1
 10
0.0
 20
0.0
 30
0.0
  0
VERTEX
  5
6F0
  8
0
  6
CONTINUOUS
 62
     7
 10
628.7737160344
 20
539.2737416203
 30
0.0
  0
VERTEX
  5
6F1
  8
0
  6
CONTINUOUS
 62
     7
 10
628.7718729471
 20
539.2755744632
 30
0.0
  0
VERTEX
  5
6F2
  8
0
  6
CONTINUOUS
 62
     7
 10
628.7571319734
 20
539.2903266127
 30
0.0
  0
VERTEX
  5
6F3
  8
0
  6
CONTINUOUS
 62
     7
 10
628.7276695837
 20
539.3197862084
 30
0.0
  0
VERTEX
  5
6F4
  8
0
  6
CONTINUOUS
 62
     7
 10
628.683523031
 20
539.363938349
 30
0.0
  0
VERTEX
  5
6F5
  8
0
  6
CONTINUOUS
 62
     7
 10
628.6247481947
 20
539.4227085288
 30
0.0
  0
VERTEX
  5
6F6
  8
0
  6
CONTINUOUS
 62
     7
 10
628.5514223744
 20
539.496037143
 30
0.0
  0
VERTEX
  5
6F7
  8
0
  6
CONTINUOUS
 62
     7
 10
628.4636377712
 20
539.5838198836
 30
0.0
  0
VERTEX
  5
6F8
  8
0
  6
CONTINUOUS
 62
     7
 10
628.3615080063
 20
539.6859524424
 30
0.0
  0
VERTEX
  5
6F9
  8
0
  6
CONTINUOUS
 62
     7
 10
628.2451625337
 20
539.8022858079
 30
0.0
  0
VERTEX
  5
6FA
  8
0
  6
CONTINUOUS
 62
     7
 10
628.1147522275
 20
539.9327007706
 30
0.0
  0
VERTEX
  5
6FB
  8
0
  6
CONTINUOUS
 62
     7
 10
627.9704437946
 20
540.0770036156
 30
0.0
  0
VERTEX
  5
6FC
  8
0
  6
CONTINUOUS
 62
     7
 10
627.8124216367
 20
540.2350304301
 30
0.0
  0
VERTEX
  5
6FD
  8
0
  6
CONTINUOUS
 62
     7
 10
627.6408887823
 20
540.4065576966
 30
0.0
  0
VERTEX
  5
6FE
  8
0
  6
CONTINUOUS
 62
     7
 10
627.4560659547
 20
540.5913917001
 30
0.0
  0
VERTEX
  5
6FF
  8
0
  6
CONTINUOUS
 62
     7
 10
627.2581878473
 20
540.7892642195
 30
0.0
  0
SEQEND
  5
7CE
  8
0
  6
CONTINUOUS
 62
     7
  0
LINE
  5
241
  8
0
  6
CONTINUOUS
 62
     7
 10
611.5675510262
 20
540.7892642195
 30
0.0
 11
622.979880998
 21
540.7892642195
 31
0.0
  0
LINE
  5
242
  8
0
  6
CONTINUOUS
 62
     7
 10
609.5277492312
 20
574.7892586167
 30
0.0
 11
625.019682793
 21
574.7892586167
 31
0.0
  0
POLYLINE
  5
243
  8
0
  6
CONTINUOUS
 62
     7
 66
     1
 10
0.0
 20
0.0
 30
0.0
  0
VERTEX
  5
700
  8
0
  6
CONTINUOUS
 62
     7
 10
556.5883309935
 20
382.9837022002
 30
0.0
  0
VERTEX
  5
701
  8
0
  6
CONTINUOUS
 62
     7
 10
556.5995776449
 20
382.9823424692
 30
0.0
  0
VERTEX
  5
702
  8
0
  6
CONTINUOUS
 62
     7
 10
556.7737163399
 20
382.972202229
 30
0.0
  0
SEQEND
  5
7CD
  8
0
  6
CONTINUOUS
 62
     7
  0
POLYLINE
  5
244
  8
0
  6
CONTINUOUS
 62
     7
 66
     1
 10
0.0
 20
0.0
 30
0.0
  0
VERTEX
  5
703
  8
0
  6
CONTINUOUS
 62
     7
 10
677.9591010307
 20
382.9837022002
 30
0.0
  0
VERTEX
  5
704
  8
0
  6
CONTINUOUS
 62
     7
 10
677.9478543793
 20
382.9823424692
 30
0.0
  0
VERTEX
  5
705
  8
0
  6
CONTINUOUS
 62
     7
 10
677.7737156843
 20
382.972202229
 30
0.0
  0
SEQEND
  5
7CC
  8
0
  6
CONTINUOUS
 62
     7
  0
LINE
  5
245
  8
0
  6
CONTINUOUS
 62
     7
 10
687.8922411595
 20
408.6697501714
 30
0.0
 11
687.964020053
 21
410.039293545
 31
0.0
  0
LINE
  5
246
  8
0
  6
CONTINUOUS
 62
     7
 10
590.773716325
 20
527.5416252787
 30
0.0
 11
589.9524146114
 21
480.4892716582
 31
0.0
  0
ARC
  5
247
  8
0
  6
CONTINUOUS
 62
     7
 10
593.7732590976
 20
527.4892656977
 30
0.0
 40
3.0
 50
90.0
 51
179.0
  0
LINE
  5
248
  8
0
  6
CONTINUOUS
 62
     7
 10
596.738697717
 20
530.489268678
 30
0.0
 11
593.773258606
 21
530.489268678
 31
0.0
  0
CIRCLE
  5
249
  8
0
  6
CONTINUOUS
 62
     7
 10
617.2737160121
 20
330.4892656977
 30
0.0
 40
89.50000000000003
  0
POLYLINE
  5
24A
  8
0
  6
CONTINUOUS
 62
     7
 66
     1
 10
0.0
 20
0.0
 30
0.0
  0
VERTEX
  5
706
  8
0
  6
CONTINUOUS
 62
     7
 10
571.5552621876
 20
239.9632064278
 30
0.0
  0
VERTEX
  5
707
  8
0
  6
CONTINUOUS
 62
     7
 10
571.5648883377
 20
239.9667082007
 30
0.0
  0
VERTEX
  5
708
  8
0
  6
CONTINUOUS
 62
     7
 10
571.5937109087
 20
239.9771986182
 30
0.0
  0
VERTEX
  5
709
  8
0
  6
CONTINUOUS
 62
     7
 10
571.6415250097
 20
239.9946031745
 30
0.0
  0
VERTEX
  5
70A
  8
0
  6
CONTINUOUS
 62
     7
 10
571.7080065404
 20
240.0188026603
 30
0.0
  0
VERTEX
  5
70B
  8
0
  6
CONTINUOUS
 62
     7
 10
571.7927010153
 20
240.0496257122
 30
0.0
  0
VERTEX
  5
70C
  8
0
  6
CONTINUOUS
 62
     7
 10
571.8950347398
 20
240.0868711646
 30
0.0
  0
VERTEX
  5
70D
  8
0
  6
CONTINUOUS
 62
     7
 10
572.0142999087
 20
240.1302856977
 30
0.0
  0
VERTEX
  5
70E
  8
0
  6
CONTINUOUS
 62
     7
 10
572.1496918593
 20
240.1795563872
 30
0.0
  0
VERTEX
  5
70F
  8
0
  6
CONTINUOUS
 62
     7
 10
572.3002755438
 20
240.2343703087
 30
0.0
  0
VERTEX
  5
710
  8
0
  6
CONTINUOUS
 62
     7
 10
572.4650302325
 20
240.2943325813
 30
0.0
  0
VERTEX
  5
711
  8
0
  6
CONTINUOUS
 62
     7
 10
572.6428234373
 20
240.3590483244
 30
0.0
  0
VERTEX
  5
712
  8
0
  6
CONTINUOUS
 62
     7
 10
572.8324481641
 20
240.4280630524
 30
0.0
  0
VERTEX
  5
713
  8
0
  6
CONTINUOUS
 62
     7
 10
573.0326042865
 20
240.5009148295
 30
0.0
  0
VERTEX
  5
714
  8
0
  6
CONTINUOUS
 62
     7
 10
573.2419283484
 20
240.5771044667
 30
0.0
  0
VERTEX
  5
715
  8
0
  6
CONTINUOUS
 62
     7
 10
573.4589861129
 20
240.6561029728
 30
0.0
  0
VERTEX
  5
716
  8
0
  6
CONTINUOUS
 62
     7
 10
573.6822949146
 20
240.7373813565
 30
0.0
  0
VERTEX
  5
717
  8
0
  6
CONTINUOUS
 62
     7
 10
573.9103348349
 20
240.8203808244
 30
0.0
  0
VERTEX
  5
718
  8
0
  6
CONTINUOUS
 62
     7
 10
574.141541252
 20
240.9045351322
 30
0.0
  0
VERTEX
  5
719
  8
0
  6
CONTINUOUS
 62
     7
 10
574.374338368
 20
240.9892631347
 30
0.0
  0
SEQEND
  5
7CB
  8
0
  6
CONTINUOUS
 62
     7
  0
POLYLINE
  5
24B
  8
0
  6
CONTINUOUS
 62
     7
 66
     1
 10
0.0
 20
0.0
 30
0.0
  0
VERTEX
  5
71A
  8
0
  6
CONTINUOUS
 62
     7
 10
567.1657302771
 20
252.0233420308
 30
0.0
  0
VERTEX
  5
71B
  8
0
  6
CONTINUOUS
 62
     7
 10
567.1773531829
 20
252.02756651
 30
0.0
  0
VERTEX
  5
71C
  8
0
  6
CONTINUOUS
 62
     7
 10
567.2121213172
 20
252.0402250464
 30
0.0
  0
VERTEX
  5
71D
  8
0
  6
CONTINUOUS
 62
     7
 10
567.2697478329
 20
252.0611984308
 30
0.0
  0
VERTEX
  5
71E
  8
0
  6
CONTINUOUS
 62
     7
 10
567.3497596179
 20
252.0903227504
 30
0.0
  0
VERTEX
  5
71F
  8
0
  6
CONTINUOUS
 62
     7
 10
567.4514972959
 20
252.1273521359
 30
0.0
  0
VERTEX
  5
720
  8
0
  6
CONTINUOUS
 62
     7
 10
567.5741226767
 20
252.1719811137
 30
0.0
  0
VERTEX
  5
721
  8
0
  6
CONTINUOUS
 62
     7
 10
567.7166187559
 20
252.2238446052
 30
0.0
  0
VERTEX
  5
722
  8
0
  6
CONTINUOUS
 62
     7
 10
567.8778195177
 20
252.2825179274
 30
0.0
  0
SEQEND
  5
7CA
  8
0
  6
CONTINUOUS
 62
     7
  0
LINE
  5
24C
  8
0
  6
CONTINUOUS
 62
     7
 10
570.9375680779
 20
250.4317117508
 30
0.0
 11
574.374338368
 21
240.9892631347
 31
0.0
  0
POLYLINE
  5
24D
  8
0
  6
CONTINUOUS
 62
     7
 66
     1
 10
0.0
 20
0.0
 30
0.0
  0
VERTEX
  5
723
  8
0
  6
CONTINUOUS
 62
     7
 10
667.381701747
 20
252.0233420308
 30
0.0
  0
VERTEX
  5
724
  8
0
  6
CONTINUOUS
 62
     7
 10
667.3700788413
 20
252.02756651
 30
0.0
  0
VERTEX
  5
725
  8
0
  6
CONTINUOUS
 62
     7
 10
667.3353107069
 20
252.0402250464
 30
0.0
  0
VERTEX
  5
726
  8
0
  6
CONTINUOUS
 62
     7
 10
667.2776841913
 20
252.0611984308
 30
0.0
  0
VERTEX
  5
727
  8
0
  6
CONTINUOUS
 62
     7
 10
667.1976724063
 20
252.0903227504
 30
0.0
  0
VERTEX
  5
728
  8
0
  6
CONTINUOUS
 62
     7
 10
667.0959347282
 20
252.1273521359
 30
0.0
  0
VERTEX
  5
729
  8
0
  6
CONTINUOUS
 62
     7
 10
666.9733093475
 20
252.1719811137
 30
0.0
  0
VERTEX
  5
72A
  8
0
  6
CONTINUOUS
 62
     7
 10
666.8308132683
 20
252.2238446052
 30
0.0
  0
VERTEX
  5
72B
  8
0
  6
CONTINUOUS
 62
     7
 10
666.6696125065
 20
252.2825179274
 30
0.0
  0
SEQEND
  5
7C9
  8
0
  6
CONTINUOUS
 62
     7
  0
POLYLINE
  5
24E
  8
0
  6
CONTINUOUS
 62
     7
 66
     1
 10
0.0
 20
0.0
 30
0.0
  0
VERTEX
  5
72C
  8
0
  6
CONTINUOUS
 62
     7
 10
662.9921698366
 20
239.9632064278
 30
0.0
  0
VERTEX
  5
72D
  8
0
  6
CONTINUOUS
 62
     7
 10
662.9825436865
 20
239.9667082007
 30
0.0
  0
VERTEX
  5
72E
  8
0
  6
CONTINUOUS
 62
     7
 10
662.9537211154
 20
239.9771986182
 30
0.0
  0
VERTEX
  5
72F
  8
0
  6
CONTINUOUS
 62
     7
 10
662.9059070145
 20
239.9946031745
 30
0.0
  0
VERTEX
  5
730
  8
0
  6
CONTINUOUS
 62
     7
 10
662.8394254838
 20
240.0188026603
 30
0.0
  0
VERTEX
  5
731
  8
0
  6
CONTINUOUS
 62
     7
 10
662.7547310089
 20
240.0496257122
 30
0.0
  0
VERTEX
  5
732
  8
0
  6
CONTINUOUS
 62
     7
 10
662.6523972844
 20
240.0868711646
 30
0.0
  0
VERTEX
  5
733
  8
0
  6
CONTINUOUS
 62
     7
 10
662.5331321154
 20
240.1302856977
 30
0.0
  0
VERTEX
  5
734
  8
0
  6
CONTINUOUS
 62
     7
 10
662.3977401648
 20
240.1795563872
 30
0.0
  0
VERTEX
  5
735
  8
0
  6
CONTINUOUS
 62
     7
 10
662.2471564804
 20
240.2343703087
 30
0.0
  0
VERTEX
  5
736
  8
0
  6
CONTINUOUS
 62
     7
 10
662.0824017917
 20
240.2943325813
 30
0.0
  0
VERTEX
  5
737
  8
0
  6
CONTINUOUS
 62
     7
 10
661.9046085869
 20
240.3590483244
 30
0.0
  0
VERTEX
  5
738
  8
0
  6
CONTINUOUS
 62
     7
 10
661.7149838601
 20
240.4280630524
 30
0.0
  0
VERTEX
  5
739
  8
0
  6
CONTINUOUS
 62
     7
 10
661.5148277377
 20
240.5009148295
 30
0.0
  0
VERTEX
  5
73A
  8
0
  6
CONTINUOUS
 62
     7
 10
661.3055036758
 20
240.5771044667
 30
0.0
  0
VERTEX
  5
73B
  8
0
  6
CONTINUOUS
 62
     7
 10
661.0884459113
 20
240.6561029728
 30
0.0
  0
VERTEX
  5
73C
  8
0
  6
CONTINUOUS
 62
     7
 10
660.8651371096
 20
240.7373813565
 30
0.0
  0
VERTEX
  5
73D
  8
0
  6
CONTINUOUS
 62
     7
 10
660.6370971893
 20
240.8203808244
 30
0.0
  0
VERTEX
  5
73E
  8
0
  6
CONTINUOUS
 62
     7
 10
660.4058907722
 20
240.9045351322
 30
0.0
  0
VERTEX
  5
73F
  8
0
  6
CONTINUOUS
 62
     7
 10
660.1730936561
 20
240.9892631347
 30
0.0
  0
SEQEND
  5
7C8
  8
0
  6
CONTINUOUS
 62
     7
  0
LINE
  5
24F
  8
0
  6
CONTINUOUS
 62
     7
 10
663.6098639463
 20
250.4317117508
 30
0.0
 11
660.1730936561
 21
240.9892631347
 31
0.0
  0
LINE
  5
250
  8
0
  6
CONTINUOUS
 62
     7
 10
574.374338368
 20
237.9892645056
 30
0.0
 11
574.374338368
 21
240.9892631347
 31
0.0
  0
LINE
  5
251
  8
0
  6
CONTINUOUS
 62
     7
 10
574.374338368
 20
240.9892631347
 30
0.0
 11
593.9070728962
 21
240.9892631347
 31
0.0
  0
LINE
  5
252
  8
0
  6
CONTINUOUS
 62
     7
 10
660.1730936561
 20
240.9892631347
 30
0.0
 11
640.640359128
 21
240.9892631347
 31
0.0
  0
LINE
  5
253
  8
0
  6
CONTINUOUS
 62
     7
 10
660.1730936561
 20
237.9892645056
 30
0.0
 11
660.1730936561
 21
240.9892631347
 31
0.0
  0
LINE
  5
254
  8
0
  6
CONTINUOUS
 62
     7
 10
554.3166973983
 20
425.4892645056
 30
0.0
 11
554.3802583013
 21
432.4892637904
 31
0.0
  0
LINE
  5
255
  8
0
  6
CONTINUOUS
 62
     7
 10
680.2307346259
 20
425.4892645056
 30
0.0
 11
680.1671737228
 21
432.4892637904
 31
0.0
  0
LINE
  5
256
  8
0
  6
CONTINUOUS
 62
     7
 10
554.3802583013
 20
433.0539507444
 30
0.0
 11
554.3802583013
 21
432.4892637904
 31
0.0
  0
LINE
  5
257
  8
0
  6
CONTINUOUS
 62
     7
 10
680.1671737228
 20
433.0539507444
 30
0.0
 11
680.1671737228
 21
432.4892637904
 31
0.0
  0
LINE
  5
258
  8
0
  6
CONTINUOUS
 62
     7
 10
554.8814812098
 20
433.5640472944
 30
0.0
 11
554.3802583013
 21
433.0539507444
 31
0.0
  0
LINE
  5
259
  8
0
  6
CONTINUOUS
 62
     7
 10
679.6659508143
 20
433.5640472944
 30
0.0
 11
680.1671737228
 21
433.0539507444
 31
0.0
  0
LINE
  5
25A
  8
0
  6
CONTINUOUS
 62
     7
 10
555.0195143913
 20
417.9193107064
 30
0.0
 11
554.9558603559
 21
425.4892645056
 31
0.0
  0
LINE
  5
25B
  8
0
  6
CONTINUOUS
 62
     7
 10
679.5279176329
 20
417.9193107064
 30
0.0
 11
679.5915716682
 21
425.4892645056
 31
0.0
  0
LINE
  5
25C
  8
0
  6
CONTINUOUS
 62
     7
 10
556.0291649197
 20
416.8097851451
 30
0.0
 11
555.0195143913
 21
417.9193107064
 31
0.0
  0
LINE
  5
25D
  8
0
  6
CONTINUOUS
 62
     7
 10
678.5182671045
 20
416.8097851451
 30
0.0
 11
679.5279176329
 21
417.9193107064
 31
0.0
  0
LINE
  5
25E
  8
0
  6
CONTINUOUS
 62
     7
 10
543.5340532456
 20
425.4892645056
 30
0.0
 11
543.89355121
 21
432.4892637904
 31
0.0
  0
LINE
  5
25F
  8
0
  6
CONTINUOUS
 62
     7
 10
691.0133787785
 20
425.4892645056
 30
0.0
 11
690.6538808142
 21
432.4892637904
 31
0.0
  0
LINE
  5
260
  8
0
  6
CONTINUOUS
 62
     7
 10
545.7996034418
 20
433.396923321
 30
0.0
 11
543.89355121
 21
433.0539507444
 31
0.0
  0
LINE
  5
261
  8
0
  6
CONTINUOUS
 62
     7
 10
543.89355121
 20
433.0539507444
 30
0.0
 11
543.89355121
 21
432.4892637904
 31
0.0
  0
LINE
  5
262
  8
0
  6
CONTINUOUS
 62
     7
 10
688.7478285824
 20
433.396923321
 30
0.0
 11
690.6538808142
 21
433.0539507444
 31
0.0
  0
LINE
  5
263
  8
0
  6
CONTINUOUS
 62
     7
 10
690.6538808142
 20
433.0539507444
 30
0.0
 11
690.6538808142
 21
432.4892637904
 31
0.0
  0
LINE
  5
264
  8
0
  6
CONTINUOUS
 62
     7
 10
544.6824484859
 20
417.9193107064
 30
0.0
 11
544.2934089695
 21
425.4892645056
 31
0.0
  0
LINE
  5
265
  8
0
  6
CONTINUOUS
 62
     7
 10
689.8649835382
 20
417.9193107064
 30
0.0
 11
690.2540230547
 21
425.4892645056
 31
0.0
  0
LINE
  5
266
  8
0
  6
CONTINUOUS
 62
     7
 10
549.8380118404
 20
416.992302018
 30
0.0
 11
544.6824484859
 21
417.9193107064
 31
0.0
  0
LINE
  5
267
  8
0
  6
CONTINUOUS
 62
     7
 10
684.7094201837
 20
416.992302018
 30
0.0
 11
689.8649835382
 21
417.9193107064
 31
0.0
  0
LINE
  5
268
  8
0
  6
CONTINUOUS
 62
     7
 10
565.0599540566
 20
434.0956834729
 30
0.0
 11
564.7737176512
 21
450.4892630155
 31
0.0
  0
LINE
  5
269
  8
0
  6
CONTINUOUS
 62
     7
 10
669.4874779676
 20
434.0956834729
 30
0.0
 11
669.773714373
 21
450.4892630155
 31
0.0
  0
LINE
  5
26A
  8
0
  6
CONTINUOUS
 62
     7
 10
558.0448002909
 20
401.539850014
 30
0.0
 11
558.0238678847
 21
416.800211149
 31
0.0
  0
LINE
  5
26B
  8
0
  6
CONTINUOUS
 62
     7
 10
676.5026317333
 20
401.539850014
 30
0.0
 11
676.5235641394
 21
416.800211149
 31
0.0
  0
LINE
  5
26C
  8
0
  6
CONTINUOUS
 62
     7
 10
624.2351943982
 20
528.6287841971
 30
0.0
 11
594.6905051713
 21
528.6287841971
 31
0.0
  0
LINE
  5
26D
  8
0
  6
CONTINUOUS
 62
     7
 10
634.8538433556
 20
527.5416252787
 30
0.0
 11
626.1935892869
 21
527.5416252787
 31
0.0
  0
LINE
  5
26E
  8
0
  6
CONTINUOUS
 62
     7
 10
640.4038143699
 20
528.6287841971
 30
0.0
 11
634.7416506503
 21
528.6287841971
 31
0.0
  0
LINE
  5
26F
  8
0
  6
CONTINUOUS
 62
     7
 10
629.8973976989
 20
530.5444774802
 30
0.0
 11
604.6500343253
 21
530.5444774802
 31
0.0
  0
INSERT
  5
297
  8
FORMAT
  2
SW_CENTERMARKSYMBOL_0
 10
566.0084743761
 20
381.7545073338
 30
0.0
  0
ARC
  5
298
  8
0
  6
CONTINUOUS
 62
     7
 10
310.5973096793
 20
30.8612688822
 30
0.0
 40
3.0
 50
180.0
 51
209.9989887763
  0
ARC
  5
299
  8
0
  6
CONTINUOUS
 62
     7
 10
310.5973096793
 20
209.8612688822
 30
0.0
 40
3.0
 50
149.9944323281
 51
180.0
  0
ARC
  5
29A
  8
0
  6
CONTINUOUS
 62
     7
 10
166.5973096793
 20
209.8612688822
 30
0.0
 40
3.000000000000009
 50
0.0
 51
29.9989887763
  0
ARC
  5
29B
  8
0
  6
CONTINUOUS
 62
     7
 10
166.5973096793
 20
30.8612688822
 30
0.0
 40
3.0
 50
329.9944323282
 51
0.0
  0
ARC
  5
29C
  8
0
  6
CONTINUOUS
 62
     7
 10
317.5973096793
 20
209.8612688822
 30
0.0
 40
3.000000000000035
 50
0.0
 51
29.9989887764
  0
ARC
  5
29D
  8
0
  6
CONTINUOUS
 62
     7
 10
317.5973096793
 20
30.8612688822
 30
0.0
 40
3.000000000000001
 50
329.9944323281
 51
0.0
  0
ARC
  5
29E
  8
0
  6
CONTINUOUS
 62
     7
 10
159.5973096793
 20
30.8612688822
 30
0.0
 40
3.000000000000028
 50
180.0
 51
209.9989887763
  0
ARC
  5
29F
  8
0
  6
CONTINUOUS
 62
     7
 10
159.5973096793
 20
209.8612688822
 30
0.0
 40
3.000000000000028
 50
149.9944323281
 51
180.0
  0
LINE
  5
2A0
  8
0
  6
CONTINUOUS
 62
     7
 10
320.5973119443
 20
62.3612705511
 30
0.0
 11
323.5973105734
 21
65.3612691802
 31
0.0
  0
LINE
  5
2A1
  8
0
  6
CONTINUOUS
 62
     7
 10
323.5973105734
 20
175.3612685842
 30
0.0
 11
320.5973119443
 21
178.3612672132
 31
0.0
  0
LINE
  5
2A2
  8
0
  6
CONTINUOUS
 62
     7
 10
156.5973074144
 20
178.3612672132
 30
0.0
 11
153.5973087853
 21
175.3612685842
 31
0.0
  0
LINE
  5
2A3
  8
0
  6
CONTINUOUS
 62
     7
 10
153.5973087853
 20
65.3612691802
 30
0.0
 11
156.5973074144
 21
62.3612705511
 31
0.0
  0
ARC
  5
2A4
  8
0
  6
CONTINUOUS
 62
     7
 10
301.5973096793
 20
168.3072871971
 30
0.0
 40
6.000000000000015
 50
281.0
 51
0.0
  0
ARC
  5
2A5
  8
0
  6
CONTINUOUS
 62
     7
 10
301.5973096793
 20
72.4152505673
 30
0.0
 40
6.000000000000015
 50
0.0
 51
79.0
  0
ARC
  5
2A6
  8
0
  6
CONTINUOUS
 62
     7
 10
175.5973096793
 20
72.4152505673
 30
0.0
 40
6.00000000000001
 50
101.0
 51
180.0
  0
ARC
  5
2A7
  8
0
  6
CONTINUOUS
 62
     7
 10
175.5973096793
 20
168.3072871971
 30
0.0
 40
6.00000000000001
 50
180.0
 51
259.0
  0
LINE
  5
2A8
  8
0
  6
CONTINUOUS
 62
     7
 10
193.7550106054
 20
158.6654860419
 30
0.0
 11
174.4524524515
 21
162.4175239247
 31
0.0
  0
LINE
  5
2A9
  8
0
  6
CONTINUOUS
 62
     7
 10
302.7421669071
 20
162.4175239247
 30
0.0
 11
283.4396087533
 21
158.6654860419
 31
0.0
  0
LINE
  5
2AA
  8
0
  6
CONTINUOUS
 62
     7
 10
174.4524524515
 20
78.3050138396
 30
0.0
 11
193.7550106054
 21
82.0570517224
 31
0.0
  0
LINE
  5
2AB
  8
0
  6
CONTINUOUS
 62
     7
 10
283.4396087533
 20
82.0570517224
 30
0.0
 11
302.7421669071
 21
78.3050138396
 31
0.0
  0
ARC
  5
2AC
  8
0
  6
CONTINUOUS
 62
     7
 10
238.5973554637
 20
120.3612991256
 30
0.0
 40
11.50005461249733
 50
209.7481541343
 51
222.3425619548
  0
LINE
  5
2AD
  8
0
  6
CONTINUOUS
 62
     7
 10
228.6128378441
 20
126.0674338681
 30
0.0
 11
228.6128378441
 21
114.6551038963
 31
0.0
  0
ARC
  5
2AE
  8
0
  6
CONTINUOUS
 62
     7
 10
238.5973554637
 20
120.3612386388
 30
0.0
 40
11.50005461249734
 50
137.6574380452
 51
150.2518458657
  0
LINE
  5
2AF
  8
0
  6
CONTINUOUS
 62
     7
 10
230.0973092174
 20
128.1072356631
 30
0.0
 11
230.0973092174
 21
112.6153021012
 31
0.0
  0
LINE
  5
2B0
  8
0
  6
CONTINUOUS
 62
     7
 10
246.3432764603
 20
128.8612693441
 30
0.0
 11
230.8513428984
 21
128.8612693441
 31
0.0
  0
ARC
  5
2B1
  8
0
  6
CONTINUOUS
 62
     7
 10
238.5973096793
 20
120.3612688822
 30
0.0
 40
11.50000000000003
 50
42.3426054522
 51
47.6573945478
  0
LINE
  5
2B2
  8
0
  6
CONTINUOUS
 62
     7
 10
247.0973101413
 20
128.1072356631
 30
0.0
 11
247.0973101413
 21
112.6153021012
 31
0.0
  0
ARC
  5
2B3
  8
0
  6
CONTINUOUS
 62
     7
 10
238.5973096793
 20
120.3612688822
 30
0.0
 40
11.50000000000002
 50
312.3426054522
 51
317.6573945478
  0
LINE
  5
2B4
  8
0
  6
CONTINUOUS
 62
     7
 10
246.3432764603
 20
111.8612684202
 30
0.0
 11
230.8513428984
 21
111.8612684202
 31
0.0
  0
ARC
  5
2B5
  8
0
  6
CONTINUOUS
 62
     7
 10
238.5973096793
 20
120.3612688822
 30
0.0
 40
11.50000000000002
 50
222.3426054522
 51
227.6573945478
  0
ARC
  5
2B6
  8
0
  6
CONTINUOUS
 62
     7
 10
238.5973096793
 20
120.3612688822
 30
0.0
 40
11.5
 50
132.3426054522
 51
137.6573945478
  0
ARC
  5
2B7
  8
0
  6
CONTINUOUS
 62
     7
 10
238.597263895
 20
120.3612386388
 30
0.0
 40
11.50005461249733
 50
29.7481541343
 51
42.3425619548
  0
LINE
  5
2B8
  8
0
  6
CONTINUOUS
 62
     7
 10
248.5817815145
 20
126.0674338681
 30
0.0
 11
248.5817815145
 21
114.6551038963
 31
0.0
  0
ARC
  5
2B9
  8
0
  6
CONTINUOUS
 62
     7
 10
238.597263895
 20
120.3612991256
 30
0.0
 40
11.50005461249733
 50
317.6574380452
 51
330.2518458657
  0
LINE
  5
2BA
  8
0
  6
CONTINUOUS
 62
     7
 10
244.3034746652
 20
130.3457407174
 30
0.0
 11
232.8911446934
 21
130.3457407174
 31
0.0
  0
ARC
  5
2BB
  8
0
  6
CONTINUOUS
 62
     7
 10
238.5972794359
 20
120.3612230978
 30
0.0
 40
11.50005461249733
 50
47.6574380452
 51
60.2518458657
  0
ARC
  5
2BC
  8
0
  6
CONTINUOUS
 62
     7
 10
238.5973399227
 20
120.3612230978
 30
0.0
 40
11.50005461249735
 50
119.7481541343
 51
132.3425619548
  0
LINE
  5
2BD
  8
0
  6
CONTINUOUS
 62
     7
 10
244.3034746652
 20
110.376797047
 30
0.0
 11
232.8911446934
 21
110.376797047
 31
0.0
  0
ARC
  5
2BE
  8
0
  6
CONTINUOUS
 62
     7
 10
238.5973399227
 20
120.3613146666
 30
0.0
 40
11.50005461249736
 50
227.6574380452
 51
240.2518458657
  0
ARC
  5
2BF
  8
0
  6
CONTINUOUS
 62
     7
 10
238.5972794359
 20
120.3613146666
 30
0.0
 40
11.50005461249734
 50
299.7481541343
 51
312.3425619548
  0
ARC
  5
2C0
  8
0
  6
CONTINUOUS
 62
     7
 10
238.5973138748
 20
120.3612688822
 30
0.0
 40
11.49999621285156
 50
330.2518531316
 51
29.7481468684
  0
ARC
  5
2C1
  8
0
  6
CONTINUOUS
 62
     7
 10
238.5973054839
 20
120.3612688822
 30
0.0
 40
11.49999621285166
 50
150.2518531316
 51
209.7481468684
  0
ARC
  5
2C2
  8
0
  6
CONTINUOUS
 62
     7
 10
238.5973096793
 20
120.3612730776
 30
0.0
 40
11.4999962128516
 50
60.2518531316
 51
119.7481468684
  0
ARC
  5
2C3
  8
0
  6
CONTINUOUS
 62
     7
 10
238.5973096793
 20
120.3612646867
 30
0.0
 40
11.49999621285162
 50
240.2518531316
 51
299.7481468684
  0
CIRCLE
  5
2C4
  8
0
  6
CONTINUOUS
 62
     7
 10
238.5973096793
 20
120.3612688822
 30
0.0
 40
12.63847343433355
  0
LINE
  5
2C5
  8
0
  6
CONTINUOUS
 62
     7
 10
243.5973095676
 20
143.8617262882
 30
0.0
 11
243.5973095676
 21
146.8612685693
 31
0.0
  0
LINE
  5
2C6
  8
0
  6
CONTINUOUS
 62
     7
 10
233.5973097911
 20
143.8617262882
 30
0.0
 11
233.5973097911
 21
146.8612685693
 31
0.0
  0
LINE
  5
2C7
  8
0
  6
CONTINUOUS
 62
     7
 10
223.3134624516
 20
105.763633166
 30
0.0
 11
220.7453162378
 21
104.2809136105
 31
0.0
  0
LINE
  5
2C8
  8
0
  6
CONTINUOUS
 62
     7
 10
258.8811558639
 20
114.4238872346
 30
0.0
 11
261.4493020778
 21
112.9411672135
 31
0.0
  0
LINE
  5
2C9
  8
0
  6
CONTINUOUS
 62
     7
 10
218.3134634947
 20
114.4238872346
 30
0.0
 11
215.7453172808
 21
112.9411672135
 31
0.0
  0
LINE
  5
2CA
  8
0
  6
CONTINUOUS
 62
     7
 10
253.881156907
 20
105.763633166
 30
0.0
 11
256.4493031209
 21
104.2809136105
 31
0.0
  0
LINE
  5
2CB
  8
0
  6
CONTINUOUS
 62
     7
 10
243.5973095676
 20
140.8962871772
 30
0.0
 11
243.5973095676
 21
143.8617262882
 31
0.0
  0
LINE
  5
2CC
  8
0
  6
CONTINUOUS
 62
     7
 10
233.5973097911
 20
140.8962871772
 30
0.0
 11
233.5973097911
 21
143.8617262882
 31
0.0
  0
POLYLINE
  5
2CD
  8
0
  6
CONTINUOUS
 62
     7
 66
     1
 10
0.0
 20
0.0
 30
0.0
  0
VERTEX
  5
740
  8
0
  6
CONTINUOUS
 62
     7
 10
261.4493020778
 20
112.9411672135
 30
0.0
  0
VERTEX
  5
741
  8
0
  6
CONTINUOUS
 62
     7
 10
261.6614703989
 20
112.8186717522
 30
0.0
  0
VERTEX
  5
742
  8
0
  6
CONTINUOUS
 62
     7
 10
261.8722231096
 20
112.6969939922
 30
0.0
  0
VERTEX
  5
743
  8
0
  6
CONTINUOUS
 62
     7
 10
262.0801501876
 20
112.5769479093
 30
0.0
  0
VERTEX
  5
744
  8
0
  6
CONTINUOUS
 62
     7
 10
262.2838620996
 20
112.4593349067
 30
0.0
  0
VERTEX
  5
745
  8
0
  6
CONTINUOUS
 62
     7
 10
262.4819991147
 20
112.3449396235
 30
0.0
  0
VERTEX
  5
746
  8
0
  6
CONTINUOUS
 62
     7
 10
262.6732368922
 20
112.2345285383
 30
0.0
  0
VERTEX
  5
747
  8
0
  6
CONTINUOUS
 62
     7
 10
262.8562995201
 20
112.1288364646
 30
0.0
  0
VERTEX
  5
748
  8
0
  6
CONTINUOUS
 62
     7
 10
263.0299632406
 20
112.0285721389
 30
0.0
  0
VERTEX
  5
749
  8
0
  6
CONTINUOUS
 62
     7
 10
263.1930694884
 20
111.9344033194
 30
0.0
  0
VERTEX
  5
74A
  8
0
  6
CONTINUOUS
 62
     7
 10
263.3445248907
 20
111.8469605115
 30
0.0
  0
VERTEX
  5
74B
  8
0
  6
CONTINUOUS
 62
     7
 10
263.483319894
 20
111.7668267232
 30
0.0
  0
VERTEX
  5
74C
  8
0
  6
CONTINUOUS
 62
     7
 10
263.6085287636
 20
111.694537465
 30
0.0
  0
VERTEX
  5
74D
  8
0
  6
CONTINUOUS
 62
     7
 10
263.7193133091
 20
111.6305760932
 30
0.0
  0
VERTEX
  5
74E
  8
0
  6
CONTINUOUS
 62
     7
 10
263.8149340605
 20
111.575370085
 30
0.0
  0
VERTEX
  5
74F
  8
0
  6
CONTINUOUS
 62
     7
 10
263.8947502678
 20
111.5292873126
 30
0.0
  0
VERTEX
  5
750
  8
0
  6
CONTINUOUS
 62
     7
 10
263.9582329398
 20
111.492636044
 30
0.0
  0
VERTEX
  5
751
  8
0
  6
CONTINUOUS
 62
     7
 10
264.0049536681
 20
111.465661217
 30
0.0
  0
VERTEX
  5
752
  8
0
  6
CONTINUOUS
 62
     7
 10
264.0346032536
 20
111.4485435081
 30
0.0
  0
VERTEX
  5
753
  8
0
  6
CONTINUOUS
 62
     7
 10
264.0469823932
 20
111.4413956073
 30
0.0
  0
SEQEND
  5
7C7
  8
0
  6
CONTINUOUS
 62
     7
  0
POLYLINE
  5
2CE
  8
0
  6
CONTINUOUS
 62
     7
 66
     1
 10
0.0
 20
0.0
 30
0.0
  0
VERTEX
  5
754
  8
0
  6
CONTINUOUS
 62
     7
 10
256.4493031209
 20
104.2809136105
 30
0.0
  0
VERTEX
  5
755
  8
0
  6
CONTINUOUS
 62
     7
 10
256.6614714419
 20
104.1584167522
 30
0.0
  0
VERTEX
  5
756
  8
0
  6
CONTINUOUS
 62
     7
 10
256.87222229
 20
104.0367394579
 30
0.0
  0
VERTEX
  5
757
  8
0
  6
CONTINUOUS
 62
     7
 10
257.080149368
 20
103.9166938406
 30
0.0
  0
VERTEX
  5
758
  8
0
  6
CONTINUOUS
 62
     7
 10
257.28386128
 20
103.799080838
 30
0.0
  0
VERTEX
  5
759
  8
0
  6
CONTINUOUS
 62
     7
 10
257.4819982951
 20
103.6846864861
 30
0.0
  0
VERTEX
  5
75A
  8
0
  6
CONTINUOUS
 62
     7
 10
257.6732379353
 20
103.5742744696
 30
0.0
  0
VERTEX
  5
75B
  8
0
  6
CONTINUOUS
 62
     7
 10
257.8563005632
 20
103.4685823959
 30
0.0
  0
VERTEX
  5
75C
  8
0
  6
CONTINUOUS
 62
     7
 10
258.0299642837
 20
103.3683180702
 30
0.0
  0
VERTEX
  5
75D
  8
0
  6
CONTINUOUS
 62
     7
 10
258.1930686688
 20
103.274150182
 30
0.0
  0
VERTEX
  5
75E
  8
0
  6
CONTINUOUS
 62
     7
 10
258.3445240712
 20
103.1867064429
 30
0.0
  0
VERTEX
  5
75F
  8
0
  6
CONTINUOUS
 62
     7
 10
258.4833209371
 20
103.1065717232
 30
0.0
  0
VERTEX
  5
760
  8
0
  6
CONTINUOUS
 62
     7
 10
258.608527944
 20
103.0342843276
 30
0.0
  0
VERTEX
  5
761
  8
0
  6
CONTINUOUS
 62
     7
 10
258.7193124896
 20
102.9703229559
 30
0.0
  0
VERTEX
  5
762
  8
0
  6
CONTINUOUS
 62
     7
 10
258.814933241
 20
102.9151160163
 30
0.0
  0
VERTEX
  5
763
  8
0
  6
CONTINUOUS
 62
     7
 10
258.8947513109
 20
102.8690323127
 30
0.0
  0
VERTEX
  5
764
  8
0
  6
CONTINUOUS
 62
     7
 10
258.9582321202
 20
102.8323810441
 30
0.0
  0
VERTEX
  5
765
  8
0
  6
CONTINUOUS
 62
     7
 10
259.0049547111
 20
102.8054080796
 30
0.0
  0
VERTEX
  5
766
  8
0
  6
CONTINUOUS
 62
     7
 10
259.0346042966
 20
102.7882885081
 30
0.0
  0
VERTEX
  5
767
  8
0
  6
CONTINUOUS
 62
     7
 10
259.0469834363
 20
102.7811415386
 30
0.0
  0
SEQEND
  5
7C6
  8
0
  6
CONTINUOUS
 62
     7
  0
POLYLINE
  5
2CF
  8
0
  6
CONTINUOUS
 62
     7
 66
     1
 10
0.0
 20
0.0
 30
0.0
  0
VERTEX
  5
768
  8
0
  6
CONTINUOUS
 62
     7
 10
220.7453162378
 20
104.2809136105
 30
0.0
  0
VERTEX
  5
769
  8
0
  6
CONTINUOUS
 62
     7
 10
220.5331479167
 20
104.1584167522
 30
0.0
  0
VERTEX
  5
76A
  8
0
  6
CONTINUOUS
 62
     7
 10
220.3223970687
 20
104.0367394579
 30
0.0
  0
VERTEX
  5
76B
  8
0
  6
CONTINUOUS
 62
     7
 10
220.1144699907
 20
103.9166938406
 30
0.0
  0
VERTEX
  5
76C
  8
0
  6
CONTINUOUS
 62
     7
 10
219.9107580786
 20
103.799080838
 30
0.0
  0
VERTEX
  5
76D
  8
0
  6
CONTINUOUS
 62
     7
 10
219.7126210635
 20
103.6846864861
 30
0.0
  0
VERTEX
  5
76E
  8
0
  6
CONTINUOUS
 62
     7
 10
219.5213814234
 20
103.5742744696
 30
0.0
  0
VERTEX
  5
76F
  8
0
  6
CONTINUOUS
 62
     7
 10
219.3383187955
 20
103.4685823959
 30
0.0
  0
VERTEX
  5
770
  8
0
  6
CONTINUOUS
 62
     7
 10
219.164655075
 20
103.3683180702
 30
0.0
  0
VERTEX
  5
771
  8
0
  6
CONTINUOUS
 62
     7
 10
219.0015506899
 20
103.274150182
 30
0.0
  0
VERTEX
  5
772
  8
0
  6
CONTINUOUS
 62
     7
 10
218.8500952875
 20
103.1867064429
 30
0.0
  0
VERTEX
  5
773
  8
0
  6
CONTINUOUS
 62
     7
 10
218.7112984216
 20
103.1065717232
 30
0.0
  0
VERTEX
  5
774
  8
0
  6
CONTINUOUS
 62
     7
 10
218.5860914146
 20
103.0342843276
 30
0.0
  0
VERTEX
  5
775
  8
0
  6
CONTINUOUS
 62
     7
 10
218.4753068691
 20
102.9703229559
 30
0.0
  0
VERTEX
  5
776
  8
0
  6
CONTINUOUS
 62
     7
 10
218.3796861177
 20
102.9151160163
 30
0.0
  0
VERTEX
  5
777
  8
0
  6
CONTINUOUS
 62
     7
 10
218.2998680478
 20
102.8690323127
 30
0.0
  0
VERTEX
  5
778
  8
0
  6
CONTINUOUS
 62
     7
 10
218.2363872385
 20
102.8323810441
 30
0.0
  0
VERTEX
  5
779
  8
0
  6
CONTINUOUS
 62
     7
 10
218.1896646475
 20
102.8054080796
 30
0.0
  0
VERTEX
  5
77A
  8
0
  6
CONTINUOUS
 62
     7
 10
218.160015062
 20
102.7882885081
 30
0.0
  0
VERTEX
  5
77B
  8
0
  6
CONTINUOUS
 62
     7
 10
218.1476359224
 20
102.7811415386
 30
0.0
  0
SEQEND
  5
7C5
  8
0
  6
CONTINUOUS
 62
     7
  0
POLYLINE
  5
2D0
  8
0
  6
CONTINUOUS
 62
     7
 66
     1
 10
0.0
 20
0.0
 30
0.0
  0
VERTEX
  5
77C
  8
0
  6
CONTINUOUS
 62
     7
 10
215.7453172808
 20
112.9411672135
 30
0.0
  0
VERTEX
  5
77D
  8
0
  6
CONTINUOUS
 62
     7
 10
215.5331489598
 20
112.8186717522
 30
0.0
  0
VERTEX
  5
77E
  8
0
  6
CONTINUOUS
 62
     7
 10
215.3223962491
 20
112.6969939922
 30
0.0
  0
VERTEX
  5
77F
  8
0
  6
CONTINUOUS
 62
     7
 10
215.1144691711
 20
112.5769479093
 30
0.0
  0
VERTEX
  5
780
  8
0
  6
CONTINUOUS
 62
     7
 10
214.9107572591
 20
112.4593349067
 30
0.0
  0
VERTEX
  5
781
  8
0
  6
CONTINUOUS
 62
     7
 10
214.712620244
 20
112.3449396235
 30
0.0
  0
VERTEX
  5
782
  8
0
  6
CONTINUOUS
 62
     7
 10
214.5213824665
 20
112.2345285383
 30
0.0
  0
VERTEX
  5
783
  8
0
  6
CONTINUOUS
 62
     7
 10
214.3383198386
 20
112.1288364646
 30
0.0
  0
VERTEX
  5
784
  8
0
  6
CONTINUOUS
 62
     7
 10
214.1646561181
 20
112.0285721389
 30
0.0
  0
VERTEX
  5
785
  8
0
  6
CONTINUOUS
 62
     7
 10
214.0015498703
 20
111.9344033194
 30
0.0
  0
VERTEX
  5
786
  8
0
  6
CONTINUOUS
 62
     7
 10
213.8500944679
 20
111.8469605115
 30
0.0
  0
VERTEX
  5
787
  8
0
  6
CONTINUOUS
 62
     7
 10
213.7112994647
 20
111.7668267232
 30
0.0
  0
VERTEX
  5
788
  8
0
  6
CONTINUOUS
 62
     7
 10
213.5860905951
 20
111.694537465
 30
0.0
  0
VERTEX
  5
789
  8
0
  6
CONTINUOUS
 62
     7
 10
213.4753060495
 20
111.6305760932
 30
0.0
  0
VERTEX
  5
78A
  8
0
  6
CONTINUOUS
 62
     7
 10
213.3796852982
 20
111.575370085
 30
0.0
  0
VERTEX
  5
78B
  8
0
  6
CONTINUOUS
 62
     7
 10
213.2998690909
 20
111.5292873126
 30
0.0
  0
VERTEX
  5
78C
  8
0
  6
CONTINUOUS
 62
     7
 10
213.2363864189
 20
111.492636044
 30
0.0
  0
VERTEX
  5
78D
  8
0
  6
CONTINUOUS
 62
     7
 10
213.1896656906
 20
111.465661217
 30
0.0
  0
VERTEX
  5
78E
  8
0
  6
CONTINUOUS
 62
     7
 10
213.1600161051
 20
111.4485435081
 30
0.0
  0
VERTEX
  5
78F
  8
0
  6
CONTINUOUS
 62
     7
 10
213.1476369655
 20
111.4413956073
 30
0.0
  0
SEQEND
  5
7C4
  8
0
  6
CONTINUOUS
 62
     7
  0
ARC
  5
2D1
  8
0
  6
CONTINUOUS
 62
     7
 10
238.5973096793
 20
120.3612688822
 30
0.0
 40
26.49634059717554
 50
100.8772368446
 51
199.1227631554
  0
ARC
  5
2D2
  8
0
  6
CONTINUOUS
 62
     7
 10
238.5973096793
 20
120.3612688822
 30
0.0
 40
26.49634059717555
 50
340.8772368446
 51
79.1227631554
  0
ARC
  5
2D3
  8
0
  6
CONTINUOUS
 62
     7
 10
238.5973096793
 20
120.3612688822
 30
0.0
 40
26.49634059717555
 50
220.8772368446
 51
319.1227631554
  0
LINE
  5
2D4
  8
0
  6
CONTINUOUS
 62
     7
 10
243.5973095676
 20
147.6825702828
 30
0.0
 11
233.5973097911
 21
147.6825702828
 31
0.0
  0
LINE
  5
2D5
  8
0
  6
CONTINUOUS
 62
     7
 10
243.5973095676
 20
146.8612685693
 30
0.0
 11
243.5973095676
 21
147.6825702828
 31
0.0
  0
LINE
  5
2D6
  8
0
  6
CONTINUOUS
 62
     7
 10
233.5973097911
 20
146.8612685693
 30
0.0
 11
233.5973097911
 21
147.6825702828
 31
0.0
  0
LINE
  5
2D7
  8
0
  6
CONTINUOUS
 62
     7
 10
212.4363672888
 20
111.0307447505
 30
0.0
 11
217.4363681083
 21
102.3704916132
 31
0.0
  0
LINE
  5
2D8
  8
0
  6
CONTINUOUS
 62
     7
 10
218.1476359224
 20
102.7811415386
 30
0.0
 11
217.4363681083
 21
102.3704916132
 31
0.0
  0
LINE
  5
2D9
  8
0
  6
CONTINUOUS
 62
     7
 10
213.1476369655
 20
111.4413956073
 30
0.0
 11
212.4363672888
 21
111.0307447505
 31
0.0
  0
LINE
  5
2DA
  8
0
  6
CONTINUOUS
 62
     7
 10
259.7582512503
 20
102.3704916132
 30
0.0
 11
264.7582520699
 21
111.0307447505
 31
0.0
  0
LINE
  5
2DB
  8
0
  6
CONTINUOUS
 62
     7
 10
264.0469823932
 20
111.4413956073
 30
0.0
 11
264.7582520699
 21
111.0307447505
 31
0.0
  0
LINE
  5
2DC
  8
0
  6
CONTINUOUS
 62
     7
 10
259.0469834363
 20
102.7811415386
 30
0.0
 11
259.7582512503
 21
102.3704916132
 31
0.0
  0
CIRCLE
  5
2DD
  8
0
  6
CONTINUOUS
 62
     7
 10
238.5973096793
 20
120.3612688822
 30
0.0
 40
29.50000000000003
  0
ARC
  5
2DE
  8
0
  6
CONTINUOUS
 62
     7
 10
238.5973096793
 20
120.6524017466
 30
0.0
 40
29.5576127326409
 50
54.1759816483
 51
125.8240183517
  0
ARC
  5
2DF
  8
0
  6
CONTINUOUS
 62
     7
 10
238.5863593714
 20
120.3612688822
 30
0.0
 40
29.80051557335149
 50
305.5134701187
 51
54.4865298813
  0
ARC
  5
2E0
  8
0
  6
CONTINUOUS
 62
     7
 10
238.5973096793
 20
120.0701360178
 30
0.0
 40
29.55761273264091
 50
234.1759816484
 51
305.8240183517
  0
ARC
  5
2E1
  8
0
  6
CONTINUOUS
 62
     7
 10
238.6082599872
 20
120.3612688822
 30
0.0
 40
29.8005155733515
 50
125.5134701187
 51
234.4865298813
  0
ARC
  5
2E2
  8
0
  6
CONTINUOUS
 62
     7
 10
60.600033239
 20
120.3612688822
 30
0.0
 40
213.740386979818
 50
347.5327412881
 51
12.4672587119
  0
ARC
  5
2E3
  8
0
  6
CONTINUOUS
 62
     7
 10
255.1661708425
 20
82.5180106623
 30
0.0
 40
16.39066366774964
 50
272.5566443842
 51
329.5791395875
  0
ARC
  5
2E4
  8
0
  6
CONTINUOUS
 62
     7
 10
255.1661708425
 20
158.204527102
 30
0.0
 40
16.39066366774964
 50
30.4208604125
 51
87.4433556158
  0
ARC
  5
2E5
  8
0
  6
CONTINUOUS
 62
     7
 10
222.0284485162
 20
82.5180106623
 30
0.0
 40
16.39066366774964
 50
210.4208604125
 51
267.4433556158
  0
ARC
  5
2E6
  8
0
  6
CONTINUOUS
 62
     7
 10
416.5945861197
 20
120.3612688822
 30
0.0
 40
213.740386979818
 50
167.5327412881
 51
192.4672587119
  0
ARC
  5
2E7
  8
0
  6
CONTINUOUS
 62
     7
 10
222.0284485162
 20
158.204527102
 30
0.0
 40
16.39066366774964
 50
92.5566443842
 51
149.5791395875
  0
POLYLINE
  5
2E8
  8
0
  6
CONTINUOUS
 62
     7
 66
     1
 10
0.0
 20
0.0
 30
0.0
  0
VERTEX
  5
790
  8
0
  6
CONTINUOUS
 62
     7
 10
250.6528631752
 20
183.2352805776
 30
0.0
  0
VERTEX
  5
791
  8
0
  6
CONTINUOUS
 62
     7
 10
250.114593186
 20
181.9267611844
 30
0.0
  0
VERTEX
  5
792
  8
0
  6
CONTINUOUS
 62
     7
 10
249.5489609396
 20
180.5628728014
 30
0.0
  0
VERTEX
  5
793
  8
0
  6
CONTINUOUS
 62
     7
 10
248.9564730754
 20
179.1448410493
 30
0.0
  0
VERTEX
  5
794
  8
0
  6
CONTINUOUS
 62
     7
 10
248.3376641726
 20
177.6739399773
 30
0.0
  0
VERTEX
  5
795
  8
0
  6
CONTINUOUS
 62
     7
 10
247.6930902308
 20
176.1514957887
 30
0.0
  0
VERTEX
  5
796
  8
0
  6
CONTINUOUS
 62
     7
 10
247.0233296012
 20
174.5788756651
 30
0.0
  0
SEQEND
  5
7C3
  8
0
  6
CONTINUOUS
 62
     7
  0
LINE
  5
2E9
  8
0
  6
CONTINUOUS
 62
     7
 10
247.0233296012
 20
174.5788756651
 30
0.0
 11
255.8973100936
 21
174.5788756651
 31
0.0
  0
LINE
  5
2EA
  8
0
  6
CONTINUOUS
 62
     7
 10
230.1712897574
 20
174.5788756651
 30
0.0
 11
221.2973092651
 21
174.5788756651
 31
0.0
  0
POLYLINE
  5
2EB
  8
0
  6
CONTINUOUS
 62
     7
 66
     1
 10
0.0
 20
0.0
 30
0.0
  0
VERTEX
  5
797
  8
0
  6
CONTINUOUS
 62
     7
 10
226.5417561835
 20
183.2352805776
 30
0.0
  0
VERTEX
  5
798
  8
0
  6
CONTINUOUS
 62
     7
 10
227.0800261726
 20
181.9267611844
 30
0.0
  0
VERTEX
  5
799
  8
0
  6
CONTINUOUS
 62
     7
 10
227.6456584191
 20
180.5628728014
 30
0.0
  0
VERTEX
  5
79A
  8
0
  6
CONTINUOUS
 62
     7
 10
228.2381462833
 20
179.1448410493
 30
0.0
  0
VERTEX
  5
79B
  8
0
  6
CONTINUOUS
 62
     7
 10
228.8569551861
 20
177.6739399773
 30
0.0
  0
VERTEX
  5
79C
  8
0
  6
CONTINUOUS
 62
     7
 10
229.5015291279
 20
176.1514957887
 30
0.0
  0
VERTEX
  5
79D
  8
0
  6
CONTINUOUS
 62
     7
 10
230.1712897574
 20
174.5788756651
 30
0.0
  0
SEQEND
  5
7C2
  8
0
  6
CONTINUOUS
 62
     7
  0
LINE
  5
2EC
  8
0
  6
CONTINUOUS
 62
     7
 10
250.6528631752
 20
183.2352805776
 30
0.0
 11
226.5417561835
 21
183.2352805776
 31
0.0
  0
POLYLINE
  5
2ED
  8
0
  6
CONTINUOUS
 62
     7
 66
     1
 10
0.0
 20
0.0
 30
0.0
  0
VERTEX
  5
79E
  8
0
  6
CONTINUOUS
 62
     7
 10
226.5417561835
 20
57.4872571868
 30
0.0
  0
VERTEX
  5
79F
  8
0
  6
CONTINUOUS
 62
     7
 10
227.0800261726
 20
58.79577658
 30
0.0
  0
VERTEX
  5
7A0
  8
0
  6
CONTINUOUS
 62
     7
 10
227.6456584191
 20
60.1596649629
 30
0.0
  0
VERTEX
  5
7A1
  8
0
  6
CONTINUOUS
 62
     7
 10
228.2381462833
 20
61.577696715
 30
0.0
  0
VERTEX
  5
7A2
  8
0
  6
CONTINUOUS
 62
     7
 10
228.8569551861
 20
63.048597787
 30
0.0
  0
VERTEX
  5
7A3
  8
0
  6
CONTINUOUS
 62
     7
 10
229.5015291279
 20
64.5710419756
 30
0.0
  0
VERTEX
  5
7A4
  8
0
  6
CONTINUOUS
 62
     7
 10
230.1712897574
 20
66.1436620993
 30
0.0
  0
SEQEND
  5
7C1
  8
0
  6
CONTINUOUS
 62
     7
  0
LINE
  5
2EE
  8
0
  6
CONTINUOUS
 62
     7
 10
230.1712897574
 20
66.1436620993
 30
0.0
 11
221.2973092651
 21
66.1436620993
 31
0.0
  0
LINE
  5
2EF
  8
0
  6
CONTINUOUS
 62
     7
 10
247.0233296012
 20
66.1436620993
 30
0.0
 11
255.8973100936
 21
66.1436620993
 31
0.0
  0
POLYLINE
  5
2F0
  8
0
  6
CONTINUOUS
 62
     7
 66
     1
 10
0.0
 20
0.0
 30
0.0
  0
VERTEX
  5
7A5
  8
0
  6
CONTINUOUS
 62
     7
 10
250.6528631752
 20
57.4872571868
 30
0.0
  0
VERTEX
  5
7A6
  8
0
  6
CONTINUOUS
 62
     7
 10
250.114593186
 20
58.79577658
 30
0.0
  0
VERTEX
  5
7A7
  8
0
  6
CONTINUOUS
 62
     7
 10
249.5489609396
 20
60.1596649629
 30
0.0
  0
VERTEX
  5
7A8
  8
0
  6
CONTINUOUS
 62
     7
 10
248.9564730754
 20
61.577696715
 30
0.0
  0
VERTEX
  5
7A9
  8
0
  6
CONTINUOUS
 62
     7
 10
248.3376641726
 20
63.048597787
 30
0.0
  0
VERTEX
  5
7AA
  8
0
  6
CONTINUOUS
 62
     7
 10
247.6930902308
 20
64.5710419756
 30
0.0
  0
VERTEX
  5
7AB
  8
0
  6
CONTINUOUS
 62
     7
 10
247.0233296012
 20
66.1436620993
 30
0.0
  0
SEQEND
  5
7C0
  8
0
  6
CONTINUOUS
 62
     7
  0
LINE
  5
2F1
  8
0
  6
CONTINUOUS
 62
     7
 10
250.6528631752
 20
57.4872571868
 30
0.0
 11
226.5417561835
 21
57.4872571868
 31
0.0
  0
LINE
  5
2F2
  8
0
  6
CONTINUOUS
 62
     7
 10
207.003647924
 20
163.7145694238
 30
0.0
 11
207.3697340643
 21
164.1477461797
 31
0.0
  0
ARC
  5
2F3
  8
0
  6
CONTINUOUS
 62
     7
 10
409.5973096793
 20
120.3612688822
 30
0.0
 40
206.9136233767946
 50
167.1144464483
 51
167.7828604086
  0
ARC
  5
2F4
  8
0
  6
CONTINUOUS
 62
     7
 10
409.5973096793
 20
120.3612688822
 30
0.0
 40
206.9136233767946
 50
192.2171395914
 51
192.8855535517
  0
LINE
  5
2F5
  8
0
  6
CONTINUOUS
 62
     7
 10
207.003647924
 20
77.0079683405
 30
0.0
 11
207.3697340643
 21
76.5747915846
 31
0.0
  0
ARC
  5
2F6
  8
0
  6
CONTINUOUS
 62
     7
 10
409.3345290907
 20
120.3612688822
 30
0.0
 40
206.9234016285587
 50
167.9061409515
 51
192.0938590485
  0
LINE
  5
2F7
  8
0
  6
CONTINUOUS
 62
     7
 10
270.1909714347
 20
77.0079683405
 30
0.0
 11
269.8248852944
 21
76.5747915846
 31
0.0
  0
ARC
  5
2F8
  8
0
  6
CONTINUOUS
 62
     7
 10
67.5973096793
 20
120.3612688822
 30
0.0
 40
206.9136233767946
 50
347.1144464483
 51
347.7828604086
  0
ARC
  5
2F9
  8
0
  6
CONTINUOUS
 62
     7
 10
67.5973096793
 20
120.3612688822
 30
0.0
 40
206.9136233767946
 50
12.2171395914
 51
12.8855535517
  0
LINE
  5
2FA
  8
0
  6
CONTINUOUS
 62
     7
 10
270.1909714347
 20
163.7145694238
 30
0.0
 11
269.8248852944
 21
164.1477461797
 31
0.0
  0
ARC
  5
2FB
  8
0
  6
CONTINUOUS
 62
     7
 10
67.860090268
 20
120.3612688822
 30
0.0
 40
206.9234016285587
 50
347.9061409515
 51
12.0938590485
  0
LINE
  5
2FC
  8
0
  6
CONTINUOUS
 62
     7
 10
251.8153083479
 20
184.8553050202
 30
0.0
 11
247.0233296012
 21
174.5788756651
 31
0.0
  0
ARC
  5
2FD
  8
0
  6
CONTINUOUS
 62
     7
 10
263.5973096793
 20
179.3612688822
 30
0.0
 40
13.00000000000004
 50
330.0
 51
155.0
  0
LINE
  5
2FE
  8
0
  6
CONTINUOUS
 62
     7
 10
269.8248852944
 20
164.1477461797
 30
0.0
 11
274.8556383854
 21
172.861267243
 31
0.0
  0
ARC
  5
2FF
  8
0
  6
CONTINUOUS
 62
     7
 10
213.5973096793
 20
179.3612688822
 30
0.0
 40
13.00000000000002
 50
25.0
 51
210.0
  0
ARC
  5
300
  8
0
  6
CONTINUOUS
 62
     7
 10
213.5177572203
 20
179.375045938
 30
0.0
 40
13.51056901044358
 50
165.5189160109
 51
210.2192826038
  0
ARC
  5
301
  8
0
  6
CONTINUOUS
 62
     7
 10
213.6287400916
 20
179.3431781635
 30
0.0
 40
13.62599520408503
 50
113.5384906784
 51
165.5058685533
  0
ARC
  5
302
  8
0
  6
CONTINUOUS
 62
     7
 10
213.5818291432
 20
179.4351463913
 30
0.0
 40
13.52294633371432
 50
24.6885912146
 51
113.5118883232
  0
LINE
  5
303
  8
0
  6
CONTINUOUS
 62
     7
 10
207.3697340643
 20
164.1477461797
 30
0.0
 11
202.3389809733
 21
172.861267243
 31
0.0
  0
LINE
  5
304
  8
0
  6
CONTINUOUS
 62
     7
 10
225.3793110108
 20
184.8553050202
 30
0.0
 11
230.1712897574
 21
174.5788756651
 31
0.0
  0
ARC
  5
305
  8
0
  6
CONTINUOUS
 62
     7
 10
263.6127902155
 20
179.4351463913
 30
0.0
 40
13.52294633371432
 50
66.4881116768
 51
155.3114087854
  0
ARC
  5
306
  8
0
  6
CONTINUOUS
 62
     7
 10
263.565879267
 20
179.3431781635
 30
0.0
 40
13.62599520408503
 50
14.4941314467
 51
66.4615093216
  0
ARC
  5
307
  8
0
  6
CONTINUOUS
 62
     7
 10
263.6768621383
 20
179.375045938
 30
0.0
 40
13.5105690104436
 50
329.7807173962
 51
14.4810839891
  0
LINE
  5
308
  8
0
  6
CONTINUOUS
 62
     7
 10
250.4954398578
 20
183.2751486343
 30
0.0
 11
250.6528631752
 21
183.2352805776
 31
0.0
  0
LINE
  5
309
  8
0
  6
CONTINUOUS
 62
     7
 10
250.4954398578
 20
183.2751486343
 30
0.0
 11
251.3259579396
 21
185.0834939522
 31
0.0
  0
LINE
  5
30A
  8
0
  6
CONTINUOUS
 62
     7
 10
226.6991795009
 20
183.2751486343
 30
0.0
 11
225.8686614191
 21
185.0834939522
 31
0.0
  0
LINE
  5
30B
  8
0
  6
CONTINUOUS
 62
     7
 10
226.6991795009
 20
183.2751486343
 30
0.0
 11
226.5417561835
 21
183.2352805776
 31
0.0
  0
LINE
  5
30C
  8
0
  6
CONTINUOUS
 62
     7
 10
275.3514186447
 20
172.5750308377
 30
0.0
 11
270.1909714347
 21
163.7145694238
 31
0.0
  0
LINE
  5
30D
  8
0
  6
CONTINUOUS
 62
     7
 10
201.8432007139
 20
172.5750308377
 30
0.0
 11
207.003647924
 21
163.7145694238
 31
0.0
  0
LINE
  5
30E
  8
0
  6
CONTINUOUS
 62
     7
 10
269.8248852944
 20
76.5747915846
 30
0.0
 11
274.8556383854
 21
67.8612705213
 31
0.0
  0
ARC
  5
30F
  8
0
  6
CONTINUOUS
 62
     7
 10
263.5973096793
 20
61.3612688822
 30
0.0
 40
13.00000000000004
 50
205.0
 51
30.0
  0
LINE
  5
310
  8
0
  6
CONTINUOUS
 62
     7
 10
251.8153083479
 20
55.8672327441
 30
0.0
 11
247.0233296012
 21
66.1436620993
 31
0.0
  0
LINE
  5
311
  8
0
  6
CONTINUOUS
 62
     7
 10
225.3793110108
 20
55.8672327441
 30
0.0
 11
230.1712897574
 21
66.1436620993
 31
0.0
  0
ARC
  5
312
  8
0
  6
CONTINUOUS
 62
     7
 10
213.5973096793
 20
61.3612688822
 30
0.0
 40
13.00000000000001
 50
150.0
 51
335.0
  0
LINE
  5
313
  8
0
  6
CONTINUOUS
 62
     7
 10
207.3697340643
 20
76.5747915846
 30
0.0
 11
202.3389809733
 21
67.8612705213
 31
0.0
  0
LINE
  5
314
  8
0
  6
CONTINUOUS
 62
     7
 10
201.8432007139
 20
68.1475069267
 30
0.0
 11
207.003647924
 21
77.0079683405
 31
0.0
  0
LINE
  5
315
  8
0
  6
CONTINUOUS
 62
     7
 10
275.3514186447
 20
68.1475069267
 30
0.0
 11
270.1909714347
 21
77.0079683405
 31
0.0
  0
ARC
  5
316
  8
0
  6
CONTINUOUS
 62
     7
 10
213.5818291432
 20
61.2873913731
 30
0.0
 40
13.5229463337143
 50
246.4881116768
 51
335.3114087854
  0
ARC
  5
317
  8
0
  6
CONTINUOUS
 62
     7
 10
213.6287400916
 20
61.3793596008
 30
0.0
 40
13.62599520408503
 50
194.4941314467
 51
246.4615093216
  0
ARC
  5
318
  8
0
  6
CONTINUOUS
 62
     7
 10
213.5177572203
 20
61.3474918263
 30
0.0
 40
13.51056901044358
 50
149.7807173962
 51
194.4810839891
  0
ARC
  5
319
  8
0
  6
CONTINUOUS
 62
     7
 10
263.6768621383
 20
61.3474918263
 30
0.0
 40
13.5105690104436
 50
345.5189160109
 51
30.2192826038
  0
ARC
  5
31A
  8
0
  6
CONTINUOUS
 62
     7
 10
263.565879267
 20
61.3793596008
 30
0.0
 40
13.62599520408503
 50
293.5384906784
 51
345.5058685533
  0
ARC
  5
31B
  8
0
  6
CONTINUOUS
 62
     7
 10
263.6127902155
 20
61.2873913731
 30
0.0
 40
13.52294633371432
 50
204.6885912146
 51
293.5118883232
  0
LINE
  5
31C
  8
0
  6
CONTINUOUS
 62
     7
 10
226.6991795009
 20
57.44738913
 30
0.0
 11
226.5417561835
 21
57.4872571868
 31
0.0
  0
LINE
  5
31D
  8
0
  6
CONTINUOUS
 62
     7
 10
226.6991795009
 20
57.44738913
 30
0.0
 11
225.8686614191
 21
55.6390438122
 31
0.0
  0
LINE
  5
31E
  8
0
  6
CONTINUOUS
 62
     7
 10
250.4954398578
 20
57.44738913
 30
0.0
 11
251.3259579396
 21
55.6390438122
 31
0.0
  0
LINE
  5
31F
  8
0
  6
CONTINUOUS
 62
     7
 10
250.4954398578
 20
57.44738913
 30
0.0
 11
250.6528631752
 21
57.4872571868
 31
0.0
  0
POLYLINE
  5
320
  8
0
  6
CONTINUOUS
 62
     7
 66
     1
 10
0.0
 20
0.0
 30
0.0
  0
VERTEX
  5
7AC
  8
0
  6
CONTINUOUS
 62
     7
 10
250.4954398578
 20
183.2751486343
 30
0.0
  0
VERTEX
  5
7AD
  8
0
  6
CONTINUOUS
 62
     7
 10
244.5468031769
 20
183.274567489
 30
0.0
  0
VERTEX
  5
7AE
  8
0
  6
CONTINUOUS
 62
     7
 10
238.5975096793
 20
183.274373774
 30
0.0
  0
VERTEX
  5
7AF
  8
0
  6
CONTINUOUS
 62
     7
 10
232.6483442416
 20
183.274567489
 30
0.0
  0
VERTEX
  5
7B0
  8
0
  6
CONTINUOUS
 62
     7
 10
226.6991795009
 20
183.2751486343
 30
0.0
  0
SEQEND
  5
7BF
  8
0
  6
CONTINUOUS
 62
     7
  0
POLYLINE
  5
321
  8
0
  6
CONTINUOUS
 62
     7
 66
     1
 10
0.0
 20
0.0
 30
0.0
  0
VERTEX
  5
7B1
  8
0
  6
CONTINUOUS
 62
     7
 10
250.4954398578
 20
57.44738913
 30
0.0
  0
VERTEX
  5
7B2
  8
0
  6
CONTINUOUS
 62
     7
 10
244.5468031769
 20
57.4479702753
 30
0.0
  0
VERTEX
  5
7B3
  8
0
  6
CONTINUOUS
 62
     7
 10
238.5975096793
 20
57.4481639904
 30
0.0
  0
VERTEX
  5
7B4
  8
0
  6
CONTINUOUS
 62
     7
 10
232.6483442416
 20
57.4479702753
 30
0.0
  0
VERTEX
  5
7B5
  8
0
  6
CONTINUOUS
 62
     7
 10
226.6991795009
 20
57.44738913
 30
0.0
  0
SEQEND
  5
7BE
  8
0
  6
CONTINUOUS
 62
     7
  0
ARC
  5
322
  8
0
  6
CONTINUOUS
 62
     7
 10
-77.9026903207
 20
120.3612688822
 30
0.0
 40
362.9999999999998
 50
350.0225710819
 51
9.9774289181
  0
ARC
  5
323
  8
0
  6
CONTINUOUS
 62
     7
 10
555.0973096793
 20
120.3612688822
 30
0.0
 40
362.9999999999999
 50
170.0225710819
 51
189.9774289181
  0
ARC
  5
324
  8
0
  6
CONTINUOUS
 62
     7
 10
238.5973096793
 20
42.342196226
 30
0.0
 40
154.5
 50
78.501625364
 51
101.498374636
  0
ARC
  5
325
  8
0
  6
CONTINUOUS
 62
     7
 10
238.5973096793
 20
198.3803415384
 30
0.0
 40
154.5
 50
258.501625364
 51
281.498374636
  0
ARC
  5
326
  8
0
  6
CONTINUOUS
 62
     7
 10
210.3906804525
 20
181.00234215
 30
0.0
 40
13.00000000000006
 50
101.498374636
 51
170.0225710819
  0
ARC
  5
327
  8
0
  6
CONTINUOUS
 62
     7
 10
266.8039389062
 20
181.00234215
 30
0.0
 40
13.00000000000006
 50
9.9774289181
 51
78.501625364
  0
ARC
  5
328
  8
0
  6
CONTINUOUS
 62
     7
 10
266.8039389062
 20
59.7201956144
 30
0.0
 40
13.00000000000006
 50
281.498374636
 51
350.0225710819
  0
ARC
  5
329
  8
0
  6
CONTINUOUS
 62
     7
 10
210.3906804525
 20
59.7201956144
 30
0.0
 40
13.00000000000005
 50
189.9774289181
 51
258.501625364
  0
ARC
  5
32A
  8
0
  6
CONTINUOUS
 62
     7
 10
210.3906804525
 20
181.00234215
 30
0.0
 40
13.36685445498133
 50
101.498374636
 51
170.0225710819
  0
ARC
  5
32B
  8
0
  6
CONTINUOUS
 62
     7
 10
238.5973096793
 20
42.342196226
 30
0.0
 40
154.8668544549813
 50
78.501625364
 51
101.498374636
  0
ARC
  5
32C
  8
0
  6
CONTINUOUS
 62
     7
 10
266.8039389062
 20
181.00234215
 30
0.0
 40
13.36685445498133
 50
9.9774289181
 51
78.501625364
  0
ARC
  5
32D
  8
0
  6
CONTINUOUS
 62
     7
 10
555.0973096793
 20
120.3612688822
 30
0.0
 40
363.3668544549814
 50
170.0225710819
 51
189.9774289181
  0
ARC
  5
32E
  8
0
  6
CONTINUOUS
 62
     7
 10
-77.9026903207
 20
120.3612688822
 30
0.0
 40
363.3668544549813
 50
350.0225710819
 51
9.9774289181
  0
ARC
  5
32F
  8
0
  6
CONTINUOUS
 62
     7
 10
266.8039389062
 20
59.7201956144
 30
0.0
 40
13.36685445498131
 50
281.498374636
 51
350.0225710819
  0
ARC
  5
330
  8
0
  6
CONTINUOUS
 62
     7
 10
210.3906804525
 20
59.7201956144
 30
0.0
 40
13.36685445498131
 50
189.9774289181
 51
258.501625364
  0
ARC
  5
331
  8
0
  6
CONTINUOUS
 62
     7
 10
238.5973096793
 20
198.3803415384
 30
0.0
 40
154.8668544549813
 50
258.501625364
 51
281.498374636
  0
LINE
  5
332
  8
0
  6
CONTINUOUS
 62
     7
 10
307.5973079508
 20
30.8612663192
 30
0.0
 11
307.5973079508
 21
209.8612714452
 31
0.0
  0
ARC
  5
333
  8
0
  6
CONTINUOUS
 62
     7
 10
310.5848928368
 20
209.8588681819
 30
0.0
 40
2.990454574967944
 50
89.7621575207
 51
149.8412122935
  0
ARC
  5
334
  8
0
  6
CONTINUOUS
 62
     7
 10
310.5848928368
 20
30.8636695825
 30
0.0
 40
2.990454574967951
 50
210.1587877065
 51
270.2378424793
  0
ARC
  5
335
  8
0
  6
CONTINUOUS
 62
     7
 10
166.6097265219
 20
30.8636695825
 30
0.0
 40
2.990454574967951
 50
269.7621575207
 51
329.8412122935
  0
ARC
  5
336
  8
0
  6
CONTINUOUS
 62
     7
 10
166.6097265219
 20
209.8588681819
 30
0.0
 40
2.990454574967947
 50
30.1587877065
 51
90.2378424793
  0
LINE
  5
337
  8
0
  6
CONTINUOUS
 62
     7
 10
169.5973114079
 20
30.8612663192
 30
0.0
 11
169.5973114079
 21
209.8612714452
 31
0.0
  0
LINE
  5
338
  8
0
  6
CONTINUOUS
 62
     7
 10
320.5973119443
 20
209.8612714452
 30
0.0
 11
320.5973119443
 21
30.8612663192
 31
0.0
  0
ARC
  5
339
  8
0
  6
CONTINUOUS
 62
     7
 10
317.6074939897
 20
30.8675684742
 30
0.0
 40
2.994345008160884
 50
269.8051958602
 51
329.798173954
  0
ARC
  5
33A
  8
0
  6
CONTINUOUS
 62
     7
 10
317.6074939897
 20
209.8549692901
 30
0.0
 40
2.994345008160899
 50
30.201826046
 51
90.1948041398
  0
LINE
  5
33B
  8
0
  6
CONTINUOUS
 62
     7
 10
156.5973074144
 20
209.8612714452
 30
0.0
 11
156.5973074144
 21
30.8612663192
 31
0.0
  0
ARC
  5
33C
  8
0
  6
CONTINUOUS
 62
     7
 10
159.587125369
 20
209.8549692901
 30
0.0
 40
2.9943450081609
 50
89.8051958602
 51
149.798173954
  0
ARC
  5
33D
  8
0
  6
CONTINUOUS
 62
     7
 10
159.587125369
 20
30.8675684742
 30
0.0
 40
2.994345008160892
 50
210.201826046
 51
270.1948041398
  0
LINE
  5
33E
  8
0
  6
CONTINUOUS
 62
     7
 10
317.5973133152
 20
212.8492969912
 30
0.0
 11
310.5973065799
 21
212.8492969912
 31
0.0
  0
LINE
  5
33F
  8
0
  6
CONTINUOUS
 62
     7
 10
317.5973133152
 20
27.8732407731
 30
0.0
 11
310.5973065799
 21
27.8732407731
 31
0.0
  0
LINE
  5
340
  8
0
  6
CONTINUOUS
 62
     7
 10
159.5973060435
 20
212.8492969912
 30
0.0
 11
166.5973127788
 21
212.8492969912
 31
0.0
  0
LINE
  5
341
  8
0
  6
CONTINUOUS
 62
     7
 10
159.5973060435
 20
27.8732407731
 30
0.0
 11
166.5973127788
 21
27.8732407731
 31
0.0
  0
LINE
  5
342
  8
0
  6
CONTINUOUS
 62
     7
 10
323.5973105734
 20
175.3612685842
 30
0.0
 11
323.5973105734
 21
65.3612691802
 31
0.0
  0
LINE
  5
343
  8
0
  6
CONTINUOUS
 62
     7
 10
153.5973087853
 20
175.3612685842
 30
0.0
 11
153.5973087853
 21
65.3612691802
 31
0.0
  0
POLYLINE
  5
344
  8
0
  6
CONTINUOUS
 62
     7
 66
     1
 10
0.0
 20
0.0
 30
0.0
  0
VERTEX
  5
7B6
  8
0
  6
CONTINUOUS
 62
     7
 10
307.5456456249
 20
117.3612688561
 30
0.0
  0
VERTEX
  5
7B7
  8
0
  6
CONTINUOUS
 62
     7
 10
307.5318471497
 20
120.3614688822
 30
0.0
  0
VERTEX
  5
7B8
  8
0
  6
CONTINUOUS
 62
     7
 10
307.5456456249
 20
123.3612689083
 30
0.0
  0
SEQEND
  5
7BD
  8
0
  6
CONTINUOUS
 62
     7
  0
POLYLINE
  5
345
  8
0
  6
CONTINUOUS
 62
     7
 66
     1
 10
0.0
 20
0.0
 30
0.0
  0
VERTEX
  5
7B9
  8
0
  6
CONTINUOUS
 62
     7
 10
169.6489737337
 20
117.3612688561
 30
0.0
  0
VERTEX
  5
7BA
  8
0
  6
CONTINUOUS
 62
     7
 10
169.662772209
 20
120.3614688822
 30
0.0
  0
VERTEX
  5
7BB
  8
0
  6
CONTINUOUS
 62
     7
 10
169.6489737337
 20
123.3612689083
 30
0.0
  0
SEQEND
  5
7BC
  8
0
  6
CONTINUOUS
 62
     7
  0
LINE
  5
346
  8
0
  6
CONTINUOUS
 62
     7
 10
285.4517796045
 20
117.3612688561
 30
0.0
 11
307.5456456249
 21
117.3612688561
 31
0.0
  0
LINE
  5
347
  8
0
  6
CONTINUOUS
 62
     7
 10
285.4517796045
 20
123.3612689083
 30
0.0
 11
307.5456456249
 21
123.3612689083
 31
0.0
  0
LINE
  5
348
  8
0
  6
CONTINUOUS
 62
     7
 10
191.7428397542
 20
117.3612688561
 30
0.0
 11
169.6489737337
 21
117.3612688561
 31
0.0
  0
LINE
  5
349
  8
0
  6
CONTINUOUS
 62
     7
 10
191.7428397542
 20
123.3612689083
 30
0.0
 11
169.6489737337
 21
123.3612689083
 31
0.0
  0
CIRCLE
  5
34A
  8
0
  6
CONTINUOUS
 62
     7
 10
238.5973096793
 20
120.3612688822
 30
0.0
 40
12.33390351874407
  0
CIRCLE
  5
34B
  8
0
  6
CONTINUOUS
 62
     7
 10
238.5973096793
 20
120.3612688822
 30
0.0
 40
12.62368126663076
  0
ARC
  5
34C
  8
0
  6
CONTINUOUS
 62
     7
 10
238.5973096793
 20
120.3612688822
 30
0.0
 40
23.13009792824436
 50
342.4840932727
 51
77.5159067273
  0
ARC
  5
34D
  8
0
  6
CONTINUOUS
 62
     7
 10
238.5973096793
 20
120.3612688822
 30
0.0
 40
21.13496982772469
 50
343.6844665235
 51
76.3155334765
  0
ARC
  5
34E
  8
0
  6
CONTINUOUS
 62
     7
 10
238.5973096793
 20
120.3612688822
 30
0.0
 40
23.13009792824432
 50
102.4840932727
 51
197.5159067273
  0
ARC
  5
34F
  8
0
  6
CONTINUOUS
 62
     7
 10
238.5973096793
 20
120.3612688822
 30
0.0
 40
21.13496982772467
 50
103.6844665235
 51
196.3155334765
  0
ARC
  5
350
  8
0
  6
CONTINUOUS
 62
     7
 10
238.5973096793
 20
120.3612688822
 30
0.0
 40
23.13009792824434
 50
222.4840932727
 51
317.5159067273
  0
ARC
  5
351
  8
0
  6
CONTINUOUS
 62
     7
 10
238.5973096793
 20
120.3612688822
 30
0.0
 40
21.13496982772467
 50
223.6844665235
 51
316.3155334765
  0
LINE
  5
352
  8
0
  6
CONTINUOUS
 62
     7
 10
233.5973097911
 20
143.8617262882
 30
0.0
 11
243.5973095676
 21
143.8617262882
 31
0.0
  0
LINE
  5
353
  8
0
  6
CONTINUOUS
 62
     7
 10
233.5973097911
 20
146.8612685693
 30
0.0
 11
243.5973095676
 21
146.8612685693
 31
0.0
  0
LINE
  5
354
  8
0
  6
CONTINUOUS
 62
     7
 10
261.4493020778
 20
112.9411672135
 30
0.0
 11
256.4493031209
 21
104.2809136105
 31
0.0
  0
LINE
  5
355
  8
0
  6
CONTINUOUS
 62
     7
 10
220.7453162378
 20
104.2809136105
 30
0.0
 11
215.7453172808
 21
112.9411672135
 31
0.0
  0
LINE
  5
356
  8
0
  6
CONTINUOUS
 62
     7
 10
264.0469823932
 20
111.4413956073
 30
0.0
 11
259.0469834363
 21
102.7811415386
 31
0.0
  0
LINE
  5
357
  8
0
  6
CONTINUOUS
 62
     7
 10
218.1476359224
 20
102.7811415386
 30
0.0
 11
213.1476369655
 21
111.4413956073
 31
0.0
  0
LINE
  5
358
  8
0
  6
CONTINUOUS
 62
     7
 10
255.8973100936
 20
66.1436620993
 30
0.0
 11
255.8973100936
 21
96.104275797
 31
0.0
  0
LINE
  5
359
  8
0
  6
CONTINUOUS
 62
     7
 10
255.8973100936
 20
174.5788756651
 30
0.0
 11
255.8973100936
 21
144.6182619673
 31
0.0
  0
LINE
  5
35A
  8
0
  6
CONTINUOUS
 62
     7
 10
221.2973092651
 20
174.5788756651
 30
0.0
 11
221.2973092651
 21
144.6182619673
 31
0.0
  0
LINE
  5
35B
  8
0
  6
CONTINUOUS
 62
     7
 10
221.2973092651
 20
66.1436620993
 30
0.0
 11
221.2973092651
 21
96.104275797
 31
0.0
  0
LINE
  5
35C
  8
0
  6
CONTINUOUS
 62
     7
 10
201.8432007139
 20
172.5750308377
 30
0.0
 11
202.3389809733
 21
172.861267243
 31
0.0
  0
LINE
  5
35D
  8
0
  6
CONTINUOUS
 62
     7
 10
225.8686614191
 20
185.0834939522
 30
0.0
 11
225.3793110108
 21
184.8553050202
 31
0.0
  0
LINE
  5
35E
  8
0
  6
CONTINUOUS
 62
     7
 10
275.3514186447
 20
172.5750308377
 30
0.0
 11
274.8556383854
 21
172.861267243
 31
0.0
  0
LINE
  5
35F
  8
0
  6
CONTINUOUS
 62
     7
 10
251.3259579396
 20
185.0834939522
 30
0.0
 11
251.8153083479
 21
184.8553050202
 31
0.0
  0
LINE
  5
360
  8
0
  6
CONTINUOUS
 62
     7
 10
201.8432007139
 20
68.1475069267
 30
0.0
 11
202.3389809733
 21
67.8612705213
 31
0.0
  0
LINE
  5
361
  8
0
  6
CONTINUOUS
 62
     7
 10
275.3514186447
 20
68.1475069267
 30
0.0
 11
274.8556383854
 21
67.8612705213
 31
0.0
  0
LINE
  5
362
  8
0
  6
CONTINUOUS
 62
     7
 10
225.8686614191
 20
55.6390438122
 30
0.0
 11
225.3793110108
 21
55.8672327441
 31
0.0
  0
LINE
  5
363
  8
0
  6
CONTINUOUS
 62
     7
 10
251.3259579396
 20
55.6390438122
 30
0.0
 11
251.8153083479
 21
55.8672327441
 31
0.0
  0
LINE
  5
364
  8
0
  6
CONTINUOUS
 62
     7
 10
276.7582037454
 20
182.7535036844
 30
0.0
 11
279.6073281174
 21
183.2547265929
 31
0.0
  0
LINE
  5
365
  8
0
  6
CONTINUOUS
 62
     7
 10
276.7582037454
 20
57.9690340799
 30
0.0
 11
279.6073281174
 21
57.4678111714
 31
0.0
  0
LINE
  5
366
  8
0
  6
CONTINUOUS
 62
     7
 10
200.4364156132
 20
182.7535036844
 30
0.0
 11
197.5872912412
 21
183.2547265929
 31
0.0
  0
LINE
  5
367
  8
0
  6
CONTINUOUS
 62
     7
 10
200.4364156132
 20
57.9690340799
 30
0.0
 11
197.5872912412
 21
57.4678111714
 31
0.0
  0
LINE
  5
368
  8
0
  6
CONTINUOUS
 62
     7
 10
208.1869938379
 20
191.8353814525
 30
0.0
 11
207.7992581731
 21
193.7414336842
 31
0.0
  0
LINE
  5
369
  8
0
  6
CONTINUOUS
 62
     7
 10
269.0076255208
 20
191.8353814525
 30
0.0
 11
269.3953611856
 21
193.7414336842
 31
0.0
  0
LINE
  5
36A
  8
0
  6
CONTINUOUS
 62
     7
 10
269.0076255208
 20
48.8871563119
 30
0.0
 11
269.3953611856
 21
46.9811040801
 31
0.0
  0
LINE
  5
36B
  8
0
  6
CONTINUOUS
 62
     7
 10
208.1869938379
 20
48.8871563119
 30
0.0
 11
207.7992581731
 21
46.9811040801
 31
0.0
  0
LINE
  5
36C
  8
0
  6
CONTINUOUS
 62
     7
 10
197.2259865111
 20
183.318287496
 30
0.0
 11
197.5872912412
 21
183.2547265929
 31
0.0
  0
LINE
  5
36D
  8
0
  6
CONTINUOUS
 62
     7
 10
207.7261307245
 20
194.1009316486
 30
0.0
 11
207.7992581731
 21
193.7414336842
 31
0.0
  0
LINE
  5
36E
  8
0
  6
CONTINUOUS
 62
     7
 10
269.4684886342
 20
194.1009316486
 30
0.0
 11
269.3953611856
 21
193.7414336842
 31
0.0
  0
LINE
  5
36F
  8
0
  6
CONTINUOUS
 62
     7
 10
279.9686328476
 20
183.318287496
 30
0.0
 11
279.6073281174
 21
183.2547265929
 31
0.0
  0
LINE
  5
370
  8
0
  6
CONTINUOUS
 62
     7
 10
197.2259865111
 20
57.4042502684
 30
0.0
 11
197.5872912412
 21
57.4678111714
 31
0.0
  0
LINE
  5
371
  8
0
  6
CONTINUOUS
 62
     7
 10
279.9686328476
 20
57.4042502684
 30
0.0
 11
279.6073281174
 21
57.4678111714
 31
0.0
  0
LINE
  5
372
  8
0
  6
CONTINUOUS
 62
     7
 10
269.4684886342
 20
46.6216061157
 30
0.0
 11
269.3953611856
 21
46.9811040801
 31
0.0
  0
LINE
  5
373
  8
0
  6
CONTINUOUS
 62
     7
 10
207.7261307245
 20
46.6216061157
 30
0.0
 11
207.7992581731
 21
46.9811040801
 31
0.0
  0
LINE
  5
374
  8
0
  6
CONTINUOUS
 62
     7
 10
310.5973065799
 20
212.8492969912
 30
0.0
 11
310.5973065799
 21
27.8732407731
 31
0.0
  0
LINE
  5
375
  8
0
  6
CONTINUOUS
 62
     7
 10
166.5973127788
 20
212.8492969912
 30
0.0
 11
166.5973127788
 21
27.8732407731
 31
0.0
  0
LINE
  5
376
  8
0
  6
CONTINUOUS
 62
     7
 10
317.5973133152
 20
27.8732407731
 30
0.0
 11
317.5973133152
 21
212.8492969912
 31
0.0
  0
LINE
  5
377
  8
0
  6
CONTINUOUS
 62
     7
 10
159.5973060435
 20
27.8732407731
 30
0.0
 11
159.5973060435
 21
212.8492969912
 31
0.0
  0
LINE
  5
378
  8
0
  6
CONTINUOUS
 62
     7
 10
302.7421669071
 20
117.3612688561
 30
0.0
 11
302.7421669071
 21
78.3050138396
 31
0.0
  0
LINE
  5
379
  8
0
  6
CONTINUOUS
 62
     7
 10
302.7421669071
 20
123.3612689083
 30
0.0
 11
302.7421669071
 21
162.4175239247
 31
0.0
  0
LINE
  5
37A
  8
0
  6
CONTINUOUS
 62
     7
 10
174.4524524515
 20
123.3612689083
 30
0.0
 11
174.4524524515
 21
162.4175239247
 31
0.0
  0
LINE
  5
37B
  8
0
  6
CONTINUOUS
 62
     7
 10
174.4524524515
 20
117.3612688561
 30
0.0
 11
174.4524524515
 21
78.3050138396
 31
0.0
  0
LINE
  5
37C
  8
FORMAT
  6
CENTERX2
 10
149.3396373354
 20
120.3612688822
 30
0.0
 11
327.1005480974
 21
120.3612688822
 31
0.0
  0
LINE
  5
37D
  8
FORMAT
  6
CENTERX2
 10
238.5973096793
 20
201.3168941869
 30
0.0
 11
238.5973096793
 21
38.11208778
 31
0.0
  0
ENDSEC
  0
EOF
