  0
SECTION
  2
HEADER
  9
$ACADVER
  1
AC1015
  9
$ACADMAINTVER
 70
     6
  9
$DWGCODEPAGE
  3
ANSI_1252
  9
$INSBASE
 10
0.0
 20
0.0
 30
0.0
  9
$EXTMIN
 10
0.0
 20
0.0
 30
0.0
  9
$EXTMAX
 10
841.0
 20
594.0
 30
0.0
  9
$LIMMIN
 10
0.0
 20
0.0
  9
$LIMMAX
 10
841.0
 20
594.0
  9
$ORTHOMODE
 70
     0
  9
$REGENMODE
 70
     1
  9
$FILLMODE
 70
     1
  9
$QTEXTMODE
 70
     0
  9
$MIRRTEXT
 70
     1
  9
$LTSCALE
 40
1.0
  9
$ATTMODE
 70
     1
  9
$TEXTSIZE
 40
2.5
  9
$TRACEWID
 40
1.0
  9
$TEXTSTYLE
  7
Standard
  9
$CLAYER
  8
0
  9
$CELTYPE
  6
ByLayer
  9
$CECOLOR
 62
   256
  9
$CELTSCALE
 40
1.0
  9
$DISPSILH
 70
     0
  9
$DIMSCALE
 40
1.0
  9
$DIMASZ
 40
2.5
  9
$DIMEXO
 40
1.0
  9
$DIMDLI
 40
3.75
  9
$DIMRND
 40
0.0
  9
$DIMDLE
 40
0.0
  9
$DIMEXE
 40
1.0
  9
$DIMTP
 40
0.0
  9
$DIMTM
 40
0.0
  9
$DIMTXT
 40
2.5
  9
$DIMCEN
 40
2.5
  9
$DIMTSZ
 40
0.0
  9
$DIMTOL
 70
     0
  9
$DIMLIM
 70
     0
  9
$DIMTIH
 70
     1
  9
$DIMTOH
 70
     1
  9
$DIMSE1
 70
     0
  9
$DIMSE2
 70
     0
  9
$DIMTAD
 70
     1
  9
$DIMZIN
 70
     0
  9
$DIMBLK
  1

  9
$DIMASO
 70
     1
  9
$DIMSHO
 70
     1
  9
$DIMPOST
  1

  9
$DIMAPOST
  1

  9
$DIMALT
 70
     0
  9
$DIMALTD
 70
     3
  9
$DIMALTF
 40
0.0393700787
  9
$DIMLFAC
 40
1.0
  9
$DIMTOFL
 70
     1
  9
$DIMTVP
 40
0.0
  9
$DIMTIX
 70
     0
  9
$DIMSOXD
 70
     0
  9
$DIMSAH
 70
     0
  9
$DIMBLK1
  1

  9
$DIMBLK2
  1

  9
$DIMSTYLE
  2
ISO-25
  9
$DIMCLRD
 70
     0
  9
$DIMCLRE
 70
     0
  9
$DIMCLRT
 70
     0
  9
$DIMTFAC
 40
1.0
  9
$DIMGAP
 40
1.524
  9
$DIMJUST
 70
     0
  9
$DIMSD1
 70
     0
  9
$DIMSD2
 70
     0
  9
$DIMTOLJ
 70
     0
  9
$DIMTZIN
 70
     0
  9
$DIMALTZ
 70
     0
  9
$DIMALTTZ
 70
     0
  9
$DIMUPT
 70
     0
  9
$DIMDEC
 70
     2
  9
$DIMTDEC
 70
     2
  9
$DIMALTU
 70
     2
  9
$DIMALTTD
 70
     3
  9
$DIMTXSTY
  7
Standard
  9
$DIMAUNIT
 70
     0
  9
$DIMADEC
 70
     2
  9
$DIMALTRND
 40
0.0
  9
$DIMAZIN
 70
     0
  9
$DIMDSEP
 70
    44
  9
$DIMATFIT
 70
     3
  9
$DIMFRAC
 70
     0
  9
$DIMLDRBLK
  1

  9
$DIMLUNIT
 70
     2
  9
$DIMLWD
 70
    -2
  9
$DIMLWE
 70
    -2
  9
$DIMTMOVE
 70
     0
  9
$LUNITS
 70
     2
  9
$LUPREC
 70
     2
  9
$SKETCHINC
 40
1.0
  9
$FILLETRAD
 40
10.0
  9
$AUNITS
 70
     0
  9
$AUPREC
 70
     2
  9
$MENU
  1
.
  9
$ELEVATION
 40
0.0
  9
$PELEVATION
 40
0.0
  9
$THICKNESS
 40
0.0
  9
$LIMCHECK
 70
     0
  9
$CHAMFERA
 40
10.0
  9
$CHAMFERB
 40
10.0
  9
$CHAMFERC
 40
20.0
  9
$CHAMFERD
 40
0.0
  9
$SKPOLY
 70
     0
  9
$TDCREATE
 40
2457457.427093299
  9
$TDUCREATE
 40
2457457.385426632
  9
$TDUPDATE
 40
2457457.427095278
  9
$TDUUPDATE
 40
2457457.385428611
  9
$TDINDWG
 40
0.0000000116
  9
$TDUSRTIMER
 40
0.0000000116
  9
$USRTIMER
 70
     1
  9
$ANGBASE
 50
0.0
  9
$ANGDIR
 70
     0
  9
$PDMODE
 70
     0
  9
$PDSIZE
 40
-1.0
  9
$PLINEWID
 40
0.0
  9
$SPLFRAME
 70
     0
  9
$SPLINETYPE
 70
     6
  9
$SPLINESEGS
 70
     8
  9
$HANDSEED
  5
389
  9
$SURFTAB1
 70
     6
  9
$SURFTAB2
 70
     6
  9
$SURFTYPE
 70
     6
  9
$SURFU
 70
     6
  9
$SURFV
 70
     6
  9
$UCSBASE
  2

  9
$UCSNAME
  2

  9
$UCSORG
 10
0.0
 20
0.0
 30
0.0
  9
$UCSXDIR
 10
1.0
 20
0.0
 30
0.0
  9
$UCSYDIR
 10
0.0
 20
1.0
 30
0.0
  9
$UCSORTHOREF
  2

  9
$UCSORTHOVIEW
 70
     0
  9
$UCSORGTOP
 10
0.0
 20
0.0
 30
0.0
  9
$UCSORGBOTTOM
 10
0.0
 20
0.0
 30
0.0
  9
$UCSORGLEFT
 10
0.0
 20
0.0
 30
0.0
  9
$UCSORGRIGHT
 10
0.0
 20
0.0
 30
0.0
  9
$UCSORGFRONT
 10
0.0
 20
0.0
 30
0.0
  9
$UCSORGBACK
 10
0.0
 20
0.0
 30
0.0
  9
$PUCSBASE
  2

  9
$PUCSNAME
  2

  9
$PUCSORG
 10
0.0
 20
0.0
 30
0.0
  9
$PUCSXDIR
 10
1.0
 20
0.0
 30
0.0
  9
$PUCSYDIR
 10
0.0
 20
1.0
 30
0.0
  9
$PUCSORTHOREF
  2

  9
$PUCSORTHOVIEW
 70
     0
  9
$PUCSORGTOP
 10
0.0
 20
0.0
 30
0.0
  9
$PUCSORGBOTTOM
 10
0.0
 20
0.0
 30
0.0
  9
$PUCSORGLEFT
 10
0.0
 20
0.0
 30
0.0
  9
$PUCSORGRIGHT
 10
0.0
 20
0.0
 30
0.0
  9
$PUCSORGFRONT
 10
0.0
 20
0.0
 30
0.0
  9
$PUCSORGBACK
 10
0.0
 20
0.0
 30
0.0
  9
$USERI1
 70
     0
  9
$USERI2
 70
     0
  9
$USERI3
 70
     0
  9
$USERI4
 70
     0
  9
$USERI5
 70
     0
  9
$USERR1
 40
0.0
  9
$USERR2
 40
0.0
  9
$USERR3
 40
0.0
  9
$USERR4
 40
0.0
  9
$USERR5
 40
0.0
  9
$WORLDVIEW
 70
     1
  9
$SHADEDGE
 70
     3
  9
$SHADEDIF
 70
    70
  9
$TILEMODE
 70
     1
  9
$MAXACTVP
 70
    64
  9
$PINSBASE
 10
0.0
 20
0.0
 30
0.0
  9
$PLIMCHECK
 70
     0
  9
$PEXTMIN
 10
1.0000000000E+20
 20
1.0000000000E+20
 30
1.0000000000E+20
  9
$PEXTMAX
 10
-1.0000000000E+20
 20
-1.0000000000E+20
 30
-1.0000000000E+20
  9
$PLIMMIN
 10
0.0
 20
0.0
  9
$PLIMMAX
 10
420.0
 20
297.0
  9
$UNITMODE
 70
     0
  9
$VISRETAIN
 70
     1
  9
$PLINEGEN
 70
     0
  9
$PSLTSCALE
 70
     1
  9
$TREEDEPTH
 70
  3020
  9
$CMLSTYLE
  2
Standard
  9
$CMLJUST
 70
     0
  9
$CMLSCALE
 40
20.0
  9
$PROXYGRAPHICS
 70
     1
  9
$MEASUREMENT
 70
     1
  9
$CELWEIGHT
370
    -1
  9
$ENDCAPS
280
     0
  9
$JOINSTYLE
280
     0
  9
$LWDISPLAY
290
     1
  9
$INSUNITS
 70
     4
  9
$HYPERLINKBASE
  1

  9
$STYLESHEET
  1

  9
$XEDIT
290
     1
  9
$CEPSNTYPE
380
     0
  9
$PSTYLEMODE
290
     1
  9
$FINGERPRINTGUID
  2
{33A0CD44-169C-4A58-BA32-786BFB25E0E3}
  9
$VERSIONGUID
  2
{FAEB1C32-E019-11D5-929B-00C0DF256EC4}
  9
$EXTNAMES
290
     1
  9
$PSVPSCALE
 40
0.0
  9
$OLESTARTUP
290
     0
  0
ENDSEC
  0
SECTION
  2
CLASSES
  0
CLASS
  1
ACDBDICTIONARYWDFLT
  2
AcDbDictionaryWithDefault
  3
ObjectDBX Classes
 90
        0
280
     0
281
     0
  0
CLASS
  1
VISUALSTYLE
  2
AcDbVisualStyle
  3
ObjectDBX Classes
 90
     4095
280
     0
281
     0
  0
CLASS
  1
MATERIAL
  2
AcDbMaterial
  3
ObjectDBX Classes
 90
     1153
280
     0
281
     0
  0
CLASS
  1
ACDBPLACEHOLDER
  2
AcDbPlaceHolder
  3
ObjectDBX Classes
 90
        0
280
     0
281
     0
  0
CLASS
  1
LAYOUT
  2
AcDbLayout
  3
ObjectDBX Classes
 90
        0
280
     0
281
     0
  0
ENDSEC
  0
SECTION
  2
TABLES
  0
TABLE
  2
VPORT
  5
8
330
0
100
AcDbSymbolTable
 70
     1
  0
VPORT
  5
29
330
8
100
AcDbSymbolTableRecord
100
AcDbViewportTableRecord
  2
*Active
 70
     0
 10
0.0
 20
0.0
 11
1.0
 21
1.0
 12
420.5
 22
297.0
 13
0.0
 23
0.0
 14
10.0
 24
10.0
 15
10.0
 25
10.0
 16
0.0
 26
0.0
 36
1.0
 17
0.0
 27
0.0
 37
0.0
 40
594.0
 41
1.4158249158
 42
50.0
 43
0.0
 44
0.0
 50
0.0
 51
0.0
 71
     0
 72
  2000
 73
     1
 74
     3
 75
     0
 76
     0
 77
     0
 78
     0
281
     0
 65
     1
110
0.0
120
0.0
130
0.0
111
1.0
121
0.0
131
0.0
112
0.0
122
1.0
132
0.0
 79
     0
146
0.0
  0
ENDTAB
  0
TABLE
  2
LTYPE
  5
5
330
0
100
AcDbSymbolTable
 70
     6
  0
LTYPE
  5
14
330
5
100
AcDbSymbolTableRecord
100
AcDbLinetypeTableRecord
  2
ByBlock
 70
     0
  3

 72
    65
 73
     0
 40
0.0
  0
LTYPE
  5
15
330
5
100
AcDbSymbolTableRecord
100
AcDbLinetypeTableRecord
  2
ByLayer
 70
     0
  3

 72
    65
 73
     0
 40
0.0
  0
LTYPE
  5
16
330
5
100
AcDbSymbolTableRecord
100
AcDbLinetypeTableRecord
  2
Continuous
 70
     0
  3
Solid line
 72
    65
 73
     0
 40
0.0
  0
LTYPE
  5
3F
330
5
100
AcDbSymbolTableRecord
100
AcDbLinetypeTableRecord
  2
HIDDEN
 70
     0
  3
Hidden __ __ __ __ __ __ __ __ __ __ __ __ __ __
 72
    65
 73
     2
 40
1.905
 49
1.27
 74
     0
 49
-0.635
 74
     0
  0
LTYPE
  5
40
330
5
100
AcDbSymbolTableRecord
100
AcDbLinetypeTableRecord
  2
PHANTOM
 70
     0
  3
Phantom ______  __  __  ______  __  __  ______
 72
    65
 73
     6
 40
12.7
 49
6.35
 74
     0
 49
-1.27
 74
     0
 49
1.27
 74
     0
 49
-1.27
 74
     0
 49
1.27
 74
     0
 49
-1.27
 74
     0
  0
LTYPE
  5
41
330
5
100
AcDbSymbolTableRecord
100
AcDbLinetypeTableRecord
  2
CENTER
 70
     0
  3
Center ____ _ ____ _ ____ _ ____ _ ____ _ ____
 72
    65
 73
     4
 40
10.16
 49
6.35
 74
     0
 49
-1.27
 74
     0
 49
1.27
 74
     0
 49
-1.27
 74
     0
  0
LTYPE
  5
42
330
5
100
AcDbSymbolTableRecord
100
AcDbLinetypeTableRecord
  2
CENTERX2
 70
     0
  3
Center (2x) ________  __  ________  __  _____
 72
    65
 73
     4
 40
20.32
 49
12.7
 74
     0
 49
-2.54
 74
     0
 49
2.54
 74
     0
 49
-2.54
 74
     0
  0
LTYPE
  5
43
330
5
100
AcDbSymbolTableRecord
100
AcDbLinetypeTableRecord
  2
DOT2
 70
     0
  3
Dot (.5x) ........................................
 72
    65
 73
     2
 40
0.635
 49
0.0
 74
     0
 49
-0.635
 74
     0
  0
ENDTAB
  0
TABLE
  2
LAYER
  5
2
330
0
100
AcDbSymbolTable
 70
     5
  0
LAYER
  5
10
330
2
100
AcDbSymbolTableRecord
100
AcDbLayerTableRecord
  2
0
 70
     0
 62
     7
  6
Continuous
370
    -3
390
F
  0
LAYER
  5
44
330
2
100
AcDbSymbolTableRecord
100
AcDbLayerTableRecord
  2
FORMAT
 70
     0
 62
     7
  6
Continuous
370
    -3
390
F
  0
LAYER
  5
45
330
2
100
AcDbSymbolTableRecord
100
AcDbLayerTableRecord
  2
PROTOTYPE
 70
     0
 62
     7
  6
Continuous
370
    -3
390
F
  0
LAYER
  5
46
330
2
100
AcDbSymbolTableRecord
100
AcDbLayerTableRecord
  2
TECH_TEXT
 70
     0
 62
     7
  6
Continuous
370
    -3
390
F
  0
LAYER
  5
47
330
2
100
AcDbSymbolTableRecord
100
AcDbLayerTableRecord
  2
TOOLING_TABLE
 70
     0
 62
    -7
  6
Continuous
370
    -3
390
F
  0
ENDTAB
  0
TABLE
  2
STYLE
  5
3
330
0
100
AcDbSymbolTable
 70
     2
  0
STYLE
  5
11
330
3
100
AcDbSymbolTableRecord
100
AcDbTextStyleTableRecord
  2
Standard
 70
     0
 40
0.0
 41
1.0
 50
0.0
 71
     0
 42
2.5
  3
txt
  4

  0
STYLE
  5
52
330
3
100
AcDbSymbolTableRecord
100
AcDbTextStyleTableRecord
  2
SLDTEXTSTYLE0
 70
     0
 40
0.0
 41
0.605
 50
0.0
 71
     0
 42
0.2
  3
TXT
  4

  0
ENDTAB
  0
TABLE
  2
VIEW
  5
6
330
0
100
AcDbSymbolTable
 70
     0
  0
ENDTAB
  0
TABLE
  2
UCS
  5
7
330
0
100
AcDbSymbolTable
 70
     0
  0
ENDTAB
  0
TABLE
  2
APPID
  5
9
330
0
100
AcDbSymbolTable
 70
     1
  0
APPID
  5
12
330
9
100
AcDbSymbolTableRecord
100
AcDbRegAppTableRecord
  2
ACAD
 70
     0
  0
ENDTAB
  0
TABLE
  2
DIMSTYLE
  5
A
330
0
100
AcDbSymbolTable
 70
     1
100
AcDbDimStyleTable
  0
DIMSTYLE
105
27
330
A
100
AcDbSymbolTableRecord
100
AcDbDimStyleTableRecord
  2
ISO-25
 70
     0
 41
2.5
 42
0.625
 43
3.75
 44
1.25
 73
     0
 74
     0
 77
     1
 78
     8
140
2.5
141
2.5
143
0.0393700787
147
0.625
171
     3
172
     1
178
     0
271
     2
272
     2
274
     3
278
    44
283
     0
284
     8
340
11
  0
ENDTAB
  0
TABLE
  2
BLOCK_RECORD
  5
1
330
0
100
AcDbSymbolTable
 70
     9
  0
BLOCK_RECORD
  5
1F
330
1
100
AcDbSymbolTableRecord
100
AcDbBlockTableRecord
  2
*Model_Space
340
22
  0
BLOCK_RECORD
  5
1B
330
1
100
AcDbSymbolTableRecord
100
AcDbBlockTableRecord
  2
*Paper_Space
340
1E
  0
BLOCK_RECORD
  5
23
330
1
100
AcDbSymbolTableRecord
100
AcDbBlockTableRecord
  2
*Paper_Space0
340
26
  0
BLOCK_RECORD
  5
F5
330
1
100
AcDbSymbolTableRecord
100
AcDbBlockTableRecord
  2
SW_CENTERMARKSYMBOL_0
340
0
102
{BLKREFS
331
154
102
}
  0
BLOCK_RECORD
  5
1EB
330
1
100
AcDbSymbolTableRecord
100
AcDbBlockTableRecord
  2
SW_CENTERMARKSYMBOL_1
340
0
102
{BLKREFS
331
1F6
102
}
  0
BLOCK_RECORD
  5
341
330
1
100
AcDbSymbolTableRecord
100
AcDbBlockTableRecord
  2
SW_CENTERMARKSYMBOL_2
340
0
102
{BLKREFS
331
34C
102
}
  0
BLOCK_RECORD
  5
34D
330
1
100
AcDbSymbolTableRecord
100
AcDbBlockTableRecord
  2
SW_CENTERMARKSYMBOL_3
340
0
102
{BLKREFS
331
358
102
}
  0
BLOCK_RECORD
  5
359
330
1
100
AcDbSymbolTableRecord
100
AcDbBlockTableRecord
  2
SW_CENTERMARKSYMBOL_4
340
0
102
{BLKREFS
331
364
102
}
  0
BLOCK_RECORD
  5
365
330
1
100
AcDbSymbolTableRecord
100
AcDbBlockTableRecord
  2
SW_CENTERMARKSYMBOL_5
340
0
102
{BLKREFS
331
370
102
}
  0
BLOCK_RECORD
  5
371
330
1
100
AcDbSymbolTableRecord
100
AcDbBlockTableRecord
  2
SW_CENTERMARKSYMBOL_6
340
0
102
{BLKREFS
331
37C
102
}
  0
BLOCK_RECORD
  5
37D
330
1
100
AcDbSymbolTableRecord
100
AcDbBlockTableRecord
  2
SW_CENTERMARKSYMBOL_7
340
0
102
{BLKREFS
331
388
102
}
  0
ENDTAB
  0
ENDSEC
  0
SECTION
  2
BLOCKS
  0
BLOCK
  5
20
330
1F
100
AcDbEntity
  8
0
100
AcDbBlockBegin
  2
*Model_Space
 70
     0
 10
0.0
 20
0.0
 30
0.0
  3
*Model_Space
  1

  0
ENDBLK
  5
21
330
1F
100
AcDbEntity
  8
0
100
AcDbBlockEnd
  0
BLOCK
  5
1C
330
1B
100
AcDbEntity
 67
     1
  8
0
100
AcDbBlockBegin
  2
*Paper_Space
 70
     0
 10
0.0
 20
0.0
 30
0.0
  3
*Paper_Space
  1

  0
ENDBLK
  5
1D
330
1B
100
AcDbEntity
 67
     1
  8
0
100
AcDbBlockEnd
  0
BLOCK
  5
24
330
23
100
AcDbEntity
  8
0
100
AcDbBlockBegin
  2
*Paper_Space0
 70
     0
 10
0.0
 20
0.0
 30
0.0
  3
*Paper_Space0
  1

  0
ENDBLK
  5
25
330
23
100
AcDbEntity
  8
0
100
AcDbBlockEnd
  0
BLOCK
  5
F6
330
F5
100
AcDbEntity
  8
0
100
AcDbBlockBegin
  2
SW_CENTERMARKSYMBOL_0
 70
     0
 10
0.0
 20
0.0
 30
0.0
  3
SW_CENTERMARKSYMBOL_0
  1

  0
ARC
  5
F8
330
F5
100
AcDbEntity
  8
FORMAT
 62
     0
100
AcDbCircle
 10
-169.0370196006
 20
45.2933328929
 30
0.0
 40
174.9999999999999
100
AcDbArc
 50
345.0
 51
345.8185111359
  0
ARC
  5
F9
330
F5
100
AcDbEntity
  8
FORMAT
 62
     0
100
AcDbCircle
 10
-169.0370196006
 20
45.2933328929
 30
0.0
 40
174.9999999999998
100
AcDbArc
 50
344.1814888641
 51
345.0
  0
ARC
  5
FA
330
F5
100
AcDbEntity
  8
FORMAT
 62
     0
100
AcDbCircle
 10
-169.0370196006
 20
45.2933328929
 30
0.0
 40
174.9999999999998
100
AcDbArc
 50
315.0
 51
315.8185111359
  0
ARC
  5
FB
330
F5
100
AcDbEntity
  8
FORMAT
 62
     0
100
AcDbCircle
 10
-169.0370196006
 20
45.2933328929
 30
0.0
 40
174.9999999999999
100
AcDbArc
 50
314.1814888641
 51
315.0
  0
ARC
  5
FC
330
F5
100
AcDbEntity
  8
FORMAT
 62
     0
100
AcDbCircle
 10
-169.0370196006
 20
45.2933328929
 30
0.0
 40
174.9999999999998
100
AcDbArc
 50
285.0
 51
285.8185111359
  0
ARC
  5
FD
330
F5
100
AcDbEntity
  8
FORMAT
 62
     0
100
AcDbCircle
 10
-169.0370196006
 20
45.2933328929
 30
0.0
 40
174.9999999999998
100
AcDbArc
 50
284.1814888641
 51
285.0
  0
ARC
  5
FE
330
F5
100
AcDbEntity
  8
FORMAT
 62
     0
100
AcDbCircle
 10
-169.0370196006
 20
45.2933328929
 30
0.0
 40
174.9999999999998
100
AcDbArc
 50
255.0
 51
255.8185111359
  0
ARC
  5
FF
330
F5
100
AcDbEntity
  8
FORMAT
 62
     0
100
AcDbCircle
 10
-169.0370196006
 20
45.2933328929
 30
0.0
 40
174.9999999999999
100
AcDbArc
 50
254.1814888641
 51
255.0
  0
ARC
  5
100
330
F5
100
AcDbEntity
  8
FORMAT
 62
     0
100
AcDbCircle
 10
-169.0370196006
 20
45.2933328929
 30
0.0
 40
175.0
100
AcDbArc
 50
225.0
 51
225.8185111359
  0
ARC
  5
101
330
F5
100
AcDbEntity
  8
FORMAT
 62
     0
100
AcDbCircle
 10
-169.0370196006
 20
45.2933328929
 30
0.0
 40
174.9999999999999
100
AcDbArc
 50
224.1814888641
 51
225.0
  0
ARC
  5
102
330
F5
100
AcDbEntity
  8
FORMAT
 62
     0
100
AcDbCircle
 10
-169.0370196006
 20
45.2933328929
 30
0.0
 40
175.0
100
AcDbArc
 50
195.0
 51
195.8185111359
  0
ARC
  5
103
330
F5
100
AcDbEntity
  8
FORMAT
 62
     0
100
AcDbCircle
 10
-169.0370196006
 20
45.2933328929
 30
0.0
 40
175.0
100
AcDbArc
 50
194.1814888641
 51
195.0
  0
ARC
  5
104
330
F5
100
AcDbEntity
  8
FORMAT
 62
     0
100
AcDbCircle
 10
-169.0370196006
 20
45.2933328929
 30
0.0
 40
175.0000000000001
100
AcDbArc
 50
165.0
 51
165.8185111359
  0
ARC
  5
105
330
F5
100
AcDbEntity
  8
FORMAT
 62
     0
100
AcDbCircle
 10
-169.0370196006
 20
45.2933328929
 30
0.0
 40
175.0000000000001
100
AcDbArc
 50
164.1814888641
 51
165.0
  0
ARC
  5
106
330
F5
100
AcDbEntity
  8
FORMAT
 62
     0
100
AcDbCircle
 10
-169.0370196006
 20
45.2933328929
 30
0.0
 40
175.0000000000002
100
AcDbArc
 50
135.0
 51
135.8185111359
  0
ARC
  5
107
330
F5
100
AcDbEntity
  8
FORMAT
 62
     0
100
AcDbCircle
 10
-169.0370196006
 20
45.2933328929
 30
0.0
 40
175.0000000000001
100
AcDbArc
 50
134.1814888641
 51
135.0
  0
ARC
  5
108
330
F5
100
AcDbEntity
  8
FORMAT
 62
     0
100
AcDbCircle
 10
-169.0370196006
 20
45.2933328929
 30
0.0
 40
175.0000000000002
100
AcDbArc
 50
105.0
 51
105.8185111359
  0
ARC
  5
109
330
F5
100
AcDbEntity
  8
FORMAT
 62
     0
100
AcDbCircle
 10
-169.0370196006
 20
45.2933328929
 30
0.0
 40
175.0000000000002
100
AcDbArc
 50
104.1814888641
 51
105.0
  0
ARC
  5
10A
330
F5
100
AcDbEntity
  8
FORMAT
 62
     0
100
AcDbCircle
 10
-169.0370196006
 20
45.2933328929
 30
0.0
 40
175.0000000000001
100
AcDbArc
 50
75.0
 51
75.8185111359
  0
ARC
  5
10B
330
F5
100
AcDbEntity
  8
FORMAT
 62
     0
100
AcDbCircle
 10
-169.0370196006
 20
45.2933328929
 30
0.0
 40
175.0000000000001
100
AcDbArc
 50
74.1814888641
 51
75.0
  0
ARC
  5
10C
330
F5
100
AcDbEntity
  8
FORMAT
 62
     0
100
AcDbCircle
 10
-169.0370196006
 20
45.2933328929
 30
0.0
 40
175.0000000000001
100
AcDbArc
 50
45.0
 51
45.8185111359
  0
ARC
  5
10D
330
F5
100
AcDbEntity
  8
FORMAT
 62
     0
100
AcDbCircle
 10
-169.0370196006
 20
45.2933328929
 30
0.0
 40
175.0000000000001
100
AcDbArc
 50
44.1814888641
 51
45.0
  0
ARC
  5
10E
330
F5
100
AcDbEntity
  8
FORMAT
 62
     0
100
AcDbCircle
 10
-169.0370196006
 20
45.2933328929
 30
0.0
 40
174.9999999999999
100
AcDbArc
 50
15.0
 51
15.8185111359
  0
ARC
  5
10F
330
F5
100
AcDbEntity
  8
FORMAT
 62
     0
100
AcDbCircle
 10
-169.0370196006
 20
45.2933328929
 30
0.0
 40
174.9999999999999
100
AcDbArc
 50
14.1814888641
 51
15.0
  0
ARC
  5
110
330
F5
100
AcDbEntity
  8
FORMAT
 62
     0
100
AcDbCircle
 10
-169.0370196006
 20
45.2933328929
 30
0.0
 40
174.9999999999998
100
AcDbArc
 50
286.6370222718
 51
313.3629777282
  0
ARC
  5
111
330
F5
100
AcDbEntity
  8
FORMAT
 62
     0
100
AcDbCircle
 10
-169.0370196006
 20
45.2933328929
 30
0.0
 40
174.9999999999998
100
AcDbArc
 50
316.6370222718
 51
343.3629777282
  0
ARC
  5
112
330
F5
100
AcDbEntity
  8
FORMAT
 62
     0
100
AcDbCircle
 10
-169.0370196006
 20
45.2933328929
 30
0.0
 40
174.9999999999998
100
AcDbArc
 50
256.6370222718
 51
283.3629777282
  0
ARC
  5
113
330
F5
100
AcDbEntity
  8
FORMAT
 62
     0
100
AcDbCircle
 10
-169.0370196006
 20
45.2933328929
 30
0.0
 40
174.9999999999999
100
AcDbArc
 50
226.6370222718
 51
253.3629777282
  0
ARC
  5
114
330
F5
100
AcDbEntity
  8
FORMAT
 62
     0
100
AcDbCircle
 10
-169.0370196006
 20
45.2933328929
 30
0.0
 40
174.9999999999999
100
AcDbArc
 50
196.6370222718
 51
223.3629777282
  0
ARC
  5
115
330
F5
100
AcDbEntity
  8
FORMAT
 62
     0
100
AcDbCircle
 10
-169.0370196006
 20
45.2933328929
 30
0.0
 40
175.0000000000001
100
AcDbArc
 50
166.6370222718
 51
193.3629777282
  0
ARC
  5
116
330
F5
100
AcDbEntity
  8
FORMAT
 62
     0
100
AcDbCircle
 10
-169.0370196006
 20
45.2933328929
 30
0.0
 40
175.0000000000002
100
AcDbArc
 50
136.6370222718
 51
163.3629777282
  0
ARC
  5
117
330
F5
100
AcDbEntity
  8
FORMAT
 62
     0
100
AcDbCircle
 10
-169.0370196006
 20
45.2933328929
 30
0.0
 40
175.0000000000002
100
AcDbArc
 50
106.6370222718
 51
133.3629777282
  0
ARC
  5
118
330
F5
100
AcDbEntity
  8
FORMAT
 62
     0
100
AcDbCircle
 10
-169.0370196006
 20
45.2933328929
 30
0.0
 40
175.0000000000001
100
AcDbArc
 50
76.6370222718
 51
103.3629777282
  0
ARC
  5
119
330
F5
100
AcDbEntity
  8
FORMAT
 62
     0
100
AcDbCircle
 10
-169.0370196006
 20
45.2933328929
 30
0.0
 40
175.0000000000001
100
AcDbArc
 50
46.6370222718
 51
73.3629777282
  0
ARC
  5
11A
330
F5
100
AcDbEntity
  8
FORMAT
 62
     0
100
AcDbCircle
 10
-169.0370196006
 20
45.2933328929
 30
0.0
 40
175.0
100
AcDbArc
 50
16.6370222718
 51
43.3629777282
  0
ARC
  5
11B
330
F5
100
AcDbEntity
  8
FORMAT
 62
     0
100
AcDbCircle
 10
-169.0370196006
 20
45.2933328929
 30
0.0
 40
174.9999999999999
100
AcDbArc
 50
346.6370222718
 51
13.3629777282
  0
LINE
  5
11C
330
F5
100
AcDbEntity
  8
FORMAT
 62
     0
100
AcDbLine
 10
0.0
 20
0.0
 30
0.0
 11
2.4148145657
 21
-0.6470476128
 31
0.0
  0
LINE
  5
11D
330
F5
100
AcDbEntity
  8
FORMAT
 62
     0
100
AcDbLine
 10
0.0
 20
0.0
 30
0.0
 11
-2.4148145657
 21
0.6470476128
 31
0.0
  0
LINE
  5
11E
330
F5
100
AcDbEntity
  8
FORMAT
 62
     0
100
AcDbLine
 10
4.8296291314
 20
-1.2940952255
 30
0.0
 11
14.4888873943
 21
-3.8822856765
 31
0.0
  0
LINE
  5
11F
330
F5
100
AcDbEntity
  8
FORMAT
 62
     0
100
AcDbLine
 10
-4.8296291314
 20
1.2940952255
 30
0.0
 11
-14.4888873943
 21
3.8822856765
 31
0.0
  0
LINE
  5
120
330
F5
100
AcDbEntity
  8
FORMAT
 62
     0
100
AcDbLine
 10
-45.2933328929
 20
-78.4503538147
 30
0.0
 11
-43.52556594
 21
-80.2181207677
 31
0.0
  0
LINE
  5
121
330
F5
100
AcDbEntity
  8
FORMAT
 62
     0
100
AcDbLine
 10
-45.2933328929
 20
-78.4503538147
 30
0.0
 11
-47.0610998459
 21
-76.6825868617
 31
0.0
  0
LINE
  5
122
330
F5
100
AcDbEntity
  8
FORMAT
 62
     0
100
AcDbLine
 10
-41.757798987
 20
-81.9858877206
 30
0.0
 11
-34.6867311751
 21
-89.0569555325
 31
0.0
  0
LINE
  5
123
330
F5
100
AcDbEntity
  8
FORMAT
 62
     0
100
AcDbLine
 10
-48.8288667989
 20
-74.9148199088
 30
0.0
 11
-55.8999346107
 21
-67.8437520969
 31
0.0
  0
LINE
  5
124
330
F5
100
AcDbEntity
  8
FORMAT
 62
     0
100
AcDbLine
 10
-123.7436867076
 20
-123.7436867076
 30
0.0
 11
-123.0966390949
 21
-126.1585012734
 31
0.0
  0
LINE
  5
125
330
F5
100
AcDbEntity
  8
FORMAT
 62
     0
100
AcDbLine
 10
-123.7436867076
 20
-123.7436867076
 30
0.0
 11
-124.3907343204
 21
-121.3288721419
 31
0.0
  0
LINE
  5
126
330
F5
100
AcDbEntity
  8
FORMAT
 62
     0
100
AcDbLine
 10
-122.4495914821
 20
-128.5733158391
 30
0.0
 11
-119.8614010311
 21
-138.232574102
 31
0.0
  0
LINE
  5
127
330
F5
100
AcDbEntity
  8
FORMAT
 62
     0
100
AcDbLine
 10
-125.0377819332
 20
-118.9140575762
 30
0.0
 11
-127.6259723842
 21
-109.2547993133
 31
0.0
  0
LINE
  5
128
330
F5
100
AcDbEntity
  8
FORMAT
 62
     0
100
AcDbLine
 10
-169.0370196006
 20
45.2933328929
 30
0.0
 11
-169.0370196006
 21
47.7933328929
 31
0.0
  0
LINE
  5
129
330
F5
100
AcDbEntity
  8
FORMAT
 62
     0
100
AcDbLine
 10
-169.0370196006
 20
45.2933328929
 30
0.0
 11
-171.5370196006
 21
45.2933328929
 31
0.0
  0
LINE
  5
12A
330
F5
100
AcDbEntity
  8
FORMAT
 62
     0
100
AcDbLine
 10
-169.0370196006
 20
45.2933328929
 30
0.0
 11
-169.0370196006
 21
42.7933328929
 31
0.0
  0
LINE
  5
12B
330
F5
100
AcDbEntity
  8
FORMAT
 62
     0
100
AcDbLine
 10
-169.0370196006
 20
45.2933328929
 30
0.0
 11
-166.5370196006
 21
45.2933328929
 31
0.0
  0
LINE
  5
12C
330
F5
100
AcDbEntity
  8
FORMAT
 62
     0
100
AcDbLine
 10
-169.0370196006
 20
50.2933328929
 30
0.0
 11
-169.0370196006
 21
258.7981733957
 31
0.0
  0
LINE
  5
12D
330
F5
100
AcDbEntity
  8
FORMAT
 62
     0
100
AcDbLine
 10
-174.0370196006
 20
45.2933328929
 30
0.0
 11
-363.6360458373
 21
45.2933328929
 31
0.0
  0
LINE
  5
12E
330
F5
100
AcDbEntity
  8
FORMAT
 62
     0
100
AcDbLine
 10
-169.0370196006
 20
40.2933328929
 30
0.0
 11
-169.0370196006
 21
-169.8368329285
 31
0.0
  0
LINE
  5
12F
330
F5
100
AcDbEntity
  8
FORMAT
 62
     0
100
AcDbLine
 10
-164.0370196006
 20
45.2933328929
 30
0.0
 11
22.5588496737
 21
45.2933328929
 31
0.0
  0
LINE
  5
130
330
F5
100
AcDbEntity
  8
FORMAT
 62
     0
100
AcDbLine
 10
-214.3303524935
 20
-123.7436867076
 30
0.0
 11
-214.9774001063
 21
-126.1585012734
 31
0.0
  0
LINE
  5
131
330
F5
100
AcDbEntity
  8
FORMAT
 62
     0
100
AcDbLine
 10
-214.3303524935
 20
-123.7436867076
 30
0.0
 11
-213.6833048808
 21
-121.3288721419
 31
0.0
  0
LINE
  5
132
330
F5
100
AcDbEntity
  8
FORMAT
 62
     0
100
AcDbLine
 10
-215.624447719
 20
-128.5733158391
 30
0.0
 11
-218.2126381701
 21
-138.232574102
 31
0.0
  0
LINE
  5
133
330
F5
100
AcDbEntity
  8
FORMAT
 62
     0
100
AcDbLine
 10
-213.036257268
 20
-118.9140575762
 30
0.0
 11
-210.448066817
 21
-109.2547993133
 31
0.0
  0
LINE
  5
134
330
F5
100
AcDbEntity
  8
FORMAT
 62
     0
100
AcDbLine
 10
-292.7807063082
 20
-78.4503538147
 30
0.0
 11
-294.5484732612
 21
-80.2181207677
 31
0.0
  0
LINE
  5
135
330
F5
100
AcDbEntity
  8
FORMAT
 62
     0
100
AcDbLine
 10
-292.7807063082
 20
-78.4503538147
 30
0.0
 11
-291.0129393553
 21
-76.6825868617
 31
0.0
  0
LINE
  5
136
330
F5
100
AcDbEntity
  8
FORMAT
 62
     0
100
AcDbLine
 10
-296.3162402142
 20
-81.9858877206
 30
0.0
 11
-303.387308026
 21
-89.0569555325
 31
0.0
  0
LINE
  5
137
330
F5
100
AcDbEntity
  8
FORMAT
 62
     0
100
AcDbLine
 10
-289.2451724023
 20
-74.9148199088
 30
0.0
 11
-282.1741045904
 21
-67.8437520969
 31
0.0
  0
LINE
  5
138
330
F5
100
AcDbEntity
  8
FORMAT
 62
     0
100
AcDbLine
 10
-338.0740392012
 20
0.0
 30
0.0
 11
-340.4888537669
 21
-0.6470476128
 31
0.0
  0
LINE
  5
139
330
F5
100
AcDbEntity
  8
FORMAT
 62
     0
100
AcDbLine
 10
-338.0740392012
 20
0.0
 30
0.0
 11
-335.6592246355
 21
0.6470476128
 31
0.0
  0
LINE
  5
13A
330
F5
100
AcDbEntity
  8
FORMAT
 62
     0
100
AcDbLine
 10
-342.9036683326
 20
-1.2940952255
 30
0.0
 11
-352.5629265955
 21
-3.8822856765
 31
0.0
  0
LINE
  5
13B
330
F5
100
AcDbEntity
  8
FORMAT
 62
     0
100
AcDbLine
 10
-333.2444100697
 20
1.2940952255
 30
0.0
 11
-323.5851518068
 21
3.8822856765
 31
0.0
  0
LINE
  5
13C
330
F5
100
AcDbEntity
  8
FORMAT
 62
     0
100
AcDbLine
 10
-338.0740392012
 20
90.5866657859
 30
0.0
 11
-340.4888537669
 21
91.2337133986
 31
0.0
  0
LINE
  5
13D
330
F5
100
AcDbEntity
  8
FORMAT
 62
     0
100
AcDbLine
 10
-338.0740392012
 20
90.5866657859
 30
0.0
 11
-335.6592246355
 21
89.9396181731
 31
0.0
  0
LINE
  5
13E
330
F5
100
AcDbEntity
  8
FORMAT
 62
     0
100
AcDbLine
 10
-342.9036683326
 20
91.8807610114
 30
0.0
 11
-352.5629265955
 21
94.4689514624
 31
0.0
  0
LINE
  5
13F
330
F5
100
AcDbEntity
  8
FORMAT
 62
     0
100
AcDbLine
 10
-333.2444100697
 20
89.2925705604
 30
0.0
 11
-323.5851518068
 21
86.7043801093
 31
0.0
  0
LINE
  5
140
330
F5
100
AcDbEntity
  8
FORMAT
 62
     0
100
AcDbLine
 10
-292.7807063082
 20
169.0370196006
 30
0.0
 11
-294.5484732612
 21
170.8047865536
 31
0.0
  0
LINE
  5
141
330
F5
100
AcDbEntity
  8
FORMAT
 62
     0
100
AcDbLine
 10
-292.7807063082
 20
169.0370196006
 30
0.0
 11
-291.0129393553
 21
167.2692526476
 31
0.0
  0
LINE
  5
142
330
F5
100
AcDbEntity
  8
FORMAT
 62
     0
100
AcDbLine
 10
-296.3162402142
 20
172.5725535065
 30
0.0
 11
-303.387308026
 21
179.6436213184
 31
0.0
  0
LINE
  5
143
330
F5
100
AcDbEntity
  8
FORMAT
 62
     0
100
AcDbLine
 10
-289.2451724023
 20
165.5014856947
 30
0.0
 11
-282.1741045904
 21
158.4304178828
 31
0.0
  0
LINE
  5
144
330
F5
100
AcDbEntity
  8
FORMAT
 62
     0
100
AcDbLine
 10
-214.3303524935
 20
214.3303524935
 30
0.0
 11
-214.9774001063
 21
216.7451670593
 31
0.0
  0
LINE
  5
145
330
F5
100
AcDbEntity
  8
FORMAT
 62
     0
100
AcDbLine
 10
-214.3303524935
 20
214.3303524935
 30
0.0
 11
-213.6833048808
 21
211.9155379278
 31
0.0
  0
LINE
  5
146
330
F5
100
AcDbEntity
  8
FORMAT
 62
     0
100
AcDbLine
 10
-215.624447719
 20
219.159981625
 30
0.0
 11
-218.2126381701
 21
228.8192398879
 31
0.0
  0
LINE
  5
147
330
F5
100
AcDbEntity
  8
FORMAT
 62
     0
100
AcDbLine
 10
-213.036257268
 20
209.5007233621
 30
0.0
 11
-210.448066817
 21
199.8414650992
 31
0.0
  0
LINE
  5
148
330
F5
100
AcDbEntity
  8
FORMAT
 62
     0
100
AcDbLine
 10
-123.7436867076
 20
214.3303524935
 30
0.0
 11
-123.0966390949
 21
216.7451670593
 31
0.0
  0
LINE
  5
149
330
F5
100
AcDbEntity
  8
FORMAT
 62
     0
100
AcDbLine
 10
-123.7436867076
 20
214.3303524935
 30
0.0
 11
-124.3907343204
 21
211.9155379278
 31
0.0
  0
LINE
  5
14A
330
F5
100
AcDbEntity
  8
FORMAT
 62
     0
100
AcDbLine
 10
-122.4495914821
 20
219.159981625
 30
0.0
 11
-119.8614010311
 21
228.8192398879
 31
0.0
  0
LINE
  5
14B
330
F5
100
AcDbEntity
  8
FORMAT
 62
     0
100
AcDbLine
 10
-125.0377819332
 20
209.5007233621
 30
0.0
 11
-127.6259723842
 21
199.8414650992
 31
0.0
  0
LINE
  5
14C
330
F5
100
AcDbEntity
  8
FORMAT
 62
     0
100
AcDbLine
 10
-45.2933328929
 20
169.0370196006
 30
0.0
 11
-43.52556594
 21
170.8047865536
 31
0.0
  0
LINE
  5
14D
330
F5
100
AcDbEntity
  8
FORMAT
 62
     0
100
AcDbLine
 10
-45.2933328929
 20
169.0370196006
 30
0.0
 11
-47.0610998459
 21
167.2692526476
 31
0.0
  0
LINE
  5
14E
330
F5
100
AcDbEntity
  8
FORMAT
 62
     0
100
AcDbLine
 10
-41.757798987
 20
172.5725535065
 30
0.0
 11
-34.6867311751
 21
179.6436213184
 31
0.0
  0
LINE
  5
14F
330
F5
100
AcDbEntity
  8
FORMAT
 62
     0
100
AcDbLine
 10
-48.8288667989
 20
165.5014856947
 30
0.0
 11
-55.8999346107
 21
158.4304178828
 31
0.0
  0
LINE
  5
150
330
F5
100
AcDbEntity
  8
FORMAT
 62
     0
100
AcDbLine
 10
0.0
 20
90.5866657859
 30
0.0
 11
2.4148145657
 21
91.2337133986
 31
0.0
  0
LINE
  5
151
330
F5
100
AcDbEntity
  8
FORMAT
 62
     0
100
AcDbLine
 10
0.0
 20
90.5866657859
 30
0.0
 11
-2.4148145657
 21
89.9396181731
 31
0.0
  0
LINE
  5
152
330
F5
100
AcDbEntity
  8
FORMAT
 62
     0
100
AcDbLine
 10
4.8296291314
 20
91.8807610114
 30
0.0
 11
14.4888873943
 21
94.4689514624
 31
0.0
  0
LINE
  5
153
330
F5
100
AcDbEntity
  8
FORMAT
 62
     0
100
AcDbLine
 10
-4.8296291314
 20
89.2925705604
 30
0.0
 11
-14.4888873943
 21
86.7043801093
 31
0.0
  0
ENDBLK
  5
F7
330
F5
100
AcDbEntity
  8
0
100
AcDbBlockEnd
  0
BLOCK
  5
1EC
330
1EB
100
AcDbEntity
  8
0
100
AcDbBlockBegin
  2
SW_CENTERMARKSYMBOL_1
 70
     0
 10
0.0
 20
0.0
 30
0.0
  3
SW_CENTERMARKSYMBOL_1
  1

  0
LINE
  5
1EE
330
1EB
100
AcDbEntity
  8
FORMAT
 62
     0
100
AcDbLine
 10
0.0
 20
0.0
 30
0.0
 11
0.0
 21
2.5
 31
0.0
  0
LINE
  5
1EF
330
1EB
100
AcDbEntity
  8
FORMAT
 62
     0
100
AcDbLine
 10
0.0
 20
0.0
 30
0.0
 11
-2.5
 21
0.0
 31
0.0
  0
LINE
  5
1F0
330
1EB
100
AcDbEntity
  8
FORMAT
 62
     0
100
AcDbLine
 10
0.0
 20
0.0
 30
0.0
 11
0.0
 21
-2.5
 31
0.0
  0
LINE
  5
1F1
330
1EB
100
AcDbEntity
  8
FORMAT
 62
     0
100
AcDbLine
 10
0.0
 20
0.0
 30
0.0
 11
2.5
 21
0.0
 31
0.0
  0
LINE
  5
1F2
330
1EB
100
AcDbEntity
  8
FORMAT
 62
     0
100
AcDbLine
 10
0.0
 20
5.0
 30
0.0
 11
0.0
 21
82.4264512461
 31
0.0
  0
LINE
  5
1F3
330
1EB
100
AcDbEntity
  8
FORMAT
 62
     0
100
AcDbLine
 10
-5.0
 20
0.0
 30
0.0
 11
-74.5916806196
 21
0.0
 31
0.0
  0
LINE
  5
1F4
330
1EB
100
AcDbEntity
  8
FORMAT
 62
     0
100
AcDbLine
 10
0.0
 20
-5.0
 30
0.0
 11
0.0
 21
-72.0293275665
 31
0.0
  0
LINE
  5
1F5
330
1EB
100
AcDbEntity
  8
FORMAT
 62
     0
100
AcDbLine
 10
5.0
 20
0.0
 30
0.0
 11
107.6178709483
 21
0.0
 31
0.0
  0
ENDBLK
  5
1ED
330
1EB
100
AcDbEntity
  8
0
100
AcDbBlockEnd
  0
BLOCK
  5
342
330
341
100
AcDbEntity
  8
0
100
AcDbBlockBegin
  2
SW_CENTERMARKSYMBOL_2
 70
     0
 10
0.0
 20
0.0
 30
0.0
  3
SW_CENTERMARKSYMBOL_2
  1

  0
LINE
  5
344
330
341
100
AcDbEntity
  8
FORMAT
 62
     0
100
AcDbLine
 10
0.0
 20
0.0
 30
0.0
 11
0.0
 21
2.5
 31
0.0
  0
LINE
  5
345
330
341
100
AcDbEntity
  8
FORMAT
 62
     0
100
AcDbLine
 10
0.0
 20
0.0
 30
0.0
 11
-2.5
 21
0.0
 31
0.0
  0
LINE
  5
346
330
341
100
AcDbEntity
  8
FORMAT
 62
     0
100
AcDbLine
 10
0.0
 20
0.0
 30
0.0
 11
0.0
 21
-2.5
 31
0.0
  0
LINE
  5
347
330
341
100
AcDbEntity
  8
FORMAT
 62
     0
100
AcDbLine
 10
0.0
 20
0.0
 30
0.0
 11
2.5
 21
0.0
 31
0.0
  0
LINE
  5
348
330
341
100
AcDbEntity
  8
FORMAT
 62
     0
100
AcDbLine
 10
0.0
 20
5.0
 30
0.0
 11
0.0
 21
12.5
 31
0.0
  0
LINE
  5
349
330
341
100
AcDbEntity
  8
FORMAT
 62
     0
100
AcDbLine
 10
-5.0
 20
0.0
 30
0.0
 11
-12.5
 21
0.0
 31
0.0
  0
LINE
  5
34A
330
341
100
AcDbEntity
  8
FORMAT
 62
     0
100
AcDbLine
 10
0.0
 20
-5.0
 30
0.0
 11
0.0
 21
-12.5
 31
0.0
  0
LINE
  5
34B
330
341
100
AcDbEntity
  8
FORMAT
 62
     0
100
AcDbLine
 10
5.0
 20
0.0
 30
0.0
 11
12.5
 21
0.0
 31
0.0
  0
ENDBLK
  5
343
330
341
100
AcDbEntity
  8
0
100
AcDbBlockEnd
  0
BLOCK
  5
34E
330
34D
100
AcDbEntity
  8
0
100
AcDbBlockBegin
  2
SW_CENTERMARKSYMBOL_3
 70
     0
 10
0.0
 20
0.0
 30
0.0
  3
SW_CENTERMARKSYMBOL_3
  1

  0
LINE
  5
350
330
34D
100
AcDbEntity
  8
FORMAT
 62
     0
100
AcDbLine
 10
0.0
 20
0.0
 30
0.0
 11
0.0
 21
2.5
 31
0.0
  0
LINE
  5
351
330
34D
100
AcDbEntity
  8
FORMAT
 62
     0
100
AcDbLine
 10
0.0
 20
0.0
 30
0.0
 11
-2.5
 21
0.0
 31
0.0
  0
LINE
  5
352
330
34D
100
AcDbEntity
  8
FORMAT
 62
     0
100
AcDbLine
 10
0.0
 20
0.0
 30
0.0
 11
0.0
 21
-2.5
 31
0.0
  0
LINE
  5
353
330
34D
100
AcDbEntity
  8
FORMAT
 62
     0
100
AcDbLine
 10
0.0
 20
0.0
 30
0.0
 11
2.5
 21
0.0
 31
0.0
  0
LINE
  5
354
330
34D
100
AcDbEntity
  8
FORMAT
 62
     0
100
AcDbLine
 10
0.0
 20
5.0
 30
0.0
 11
0.0
 21
37.7999172633
 31
0.0
  0
LINE
  5
355
330
34D
100
AcDbEntity
  8
FORMAT
 62
     0
100
AcDbLine
 10
-5.0
 20
0.0
 30
0.0
 11
-30.7370894886
 21
0.0
 31
0.0
  0
LINE
  5
356
330
34D
100
AcDbEntity
  8
FORMAT
 62
     0
100
AcDbLine
 10
0.0
 20
-5.0
 30
0.0
 11
0.0
 21
-39.2294979977
 31
0.0
  0
LINE
  5
357
330
34D
100
AcDbEntity
  8
FORMAT
 62
     0
100
AcDbLine
 10
5.0
 20
0.0
 30
0.0
 11
32.1440658265
 21
0.0
 31
0.0
  0
ENDBLK
  5
34F
330
34D
100
AcDbEntity
  8
0
100
AcDbBlockEnd
  0
BLOCK
  5
35A
330
359
100
AcDbEntity
  8
0
100
AcDbBlockBegin
  2
SW_CENTERMARKSYMBOL_4
 70
     0
 10
0.0
 20
0.0
 30
0.0
  3
SW_CENTERMARKSYMBOL_4
  1

  0
LINE
  5
35C
330
359
100
AcDbEntity
  8
FORMAT
 62
     0
100
AcDbLine
 10
0.0
 20
0.0
 30
0.0
 11
0.0
 21
2.5
 31
0.0
  0
LINE
  5
35D
330
359
100
AcDbEntity
  8
FORMAT
 62
     0
100
AcDbLine
 10
0.0
 20
0.0
 30
0.0
 11
-2.5
 21
0.0
 31
0.0
  0
LINE
  5
35E
330
359
100
AcDbEntity
  8
FORMAT
 62
     0
100
AcDbLine
 10
0.0
 20
0.0
 30
0.0
 11
0.0
 21
-2.5
 31
0.0
  0
LINE
  5
35F
330
359
100
AcDbEntity
  8
FORMAT
 62
     0
100
AcDbLine
 10
0.0
 20
0.0
 30
0.0
 11
2.5
 21
0.0
 31
0.0
  0
LINE
  5
360
330
359
100
AcDbEntity
  8
FORMAT
 62
     0
100
AcDbLine
 10
0.0
 20
5.0
 30
0.0
 11
0.0
 21
21.5
 31
0.0
  0
LINE
  5
361
330
359
100
AcDbEntity
  8
FORMAT
 62
     0
100
AcDbLine
 10
-5.0
 20
0.0
 30
0.0
 11
-21.5
 21
0.0
 31
0.0
  0
LINE
  5
362
330
359
100
AcDbEntity
  8
FORMAT
 62
     0
100
AcDbLine
 10
0.0
 20
-5.0
 30
0.0
 11
0.0
 21
-21.5
 31
0.0
  0
LINE
  5
363
330
359
100
AcDbEntity
  8
FORMAT
 62
     0
100
AcDbLine
 10
5.0
 20
0.0
 30
0.0
 11
21.5
 21
0.0
 31
0.0
  0
ENDBLK
  5
35B
330
359
100
AcDbEntity
  8
0
100
AcDbBlockEnd
  0
BLOCK
  5
366
330
365
100
AcDbEntity
  8
0
100
AcDbBlockBegin
  2
SW_CENTERMARKSYMBOL_5
 70
     0
 10
0.0
 20
0.0
 30
0.0
  3
SW_CENTERMARKSYMBOL_5
  1

  0
LINE
  5
368
330
365
100
AcDbEntity
  8
FORMAT
 62
     0
100
AcDbLine
 10
0.0
 20
0.0
 30
0.0
 11
0.0
 21
2.5
 31
0.0
  0
LINE
  5
369
330
365
100
AcDbEntity
  8
FORMAT
 62
     0
100
AcDbLine
 10
0.0
 20
0.0
 30
0.0
 11
-2.5
 21
0.0
 31
0.0
  0
LINE
  5
36A
330
365
100
AcDbEntity
  8
FORMAT
 62
     0
100
AcDbLine
 10
0.0
 20
0.0
 30
0.0
 11
0.0
 21
-2.5
 31
0.0
  0
LINE
  5
36B
330
365
100
AcDbEntity
  8
FORMAT
 62
     0
100
AcDbLine
 10
0.0
 20
0.0
 30
0.0
 11
2.5
 21
0.0
 31
0.0
  0
LINE
  5
36C
330
365
100
AcDbEntity
  8
FORMAT
 62
     0
100
AcDbLine
 10
0.0
 20
5.0
 30
0.0
 11
0.0
 21
22.1561649764
 31
0.0
  0
LINE
  5
36D
330
365
100
AcDbEntity
  8
FORMAT
 62
     0
100
AcDbLine
 10
-5.0
 20
0.0
 30
0.0
 11
-22.1561649764
 21
0.0
 31
0.0
  0
LINE
  5
36E
330
365
100
AcDbEntity
  8
FORMAT
 62
     0
100
AcDbLine
 10
0.0
 20
-5.0
 30
0.0
 11
0.0
 21
-22.1561649764
 31
0.0
  0
LINE
  5
36F
330
365
100
AcDbEntity
  8
FORMAT
 62
     0
100
AcDbLine
 10
5.0
 20
0.0
 30
0.0
 11
22.1561649764
 21
0.0
 31
0.0
  0
ENDBLK
  5
367
330
365
100
AcDbEntity
  8
0
100
AcDbBlockEnd
  0
BLOCK
  5
372
330
371
100
AcDbEntity
  8
0
100
AcDbBlockBegin
  2
SW_CENTERMARKSYMBOL_6
 70
     0
 10
0.0
 20
0.0
 30
0.0
  3
SW_CENTERMARKSYMBOL_6
  1

  0
LINE
  5
374
330
371
100
AcDbEntity
  8
FORMAT
 62
     0
100
AcDbLine
 10
0.0
 20
0.0
 30
0.0
 11
0.0
 21
2.5
 31
0.0
  0
LINE
  5
375
330
371
100
AcDbEntity
  8
FORMAT
 62
     0
100
AcDbLine
 10
0.0
 20
0.0
 30
0.0
 11
-2.5
 21
0.0
 31
0.0
  0
LINE
  5
376
330
371
100
AcDbEntity
  8
FORMAT
 62
     0
100
AcDbLine
 10
0.0
 20
0.0
 30
0.0
 11
0.0
 21
-2.5
 31
0.0
  0
LINE
  5
377
330
371
100
AcDbEntity
  8
FORMAT
 62
     0
100
AcDbLine
 10
0.0
 20
0.0
 30
0.0
 11
2.5
 21
0.0
 31
0.0
  0
LINE
  5
378
330
371
100
AcDbEntity
  8
FORMAT
 62
     0
100
AcDbLine
 10
0.0
 20
5.0
 30
0.0
 11
0.0
 21
21.5
 31
0.0
  0
LINE
  5
379
330
371
100
AcDbEntity
  8
FORMAT
 62
     0
100
AcDbLine
 10
-5.0
 20
0.0
 30
0.0
 11
-21.5
 21
0.0
 31
0.0
  0
LINE
  5
37A
330
371
100
AcDbEntity
  8
FORMAT
 62
     0
100
AcDbLine
 10
0.0
 20
-5.0
 30
0.0
 11
0.0
 21
-21.5
 31
0.0
  0
LINE
  5
37B
330
371
100
AcDbEntity
  8
FORMAT
 62
     0
100
AcDbLine
 10
5.0
 20
0.0
 30
0.0
 11
21.5
 21
0.0
 31
0.0
  0
ENDBLK
  5
373
330
371
100
AcDbEntity
  8
0
100
AcDbBlockEnd
  0
BLOCK
  5
37E
330
37D
100
AcDbEntity
  8
0
100
AcDbBlockBegin
  2
SW_CENTERMARKSYMBOL_7
 70
     0
 10
0.0
 20
0.0
 30
0.0
  3
SW_CENTERMARKSYMBOL_7
  1

  0
LINE
  5
380
330
37D
100
AcDbEntity
  8
FORMAT
 62
     0
100
AcDbLine
 10
0.0
 20
0.0
 30
0.0
 11
0.0
 21
2.5
 31
0.0
  0
LINE
  5
381
330
37D
100
AcDbEntity
  8
FORMAT
 62
     0
100
AcDbLine
 10
0.0
 20
0.0
 30
0.0
 11
-2.5
 21
0.0
 31
0.0
  0
LINE
  5
382
330
37D
100
AcDbEntity
  8
FORMAT
 62
     0
100
AcDbLine
 10
0.0
 20
0.0
 30
0.0
 11
0.0
 21
-2.5
 31
0.0
  0
LINE
  5
383
330
37D
100
AcDbEntity
  8
FORMAT
 62
     0
100
AcDbLine
 10
0.0
 20
0.0
 30
0.0
 11
2.5
 21
0.0
 31
0.0
  0
LINE
  5
384
330
37D
100
AcDbEntity
  8
FORMAT
 62
     0
100
AcDbLine
 10
0.0
 20
5.0
 30
0.0
 11
0.0
 21
22.1561649764
 31
0.0
  0
LINE
  5
385
330
37D
100
AcDbEntity
  8
FORMAT
 62
     0
100
AcDbLine
 10
-5.0
 20
0.0
 30
0.0
 11
-22.1561649764
 21
0.0
 31
0.0
  0
LINE
  5
386
330
37D
100
AcDbEntity
  8
FORMAT
 62
     0
100
AcDbLine
 10
0.0
 20
-5.0
 30
0.0
 11
0.0
 21
-22.1561649764
 31
0.0
  0
LINE
  5
387
330
37D
100
AcDbEntity
  8
FORMAT
 62
     0
100
AcDbLine
 10
5.0
 20
0.0
 30
0.0
 11
22.1561649764
 21
0.0
 31
0.0
  0
ENDBLK
  5
37F
330
37D
100
AcDbEntity
  8
0
100
AcDbBlockEnd
  0
ENDSEC
  0
SECTION
  2
ENTITIES
  0
LINE
  5
48
330
1F
100
AcDbEntity
  8
TOOLING_TABLE
 62
     7
100
AcDbLine
 10
558.0
 20
36.8671069427
 30
0.0
 11
644.0
 21
36.8671069427
 31
0.0
  0
LINE
  5
49
330
1F
100
AcDbEntity
  8
TOOLING_TABLE
 62
     7
100
AcDbLine
 10
558.0
 20
24.8671069427
 30
0.0
 11
644.0
 21
24.8671069427
 31
0.0
  0
LINE
  5
4A
330
1F
100
AcDbEntity
  8
TOOLING_TABLE
 62
     7
100
AcDbLine
 10
558.0
 20
63.8671069427
 30
0.0
 11
558.0
 21
12.8671069427
 31
0.0
  0
LINE
  5
4B
330
1F
100
AcDbEntity
  8
TOOLING_TABLE
100
AcDbLine
 10
558.0
 20
12.8671069427
 30
0.0
 11
644.0
 21
12.8671069427
 31
0.0
  0
LINE
  5
4C
330
1F
100
AcDbEntity
  8
TOOLING_TABLE
100
AcDbLine
 10
644.0
 20
63.8671069427
 30
0.0
 11
644.0
 21
12.8671069427
 31
0.0
  0
LINE
  5
4D
330
1F
100
AcDbEntity
  8
TOOLING_TABLE
 62
     7
100
AcDbLine
 10
558.0
 20
45.8671069427
 30
0.0
 11
644.0
 21
45.8671069427
 31
0.0
  0
LINE
  5
4E
330
1F
100
AcDbEntity
  8
TOOLING_TABLE
 62
     7
100
AcDbLine
 10
558.0
 20
54.8671069427
 30
0.0
 11
644.0
 21
54.8671069427
 31
0.0
  0
LINE
  5
4F
330
1F
100
AcDbEntity
  8
TOOLING_TABLE
 62
     7
100
AcDbLine
 10
558.0
 20
63.8671069427
 30
0.0
 11
644.0
 21
63.8671069427
 31
0.0
  0
LINE
  5
50
330
1F
100
AcDbEntity
  8
TOOLING_TABLE
 62
     7
100
AcDbLine
 10
601.0
 20
63.8671069427
 30
0.0
 11
601.0
 21
36.8671069427
 31
0.0
  0
LINE
  5
51
330
1F
100
AcDbEntity
  8
TOOLING_TABLE
 62
     7
370
     0
100
AcDbLine
 10
624.0
 20
54.8671069427
 30
0.0
 11
624.0
 21
45.8671069427
 31
0.0
  0
MTEXT
  5
53
330
1F
100
AcDbEntity
  8
TOOLING_TABLE
100
AcDbMText
 10
602.1062783613
 20
54.2702582207
 30
0.0
 40
1.2
 41
0.0
 71
     1
 72
     1
  1
Date:
  7
SLDTEXTSTYLE0
 73
     1
 44
1.0
  0
MTEXT
  5
54
330
1F
100
AcDbEntity
  8
TOOLING_TABLE
100
AcDbMText
 10
603.018097772
 20
49.8283199631
 30
0.0
 40
2.5
 41
0.0
 71
     1
 72
     1
  1
yyyy.mm.dd
  7
SLDTEXTSTYLE0
 73
     1
 44
1.0
  0
MTEXT
  5
55
330
1F
100
AcDbEntity
  8
TOOLING_TABLE
100
AcDbMText
 10
560.201296573
 20
19.1574227188
 30
0.0
 40
2.6458333333
 41
0.0
 71
     1
 72
     1
  1
-
  7
SLDTEXTSTYLE0
 73
     1
 44
1.0
  0
MTEXT
  5
56
330
1F
100
AcDbEntity
  8
TOOLING_TABLE
100
AcDbMText
 10
560.201296573
 20
31.4173726938
 30
0.0
 40
2.6458333333
 41
0.0
 71
     1
 72
     1
  1
-
  7
SLDTEXTSTYLE0
 73
     1
 44
1.0
  0
MTEXT
  5
57
330
1F
100
AcDbEntity
  8
TOOLING_TABLE
100
AcDbMText
 10
560.201296573
 20
41.3865649653
 30
0.0
 40
2.6458333333
 41
0.0
 71
     1
 72
     1
  1
-
  7
SLDTEXTSTYLE0
 73
     1
 44
1.0
  0
MTEXT
  5
58
330
1F
100
AcDbEntity
  8
TOOLING_TABLE
100
AcDbMText
 10
559.8363625628
 20
49.9958228804
 30
0.0
 40
2.6458333333
 41
0.0
 71
     1
 72
     1
  1
-
  7
SLDTEXTSTYLE0
 73
     1
 44
1.0
  0
MTEXT
  5
59
330
1F
100
AcDbEntity
  8
TOOLING_TABLE
100
AcDbMText
 10
603.9499678367
 20
41.662126356
 30
0.0
 40
2.5
 41
0.0
 71
     1
 72
     1
  1
-
  7
SLDTEXTSTYLE0
 73
     1
 44
1.0
  0
MTEXT
  5
5A
330
1F
100
AcDbEntity
  8
TOOLING_TABLE
100
AcDbMText
 10
630.2212650386
 20
50.3962796907
 30
0.0
 40
3.175
 41
0.0
 71
     1
 72
     1
  1
-
  7
SLDTEXTSTYLE0
 73
     1
 44
1.0
  0
MTEXT
  5
5B
330
1F
100
AcDbEntity
  8
TOOLING_TABLE
100
AcDbMText
 10
610.1822179805
 20
60.6243780584
 30
0.0
 40
3.175
 41
0.0
 71
     1
 72
     1
  1
T-
  7
SLDTEXTSTYLE0
 73
     1
 44
1.0
  0
MTEXT
  5
5C
330
1F
100
AcDbEntity
  8
TOOLING_TABLE
 62
     7
100
AcDbMText
 10
559.1184091958
 20
45.4874334828
 30
0.0
 40
1.2
 41
0.0
 71
     1
 72
     1
  1
Not specified chamfer:
  7
SLDTEXTSTYLE0
 73
     1
 44
1.0
  0
MTEXT
  5
5D
330
1F
100
AcDbEntity
  8
TOOLING_TABLE
100
AcDbMText
 10
559.1184091958
 20
54.2702582207
 30
0.0
 40
1.2
 41
0.0
 71
     1
 72
     1
  1
Not specified tolerance:
  7
SLDTEXTSTYLE0
 73
     1
 44
1.0
  0
MTEXT
  5
5E
330
1F
100
AcDbEntity
  8
TOOLING_TABLE
100
AcDbMText
 10
559.1184091958
 20
36.1184577829
 30
0.0
 40
1.2
 41
0.0
 71
     1
 72
     1
  1
Hardening & Surfacing:
  7
SLDTEXTSTYLE0
 73
     1
 44
1.0
  0
MTEXT
  5
5F
330
1F
100
AcDbEntity
  8
TOOLING_TABLE
100
AcDbMText
 10
559.1184091958
 20
24.3382170231
 30
0.0
 40
1.2
 41
0.0
 71
     1
 72
     1
  1
Notes:
  7
SLDTEXTSTYLE0
 73
     1
 44
1.0
  0
MTEXT
  5
60
330
1F
100
AcDbEntity
  8
TOOLING_TABLE
100
AcDbMText
 10
602.1062783613
 20
45.4874334828
 30
0.0
 40
1.2
 41
0.0
 71
     1
 72
     1
  1
Ekstern part no.:
  7
SLDTEXTSTYLE0
 73
     1
 44
1.0
  0
MTEXT
  5
61
330
1F
100
AcDbEntity
  8
TOOLING_TABLE
100
AcDbMText
 10
624.6246212708
 20
54.2702582207
 30
0.0
 40
1.2
 41
0.0
 71
     1
 72
     1
  1
Number:
  7
SLDTEXTSTYLE0
 73
     1
 44
1.0
  0
MTEXT
  5
62
330
1F
100
AcDbEntity
  8
TOOLING_TABLE
100
AcDbMText
 10
601.8747919494
 20
63.2637332969
 30
0.0
 40
1.2
 41
0.0
 71
     1
 72
     1
  1
Order no.:
  7
SLDTEXTSTYLE0
 73
     1
 44
1.0
  0
MTEXT
  5
63
330
1F
100
AcDbEntity
  8
TOOLING_TABLE
100
AcDbMText
 10
561.334242998
 20
60.6243780584
 30
0.0
 40
3.175
 41
0.0
 71
     1
 72
     1
  1
AVK Tech Tooling
  7
SLDTEXTSTYLE0
 73
     1
 44
1.0
  0
LINE
  5
64
330
1F
100
AcDbEntity
  8
0
  6
Continuous
 62
     7
370
    15
100
AcDbLine
 10
-53.7275733596
 20
554.2643330836
 30
0.0
 11
-53.7275733596
 21
658.2643352294
 31
0.0
  0
LINE
  5
65
330
1F
100
AcDbEntity
  8
0
  6
Continuous
 62
     7
370
    15
100
AcDbLine
 10
-73.7275840885
 20
658.2643352294
 30
0.0
 11
-73.7275840885
 21
554.2643330836
 31
0.0
  0
LINE
  5
66
330
1F
100
AcDbEntity
  8
0
  6
Continuous
 62
     7
370
    15
100
AcDbLine
 10
471.7724261635
 20
542.76433213
 30
0.0
 11
427.2724179381
 21
542.76433213
 31
0.0
  0
LINE
  5
67
330
1F
100
AcDbEntity
  8
0
  6
Continuous
 62
     7
370
    15
100
AcDbLine
 10
427.2724179381
 20
417.76433213
 30
0.0
 11
471.7724261635
 21
417.76433213
 31
0.0
  0
LINE
  5
68
330
1F
100
AcDbEntity
  8
0
  6
Continuous
 62
     7
370
    15
100
AcDbLine
 10
-23.2275786048
 20
417.76433213
 30
0.0
 11
-5.727580393
 21
417.76433213
 31
0.0
  0
LINE
  5
69
330
1F
100
AcDbEntity
  8
0
  6
Continuous
 62
     7
370
    15
100
AcDbLine
 10
-5.727580393
 20
542.76433213
 30
0.0
 11
-23.2275786048
 21
542.76433213
 31
0.0
  0
LINE
  5
6A
330
1F
100
AcDbEntity
  8
0
  6
Continuous
 62
     7
370
    15
100
AcDbLine
 10
-102.2275747901
 20
516.7643315935
 30
0.0
 11
-103.2275917179
 21
516.7643315935
 31
0.0
  0
LINE
  5
6B
330
1F
100
AcDbEntity
  8
0
  6
Continuous
 62
     7
370
    15
100
AcDbLine
 10
-103.2275917179
 20
443.7643326664
 30
0.0
 11
-102.2275747901
 21
443.7643326664
 31
0.0
  0
LINE
  5
6C
330
1F
100
AcDbEntity
  8
0
  6
Continuous
 62
     7
370
    15
100
AcDbLine
 10
-102.2275747901
 20
411.2643338585
 30
0.0
 11
-90.2375938541
 21
411.2643338585
 31
0.0
  0
LINE
  5
6D
330
1F
100
AcDbEntity
  8
0
  6
Continuous
 62
     7
370
    15
100
AcDbLine
 10
-29.5475782997
 20
411.2643338585
 30
0.0
 11
-23.2275786048
 21
411.2643338585
 31
0.0
  0
LINE
  5
6E
330
1F
100
AcDbEntity
  8
0
  6
Continuous
 62
     7
370
    15
100
AcDbLine
 10
-23.2275786048
 20
549.2643304014
 30
0.0
 11
-29.5475782997
 21
549.2643304014
 31
0.0
  0
LINE
  5
6F
330
1F
100
AcDbEntity
  8
0
  6
Continuous
 62
     7
370
    15
100
AcDbLine
 10
-90.2375938541
 20
549.2643304014
 30
0.0
 11
-102.2275747901
 21
549.2643304014
 31
0.0
  0
CIRCLE
  5
70
330
1F
100
AcDbEntity
  8
0
  6
Continuous
 62
     7
370
    15
100
AcDbCircle
 10
210.7724187726
 20
475.26433213
 30
0.0
 40
125.0
  0
CIRCLE
  5
71
330
1F
100
AcDbEntity
  8
0
  6
Continuous
 62
     7
370
    15
100
AcDbCircle
 10
210.7724187726
 20
475.26433213
 30
0.0
 40
159.5
  0
LINE
  5
72
330
1F
100
AcDbEntity
  8
0
  6
Continuous
 62
     7
370
    15
100
AcDbLine
 10
215.7724186608
 20
680.2643351102
 30
0.0
 11
250.7724178785
 21
680.2643351102
 31
0.0
  0
LINE
  5
73
330
1F
100
AcDbEntity
  8
0
  6
Continuous
 62
     7
370
    15
100
AcDbLine
 10
250.7724178785
 20
680.2643351102
 30
0.0
 11
260.7724195176
 21
690.2643255735
 31
0.0
  0
LINE
  5
74
330
1F
100
AcDbEntity
  8
0
  6
Continuous
 62
     7
370
    15
100
AcDbLine
 10
260.7724195176
 20
690.2643255735
 30
0.0
 11
295.7724196666
 21
690.2643255735
 31
0.0
  0
LINE
  5
75
330
1F
100
AcDbEntity
  8
0
  6
Continuous
 62
     7
370
    15
100
AcDbLine
 10
295.7724196666
 20
690.2643255735
 30
0.0
 11
295.7724196666
 21
659.0611003184
 31
0.0
  0
ARC
  5
76
330
1F
100
AcDbEntity
  8
0
  6
Continuous
 62
     7
370
    15
100
AcDbCircle
 10
210.7724187726
 20
475.26433213
 30
0.0
 40
202.5
100
AcDbArc
 50
294.8189997873
 51
65.1810002127
  0
LINE
  5
77
330
1F
100
AcDbEntity
  8
0
  6
Continuous
 62
     7
370
    15
100
AcDbLine
 10
295.7724196666
 20
260.2643333221
 30
0.0
 11
295.7724196666
 21
291.4675734782
 31
0.0
  0
LINE
  5
78
330
1F
100
AcDbEntity
  8
0
  6
Continuous
 62
     7
370
    15
100
AcDbLine
 10
260.7724195176
 20
260.2643333221
 30
0.0
 11
295.7724196666
 21
260.2643333221
 31
0.0
  0
LINE
  5
79
330
1F
100
AcDbEntity
  8
0
  6
Continuous
 62
     7
370
    15
100
AcDbLine
 10
250.7724178785
 20
270.2643386865
 30
0.0
 11
260.7724195176
 21
260.2643333221
 31
0.0
  0
LINE
  5
7A
330
1F
100
AcDbEntity
  8
0
  6
Continuous
 62
     7
370
    15
100
AcDbLine
 10
170.7724196666
 20
270.2643386865
 30
0.0
 11
250.7724178785
 21
270.2643386865
 31
0.0
  0
LINE
  5
7B
330
1F
100
AcDbEntity
  8
0
  6
Continuous
 62
     7
370
    15
100
AcDbLine
 10
160.7724180275
 20
260.2643333221
 30
0.0
 11
170.7724196666
 21
270.2643386865
 31
0.0
  0
LINE
  5
7C
330
1F
100
AcDbEntity
  8
0
  6
Continuous
 62
     7
370
    15
100
AcDbLine
 10
125.7724178785
 20
260.2643333221
 30
0.0
 11
160.7724180275
 21
260.2643333221
 31
0.0
  0
LINE
  5
7D
330
1F
100
AcDbEntity
  8
0
  6
Continuous
 62
     7
370
    15
100
AcDbLine
 10
125.7724178785
 20
291.4675734782
 30
0.0
 11
125.7724178785
 21
260.2643333221
 31
0.0
  0
ARC
  5
7E
330
1F
100
AcDbEntity
  8
0
  6
Continuous
 62
     7
370
    15
100
AcDbCircle
 10
210.7724187726
 20
475.26433213
 30
0.0
 40
202.5
100
AcDbArc
 50
114.8189997873
 51
245.1810002127
  0
LINE
  5
7F
330
1F
100
AcDbEntity
  8
0
  6
Continuous
 62
     7
370
    15
100
AcDbLine
 10
125.7724178785
 20
659.0611003184
 30
0.0
 11
125.7724178785
 21
690.2643255735
 31
0.0
  0
LINE
  5
80
330
1F
100
AcDbEntity
  8
0
  6
Continuous
 62
     7
370
    15
100
AcDbLine
 10
125.7724178785
 20
690.2643255735
 30
0.0
 11
160.7724180275
 21
690.2643255735
 31
0.0
  0
LINE
  5
81
330
1F
100
AcDbEntity
  8
0
  6
Continuous
 62
     7
370
    15
100
AcDbLine
 10
160.7724180275
 20
690.2643255735
 30
0.0
 11
170.7724196666
 21
680.2643351102
 31
0.0
  0
LINE
  5
82
330
1F
100
AcDbEntity
  8
0
  6
Continuous
 62
     7
370
    15
100
AcDbLine
 10
170.7724196666
 20
680.2643351102
 30
0.0
 11
205.7724188843
 21
680.2643351102
 31
0.0
  0
LINE
  5
83
330
1F
100
AcDbEntity
  8
0
  6
Continuous
 62
     7
370
    15
100
AcDbLine
 10
205.7724188843
 20
680.2643351102
 30
0.0
 11
210.7724187726
 21
677.2643290305
 31
0.0
  0
LINE
  5
84
330
1F
100
AcDbEntity
  8
0
  6
Continuous
 62
     7
370
    15
100
AcDbLine
 10
210.7724187726
 20
677.2643290305
 30
0.0
 11
215.7724186608
 21
680.2643351102
 31
0.0
  0
CIRCLE
  5
85
330
1F
100
AcDbEntity
  8
0
  6
Continuous
 62
     7
370
    15
100
AcDbCircle
 10
256.0657516655
 20
644.3013517306
 30
0.0
 40
12.49999999999989
  0
CIRCLE
  5
86
330
1F
100
AcDbEntity
  8
0
  6
Continuous
 62
     7
370
    15
100
AcDbCircle
 10
334.5161054802
 20
599.0080188376
 30
0.0
 40
12.50000000000004
  0
CIRCLE
  5
87
330
1F
100
AcDbEntity
  8
0
  6
Continuous
 62
     7
370
    15
100
AcDbCircle
 10
379.8094383731
 20
520.5576650229
 30
0.0
 40
12.50000000000004
  0
CIRCLE
  5
88
330
1F
100
AcDbEntity
  8
0
  6
Continuous
 62
     7
370
    15
100
AcDbCircle
 10
379.8094383732
 20
429.970999237
 30
0.0
 40
12.49999999999994
  0
CIRCLE
  5
89
330
1F
100
AcDbEntity
  8
0
  6
Continuous
 62
     7
370
    15
100
AcDbCircle
 10
334.5161054802
 20
351.5206454223
 30
0.0
 40
12.50000000000002
  0
CIRCLE
  5
8A
330
1F
100
AcDbEntity
  8
0
  6
Continuous
 62
     7
370
    15
100
AcDbCircle
 10
256.0657516655
 20
306.2273125294
 30
0.0
 40
12.5
  0
CIRCLE
  5
8B
330
1F
100
AcDbEntity
  8
0
  6
Continuous
 62
     7
370
    15
100
AcDbCircle
 10
165.4790858796
 20
306.2273125294
 30
0.0
 40
12.5
  0
CIRCLE
  5
8C
330
1F
100
AcDbEntity
  8
0
  6
Continuous
 62
     7
370
    15
100
AcDbCircle
 10
87.0287320649
 20
351.5206454223
 30
0.0
 40
12.50000000000003
  0
CIRCLE
  5
8D
330
1F
100
AcDbEntity
  8
0
  6
Continuous
 62
     7
370
    15
100
AcDbCircle
 10
41.735399172
 20
429.970999237
 30
0.0
 40
12.50000000000001
  0
CIRCLE
  5
8E
330
1F
100
AcDbEntity
  8
0
  6
Continuous
 62
     7
370
    15
100
AcDbCircle
 10
41.735399172
 20
520.5576650229
 30
0.0
 40
12.50000000000001
  0
CIRCLE
  5
8F
330
1F
100
AcDbEntity
  8
0
  6
Continuous
 62
     7
370
    15
100
AcDbCircle
 10
87.0287320649
 20
599.0080188376
 30
0.0
 40
12.49999999999999
  0
CIRCLE
  5
90
330
1F
100
AcDbEntity
  8
0
  6
Continuous
 62
     7
370
    15
100
AcDbCircle
 10
165.4790858796
 20
644.3013517306
 30
0.0
 40
12.49999999999998
  0
LINE
  5
91
330
1F
100
AcDbEntity
  8
0
  6
Continuous
 62
     7
370
    15
100
AcDbLine
 10
-102.2275747901
 20
417.2643311167
 30
0.0
 11
-102.2275747901
 21
427.2643327558
 31
0.0
  0
SPLINE
  5
92
330
1F
100
AcDbEntity
  8
0
  6
Continuous
 62
     7
370
    15
100
AcDbSpline
210
0.0
220
0.0
230
1.0
 70
     8
 71
     3
 72
    32
 73
    28
 74
     0
 42
0.00000001
 43
0.00000001
 12
1.0
 22
0.0
 32
0.0
 13
1.0
 23
0.0
 33
0.0
 40
0.0
 40
0.0
 40
0.0
 40
0.0
 40
0.0156250000000015
 40
0.0156250000000015
 40
0.0312500000000029
 40
0.0312500000000029
 40
0.0625000000000024
 40
0.0625000000000024
 40
0.0937500000000018
 40
0.0937500000000018
 40
0.1250000000000012
 40
0.1250000000000012
 40
0.187500000000001
 40
0.187500000000001
 40
0.2500000000000007
 40
0.2500000000000007
 40
0.3750000000000005
 40
0.3750000000000005
 40
0.5000000000000003
 40
0.5000000000000003
 40
0.6250000000000001
 40
0.6250000000000001
 40
0.75
 40
0.75
 40
0.875
 40
0.875
 40
1.0
 40
1.0
 40
1.0
 40
1.0
 10
-57.87523127207278
 20
427.2643321299642
 30
0.0
 10
-57.87523127207284
 20
427.1312930411167
 30
0.0
 10
-57.85979889268084
 20
427.0012365944881
 30
0.0
 10
-57.80234511961746
 20
426.746266196105
 30
0.0
 10
-57.75975619068963
 20
426.6201646991209
 30
0.0
 10
-57.60329223665661
 20
426.2586285903558
 30
0.0
 10
-57.46316419087333
 20
426.0390834023989
 30
0.0
 10
-57.14509775927024
 20
425.6229113280571
 30
0.0
 10
-56.97061920730489
 20
425.4314989238114
 30
0.0
 10
-56.60664245460395
 20
425.0681299520427
 30
0.0
 10
-56.416591868231
 20
424.8961295388054
 30
0.0
 10
-55.83173875842346
 20
424.3984742480269
 30
0.0
 10
-55.42129246157551
 20
424.0897954464242
 30
0.0
 10
-54.58941441291049
 20
423.5019773764687
 30
0.0
 10
-54.16839654941769
 20
423.2238340648619
 30
0.0
 10
-52.89917081641177
 20
422.4202422401813
 30
0.0
 10
-52.04507128681746
 20
421.9250574483658
 30
0.0
 10
-50.33627803983359
 20
420.9905124742612
 30
0.0
 10
-49.48107456897144
 20
420.5520642659751
 30
0.0
 10
-47.77228409430256
 20
419.7321829127337
 30
0.0
 10
-46.9151106799135
 20
419.349708094854
 30
0.0
 10
-45.23663980126907
 20
418.6666337091419
 30
0.0
 10
-44.41181535981809
 20
418.3640926204741
 30
0.0
 10
-42.790529946592
 20
417.8526758878311
 30
0.0
 10
-41.99408261631554
 20
417.643531838354
 30
0.0
 10
-40.42846917980691
 20
417.3481776114775
 30
0.0
 10
-39.67091945523188
 20
417.2643321299642
 30
0.0
 10
-38.94351376464861
 20
417.2643321299642
 30
0.0
  0
LINE
  5
93
330
1F
100
AcDbEntity
  8
0
  6
Continuous
 62
     7
370
    15
100
AcDbLine
 10
-38.9435203916
 20
417.2643311167
 30
0.0
 11
-42.2765376216
 21
417.2643311167
 31
0.0
  0
SPLINE
  5
94
330
1F
100
AcDbEntity
  8
0
  6
Continuous
 62
     7
370
    15
100
AcDbSpline
210
0.0
220
0.0
230
1.0
 70
     8
 71
     3
 72
    24
 73
    20
 74
     0
 42
0.00000001
 43
0.00000001
 12
1.0
 22
0.0
 32
0.0
 13
1.0
 23
0.0
 33
0.0
 40
0.0
 40
0.0
 40
0.0
 40
0.0
 40
0.1250000000000107
 40
0.1250000000000107
 40
0.2500000000000214
 40
0.2500000000000214
 40
0.3125000000000232
 40
0.3125000000000232
 40
0.375000000000025
 40
0.375000000000025
 40
0.5000000000000223
 40
0.5000000000000223
 40
0.7500000000000172
 40
0.7500000000000172
 40
0.8125000000000113
 40
0.8125000000000113
 40
0.8750000000000053
 40
0.8750000000000053
 40
1.0
 40
1.0
 40
1.0
 40
1.0
 10
-64.54758122743681
 20
421.2643321299641
 30
0.0
 10
-63.52405112300302
 20
421.2643321299641
 30
0.0
 10
-62.50943105166134
 20
421.2034070303685
 30
0.0
 10
-60.49598680509666
 20
420.9793172725414
 30
0.0
 10
-59.49710787730012
 20
420.8167500968918
 30
0.0
 10
-58.00818613271391
 20
420.5231058397989
 30
0.0
 10
-57.51245010140588
 20
420.4167325422638
 30
0.0
 10
-56.5329919956099
 20
420.1942113842913
 30
0.0
 10
-56.04830058797339
 20
420.0779088307556
 30
0.0
 10
-54.60755016507785
 20
419.7204460112338
 30
0.0
 10
-53.66472782605941
 20
419.4709266395005
 30
0.0
 10
-50.87880732718059
 20
418.7321667983426
 30
0.0
 10
-49.07781292654401
 20
418.2516160982904
 30
0.0
 10
-46.876480305096
 20
417.7917510056132
 30
0.0
 10
-46.43782574257688
 20
417.7067702341454
 30
0.0
 10
-45.57405282748734
 20
417.5563781762327
 30
0.0
 10
-45.14808249282603
 20
417.4907537226962
 30
0.0
 10
-43.88764642666931
 20
417.3279561834678
 30
0.0
 10
-43.07062983717613
 20
417.2643325661102
 30
0.0
 10
-42.27653184849989
 20
417.2643321299664
 30
0.0
  0
LINE
  5
95
330
1F
100
AcDbEntity
  8
0
  6
Continuous
 62
     7
370
    15
100
AcDbLine
 10
-90.2375938541
 20
421.2643317723
 30
0.0
 11
-64.5475747234
 21
421.2643317723
 31
0.0
  0
LINE
  5
96
330
1F
100
AcDbEntity
  8
0
  6
Continuous
 62
     7
370
    15
100
AcDbLine
 10
-90.2375938541
 20
417.2643311167
 30
0.0
 11
-102.2275747901
 21
417.2643311167
 31
0.0
  0
LINE
  5
97
330
1F
100
AcDbEntity
  8
0
  6
Continuous
 62
     7
370
    15
100
AcDbLine
 10
-29.5475782997
 20
417.2643311167
 30
0.0
 11
-29.5475782997
 21
543.2643331432
 31
0.0
  0
LINE
  5
98
330
1F
100
AcDbEntity
  8
0
  6
Continuous
 62
     7
370
    15
100
AcDbLine
 10
-29.5475782997
 20
417.2643311167
 30
0.0
 11
-38.9435203916
 21
417.2643311167
 31
0.0
  0
LINE
  5
99
330
1F
100
AcDbEntity
  8
0
  6
Continuous
 62
     7
370
    15
100
AcDbLine
 10
-57.875222171
 20
427.2643327558
 30
0.0
 11
-57.875222171
 21
533.2643315041
 31
0.0
  0
SPLINE
  5
9A
330
1F
100
AcDbEntity
  8
0
  6
Continuous
 62
     7
370
    15
100
AcDbSpline
210
0.0
220
0.0
230
1.0
 70
     8
 71
     3
 72
    34
 73
    30
 74
     0
 42
0.00000001
 43
0.00000001
 12
1.0
 22
0.0
 32
0.0
 13
1.0
 23
0.0
 33
0.0
 40
0.0
 40
0.0
 40
0.0
 40
0.0
 40
0.1249999999999944
 40
0.1249999999999944
 40
0.2499999999999888
 40
0.2499999999999888
 40
0.312499999999986
 40
0.312499999999986
 40
0.3749999999999831
 40
0.3749999999999831
 40
0.4999999999999835
 40
0.4999999999999835
 40
0.6249999999999839
 40
0.6249999999999839
 40
0.6874999999999867
 40
0.6874999999999867
 40
0.7499999999999893
 40
0.7499999999999893
 40
0.8124999999999921
 40
0.8124999999999921
 40
0.8749999999999949
 40
0.8749999999999949
 40
0.9062499999999962
 40
0.9062499999999962
 40
0.9374999999999974
 40
0.9374999999999974
 40
0.9687499999999988
 40
0.9687499999999988
 40
1.0
 40
1.0
 40
1.0
 40
1.0
 10
-38.94351376464861
 20
543.2643321299641
 30
0.0
 10
-39.6722663414707
 20
543.2643321299641
 30
0.0
 10
-40.42355544574777
 20
543.1807104137849
 30
0.0
 10
-41.9713240480356
 20
542.890116602392
 30
0.0
 10
-42.76778915111657
 20
542.6826545631039
 30
0.0
 10
-43.99670119434901
 20
542.2957619379407
 30
0.0
 10
-44.41140189853022
 20
542.1541971528221
 30
0.0
 10
-45.24128126719246
 20
541.8518405682427
 30
0.0
 10
-45.65781661406709
 20
541.6906295031216
 30
0.0
 10
-46.91245325541599
 20
541.1800335537473
 30
0.0
 10
-47.75565032483442
 20
540.8039840421067
 30
0.0
 10
-49.45545330928574
 20
539.9893596125956
 30
0.0
 10
-50.31215383770665
 20
539.5509467094984
 30
0.0
 10
-51.60488307272021
 20
538.8445408806364
 30
0.0
 10
-52.03745945551042
 20
538.6005815882384
 30
0.0
 10
-52.89821045562925
 20
538.0972734242246
 30
0.0
 10
-53.32706304447549
 20
537.8376540853849
 30
0.0
 10
-54.17890384036256
 20
537.2980292003411
 30
0.0
 10
-54.60218526960136
 20
537.0180496509838
 30
0.0
 10
-55.43295946338317
 20
536.4302263355758
 30
0.0
 10
-55.84259792443736
 20
536.1217192358931
 30
0.0
 10
-56.42719054564371
 20
535.623115546605
 30
0.0
 10
-56.6168461803187
 20
535.4509587386854
 30
0.0
 10
-56.9792194756556
 20
535.0879358316791
 30
0.0
 10
-57.15220409031829
 20
534.8973508005831
 30
0.0
 10
-57.4674501019119
 20
534.4830439879419
 30
0.0
 10
-57.60700765432203
 20
534.2633155061542
 30
0.0
 10
-57.81364676242362
 20
533.7820618139662
 30
0.0
 10
-57.87523127207278
 20
533.5286863258772
 30
0.0
 10
-57.87523127207278
 20
533.2643321299643
 30
0.0
  0
LINE
  5
9B
330
1F
100
AcDbEntity
  8
0
  6
Continuous
 62
     7
370
    15
100
AcDbLine
 10
-38.9435203916
 20
543.2643331432
 30
0.0
 11
-29.5475782997
 21
543.2643331432
 31
0.0
  0
LINE
  5
9C
330
1F
100
AcDbEntity
  8
0
  6
Continuous
 62
     7
370
    15
100
AcDbLine
 10
-102.2275747901
 20
427.2643327558
 30
0.0
 11
-102.2275747901
 21
533.2643315041
 31
0.0
  0
SPLINE
  5
9D
330
1F
100
AcDbEntity
  8
0
  6
Continuous
 62
     7
370
    15
100
AcDbSpline
210
0.0
220
0.0
230
1.0
 70
     8
 71
     3
 72
    24
 73
    20
 74
     0
 42
0.00000001
 43
0.00000001
 12
1.0
 22
0.0
 32
0.0
 13
1.0
 23
0.0
 33
0.0
 40
0.0
 40
0.0
 40
0.0
 40
0.0
 40
0.1250000000000068
 40
0.1250000000000068
 40
0.2500000000000136
 40
0.2500000000000136
 40
0.5000000000000261
 40
0.5000000000000261
 40
0.5625000000000261
 40
0.5625000000000261
 40
0.625000000000026
 40
0.625000000000026
 40
0.7500000000000195
 40
0.7500000000000195
 40
0.8750000000000132
 40
0.8750000000000132
 40
0.9375000000000066
 40
0.9375000000000066
 40
1.0
 40
1.0
 40
1.0
 40
1.0
 10
-42.27653142851068
 20
543.2643321299622
 30
0.0
 10
-43.06466556627097
 20
543.2643317196153
 30
0.0
 10
-43.88168300663759
 20
543.2014766725296
 30
0.0
 10
-45.57409484413577
 20
542.982888548769
 30
0.0
 10
-46.43405953501794
 20
542.8291507773536
 30
0.0
 10
-49.05429274845297
 20
542.2823297076294
 30
0.0
 10
-50.85621830504239
 20
541.8024947483183
 30
0.0
 10
-53.19792339956047
 20
541.1815212612594
 30
0.0
 10
-53.67174848514689
 20
541.0560515813554
 30
0.0
 10
-54.62288379952634
 20
540.808256517533
 30
0.0
 10
-55.10045962990606
 20
540.6858559563376
 30
0.0
 10
-56.54009965735835
 20
540.3288726355705
 30
0.0
 10
-57.50902746073194
 20
540.1043322215933
 30
0.0
 10
-59.47108332088374
 20
539.716721507707
 30
0.0
 10
-60.46425039594244
 20
539.5538982784922
 30
0.0
 10
-61.97742206023837
 20
539.3839806930223
 30
0.0
 10
-62.4857217175887
 20
539.3397285314019
 30
0.0
 10
-63.51094478505809
 20
539.2798748622885
 30
0.0
 10
-64.03051013998467
 20
539.2643321299643
 30
0.0
 10
-64.5475812274367
 20
539.2643321299643
 30
0.0
  0
LINE
  5
9E
330
1F
100
AcDbEntity
  8
0
  6
Continuous
 62
     7
370
    15
100
AcDbLine
 10
-42.2765376216
 20
543.2643331432
 30
0.0
 11
-38.9435203916
 21
543.2643331432
 31
0.0
  0
LINE
  5
9F
330
1F
100
AcDbEntity
  8
0
  6
Continuous
 62
     7
370
    15
100
AcDbLine
 10
-102.2275747901
 20
543.2643331432
 30
0.0
 11
-90.2375938541
 21
543.2643331432
 31
0.0
  0
LINE
  5
A0
330
1F
100
AcDbEntity
  8
0
  6
Continuous
 62
     7
370
    15
100
AcDbLine
 10
-64.5475747234
 20
539.2643324876
 30
0.0
 11
-90.2375938541
 21
539.2643324876
 31
0.0
  0
LINE
  5
A1
330
1F
100
AcDbEntity
  8
0
  6
Continuous
 62
     7
370
    15
100
AcDbLine
 10
-102.2275747901
 20
533.2643315041
 30
0.0
 11
-102.2275747901
 21
543.2643331432
 31
0.0
  0
LINE
  5
A2
330
1F
100
AcDbEntity
  8
0
  6
Continuous
 62
     7
370
    15
100
AcDbLine
 10
8.2878557795
 20
472.7643322976
 30
0.0
 11
-5.9282990343
 21
472.7643322976
 31
0.0
  0
ELLIPSE
  5
A3
330
1F
100
AcDbEntity
  8
0
  6
Continuous
 62
     7
370
    15
100
AcDbEllipse
 10
-33.5053590052
 20
480.26433213
 30
0.0
 11
0.0
 21
62.49999999999994
 31
0.0
210
0.0
220
0.0
230
1.0
 40
0.4444444444
 41
4.592099097989907
 42
4.832678862779485
  0
LINE
  5
A4
330
1F
100
AcDbEntity
  8
0
  6
Continuous
 62
     7
370
    15
100
AcDbLine
 10
8.65859667
 20
487.7643319623
 30
0.0
 11
-5.9282990343
 21
487.7643319623
 31
0.0
  0
ELLIPSE
  5
A5
330
1F
100
AcDbEntity
  8
0
  6
Continuous
 62
     7
370
    15
100
AcDbEllipse
 10
455.0501965503
 20
480.26433213
 30
0.0
 11
0.0
 21
62.49999999999994
 31
0.0
210
0.0
220
0.0
230
1.0
 40
0.4444444444
 41
1.450506444400108
 42
1.691086209189686
  0
LINE
  5
A6
330
1F
100
AcDbEntity
  8
0
  6
Continuous
 62
     7
370
    15
100
AcDbLine
 10
412.8862408751
 20
487.7643319623
 30
0.0
 11
427.4731365794
 21
487.7643319623
 31
0.0
  0
LINE
  5
A7
330
1F
100
AcDbEntity
  8
0
  6
Continuous
 62
     7
370
    15
100
AcDbLine
 10
413.2569817656
 20
472.7643322976
 30
0.0
 11
427.4731365794
 21
472.7643322976
 31
0.0
  0
LINE
  5
A8
330
1F
100
AcDbEntity
  8
0
  6
Continuous
 62
     7
370
    15
100
AcDbLine
 10
-64.5475747234
 20
406.2643311763
 30
0.0
 11
-29.5475782997
 21
406.2643311763
 31
0.0
  0
LINE
  5
A9
330
1F
100
AcDbEntity
  8
0
  6
Continuous
 62
     7
370
    15
100
AcDbLine
 10
-29.5475782997
 20
417.2643311167
 30
0.0
 11
-29.5475782997
 21
406.2643311763
 31
0.0
  0
LINE
  5
AA
330
1F
100
AcDbEntity
  8
0
  6
Continuous
 62
     7
370
    15
100
AcDbLine
 10
-90.2375938541
 20
406.2643311763
 30
0.0
 11
-64.5475747234
 21
406.2643311763
 31
0.0
  0
LINE
  5
AB
330
1F
100
AcDbEntity
  8
0
  6
Continuous
 62
     7
370
    15
100
AcDbLine
 10
-90.2375938541
 20
421.2643317723
 30
0.0
 11
-90.2375938541
 21
406.2643311763
 31
0.0
  0
LINE
  5
AC
330
1F
100
AcDbEntity
  8
0
  6
Continuous
 62
     7
370
    15
100
AcDbLine
 10
-64.5475747234
 20
554.2643330836
 30
0.0
 11
-29.5475782997
 21
554.2643330836
 31
0.0
  0
LINE
  5
AD
330
1F
100
AcDbEntity
  8
0
  6
Continuous
 62
     7
370
    15
100
AcDbLine
 10
-29.5475782997
 20
554.2643330836
 30
0.0
 11
-29.5475782997
 21
543.2643331432
 31
0.0
  0
LINE
  5
AE
330
1F
100
AcDbEntity
  8
0
  6
Continuous
 62
     7
370
    15
100
AcDbLine
 10
-90.2375938541
 20
554.2643330836
 30
0.0
 11
-64.5475747234
 21
554.2643330836
 31
0.0
  0
LINE
  5
AF
330
1F
100
AcDbEntity
  8
0
  6
Continuous
 62
     7
370
    15
100
AcDbLine
 10
-90.2375938541
 20
554.2643330836
 30
0.0
 11
-90.2375938541
 21
539.2643324876
 31
0.0
  0
LINE
  5
B0
330
1F
100
AcDbEntity
  8
0
  6
Continuous
 62
     7
370
    15
100
AcDbLine
 10
-84.1875733978
 20
402.2643305206
 30
0.0
 11
-79.1875781661
 21
402.2643305206
 31
0.0
  0
LINE
  5
B1
330
1F
100
AcDbEntity
  8
0
  6
Continuous
 62
     7
370
    15
100
AcDbLine
 10
-84.1875733978
 20
406.2643311763
 30
0.0
 11
-84.1875733978
 21
402.2643305206
 31
0.0
  0
LINE
  5
B2
330
1F
100
AcDbEntity
  8
0
  6
Continuous
 62
     7
370
    15
100
AcDbLine
 10
-79.1875781661
 20
406.2643311763
 30
0.0
 11
-79.1875781661
 21
402.2643305206
 31
0.0
  0
LINE
  5
B3
330
1F
100
AcDbEntity
  8
0
  6
Continuous
 62
     7
370
    15
100
AcDbLine
 10
-89.1875686294
 20
402.2643305206
 30
0.0
 11
-84.1875733978
 21
402.2643305206
 31
0.0
  0
LINE
  5
B4
330
1F
100
AcDbEntity
  8
0
  6
Continuous
 62
     7
370
    15
100
AcDbLine
 10
-89.1875686294
 20
406.2643311763
 30
0.0
 11
-89.1875686294
 21
402.2643305206
 31
0.0
  0
LINE
  5
B5
330
1F
100
AcDbEntity
  8
0
  6
Continuous
 62
     7
370
    15
100
AcDbLine
 10
-84.1875733978
 20
558.2643337393
 30
0.0
 11
-84.1875733978
 21
554.2643330836
 31
0.0
  0
LINE
  5
B6
330
1F
100
AcDbEntity
  8
0
  6
Continuous
 62
     7
370
    15
100
AcDbLine
 10
-84.1875733978
 20
558.2643337393
 30
0.0
 11
-79.1875781661
 21
558.2643337393
 31
0.0
  0
LINE
  5
B7
330
1F
100
AcDbEntity
  8
0
  6
Continuous
 62
     7
370
    15
100
AcDbLine
 10
-79.1875781661
 20
558.2643337393
 30
0.0
 11
-79.1875781661
 21
554.2643330836
 31
0.0
  0
LINE
  5
B8
330
1F
100
AcDbEntity
  8
0
  6
Continuous
 62
     7
370
    15
100
AcDbLine
 10
-89.1875686294
 20
558.2643337393
 30
0.0
 11
-89.1875686294
 21
554.2643330836
 31
0.0
  0
LINE
  5
B9
330
1F
100
AcDbEntity
  8
0
  6
Continuous
 62
     7
370
    15
100
AcDbLine
 10
-89.1875686294
 20
558.2643337393
 30
0.0
 11
-84.1875733978
 21
558.2643337393
 31
0.0
  0
LINE
  5
BA
330
1F
100
AcDbEntity
  8
0
  6
Continuous
 62
     7
370
    15
100
AcDbLine
 10
-44.2327620632
 20
402.2643305206
 30
0.0
 11
-39.8509564048
 21
402.2643305206
 31
0.0
  0
LINE
  5
BB
330
1F
100
AcDbEntity
  8
0
  6
Continuous
 62
     7
370
    15
100
AcDbLine
 10
-44.2327620632
 20
406.2643311763
 30
0.0
 11
-44.2327620632
 21
402.2643305206
 31
0.0
  0
LINE
  5
BC
330
1F
100
AcDbEntity
  8
0
  6
Continuous
 62
     7
370
    15
100
AcDbLine
 10
-39.8509564048
 20
406.2643311763
 30
0.0
 11
-39.8509564048
 21
402.2643305206
 31
0.0
  0
LINE
  5
BD
330
1F
100
AcDbEntity
  8
0
  6
Continuous
 62
     7
370
    15
100
AcDbLine
 10
-49.6794047004
 20
406.2643311763
 30
0.0
 11
-49.6794047004
 21
402.2643305206
 31
0.0
  0
LINE
  5
BE
330
1F
100
AcDbEntity
  8
0
  6
Continuous
 62
     7
370
    15
100
AcDbLine
 10
-49.6794047004
 20
402.2643305206
 30
0.0
 11
-44.2327620632
 21
402.2643305206
 31
0.0
  0
LINE
  5
BF
330
1F
100
AcDbEntity
  8
0
  6
Continuous
 62
     7
370
    15
100
AcDbLine
 10
-49.6794047004
 20
558.2643337393
 30
0.0
 11
-49.6794047004
 21
554.2643330836
 31
0.0
  0
LINE
  5
C0
330
1F
100
AcDbEntity
  8
0
  6
Continuous
 62
     7
370
    15
100
AcDbLine
 10
-49.6794047004
 20
558.2643337393
 30
0.0
 11
-44.2327620632
 21
558.2643337393
 31
0.0
  0
LINE
  5
C1
330
1F
100
AcDbEntity
  8
0
  6
Continuous
 62
     7
370
    15
100
AcDbLine
 10
-44.2327620632
 20
558.2643337393
 30
0.0
 11
-44.2327620632
 21
554.2643330836
 31
0.0
  0
LINE
  5
C2
330
1F
100
AcDbEntity
  8
0
  6
Continuous
 62
     7
370
    15
100
AcDbLine
 10
-44.2327620632
 20
558.2643337393
 30
0.0
 11
-39.8509564048
 21
558.2643337393
 31
0.0
  0
LINE
  5
C3
330
1F
100
AcDbEntity
  8
0
  6
Continuous
 62
     7
370
    15
100
AcDbLine
 10
-39.8509564048
 20
558.2643337393
 30
0.0
 11
-39.8509564048
 21
554.2643330836
 31
0.0
  0
LINE
  5
C4
330
1F
100
AcDbEntity
  8
0
  6
Continuous
 62
     7
370
    15
100
AcDbLine
 10
-50.744211877
 20
406.2643311763
 30
0.0
 11
-50.744211877
 21
402.2643305206
 31
0.0
  0
LINE
  5
C5
330
1F
100
AcDbEntity
  8
0
  6
Continuous
 62
     7
370
    15
100
AcDbLine
 10
-50.744211877
 20
402.2643305206
 30
0.0
 11
-49.6794047004
 21
402.2643305206
 31
0.0
  0
LINE
  5
C6
330
1F
100
AcDbEntity
  8
0
  6
Continuous
 62
     7
370
    15
100
AcDbLine
 10
-50.744211877
 20
558.2643337393
 30
0.0
 11
-50.744211877
 21
554.2643330836
 31
0.0
  0
LINE
  5
C7
330
1F
100
AcDbEntity
  8
0
  6
Continuous
 62
     7
370
    15
100
AcDbLine
 10
-50.744211877
 20
558.2643337393
 30
0.0
 11
-49.6794047004
 21
558.2643337393
 31
0.0
  0
LINE
  5
C8
330
1F
100
AcDbEntity
  8
0
  6
Continuous
 62
     7
370
    15
100
AcDbLine
 10
-73.7275840885
 20
658.2643352294
 30
0.0
 11
-53.7275733596
 21
658.2643352294
 31
0.0
  0
LINE
  5
C9
330
1F
100
AcDbEntity
  8
0
  6
Continuous
 62
     7
370
    15
100
AcDbLine
 10
-23.2275786048
 20
543.2643331432
 30
0.0
 11
-23.2275786048
 21
417.2643311167
 31
0.0
  0
LINE
  5
CA
330
1F
100
AcDbEntity
  8
0
  6
Continuous
 62
     7
370
    15
100
AcDbLine
 10
-29.5475782997
 20
543.2643331432
 30
0.0
 11
-23.2275786048
 21
543.2643331432
 31
0.0
  0
LINE
  5
CB
330
1F
100
AcDbEntity
  8
0
  6
Continuous
 62
     7
370
    15
100
AcDbLine
 10
-23.2275786048
 20
417.2643311167
 30
0.0
 11
-29.5475782997
 21
417.2643311167
 31
0.0
  0
LINE
  5
CC
330
1F
100
AcDbEntity
  8
0
  6
Continuous
 62
     7
370
    15
100
AcDbLine
 10
471.7724261635
 20
542.76433213
 30
0.0
 11
471.7724261635
 21
417.76433213
 31
0.0
  0
LINE
  5
CD
330
1F
100
AcDbEntity
  8
0
  6
Continuous
 62
     7
370
    15
100
AcDbLine
 10
427.2724179381
 20
542.76433213
 30
0.0
 11
427.2724179381
 21
487.7643319623
 31
0.0
  0
LINE
  5
CE
330
1F
100
AcDbEntity
  8
0
  6
Continuous
 62
     7
370
    15
100
AcDbLine
 10
427.2724179381
 20
472.7643322976
 30
0.0
 11
427.2724179381
 21
417.76433213
 31
0.0
  0
LINE
  5
CF
330
1F
100
AcDbEntity
  8
0
  6
Continuous
 62
     7
370
    15
100
AcDbLine
 10
-5.727580393
 20
542.76433213
 30
0.0
 11
-5.727580393
 21
487.7643319623
 31
0.0
  0
LINE
  5
D0
330
1F
100
AcDbEntity
  8
0
  6
Continuous
 62
     7
370
    15
100
AcDbLine
 10
-5.727580393
 20
472.7643322976
 30
0.0
 11
-5.727580393
 21
417.76433213
 31
0.0
  0
SPLINE
  5
D1
330
1F
100
AcDbEntity
  8
0
  6
Continuous
 62
     7
370
    15
100
AcDbSpline
210
0.0
220
0.0
230
1.0
 70
     8
 71
     3
 72
     9
 73
     5
 74
     0
 42
0.00000001
 43
0.00000001
 12
1.0
 22
0.0
 32
0.0
 13
1.0
 23
0.0
 33
0.0
 40
0.0
 40
0.0
 40
0.0
 40
0.0
 40
0.5123579302795618
 40
1.0
 40
1.0
 40
1.0
 40
1.0
 10
427.2724179380982
 20
441.8394379162874
 30
0.0
 10
424.6275994222004
 20
443.3965215393638
 30
0.0
 10
419.465546959277
 20
446.4355759407016
 30
0.0
 10
414.316850973056
 20
449.4972031646068
 30
0.0
 10
411.8061302059739
 20
450.9901814007845
 30
0.0
  0
SPLINE
  5
D2
330
1F
100
AcDbEntity
  8
0
  6
Continuous
 62
     7
370
    15
100
AcDbSpline
210
0.0
220
0.0
230
1.0
 70
     8
 71
     3
 72
     8
 73
     4
 74
     0
 42
0.00000001
 43
0.00000001
 12
1.0
 22
0.0
 32
0.0
 13
1.0
 23
0.0
 33
0.0
 40
0.0
 40
0.0
 40
0.0
 40
0.0
 40
1.0
 40
1.0
 40
1.0
 40
1.0
 10
-5.727581227436773
 20
518.6892264043792
 30
0.0
 10
-0.4368116990494109
 20
515.5769561539105
 30
0.0
 10
4.848493418692451
 20
512.4554340995703
 30
0.0
 10
10.1206836618184
 20
509.3117072265194
 30
0.0
  0
LINE
  5
D3
330
1F
100
AcDbEntity
  8
0
  6
Continuous
 62
     7
370
    15
100
AcDbLine
 10
10.1206837052
 20
509.3117076749
 30
0.0
 11
10.1206837052
 21
502.5614239121
 31
0.0
  0
SPLINE
  5
D4
330
1F
100
AcDbEntity
  8
0
  6
Continuous
 62
     7
370
    15
100
AcDbSpline
210
0.0
220
0.0
230
1.0
 70
     8
 71
     3
 72
     9
 73
     5
 74
     0
 42
0.00000001
 43
0.00000001
 12
1.0
 22
0.0
 32
0.0
 13
1.0
 23
0.0
 33
0.0
 40
0.0
 40
0.0
 40
0.0
 40
0.0
 40
0.4876412461030478
 40
1.0
 40
1.0
 40
1.0
 40
1.0
 10
9.738796746119771
 20
450.9902428680744
 30
0.0
 10
7.228066209250733
 20
449.497256284436
 30
0.0
 10
2.07934149218994
 20
446.43560677146
 30
0.0
 10
-3.082741819752599
 20
443.3965336392885
 30
0.0
 10
-5.727580392971721
 20
441.8394379162874
 30
0.0
  0
LINE
  5
D5
330
1F
100
AcDbEntity
  8
0
  6
Continuous
 62
     7
370
    15
100
AcDbLine
 10
411.4241538399
 20
502.5614239121
 30
0.0
 11
411.4241538399
 21
509.3117076749
 31
0.0
  0
SPLINE
  5
D6
330
1F
100
AcDbEntity
  8
0
  6
Continuous
 62
     7
370
    15
100
AcDbSpline
210
0.0
220
0.0
230
1.0
 70
     8
 71
     3
 72
     8
 73
     4
 74
     0
 42
0.00000001
 43
0.00000001
 12
1.0
 22
0.0
 32
0.0
 13
1.0
 23
0.0
 33
0.0
 40
0.0
 40
0.0
 40
0.0
 40
0.0
 40
1.0
 40
1.0
 40
1.0
 40
1.0
 10
411.4241538833081
 20
509.3117072265194
 30
0.0
 10
416.6963471544103
 20
512.4554359051066
 30
0.0
 10
421.9816515493396
 20
515.5769575099122
 30
0.0
 10
427.2724187725633
 20
518.6892264043792
 30
0.0
  0
LINE
  5
D7
330
1F
100
AcDbEntity
  8
0
  6
Continuous
 62
     7
370
    15
100
AcDbLine
 10
-103.2275917179
 20
480.26433213
 30
0.0
 11
-103.2275917179
 21
516.7643315935
 31
0.0
  0
LINE
  5
D8
330
1F
100
AcDbEntity
  8
0
  6
Continuous
 62
     7
370
    15
100
AcDbLine
 10
-103.2275917179
 20
443.7643326664
 30
0.0
 11
-103.2275917179
 21
480.26433213
 31
0.0
  0
LINE
  5
D9
330
1F
100
AcDbEntity
  8
0
  6
Continuous
 62
     7
370
    15
100
AcDbLine
 10
-23.2275786048
 20
416.5048412824
 30
0.0
 11
-23.2275786048
 21
417.2643311167
 31
0.0
  0
LINE
  5
DA
330
1F
100
AcDbEntity
  8
0
  6
Continuous
 62
     7
370
    15
100
AcDbLine
 10
-102.2275747901
 20
416.5048412824
 30
0.0
 11
-102.2275747901
 21
417.2643311167
 31
0.0
  0
LINE
  5
DB
330
1F
100
AcDbEntity
  8
0
  6
Continuous
 62
     7
370
    15
100
AcDbLine
 10
-23.2275786048
 20
543.2643331432
 30
0.0
 11
-23.2275786048
 21
544.0238229776
 31
0.0
  0
LINE
  5
DC
330
1F
100
AcDbEntity
  8
0
  6
Continuous
 62
     7
370
    15
100
AcDbLine
 10
-102.2275747901
 20
543.2643331432
 30
0.0
 11
-102.2275747901
 21
544.0238229776
 31
0.0
  0
LINE
  5
DD
330
1F
100
AcDbEntity
  8
0
  6
Continuous
 62
     7
370
    15
100
AcDbLine
 10
10.1206837052
 20
509.3117076749
 30
0.0
 11
11.1552266234
 21
509.3117076749
 31
0.0
  0
LINE
  5
DE
330
1F
100
AcDbEntity
  8
0
  6
Continuous
 62
     7
370
    15
100
AcDbLine
 10
36.2784353846
 20
509.3117076749
 30
0.0
 11
47.1923587674
 21
509.3117076749
 31
0.0
  0
LINE
  5
DF
330
1F
100
AcDbEntity
  8
0
  6
Continuous
 62
     7
370
    15
100
AcDbLine
 10
374.3524787778
 20
509.3117076749
 30
0.0
 11
385.2664021605
 21
509.3117076749
 31
0.0
  0
LINE
  5
E0
330
1F
100
AcDbEntity
  8
0
  6
Continuous
 62
     7
370
    15
100
AcDbLine
 10
410.3896109217
 20
509.3117076749
 30
0.0
 11
411.4241538399
 21
509.3117076749
 31
0.0
  0
LINE
  5
E1
330
1F
100
AcDbEntity
  8
0
  6
Continuous
 62
     7
370
    15
100
AcDbLine
 10
-23.2275786048
 20
411.2643338585
 30
0.0
 11
-23.2275786048
 21
416.5048412824
 31
0.0
  0
LINE
  5
E2
330
1F
100
AcDbEntity
  8
0
  6
Continuous
 62
     7
370
    15
100
AcDbLine
 10
-102.2275747901
 20
411.2643338585
 30
0.0
 11
-102.2275747901
 21
416.5048412824
 31
0.0
  0
LINE
  5
E3
330
1F
100
AcDbEntity
  8
0
  6
Continuous
 62
     7
370
    15
100
AcDbLine
 10
-23.2275786048
 20
544.0238229776
 30
0.0
 11
-23.2275786048
 21
549.2643304014
 31
0.0
  0
LINE
  5
E4
330
1F
100
AcDbEntity
  8
0
  6
Continuous
 62
     7
370
    15
100
AcDbLine
 10
-102.2275747901
 20
544.0238229776
 30
0.0
 11
-102.2275747901
 21
549.2643304014
 31
0.0
  0
LINE
  5
E5
330
1F
100
AcDbEntity
  8
0
  6
Continuous
 62
     7
370
    15
100
AcDbLine
 10
-5.727580393
 20
522.764332577
 30
0.0
 11
13.9222232455
 21
522.764332577
 31
0.0
  0
LINE
  5
E6
330
1F
100
AcDbEntity
  8
0
  6
Continuous
 62
     7
370
    15
100
AcDbLine
 10
29.4317094439
 20
522.764332577
 30
0.0
 11
54.0390847081
 21
522.764332577
 31
0.0
  0
LINE
  5
E7
330
1F
100
AcDbEntity
  8
0
  6
Continuous
 62
     7
370
    15
100
AcDbLine
 10
427.2724179381
 20
522.764332577
 30
0.0
 11
407.6226142996
 21
522.764332577
 31
0.0
  0
LINE
  5
E8
330
1F
100
AcDbEntity
  8
0
  6
Continuous
 62
     7
370
    15
100
AcDbLine
 10
392.1131281012
 20
522.764332577
 30
0.0
 11
367.505752837
 21
522.764332577
 31
0.0
  0
LINE
  5
E9
330
1F
100
AcDbEntity
  8
0
  6
Continuous
 62
     7
370
    15
100
AcDbLine
 10
427.2724179381
 20
437.7643316829
 30
0.0
 11
409.76990143
 21
437.7643316829
 31
0.0
  0
LINE
  5
EA
330
1F
100
AcDbEntity
  8
0
  6
Continuous
 62
     7
370
    15
100
AcDbLine
 10
389.5825682038
 20
437.7643316829
 30
0.0
 11
370.0363127345
 21
437.7643316829
 31
0.0
  0
LINE
  5
EB
330
1F
100
AcDbEntity
  8
0
  6
Continuous
 62
     7
370
    15
100
AcDbLine
 10
-5.727580393
 20
437.7643316829
 30
0.0
 11
11.7749361151
 21
437.7643316829
 31
0.0
  0
LINE
  5
EC
330
1F
100
AcDbEntity
  8
0
  6
Continuous
 62
     7
370
    15
100
AcDbLine
 10
31.9622693413
 20
437.7643316829
 30
0.0
 11
51.5085248107
 21
437.7643316829
 31
0.0
  0
LINE
  5
ED
330
1F
100
AcDbEntity
  8
0
  6
Continuous
 62
     8
370
     0
100
AcDbLine
 10
-102.2275747901
 20
427.2643327558
 30
0.0
 11
-57.875222171
 21
427.2643327558
 31
0.0
  0
LINE
  5
EE
330
1F
100
AcDbEntity
  8
0
  6
Continuous
 62
     8
370
     0
100
AcDbLine
 10
-57.875222171
 20
533.2643315041
 30
0.0
 11
-102.2275747901
 21
533.2643315041
 31
0.0
  0
LINE
  5
EF
330
1F
100
AcDbEntity
  8
0
  6
Continuous
 62
     8
370
     0
100
AcDbLine
 10
-64.5475747234
 20
421.2643317723
 30
0.0
 11
-64.5475747234
 21
406.2643311763
 31
0.0
  0
LINE
  5
F0
330
1F
100
AcDbEntity
  8
0
  6
Continuous
 62
     8
370
     0
100
AcDbLine
 10
-64.5475747234
 20
554.2643330836
 30
0.0
 11
-64.5475747234
 21
539.2643324876
 31
0.0
  0
LINE
  5
F1
330
1F
100
AcDbEntity
  8
0
  6
Continuous
 62
     8
370
     0
100
AcDbLine
 10
-102.2275747901
 20
416.5048412824
 30
0.0
 11
-90.2375938541
 21
416.5048412824
 31
0.0
  0
LINE
  5
F2
330
1F
100
AcDbEntity
  8
0
  6
Continuous
 62
     8
370
     0
100
AcDbLine
 10
-29.5475782997
 20
416.5048412824
 30
0.0
 11
-23.2275786048
 21
416.5048412824
 31
0.0
  0
LINE
  5
F3
330
1F
100
AcDbEntity
  8
0
  6
Continuous
 62
     8
370
     0
100
AcDbLine
 10
-102.2275747901
 20
544.0238229776
 30
0.0
 11
-90.2375938541
 21
544.0238229776
 31
0.0
  0
LINE
  5
F4
330
1F
100
AcDbEntity
  8
0
  6
Continuous
 62
     8
370
     0
100
AcDbLine
 10
-29.5475782997
 20
544.0238229776
 30
0.0
 11
-23.2275786048
 21
544.0238229776
 31
0.0
  0
INSERT
  5
154
330
1F
100
AcDbEntity
  8
FORMAT
 62
     7
100
AcDbBlockReference
  2
SW_CENTERMARKSYMBOL_0
 10
379.8094383732
 20
429.970999237
 30
0.0
  0
LINE
  5
155
330
1F
100
AcDbEntity
  8
FORMAT
  6
CENTERX2
 62
     7
370
     0
100
AcDbLine
 10
-117.8439089528
 20
480.26433213
 30
0.0
 11
11.0582283569
 21
480.26433213
 31
0.0
  0
LINE
  5
156
330
1F
100
AcDbEntity
  8
FORMAT
  6
CENTERX2
 62
     7
370
     0
100
AcDbLine
 10
412.5986164047
 20
480.26433213
 30
0.0
 11
473.7724187726
 21
480.26433213
 31
0.0
  0
LINE
  5
157
330
1F
100
AcDbEntity
  8
0
  6
Continuous
 62
     7
370
    15
100
AcDbLine
 10
765.6170855249
 20
554.2643330836
 30
0.0
 11
765.6170855249
 21
658.2643352294
 31
0.0
  0
LINE
  5
158
330
1F
100
AcDbEntity
  8
0
  6
Continuous
 62
     7
370
    15
100
AcDbLine
 10
745.617085972
 20
658.2643352294
 30
0.0
 11
745.617085972
 21
554.2643330836
 31
0.0
  0
LINE
  5
159
330
1F
100
AcDbEntity
  8
0
  6
Continuous
 62
     7
370
    15
100
AcDbLine
 10
559.6170852865
 20
315.7643340373
 30
0.0
 11
562.6170839156
 21
315.7643340373
 31
0.0
  0
LINE
  5
15A
330
1F
100
AcDbEntity
  8
0
  6
Continuous
 62
     7
370
    15
100
AcDbLine
 10
562.6170839156
 20
634.7643248582
 30
0.0
 11
559.6170852865
 21
634.7643248582
 31
0.0
  0
LINE
  5
15B
330
1F
100
AcDbEntity
  8
0
  6
Continuous
 62
     7
370
    15
100
AcDbLine
 10
806.6170866574
 20
315.7643340373
 30
0.0
 11
809.6170852865
 21
315.7643340373
 31
0.0
  0
LINE
  5
15C
330
1F
100
AcDbEntity
  8
0
  6
Continuous
 62
     7
370
    15
100
AcDbLine
 10
809.6170852865
 20
634.7643248582
 30
0.0
 11
806.6170866574
 21
634.7643248582
 31
0.0
  0
LINE
  5
15D
330
1F
100
AcDbEntity
  8
0
  6
Continuous
 62
     7
370
    15
100
AcDbLine
 10
581.6170851673
 20
327.264334991
 30
0.0
 11
617.3342893805
 21
340.2643315339
 31
0.0
  0
LINE
  5
15E
330
1F
100
AcDbEntity
  8
0
  6
Continuous
 62
     7
370
    15
100
AcDbLine
 10
751.8998811926
 20
340.2643315339
 30
0.0
 11
787.6170854057
 21
327.264334991
 31
0.0
  0
LINE
  5
15F
330
1F
100
AcDbEntity
  8
0
  6
Continuous
 62
     7
370
    15
100
AcDbLine
 10
617.3342893805
 20
610.2643273616
 30
0.0
 11
581.6170851673
 21
623.2643388057
 31
0.0
  0
LINE
  5
160
330
1F
100
AcDbEntity
  8
0
  6
Continuous
 62
     7
370
    15
100
AcDbLine
 10
787.6170854057
 20
623.2643388057
 30
0.0
 11
765.6170855249
 21
615.2569912219
 31
0.0
  0
LINE
  5
161
330
1F
100
AcDbEntity
  8
0
  6
Continuous
 62
     7
370
    15
100
AcDbLine
 10
666.2943082835
 20
610.2643273616
 30
0.0
 11
617.3342893805
 21
610.2643273616
 31
0.0
  0
LINE
  5
162
330
1F
100
AcDbEntity
  8
0
  6
Continuous
 62
     7
370
    15
100
AcDbLine
 10
745.617085972
 20
610.2643273616
 30
0.0
 11
702.9431777979
 21
610.2643273616
 31
0.0
  0
LINE
  5
163
330
1F
100
AcDbEntity
  8
0
  6
Continuous
 62
     7
370
    15
100
AcDbLine
 10
702.9431777979
 20
340.2643315339
 30
0.0
 11
751.8998811926
 21
340.2643315339
 31
0.0
  0
LINE
  5
164
330
1F
100
AcDbEntity
  8
0
  6
Continuous
 62
     7
370
    15
100
AcDbLine
 10
617.3342893805
 20
340.2643315339
 30
0.0
 11
666.2943082835
 21
340.2643315339
 31
0.0
  0
LINE
  5
165
330
1F
100
AcDbEntity
  8
0
  6
Continuous
 62
     7
370
    15
100
AcDbLine
 10
666.2790923353
 20
340.2660153651
 30
0.0
 11
667.117085212
 21
308.2643262887
 31
0.0
  0
LINE
  5
166
330
1F
100
AcDbEntity
  8
0
  6
Continuous
 62
     7
370
    15
100
AcDbLine
 10
702.117085361
 20
308.2643262887
 30
0.0
 11
702.9550689246
 21
340.2656428361
 31
0.0
  0
LINE
  5
167
330
1F
100
AcDbEntity
  8
0
  6
Continuous
 62
     7
370
    15
100
AcDbLine
 10
702.9550689246
 20
610.2630160594
 30
0.0
 11
702.117085361
 21
642.2643326068
 31
0.0
  0
LINE
  5
168
330
1F
100
AcDbEntity
  8
0
  6
Continuous
 62
     7
370
    15
100
AcDbLine
 10
667.117085212
 20
642.2643326068
 30
0.0
 11
666.2790923353
 21
610.2626584315
 31
0.0
  0
CIRCLE
  5
169
330
1F
100
AcDbEntity
  8
0
  6
Continuous
 62
     7
370
    15
100
AcDbCircle
 10
684.6170852865
 20
480.26433213
 30
0.0
 40
36.49999999999989
  0
ARC
  5
16A
330
1F
100
AcDbEntity
  8
0
  6
Continuous
 62
     7
370
    15
100
AcDbCircle
 10
779.6170852865
 20
427.26433213
 30
0.0
 40
10.0
100
AcDbArc
 50
270.0
 51
0.0
  0
LINE
  5
16B
330
1F
100
AcDbEntity
  8
0
  6
Continuous
 62
     7
370
    15
100
AcDbLine
 10
714.8164230372
 20
417.2643311167
 30
0.0
 11
779.6170840944
 21
417.2643311167
 31
0.0
  0
ARC
  5
16C
330
1F
100
AcDbEntity
  8
0
  6
Continuous
 62
     7
370
    15
100
AcDbCircle
 10
714.8164230276
 20
407.26433213
 30
0.0
 40
10.0
100
AcDbArc
 50
90.0
 51
112.4743688205
  0
ARC
  5
16D
330
1F
100
AcDbEntity
  8
0
  6
Continuous
 62
     7
370
    15
100
AcDbCircle
 10
684.6170852865
 20
480.26433213
 30
0.0
 40
69.00000000000006
100
AcDbArc
 50
251.672627473
 51
292.4743688205
  0
LINE
  5
16E
330
1F
100
AcDbEntity
  8
0
  6
Continuous
 62
     7
370
    15
100
AcDbLine
 10
629.1170845713
 20
414.7643335009
 30
0.0
 11
662.9203109975
 21
414.7643335009
 31
0.0
  0
LINE
  5
16F
330
1F
100
AcDbEntity
  8
0
  6
Continuous
 62
     7
370
    15
100
AcDbLine
 10
619.1170866574
 20
458.567557841
 30
0.0
 11
619.1170866574
 21
424.7643314147
 31
0.0
  0
ARC
  5
170
330
1F
100
AcDbEntity
  8
0
  6
Continuous
 62
     7
370
    15
100
AcDbCircle
 10
684.6170852865
 20
480.26433213
 30
0.0
 40
69.00000000000009
100
AcDbArc
 50
161.672627473
 51
198.327372527
  0
LINE
  5
171
330
1F
100
AcDbEntity
  8
0
  6
Continuous
 62
     7
370
    15
100
AcDbLine
 10
619.1170866574
 20
535.7643328452
 30
0.0
 11
619.1170866574
 21
501.961106419
 31
0.0
  0
LINE
  5
172
330
1F
100
AcDbEntity
  8
0
  6
Continuous
 62
     7
370
    15
100
AcDbLine
 10
662.9203109975
 20
545.7643307591
 30
0.0
 11
629.1170845713
 21
545.7643307591
 31
0.0
  0
ARC
  5
173
330
1F
100
AcDbEntity
  8
0
  6
Continuous
 62
     7
370
    15
100
AcDbCircle
 10
684.6170852865
 20
480.26433213
 30
0.0
 40
68.99999999999979
100
AcDbArc
 50
67.5256311795
 51
108.327372527
  0
ARC
  5
174
330
1F
100
AcDbEntity
  8
0
  6
Continuous
 62
     7
370
    15
100
AcDbCircle
 10
714.8164230276
 20
553.26433213
 30
0.0
 40
10.00000000000014
100
AcDbArc
 50
247.5256311795
 51
270.0
  0
LINE
  5
175
330
1F
100
AcDbEntity
  8
0
  6
Continuous
 62
     7
370
    15
100
AcDbLine
 10
779.6170840944
 20
543.2643331432
 30
0.0
 11
714.8164230372
 21
543.2643331432
 31
0.0
  0
ARC
  5
176
330
1F
100
AcDbEntity
  8
0
  6
Continuous
 62
     7
370
    15
100
AcDbCircle
 10
779.6170852865
 20
533.26433213
 30
0.0
 40
10.00000000000011
100
AcDbArc
 50
0.0
 51
90.0
  0
LINE
  5
177
330
1F
100
AcDbEntity
  8
0
  6
Continuous
 62
     7
370
    15
100
AcDbLine
 10
789.6170820083
 20
427.2643327558
 30
0.0
 11
789.6170820083
 21
533.2643315041
 31
0.0
  0
ARC
  5
178
330
1F
100
AcDbEntity
  8
0
  6
Continuous
 62
     7
370
    15
100
AcDbCircle
 10
629.1170852865
 20
535.76433213
 30
0.0
 40
10.0
100
AcDbArc
 50
90.0
 51
180.0
  0
ARC
  5
179
330
1F
100
AcDbEntity
  8
0
  6
Continuous
 62
     7
370
    15
100
AcDbCircle
 10
629.1170852865
 20
424.76433213
 30
0.0
 40
10.0
100
AcDbArc
 50
180.0
 51
270.0
  0
LINE
  5
17A
330
1F
100
AcDbEntity
  8
0
  6
Continuous
 62
     7
370
    15
100
AcDbLine
 10
787.6170854057
 20
421.2643317723
 30
0.0
 11
787.6170854057
 21
406.2643311763
 31
0.0
  0
LINE
  5
17B
330
1F
100
AcDbEntity
  8
0
  6
Continuous
 62
     7
370
    15
100
AcDbLine
 10
730.1170843627
 20
406.2643311763
 30
0.0
 11
787.6170854057
 21
406.2643311763
 31
0.0
  0
LINE
  5
17C
330
1F
100
AcDbEntity
  8
0
  6
Continuous
 62
     7
370
    15
100
AcDbLine
 10
730.1170843627
 20
417.2643311167
 30
0.0
 11
730.1170843627
 21
406.2643311763
 31
0.0
  0
LINE
  5
17D
330
1F
100
AcDbEntity
  8
0
  6
Continuous
 62
     7
370
    15
100
AcDbLine
 10
787.6170854057
 20
554.2643330836
 30
0.0
 11
787.6170854057
 21
539.2643324876
 31
0.0
  0
LINE
  5
17E
330
1F
100
AcDbEntity
  8
0
  6
Continuous
 62
     7
370
    15
100
AcDbLine
 10
730.1170843627
 20
554.2643330836
 30
0.0
 11
730.1170843627
 21
543.2643331432
 31
0.0
  0
LINE
  5
17F
330
1F
100
AcDbEntity
  8
0
  6
Continuous
 62
     7
370
    15
100
AcDbLine
 10
730.1170843627
 20
554.2643330836
 30
0.0
 11
787.6170854057
 21
554.2643330836
 31
0.0
  0
LINE
  5
180
330
1F
100
AcDbEntity
  8
0
  6
Continuous
 62
     7
370
    15
100
AcDbLine
 10
733.4603349651
 20
558.2643337393
 30
0.0
 11
733.4603349651
 21
554.2643330836
 31
0.0
  0
LINE
  5
181
330
1F
100
AcDbEntity
  8
0
  6
Continuous
 62
     7
370
    15
100
AcDbLine
 10
733.4603349651
 20
558.2643337393
 30
0.0
 11
739.2338382985
 21
558.2643337393
 31
0.0
  0
LINE
  5
182
330
1F
100
AcDbEntity
  8
0
  6
Continuous
 62
     7
370
    15
100
AcDbLine
 10
739.2338382985
 20
558.2643337393
 30
0.0
 11
739.2338382985
 21
554.2643330836
 31
0.0
  0
LINE
  5
183
330
1F
100
AcDbEntity
  8
0
  6
Continuous
 62
     7
370
    15
100
AcDbLine
 10
730.5735814358
 20
406.2643311763
 30
0.0
 11
730.5735814358
 21
402.2643305206
 31
0.0
  0
LINE
  5
184
330
1F
100
AcDbEntity
  8
0
  6
Continuous
 62
     7
370
    15
100
AcDbLine
 10
733.4603349651
 20
406.2643311763
 30
0.0
 11
733.4603349651
 21
402.2643305206
 31
0.0
  0
LINE
  5
185
330
1F
100
AcDbEntity
  8
0
  6
Continuous
 62
     7
370
    15
100
AcDbLine
 10
730.5735814358
 20
402.2643305206
 30
0.0
 11
733.4603349651
 21
402.2643305206
 31
0.0
  0
LINE
  5
186
330
1F
100
AcDbEntity
  8
0
  6
Continuous
 62
     7
370
    15
100
AcDbLine
 10
739.2338382985
 20
406.2643311763
 30
0.0
 11
739.2338382985
 21
402.2643305206
 31
0.0
  0
LINE
  5
187
330
1F
100
AcDbEntity
  8
0
  6
Continuous
 62
     7
370
    15
100
AcDbLine
 10
733.4603349651
 20
402.2643305206
 30
0.0
 11
739.2338382985
 21
402.2643305206
 31
0.0
  0
LINE
  5
188
330
1F
100
AcDbEntity
  8
0
  6
Continuous
 62
     7
370
    15
100
AcDbLine
 10
742.1205881025
 20
406.2643311763
 30
0.0
 11
742.1205881025
 21
402.2643305206
 31
0.0
  0
LINE
  5
189
330
1F
100
AcDbEntity
  8
0
  6
Continuous
 62
     7
370
    15
100
AcDbLine
 10
739.2338382985
 20
402.2643305206
 30
0.0
 11
742.1205881025
 21
402.2643305206
 31
0.0
  0
LINE
  5
18A
330
1F
100
AcDbEntity
  8
0
  6
Continuous
 62
     7
370
    15
100
AcDbLine
 10
730.5735814358
 20
558.2643337393
 30
0.0
 11
730.5735814358
 21
554.2643330836
 31
0.0
  0
LINE
  5
18B
330
1F
100
AcDbEntity
  8
0
  6
Continuous
 62
     7
370
    15
100
AcDbLine
 10
730.5735814358
 20
558.2643337393
 30
0.0
 11
733.4603349651
 21
558.2643337393
 31
0.0
  0
LINE
  5
18C
330
1F
100
AcDbEntity
  8
0
  6
Continuous
 62
     7
370
    15
100
AcDbLine
 10
742.1205881025
 20
558.2643337393
 30
0.0
 11
742.1205881025
 21
554.2643330836
 31
0.0
  0
LINE
  5
18D
330
1F
100
AcDbEntity
  8
0
  6
Continuous
 62
     7
370
    15
100
AcDbLine
 10
739.2338382985
 20
558.2643337393
 30
0.0
 11
742.1205881025
 21
558.2643337393
 31
0.0
  0
LINE
  5
18E
330
1F
100
AcDbEntity
  8
0
  6
Continuous
 62
     7
370
    15
100
AcDbLine
 10
769.4635818686
 20
402.2643305206
 30
0.0
 11
772.3503316726
 21
402.2643305206
 31
0.0
  0
LINE
  5
18F
330
1F
100
AcDbEntity
  8
0
  6
Continuous
 62
     7
370
    15
100
AcDbLine
 10
769.4635818686
 20
406.2643311763
 30
0.0
 11
769.4635818686
 21
402.2643305206
 31
0.0
  0
LINE
  5
190
330
1F
100
AcDbEntity
  8
0
  6
Continuous
 62
     7
370
    15
100
AcDbLine
 10
772.3503316726
 20
406.2643311763
 30
0.0
 11
772.3503316726
 21
402.2643305206
 31
0.0
  0
LINE
  5
191
330
1F
100
AcDbEntity
  8
0
  6
Continuous
 62
     7
370
    15
100
AcDbLine
 10
769.4635818686
 20
558.2643337393
 30
0.0
 11
769.4635818686
 21
554.2643330836
 31
0.0
  0
LINE
  5
192
330
1F
100
AcDbEntity
  8
0
  6
Continuous
 62
     7
370
    15
100
AcDbLine
 10
769.4635818686
 20
558.2643337393
 30
0.0
 11
772.3503316726
 21
558.2643337393
 31
0.0
  0
LINE
  5
193
330
1F
100
AcDbEntity
  8
0
  6
Continuous
 62
     7
370
    15
100
AcDbLine
 10
772.3503316726
 20
558.2643337393
 30
0.0
 11
772.3503316726
 21
554.2643330836
 31
0.0
  0
LINE
  5
194
330
1F
100
AcDbEntity
  8
0
  6
Continuous
 62
     7
370
    15
100
AcDbLine
 10
778.1238387312
 20
558.2643337393
 30
0.0
 11
778.1238387312
 21
554.2643330836
 31
0.0
  0
LINE
  5
195
330
1F
100
AcDbEntity
  8
0
  6
Continuous
 62
     7
370
    15
100
AcDbLine
 10
772.3503316726
 20
558.2643337393
 30
0.0
 11
778.1238387312
 21
558.2643337393
 31
0.0
  0
LINE
  5
196
330
1F
100
AcDbEntity
  8
0
  6
Continuous
 62
     7
370
    15
100
AcDbLine
 10
778.1238387312
 20
406.2643311763
 30
0.0
 11
778.1238387312
 21
402.2643305206
 31
0.0
  0
LINE
  5
197
330
1F
100
AcDbEntity
  8
0
  6
Continuous
 62
     7
370
    15
100
AcDbLine
 10
772.3503316726
 20
402.2643305206
 30
0.0
 11
778.1238387312
 21
402.2643305206
 31
0.0
  0
LINE
  5
198
330
1F
100
AcDbEntity
  8
0
  6
Continuous
 62
     7
370
    15
100
AcDbLine
 10
781.0105885352
 20
406.2643311763
 30
0.0
 11
781.0105885352
 21
402.2643305206
 31
0.0
  0
LINE
  5
199
330
1F
100
AcDbEntity
  8
0
  6
Continuous
 62
     7
370
    15
100
AcDbLine
 10
778.1238387312
 20
402.2643305206
 30
0.0
 11
781.0105885352
 21
402.2643305206
 31
0.0
  0
LINE
  5
19A
330
1F
100
AcDbEntity
  8
0
  6
Continuous
 62
     7
370
    15
100
AcDbLine
 10
781.0105885352
 20
558.2643337393
 30
0.0
 11
781.0105885352
 21
554.2643330836
 31
0.0
  0
LINE
  5
19B
330
1F
100
AcDbEntity
  8
0
  6
Continuous
 62
     7
370
    15
100
AcDbLine
 10
778.1238387312
 20
558.2643337393
 30
0.0
 11
781.0105885352
 21
558.2643337393
 31
0.0
  0
LINE
  5
19C
330
1F
100
AcDbEntity
  8
0
  6
Continuous
 62
     7
370
    15
100
AcDbLine
 10
745.617085972
 20
658.2643352294
 30
0.0
 11
765.6170855249
 21
658.2643352294
 31
0.0
  0
LINE
  5
19D
330
1F
100
AcDbEntity
  8
0
  6
Continuous
 62
     7
370
    15
100
AcDbLine
 10
592.6170851077
 20
449.1300433719
 30
0.0
 11
619.1170866574
 21
449.1300433719
 31
0.0
  0
LINE
  5
19E
330
1F
100
AcDbEntity
  8
0
  6
Continuous
 62
     7
370
    15
100
AcDbLine
 10
592.6170851077
 20
454.7707568699
 30
0.0
 11
592.6170851077
 21
449.1300433719
 31
0.0
  0
LINE
  5
19F
330
1F
100
AcDbEntity
  8
0
  6
Continuous
 62
     7
370
    15
100
AcDbLine
 10
592.6170851077
 20
454.7707568699
 30
0.0
 11
619.1170866574
 21
454.7707568699
 31
0.0
  0
LINE
  5
1A0
330
1F
100
AcDbEntity
  8
0
  6
Continuous
 62
     7
370
    15
100
AcDbLine
 10
592.6170851077
 20
511.398620888
 30
0.0
 11
619.1170866574
 21
511.398620888
 31
0.0
  0
LINE
  5
1A1
330
1F
100
AcDbEntity
  8
0
  6
Continuous
 62
     7
370
    15
100
AcDbLine
 10
592.6170851077
 20
522.6800441587
 30
0.0
 11
592.6170851077
 21
511.398620888
 31
0.0
  0
LINE
  5
1A2
330
1F
100
AcDbEntity
  8
0
  6
Continuous
 62
     7
370
    15
100
AcDbLine
 10
592.6170851077
 20
522.6800441587
 30
0.0
 11
619.1170866574
 21
522.6800441587
 31
0.0
  0
LINE
  5
1A3
330
1F
100
AcDbEntity
  8
0
  6
Continuous
 62
     7
370
    15
100
AcDbLine
 10
592.6170851077
 20
432.2079084659
 30
0.0
 11
619.1170866574
 21
432.2079084659
 31
0.0
  0
LINE
  5
1A4
330
1F
100
AcDbEntity
  8
0
  6
Continuous
 62
     7
370
    15
100
AcDbLine
 10
592.6170851077
 20
437.8486201012
 30
0.0
 11
619.1170866574
 21
437.8486201012
 31
0.0
  0
LINE
  5
1A5
330
1F
100
AcDbEntity
  8
0
  6
Continuous
 62
     7
370
    15
100
AcDbLine
 10
592.6170851077
 20
437.8486201012
 30
0.0
 11
592.6170851077
 21
432.2079084659
 31
0.0
  0
LINE
  5
1A6
330
1F
100
AcDbEntity
  8
0
  6
Continuous
 62
     7
370
    15
100
AcDbLine
 10
592.6170851077
 20
505.75790739
 30
0.0
 11
619.1170866574
 21
505.75790739
 31
0.0
  0
LINE
  5
1A7
330
1F
100
AcDbEntity
  8
0
  6
Continuous
 62
     7
370
    15
100
AcDbLine
 10
592.6170851077
 20
511.398620888
 30
0.0
 11
592.6170851077
 21
505.75790739
 31
0.0
  0
LINE
  5
1A8
330
1F
100
AcDbEntity
  8
0
  6
Continuous
 62
     7
370
    15
100
AcDbLine
 10
592.6170851077
 20
528.3207557941
 30
0.0
 11
619.1170866574
 21
528.3207557941
 31
0.0
  0
LINE
  5
1A9
330
1F
100
AcDbEntity
  8
0
  6
Continuous
 62
     7
370
    15
100
AcDbLine
 10
592.6170851077
 20
528.3207557941
 30
0.0
 11
592.6170851077
 21
522.6800441587
 31
0.0
  0
LINE
  5
1AA
330
1F
100
AcDbEntity
  8
0
  6
Continuous
 62
     7
370
    15
100
AcDbLine
 10
592.6170851077
 20
449.1300433719
 30
0.0
 11
592.6170851077
 21
437.8486201012
 31
0.0
  0
LINE
  5
1AB
330
1F
100
AcDbEntity
  8
0
  6
Continuous
 62
     7
370
    15
100
AcDbLine
 10
581.6170851673
 20
472.7643322976
 30
0.0
 11
616.025907823
 21
472.7643322976
 31
0.0
  0
LINE
  5
1AC
330
1F
100
AcDbEntity
  8
0
  6
Continuous
 62
     7
370
    15
100
AcDbLine
 10
581.6170851673
 20
487.7643319623
 30
0.0
 11
616.025907823
 21
487.7643319623
 31
0.0
  0
LINE
  5
1AD
330
1F
100
AcDbEntity
  8
0
  6
Continuous
 62
     7
370
    15
100
AcDbLine
 10
581.6170851673
 20
659.0611003184
 30
0.0
 11
562.6170839156
 21
659.0611003184
 31
0.0
  0
LINE
  5
1AE
330
1F
100
AcDbEntity
  8
0
  6
Continuous
 62
     7
370
    15
100
AcDbLine
 10
581.6170851673
 20
291.4675734782
 30
0.0
 11
581.6170851673
 21
659.0611003184
 31
0.0
  0
LINE
  5
1AF
330
1F
100
AcDbEntity
  8
0
  6
Continuous
 62
     7
370
    15
100
AcDbLine
 10
581.6170851673
 20
291.4675734782
 30
0.0
 11
562.6170839156
 21
291.4675734782
 31
0.0
  0
LINE
  5
1B0
330
1F
100
AcDbEntity
  8
0
  6
Continuous
 62
     7
370
    15
100
AcDbLine
 10
562.6170839156
 20
291.4675734782
 30
0.0
 11
562.6170839156
 21
659.0611003184
 31
0.0
  0
LINE
  5
1B1
330
1F
100
AcDbEntity
  8
0
  6
Continuous
 62
     7
370
    15
100
AcDbLine
 10
806.6170866574
 20
291.4675734782
 30
0.0
 11
806.6170866574
 21
659.0611003184
 31
0.0
  0
LINE
  5
1B2
330
1F
100
AcDbEntity
  8
0
  6
Continuous
 62
     7
370
    15
100
AcDbLine
 10
787.6170854057
 20
291.4675734782
 30
0.0
 11
806.6170866574
 21
291.4675734782
 31
0.0
  0
LINE
  5
1B3
330
1F
100
AcDbEntity
  8
0
  6
Continuous
 62
     7
370
    15
100
AcDbLine
 10
787.6170854057
 20
659.0611003184
 30
0.0
 11
806.6170866574
 21
659.0611003184
 31
0.0
  0
LINE
  5
1B4
330
1F
100
AcDbEntity
  8
0
  6
Continuous
 62
     7
370
    15
100
AcDbLine
 10
787.6170854057
 20
291.4675734782
 30
0.0
 11
787.6170854057
 21
406.2643311763
 31
0.0
  0
LINE
  5
1B5
330
1F
100
AcDbEntity
  8
0
  6
Continuous
 62
     7
370
    15
100
AcDbLine
 10
787.6170854057
 20
554.2643330836
 30
0.0
 11
787.6170854057
 21
659.0611003184
 31
0.0
  0
LINE
  5
1B6
330
1F
100
AcDbEntity
  8
0
  6
Continuous
 62
     7
370
    15
100
AcDbLine
 10
559.6170852865
 20
315.7643340373
 30
0.0
 11
559.6170852865
 21
634.7643248582
 31
0.0
  0
LINE
  5
1B7
330
1F
100
AcDbEntity
  8
0
  6
Continuous
 62
     7
370
    15
100
AcDbLine
 10
809.6170852865
 20
315.7643340373
 30
0.0
 11
809.6170852865
 21
634.7643248582
 31
0.0
  0
LINE
  5
1B8
330
1F
100
AcDbEntity
  8
0
  6
Continuous
 62
     7
370
    15
100
AcDbLine
 10
617.3342893805
 20
340.2643315339
 30
0.0
 11
617.3342893805
 21
432.2079084659
 31
0.0
  0
LINE
  5
1B9
330
1F
100
AcDbEntity
  8
0
  6
Continuous
 62
     7
370
    15
100
AcDbLine
 10
617.3342893805
 20
454.7707568699
 30
0.0
 11
617.3342893805
 21
464.9664340386
 31
0.0
  0
LINE
  5
1BA
330
1F
100
AcDbEntity
  8
0
  6
Continuous
 62
     7
370
    15
100
AcDbLine
 10
751.8998811926
 20
340.2643315339
 30
0.0
 11
751.8998811926
 21
406.2643311763
 31
0.0
  0
LINE
  5
1BB
330
1F
100
AcDbEntity
  8
0
  6
Continuous
 62
     7
370
    15
100
AcDbLine
 10
617.3342893805
 20
495.5622302213
 30
0.0
 11
617.3342893805
 21
505.75790739
 31
0.0
  0
LINE
  5
1BC
330
1F
100
AcDbEntity
  8
0
  6
Continuous
 62
     7
370
    15
100
AcDbLine
 10
617.3342893805
 20
528.3207557941
 30
0.0
 11
617.3342893805
 21
610.2643273616
 31
0.0
  0
SPLINE
  5
1BD
330
1F
100
AcDbEntity
  8
0
  6
Continuous
 62
     7
370
    15
100
AcDbSpline
210
0.0
220
0.0
230
1.0
 70
     8
 71
     3
 72
    17
 73
    13
 74
     0
 42
0.00000001
 43
0.00000001
 12
1.0
 22
0.0
 32
0.0
 13
1.0
 23
0.0
 33
0.0
 40
0.0
 40
0.0
 40
0.0
 40
0.0
 40
0.1051495922726954
 40
0.210299100110768
 40
0.3184923140050847
 40
0.4266851302726365
 40
0.5318396007495744
 40
0.6369936938935622
 40
0.7452336098167478
 40
0.853473099612664
 40
0.9580910414417333
 40
0.9999999999999999
 40
0.9999999999999999
 40
0.9999999999999999
 40
0.9999999999999999
 10
671.7248567353213
 20
609.6307001853074
 30
0.0
 10
671.3720951158886
 20
609.6655042406105
 30
0.0
 10
670.6665721602891
 20
609.735112323269
 30
0.0
 10
669.7191321771815
 20
609.8378254391768
 30
0.0
 10
668.8628410886971
 20
609.9356893541881
 30
0.0
 10
668.1217661192367
 20
610.025009155804
 30
0.0
 10
667.5043593877634
 20
610.1023894172873
 30
0.0
 10
667.0062937668478
 20
610.1669129263857
 30
0.0
 10
666.6277897636024
 20
610.2171068180323
 30
0.0
 10
666.3878106797665
 20
610.2495274255738
 30
0.0
 10
666.2774780545292
 20
610.2645369788509
 30
0.0
 10
666.2905651670078
 20
610.2627633775695
 30
0.0
 10
666.2943082834804
 20
610.2622561001863
 30
0.0
  0
SPLINE
  5
1BE
330
1F
100
AcDbEntity
  8
0
  6
Continuous
 62
     7
370
    15
100
AcDbSpline
210
0.0
220
0.0
230
1.0
 70
     8
 71
     3
 72
    37
 73
    33
 74
     0
 42
0.00000001
 43
0.00000001
 12
1.0
 22
0.0
 32
0.0
 13
1.0
 23
0.0
 33
0.0
 40
0.0
 40
0.0
 40
0.0
 40
0.0
 40
0.0082589612772139
 40
0.0446273606055451
 40
0.0797540408604915
 40
0.1148808386373475
 40
0.1510229620769991
 40
0.1871652627665352
 40
0.2223905145216339
 40
0.2576159227670574
 40
0.2938506912194769
 40
0.3300855273264555
 40
0.3655462734644093
 40
0.4010069306670834
 40
0.4374995244480108
 40
0.4739919043702185
 40
0.5094085312433393
 40
0.54482493658384
 40
0.5812897746608747
 40
0.6177544291653558
 40
0.6528416386644859
 40
0.6879288224727326
 40
0.7240452351239471
 40
0.7601617737515212
 40
0.7950959260810562
 40
0.8300302978891744
 40
0.8659660552850904
 40
0.9019020694318112
 40
0.9262637339328916
 40
0.9506254459619194
 40
0.9753127124868213
 40
1.0
 40
1.0
 40
1.0
 40
1.0
 10
702.9431777979457
 20
610.2627031350221
 30
0.0
 10
702.9467670720782
 20
610.2631880616578
 30
0.0
 10
702.966161742382
 20
610.2658083664527
 30
0.0
 10
702.8709796075292
 20
610.2528964623701
 30
0.0
 10
702.655808963507
 20
610.2237493738967
 30
0.0
 10
702.3070553635333
 20
610.177345226171
 30
0.0
 10
701.8327676081786
 20
610.1155729546442
 30
0.0
 10
701.2351136035869
 20
610.0401566938274
 30
0.0
 10
700.5262809222609
 20
609.9541029759087
 30
0.0
 10
699.7077306731866
 20
609.8592912469547
 30
0.0
 10
698.7743562973068
 20
609.7572344401785
 30
0.0
 10
697.7378625081925
 20
609.6514415770711
 30
0.0
 10
696.6157566864664
 20
609.5459705099645
 30
0.0
 10
695.4071700419632
 20
609.4426938005333
 30
0.0
 10
694.1086355470871
 20
609.3439094590406
 30
0.0
 10
692.7413290253386
 20
609.2535056901171
 30
0.0
 10
691.3290092311415
 20
609.1749928286688
 30
0.0
 10
689.8695949166289
 20
609.1092320547425
 30
0.0
 10
688.3571733330369
 20
609.0580960119372
 30
0.0
 10
686.82175129525
 20
609.0237846211659
 30
0.0
 10
685.2901420520321
 20
609.007421180463
 30
0.0
 10
683.7588141450403
 20
609.0083138992085
 30
0.0
 10
682.2187419873574
 20
609.0271788429926
 30
0.0
 10
680.6982872808823
 20
609.0633170514626
 30
0.0
 10
679.2226910299872
 20
609.1151156761044
 30
0.0
 10
677.7868388367594
 20
609.1809336937886
 30
0.0
 10
676.3858513754891
 20
609.2601404781121
 30
0.0
 10
675.1763083259351
 20
609.3409921856165
 30
0.0
 10
674.1578208749596
 20
609.4174437965582
 30
0.0
 10
673.3099261615118
 20
609.4865568422942
 30
0.0
 10
672.493005120789
 20
609.5579618898317
 30
0.0
 10
671.9809062697053
 20
609.6064540799446
 30
0.0
 10
671.7248567353213
 20
609.6307001853074
 30
0.0
  0
SPLINE
  5
1BF
330
1F
100
AcDbEntity
  8
0
  6
Continuous
 62
     7
370
    15
100
AcDbSpline
210
0.0
220
0.0
230
1.0
 70
     8
 71
     3
 72
    17
 73
    13
 74
     0
 42
0.00000001
 43
0.00000001
 12
1.0
 22
0.0
 32
0.0
 13
1.0
 23
0.0
 33
0.0
 40
0.0
 40
0.0
 40
0.0
 40
0.0
 40
0.1051495926703344
 40
0.2102990330652365
 40
0.3184923114278607
 40
0.4266851281045599
 40
0.5318395989791553
 40
0.6369936925207992
 40
0.7452336088533102
 40
0.8534730990585505
 40
0.9580910412832483
 40
0.9999999999999999
 40
0.9999999999999999
 40
0.9999999999999999
 40
0.9999999999999999
 10
671.7248567353213
 20
340.8979587102022
 30
0.0
 10
671.3720951963612
 20
340.8631525492802
 30
0.0
 10
670.6665726293032
 20
340.7935402778419
 30
0.0
 10
669.7191313996577
 20
340.69085905127
 30
0.0
 10
668.8628414939803
 20
340.5929626171129
 30
0.0
 10
668.1217660523614
 20
340.5036515416193
 30
0.0
 10
667.5043594054496
 20
340.4262690016794
 30
0.0
 10
667.0062937619526
 20
340.361746101018
 30
0.0
 10
666.6277897649339
 20
340.3115520416019
 30
0.0
 10
666.3878106794144
 20
340.2791314794228
 30
0.0
 10
666.277478054559
 20
340.2641219158568
 30
0.0
 10
666.2905651670144
 20
340.2658955177617
 30
0.0
 10
666.2943082834804
 20
340.2664027953234
 30
0.0
  0
SPLINE
  5
1C0
330
1F
100
AcDbEntity
  8
0
  6
Continuous
 62
     7
370
    15
100
AcDbSpline
210
0.0
220
0.0
230
1.0
 70
     8
 71
     3
 72
    37
 73
    33
 74
     0
 42
0.00000001
 43
0.00000001
 12
1.0
 22
0.0
 32
0.0
 13
1.0
 23
0.0
 33
0.0
 40
0.0
 40
0.0
 40
0.0
 40
0.0
 40
0.0082589612640371
 40
0.0446273634351335
 40
0.0797540368659419
 40
0.1148808449466008
 40
0.1510229683285894
 40
0.1871652522132491
 40
0.2223905039121478
 40
0.257615912101371
 40
0.2938507031187697
 40
0.3300855157725064
 40
0.3655462618538843
 40
0.4010069189999828
 40
0.4374995127226881
 40
0.4739918925866741
 40
0.5094085368804886
 40
0.5448249421644843
 40
0.5812897689098196
 40
0.6177544233561233
 40
0.6528416327992734
 40
0.6879288165515404
 40
0.724045229145133
 40
0.7601617596579565
 40
0.7950959235935164
 40
0.8300302953458986
 40
0.8659660526844809
 40
0.9019020467179987
 40
0.9262637111802114
 40
0.9506254457077485
 40
0.9753126890216687
 40
1.0
 40
1.0
 40
1.0
 40
1.0
 10
702.9431777979457
 20
340.2659557604875
 30
0.0
 10
702.9467670717409
 20
340.2654706321843
 30
0.0
 10
702.966161741483
 20
340.2628492375068
 30
0.0
 10
702.8709796523469
 20
340.2757907636321
 30
0.0
 10
702.6558088734689
 20
340.3048973885149
 30
0.0
 10
702.307055417765
 20
340.3513346942484
 30
0.0
 10
701.8327677859297
 20
340.4131043715649
 30
0.0
 10
701.2351133807763
 20
340.4884969690228
 30
0.0
 10
700.5262810208175
 20
340.5745589479592
 30
0.0
 10
699.7077302113611
 20
340.6693606350113
 30
0.0
 10
698.7743571829099
 20
340.7714503196855
 30
0.0
 10
697.7378619723426
 20
340.8772105575355
 30
0.0
 10
696.6157567679564
 20
340.9826902753711
 30
0.0
 10
695.4071700030161
 20
341.0859642304679
 30
0.0
 10
694.1086356210486
 20
341.1847509915809
 30
0.0
 10
692.7413285523104
 20
341.2751479547662
 30
0.0
 10
691.3290096731749
 20
341.3536849797958
 30
0.0
 10
689.8695951693243
 20
341.41944552566
 30
0.0
 10
688.3571730199162
 20
341.4705577813983
 30
0.0
 10
686.8217513313372
 20
341.5048757105279
 30
0.0
 10
685.2901420537569
 20
341.5212368895722
 30
0.0
 10
683.7588141020649
 20
341.5203469178276
 30
0.0
 10
682.2187422789352
 20
341.5014729871344
 30
0.0
 10
680.6982866937769
 20
341.4653677420636
 30
0.0
 10
679.2226914152162
 20
341.4135360859393
 30
0.0
 10
677.786838715894
 20
341.3477283388675
 30
0.0
 10
676.3858518957971
 20
341.2685130903756
 30
0.0
 10
675.1763080465662
 20
341.1876823730929
 30
0.0
 10
674.1578202841047
 20
341.1112361564017
 30
0.0
 10
673.3099272769578
 20
341.0420905644094
 30
0.0
 10
672.4930040903602
 20
340.970722201545
 30
0.0
 10
671.9809060875992
 20
340.9222132294758
 30
0.0
 10
671.7248567353213
 20
340.8979587102022
 30
0.0
  0
SPLINE
  5
1C1
330
1F
100
AcDbEntity
  8
0
  6
Continuous
 62
     7
370
    15
100
AcDbSpline
210
0.0
220
0.0
230
1.0
 70
     8
 71
     3
 72
    30
 73
    26
 74
     0
 42
0.00000001
 43
0.00000001
 12
1.0
 22
0.0
 32
0.0
 13
1.0
 23
0.0
 33
0.0
 40
0.0
 40
0.0
 40
0.0
 40
0.0
 40
0.0157563774558979
 40
0.0314806514577309
 40
0.0628449197717433
 40
0.0985853589325319
 40
0.1253426717982471
 40
0.1876815372208971
 40
0.2500669105894152
 40
0.2813161732062163
 40
0.3125755972002631
 40
0.3750840275239991
 40
0.4375441214590557
 40
0.4687371412194811
 40
0.4998833428146701
 40
0.5620969202397795
 40
0.624350306236861
 40
0.6866874658066938
 40
0.749123614087761
 40
0.8116596614098927
 40
0.8742966156826737
 40
0.9057205295589799
 40
0.9370677429946616
 40
0.9685823465613729
 40
1.0
 40
1.0
 40
1.0
 40
1.0
 10
704.6170852865303
 20
409.6231436936382
 30
0.0
 10
704.6757204510025
 20
409.622755879917
 30
0.0
 10
704.7928713114134
 20
409.6219810426411
 30
0.0
 10
705.0265758658838
 20
409.6137024439362
 30
0.0
 10
705.334003554054
 20
409.5927907358358
 30
0.0
 10
705.6803841494674
 20
409.5520090239712
 30
0.0
 10
706.1370773691324
 20
409.4771986343288
 30
0.0
 10
706.6830211424049
 20
409.3509424110831
 30
0.0
 10
707.2270217086049
 20
409.1717844205579
 30
0.0
 10
707.6481604071625
 20
409.0000883976792
 30
0.0
 10
708.059114455268
 20
408.8098483430197
 30
0.0
 10
708.5514039274738
 20
408.5391261995887
 30
0.0
 10
709.0105417579379
 20
408.2283263056044
 30
0.0
 10
709.3550330128071
 20
407.9579961110234
 30
0.0
 10
709.6831947733964
 20
407.6742062459815
 30
0.0
 10
710.0620643018672
 20
407.2942063712743
 30
0.0
 10
710.4634270557423
 20
406.8032993462043
 30
0.0
 10
710.8094646150557
 20
406.2824892475901
 30
0.0
 10
711.0978500573832
 20
405.7368037191885
 30
0.0
 10
711.3263176993744
 20
405.1712413554613
 30
0.0
 10
711.4647684640064
 20
404.6873866267628
 30
0.0
 10
711.5433000191371
 20
404.2956100223999
 30
0.0
 10
711.5854754844997
 20
403.9994565633518
 30
0.0
 10
711.6121167625599
 20
403.7023798939448
 30
0.0
 10
711.6154308136912
 20
403.5040135808283
 30
0.0
 10
711.6170852865303
 20
403.404983220629
 30
0.0
  0
LINE
  5
1C2
330
1F
100
AcDbEntity
  8
0
  6
Continuous
 62
     7
370
    15
100
AcDbLine
 10
704.6170848395
 20
409.6231423163
 30
0.0
 11
664.6170857336
 21
409.6231423163
 31
0.0
  0
SPLINE
  5
1C3
330
1F
100
AcDbEntity
  8
0
  6
Continuous
 62
     7
370
    15
100
AcDbSpline
210
0.0
220
0.0
230
1.0
 70
     8
 71
     3
 72
    28
 73
    24
 74
     0
 42
0.00000001
 43
0.00000001
 12
1.0
 22
0.0
 32
0.0
 13
1.0
 23
0.0
 33
0.0
 40
0.0
 40
0.0
 40
0.0
 40
0.0
 40
0.0209704468456403
 40
0.0419002821617437
 40
0.0628103237040412
 40
0.0940360520395372
 40
0.125251057481395
 40
0.1875796624348945
 40
0.2500794432061061
 40
0.3126791310555214
 40
0.37516203812548
 40
0.4375666156565043
 40
0.4999389816392977
 40
0.5622991968171731
 40
0.6246587301391412
 40
0.6870378409219522
 40
0.7494435103556577
 40
0.8118867391114806
 40
0.8743998125675488
 40
0.9370534252845716
 40
0.9621901283936063
 40
0.9810841444152812
 40
1.0
 40
1.0
 40
1.0
 40
1.0
 10
657.6170852865301
 20
403.404983220629
 30
0.0
 10
657.6177923618524
 20
403.471059931326
 30
0.0
 10
657.6192051431693
 20
403.6030853880509
 30
0.0
 10
657.6306412938887
 20
403.8010751879643
 30
0.0
 10
657.6519124877113
 20
404.0311579337143
 30
0.0
 10
657.6885532614111
 20
404.2930319566947
 30
0.0
 10
657.7651105439658
 20
404.6829571595127
 30
0.0
 10
657.9015547054994
 20
405.1653571055284
 30
0.0
 10
658.1285961898107
 20
405.7306395254554
 30
0.0
 10
658.4171402362863
 20
406.2771531171039
 30
0.0
 10
658.7647194507477
 20
406.7988177896633
 30
0.0
 10
659.1678971576808
 20
407.2903049205174
 30
0.0
 10
659.6233351555679
 20
407.7471618780465
 30
0.0
 10
660.1290283191086
 20
408.1633675468147
 30
0.0
 10
660.6802678778178
 20
408.5342706219295
 30
0.0
 10
661.2709229716472
 20
408.8569359117237
 30
0.0
 10
661.8954179320659
 20
409.1281015768623
 30
0.0
 10
662.5481003540041
 20
409.3446256496275
 30
0.0
 10
663.2232788392982
 20
409.5032590893769
 30
0.0
 10
663.7764794545158
 20
409.5813937639147
 30
0.0
 10
664.1720435170715
 20
409.6110749840814
 30
0.0
 10
664.4060154354199
 20
409.6213972642377
 30
0.0
 10
664.5467015819999
 20
409.622561326378
 30
0.0
 10
664.6170852865301
 20
409.6231436936382
 30
0.0
  0
LINE
  5
1C4
330
1F
100
AcDbEntity
  8
0
  6
Continuous
 62
     7
370
    15
100
AcDbLine
 10
704.6170848395
 20
403.3850990081
 30
0.0
 11
664.6170857336
 21
403.3850990081
 31
0.0
  0
SPLINE
  5
1C5
330
1F
100
AcDbEntity
  8
0
  6
Continuous
 62
     7
370
    15
100
AcDbSpline
210
0.0
220
0.0
230
1.0
 70
     8
 71
     3
 72
    16
 73
    12
 74
     0
 42
0.00000001
 43
0.00000001
 12
1.0
 22
0.0
 32
0.0
 13
1.0
 23
0.0
 33
0.0
 40
0.0
 40
0.0
 40
0.0
 40
0.0
 40
0.1250000000000017
 40
0.1250000000000017
 40
0.2500000000000034
 40
0.2500000000000034
 40
0.3750000000000051
 40
0.3750000000000051
 40
0.5000000000000068
 40
0.5000000000000068
 40
1.0
 40
1.0
 40
1.0
 40
1.0
 10
662.6170852865301
 20
401.6372162676627
 30
0.0
 10
662.6170852865301
 20
401.750516121382
 30
0.0
 10
662.6300397814487
 20
401.8620386092865
 30
0.0
 10
662.6801072809035
 20
402.0817634961022
 30
0.0
 10
662.7177178954668
 20
402.1909532684286
 30
0.0
 10
662.8161241841776
 20
402.4008709057761
 30
0.0
 10
662.8762440578276
 20
402.5007700510876
 30
0.0
 10
663.0184035613595
 20
402.6903582383484
 30
0.0
 10
663.1015657299281
 20
402.7808603563834
 30
0.0
 10
663.5594904933981
 20
403.1876861735399
 30
0.0
 10
664.0814942866896
 20
403.3851014398624
 30
0.0
 10
664.6170852865301
 20
403.3851014398624
 30
0.0
  0
LINE
  5
1C6
330
1F
100
AcDbEntity
  8
0
  6
Continuous
 62
     7
370
    15
100
AcDbLine
 10
662.6170854057
 20
359.2108078146
 30
0.0
 11
662.6170854057
 21
401.6372151518
 31
0.0
  0
SPLINE
  5
1C7
330
1F
100
AcDbEntity
  8
0
  6
Continuous
 62
     7
370
    15
100
AcDbSpline
210
0.0
220
0.0
230
1.0
 70
     8
 71
     3
 72
    18
 73
    14
 74
     0
 42
0.00000001
 43
0.00000001
 12
1.0
 22
0.0
 32
0.0
 13
1.0
 23
0.0
 33
0.0
 40
0.0
 40
0.0
 40
0.0
 40
0.0
 40
0.1250000000000006
 40
0.1250000000000006
 40
0.2500000000000012
 40
0.2500000000000012
 40
0.3750000000000018
 40
0.3750000000000018
 40
0.5000000000000023
 40
0.5000000000000023
 40
0.7500000000000011
 40
0.7500000000000011
 40
1.0
 40
1.0
 40
1.0
 40
1.0
 10
664.6170852865301
 20
358.1302674439232
 30
0.0
 10
664.4831935149746
 20
358.1302674439232
 30
0.0
 10
664.3517906119062
 20
358.137661337222
 30
0.0
 10
664.0935289198387
 20
358.1659695392133
 30
0.0
 10
663.965323737727
 20
358.1872408937094
 30
0.0
 10
663.721826884495
 20
358.2420092872179
 30
0.0
 10
663.6063631650021
 20
358.2753231442463
 30
0.0
 10
663.3880462611266
 20
358.3539316155362
 30
0.0
 10
663.2854202445835
 20
358.3993964847368
 30
0.0
 10
663.0112764628583
 20
358.5487386849535
 30
0.0
 10
662.8658451222332
 20
358.6690975680579
 30
0.0
 10
662.6699648586406
 20
358.9278184292131
 30
0.0
 10
662.6170852865301
 20
359.0684414680472
 30
0.0
 10
662.6170852865301
 20
359.2108093964698
 30
0.0
  0
LINE
  5
1C8
330
1F
100
AcDbEntity
  8
0
  6
Continuous
 62
     7
370
    15
100
AcDbLine
 10
704.6170848395
 20
358.1302650118
 30
0.0
 11
664.6170857336
 21
358.1302650118
 31
0.0
  0
SPLINE
  5
1C9
330
1F
100
AcDbEntity
  8
0
  6
Continuous
 62
     7
370
    15
100
AcDbSpline
210
0.0
220
0.0
230
1.0
 70
     8
 71
     3
 72
    16
 73
    12
 74
     0
 42
0.00000001
 43
0.00000001
 12
1.0
 22
0.0
 32
0.0
 13
1.0
 23
0.0
 33
0.0
 40
0.0
 40
0.0
 40
0.0
 40
0.0
 40
0.1250000000000003
 40
0.1250000000000003
 40
0.2500000000000007
 40
0.2500000000000007
 40
0.375000000000001
 40
0.375000000000001
 40
0.5000000000000013
 40
0.5000000000000013
 40
1.0
 40
1.0
 40
1.0
 40
1.0
 10
706.6170852865303
 20
359.2108093964698
 30
0.0
 10
706.6170852865303
 20
359.1395699522871
 30
0.0
 10
706.6041307916117
 20
359.0696829188936
 30
0.0
 10
706.554063292157
 20
358.9324220921367
 30
0.0
 10
706.5164526775936
 20
358.864436295467
 30
0.0
 10
706.4180463888829
 20
358.7341256871529
 30
0.0
 10
706.3579265152327
 20
358.6723104092382
 30
0.0
 10
706.2157670117009
 20
358.55530423258
 30
0.0
 10
706.1326048431324
 20
358.4996164891247
 30
0.0
 10
705.6746800796624
 20
358.2498412060439
 30
0.0
 10
705.1526762863708
 20
358.1302674439232
 30
0.0
 10
704.6170852865303
 20
358.1302674439232
 30
0.0
  0
LINE
  5
1CA
330
1F
100
AcDbEntity
  8
0
  6
Continuous
 62
     7
370
    15
100
AcDbLine
 10
706.6170851673
 20
401.6372151518
 30
0.0
 11
706.6170851673
 21
359.2108078146
 31
0.0
  0
SPLINE
  5
1CB
330
1F
100
AcDbEntity
  8
0
  6
Continuous
 62
     7
370
    15
100
AcDbSpline
210
0.0
220
0.0
230
1.0
 70
     8
 71
     3
 72
    18
 73
    14
 74
     0
 42
0.00000001
 43
0.00000001
 12
1.0
 22
0.0
 32
0.0
 13
1.0
 23
0.0
 33
0.0
 40
0.0
 40
0.0
 40
0.0
 40
0.0
 40
0.125000000000002
 40
0.125000000000002
 40
0.2500000000000041
 40
0.2500000000000041
 40
0.3750000000000061
 40
0.3750000000000061
 40
0.5000000000000081
 40
0.5000000000000081
 40
0.750000000000004
 40
0.750000000000004
 40
1.0
 40
1.0
 40
1.0
 40
1.0
 10
704.6170852865303
 20
403.3851014398624
 30
0.0
 10
704.7509770580858
 20
403.3851014398624
 30
0.0
 10
704.8823799611544
 20
403.3729311660277
 30
0.0
 10
705.1406416532217
 20
403.3263831061712
 30
0.0
 10
705.2688468353335
 20
403.2914193352858
 30
0.0
 10
705.5123436885656
 20
403.2015431912683
 30
0.0
 10
705.6278074080583
 20
403.146930758111
 30
0.0
 10
705.8461243119337
 20
403.0183443213894
 30
0.0
 10
705.9487503284769
 20
402.9440966764912
 30
0.0
 10
706.2228941102021
 20
402.700849242249
 30
0.0
 10
706.3683254508272
 20
402.5056302344389
 30
0.0
 10
706.5642057144198
 20
402.0888454952803
 30
0.0
 10
706.6170852865303
 20
401.8636395034092
 30
0.0
 10
706.6170852865303
 20
401.6372162676627
 30
0.0
  0
LINE
  5
1CC
330
1F
100
AcDbEntity
  8
0
  6
Continuous
 62
     7
370
    15
100
AcDbLine
 10
711.6170859869
 20
401.6372151518
 30
0.0
 11
711.6170859869
 21
359.2108078146
 31
0.0
  0
SPLINE
  5
1CD
330
1F
100
AcDbEntity
  8
0
  6
Continuous
 62
     7
370
    15
100
AcDbSpline
210
0.0
220
0.0
230
1.0
 70
     8
 71
     3
 72
    12
 73
     8
 74
     0
 42
0.00000001
 43
0.00000001
 12
1.0
 22
0.0
 32
0.0
 13
1.0
 23
0.0
 33
0.0
 40
0.0
 40
0.0
 40
0.0
 40
0.0
 40
0.4999999999999994
 40
0.4999999999999994
 40
0.7499999999999998
 40
0.7499999999999998
 40
1.0
 40
1.0
 40
1.0
 40
1.0
 10
704.6170852865303
 20
355.5294749328673
 30
0.0
 10
706.4965944951406
 20
355.5294749328673
 30
0.0
 10
708.3215990112919
 20
355.9241042705107
 30
0.0
 10
710.242815157567
 20
356.9333534220514
 30
0.0
 10
710.7510959165178
 20
357.336527124497
 30
0.0
 10
711.4398817086415
 20
358.2299114099407
 30
0.0
 10
711.6170852865303
 20
358.711020596148
 30
0.0
 10
711.6170852865303
 20
359.2108093964698
 30
0.0
  0
LINE
  5
1CE
330
1F
100
AcDbEntity
  8
0
  6
Continuous
 62
     7
370
    15
100
AcDbLine
 10
704.6170848395
 20
355.5294759417
 30
0.0
 11
664.6170857336
 21
355.5294759417
 31
0.0
  0
SPLINE
  5
1CF
330
1F
100
AcDbEntity
  8
0
  6
Continuous
 62
     7
370
    15
100
AcDbSpline
210
0.0
220
0.0
230
1.0
 70
     8
 71
     3
 72
    12
 73
     8
 74
     0
 42
0.00000001
 43
0.00000001
 12
1.0
 22
0.0
 32
0.0
 13
1.0
 23
0.0
 33
0.0
 40
0.0
 40
0.0
 40
0.0
 40
0.0
 40
0.5000000000000016
 40
0.5000000000000016
 40
0.7500000000000008
 40
0.7500000000000008
 40
1.0
 40
1.0
 40
1.0
 40
1.0
 10
657.6170852865301
 20
359.2108093964698
 30
0.0
 10
657.6170852865301
 20
358.2117982727274
 30
0.0
 10
658.356285945074
 20
357.2660841486631
 30
0.0
 10
660.274219233278
 20
356.2598850843697
 30
0.0
 10
661.050915783733
 20
355.9895419112187
 30
0.0
 10
662.7558175730069
 20
355.6247160767454
 30
0.0
 10
663.6778944599643
 20
355.5294749328673
 30
0.0
 10
664.6170852865301
 20
355.5294749328673
 30
0.0
  0
LINE
  5
1D0
330
1F
100
AcDbEntity
  8
0
  6
Continuous
 62
     7
370
    15
100
AcDbLine
 10
657.6170845862
 20
359.2108078146
 30
0.0
 11
657.6170845862
 21
401.6372151518
 31
0.0
  0
SPLINE
  5
1D1
330
1F
100
AcDbEntity
  8
0
  6
Continuous
 62
     7
370
    15
100
AcDbSpline
210
0.0
220
0.0
230
1.0
 70
     8
 71
     3
 72
    12
 73
     8
 74
     0
 42
0.00000001
 43
0.00000001
 12
1.0
 22
0.0
 32
0.0
 13
1.0
 23
0.0
 33
0.0
 40
0.0
 40
0.0
 40
0.0
 40
0.0
 40
0.4999999999999998
 40
0.4999999999999998
 40
0.7499999999999999
 40
0.7499999999999999
 40
1.0
 40
1.0
 40
1.0
 40
1.0
 10
664.6170852865301
 20
407.8553767406719
 30
0.0
 10
662.7375760779198
 20
407.8553767406719
 30
0.0
 10
660.9125715617686
 20
407.1374966894703
 30
0.0
 10
658.9913554154934
 20
405.3902508668949
 30
0.0
 10
658.4830746565425
 20
404.7026874332884
 30
0.0
 10
657.794288864419
 20
403.2160516279333
 30
0.0
 10
657.6170852865301
 20
402.4320848775562
 30
0.0
 10
657.6170852865301
 20
401.6372162676627
 30
0.0
  0
LINE
  5
1D2
330
1F
100
AcDbEntity
  8
0
  6
Continuous
 62
     7
370
    15
100
AcDbLine
 10
704.6170848395
 20
407.855380311
 30
0.0
 11
664.6170857336
 21
407.855380311
 31
0.0
  0
SPLINE
  5
1D3
330
1F
100
AcDbEntity
  8
0
  6
Continuous
 62
     7
370
    15
100
AcDbSpline
210
0.0
220
0.0
230
1.0
 70
     8
 71
     3
 72
    12
 73
     8
 74
     0
 42
0.00000001
 43
0.00000001
 12
1.0
 22
0.0
 32
0.0
 13
1.0
 23
0.0
 33
0.0
 40
0.0
 40
0.0
 40
0.0
 40
0.0
 40
0.5000000000000004
 40
0.5000000000000004
 40
0.7500000000000002
 40
0.7500000000000002
 40
1.0
 40
1.0
 40
1.0
 40
1.0
 10
711.6170852865303
 20
401.6372162676627
 30
0.0
 10
711.6170852865303
 20
403.2260525574835
 30
0.0
 10
710.8778846279864
 20
404.8141507925583
 30
0.0
 10
708.9599513397824
 20
406.5562146229613
 30
0.0
 10
708.1832547893274
 20
407.0342591635974
 30
0.0
 10
706.4783530000535
 20
407.6834522959728
 30
0.0
 10
705.5562761130961
 20
407.8553767406719
 30
0.0
 10
704.6170852865303
 20
407.8553767406719
 30
0.0
  0
LINE
  5
1D4
330
1F
100
AcDbEntity
  8
0
  6
Continuous
 62
     7
370
    15
100
AcDbLine
 10
711.6170859869
 20
403.4049846077
 30
0.0
 11
711.6170859869
 21
401.6372151518
 31
0.0
  0
LINE
  5
1D5
330
1F
100
AcDbEntity
  8
0
  6
Continuous
 62
     7
370
    15
100
AcDbLine
 10
657.6170845862
 20
403.4049846077
 30
0.0
 11
657.6170845862
 21
401.6372151518
 31
0.0
  0
SPLINE
  5
1D6
330
1F
100
AcDbEntity
  8
0
  6
Continuous
 62
     7
370
    15
100
AcDbSpline
210
0.0
220
0.0
230
1.0
 70
     8
 71
     3
 72
    16
 73
    12
 74
     0
 42
0.00000001
 43
0.00000001
 12
1.0
 22
0.0
 32
0.0
 13
1.0
 23
0.0
 33
0.0
 40
0.0
 40
0.0
 40
0.0
 40
0.0
 40
0.1249999999999991
 40
0.1249999999999991
 40
0.2499999999999981
 40
0.2499999999999981
 40
0.3749999999999972
 40
0.3749999999999972
 40
0.4999999999999962
 40
0.4999999999999962
 40
1.0
 40
1.0
 40
1.0
 40
1.0
 10
706.6170852865303
 20
360.9785763494361
 30
0.0
 10
706.6170852865303
 20
360.9073369052534
 30
0.0
 10
706.6041307916117
 20
360.83744987186
 30
0.0
 10
706.554063292157
 20
360.7001890451031
 30
0.0
 10
706.5164526775936
 20
360.6322032484334
 30
0.0
 10
706.4180463888829
 20
360.5018926401193
 30
0.0
 10
706.3579265152327
 20
360.4400773622046
 30
0.0
 10
706.2157670117009
 20
360.3230711855463
 30
0.0
 10
706.1326048431324
 20
360.2673834420911
 30
0.0
 10
705.6746800796624
 20
360.0176081590103
 30
0.0
 10
705.1526762863708
 20
359.8980343968896
 30
0.0
 10
704.6170852865303
 20
359.8980343968896
 30
0.0
  0
LINE
  5
1D7
330
1F
100
AcDbEntity
  8
0
  6
Continuous
 62
     7
370
    15
100
AcDbLine
 10
704.6170848395
 20
359.8980344677
 30
0.0
 11
664.6170857336
 21
359.8980344677
 31
0.0
  0
SPLINE
  5
1D8
330
1F
100
AcDbEntity
  8
0
  6
Continuous
 62
     7
370
    15
100
AcDbSpline
210
0.0
220
0.0
230
1.0
 70
     8
 71
     3
 72
    18
 73
    14
 74
     0
 42
0.00000001
 43
0.00000001
 12
1.0
 22
0.0
 32
0.0
 13
1.0
 23
0.0
 33
0.0
 40
0.0
 40
0.0
 40
0.0
 40
0.0
 40
0.1250000000000002
 40
0.1250000000000002
 40
0.2500000000000004
 40
0.2500000000000004
 40
0.3750000000000007
 40
0.3750000000000007
 40
0.5000000000000009
 40
0.5000000000000009
 40
0.7500000000000004
 40
0.7500000000000004
 40
1.0
 40
1.0
 40
1.0
 40
1.0
 10
664.6170852865301
 20
359.8980343968896
 30
0.0
 10
664.4831935149746
 20
359.8980343968896
 30
0.0
 10
664.351790611906
 20
359.9054282901884
 30
0.0
 10
664.0935289198387
 20
359.9337364921797
 30
0.0
 10
663.9653237377269
 20
359.9550078466758
 30
0.0
 10
663.7218268844949
 20
360.0097762401842
 30
0.0
 10
663.6063631650021
 20
360.0430900972127
 30
0.0
 10
663.3880462611266
 20
360.1216985685026
 30
0.0
 10
663.2854202445835
 20
360.1671634377032
 30
0.0
 10
663.0112764628583
 20
360.3165056379199
 30
0.0
 10
662.8658451222332
 20
360.4368645210243
 30
0.0
 10
662.6699648586406
 20
360.6955853821795
 30
0.0
 10
662.6170852865301
 20
360.8362084210135
 30
0.0
 10
662.6170852865301
 20
360.9785763494361
 30
0.0
  0
LINE
  5
1D9
330
1F
100
AcDbEntity
  8
0
  6
Continuous
 62
     7
370
    15
100
AcDbLine
 10
581.6170851673
 20
690.2643255735
 30
0.0
 11
562.6170839156
 21
690.2643255735
 31
0.0
  0
LINE
  5
1DA
330
1F
100
AcDbEntity
  8
0
  6
Continuous
 62
     7
370
    15
100
AcDbLine
 10
581.6170851673
 20
659.0611003184
 30
0.0
 11
581.6170851673
 21
690.2643255735
 31
0.0
  0
LINE
  5
1DB
330
1F
100
AcDbEntity
  8
0
  6
Continuous
 62
     7
370
    15
100
AcDbLine
 10
562.6170839156
 20
659.0611003184
 30
0.0
 11
562.6170839156
 21
690.2643255735
 31
0.0
  0
LINE
  5
1DC
330
1F
100
AcDbEntity
  8
0
  6
Continuous
 62
     7
370
    15
100
AcDbLine
 10
581.6170851673
 20
260.2643333221
 30
0.0
 11
562.6170839156
 21
260.2643333221
 31
0.0
  0
LINE
  5
1DD
330
1F
100
AcDbEntity
  8
0
  6
Continuous
 62
     7
370
    15
100
AcDbLine
 10
581.6170851673
 20
291.4675734782
 30
0.0
 11
581.6170851673
 21
260.2643333221
 31
0.0
  0
LINE
  5
1DE
330
1F
100
AcDbEntity
  8
0
  6
Continuous
 62
     7
370
    15
100
AcDbLine
 10
562.6170839156
 20
291.4675734782
 30
0.0
 11
562.6170839156
 21
260.2643333221
 31
0.0
  0
LINE
  5
1DF
330
1F
100
AcDbEntity
  8
0
  6
Continuous
 62
     7
370
    15
100
AcDbLine
 10
787.6170854057
 20
690.2643255735
 30
0.0
 11
806.6170866574
 21
690.2643255735
 31
0.0
  0
LINE
  5
1E0
330
1F
100
AcDbEntity
  8
0
  6
Continuous
 62
     7
370
    15
100
AcDbLine
 10
806.6170866574
 20
659.0611003184
 30
0.0
 11
806.6170866574
 21
690.2643255735
 31
0.0
  0
LINE
  5
1E1
330
1F
100
AcDbEntity
  8
0
  6
Continuous
 62
     7
370
    15
100
AcDbLine
 10
787.6170854057
 20
659.0611003184
 30
0.0
 11
787.6170854057
 21
690.2643255735
 31
0.0
  0
LINE
  5
1E2
330
1F
100
AcDbEntity
  8
0
  6
Continuous
 62
     7
370
    15
100
AcDbLine
 10
787.6170854057
 20
260.2643333221
 30
0.0
 11
806.6170866574
 21
260.2643333221
 31
0.0
  0
LINE
  5
1E3
330
1F
100
AcDbEntity
  8
0
  6
Continuous
 62
     7
370
    15
100
AcDbLine
 10
806.6170866574
 20
291.4675734782
 30
0.0
 11
806.6170866574
 21
260.2643333221
 31
0.0
  0
LINE
  5
1E4
330
1F
100
AcDbEntity
  8
0
  6
Continuous
 62
     7
370
    15
100
AcDbLine
 10
787.6170854057
 20
291.4675734782
 30
0.0
 11
787.6170854057
 21
260.2643333221
 31
0.0
  0
LINE
  5
1E5
330
1F
100
AcDbEntity
  8
0
  6
Continuous
 62
     7
370
    15
100
AcDbLine
 10
667.117085212
 20
308.2643262887
 30
0.0
 11
702.117085361
 21
308.2643262887
 31
0.0
  0
LINE
  5
1E6
330
1F
100
AcDbEntity
  8
0
  6
Continuous
 62
     7
370
    15
100
AcDbLine
 10
667.117085212
 20
642.2643326068
 30
0.0
 11
702.117085361
 21
642.2643326068
 31
0.0
  0
LINE
  5
1E7
330
1F
100
AcDbEntity
  8
0
  6
Continuous
 62
     8
370
     0
100
AcDbLine
 10
664.6170857336
 20
409.6231423163
 30
0.0
 11
664.6170857336
 21
407.855380311
 31
0.0
  0
LINE
  5
1E8
330
1F
100
AcDbEntity
  8
0
  6
Continuous
 62
     8
370
     0
100
AcDbLine
 10
704.6170848395
 20
409.6231423163
 30
0.0
 11
704.6170848395
 21
407.855380311
 31
0.0
  0
LINE
  5
1E9
330
1F
100
AcDbEntity
  8
0
  6
Continuous
 62
     8
370
     0
100
AcDbLine
 10
704.6170848395
 20
359.8980344677
 30
0.0
 11
704.6170848395
 21
358.1302650118
 31
0.0
  0
LINE
  5
1EA
330
1F
100
AcDbEntity
  8
0
  6
Continuous
 62
     8
370
     0
100
AcDbLine
 10
664.6170857336
 20
359.8980344677
 30
0.0
 11
664.6170857336
 21
358.1302650118
 31
0.0
  0
INSERT
  5
1F6
330
1F
100
AcDbEntity
  8
FORMAT
 62
     7
100
AcDbBlockReference
  2
SW_CENTERMARKSYMBOL_1
 10
684.6170852865
 20
480.26433213
 30
0.0
  0
LINE
  5
1F7
330
1F
100
AcDbEntity
  8
0
  6
Continuous
 62
     7
370
    15
100
AcDbLine
 10
413.2724193686
 20
125.7185818501
 30
0.0
 11
413.2724193686
 21
144.7185831018
 31
0.0
  0
LINE
  5
1F8
330
1F
100
AcDbEntity
  8
0
  6
Continuous
 62
     7
370
    15
100
AcDbLine
 10
8.2724181765
 20
144.7185831018
 30
0.0
 11
8.2724181765
 21
125.7185818501
 31
0.0
  0
LINE
  5
1F9
330
1F
100
AcDbEntity
  8
0
  6
Continuous
 62
     7
370
    15
100
AcDbLine
 10
413.2724193686
 20
-99.28141964
 30
0.0
 11
413.2724193686
 21
-80.2814183883
 31
0.0
  0
LINE
  5
1FA
330
1F
100
AcDbEntity
  8
0
  6
Continuous
 62
     7
370
    15
100
AcDbLine
 10
8.2724181765
 20
-80.2814183883
 30
0.0
 11
8.2724181765
 21
-99.28141964
 31
0.0
  0
LINE
  5
1FB
330
1F
100
AcDbEntity
  8
0
  6
Continuous
 62
     7
370
    15
100
AcDbLine
 10
51.2724159115
 20
147.7185817309
 30
0.0
 11
51.2724159115
 21
144.7185831018
 31
0.0
  0
LINE
  5
1FC
330
1F
100
AcDbEntity
  8
0
  6
Continuous
 62
     7
370
    15
100
AcDbLine
 10
370.2724216336
 20
144.7185831018
 30
0.0
 11
370.2724216336
 21
147.7185817309
 31
0.0
  0
LINE
  5
1FD
330
1F
100
AcDbEntity
  8
0
  6
Continuous
 62
     7
370
    15
100
AcDbLine
 10
51.2724159115
 20
-99.28141964
 30
0.0
 11
51.2724159115
 21
-102.2814182691
 31
0.0
  0
LINE
  5
1FE
330
1F
100
AcDbEntity
  8
0
  6
Continuous
 62
     7
370
    15
100
AcDbLine
 10
370.2724216336
 20
-102.2814182691
 30
0.0
 11
370.2724216336
 21
-99.28141964
 31
0.0
  0
LINE
  5
1FF
330
1F
100
AcDbEntity
  8
0
  6
Continuous
 62
     7
370
    15
100
AcDbLine
 10
250.3157717937
 20
38.7376261749
 30
0.0
 11
249.2551108652
 21
38.7376261749
 31
0.0
  0
LINE
  5
200
330
1F
100
AcDbEntity
  8
0
  6
Continuous
 62
     7
370
    15
100
AcDbLine
 10
266.8215049261
 20
44.6971127637
 30
0.0
 11
265.7608067447
 21
44.6971127637
 31
0.0
  0
LINE
  5
201
330
1F
100
AcDbEntity
  8
0
  6
Continuous
 62
     7
370
    15
100
AcDbLine
 10
265.7608551735
 20
26.9589241468
 30
0.0
 11
266.8215794319
 21
26.9589241468
 31
0.0
  0
LINE
  5
202
330
1F
100
AcDbEntity
  8
0
  6
Continuous
 62
     7
370
    15
100
AcDbLine
 10
266.821542179
 20
18.4782351241
 30
0.0
 11
265.7608067447
 21
18.4782351241
 31
0.0
  0
LINE
  5
203
330
1F
100
AcDbEntity
  8
0
  6
Continuous
 62
     7
370
    15
100
AcDbLine
 10
265.7608551735
 20
-1.9302299372
 30
0.0
 11
266.8215794319
 21
-1.9302299372
 31
0.0
  0
LINE
  5
204
330
1F
100
AcDbEntity
  8
0
  6
Continuous
 62
     7
370
    15
100
AcDbLine
 10
-23.2275786048
 20
-39.7814182691
 30
0.0
 11
-5.727580393
 21
-39.7814182691
 31
0.0
  0
LINE
  5
205
330
1F
100
AcDbEntity
  8
0
  6
Continuous
 62
     7
370
    15
100
AcDbLine
 10
-5.727580393
 20
85.2185817309
 30
0.0
 11
-23.2275786048
 21
85.2185817309
 31
0.0
  0
LINE
  5
206
330
1F
100
AcDbEntity
  8
0
  6
Continuous
 62
     7
370
    15
100
AcDbLine
 10
471.7724261635
 20
85.2185817309
 30
0.0
 11
427.2724179381
 21
85.2185817309
 31
0.0
  0
LINE
  5
207
330
1F
100
AcDbEntity
  8
0
  6
Continuous
 62
     7
370
    15
100
AcDbLine
 10
427.2724179381
 20
-39.7814182691
 30
0.0
 11
471.7724261635
 21
-39.7814182691
 31
0.0
  0
LINE
  5
208
330
1F
100
AcDbEntity
  8
0
  6
Continuous
 62
     7
370
    15
100
AcDbLine
 10
-102.2275747901
 20
59.2185811945
 30
0.0
 11
-103.2275917179
 21
59.2185811945
 31
0.0
  0
LINE
  5
209
330
1F
100
AcDbEntity
  8
0
  6
Continuous
 62
     7
370
    15
100
AcDbLine
 10
-103.2275917179
 20
-13.7814177326
 30
0.0
 11
-102.2275747901
 21
-13.7814177326
 31
0.0
  0
LINE
  5
20A
330
1F
100
AcDbEntity
  8
0
  6
Continuous
 62
     7
370
    15
100
AcDbLine
 10
-23.2275786048
 20
91.7185800024
 30
0.0
 11
-53.637570346
 21
91.7185800024
 31
0.0
  0
LINE
  5
20B
330
1F
100
AcDbEntity
  8
0
  6
Continuous
 62
     7
370
    15
100
AcDbLine
 10
-73.1775822288
 20
91.7185800024
 30
0.0
 11
-102.2275747901
 21
91.7185800024
 31
0.0
  0
LINE
  5
20C
330
1F
100
AcDbEntity
  8
0
  6
Continuous
 62
     7
370
    15
100
AcDbLine
 10
295.7724196666
 20
125.7185818501
 30
0.0
 11
295.7724196666
 21
144.7185831018
 31
0.0
  0
LINE
  5
20D
330
1F
100
AcDbEntity
  8
0
  6
Continuous
 62
     7
370
    15
100
AcDbLine
 10
260.7724195176
 20
125.7185818501
 30
0.0
 11
295.7724196666
 21
125.7185818501
 31
0.0
  0
LINE
  5
20E
330
1F
100
AcDbEntity
  8
0
  6
Continuous
 62
     7
370
    15
100
AcDbLine
 10
260.7724195176
 20
125.7185818501
 30
0.0
 11
260.7724195176
 21
144.7185831018
 31
0.0
  0
LINE
  5
20F
330
1F
100
AcDbEntity
  8
0
  6
Continuous
 62
     7
370
    15
100
AcDbLine
 10
260.7724195176
 20
144.7185831018
 30
0.0
 11
295.7724196666
 21
144.7185831018
 31
0.0
  0
LINE
  5
210
330
1F
100
AcDbEntity
  8
0
  6
Continuous
 62
     7
370
    15
100
AcDbLine
 10
160.7724180275
 20
125.7185818501
 30
0.0
 11
160.7724180275
 21
144.7185831018
 31
0.0
  0
LINE
  5
211
330
1F
100
AcDbEntity
  8
0
  6
Continuous
 62
     7
370
    15
100
AcDbLine
 10
125.7724178785
 20
125.7185818501
 30
0.0
 11
160.7724180275
 21
125.7185818501
 31
0.0
  0
LINE
  5
212
330
1F
100
AcDbEntity
  8
0
  6
Continuous
 62
     7
370
    15
100
AcDbLine
 10
125.7724178785
 20
144.7185831018
 30
0.0
 11
160.7724180275
 21
144.7185831018
 31
0.0
  0
LINE
  5
213
330
1F
100
AcDbEntity
  8
0
  6
Continuous
 62
     7
370
    15
100
AcDbLine
 10
125.7724178785
 20
125.7185818501
 30
0.0
 11
125.7724178785
 21
144.7185831018
 31
0.0
  0
LINE
  5
214
330
1F
100
AcDbEntity
  8
0
  6
Continuous
 62
     7
370
    15
100
AcDbLine
 10
250.7724178785
 20
125.7185818501
 30
0.0
 11
260.7724195176
 21
125.7185818501
 31
0.0
  0
LINE
  5
215
330
1F
100
AcDbEntity
  8
0
  6
Continuous
 62
     7
370
    15
100
AcDbLine
 10
250.7724178785
 20
125.7185818501
 30
0.0
 11
250.7724178785
 21
144.7185831018
 31
0.0
  0
LINE
  5
216
330
1F
100
AcDbEntity
  8
0
  6
Continuous
 62
     7
370
    15
100
AcDbLine
 10
250.7724178785
 20
144.7185831018
 30
0.0
 11
260.7724195176
 21
144.7185831018
 31
0.0
  0
LINE
  5
217
330
1F
100
AcDbEntity
  8
0
  6
Continuous
 62
     7
370
    15
100
AcDbLine
 10
170.7724196666
 20
125.7185818501
 30
0.0
 11
170.7724196666
 21
144.7185831018
 31
0.0
  0
LINE
  5
218
330
1F
100
AcDbEntity
  8
0
  6
Continuous
 62
     7
370
    15
100
AcDbLine
 10
160.7724180275
 20
125.7185818501
 30
0.0
 11
170.7724196666
 21
125.7185818501
 31
0.0
  0
LINE
  5
219
330
1F
100
AcDbEntity
  8
0
  6
Continuous
 62
     7
370
    15
100
AcDbLine
 10
160.7724180275
 20
144.7185831018
 30
0.0
 11
170.7724196666
 21
144.7185831018
 31
0.0
  0
LINE
  5
21A
330
1F
100
AcDbEntity
  8
0
  6
Continuous
 62
     7
370
    15
100
AcDbLine
 10
260.7724195176
 20
-80.2814183883
 30
0.0
 11
260.7724195176
 21
-99.28141964
 31
0.0
  0
LINE
  5
21B
330
1F
100
AcDbEntity
  8
0
  6
Continuous
 62
     7
370
    15
100
AcDbLine
 10
260.7724195176
 20
-80.2814183883
 30
0.0
 11
295.7724196666
 21
-80.2814183883
 31
0.0
  0
LINE
  5
21C
330
1F
100
AcDbEntity
  8
0
  6
Continuous
 62
     7
370
    15
100
AcDbLine
 10
260.7724195176
 20
-99.28141964
 30
0.0
 11
295.7724196666
 21
-99.28141964
 31
0.0
  0
LINE
  5
21D
330
1F
100
AcDbEntity
  8
0
  6
Continuous
 62
     7
370
    15
100
AcDbLine
 10
295.7724196666
 20
-80.2814183883
 30
0.0
 11
295.7724196666
 21
-99.28141964
 31
0.0
  0
LINE
  5
21E
330
1F
100
AcDbEntity
  8
0
  6
Continuous
 62
     7
370
    15
100
AcDbLine
 10
160.7724180275
 20
-80.2814183883
 30
0.0
 11
160.7724180275
 21
-99.28141964
 31
0.0
  0
LINE
  5
21F
330
1F
100
AcDbEntity
  8
0
  6
Continuous
 62
     7
370
    15
100
AcDbLine
 10
125.7724178785
 20
-99.28141964
 30
0.0
 11
160.7724180275
 21
-99.28141964
 31
0.0
  0
LINE
  5
220
330
1F
100
AcDbEntity
  8
0
  6
Continuous
 62
     7
370
    15
100
AcDbLine
 10
125.7724178785
 20
-80.2814183883
 30
0.0
 11
160.7724180275
 21
-80.2814183883
 31
0.0
  0
LINE
  5
221
330
1F
100
AcDbEntity
  8
0
  6
Continuous
 62
     7
370
    15
100
AcDbLine
 10
125.7724178785
 20
-80.2814183883
 30
0.0
 11
125.7724178785
 21
-99.28141964
 31
0.0
  0
LINE
  5
222
330
1F
100
AcDbEntity
  8
0
  6
Continuous
 62
     7
370
    15
100
AcDbLine
 10
250.7724178785
 20
-80.2814183883
 30
0.0
 11
250.7724178785
 21
-99.28141964
 31
0.0
  0
LINE
  5
223
330
1F
100
AcDbEntity
  8
0
  6
Continuous
 62
     7
370
    15
100
AcDbLine
 10
250.7724178785
 20
-99.28141964
 30
0.0
 11
260.7724195176
 21
-99.28141964
 31
0.0
  0
LINE
  5
224
330
1F
100
AcDbEntity
  8
0
  6
Continuous
 62
     7
370
    15
100
AcDbLine
 10
250.7724178785
 20
-80.2814183883
 30
0.0
 11
260.7724195176
 21
-80.2814183883
 31
0.0
  0
LINE
  5
225
330
1F
100
AcDbEntity
  8
0
  6
Continuous
 62
     7
370
    15
100
AcDbLine
 10
170.7724196666
 20
-80.2814183883
 30
0.0
 11
170.7724196666
 21
-99.28141964
 31
0.0
  0
LINE
  5
226
330
1F
100
AcDbEntity
  8
0
  6
Continuous
 62
     7
370
    15
100
AcDbLine
 10
160.7724180275
 20
-99.28141964
 30
0.0
 11
170.7724196666
 21
-99.28141964
 31
0.0
  0
LINE
  5
227
330
1F
100
AcDbEntity
  8
0
  6
Continuous
 62
     7
370
    15
100
AcDbLine
 10
160.7724180275
 20
-80.2814183883
 30
0.0
 11
170.7724196666
 21
-80.2814183883
 31
0.0
  0
LINE
  5
228
330
1F
100
AcDbEntity
  8
0
  6
Continuous
 62
     7
370
    15
100
AcDbLine
 10
215.7724186608
 20
125.7185818501
 30
0.0
 11
215.7724186608
 21
144.7185831018
 31
0.0
  0
LINE
  5
229
330
1F
100
AcDbEntity
  8
0
  6
Continuous
 62
     7
370
    15
100
AcDbLine
 10
215.7724186608
 20
125.7185818501
 30
0.0
 11
250.7724178785
 21
125.7185818501
 31
0.0
  0
LINE
  5
22A
330
1F
100
AcDbEntity
  8
0
  6
Continuous
 62
     7
370
    15
100
AcDbLine
 10
215.7724186608
 20
144.7185831018
 30
0.0
 11
250.7724178785
 21
144.7185831018
 31
0.0
  0
LINE
  5
22B
330
1F
100
AcDbEntity
  8
0
  6
Continuous
 62
     7
370
    15
100
AcDbLine
 10
205.7724188843
 20
125.7185818501
 30
0.0
 11
205.7724188843
 21
144.7185831018
 31
0.0
  0
LINE
  5
22C
330
1F
100
AcDbEntity
  8
0
  6
Continuous
 62
     7
370
    15
100
AcDbLine
 10
210.7724187726
 20
125.7185818501
 30
0.0
 11
210.7724187726
 21
144.7185831018
 31
0.0
  0
LINE
  5
22D
330
1F
100
AcDbEntity
  8
0
  6
Continuous
 62
     7
370
    15
100
AcDbLine
 10
205.7724188843
 20
125.7185818501
 30
0.0
 11
210.7724187726
 21
125.7185818501
 31
0.0
  0
LINE
  5
22E
330
1F
100
AcDbEntity
  8
0
  6
Continuous
 62
     7
370
    15
100
AcDbLine
 10
210.7724187726
 20
144.7185831018
 30
0.0
 11
205.7724188843
 21
144.7185831018
 31
0.0
  0
LINE
  5
22F
330
1F
100
AcDbEntity
  8
0
  6
Continuous
 62
     7
370
    15
100
AcDbLine
 10
210.7724187726
 20
125.7185818501
 30
0.0
 11
215.7724186608
 21
125.7185818501
 31
0.0
  0
LINE
  5
230
330
1F
100
AcDbEntity
  8
0
  6
Continuous
 62
     7
370
    15
100
AcDbLine
 10
215.7724186608
 20
144.7185831018
 30
0.0
 11
210.7724187726
 21
144.7185831018
 31
0.0
  0
LINE
  5
231
330
1F
100
AcDbEntity
  8
0
  6
Continuous
 62
     7
370
    15
100
AcDbLine
 10
170.7724196666
 20
125.7185818501
 30
0.0
 11
205.7724188843
 21
125.7185818501
 31
0.0
  0
LINE
  5
232
330
1F
100
AcDbEntity
  8
0
  6
Continuous
 62
     7
370
    15
100
AcDbLine
 10
170.7724196666
 20
144.7185831018
 30
0.0
 11
205.7724188843
 21
144.7185831018
 31
0.0
  0
LINE
  5
233
330
1F
100
AcDbEntity
  8
0
  6
Continuous
 62
     7
370
    15
100
AcDbLine
 10
205.7724188843
 20
-80.2814183883
 30
0.0
 11
205.7724188843
 21
-99.28141964
 31
0.0
  0
LINE
  5
234
330
1F
100
AcDbEntity
  8
0
  6
Continuous
 62
     7
370
    15
100
AcDbLine
 10
210.7724187726
 20
-99.28141964
 30
0.0
 11
210.7724187726
 21
-80.2814183883
 31
0.0
  0
LINE
  5
235
330
1F
100
AcDbEntity
  8
0
  6
Continuous
 62
     7
370
    15
100
AcDbLine
 10
205.7724188843
 20
-99.28141964
 30
0.0
 11
210.7724187726
 21
-99.28141964
 31
0.0
  0
LINE
  5
236
330
1F
100
AcDbEntity
  8
0
  6
Continuous
 62
     7
370
    15
100
AcDbLine
 10
210.7724187726
 20
-80.2814183883
 30
0.0
 11
205.7724188843
 21
-80.2814183883
 31
0.0
  0
LINE
  5
237
330
1F
100
AcDbEntity
  8
0
  6
Continuous
 62
     7
370
    15
100
AcDbLine
 10
170.7724196666
 20
-99.28141964
 30
0.0
 11
205.7724188843
 21
-99.28141964
 31
0.0
  0
LINE
  5
238
330
1F
100
AcDbEntity
  8
0
  6
Continuous
 62
     7
370
    15
100
AcDbLine
 10
170.7724196666
 20
-80.2814183883
 30
0.0
 11
205.7724188843
 21
-80.2814183883
 31
0.0
  0
LINE
  5
239
330
1F
100
AcDbEntity
  8
0
  6
Continuous
 62
     7
370
    15
100
AcDbLine
 10
215.7724186608
 20
-99.28141964
 30
0.0
 11
215.7724186608
 21
-80.2814183883
 31
0.0
  0
LINE
  5
23A
330
1F
100
AcDbEntity
  8
0
  6
Continuous
 62
     7
370
    15
100
AcDbLine
 10
210.7724187726
 20
-99.28141964
 30
0.0
 11
215.7724186608
 21
-99.28141964
 31
0.0
  0
LINE
  5
23B
330
1F
100
AcDbEntity
  8
0
  6
Continuous
 62
     7
370
    15
100
AcDbLine
 10
215.7724186608
 20
-80.2814183883
 30
0.0
 11
210.7724187726
 21
-80.2814183883
 31
0.0
  0
LINE
  5
23C
330
1F
100
AcDbEntity
  8
0
  6
Continuous
 62
     7
370
    15
100
AcDbLine
 10
215.7724186608
 20
-99.28141964
 30
0.0
 11
250.7724178785
 21
-99.28141964
 31
0.0
  0
LINE
  5
23D
330
1F
100
AcDbEntity
  8
0
  6
Continuous
 62
     7
370
    15
100
AcDbLine
 10
215.7724186608
 20
-80.2814183883
 30
0.0
 11
250.7724178785
 21
-80.2814183883
 31
0.0
  0
LINE
  5
23E
330
1F
100
AcDbEntity
  8
0
  6
Continuous
 62
     7
370
    15
100
AcDbLine
 10
295.7724196666
 20
125.7185818501
 30
0.0
 11
413.2724193686
 21
125.7185818501
 31
0.0
  0
LINE
  5
23F
330
1F
100
AcDbEntity
  8
0
  6
Continuous
 62
     7
370
    15
100
AcDbLine
 10
295.7724196666
 20
144.7185831018
 30
0.0
 11
413.2724193686
 21
144.7185831018
 31
0.0
  0
LINE
  5
240
330
1F
100
AcDbEntity
  8
0
  6
Continuous
 62
     7
370
    15
100
AcDbLine
 10
8.2724181765
 20
125.7185818501
 30
0.0
 11
125.7724178785
 21
125.7185818501
 31
0.0
  0
LINE
  5
241
330
1F
100
AcDbEntity
  8
0
  6
Continuous
 62
     7
370
    15
100
AcDbLine
 10
8.2724181765
 20
144.7185831018
 30
0.0
 11
125.7724178785
 21
144.7185831018
 31
0.0
  0
LINE
  5
242
330
1F
100
AcDbEntity
  8
0
  6
Continuous
 62
     7
370
    15
100
AcDbLine
 10
295.7724196666
 20
-99.28141964
 30
0.0
 11
413.2724193686
 21
-99.28141964
 31
0.0
  0
LINE
  5
243
330
1F
100
AcDbEntity
  8
0
  6
Continuous
 62
     7
370
    15
100
AcDbLine
 10
295.7724196666
 20
-80.2814183883
 30
0.0
 11
413.2724193686
 21
-80.2814183883
 31
0.0
  0
LINE
  5
244
330
1F
100
AcDbEntity
  8
0
  6
Continuous
 62
     7
370
    15
100
AcDbLine
 10
8.2724181765
 20
-99.28141964
 30
0.0
 11
125.7724178785
 21
-99.28141964
 31
0.0
  0
LINE
  5
245
330
1F
100
AcDbEntity
  8
0
  6
Continuous
 62
     7
370
    15
100
AcDbLine
 10
8.2724181765
 20
-80.2814183883
 30
0.0
 11
125.7724178785
 21
-80.2814183883
 31
0.0
  0
CIRCLE
  5
246
330
1F
100
AcDbEntity
  8
0
  6
Continuous
 62
     7
370
    15
100
AcDbCircle
 10
-63.7275812274
 20
-48.2814182691
 30
0.0
 40
10.00000000000001
  0
CIRCLE
  5
247
330
1F
100
AcDbEntity
  8
0
  6
Continuous
 62
     7
370
    15
100
AcDbCircle
 10
210.7724187726
 20
22.7185817309
 30
0.0
 40
17.50000000000001
  0
SPLINE
  5
248
330
1F
100
AcDbEntity
  8
0
  6
Continuous
 62
     7
370
    15
100
AcDbSpline
210
0.0
220
0.0
230
1.0
 70
     8
 71
     3
 72
   102
 73
    98
 74
     0
 42
0.00000001
 43
0.00000001
 12
1.0
 22
0.0
 32
0.0
 13
1.0
 23
0.0
 33
0.0
 40
-0.0312499999999999
 40
-0.0312499999999999
 40
0.0
 40
0.0
 40
0.0312500000000001
 40
0.0312500000000001
 40
0.0468750000000002
 40
0.0468750000000002
 40
0.0625000000000002
 40
0.0625000000000002
 40
0.0937500000000002
 40
0.0937500000000002
 40
0.1093750000000003
 40
0.1093750000000003
 40
0.1250000000000003
 40
0.1250000000000003
 40
0.1562500000000003
 40
0.1562500000000003
 40
0.1718750000000003
 40
0.1718750000000003
 40
0.1875000000000003
 40
0.1875000000000003
 40
0.2031250000000003
 40
0.2031250000000003
 40
0.2187500000000004
 40
0.2187500000000004
 40
0.2500000000000004
 40
0.2500000000000004
 40
0.2656250000000004
 40
0.2656250000000004
 40
0.2812500000000003
 40
0.2812500000000003
 40
0.3125000000000003
 40
0.3125000000000003
 40
0.3281250000000003
 40
0.3281250000000003
 40
0.3437500000000003
 40
0.3437500000000003
 40
0.3750000000000004
 40
0.3750000000000004
 40
0.4062500000000004
 40
0.4062500000000004
 40
0.4218750000000004
 40
0.4218750000000004
 40
0.4375000000000004
 40
0.4375000000000004
 40
0.4687500000000004
 40
0.4687500000000004
 40
0.4843750000000004
 40
0.4843750000000004
 40
0.5000000000000003
 40
0.5000000000000003
 40
0.5312500000000003
 40
0.5312500000000003
 40
0.5468750000000004
 40
0.5468750000000004
 40
0.5625000000000004
 40
0.5625000000000004
 40
0.5781250000000006
 40
0.5781250000000006
 40
0.5937500000000007
 40
0.5937500000000007
 40
0.6250000000000007
 40
0.6250000000000007
 40
0.6406250000000008
 40
0.6406250000000008
 40
0.6562500000000008
 40
0.6562500000000008
 40
0.6875000000000008
 40
0.6875000000000008
 40
0.7031250000000008
 40
0.7031250000000008
 40
0.7187500000000008
 40
0.7187500000000008
 40
0.7500000000000007
 40
0.7500000000000007
 40
0.7812500000000006
 40
0.7812500000000006
 40
0.7968750000000006
 40
0.7968750000000006
 40
0.8125000000000004
 40
0.8125000000000004
 40
0.8437500000000004
 40
0.8437500000000004
 40
0.8593750000000003
 40
0.8593750000000003
 40
0.8750000000000003
 40
0.8750000000000003
 40
0.9062500000000002
 40
0.9062500000000002
 40
0.9218750000000002
 40
0.9218750000000002
 40
0.9375000000000001
 40
0.9375000000000001
 40
0.9531250000000001
 40
0.9531250000000001
 40
0.9687500000000001
 40
0.9687500000000001
 40
1.0
 40
1.0
 40
1.03125
 40
1.03125
 10
196.8557625627172
 20
34.75030149341104
 30
0.0
 10
198.5601917158224
 20
36.47131996869263
 30
0.0
 10
199.4825707434717
 20
37.23402507853862
 30
0.0
 10
200.967426741973
 20
38.23763574446683
 30
0.0
 10
201.4793863973564
 20
38.54858761066098
 30
0.0
 10
202.5381712602381
 20
39.12225597667181
 30
0.0
 10
203.0868541208046
 20
39.38542022261443
 30
0.0
 10
204.7503158829857
 20
40.08483012802772
 30
0.0
 10
205.8927108257741
 20
40.43832139737977
 30
0.0
 10
207.6561917555294
 20
40.80069910254204
 30
0.0
 10
208.2543781557979
 20
40.89351291589907
 30
0.0
 10
209.4594021176187
 20
41.0196258659868
 30
0.0
 10
210.060316198207
 20
41.05251422173014
 30
0.0
 10
211.8584145976128
 20
41.06352930127571
 30
0.0
 10
213.0509982328714
 20
40.95483554681911
 30
0.0
 10
214.8304451177833
 20
40.61369023863776
 30
0.0
 10
215.4213915031423
 20
40.46976194063829
 30
0.0
 10
216.5739626656818
 20
40.12841565035914
 30
0.0
 10
217.1389593786873
 20
39.93044080337248
 30
0.0
 10
218.2467614456361
 20
39.48073429943113
 30
0.0
 10
218.7895666430397
 20
39.22900242699358
 30
0.0
 10
219.8527306207893
 20
38.671054910397
 30
0.0
 10
220.3758057472868
 20
38.36296765219604
 30
0.0
 10
221.887674742809
 20
37.36861604372997
 30
0.0
 10
222.8167484950289
 20
36.61675877455688
 30
0.0
 10
224.0953837323326
 20
35.35856225017145
 30
0.0
 10
224.5022933135797
 20
34.9172702464083
 30
0.0
 10
225.276329327097
 20
33.9894415431564
 30
0.0
 10
225.6402174816082
 20
33.5063906429617
 30
0.0
 10
226.6504948164314
 20
32.01925296470804
 30
0.0
 10
227.2223461244395
 20
30.97038153901282
 30
0.0
 10
227.9261594748485
 20
29.30968016358865
 30
0.0
 10
228.1357582121574
 20
28.73821130488261
 30
0.0
 10
228.4943220288509
 20
27.5869332308149
 30
0.0
 10
228.6441245077706
 20
27.00607119520193
 30
0.0
 10
229.0070752928106
 20
25.24814696888085
 30
0.0
 10
229.1346218971552
 20
24.05589594010692
 30
0.0
 10
229.1510447187142
 20
21.62899855066131
 30
0.0
 10
229.039408995447
 20
20.43313425286266
 30
0.0
 10
228.6999996807734
 20
18.67017403024215
 30
0.0
 10
228.5579910385709
 20
18.0873753460955
 30
0.0
 10
228.2149831171829
 20
16.93168452679838
 30
0.0
 10
228.0130307436258
 20
16.35730599149486
 30
0.0
 10
227.3311463805385
 20
14.68643771322697
 30
0.0
 10
226.7730509960389
 20
13.62952855037935
 30
0.0
 10
225.7821776961642
 20
12.12844835552521
 30
0.0
 10
225.4244338956519
 20
11.64025074107387
 30
0.0
 10
224.6629852483742
 20
10.70253824362782
 30
0.0
 10
224.2620436790653
 20
10.25597950699642
 30
0.0
 10
223.0003313661919
 20
8.981076358541861
 30
0.0
 10
222.0812424932209
 20
8.216880088013005
 30
0.0
 10
220.5822127866512
 20
7.202321844051462
 30
0.0
 10
220.0635412074365
 20
6.887534944052701
 30
0.0
 10
219.0082888257547
 20
6.315792675884578
 30
0.0
 10
218.469075422228
 20
6.05698486771886
 30
0.0
 10
217.3677335250045
 20
5.592780300562098
 30
0.0
 10
216.8056052091289
 20
5.387383293880523
 30
0.0
 10
215.6580309936635
 20
5.030847060751134
 30
0.0
 10
215.0692286562997
 20
4.879099757922587
 30
0.0
 10
213.2942388969519
 20
4.514244948796344
 30
0.0
 10
212.1032306076637
 20
4.389723683433683
 30
0.0
 10
210.3054560558521
 20
4.376799796833533
 30
0.0
 10
209.7043076536532
 20
4.401675691794508
 30
0.0
 10
208.4981100700078
 20
4.511666288001121
 30
0.0
 10
207.8982221068786
 20
4.596553009214615
 30
0.0
 10
206.129440242441
 20
4.935543400832406
 30
0.0
 10
204.9821165816857
 20
5.273938800114432
 30
0.0
 10
203.3091437538394
 20
5.951378999466353
 30
0.0
 10
202.756976392692
 20
6.207271386010772
 30
0.0
 10
201.690659498712
 20
6.766862769361621
 30
0.0
 10
201.1745725332441
 20
7.071025537498402
 30
0.0
 10
199.676298395316
 20
8.055028487000937
 30
0.0
 10
198.7428432649809
 20
8.806413256092364
 30
0.0
 10
197.0165887008207
 20
10.50402259341998
 30
0.0
 10
196.250744048203
 20
11.42345238485697
 30
0.0
 10
195.2421361320137
 20
12.90489197226466
 30
0.0
 10
194.9294689160729
 20
13.4158812184354
 30
0.0
 10
194.3523499531398
 20
14.47313225191478
 30
0.0
 10
194.0875928969142
 20
15.02097657672526
 30
0.0
 10
193.3837376975733
 20
16.68197591011523
 30
0.0
 10
193.0274605244438
 20
17.82334182614417
 30
0.0
 10
192.6615781007662
 20
19.58632486629964
 30
0.0
 10
192.5676804137563
 20
20.1848221078984
 30
0.0
 10
192.4398732353815
 20
21.38929438039803
 30
0.0
 10
192.4062734970154
 20
21.99003408388589
 30
0.0
 10
192.3935775861481
 20
23.7879012346197
 30
0.0
 10
192.5017455133895
 20
24.98071739269764
 30
0.0
 10
192.8433059043179
 20
26.76109204636784
 30
0.0
 10
192.9873858990098
 20
27.35160106155986
 30
0.0
 10
193.3292932224412
 20
28.50359249465975
 30
0.0
 10
193.5276822824466
 20
29.06835853163893
 30
0.0
 10
193.978511443264
 20
30.17580444043354
 30
0.0
 10
194.2309516019011
 20
30.71848422335211
 30
0.0
 10
194.7906497624911
 20
31.7814907543582
 30
0.0
 10
195.0995565840086
 20
32.30415590137737
 30
0.0
 10
196.0974431049461
 20
33.81592014582202
 30
0.0
 10
196.8557625627172
 20
34.75030149341104
 30
0.0
 10
198.5601917158224
 20
36.47131996869263
 30
0.0
  0
LINE
  5
249
330
1F
100
AcDbEntity
  8
0
  6
Continuous
 62
     7
370
    15
100
AcDbLine
 10
210.7724187726
 20
147.7185817309
 30
0.0
 11
370.2724216336
 21
147.7185817309
 31
0.0
  0
LINE
  5
24A
330
1F
100
AcDbEntity
  8
0
  6
Continuous
 62
     7
370
    15
100
AcDbLine
 10
51.2724159115
 20
147.7185817309
 30
0.0
 11
210.7724187726
 21
147.7185817309
 31
0.0
  0
LINE
  5
24B
330
1F
100
AcDbEntity
  8
0
  6
Continuous
 62
     7
370
    15
100
AcDbLine
 10
210.7724187726
 20
-102.2814182691
 30
0.0
 11
370.2724216336
 21
-102.2814182691
 31
0.0
  0
LINE
  5
24C
330
1F
100
AcDbEntity
  8
0
  6
Continuous
 62
     7
370
    15
100
AcDbLine
 10
51.2724159115
 20
-102.2814182691
 30
0.0
 11
210.7724187726
 21
-102.2814182691
 31
0.0
  0
LWPOLYLINE
  5
24D
330
1F
100
AcDbEntity
  8
0
  6
Continuous
 62
     7
370
    15
100
AcDbPolyline
 90
        3
 70
   128
 43
0.0
 10
345.1924709433
 20
90.001377637
 10
348.1842813843
 20
98.1867568441
 10
358.2436082715
 20
125.7185818501
  0
LINE
  5
24E
330
1F
100
AcDbEntity
  8
0
  6
Continuous
 62
     7
370
    15
100
AcDbLine
 10
76.3523666018
 20
90.001377637
 30
0.0
 11
345.1924709433
 21
90.001377637
 31
0.0
  0
LWPOLYLINE
  5
24F
330
1F
100
AcDbEntity
  8
0
  6
Continuous
 62
     7
370
    15
100
AcDbPolyline
 90
        3
 70
   128
 43
0.0
 10
63.3012292737
 20
125.7185818501
 10
73.3602432364
 20
98.1876136609
 10
76.3523666018
 20
90.001377637
  0
LWPOLYLINE
  5
250
330
1F
100
AcDbEntity
  8
0
  6
Continuous
 62
     7
370
    15
100
AcDbPolyline
 90
        3
 70
   128
 43
0.0
 10
358.2436082715
 20
-80.2814183883
 10
348.1842813843
 20
-52.7495933823
 10
345.1924709433
 20
-44.5642141751
  0
LWPOLYLINE
  5
251
330
1F
100
AcDbEntity
  8
0
  6
Continuous
 62
     7
370
    15
100
AcDbPolyline
 90
        3
 70
   128
 43
0.0
 10
76.3523666018
 20
-44.5642141751
 10
73.3602432364
 20
-52.750450199
 10
63.3012292737
 20
-80.2814183883
  0
LINE
  5
252
330
1F
100
AcDbEntity
  8
0
  6
Continuous
 62
     7
370
    15
100
AcDbLine
 10
76.3523666018
 20
-44.5642141751
 30
0.0
 11
345.1924709433
 21
-44.5642141751
 31
0.0
  0
SPLINE
  5
253
330
1F
100
AcDbEntity
  8
0
  6
Continuous
 62
     7
370
    15
100
AcDbSpline
210
0.0
220
0.0
230
1.0
 70
     8
 71
     3
 72
    26
 73
    22
 74
     0
 42
0.00000001
 43
0.00000001
 12
1.0
 22
0.0
 32
0.0
 13
1.0
 23
0.0
 33
0.0
 40
0.0
 40
0.0
 40
0.0
 40
0.0
 40
0.0624999999999997
 40
0.0624999999999997
 40
0.1249999999999995
 40
0.1249999999999995
 40
0.2499999999999992
 40
0.2499999999999992
 40
0.3749999999999989
 40
0.3749999999999989
 40
0.4999999999999988
 40
0.4999999999999988
 40
0.6249999999999984
 40
0.6249999999999984
 40
0.6874999999999987
 40
0.6874999999999987
 40
0.7499999999999988
 40
0.7499999999999988
 40
0.8749999999999994
 40
0.8749999999999994
 40
1.0
 40
1.0
 40
1.0
 40
1.0
 10
80.13637378866744
 20
30.21858173093301
 30
0.0
 10
80.09280724059417
 20
30.86598989016647
 30
0.0
 10
80.0438300207045
 20
31.50948652095216
 30
0.0
 10
79.93541139342567
 20
32.78850434321193
 30
0.0
 10
79.87622536382084
 20
33.42065242139176
 30
0.0
 10
79.6867165318375
 20
35.2784396859917
 30
0.0
 10
79.543866631891
 20
36.47274780860051
 30
0.0
 10
79.23242228010857
 20
38.77567104655601
 30
0.0
 10
79.06380804652277
 20
39.88428827976922
 30
0.0
 10
78.70766915489088
 20
42.01383462149644
 30
0.0
 10
78.52348894214708
 20
43.01480594333693
 30
0.0
 10
78.15301065014133
 20
44.88464985477239
 30
0.0
 10
77.96638146773893
 20
45.75532911955095
 30
0.0
 10
77.69007940806549
 20
46.9644480782275
 30
0.0
 10
77.59858339247155
 20
47.35128249074881
 30
0.0
 10
77.4177592854334
 20
48.0917469659654
 30
0.0
 10
77.32904651917019
 20
48.44282003749342
 30
0.0
 10
77.07094290103191
 20
49.43278727422999
 30
0.0
 10
76.90883099649312
 20
50.01183189455229
 30
0.0
 10
76.6101019973939
 20
51.01028880463458
 30
0.0
 10
76.47346633587814
 20
51.42971950074608
 30
0.0
 10
76.3523681848626
 20
51.76595682748864
 30
0.0
  0
LINE
  5
254
330
1F
100
AcDbEntity
  8
0
  6
Continuous
 62
     7
370
    15
100
AcDbLine
 10
76.3523666018
 20
90.001377637
 30
0.0
 11
76.3523666018
 21
51.7659572758
 31
0.0
  0
LINE
  5
255
330
1F
100
AcDbEntity
  8
0
  6
Continuous
 62
     7
370
    15
100
AcDbLine
 10
345.1924709433
 20
51.7659572758
 30
0.0
 11
345.1924709433
 21
90.001377637
 31
0.0
  0
SPLINE
  5
256
330
1F
100
AcDbEntity
  8
0
  6
Continuous
 62
     7
370
    15
100
AcDbSpline
210
0.0
220
0.0
230
1.0
 70
     8
 71
     3
 72
    30
 73
    26
 74
     0
 42
0.00000001
 43
0.00000001
 12
1.0
 22
0.0
 32
0.0
 13
1.0
 23
0.0
 33
0.0
 40
0.0
 40
0.0
 40
0.0
 40
0.0
 40
0.0624999999999999
 40
0.0624999999999999
 40
0.1249999999999998
 40
0.1249999999999998
 40
0.2499999999999996
 40
0.2499999999999996
 40
0.3124999999999994
 40
0.3124999999999994
 40
0.3749999999999992
 40
0.3749999999999992
 40
0.4999999999999992
 40
0.4999999999999992
 40
0.6249999999999992
 40
0.6249999999999992
 40
0.6874999999999993
 40
0.6874999999999993
 40
0.7499999999999993
 40
0.7499999999999993
 40
0.8749999999999997
 40
0.8749999999999997
 40
0.9374999999999999
 40
0.9374999999999999
 40
1.0
 40
1.0
 40
1.0
 40
1.0
 10
345.1924693602639
 20
51.76595682748864
 30
0.0
 10
345.1321956711285
 20
51.59860279327896
 30
0.0
 10
345.0672454090159
 20
51.40818619460574
 30
0.0
 10
344.9301756304123
 20
50.98595464761356
 30
0.0
 10
344.8581937936997
 20
50.75464349318628
 30
0.0
 10
344.6330754109407
 20
50.00165866647496
 30
0.0
 10
344.4707628509355
 20
49.42119892727163
 30
0.0
 10
344.213514631177
 20
48.43387215859762
 30
0.0
 10
344.1254684393807
 20
48.08525677781296
 30
0.0
 10
343.9455679971207
 20
47.34836947861702
 30
0.0
 10
343.8533670245234
 20
46.95855181365042
 30
0.0
 10
343.5753724249101
 20
45.74144599928423
 30
0.0
 10
343.3882729472243
 20
44.86756752186795
 30
0.0
 10
343.0182086585758
 20
42.99808788208165
 30
0.0
 10
342.8352190509951
 20
42.0024847359058
 30
0.0
 10
342.5698089952913
 20
40.41499453128093
 30
0.0
 10
342.4825517887418
 20
39.86803757711969
 30
0.0
 10
342.313785182226
 20
38.75235363315429
 30
0.0
 10
342.2324114172979
 20
38.18475496622485
 30
0.0
 10
341.9985070406665
 20
36.4531821723678
 30
0.0
 10
341.8561791185471
 20
35.26055691538094
 30
0.0
 10
341.6679796723424
 20
33.413867450072
 30
0.0
 10
341.6094646136206
 20
32.78864759488795
 30
0.0
 10
341.5017401404703
 20
31.51843748435081
 30
0.0
 10
341.4524303912819
 20
30.87193526425536
 30
0.0
 10
341.4084637564591
 20
30.218581730933
 30
0.0
  0
LINE
  5
257
330
1F
100
AcDbEntity
  8
0
  6
Continuous
 62
     7
370
    15
100
AcDbLine
 10
337.1399430388
 20
15.2185818986
 30
0.0
 11
337.1399430388
 21
30.2185815633
 31
0.0
  0
SPLINE
  5
258
330
1F
100
AcDbEntity
  8
0
  6
Continuous
 62
     7
370
    15
100
AcDbSpline
210
0.0
220
0.0
230
1.0
 70
     8
 71
     3
 72
    26
 73
    22
 74
     0
 42
0.00000001
 43
0.00000001
 12
1.0
 22
0.0
 32
0.0
 13
1.0
 23
0.0
 33
0.0
 40
0.0
 40
0.0
 40
0.0
 40
0.0
 40
0.0625
 40
0.0625
 40
0.1249999999999999
 40
0.1249999999999999
 40
0.2499999999999996
 40
0.2499999999999996
 40
0.3749999999999993
 40
0.3749999999999993
 40
0.4999999999999989
 40
0.4999999999999989
 40
0.6249999999999987
 40
0.6249999999999987
 40
0.6874999999999987
 40
0.6874999999999987
 40
0.7499999999999988
 40
0.7499999999999988
 40
0.8749999999999994
 40
0.8749999999999994
 40
1.0
 40
1.0
 40
1.0
 40
1.0
 10
341.4084637564591
 20
15.21858173093301
 30
0.0
 10
341.4520303045323
 20
14.57117357169954
 30
0.0
 10
341.5010075244221
 20
13.92767694091386
 30
0.0
 10
341.6094261517009
 20
12.64865911865409
 30
0.0
 10
341.6686121813056
 20
12.01651104047426
 30
0.0
 10
341.858121013289
 20
10.15872377587432
 30
0.0
 10
342.0009709132356
 20
8.96441565326551
 30
0.0
 10
342.3124152650179
 20
6.66149241531
 30
0.0
 10
342.4810294986037
 20
5.552875182096795
 30
0.0
 10
342.8371683902356
 20
3.423328840369586
 30
0.0
 10
343.0213486029795
 20
2.422357518529084
 30
0.0
 10
343.3918268949853
 20
0.5525136070936264
 30
0.0
 10
343.5784560773876
 20
-0.31816565768494
 30
0.0
 10
343.854758137061
 20
-1.527284616361486
 30
0.0
 10
343.9462541526549
 20
-1.914119028882808
 30
0.0
 10
344.1270782596931
 20
-2.654583504099386
 30
0.0
 10
344.2157910259563
 20
-3.005656575627413
 30
0.0
 10
344.4738946440946
 20
-3.995623812363978
 30
0.0
 10
344.6360065486334
 20
-4.574668432686269
 30
0.0
 10
344.9347355477326
 20
-5.573125342768562
 30
0.0
 10
345.0713712092484
 20
-5.992556038880062
 30
0.0
 10
345.1924693602639
 20
-6.328793365622628
 30
0.0
  0
LINE
  5
259
330
1F
100
AcDbEntity
  8
0
  6
Continuous
 62
     7
370
    15
100
AcDbLine
 10
345.1924709433
 20
-44.5642141751
 30
0.0
 11
345.1924709433
 21
-6.328793814
 31
0.0
  0
LINE
  5
25A
330
1F
100
AcDbEntity
  8
0
  6
Continuous
 62
     7
370
    15
100
AcDbLine
 10
76.3523666018
 20
-6.328793814
 30
0.0
 11
76.3523666018
 21
-44.5642141751
 31
0.0
  0
SPLINE
  5
25B
330
1F
100
AcDbEntity
  8
0
  6
Continuous
 62
     7
370
    15
100
AcDbSpline
210
0.0
220
0.0
230
1.0
 70
     8
 71
     3
 72
    30
 73
    26
 74
     0
 42
0.00000001
 43
0.00000001
 12
1.0
 22
0.0
 32
0.0
 13
1.0
 23
0.0
 33
0.0
 40
0.0
 40
0.0
 40
0.0
 40
0.0
 40
0.0624999999999997
 40
0.0624999999999997
 40
0.1249999999999995
 40
0.1249999999999995
 40
0.2499999999999991
 40
0.2499999999999991
 40
0.312499999999999
 40
0.312499999999999
 40
0.3749999999999989
 40
0.3749999999999989
 40
0.4999999999999989
 40
0.4999999999999989
 40
0.6249999999999988
 40
0.6249999999999988
 40
0.687499999999999
 40
0.687499999999999
 40
0.7499999999999991
 40
0.7499999999999991
 40
0.8749999999999999
 40
0.8749999999999999
 40
0.9374999999999999
 40
0.9374999999999999
 40
1.0
 40
1.0
 40
1.0
 40
1.0
 10
76.3523681848626
 20
-6.328793365622608
 30
0.0
 10
76.41264187399796
 20
-6.161439331412947
 30
0.0
 10
76.4775921361106
 20
-5.971022732739701
 30
0.0
 10
76.61466191471419
 20
-5.548791185747536
 30
0.0
 10
76.68664375142673
 20
-5.317480031320251
 30
0.0
 10
76.91176213418579
 20
-4.56449520460894
 30
0.0
 10
77.07407469419103
 20
-3.984035465405596
 30
0.0
 10
77.33132291394956
 20
-2.996708696731572
 30
0.0
 10
77.41936910574584
 20
-2.64809331594694
 30
0.0
 10
77.59926954800581
 20
-1.911206016750995
 30
0.0
 10
77.69147052060308
 20
-1.521388351784402
 30
0.0
 10
77.96946512021641
 20
-0.3042825374182205
 30
0.0
 10
78.15656459790219
 20
0.5695959399980646
 30
0.0
 10
78.52662888655071
 20
2.439075579784362
 30
0.0
 10
78.7096184941314
 20
3.434678725960195
 30
0.0
 10
78.97502854983523
 20
5.022168930585075
 30
0.0
 10
79.06228575638471
 20
5.569125884746333
 30
0.0
 10
79.23105236290046
 20
6.684809828711727
 30
0.0
 10
79.31242612782863
 20
7.252408495641136
 30
0.0
 10
79.54633050446006
 20
8.98398128949819
 30
0.0
 10
79.68865842657947
 20
10.17660654648505
 30
0.0
 10
79.87685787278403
 20
12.02329601179397
 30
0.0
 10
79.93537293150585
 20
12.64851586697803
 30
0.0
 10
80.04309740465618
 20
13.91872597751517
 30
0.0
 10
80.0924071538446
 20
14.56522819761063
 30
0.0
 10
80.13637378866744
 20
15.21858173093299
 30
0.0
  0
LINE
  5
25C
330
1F
100
AcDbEntity
  8
0
  6
Continuous
 62
     7
370
    15
100
AcDbLine
 10
84.4048945063
 20
30.2185815633
 30
0.0
 11
84.4048945063
 21
15.2185818986
 31
0.0
  0
SPLINE
  5
25D
330
1F
100
AcDbEntity
  8
0
  6
Continuous
 62
     7
370
    15
100
AcDbSpline
210
0.0
220
0.0
230
1.0
 70
     8
 71
     3
 72
    20
 73
    16
 74
     0
 42
0.00000001
 43
0.00000001
 12
1.0
 22
0.0
 32
0.0
 13
1.0
 23
0.0
 33
0.0
 40
0.0
 40
0.0
 40
0.0
 40
0.0
 40
0.3001475179114689
 40
0.3001475179114689
 40
0.3001475179114689
 40
0.5674542422903908
 40
0.5674542422903908
 40
0.5674542422903908
 40
0.7601446884183614
 40
0.7601446884183614
 40
0.7601446884183614
 40
0.9541791965496724
 40
0.9541791965496724
 40
0.9541791965496724
 40
1.0
 40
1.0
 40
1.0
 40
1.0
 10
241.9205405566013
 20
47.366581730933
 30
0.0
 10
241.8809231087634
 20
47.36658173093301
 30
0.0
 10
241.8405581419263
 20
47.35889521381459
 30
0.0
 10
241.8037660231835
 20
47.34377495456482
 30
0.0
 10
241.7709704739254
 20
47.33029714399109
 30
0.0
 10
241.7398707849435
 20
47.31037149248124
 30
0.0
 10
241.7144633964499
 20
47.28515502452933
 30
0.0
 10
241.6960223100362
 20
47.26685251127953
 30
0.0
 10
241.6801120425839
 20
47.24527469406497
 30
0.0
 10
241.6684918742024
 20
47.22179236780316
 30
0.0
 10
241.6568233521372
 20
47.19821232721078
 30
0.0
 10
241.6492084976428
 20
47.17196397958588
 30
0.0
 10
241.6468075069426
 20
47.14562740229538
 30
0.0
 10
241.6462306286523
 20
47.13929959782715
 30
0.0
 10
241.6459407203005
 20
47.13293722182886
 30
0.0
 10
241.6459407203005
 20
47.12658173093301
 30
0.0
  0
LINE
  5
25E
330
1F
100
AcDbEntity
  8
0
  6
Continuous
 62
     7
370
    15
100
AcDbLine
 10
241.645940935
 20
29.4309448325
 30
0.0
 11
241.645940935
 21
47.126581321
 31
0.0
  0
SPLINE
  5
25F
330
1F
100
AcDbEntity
  8
0
  6
Continuous
 62
     7
370
    15
100
AcDbSpline
210
0.0
220
0.0
230
1.0
 70
     8
 71
     3
 72
    17
 73
    13
 74
     0
 42
0.00000001
 43
0.00000001
 12
1.0
 22
0.0
 32
0.0
 13
1.0
 23
0.0
 33
0.0
 40
0.0
 40
0.0
 40
0.0
 40
0.0
 40
0.2401720794336365
 40
0.2401720794336365
 40
0.2401720794336365
 40
0.4793715288039356
 40
0.4793715288039356
 40
0.4793715288039356
 40
0.7322095889391904
 40
0.7322095889391904
 40
0.7322095889391904
 40
1.0
 40
1.0
 40
1.0
 40
1.0
 10
241.6459407203006
 20
29.43094460403364
 30
0.0
 10
241.6459407203006
 20
29.40700887791999
 30
0.0
 10
241.6501946218717
 20
29.38274087443254
 30
0.0
 10
241.6581382347505
 20
29.36023903534603
 30
0.0
 10
241.6660637353949
 20
29.33778850271025
 30
0.0
 10
241.6778227310059
 20
29.31649299899719
 30
0.0
 10
241.6921766699384
 20
29.29770823412048
 30
0.0
 10
241.7073615007163
 20
29.27783609468917
 30
0.0
 10
241.7257727455458
 20
29.26027755207592
 30
0.0
 10
241.7459055398436
 20
29.24577255910929
 30
0.0
 10
241.7672421944373
 20
29.23040022577922
 30
0.0
 10
241.7909381973147
 20
29.21811223908524
 30
0.0
 10
241.815513639206
 20
29.20921351622995
 30
0.0
  0
SPLINE
  5
260
330
1F
100
AcDbEntity
  8
0
  6
Continuous
 62
     7
370
    15
100
AcDbSpline
210
0.0
220
0.0
230
1.0
 70
     8
 71
     3
 72
    19
 73
    15
 74
     0
 42
0.00000001
 43
0.00000001
 12
1.0
 22
0.0
 32
0.0
 13
1.0
 23
0.0
 33
0.0
 40
0.0
 40
0.0
 40
0.0
 40
0.0
 40
0.0622776493548689
 40
0.1245760206651382
 40
0.1868987459609247
 40
0.2492494530163661
 40
0.3116317647238573
 40
0.3740492984725196
 40
0.4365056655314337
 40
0.4990044704381508
 40
0.6240722814614694
 40
0.7492417116702998
 40
0.8745414259791023
 40
1.0
 40
1.0
 40
1.0
 40
1.0
 10
241.8155136392063
 20
29.20921351622989
 30
0.0
 10
242.1634314659287
 20
29.08298551925585
 30
0.0
 10
242.8593828838212
 20
28.83048752483165
 30
0.0
 10
243.9002418617137
 20
28.44960069617096
 30
0.0
 10
244.9390441522163
 20
28.06707909009332
 30
0.0
 10
245.9755596373375
 20
27.68277238789198
 30
0.0
 10
247.0098501893889
 20
27.29672092721087
 30
0.0
 10
248.0418985082428
 20
26.90891378635277
 30
0.0
 10
249.0717118276927
 20
26.51935431444139
 30
0.0
 10
250.4419265375648
 20
25.9975540542855
 30
0.0
 10
252.1484208934202
 20
25.34122068499602
 30
0.0
 10
254.1848708487759
 20
24.54731341465338
 30
0.0
 10
256.2115261753437
 20
23.74745408124135
 30
0.0
 10
257.5520304309827
 20
23.20947351290209
 30
0.0
 10
258.2227071751161
 20
22.94031281873571
 30
0.0
  0
SPLINE
  5
261
330
1F
100
AcDbEntity
  8
0
  6
Continuous
 62
     7
370
    15
100
AcDbSpline
210
0.0
220
0.0
230
1.0
 70
     8
 71
     3
 72
    29
 73
    25
 74
     0
 42
0.00000001
 43
0.00000001
 12
1.0
 22
0.0
 32
0.0
 13
1.0
 23
0.0
 33
0.0
 40
0.0
 40
0.0
 40
0.0
 40
0.0
 40
0.1517483289423335
 40
0.1517483289423335
 40
0.1517483289423335
 40
0.3042354389975067
 40
0.3042354389975067
 40
0.3042354389975067
 40
0.445606164268522
 40
0.445606164268522
 40
0.445606164268522
 40
0.5755804929910142
 40
0.5755804929910142
 40
0.5755804929910142
 40
0.7016952972328517
 40
0.7016952972328517
 40
0.7016952972328517
 40
0.8316475163682052
 40
0.8316475163682052
 40
0.8316475163682052
 40
0.9712284690231228
 40
0.9712284690231228
 40
0.9712284690231228
 40
1.0
 40
1.0
 40
1.0
 40
1.0
 10
258.2227071751161
 20
22.94031281873571
 30
0.0
 10
258.2484954178197
 20
22.92992385201493
 30
0.0
 10
258.2730725754709
 20
22.91490929194492
 30
0.0
 10
258.2942931457549
 20
22.89612902166449
 30
0.0
 10
258.3155735295283
 20
22.87729581626101
 30
0.0
 10
258.3340767375969
 20
22.85406626983641
 30
0.0
 10
258.3476614663237
 20
22.82835863830464
 30
0.0
 10
258.3602646596808
 20
22.80450845642299
 30
0.0
 10
258.3689916938777
 20
22.77777939883102
 30
0.0
 10
258.3727481901386
 20
22.75068546898155
 30
0.0
 10
258.3762091258056
 20
22.72572328569546
 30
0.0
 10
258.375556877143
 20
22.69974003823081
 30
0.0
 10
258.3708665875235
 20
22.67500812662861
 30
0.0
 10
258.3663088916972
 20
22.6509753825063
 30
0.0
 10
258.3578412589498
 20
22.62748420656894
 30
0.0
 10
258.3463097341598
 20
22.60628366356861
 30
0.0
 10
258.3344216930861
 20
22.58442767049196
 30
0.0
 10
258.3190025353392
 20
22.56444507457624
 30
0.0
 10
258.301387429957
 20
22.54756744404269
 30
0.0
 10
258.2824735852237
 20
22.52944544724206
 30
0.0
 10
258.2605780239313
 20
22.51444059091662
 30
0.0
 10
258.2373968082847
 20
22.50332354607276
 30
0.0
 10
258.2325647433462
 20
22.50100622659182
 30
0.0
 10
258.2276633282205
 20
22.49884726268508
 30
0.0
 10
258.2227071751161
 20
22.4968506431303
 30
0.0
  0
SPLINE
  5
262
330
1F
100
AcDbEntity
  8
0
  6
Continuous
 62
     7
370
    15
100
AcDbSpline
210
0.0
220
0.0
230
1.0
 70
     8
 71
     3
 72
    19
 73
    15
 74
     0
 42
0.00000001
 43
0.00000001
 12
1.0
 22
0.0
 32
0.0
 13
1.0
 23
0.0
 33
0.0
 40
0.0
 40
0.0
 40
0.0
 40
0.0
 40
0.062744784549353
 40
0.1254481739849627
 40
0.1881137304126792
 40
0.2507450223935222
 40
0.3133456243482668
 40
0.3759191159570611
 40
0.4384690815545566
 40
0.5009991095210662
 40
0.6259421967812634
 40
0.7507374114412345
 40
0.8754136770497345
 40
1.0
 40
1.0
 40
1.0
 40
1.0
 10
258.2227071751161
 20
22.49685064313029
 30
0.0
 10
257.8876192642089
 20
22.36211532541234
 30
0.0
 10
257.2176645125965
 20
22.09273357997492
 30
0.0
 10
256.2087338269455
 20
21.69042895155425
 30
0.0
 10
255.1973243910396
 20
21.2895998172211
 30
0.0
 10
254.1831232138838
 20
20.89036224018512
 30
0.0
 10
253.1662141457498
 20
20.49268506797023
 30
0.0
 10
252.1465745733063
 20
20.09657696749107
 30
0.0
 10
251.1242112159855
 20
19.70203442633862
 30
0.0
 10
249.7579791183574
 20
19.17828562482021
 30
0.0
 10
248.0441592615555
 20
18.52776540645082
 30
0.0
 10
245.9775566312993
 20
17.75396039067267
 30
0.0
 10
243.9025990434868
 20
16.98664759633528
 30
0.0
 10
242.5110413997473
 20
16.48078831862968
 30
0.0
 10
241.8155136392067
 20
16.22794994563509
 30
0.0
  0
SPLINE
  5
263
330
1F
100
AcDbEntity
  8
0
  6
Continuous
 62
     7
370
    15
100
AcDbSpline
210
0.0
220
0.0
230
1.0
 70
     8
 71
     3
 72
    17
 73
    13
 74
     0
 42
0.00000001
 43
0.00000001
 12
1.0
 22
0.0
 32
0.0
 13
1.0
 23
0.0
 33
0.0
 40
0.0
 40
0.0
 40
0.0
 40
0.0
 40
0.3197182291169846
 40
0.3197182291169846
 40
0.3197182291169846
 40
0.6423796434612953
 40
0.6423796434612953
 40
0.6423796434612953
 40
0.9212447753067258
 40
0.9212447753067258
 40
0.9212447753067258
 40
1.0
 40
1.0
 40
1.0
 40
1.0
 10
241.8155136392066
 20
16.22794994563507
 30
0.0
 10
241.7862343951699
 20
16.21734798456972
 30
0.0
 10
241.7581278048676
 20
16.20187027934104
 30
0.0
 10
241.7337592008422
 20
16.18210316851729
 30
0.0
 10
241.7092625682987
 20
16.16223220464139
 30
0.0
 10
241.687808288629
 20
16.13726880090593
 30
0.0
 10
241.6725709921942
 20
16.10928229476167
 30
0.0
 10
241.6593780552701
 20
16.085050685705
 30
0.0
 10
241.650471266282
 20
16.05770905078242
 30
0.0
 10
241.6473088282889
 20
16.0301356142171
 30
0.0
 10
241.646399192987
 20
16.02220446383616
 30
0.0
 10
241.6459407203006
 20
16.01420486124256
 30
0.0
 10
241.6459407203006
 20
16.00621885783237
 30
0.0
  0
LINE
  5
264
330
1F
100
AcDbEntity
  8
0
  6
Continuous
 62
     7
370
    15
100
AcDbLine
 10
241.645940935
 20
-0.3934191666
 30
0.0
 11
241.645940935
 21
16.0062186294
 31
0.0
  0
SPLINE
  5
265
330
1F
100
AcDbEntity
  8
0
  6
Continuous
 62
     7
370
    15
100
AcDbSpline
210
0.0
220
0.0
230
1.0
 70
     8
 71
     3
 72
    20
 73
    16
 74
     0
 42
0.00000001
 43
0.00000001
 12
1.0
 22
0.0
 32
0.0
 13
1.0
 23
0.0
 33
0.0
 40
0.0
 40
0.0
 40
0.0
 40
0.0
 40
0.1757043661071328
 40
0.1757043661071328
 40
0.1757043661071328
 40
0.350697178443574
 40
0.350697178443574
 40
0.350697178443574
 40
0.5356676845431144
 40
0.5356676845431144
 40
0.5356676845431144
 40
0.747323037853776
 40
0.747323037853776
 40
0.747323037853776
 40
1.0
 40
1.0
 40
1.0
 40
1.0
 10
241.6459407203005
 20
-0.393418269066994
 30
0.0
 10
241.6459407203005
 20
-0.4173539951806415
 30
0.0
 10
241.6501946218717
 20
-0.4416219986680924
 30
0.0
 10
241.6581382347505
 20
-0.4641238377545986
 30
0.0
 10
241.6660637353948
 20
-0.4865743703903816
 30
0.0
 10
241.6778227310059
 20
-0.507869874103447
 30
0.0
 10
241.6921766699384
 20
-0.526654638980155
 30
0.0
 10
241.7073615007163
 20
-0.5465267784114589
 30
0.0
 10
241.7257727455458
 20
-0.5640853210247126
 30
0.0
 10
241.7459055398436
 20
-0.5785903139913438
 30
0.0
 10
241.7689217323585
 20
-0.5951726972217679
 30
0.0
 10
241.7946992789535
 20
-0.6081680746921024
 30
0.0
 10
241.8213940036929
 20
-0.617209506335259
 30
0.0
 10
241.8531792500297
 20
-0.6279750839848601
 30
0.0
 10
241.8870791039901
 20
-0.633418269066998
 30
0.0
 10
241.9205405566013
 20
-0.6334182690669945
 30
0.0
  0
SPLINE
  5
266
330
1F
100
AcDbEntity
  8
0
  6
Continuous
 62
     7
370
    15
100
AcDbSpline
210
0.0
220
0.0
230
1.0
 70
     8
 71
     3
 72
    20
 73
    16
 74
     0
 42
0.00000001
 43
0.00000001
 12
1.0
 22
0.0
 32
0.0
 13
1.0
 23
0.0
 33
0.0
 40
0.0
 40
0.0
 40
0.0
 40
0.0
 40
0.2540074174901877
 40
0.2540074174901877
 40
0.2540074174901877
 40
0.509116662299067
 40
0.509116662299067
 40
0.509116662299067
 40
0.7447269380504995
 40
0.7447269380504995
 40
0.7447269380504995
 40
0.9489100299025313
 40
0.9489100299025313
 40
0.9489100299025313
 40
1.0
 40
1.0
 40
1.0
 40
1.0
 10
249.2550768024995
 20
47.36658173093301
 30
0.0
 10
249.2225087078775
 20
47.36658173093301
 30
0.0
 10
249.189472686352
 20
47.36088775263927
 30
0.0
 10
249.1587085310586
 20
47.34971602071339
 30
0.0
 10
249.1278709918934
 20
47.33851764008102
 30
0.0
 10
249.0983663580273
 20
47.321409536311
 30
0.0
 10
249.0734414450221
 20
47.29940109398763
 30
0.0
 10
249.050434780696
 20
47.27908644555659
 30
0.0
 10
249.0306037214501
 20
47.25383940199627
 30
0.0
 10
249.0167447112818
 20
47.22591997565342
 30
0.0
 10
249.004704124589
 20
47.2016638224929
 30
0.0
 10
248.9968201028143
 20
47.17459473393877
 30
0.0
 10
248.994234196555
 20
47.14741538242112
 30
0.0
 10
248.993575897984
 20
47.14049628850567
 30
0.0
 10
248.993244986654
 20
47.13353478655797
 30
0.0
 10
248.993244986654
 20
47.12658173093301
 30
0.0
  0
LINE
  5
267
330
1F
100
AcDbEntity
  8
0
  6
Continuous
 62
     7
370
    15
100
AcDbLine
 10
248.993245309
 20
42.5627207257
 30
0.0
 11
248.993245309
 21
47.126581321
 31
0.0
  0
SPLINE
  5
268
330
1F
100
AcDbEntity
  8
0
  6
Continuous
 62
     7
370
    15
100
AcDbSpline
210
0.0
220
0.0
230
1.0
 70
     8
 71
     3
 72
    20
 73
    16
 74
     0
 42
0.00000001
 43
0.00000001
 12
1.0
 22
0.0
 32
0.0
 13
1.0
 23
0.0
 33
0.0
 40
0.0
 40
0.0
 40
0.0
 40
0.0
 40
0.1783871630473876
 40
0.1783871630473876
 40
0.1783871630473876
 40
0.3561870353077494
 40
0.3561870353077494
 40
0.3561870353077494
 40
0.5424990051090799
 40
0.5424990051090799
 40
0.5424990051090799
 40
0.7505969305727858
 40
0.7505969305727858
 40
0.7505969305727858
 40
1.0
 40
1.0
 40
1.0
 40
1.0
 10
248.993244986654
 20
42.56272159863034
 30
0.0
 10
248.993244986654
 20
42.53824498174606
 30
0.0
 10
248.9974791467533
 20
42.51342986359327
 30
0.0
 10
249.0054261441942
 20
42.49039851804688
 30
0.0
 10
249.0133584428992
 20
42.46740977118832
 30
0.0
 10
249.025160812163
 20
42.44558131435166
 30
0.0
 10
249.0396369280786
 20
42.42637132857168
 30
0.0
 10
249.0548161862917
 20
42.4062282642217
 30
0.0
 10
249.0732719704812
 20
42.38845361084565
 30
0.0
 10
249.0934947052517
 20
42.37391110190218
 30
0.0
 10
249.1160637139849
 20
42.3576813478619
 30
0.0
 10
249.14135570717
 20
42.34507174060302
 30
0.0
 10
249.1675206424971
 20
42.33655406525185
 30
0.0
 10
249.1987758844704
 20
42.3263793026995
 30
0.0
 10
249.2321413901257
 20
42.3217662922019
 30
0.0
 10
249.2648584206688
 20
42.32288943046959
 30
0.0
  0
SPLINE
  5
269
330
1F
100
AcDbEntity
  8
0
  6
Continuous
 62
     7
370
    15
100
AcDbSpline
210
0.0
220
0.0
230
1.0
 70
     8
 71
     3
 72
    21
 73
    17
 74
     0
 42
0.00000001
 43
0.00000001
 12
1.0
 22
0.0
 32
0.0
 13
1.0
 23
0.0
 33
0.0
 40
0.0
 40
0.0
 40
0.0
 40
0.0
 40
0.0568592510771857
 40
0.1214794090251631
 40
0.1860523514041237
 40
0.2507604167284087
 40
0.314985736854392
 40
0.3799010039466473
 40
0.4440089656652317
 40
0.5087715463580438
 40
0.5946613392789674
 40
0.6807471746264888
 40
0.7670394860211007
 40
0.8525882351476447
 40
0.938781741498854
 40
1.0
 40
1.0
 40
1.0
 40
1.0
 10
255.1168476992696
 20
36.90244479706985
 30
0.0
 10
255.1180829324357
 20
37.07242033945303
 30
0.0
 10
255.1207219998204
 20
37.43557194708521
 30
0.0
 10
255.0430468038675
 20
37.98719733954477
 30
0.0
 10
254.9049294630035
 20
38.54843612541257
 30
0.0
 10
254.7029367264072
 20
39.08690350777371
 30
0.0
 10
254.4433414502463
 20
39.59790451604432
 30
0.0
 10
254.1311319200078
 20
40.07287360823469
 30
0.0
 10
253.7709562725433
 20
40.51058448883997
 30
0.0
 10
253.3247184328059
 20
40.94791965747621
 30
0.0
 10
252.7810204646962
 20
41.36620495888045
 30
0.0
 10
252.1357510967006
 20
41.73708039322925
 30
0.0
 10
251.4510938914538
 20
42.02009431201405
 30
0.0
 10
250.7376705722083
 20
42.21163614107193
 30
0.0
 10
250.0776448028383
 20
42.31546607664679
 30
0.0
 10
249.6556188902663
 20
42.31695961326223
 30
0.0
 10
249.4803568178265
 20
42.31757986030084
 30
0.0
  0
SPLINE
  5
26A
330
1F
100
AcDbEntity
  8
0
  6
Continuous
 62
     7
370
    15
100
AcDbSpline
210
0.0
220
0.0
230
1.0
 70
     8
 71
     3
 72
    14
 73
    10
 74
     0
 42
0.00000001
 43
0.00000001
 12
1.0
 22
0.0
 32
0.0
 13
1.0
 23
0.0
 33
0.0
 40
0.0
 40
0.0
 40
0.0
 40
0.0
 40
0.0517276887587568
 40
0.2112312348048274
 40
0.3678300699213155
 40
0.5282208775046833
 40
0.6836199801640016
 40
0.84228468855465
 40
1.0
 40
1.0
 40
1.0
 40
1.0
 10
249.255069887027
 20
38.73617517432672
 30
0.0
 10
249.2484212935043
 20
38.73657412451137
 30
0.0
 10
249.2212716053347
 20
38.73820324698237
 30
0.0
 10
249.1742272477503
 20
38.72781304157542
 30
0.0
 10
249.1170732451967
 20
38.70430120032504
 30
0.0
 10
249.0664645233955
 20
38.66782986444687
 30
0.0
 10
249.0263943271155
 20
38.61922801443029
 30
0.0
 10
248.9985636140295
 20
38.56147096231355
 30
0.0
 10
248.9950145272827
 20
38.51886517683087
 30
0.0
 10
248.9932453089802
 20
38.49762621006471
 30
0.0
  0
LINE
  5
26B
330
1F
100
AcDbEntity
  8
0
  6
Continuous
 62
     7
370
    15
100
AcDbLine
 10
248.993245309
 20
33.8216921189
 30
0.0
 11
248.993245309
 21
38.4976262101
 31
0.0
  0
SPLINE
  5
26C
330
1F
100
AcDbEntity
  8
0
  6
Continuous
 62
     7
370
    15
100
AcDbSpline
210
0.0
220
0.0
230
1.0
 70
     8
 71
     3
 72
    17
 73
    13
 74
     0
 42
0.00000001
 43
0.00000001
 12
1.0
 22
0.0
 32
0.0
 13
1.0
 23
0.0
 33
0.0
 40
0.0
 40
0.0
 40
0.0
 40
0.0
 40
0.2489060459616767
 40
0.2489060459616767
 40
0.2489060459616767
 40
0.4969926370638954
 40
0.4969926370638954
 40
0.4969926370638954
 40
0.7569562741685902
 40
0.7569562741685902
 40
0.7569562741685902
 40
1.0
 40
1.0
 40
1.0
 40
1.0
 10
248.993244986654
 20
33.82169190442733
 30
0.0
 10
248.993244986654
 20
33.79721528754305
 30
0.0
 10
248.9974791467533
 20
33.77240016939025
 30
0.0
 10
249.0054261441942
 20
33.74936882384387
 30
0.0
 10
249.0133584428992
 20
33.7263800769853
 30
0.0
 10
249.025160812163
 20
33.70455162014866
 30
0.0
 10
249.0396369280786
 20
33.68534163436866
 30
0.0
 10
249.0548161862917
 20
33.6651985700187
 30
0.0
 10
249.0732719704812
 20
33.64742391664263
 30
0.0
 10
249.0934947052517
 20
33.63288140769916
 30
0.0
 10
249.1124501969769
 20
33.61925019455866
 30
0.0
 10
249.1332980153836
 20
33.60817582563444
 30
0.0
 10
249.1549305957676
 20
33.59996081662399
 30
0.0
  0
SPLINE
  5
26D
330
1F
100
AcDbEntity
  8
0
  6
Continuous
 62
     7
370
    15
100
AcDbSpline
210
0.0
220
0.0
230
1.0
 70
     8
 71
     3
 72
    19
 73
    15
 74
     0
 42
0.00000001
 43
0.00000001
 12
1.0
 22
0.0
 32
0.0
 13
1.0
 23
0.0
 33
0.0
 40
0.0
 40
0.0
 40
0.0
 40
0.0
 40
0.0622926281331277
 40
0.1246037932373134
 40
0.1869372674821238
 40
0.2492968189886425
 40
0.3116862111530023
 40
0.3741092019741805
 40
0.4365695433866468
 40
0.4990709805984523
 40
0.624137380251111
 40
0.7492944991466017
 40
0.8745721350917586
 40
0.9999999999999999
 40
0.9999999999999999
 40
0.9999999999999999
 40
0.9999999999999999
 10
249.1549305957678
 20
33.59996081662395
 30
0.0
 10
249.506708285095
 20
33.46610785830117
 30
0.0
 10
250.2103683453633
 20
33.19836210984101
 30
0.0
 10
251.262043890832
 20
32.794714945923
 30
0.0
 10
252.3110937477867
 20
32.38951970412563
 30
0.0
 10
253.3572355190136
 20
31.98263374103687
 30
0.0
 10
254.4005451156124
 20
31.57409532878262
 30
0.0
 10
255.4410013733679
 20
31.16389412484906
 30
0.0
 10
256.4786129333135
 20
30.7520332331059
 30
0.0
 10
257.8583804132425
 20
30.20063126878553
 30
0.0
 10
259.5752493819702
 20
29.50756048792805
 30
0.0
 10
261.6215809619995
 20
28.67001973605428
 30
0.0
 10
263.6557210719454
 20
27.82695156323446
 30
0.0
 10
264.9991006710823
 20
27.2605572183831
 30
0.0
 10
265.671192963862
 20
26.97719034717771
 30
0.0
  0
SPLINE
  5
26E
330
1F
100
AcDbEntity
  8
0
  6
Continuous
 62
     7
370
    15
100
AcDbSpline
210
0.0
220
0.0
230
1.0
 70
     8
 71
     3
 72
     9
 73
     5
 74
     0
 42
0.00000001
 43
0.00000001
 12
1.0
 22
0.0
 32
0.0
 13
1.0
 23
0.0
 33
0.0
 40
0.0
 40
0.0
 40
0.0
 40
0.0
 40
0.9164697935224443
 40
0.9999999999999999
 40
0.9999999999999999
 40
0.9999999999999999
 40
0.9999999999999999
 10
265.6711911612599
 20
26.97719017645818
 30
0.0
 10
265.6983862550942
 20
26.96647626960761
 30
0.0
 10
265.7280600032379
 20
26.95478586046778
 30
0.0
 10
265.7582066340009
 20
26.95977321908599
 30
0.0
 10
265.7607247882931
 20
26.96018981418115
 30
0.0
  0
SPLINE
  5
26F
330
1F
100
AcDbEntity
  8
0
  6
Continuous
 62
     7
370
    15
100
AcDbSpline
210
0.0
220
0.0
230
1.0
 70
     8
 71
     3
 72
    10
 73
     6
 74
     0
 42
0.00000001
 43
0.00000001
 12
1.0
 22
0.0
 32
0.0
 13
1.0
 23
0.0
 33
0.0
 40
0.0
 40
0.0
 40
0.0
 40
0.0
 40
0.1068320384771284
 40
0.7455728762999067
 40
1.0
 40
1.0
 40
1.0
 40
1.0
 10
265.7606428319066
 20
44.69505454084378
 30
0.0
 10
265.7559886816225
 20
44.6957008054773
 30
0.0
 10
265.7235077118361
 20
44.70021103844238
 30
0.0
 10
265.6792166213037
 20
44.68510252062805
 30
0.0
 10
265.6447044236464
 20
44.6652025794541
 30
0.0
 10
265.6348733061402
 20
44.65953389784795
 30
0.0
  0
SPLINE
  5
270
330
1F
100
AcDbEntity
  8
0
  6
Continuous
 62
     7
370
    15
100
AcDbSpline
210
0.0
220
0.0
230
1.0
 70
     8
 71
     3
 72
     9
 73
     5
 74
     0
 42
0.00000001
 43
0.00000001
 12
1.0
 22
0.0
 32
0.0
 13
1.0
 23
0.0
 33
0.0
 40
0.0
 40
0.0
 40
0.0
 40
0.0
 40
0.5501399075661288
 40
1.0
 40
1.0
 40
1.0
 40
1.0
 10
265.6348733061402
 20
44.65953389784795
 30
0.0
 10
264.5749874543224
 20
43.97301042499911
 30
0.0
 10
262.6484123463524
 20
42.72510336825409
 30
0.0
 10
260.6827055899149
 20
41.49192033501193
 30
0.0
 10
259.798412566766
 20
40.93716050168973
 30
0.0
  0
LINE
  5
271
330
1F
100
AcDbEntity
  8
0
  6
Continuous
 62
     7
370
    15
100
AcDbLine
 10
248.993245309
 20
-0.3934191666
 30
0.0
 11
248.993245309
 21
11.615471343
 31
0.0
  0
SPLINE
  5
272
330
1F
100
AcDbEntity
  8
0
  6
Continuous
 62
     7
370
    15
100
AcDbSpline
210
0.0
220
0.0
230
1.0
 70
     8
 71
     3
 72
    20
 73
    16
 74
     0
 42
0.00000001
 43
0.00000001
 12
1.0
 22
0.0
 32
0.0
 13
1.0
 23
0.0
 33
0.0
 40
0.0
 40
0.0
 40
0.0
 40
0.0
 40
0.1829866062763973
 40
0.1829866062763973
 40
0.1829866062763973
 40
0.3653707793609867
 40
0.3653707793609867
 40
0.3653707793609867
 40
0.5564865215490131
 40
0.5564865215490131
 40
0.5564865215490131
 40
0.7699499373198343
 40
0.7699499373198343
 40
0.7699499373198343
 40
1.0
 40
1.0
 40
1.0
 40
1.0
 10
248.9932449866541
 20
-0.393418269066994
 30
0.0
 10
248.9932449866541
 20
-0.4178948859512727
 30
0.0
 10
248.9974791467533
 20
-0.4427100041040702
 30
0.0
 10
249.0054261441942
 20
-0.4657413496504531
 30
0.0
 10
249.0133584428992
 20
-0.4887300965090158
 30
0.0
 10
249.025160812163
 20
-0.5105585533456691
 30
0.0
 10
249.0396369280786
 20
-0.5297685391256607
 30
0.0
 10
249.0548161862917
 20
-0.5499116034756273
 30
0.0
 10
249.0732719704812
 20
-0.5676862568516836
 30
0.0
 10
249.0934947052517
 20
-0.582228765795157
 30
0.0
 10
249.1160637139849
 20
-0.5984585198354347
 30
0.0
 10
249.14135570717
 20
-0.611068127094317
 30
0.0
 10
249.1675206424971
 20
-0.6195858024454839
 30
0.0
 10
249.1957012369699
 20
-0.6287596510303126
 30
0.0
 10
249.225561591037
 20
-0.633418269066998
 30
0.0
 10
249.2550768024995
 20
-0.6334182690669945
 30
0.0
  0
SPLINE
  5
273
330
1F
100
AcDbEntity
  8
0
  6
Continuous
 62
     7
370
    15
100
AcDbSpline
210
0.0
220
0.0
230
1.0
 70
     8
 71
     3
 72
    10
 73
     6
 74
     0
 42
0.00000001
 43
0.00000001
 12
1.0
 22
0.0
 32
0.0
 13
1.0
 23
0.0
 33
0.0
 40
0.0
 40
0.0
 40
0.0
 40
0.0
 40
0.2881503436255579
 40
0.6437156636527308
 40
1.0
 40
1.0
 40
1.0
 40
1.0
 10
255.2078267389386
 20
2.36363093039494
 30
0.0
 10
256.2292675978223
 20
1.958860730938782
 30
0.0
 10
258.5111232155716
 20
1.054621248551244
 30
0.0
 10
262.0025170332162
 20
-0.3707326277626981
 30
0.0
 10
264.4474765937141
 20
-1.397874940769202
 30
0.0
 10
265.6711911612599
 20
-1.911964838891212
 30
0.0
  0
SPLINE
  5
274
330
1F
100
AcDbEntity
  8
0
  6
Continuous
 62
     7
370
    15
100
AcDbSpline
210
0.0
220
0.0
230
1.0
 70
     8
 71
     3
 72
     9
 73
     5
 74
     0
 42
0.00000001
 43
0.00000001
 12
1.0
 22
0.0
 32
0.0
 13
1.0
 23
0.0
 33
0.0
 40
0.0
 40
0.0
 40
0.0
 40
0.0
 40
0.9164707991190395
 40
1.0
 40
1.0
 40
1.0
 40
1.0
 10
265.6711911612599
 20
-1.911964838891212
 30
0.0
 10
265.6983860887137
 20
-1.922676762319015
 30
0.0
 10
265.7280596227531
 20
-1.934364994435202
 30
0.0
 10
265.7582066326477
 20
-1.92938147090619
 30
0.0
 10
265.7607247882931
 20
-1.928965201168243
 30
0.0
  0
SPLINE
  5
275
330
1F
100
AcDbEntity
  8
0
  6
Continuous
 62
     7
370
    15
100
AcDbSpline
210
0.0
220
0.0
230
1.0
 70
     8
 71
     3
 72
     9
 73
     5
 74
     0
 42
0.00000001
 43
0.00000001
 12
1.0
 22
0.0
 32
0.0
 13
1.0
 23
0.0
 33
0.0
 40
0.0
 40
0.0
 40
0.0
 40
0.0
 40
0.1540032350986826
 40
0.9999999999999999
 40
0.9999999999999999
 40
0.9999999999999999
 40
0.9999999999999999
 10
265.7606428319066
 20
18.47617783254486
 30
0.0
 10
265.7559789786073
 20
18.4768403388545
 30
0.0
 10
265.725694853107
 20
18.48114223750757
 30
0.0
 10
265.6961695078392
 20
18.46967474606759
 30
0.0
 10
265.6711911612599
 20
18.45997328540784
 30
0.0
  0
SPLINE
  5
276
330
1F
100
AcDbEntity
  8
0
  6
Continuous
 62
     7
370
    15
100
AcDbSpline
210
0.0
220
0.0
230
1.0
 70
     8
 71
     3
 72
    19
 73
    15
 74
     0
 42
0.00000001
 43
0.00000001
 12
1.0
 22
0.0
 32
0.0
 13
1.0
 23
0.0
 33
0.0
 40
0.0
 40
0.0
 40
0.0
 40
0.0
 40
0.0627286321222718
 40
0.1254178296960895
 40
0.1880712970630501
 40
0.2506927449055608
 40
0.3132858896006286
 40
0.3758544525686142
 40
0.4384021596175201
 40
0.5009327402833714
 40
0.6258827200392485
 40
0.7506905439379312
 40
0.875386260663796
 40
1.0
 40
1.0
 40
1.0
 40
1.0
 10
265.671192963862
 20
18.45997311468828
 30
0.0
 10
265.3354605348464
 20
18.31814614683905
 30
0.0
 10
264.6642067360442
 20
18.03458137110226
 30
0.0
 10
263.652534674512
 20
17.61085466075918
 30
0.0
 10
262.6377855272351
 20
17.1884970094124
 30
0.0
 10
261.6195904183068
 20
16.76761378573947
 30
0.0
 10
260.598048185636
 20
16.34817670087143
 30
0.0
 10
259.5731321263114
 20
15.93019365114014
 30
0.0
 10
258.5448503410732
 20
15.51366134938177
 30
0.0
 10
257.1698573990977
 20
14.96044544122751
 30
0.0
 10
255.4435429139532
 20
14.2728403411572
 30
0.0
 10
253.359469659868
 20
13.45414353346391
 30
0.0
 10
251.264767501008
 20
12.64159077205373
 30
0.0
 10
249.8580553801811
 20
12.10527323725952
 30
0.0
 10
249.154930595768
 20
11.83720264524136
 30
0.0
  0
SPLINE
  5
277
330
1F
100
AcDbEntity
  8
0
  6
Continuous
 62
     7
370
    15
100
AcDbSpline
210
0.0
220
0.0
230
1.0
 70
     8
 71
     3
 72
    17
 73
    13
 74
     0
 42
0.00000001
 43
0.00000001
 12
1.0
 22
0.0
 32
0.0
 13
1.0
 23
0.0
 33
0.0
 40
0.0
 40
0.0
 40
0.0
 40
0.0
 40
0.3115610254701753
 40
0.3115610254701753
 40
0.3115610254701753
 40
0.6253051996375923
 40
0.6253051996375923
 40
0.6253051996375923
 40
0.9062336128300896
 40
0.9062336128300896
 40
0.9062336128300896
 40
1.0
 40
1.0
 40
1.0
 40
1.0
 10
249.154930595768
 20
11.83720264524138
 30
0.0
 10
249.1273020276253
 20
11.82671064973229
 30
0.0
 10
249.1008661749796
 20
11.81147126453669
 30
0.0
 10
249.0779837834702
 20
11.79220731797572
 30
0.0
 10
249.0550092890295
 20
11.77286583293077
 30
0.0
 10
249.0349523587208
 20
11.74878872919106
 30
0.0
 10
249.020452805636
 20
11.72196426381159
 30
0.0
 10
249.0074545759791
 20
11.69791727702611
 30
0.0
 10
248.9985529027179
 20
11.67086705622095
 30
0.0
 10
248.9950391489867
 20
11.64350769644743
 30
0.0
 10
248.9938468980554
 20
11.63422439867887
 30
0.0
 10
248.9932449866541
 20
11.62483771773903
 30
0.0
 10
248.9932449866541
 20
11.61547155743867
 30
0.0
  0
SPLINE
  5
278
330
1F
100
AcDbEntity
  8
0
  6
Continuous
 62
     7
370
    15
100
AcDbSpline
210
0.0
220
0.0
230
1.0
 70
     8
 71
     3
 72
    19
 73
    15
 74
     0
 42
0.00000001
 43
0.00000001
 12
1.0
 22
0.0
 32
0.0
 13
1.0
 23
0.0
 33
0.0
 40
0.0
 40
0.0
 40
0.0
 40
0.0
 40
0.0612566674113605
 40
0.1228327503251896
 40
0.1847283853828497
 40
0.2469437071199003
 40
0.3094788480082777
 40
0.3723339384974544
 40
0.435509107054583
 40
0.4990044802036822
 40
0.6220536345928908
 40
0.7465687226796304
 40
0.87255057666913
 40
1.0
 40
1.0
 40
1.0
 40
1.0
 10
242.8761738109864
 20
29.20921351623094
 30
0.0
 10
243.2183920012684
 20
29.08505734813297
 30
0.0
 10
243.9046128373019
 20
28.83609761457616
 30
0.0
 10
244.9334418704211
 20
28.45966711329436
 30
0.0
 10
245.9651868325851
 20
28.07982050608424
 30
0.0
 10
246.999529146223
 20
27.69641044513305
 30
0.0
 10
248.0364346615213
 20
27.30947675094806
 30
0.0
 10
249.0757892170108
 20
26.91900854786623
 30
0.0
 10
250.1175013859935
 20
26.52500923175241
 30
0.0
 10
251.4860863988716
 20
26.00385958290466
 30
0.0
 10
253.1835049840295
 20
25.35107614492227
 30
0.0
 10
255.2093902491955
 20
24.56147657555772
 30
0.0
 10
257.2471920317124
 20
23.75743370777273
 30
0.0
 10
258.6020270498501
 20
23.21373592975529
 30
0.0
 10
259.2833673468958
 20
22.94031281873572
 30
0.0
  0
SPLINE
  5
279
330
1F
100
AcDbEntity
  8
0
  6
Continuous
 62
     7
370
    15
100
AcDbSpline
210
0.0
220
0.0
230
1.0
 70
     8
 71
     3
 72
    17
 73
    13
 74
     0
 42
0.00000001
 43
0.00000001
 12
1.0
 22
0.0
 32
0.0
 13
1.0
 23
0.0
 33
0.0
 40
0.0
 40
0.0
 40
0.0
 40
0.0
 40
0.0632389279817424
 40
0.1260976218303515
 40
0.1885761761648204
 40
0.2506746873424037
 40
0.3765412192357274
 40
0.5009982247609575
 40
0.6276661029316394
 40
0.7530549958969806
 40
0.8771659390197144
 40
1.0
 40
1.0
 40
1.0
 40
1.0
 10
259.2833673468958
 20
22.49685064313029
 30
0.0
 10
258.9456391646754
 20
22.36105528599161
 30
0.0
 10
258.2722134447552
 20
22.09028106294129
 30
0.0
 10
257.2607710010795
 20
21.68700149438263
 30
0.0
 10
256.2523689822371
 20
21.28738856071126
 30
0.0
 10
254.900558700721
 20
20.75526225739164
 30
0.0
 10
253.2061758536278
 20
20.0948521787989
 30
0.0
 10
251.1491002995838
 20
19.30366727134105
 30
0.0
 10
249.0825985762209
 20
18.51936442957966
 30
0.0
 10
247.0061364779201
 20
17.7420402994407
 30
0.0
 10
244.9405717598017
 20
16.97836502168249
 30
0.0
 10
243.5619302733628
 20
16.47722455286838
 30
0.0
 10
242.8761738109865
 20
16.2279499456351
 30
0.0
  0
LINE
  5
27A
330
1F
100
AcDbEntity
  8
0
  6
Continuous
 62
     7
370
    15
100
AcDbLine
 10
242.7066018635
 20
29.4309448325
 30
0.0
 11
242.7066018635
 21
47.126581321
 31
0.0
  0
LINE
  5
27B
330
1F
100
AcDbEntity
  8
0
  6
Continuous
 62
     7
370
    15
100
AcDbLine
 10
267.0562466436
 20
20.6749424212
 30
0.0
 11
267.0562466436
 21
24.7622210406
 31
0.0
  0
SPLINE
  5
27C
330
1F
100
AcDbEntity
  8
0
  6
Continuous
 62
     7
370
    15
100
AcDbSpline
210
0.0
220
0.0
230
1.0
 70
     8
 71
     3
 72
    21
 73
    17
 74
     0
 42
0.00000001
 43
0.00000001
 12
1.0
 22
0.0
 32
0.0
 13
1.0
 23
0.0
 33
0.0
 40
0.0
 40
0.0
 40
0.0
 40
0.0
 40
0.1248289442000975
 40
0.2498636415414094
 40
0.3743947841634382
 40
0.3994057012365782
 40
0.4369542566664455
 40
0.4995198900273582
 40
0.5809684401135145
 40
0.6419309319016928
 40
0.6847798175679882
 40
0.7491680336553155
 40
0.8308260386425553
 40
0.8919522365791239
 40
0.953700877528657
 40
1.0
 40
1.0
 40
1.0
 40
1.0
 10
266.9115035191503
 20
20.45321143190347
 30
0.0
 10
266.9216143214362
 20
20.45801367016537
 30
0.0
 10
266.9418525914483
 20
20.4676260621259
 30
0.0
 10
266.9695493857158
 20
20.48758931186948
 30
0.0
 10
266.9878720401356
 20
20.50503764127215
 30
0.0
 10
266.9992842253283
 20
20.51807766505961
 30
0.0
 10
267.0066255183376
 20
20.52709685546755
 30
0.0
 10
267.0165641082555
 20
20.54085419444091
 30
0.0
 10
267.0265380236784
 20
20.55739628414735
 30
0.0
 10
267.0342858063597
 20
20.57316042221405
 30
0.0
 10
267.040449335313
 20
20.58793716049396
 30
0.0
 10
267.046352100905
 20
20.60500952566402
 30
0.0
 10
267.0512644357268
 20
20.6243162159633
 30
0.0
 10
267.0544646653003
 20
20.64376649358866
 30
0.0
 10
267.0560033202647
 20
20.66003832926759
 30
0.0
 10
267.0561724029836
 20
20.67047173991387
 30
0.0
 10
267.0562448559549
 20
20.67494251970618
 30
0.0
  0
SPLINE
  5
27D
330
1F
100
AcDbEntity
  8
0
  6
Continuous
 62
     7
370
    15
100
AcDbSpline
210
0.0
220
0.0
230
1.0
 70
     8
 71
     3
 72
    19
 73
    15
 74
     0
 42
0.00000001
 43
0.00000001
 12
1.0
 22
0.0
 32
0.0
 13
1.0
 23
0.0
 33
0.0
 40
0.0
 40
0.0
 40
0.0
 40
0.0
 40
0.0493224421944639
 40
0.0988941240683633
 40
0.1487151274733357
 40
0.1987855330380778
 40
0.2491054201921973
 40
0.3731737742264868
 40
0.4989397696829264
 40
0.623198112883819
 40
0.7493054912023275
 40
0.8319691131779741
 40
0.9155338734262489
 40
1.0
 40
1.0
 40
1.0
 40
1.0
 10
248.2714391722425
 20
13.02069248362246
 30
0.0
 10
248.5866438182111
 20
13.13910277118583
 30
0.0
 10
249.2186459247255
 20
13.37652170561516
 30
0.0
 10
250.1659599334266
 20
13.73516909243821
 30
0.0
 10
251.1157049587403
 20
14.09679485384471
 30
0.0
 10
252.0675835125195
 20
14.46151749351999
 30
0.0
 10
253.486044330799
 20
15.00837102018277
 30
0.0
 10
255.3735994921059
 20
15.74392683861383
 30
0.0
 10
257.7088804336958
 20
16.66796975917847
 30
0.0
 10
260.038852775838
 20
17.60410643667951
 30
0.0
 10
262.0853704906273
 20
18.43892235847026
 30
0.0
 10
263.8690651338791
 20
19.17595960343305
 30
0.0
 10
265.3906036643269
 20
19.8105897013393
 30
0.0
 10
266.4027271264484
 20
20.23823950925425
 30
0.0
 10
266.9115035191503
 20
20.45321143190347
 30
0.0
  0
SPLINE
  5
27E
330
1F
100
AcDbEntity
  8
0
  6
Continuous
 62
     7
370
    15
100
AcDbSpline
210
0.0
220
0.0
230
1.0
 70
     8
 71
     3
 72
    23
 73
    19
 74
     0
 42
0.00000001
 43
0.00000001
 12
1.0
 22
0.0
 32
0.0
 13
1.0
 23
0.0
 33
0.0
 40
0.0
 40
0.0
 40
0.0
 40
0.0
 40
0.0155521043345106
 40
0.0311286531341083
 40
0.062340938839171
 40
0.124900394636102
 40
0.196378806101476
 40
0.249782632880405
 40
0.3211135771515664
 40
0.3747807892008028
 40
0.4463034506225222
 40
0.4997617015372004
 40
0.5354184422801049
 40
0.562209693661389
 40
0.624808567179033
 40
0.7497781646014866
 40
0.87487097763291
 40
1.0
 40
1.0
 40
1.0
 40
1.0
 10
248.1077022014641
 20
12.79896139581972
 30
0.0
 10
248.1077120799415
 20
12.80050436953824
 30
0.0
 10
248.107731852423
 20
12.8035927421884
 30
0.0
 10
248.1079422103409
 20
12.8097745283815
 30
0.0
 10
248.1086461112116
 20
12.82060149123302
 30
0.0
 10
248.1107609177474
 20
12.83687048073062
 30
0.0
 10
248.1147876333116
 20
12.85502337651608
 30
0.0
 10
248.1205663202085
 20
12.87355915168731
 30
0.0
 10
248.1272243359651
 20
12.88988672778657
 30
0.0
 10
248.1359462356089
 20
12.90716788835262
 30
0.0
 10
248.1450672632931
 20
12.92218157814643
 30
0.0
 10
248.1542604917294
 20
12.93495833321044
 30
0.0
 10
248.1613764595481
 20
12.94377473445698
 30
0.0
 10
248.1693921554545
 20
12.95297692161778
 30
0.0
 10
248.183924641142
 20
12.96799228692588
 30
0.0
 10
248.2073406862509
 20
12.98739974241727
 30
0.0
 10
248.2381326345882
 20
13.00676444337533
 30
0.0
 10
248.2603359220194
 20
13.01604935567062
 30
0.0
 10
248.271439172242
 20
13.02069248362315
 30
0.0
  0
LINE
  5
27F
330
1F
100
AcDbEntity
  8
0
  6
Continuous
 62
     7
370
    15
100
AcDbLine
 10
248.1077028268
 20
-0.3934191666
 30
0.0
 11
248.1077028268
 21
12.7989616119
 31
0.0
  0
SPLINE
  5
280
330
1F
100
AcDbEntity
  8
0
  6
Continuous
 62
     7
370
    15
100
AcDbSpline
210
0.0
220
0.0
230
1.0
 70
     8
 71
     3
 72
    28
 73
    24
 74
     0
 42
0.00000001
 43
0.00000001
 12
1.0
 22
0.0
 32
0.0
 13
1.0
 23
0.0
 33
0.0
 40
0.0
 40
0.0
 40
0.0
 40
0.0
 40
0.124597128465473
 40
0.2495124255567776
 40
0.3740127755712393
 40
0.4992344288822587
 40
0.5989497419683947
 40
0.6741902810867807
 40
0.7118574414798478
 40
0.7306658472290071
 40
0.7494446350978596
 40
0.7744237990411627
 40
0.7893749863599451
 40
0.8118304839163734
 40
0.8368747655473234
 40
0.8519365589816441
 40
0.8745597411050559
 40
0.890988868887654
 40
0.915631167622638
 40
0.9463951632644444
 40
0.967882203747286
 40
0.98074795480859
 40
1.0
 40
1.0
 40
1.0
 40
1.0
 10
247.8420930714423
 20
-0.6334182690670085
 30
0.0
 10
247.8583252327487
 20
-0.6326233717241503
 30
0.0
 10
247.8908310054696
 20
-0.6310315472051915
 30
0.0
 10
247.9383235097935
 20
-0.618527256669811
 30
0.0
 10
247.9832779434881
 20
-0.5984421017358397
 30
0.0
 10
248.0213853758243
 20
-0.5721732420905651
 30
0.0
 10
248.0498913371645
 20
-0.5442171614103257
 30
0.0
 10
248.0670644374065
 20
-0.5216029468788526
 30
0.0
 10
248.0763677228914
 20
-0.5066516424871714
 30
0.0
 10
248.0812717564827
 20
-0.497853370585926
 30
0.0
 10
248.0851134017912
 20
-0.490402464134055
 30
0.0
 10
248.0884507496359
 20
-0.4832672732978903
 30
0.0
 10
248.0917232030065
 20
-0.4755562862631332
 30
0.0
 10
248.0947321046648
 20
-0.4677191051847517
 30
0.0
 10
248.0974023022044
 20
-0.4597341667444271
 30
0.0
 10
248.0997880117628
 20
-0.4516317368851649
 30
0.0
 10
248.1016088899569
 20
-0.4445697222784755
 30
0.0
 10
248.1034598649318
 20
-0.4361838878818823
 30
0.0
 10
248.1051973281085
 20
-0.4266481638336046
 30
0.0
 10
248.106545870565
 20
-0.4163518040170636
 30
0.0
 10
248.1072596057379
 20
-0.4075868584932536
 30
0.0
 10
248.1076288121091
 20
-0.4003563345451808
 30
0.0
 10
248.1076746970931
 20
-0.396018470787924
 30
0.0
 10
248.1077022014641
 20
-0.393418269066987
 30
0.0
  0
LINE
  5
281
330
1F
100
AcDbEntity
  8
0
  6
Continuous
 62
     7
370
    15
100
AcDbLine
 10
242.981200462
 20
-0.6334191314
 30
0.0
 11
247.8420933539
 21
-0.6334191314
 31
0.0
  0
SPLINE
  5
282
330
1F
100
AcDbEntity
  8
0
  6
Continuous
 62
     7
370
    15
100
AcDbSpline
210
0.0
220
0.0
230
1.0
 70
     8
 71
     3
 72
    31
 73
    27
 74
     0
 42
0.00000001
 43
0.00000001
 12
1.0
 22
0.0
 32
0.0
 13
1.0
 23
0.0
 33
0.0
 40
0.0
 40
0.0
 40
0.0
 40
0.0
 40
0.0088994456615296
 40
0.0178104334370959
 40
0.0267318930836042
 40
0.0356626912603677
 40
0.0446016372332397
 40
0.0535474884753856
 40
0.0624989561717489
 40
0.0714547106373318
 40
0.0804133866588042
 40
0.0893735887700496
 40
0.1072921900322402
 40
0.1216198533400243
 40
0.1430839484234878
 40
0.1644982058688989
 40
0.1773180036709709
 40
0.1965857734962556
 40
0.2234066661192026
 40
0.2502774147605485
 40
0.3752654267341456
 40
0.5004553627158873
 40
0.6253748679660244
 40
0.7504188081158237
 40
0.8752036142080523
 40
1.0
 40
1.0
 40
1.0
 40
1.0
 10
242.7066008920804
 20
-0.393418269066987
 30
0.0
 10
242.7066072430835
 20
-0.3946354193224456
 30
0.0
 10
242.7066199533267
 20
-0.3970712984133589
 30
0.0
 10
242.7067221482158
 20
-0.4007260922619903
 30
0.0
 10
242.7068846050455
 20
-0.4043827169726497
 30
0.0
 10
242.7071129023265
 20
-0.408039521416631
 30
0.0
 10
242.7074049789932
 20
-0.4116948550819885
 30
0.0
 10
242.7077608243995
 20
-0.4153470668816599
 30
0.0
 10
242.7081798780029
 20
-0.4189945073338752
 30
0.0
 10
242.708661725946
 20
-0.4226355210221119
 30
0.0
 10
242.7092059184889
 20
-0.4262684745888791
 30
0.0
 10
242.7100139986523
 20
-0.431099184713079
 30
0.0
 10
242.7110845064277
 20
-0.4366277988883741
 30
0.0
 10
242.7126984861964
 20
-0.4437847745170053
 30
0.0
 10
242.7146746983853
 20
-0.4513430719714148
 30
0.0
 10
242.7168966010461
 20
-0.4586131415120001
 30
0.0
 10
242.7192591331245
 20
-0.4655168603260769
 30
0.0
 10
242.7220930722329
 20
-0.4730310474669944
 30
0.0
 10
242.725999350644
 20
-0.482172396293383
 30
0.0
 10
242.736631209389
 20
-0.5040378571554809
 30
0.0
 10
242.7576773910277
 20
-0.5355831828331159
 30
0.0
 10
242.794123718171
 20
-0.5711190456847738
 30
0.0
 10
242.8363946292752
 20
-0.5989933057147165
 30
0.0
 10
242.8826127344621
 20
-0.6187831162834979
 30
0.0
 10
242.9313322064534
 20
-0.6311027399763837
 30
0.0
 10
242.9645773735852
 20
-0.6326464021632755
 30
0.0
 10
242.9812007283811
 20
-0.6334182690670049
 30
0.0
  0
LINE
  5
283
330
1F
100
AcDbEntity
  8
0
  6
Continuous
 62
     7
370
    15
100
AcDbLine
 10
242.7066018635
 20
-0.3934191666
 30
0.0
 11
242.7066018635
 21
16.0062186294
 31
0.0
  0
SPLINE
  5
284
330
1F
100
AcDbEntity
  8
0
  6
Continuous
 62
     7
370
    15
100
AcDbSpline
210
0.0
220
0.0
230
1.0
 70
     8
 71
     3
 72
    21
 73
    17
 74
     0
 42
0.00000001
 43
0.00000001
 12
1.0
 22
0.0
 32
0.0
 13
1.0
 23
0.0
 33
0.0
 40
0.0
 40
0.0
 40
0.0
 40
0.0
 40
0.1249919375749683
 40
0.2502144116599956
 40
0.4991750864300197
 40
0.5242076932093235
 40
0.5617030957003616
 40
0.623975035397222
 40
0.652373582325952
 40
0.6951553114769514
 40
0.748839013049151
 40
0.7816135622684248
 40
0.8307444693751536
 40
0.8919568317010645
 40
0.953478675729106
 40
1.0
 40
1.0
 40
1.0
 40
1.0
 10
242.8761738109864
 20
16.22794994563507
 30
0.0
 10
242.8648212219431
 20
16.22336508816872
 30
0.0
 10
242.8420951050157
 20
16.21418691687426
 30
0.0
 10
242.800010482622
 20
16.18883018058239
 30
0.0
 10
242.7704013167039
 20
16.16189013926152
 30
0.0
 10
242.7513858344493
 20
16.13757663577405
 30
0.0
 10
242.744131890531
 20
16.1275399910263
 30
0.0
 10
242.7373256058698
 20
16.11675896238791
 30
0.0
 10
242.7309257826196
 20
16.1051226074788
 30
0.0
 10
242.7254667860476
 20
16.09393997190956
 30
0.0
 10
242.7205679906367
 20
16.08200374182898
 30
0.0
 10
242.7161617925494
 20
16.06920017532944
 30
0.0
 10
242.7122549887739
 20
16.05543015770062
 30
0.0
 10
242.708852412139
 20
16.038560692693
 30
0.0
 10
242.7069057128494
 20
16.02169778155431
 30
0.0
 10
242.706692638028
 20
16.01087775469709
 30
0.0
 10
242.7066008920804
 20
16.00621885783236
 30
0.0
  0
SPLINE
  5
285
330
1F
100
AcDbEntity
  8
0
  6
Continuous
 62
     7
370
    15
100
AcDbSpline
210
0.0
220
0.0
230
1.0
 70
     8
 71
     3
 72
    70
 73
    66
 74
     0
 42
0.00000001
 43
0.00000001
 12
1.0
 22
0.0
 32
0.0
 13
1.0
 23
0.0
 33
0.0
 40
0.0
 40
0.0
 40
0.0
 40
0.0
 40
0.0624144169798167
 40
0.1249343024724023
 40
0.1871800304137822
 40
0.2496781031101709
 40
0.3119273643836508
 40
0.3743674652389139
 40
0.3821963438230913
 40
0.3900231661389468
 40
0.3962821113863618
 40
0.4009743325481109
 40
0.4056644667268555
 40
0.413475767268977
 40
0.4212789559776986
 40
0.4275147914843209
 40
0.4321873158148983
 40
0.4368557933685057
 40
0.4446268193648046
 40
0.4524128033122957
 40
0.4563108023544134
 40
0.4602116561240997
 40
0.4680210519090133
 40
0.4730239856527976
 40
0.4805343642576885
 40
0.4880507016156307
 40
0.4936910110904504
 40
0.4993331985983526
 40
0.5032521686773656
 40
0.5071715184139831
 40
0.5110910308718654
 40
0.5150104887485748
 40
0.5189296746464122
 40
0.5228483713430334
 40
0.5267663620627719
 40
0.5306834307476809
 40
0.5345993623298964
 40
0.5385139430043933
 40
0.542426960502919
 40
0.5463382043696149
 40
0.5502474662375001
 40
0.5541545401072974
 40
0.5580592226278893
 40
0.5619613133790388
 40
0.5658606151566308
 40
0.5697569342601893
 40
0.5736500807834958
 40
0.5775449424554808
 40
0.581444261127679
 40
0.58534628683928
 40
0.5892508686076174
 40
0.5931578499515158
 40
0.5970670691631401
 40
0.6009783595766184
 40
0.6048915498341888
 40
0.6088064641492202
 40
0.6127229225668531
 40
0.6166407412221632
 40
0.6244796056642409
 40
0.6959913210967184
 40
0.7495654718895093
 40
0.8211162174075587
 40
0.8746537934614328
 40
0.9462151626656536
 40
1.0
 40
1.0
 40
1.0
 40
1.0
 10
259.2833673468958
 20
22.94031281873572
 30
0.0
 10
259.2938768182688
 20
22.93557491488067
 30
0.0
 10
259.3149135200255
 20
22.92609110101274
 30
0.0
 10
259.3438457813788
 20
22.90637876436415
 30
0.0
 10
259.3700565773571
 20
22.88279908824225
 30
0.0
 10
259.392704480308
 20
22.85534714637241
 30
0.0
 10
259.411320489358
 20
22.82458898373086
 30
0.0
 10
259.4210478187542
 20
22.80079450022155
 30
0.0
 10
259.4255701535751
 20
22.78635791871433
 30
0.0
 10
259.4267628656708
 20
22.78227987468087
 30
0.0
 10
259.4277253139623
 20
22.77876649655343
 30
0.0
 10
259.4284880619126
 20
22.77582817137568
 30
0.0
 10
259.4292895652386
 20
22.77258754756078
 30
0.0
 10
259.4301775192492
 20
22.76874436376502
 30
0.0
 10
259.4310532347157
 20
22.76458849238451
 30
0.0
 10
259.4317407946921
 20
22.76101535027177
 30
0.0
 10
259.4322723466394
 20
22.75803223506604
 30
0.0
 10
259.4328175308405
 20
22.75474750783083
 30
0.0
 10
259.4334003353104
 20
22.75085382034161
 30
0.0
 10
259.4338856777087
 20
22.74709647219019
 30
0.0
 10
259.4342295411863
 20
22.74408053072559
 30
0.0
 10
259.4345439849926
 20
22.74105633695336
 30
0.0
 10
259.4348327228682
 20
22.73781253577296
 30
0.0
 10
259.4351203510776
 20
22.73386256326158
 30
0.0
 10
259.4353429555674
 20
22.7299648457299
 30
0.0
 10
259.4354975317542
 20
22.72593901535901
 30
0.0
 10
259.4355785273972
 20
22.722275161695
 30
0.0
 10
259.4356027777062
 20
22.71931169947863
 30
0.0
 10
259.4355933386968
 20
22.71668371108761
 30
0.0
 10
259.4355629995096
 20
22.71439176150672
 30
0.0
 10
259.4355105654169
 20
22.71210017370537
 30
0.0
 10
259.4354360486484
 20
22.70980931617768
 30
0.0
 10
259.4353394614387
 20
22.70751955935422
 30
0.0
 10
259.4352208160122
 20
22.70523127314677
 30
0.0
 10
259.4350801245872
 20
22.7029448276062
 30
0.0
 10
259.4349173993746
 20
22.70066059274614
 30
0.0
 10
259.4347326525787
 20
22.69837893859023
 30
0.0
 10
259.4345258963965
 20
22.69610023515949
 30
0.0
 10
259.4342971430178
 20
22.69382485247559
 30
0.0
 10
259.4340464046251
 20
22.69155316056021
 30
0.0
 10
259.4337736933963
 20
22.68928552943437
 30
0.0
 10
259.4334790214916
 20
22.6870223291217
 30
0.0
 10
259.4331624011027
 20
22.68476392963621
 30
0.0
 10
259.4328238442702
 20
22.68251070102786
 30
0.0
 10
259.4324633635629
 20
22.68026301321273
 30
0.0
 10
259.4320809695453
 20
22.6780212366063
 30
0.0
 10
259.4316765045911
 20
22.67578476864787
 30
0.0
 10
259.4312496330037
 20
22.67355246461287
 30
0.0
 10
259.43080035667
 20
22.67132341705463
 30
0.0
 10
259.4303287604624
 20
22.66909769790396
 30
0.0
 10
259.429835059291
 20
22.66687592431636
 30
0.0
 10
259.4293194034119
 20
22.66465840812283
 30
0.0
 10
259.4287819438992
 20
22.66244546113172
 30
0.0
 10
259.4282228315305
 20
22.66023739474051
 30
0.0
 10
259.4276422174124
 20
22.65803452202057
 30
0.0
 10
259.4270402515951
 20
22.65583714976104
 30
0.0
 10
259.4264170879917
 20
22.65364560822622
 30
0.0
 10
259.4255580094073
 20
22.65073125699103
 30
0.0
 10
259.4207742420265
 20
22.63532539709952
 30
0.0
 10
259.4107841556353
 20
22.61151381646495
 30
0.0
 10
259.391015624919
 20
22.579420538152
 30
0.0
 10
259.369122184932
 20
22.55334968800458
 30
0.0
 10
259.3414061845463
 20
22.52890572965728
 30
0.0
 10
259.3135839641071
 20
22.51026902184685
 30
0.0
 10
259.2924400112781
 20
22.50087956687772
 30
0.0
 10
259.2833673468958
 20
22.49685064313029
 30
0.0
  0
SPLINE
  5
286
330
1F
100
AcDbEntity
  8
0
  6
Continuous
 62
     7
370
    15
100
AcDbSpline
210
0.0
220
0.0
230
1.0
 70
     8
 71
     3
 72
    22
 73
    18
 74
     0
 42
0.00000001
 43
0.00000001
 12
1.0
 22
0.0
 32
0.0
 13
1.0
 23
0.0
 33
0.0
 40
0.0
 40
0.0
 40
0.0
 40
0.0
 40
0.0155548084072978
 40
0.0311347787199944
 40
0.0623553491975929
 40
0.1249311977282274
 40
0.1964119699131646
 40
0.2498130384935142
 40
0.3212009382840513
 40
0.374893376731702
 40
0.4374900350102894
 40
0.4731589749890406
 40
0.4998814364555005
 40
0.6249386975844416
 40
0.7498852716570772
 40
0.8749571172035935
 40
1.0
 40
1.0
 40
1.0
 40
1.0
 10
242.7066008920804
 20
29.43094460403363
 30
0.0
 10
242.7066113436541
 20
29.42938604459473
 30
0.0
 10
242.7066322637084
 20
29.42626640454638
 30
0.0
 10
242.7068547264667
 20
29.42002205946572
 30
0.0
 10
242.7075987281433
 20
29.40908640610951
 30
0.0
 10
242.7098318521789
 20
29.39266230574738
 30
0.0
 10
242.7140761658653
 20
29.37435773031315
 30
0.0
 10
242.7201657874926
 20
29.35569572091627
 30
0.0
 10
242.7271633968787
 20
29.33928548937254
 30
0.0
 10
242.7358883494728
 20
29.32273950146291
 30
0.0
 10
242.7439214225521
 20
29.3099224701065
 30
0.0
 10
242.7511531347626
 20
29.29983561309132
 30
0.0
 10
242.7625759933662
 20
29.28516958055158
 30
0.0
 10
242.7814116025548
 20
29.26513895619876
 30
0.0
 10
242.8104159547426
 20
29.24208863604225
 30
0.0
 10
242.8420782555143
 20
29.2229639516536
 30
0.0
 10
242.8648095032386
 20
29.21379664085286
 30
0.0
 10
242.8761738109858
 20
29.20921351622997
 30
0.0
  0
SPLINE
  5
287
330
1F
100
AcDbEntity
  8
0
  6
Continuous
 62
     7
370
    15
100
AcDbSpline
210
0.0
220
0.0
230
1.0
 70
     8
 71
     3
 72
    25
 73
    21
 74
     0
 42
0.00000001
 43
0.00000001
 12
1.0
 22
0.0
 32
0.0
 13
1.0
 23
0.0
 33
0.0
 40
0.0
 40
0.0
 40
0.0
 40
0.0
 40
0.1245534619834383
 40
0.249375805138483
 40
0.373750091880212
 40
0.4987508387563024
 40
0.6234627889989128
 40
0.7488351711437807
 40
0.7644469784569692
 40
0.7800581835896843
 40
0.811377390095912
 40
0.8364952940115418
 40
0.8515783951572374
 40
0.8742006470975336
 40
0.899310582356315
 40
0.9143536304379486
 40
0.9368695980456014
 40
0.9511302522625922
 40
0.9728266463612413
 40
1.0
 40
1.0
 40
1.0
 40
1.0
 10
242.9812007283811
 20
47.36658173093301
 30
0.0
 10
242.9646110372317
 20
47.36580577452069
 30
0.0
 10
242.9313958417526
 20
47.36425218659151
 30
0.0
 10
242.8827849913757
 20
47.35199067153681
 30
0.0
 10
242.8366285254513
 20
47.33225718164373
 30
0.0
 10
242.7944443092183
 20
47.3045146739037
 30
0.0
 10
242.7579594613681
 20
47.26903960430549
 30
0.0
 10
242.7376772089669
 20
47.23884922350549
 30
0.0
 10
242.7281451970763
 20
47.21980250437169
 30
0.0
 10
242.7245618903868
 20
47.21208031106841
 30
0.0
 10
242.7208218695817
 20
47.20299997535324
 30
0.0
 10
242.7175820415357
 20
47.19379854480504
 30
0.0
 10
242.7150376535607
 20
47.18561294790366
 30
0.0
 10
242.7127799843511
 20
47.17733845369564
 30
0.0
 10
242.7108947501547
 20
47.16897069330245
 30
0.0
 10
242.7093349930132
 20
47.16055024014624
 30
0.0
 10
242.7082970863558
 20
47.15354093416082
 30
0.0
 10
242.7074226148849
 20
47.14559429569891
 30
0.0
 10
242.7067585513017
 20
47.13698274699011
 30
0.0
 10
242.7066572302583
 20
47.13029844530167
 30
0.0
 10
242.7066008920804
 20
47.12658173093303
 30
0.0
  0
LINE
  5
288
330
1F
100
AcDbEntity
  8
0
  6
Continuous
 62
     7
370
    15
100
AcDbLine
 10
247.8420933539
 20
47.3665812858
 30
0.0
 11
242.981200462
 21
47.3665812858
 31
0.0
  0
SPLINE
  5
289
330
1F
100
AcDbEntity
  8
0
  6
Continuous
 62
     7
370
    15
100
AcDbSpline
210
0.0
220
0.0
230
1.0
 70
     8
 71
     3
 72
    42
 73
    38
 74
     0
 42
0.00000001
 43
0.00000001
 12
1.0
 22
0.0
 32
0.0
 13
1.0
 23
0.0
 33
0.0
 40
0.0
 40
0.0
 40
0.0
 40
0.0
 40
0.0077838100530815
 40
0.0155762754147507
 40
0.0233767191166492
 40
0.0311844318085204
 40
0.0389986742980677
 40
0.046818680050765
 40
0.0546436576537609
 40
0.0624727932452248
 40
0.0703052529136997
 40
0.0781401850694992
 40
0.0859767227926982
 40
0.0938139861596798
 40
0.1016510845539909
 40
0.1094871189629483
 40
0.1173211842661233
 40
0.1251523715167733
 40
0.132979770223432
 40
0.1408024706326387
 40
0.1486195660186242
 40
0.1564301549831654
 40
0.1642333437702708
 40
0.1720282485986475
 40
0.1876055306551927
 40
0.2125887486441018
 40
0.2276077331028397
 40
0.2501640341956771
 40
0.268081452027898
 40
0.2815228339546398
 40
0.3128693257806818
 40
0.3753331077580982
 40
0.5004338332733366
 40
0.6252805330366565
 40
0.7503389475317296
 40
0.8751318645511594
 40
1.0
 40
1.0
 40
1.0
 40
1.0
 10
248.1077022014641
 20
47.12658173093303
 30
0.0
 10
248.1076976332688
 20
47.12763293822544
 30
0.0
 10
248.1076884917985
 20
47.12973652171387
 30
0.0
 10
248.1076149098456
 20
47.13289279486766
 30
0.0
 10
248.1074978434788
 20
47.13605078581708
 30
0.0
 10
248.1073332183423
 20
47.13920947341273
 30
0.0
 10
248.1071224530722
 20
47.14236783675899
 30
0.0
 10
248.1068654922575
 20
47.14552485488625
 30
0.0
 10
248.1065626759254
 20
47.14867950683839
 30
0.0
 10
248.1062142379701
 20
47.15183077164905
 30
0.0
 10
248.1058204407042
 20
47.15497762834793
 30
0.0
 10
248.1053815387706
 20
47.15811905595896
 30
0.0
 10
248.1048977888229
 20
47.16125403350101
 30
0.0
 10
248.10436944693
 20
47.16438153998777
 30
0.0
 10
248.1037967692731
 20
47.1675005544279
 30
0.0
 10
248.103180011962
 20
47.17061005582582
 30
0.0
 10
248.1025194310741
 20
47.1737090231797
 30
0.0
 10
248.1018152826869
 20
47.17679643548966
 30
0.0
 10
248.1010678227112
 20
47.17987127172872
 30
0.0
 10
248.1002773075254
 20
47.18293251095177
 30
0.0
 10
248.0994439916098
 20
47.18597913189032
 30
0.0
 10
248.0985681363642
 20
47.18901011446381
 30
0.0
 10
248.0976499772431
 20
47.19202443414726
 30
0.0
 10
248.0963699290893
 20
47.19601957097632
 30
0.0
 10
248.0942505389052
 20
47.20216905932689
 30
0.0
 10
248.091554049777
 20
47.20913684172912
 30
0.0
 10
248.088244710872
 20
47.21685609450375
 30
0.0
 10
248.085085983439
 20
47.22359736363214
 30
0.0
 10
248.08179305272
 20
47.23002753003891
 30
0.0
 10
248.0777669824545
 20
47.2373932676373
 30
0.0
 10
248.0704117686347
 20
47.24970999317292
 30
0.0
 10
248.0534595801533
 20
47.27353160403909
 30
0.0
 10
248.0242818801242
 20
47.30334053199227
 30
0.0
 10
247.9834161749791
 20
47.33154244221974
 30
0.0
 10
247.9384608277335
 20
47.35165726340318
 30
0.0
 10
247.8908886051119
 20
47.36422233229007
 30
0.0
 10
247.8583615159431
 20
47.36579510676906
 30
0.0
 10
247.8420930714423
 20
47.36658173093301
 30
0.0
  0
LINE
  5
28A
330
1F
100
AcDbEntity
  8
0
  6
Continuous
 62
     7
370
    15
100
AcDbLine
 10
248.1077028268
 20
32.63820185
 30
0.0
 11
248.1077028268
 21
47.126581321
 31
0.0
  0
SPLINE
  5
28B
330
1F
100
AcDbEntity
  8
0
  6
Continuous
 62
     7
370
    15
100
AcDbSpline
210
0.0
220
0.0
230
1.0
 70
     8
 71
     3
 72
    22
 73
    18
 74
     0
 42
0.00000001
 43
0.00000001
 12
1.0
 22
0.0
 32
0.0
 13
1.0
 23
0.0
 33
0.0
 40
0.0
 40
0.0
 40
0.0
 40
0.0
 40
0.1248809650360685
 40
0.2499846935008829
 40
0.3744684426493416
 40
0.4369629277444327
 40
0.4619966813780207
 40
0.4995400979273618
 40
0.5708943041229319
 40
0.6241918208251117
 40
0.6953916459138897
 40
0.7490510323128581
 40
0.7817913793647965
 40
0.830851699333131
 40
0.8919555963084187
 40
0.9535691467770671
 40
1.0
 40
1.0
 40
1.0
 40
1.0
 10
248.2714391722425
 20
32.41647097824356
 30
0.0
 10
248.2603594172324
 20
32.42110798347557
 30
0.0
 10
248.2381801430775
 20
32.43039026545787
 30
0.0
 10
248.2074467840084
 20
32.44970978443246
 30
0.0
 10
248.1840440202409
 20
32.46904368450801
 30
0.0
 10
248.1696854675681
 20
32.48391009774303
 30
0.0
 10
248.1616596160302
 20
32.49310530811733
 30
0.0
 10
248.1534214672016
 20
32.50327805775817
 30
0.0
 10
248.1442339681825
 20
32.51626636351821
 30
0.0
 10
248.1343754961975
 20
32.5327979362775
 30
0.0
 10
248.1266449147572
 20
32.54857838738101
 30
0.0
 10
248.1209525099812
 20
32.56306788481844
 30
0.0
 10
248.1167614282746
 20
32.57578651508492
 30
0.0
 10
248.1130523441628
 20
32.58944309208094
 30
0.0
 10
248.1098300671717
 20
32.60617149984847
 30
0.0
 10
248.1079914561716
 20
32.62287468090746
 30
0.0
 10
248.1077891431733
 20
32.63359509154507
 30
0.0
 10
248.1077022014641
 20
32.63820206604627
 30
0.0
  0
SPLINE
  5
28C
330
1F
100
AcDbEntity
  8
0
  6
Continuous
 62
     7
370
    15
100
AcDbSpline
210
0.0
220
0.0
230
1.0
 70
     8
 71
     3
 72
    19
 73
    15
 74
     0
 42
0.00000001
 43
0.00000001
 12
1.0
 22
0.0
 32
0.0
 13
1.0
 23
0.0
 33
0.0
 40
0.0
 40
0.0
 40
0.0
 40
0.0
 40
0.050786483651402
 40
0.1012492171056172
 40
0.1513882487088626
 40
0.2012036277503566
 40
0.2506954044868366
 40
0.3767980841620787
 40
0.5010611302869019
 40
0.6268224374476562
 40
0.7508954840487583
 40
0.8346210194989845
 40
0.9176557337383664
 40
0.9999999999999999
 40
0.9999999999999999
 40
0.9999999999999999
 40
0.9999999999999999
 10
266.9115035191504
 20
24.98395202996254
 30
0.0
 10
266.6058110348778
 20
25.11326777484073
 30
0.0
 10
265.996374773842
 20
25.37107491144457
 30
0.0
 10
265.0809340647831
 20
25.75532332238542
 30
0.0
 10
264.1683788730498
 20
26.13619793912479
 30
0.0
 10
263.2585056723224
 20
26.51361286284032
 30
0.0
 10
261.8815186895126
 20
27.08137029055381
 30
0.0
 10
260.0388931499301
 20
27.83304916813343
 30
0.0
 10
257.7089385132884
 20
28.7691705631052
 30
0.0
 10
255.3736185969829
 20
29.69322053301143
 30
0.0
 10
253.2760339376288
 20
30.51065998536309
 30
0.0
 10
251.4362806973803
 20
31.21837620453291
 30
0.0
 10
249.8537977089654
 20
31.82133380134105
 30
0.0
 10
248.7974219145651
 20
32.21864483637965
 30
0.0
 10
248.2714391722426
 20
32.41647097824356
 30
0.0
  0
SPLINE
  5
28D
330
1F
100
AcDbEntity
  8
0
  6
Continuous
 62
     7
370
    15
100
AcDbSpline
210
0.0
220
0.0
230
1.0
 70
     8
 71
     3
 72
    23
 73
    19
 74
     0
 42
0.00000001
 43
0.00000001
 12
1.0
 22
0.0
 32
0.0
 13
1.0
 23
0.0
 33
0.0
 40
0.0
 40
0.0
 40
0.0
 40
0.0
 40
0.0155509323309255
 40
0.0311244629956187
 40
0.0623269501136549
 40
0.1248663104910451
 40
0.1963596441297126
 40
0.2498304173058276
 40
0.3210229259297026
 40
0.3746245195801179
 40
0.4461561617488756
 40
0.4997113942091781
 40
0.5619975034458958
 40
0.5976758071357859
 40
0.6244771133854783
 40
0.7495396119342854
 40
0.8745721133914444
 40
1.0
 40
1.0
 40
1.0
 40
1.0
 10
267.0562448559549
 20
24.76222094215984
 30
0.0
 10
267.0562366249655
 20
24.76372250372197
 30
0.0
 10
267.0562201510253
 20
24.76672780888835
 30
0.0
 10
267.0560446626457
 20
24.77274335982633
 30
0.0
 10
267.0554566046428
 20
24.78328115186174
 30
0.0
 10
267.0536851377703
 20
24.79913492117848
 30
0.0
 10
267.0502955157668
 20
24.81688077509807
 30
0.0
 10
267.0454248214612
 20
24.83506678810213
 30
0.0
 10
267.0397856041182
 20
24.85116042790778
 30
0.0
 10
267.0323352946992
 20
24.86828149133079
 30
0.0
 10
267.0244808968089
 20
24.88326293173187
 30
0.0
 10
267.015192980692
 20
24.89823442004367
 30
0.0
 10
267.006913123788
 20
24.90973214795057
 30
0.0
 10
266.9996012140851
 20
24.91873331451107
 30
0.0
 10
266.9881680424584
 20
24.93181322242274
 30
0.0
 10
266.9697149773268
 20
24.94943664264952
 30
0.0
 10
266.9419599914615
 20
24.96951009915121
 30
0.0
 10
266.9216663553252
 20
24.97913298935334
 30
0.0
 10
266.9115035191504
 20
24.98395202996269
 30
0.0
  0
LINE
  5
28E
330
1F
100
AcDbEntity
  8
0
  6
Continuous
 62
     7
370
    15
100
AcDbLine
 10
241.9205413961
 20
47.3665812858
 30
0.0
 11
242.981200462
 21
47.3665812858
 31
0.0
  0
LINE
  5
28F
330
1F
100
AcDbEntity
  8
0
  6
Continuous
 62
     7
370
    15
100
AcDbLine
 10
241.9205413961
 20
-0.6334191314
 30
0.0
 11
242.981200462
 21
-0.6334191314
 31
0.0
  0
SPLINE
  5
290
330
1F
100
AcDbEntity
  8
0
  6
Continuous
 62
     7
370
    15
100
AcDbSpline
210
0.0
220
0.0
230
1.0
 70
     8
 71
     3
 72
    17
 73
    13
 74
     0
 42
0.00000001
 43
0.00000001
 12
1.0
 22
0.0
 32
0.0
 13
1.0
 23
0.0
 33
0.0
 40
0.0
 40
0.0
 40
0.0
 40
0.0
 40
0.0633296498407907
 40
0.1262093580589833
 40
0.1886391995255094
 40
0.2506192507427317
 40
0.3766008389103999
 40
0.5009318186028409
 40
0.626618890835159
 40
0.7507782341526975
 40
0.8760974248843207
 40
1.0
 40
1.0
 40
1.0
 40
1.0
 10
266.7318531356419
 20
18.45997311468826
 30
0.0
 10
266.3929016638513
 20
18.31678850640371
 30
0.0
 10
265.7174068873071
 20
18.03143658134254
 30
0.0
 10
264.7026340116682
 20
17.60644601569193
 30
0.0
 10
263.6914835172199
 20
17.18561806297302
 30
0.0
 10
262.3344134952152
 20
16.62467087670964
 30
0.0
 10
260.6323135175274
 20
15.92817833549378
 30
0.0
 10
258.5680999789129
 20
15.09488078834197
 30
0.0
 10
256.4996224074684
 20
14.27103339172807
 30
0.0
 10
254.4115455292737
 20
13.45079810452429
 30
0.0
 10
252.3209335353589
 20
12.63986253521482
 30
0.0
 10
250.9147072866142
 20
12.1037401406326
 30
0.0
 10
250.2155907675478
 20
11.83720264524136
 30
0.0
  0
SPLINE
  5
291
330
1F
100
AcDbEntity
  8
0
  6
Continuous
 62
     7
370
    15
100
AcDbSpline
210
0.0
220
0.0
230
1.0
 70
     8
 71
     3
 72
    17
 73
    13
 74
     0
 42
0.00000001
 43
0.00000001
 12
1.0
 22
0.0
 32
0.0
 13
1.0
 23
0.0
 33
0.0
 40
0.0
 40
0.0
 40
0.0
 40
0.0
 40
0.0617727947288585
 40
0.1239009210452371
 40
0.1863844979389168
 40
0.2492236423799679
 40
0.3733776989760816
 40
0.499070050133143
 40
0.6233957329946803
 40
0.7493826101816728
 40
0.8737888645855177
 40
1.0
 40
1.0
 40
1.0
 40
1.0
 10
250.2155907675478
 20
33.59996081662463
 30
0.0
 10
250.564435028425
 20
33.46722642148463
 30
0.0
 10
251.2641301840956
 20
33.20099411186654
 30
0.0
 10
252.3127244595272
 20
32.7985558172676
 30
0.0
 10
253.3643094558993
 20
32.39240790129864
 30
0.0
 10
254.7593699548478
 20
31.84983289805256
 30
0.0
 10
256.4995603327704
 20
31.16612271729995
 30
0.0
 10
258.5680376925664
 20
30.34230770008565
 30
0.0
 10
260.6323327447658
 20
29.50900891795491
 30
0.0
 10
262.6744379392916
 20
28.67322771441402
 30
0.0
 10
264.7126340892726
 20
27.82851241333283
 30
0.0
 10
266.0555563283995
 20
27.26232355068574
 30
0.0
 10
266.7318531356419
 20
26.9771903471777
 30
0.0
  0
LINE
  5
292
330
1F
100
AcDbEntity
  8
0
  6
Continuous
 62
     7
370
    15
100
AcDbLine
 10
249.2550773376
 20
47.3665812858
 30
0.0
 11
250.3157382661
 21
47.3665812858
 31
0.0
  0
SPLINE
  5
293
330
1F
100
AcDbEntity
  8
0
  6
Continuous
 62
     7
370
    15
100
AcDbSpline
210
0.0
220
0.0
230
1.0
 70
     8
 71
     3
 72
    27
 73
    23
 74
     0
 42
0.00000001
 43
0.00000001
 12
1.0
 22
0.0
 32
0.0
 13
1.0
 23
0.0
 33
0.0
 40
0.0
 40
0.0
 40
0.0
 40
0.0
 40
0.1249193581480152
 40
0.2498394131050504
 40
0.3746087601511136
 40
0.4993878329209208
 40
0.624109106385533
 40
0.6866820375990128
 40
0.7178706249879686
 40
0.7334259876957719
 40
0.7489682029436034
 40
0.7652620026487109
 40
0.7897698685936861
 40
0.820481408639474
 40
0.8420062059235272
 40
0.8742862012435725
 40
0.8993584334830164
 40
0.9143761354909755
 40
0.9368519100537762
 40
0.9511368729384411
 40
0.9728546173372874
 40
1.0
 40
1.0
 40
1.0
 40
1.0
 10
250.3157369742793
 20
47.36658173093301
 30
0.0
 10
250.2996360495918
 20
47.36578158217226
 30
0.0
 10
250.2674341104047
 20
47.36418128018745
 30
0.0
 10
250.2203978405796
 20
47.35152235554825
 30
0.0
 10
250.1760607672843
 20
47.33121932022803
 30
0.0
 10
250.1358030442034
 20
47.30302227801354
 30
0.0
 10
250.1072080352667
 20
47.27312920750171
 30
0.0
 10
250.0905519744151
 20
47.24941108090277
 30
0.0
 10
250.0831631026559
 20
47.2369010585951
 30
0.0
 10
250.0792419903703
 20
47.22959996763603
 30
0.0
 10
250.0764097645354
 20
47.22395920640658
 30
0.0
 10
250.0732332649297
 20
47.21715242360726
 30
0.0
 10
250.0695122789686
 20
47.20836086391734
 30
0.0
 10
250.0659754806983
 20
47.19872759321228
 30
0.0
 10
250.0625660975694
 20
47.18794280809348
 30
0.0
 10
250.0598581375163
 20
47.17772322779234
 30
0.0
 10
250.0578526957603
 20
47.16822550271598
 30
0.0
 10
250.0564177599354
 20
47.15995431565894
 30
0.0
 10
250.0554634190095
 20
47.15306760640755
 30
0.0
 10
250.0546616086719
 20
47.14525629972213
 30
0.0
 10
250.0540497867464
 20
47.13679329389094
 30
0.0
 10
250.0539568104252
 20
47.13022864869371
 30
0.0
 10
250.0539051584338
 20
47.12658173093303
 30
0.0
  0
LINE
  5
294
330
1F
100
AcDbEntity
  8
0
  6
Continuous
 62
     7
370
    15
100
AcDbLine
 10
250.0539062375
 20
42.5627207257
 30
0.0
 11
250.0539062375
 21
47.126581321
 31
0.0
  0
SPLINE
  5
295
330
1F
100
AcDbEntity
  8
0
  6
Continuous
 62
     7
370
    15
100
AcDbSpline
210
0.0
220
0.0
230
1.0
 70
     8
 71
     3
 72
    13
 73
     9
 74
     0
 42
0.00000001
 43
0.00000001
 12
1.0
 22
0.0
 32
0.0
 13
1.0
 23
0.0
 33
0.0
 40
0.0
 40
0.0
 40
0.0
 40
0.0
 40
0.1632409102992542
 40
0.3278515240068714
 40
0.4938322988029925
 40
0.6611836811224214
 40
0.8299061065163815
 40
1.0
 40
1.0
 40
1.0
 40
1.0
 10
260.2093677080462
 20
35.28302239044943
 30
0.0
 10
260.5806704418771
 20
35.51497838615297
 30
0.0
 10
261.3263913946166
 20
35.98083664775249
 30
0.0
 10
262.4432986817465
 20
36.68512428440722
 30
0.0
 10
263.564735764598
 20
37.39711913238123
 30
0.0
 10
264.6899339889241
 20
38.11705630852988
 30
0.0
 10
265.8193392100063
 20
38.84471336573867
 30
0.0
 10
266.5706123224805
 20
39.33342587798659
 30
0.0
 10
266.9477693885675
 20
39.57877124469676
 30
0.0
  0
SPLINE
  5
296
330
1F
100
AcDbEntity
  8
0
  6
Continuous
 62
     7
370
    15
100
AcDbSpline
210
0.0
220
0.0
230
1.0
 70
     8
 71
     3
 72
    67
 73
    63
 74
     0
 42
0.00000001
 43
0.00000001
 12
1.0
 22
0.0
 32
0.0
 13
1.0
 23
0.0
 33
0.0
 40
0.0
 40
0.0
 40
0.0
 40
0.0
 40
0.0624069747475641
 40
0.1249544798995815
 40
0.2493979203116027
 40
0.2993687993152198
 40
0.3740443977581241
 40
0.3896914734694399
 40
0.3975196068318949
 40
0.4053486884122138
 40
0.4178734235255528
 40
0.4253855441075816
 40
0.4366463982374353
 40
0.4423619785733472
 40
0.4509284193250219
 40
0.4594852561939254
 40
0.4722989775902783
 40
0.4829582468490073
 40
0.4893660928887266
 40
0.4941770270750674
 40
0.4989919399025873
 40
0.5068014696764493
 40
0.5146193111585642
 40
0.5224440930282552
 40
0.5302744117946351
 40
0.5381088381723836
 40
0.5420271836419858
 40
0.545946011486637
 40
0.5522166456113803
 40
0.556919691280673
 40
0.5616224271983316
 40
0.5694586950392618
 40
0.5733757618068096
 40
0.5772918447516475
 40
0.5835550424085154
 40
0.5882500605520589
 40
0.5929426801090347
 40
0.5968511515874487
 40
0.6007575728764648
 40
0.6046617724642552
 40
0.6085635811507396
 40
0.6124628322510733
 40
0.6163593618019041
 40
0.620253008768696
 40
0.6241457568682216
 40
0.6280436343611239
 40
0.6319440648233682
 40
0.6358469222581528
 40
0.6397520763072255
 40
0.6436593924465066
 40
0.6475687321797745
 40
0.6553928222625597
 40
0.6616567526625767
 40
0.6663570067892324
 40
0.6710589192892791
 40
0.6788982964765867
 40
0.6867401901251828
 40
0.7493440244844644
 40
0.8118224258780296
 40
0.874483565042067
 40
0.9371419601253306
 40
1.0
 40
1.0
 40
1.0
 40
1.0
 10
260.2472855181218
 20
34.85887735565167
 30
0.0
 10
260.237621248707
 20
34.86322878522666
 30
0.0
 10
260.218270947507
 20
34.87194144309159
 30
0.0
 10
260.1825433797453
 20
34.89552935948902
 30
0.0
 10
260.152764061922
 20
34.9246054600555
 30
0.0
 10
260.1278323737334
 20
34.96060707332136
 30
0.0
 10
260.1165823980222
 20
34.98293733902021
 30
0.0
 10
260.1103660180491
 20
34.99927146941433
 30
0.0
 10
260.1085165367726
 20
35.00453718000356
 30
0.0
 10
260.106933287935
 20
35.00930948972258
 30
0.0
 10
260.10547337501
 20
35.01406762457429
 30
0.0
 10
260.1039525671001
 20
35.01945111077364
 30
0.0
 10
260.1028505413148
 20
35.02369118624659
 30
0.0
 10
260.1017855150894
 20
35.02813740681324
 30
0.0
 10
260.100897253724
 20
35.03213014745217
 30
0.0
 10
260.0998350323276
 20
35.03738855210247
 30
0.0
 10
260.0988367917427
 20
35.04304524638737
 30
0.0
 10
260.0980507393104
 20
35.04834910563255
 30
0.0
 10
260.0975538034098
 20
35.05224457231424
 30
0.0
 10
260.0972271397665
 20
35.05510458105127
 30
0.0
 10
260.096906832052
 20
35.05821895096925
 30
0.0
 10
260.0965847574048
 20
35.06187644409714
 30
0.0
 10
260.096290815708
 20
35.06607927297647
 30
0.0
 10
260.0960719576107
 20
35.07029109811
 30
0.0
 10
260.0959281096608
 20
35.0745095959916
 30
0.0
 10
260.0958706872456
 20
35.07802836385576
 30
0.0
 10
260.0958621705144
 20
35.08084456593274
 30
0.0
 10
260.0958769551804
 20
35.08337971940254
 30
0.0
 10
260.0959233525923
 20
35.08605554991201
 30
0.0
 10
260.0960070677999
 20
35.0888712279835
 30
0.0
 10
260.096132011808
 20
35.09196678510607
 30
0.0
 10
260.0962930813352
 20
35.09491910963018
 30
0.0
 10
260.0964837904031
 20
35.09772751798784
 30
0.0
 10
260.0966777561551
 20
35.10025213323247
 30
0.0
 10
260.0969131692884
 20
35.10291324251693
 30
0.0
 10
260.0971957434302
 20
35.10570942507844
 30
0.0
 10
260.0974612216815
 20
35.10808181656079
 30
0.0
 10
260.0977328976846
 20
35.11031054036641
 30
0.0
 10
260.0980061603955
 20
35.11239606383113
 30
0.0
 10
260.0982979919129
 20
35.11447748983533
 30
0.0
 10
260.0986083831871
 20
35.1165545304945
 30
0.0
 10
260.0989373241491
 20
35.11862689735434
 30
0.0
 10
260.0992848082063
 20
35.12069430141007
 30
0.0
 10
260.0996508829919
 20
35.12275683451051
 30
0.0
 10
260.1000358633932
 20
35.12481566418717
 30
0.0
 10
260.1004398189766
 20
35.1268715663487
 30
0.0
 10
260.1008627398702
 20
35.12892495081796
 30
0.0
 10
260.1013044318237
 20
35.13097514081636
 30
0.0
 10
260.1017647756041
 20
35.1330218925085
 30
0.0
 10
260.1022436553684
 20
35.1350649648824
 30
0.0
 10
260.102906868575
 20
35.13778443944811
 30
0.0
 10
260.1037115912971
 20
35.14090187930441
 30
0.0
 10
260.1046030666003
 20
35.14414049315128
 30
0.0
 10
260.1053794099669
 20
35.14683021268003
 30
0.0
 10
260.106264744092
 20
35.14977996032131
 30
0.0
 10
260.1073598342232
 20
35.15325035655862
 30
0.0
 10
260.1117952871261
 20
35.16649190186291
 30
0.0
 10
260.1210649477478
 20
35.18832771984732
 30
0.0
 10
260.1382395400705
 20
35.21675297202979
 30
0.0
 10
260.1589522693806
 20
35.24229930791527
 30
0.0
 10
260.1826182647258
 20
35.26490763929723
 30
0.0
 10
260.2004417769913
 20
35.27697774055062
 30
0.0
 10
260.2093677080463
 20
35.28302239044952
 30
0.0
  0
SPLINE
  5
297
330
1F
100
AcDbEntity
  8
0
  6
Continuous
 62
     7
370
    15
100
AcDbSpline
210
0.0
220
0.0
230
1.0
 70
     8
 71
     3
 72
    14
 73
    10
 74
     0
 42
0.00000001
 43
0.00000001
 12
1.0
 22
0.0
 32
0.0
 13
1.0
 23
0.0
 33
0.0
 40
0.0
 40
0.0
 40
0.0
 40
0.0
 40
0.1456700244483002
 40
0.2904021628237821
 40
0.4341965674036973
 40
0.5770533934657159
 40
0.7189727993667128
 40
0.8599549466241284
 40
1.0
 40
1.0
 40
1.0
 40
1.0
 10
266.9115035191504
 20
32.09658682804627
 30
0.0
 10
266.591665565466
 20
32.23187513295933
 30
0.0
 10
265.9540489119725
 20
32.50158069867415
 30
0.0
 10
264.9961085457797
 20
32.90348915526074
 30
0.0
 10
264.0411058142229
 20
33.30179552705393
 30
0.0
 10
263.0888425941953
 20
33.69641276871418
 30
0.0
 10
262.1394406036112
 20
34.08733801286652
 30
0.0
 10
261.1932731282095
 20
34.47466797031213
 30
0.0
 10
260.5619129581543
 20
34.73109257913154
 30
0.0
 10
260.2472855181218
 20
34.85887735565167
 30
0.0
  0
SPLINE
  5
298
330
1F
100
AcDbEntity
  8
0
  6
Continuous
 62
     7
370
    15
100
AcDbSpline
210
0.0
220
0.0
230
1.0
 70
     8
 71
     3
 72
    23
 73
    19
 74
     0
 42
0.00000001
 43
0.00000001
 12
1.0
 22
0.0
 32
0.0
 13
1.0
 23
0.0
 33
0.0
 40
0.0
 40
0.0
 40
0.0
 40
0.0
 40
0.0155509323310194
 40
0.031124462995711
 40
0.0623269501137456
 40
0.1248663104910371
 40
0.196359644129796
 40
0.2498304173058996
 40
0.3210229259297676
 40
0.3746245195801871
 40
0.4461561617489271
 40
0.4997113942091997
 40
0.5619975034459384
 40
0.597675807135825
 40
0.6244771133855147
 40
0.7495396119343097
 40
0.8745721133914565
 40
0.9999999999999999
 40
0.9999999999999999
 40
0.9999999999999999
 40
0.9999999999999999
 10
267.0562448559549
 20
31.87485574024355
 30
0.0
 10
267.0562366249654
 20
31.87635730180569
 30
0.0
 10
267.0562201510253
 20
31.87936260697208
 30
0.0
 10
267.0560446626457
 20
31.88537815791008
 30
0.0
 10
267.0554566046428
 20
31.89591594994547
 30
0.0
 10
267.0536851377702
 20
31.91176971926221
 30
0.0
 10
267.0502955157668
 20
31.92951557318181
 30
0.0
 10
267.0454248214612
 20
31.94770158618587
 30
0.0
 10
267.0397856041182
 20
31.96379522599152
 30
0.0
 10
267.0323352946992
 20
31.98091628941453
 30
0.0
 10
267.0244808968089
 20
31.99589772981561
 30
0.0
 10
267.015192980692
 20
32.01086921812743
 30
0.0
 10
267.006913123788
 20
32.02236694603432
 30
0.0
 10
266.9996012140851
 20
32.03136811259481
 30
0.0
 10
266.9881680424584
 20
32.04444802050648
 30
0.0
 10
266.9697149773268
 20
32.06207144073327
 30
0.0
 10
266.9419599914615
 20
32.08214489723495
 30
0.0
 10
266.9216663553252
 20
32.09176778743709
 30
0.0
 10
266.9115035191504
 20
32.09658682804643
 30
0.0
  0
LINE
  5
299
330
1F
100
AcDbEntity
  8
0
  6
Continuous
 62
     7
370
    15
100
AcDbLine
 10
267.0562466436
 20
27.1989213177
 30
0.0
 11
267.0562466436
 21
31.8748554089
 31
0.0
  0
SPLINE
  5
29A
330
1F
100
AcDbEntity
  8
0
  6
Continuous
 62
     7
370
    15
100
AcDbSpline
210
0.0
220
0.0
230
1.0
 70
     8
 71
     3
 72
    33
 73
    29
 74
     0
 42
0.00000001
 43
0.00000001
 12
1.0
 22
0.0
 32
0.0
 13
1.0
 23
0.0
 33
0.0
 40
0.0
 40
0.0
 40
0.0
 40
0.0
 40
0.0622574168101596
 40
0.1250248089767662
 40
0.2496656553421514
 40
0.3122817670858878
 40
0.3746993479122231
 40
0.4370828776226355
 40
0.4996779141226357
 40
0.6242046262140597
 40
0.6868064309822456
 40
0.7491452354170239
 40
0.8116323576377402
 40
0.8273086095533206
 40
0.8429843999658134
 40
0.8555190072810784
 40
0.8742996874568087
 40
0.888585098090338
 40
0.8971438757925994
 40
0.9099609489585488
 40
0.924324713110857
 40
0.9329707958067545
 40
0.9459470132921461
 40
0.9583092903866594
 40
0.9768491811774179
 40
0.9861142333841643
 40
0.9930592026229198
 40
1.0
 40
1.0
 40
1.0
 40
1.0
 10
266.7318531356419
 20
26.97719034717773
 30
0.0
 10
266.7406454613803
 20
26.97383658662091
 30
0.0
 10
266.7583021343076
 20
26.9671015935156
 30
0.0
 10
266.7949954032221
 20
26.95924486742369
 30
0.0
 10
266.8326531598496
 20
26.95785009980394
 30
0.0
 10
266.8696503201545
 20
26.96342861547432
 30
0.0
 10
266.8968438268392
 20
26.97093147034237
 30
0.0
 10
266.9230539416726
 20
26.98185171259326
 30
0.0
 10
266.9561959060085
 20
27.00060835453266
 30
0.0
 10
266.9861156883387
 20
27.02575303128746
 30
0.0
 10
267.0110079055448
 20
27.05619775426325
 30
0.0
 10
267.0269836439119
 20
27.08145990121016
 30
0.0
 10
267.0365494193268
 20
27.10198945418799
 30
0.0
 10
267.0418848560421
 20
27.11617725263389
 30
0.0
 10
267.0441801399252
 20
27.12289989418839
 30
0.0
 10
267.0464412400492
 20
27.13017397905178
 30
0.0
 10
267.0484206501603
 20
27.13731027237676
 30
0.0
 10
267.0500145999471
 20
27.14388977672897
 30
0.0
 10
267.0512514181368
 20
27.14956157022572
 30
0.0
 10
267.0523684337668
 20
27.15527676676356
 30
0.0
 10
267.0533291498321
 20
27.16104075706544
 30
0.0
 10
267.0541616273657
 20
27.16685418054747
 30
0.0
 10
267.0548296981479
 20
27.1723636149634
 30
0.0
 10
267.0555131797561
 20
27.17949994432122
 30
0.0
 10
267.0559392634531
 20
27.18605344815764
 30
0.0
 10
267.0561489736506
 20
27.19173123064261
 30
0.0
 10
267.0562310753691
 20
27.19551592128418
 30
0.0
 10
267.0562402633466
 20
27.19778649113954
 30
0.0
 10
267.0562448559551
 20
27.19892143498041
 30
0.0
  0
SPLINE
  5
29B
330
1F
100
AcDbEntity
  8
0
  6
Continuous
 62
     7
370
    15
100
AcDbSpline
210
0.0
220
0.0
230
1.0
 70
     8
 71
     3
 72
    23
 73
    19
 74
     0
 42
0.00000001
 43
0.00000001
 12
1.0
 22
0.0
 32
0.0
 13
1.0
 23
0.0
 33
0.0
 40
0.0
 40
0.0
 40
0.0
 40
0.0
 40
0.0155517313315562
 40
0.0311276724639441
 40
0.0623382692462938
 40
0.1248943643928973
 40
0.1963741014845328
 40
0.2497826782207297
 40
0.3210960784271817
 40
0.3747559284711122
 40
0.4462814230707915
 40
0.4997477101491014
 40
0.53538960967874
 40
0.5621720089345394
 40
0.6247585814582914
 40
0.7497469892006554
 40
0.874837187191364
 40
1.0
 40
1.0
 40
1.0
 40
1.0
 10
250.0539051584338
 20
33.82169190442734
 30
0.0
 10
250.0539148436693
 20
33.82015410180991
 30
0.0
 10
250.0539342292174
 20
33.81707610263611
 30
0.0
 10
250.054140502556
 20
33.81091507314829
 30
0.0
 10
250.0548308598116
 20
33.80012419055814
 30
0.0
 10
250.0569056364729
 20
33.78390681131378
 30
0.0
 10
250.060858556665
 20
33.76580442939156
 30
0.0
 10
250.0665317754504
 20
33.74731121893932
 30
0.0
 10
250.0730735488319
 20
33.73101181033977
 30
0.0
 10
250.0816516446488
 20
33.7137486757395
 30
0.0
 10
250.0906310448387
 20
33.6987376696195
 30
0.0
 10
250.0996871575539
 20
33.68595199409292
 30
0.0
 10
250.1067018137256
 20
33.67712596734827
 30
0.0
 10
250.1146063250459
 20
33.66791213717087
 30
0.0
 10
250.1289509597643
 20
33.65286654922524
 30
0.0
 10
250.1520921538203
 20
33.63339710357197
 30
0.0
 10
250.1825719743894
 20
33.61394938908385
 30
0.0
 10
250.2045823742744
 20
33.60462457602397
 30
0.0
 10
250.2155907675474
 20
33.59996081662399
 30
0.0
  0
LINE
  5
29C
330
1F
100
AcDbEntity
  8
0
  6
Continuous
 62
     7
370
    15
100
AcDbLine
 10
250.0539062375
 20
33.8216921189
 30
0.0
 11
250.0539062375
 21
38.4976262101
 31
0.0
  0
SPLINE
  5
29D
330
1F
100
AcDbEntity
  8
0
  6
Continuous
 62
     7
370
    15
100
AcDbSpline
210
0.0
220
0.0
230
1.0
 70
     8
 71
     3
 72
    36
 73
    32
 74
     0
 42
0.00000001
 43
0.00000001
 12
1.0
 22
0.0
 32
0.0
 13
1.0
 23
0.0
 33
0.0
 40
0.0
 40
0.0
 40
0.0
 40
0.0
 40
0.0621794667962268
 40
0.1250302904826944
 40
0.2497194617584652
 40
0.3123322656142609
 40
0.374885116747066
 40
0.4995083087053283
 40
0.5620481419685381
 40
0.6242725162119114
 40
0.6867695778005634
 40
0.7493438036844765
 40
0.8116046456827697
 40
0.8429015768587163
 40
0.8491751392944504
 40
0.8585900482117671
 40
0.8742875123477527
 40
0.8886386770749314
 40
0.8972457055827097
 40
0.9101460895555407
 40
0.9208840439461302
 40
0.9273201552815045
 40
0.9369631196949931
 40
0.9512205645921187
 40
0.9598203294981789
 40
0.966335093379786
 40
0.9728513122359029
 40
0.9796397095118691
 40
0.9864278948898592
 40
0.9932149591720161
 40
1.0
 40
1.0
 40
1.0
 40
1.0
 10
250.4158181994358
 20
38.71935729749319
 30
0.0
 10
250.406195512357
 20
38.72266022831752
 30
0.0
 10
250.3868462412442
 20
38.72930175198586
 30
0.0
 10
250.346801401466
 20
38.73710645716563
 30
0.0
 10
250.3057986172776
 20
38.73874174881657
 30
0.0
 10
250.2653496922082
 20
38.73365902122119
 30
0.0
 10
250.2256188294748
 20
38.72433994834526
 30
0.0
 10
250.1875386824174
 20
38.7083612044339
 30
0.0
 10
250.1528389105565
 20
38.68622234198227
 30
0.0
 10
250.1287998317763
 20
38.66651956383701
 30
0.0
 10
250.1073212148129
 20
38.64381612281573
 30
0.0
 10
250.0887438880107
 20
38.61847032678025
 30
0.0
 10
250.0761250438872
 20
38.59533929706446
 30
0.0
 10
250.0696712451881
 20
38.57976231117265
 30
0.0
 10
250.0669374480079
 20
38.57230920243705
 30
0.0
 10
250.0651970553822
 20
38.56729695803573
 30
0.0
 10
250.0631825375801
 20
38.56093098921995
 30
0.0
 10
250.0614166705857
 20
38.55462833667573
 30
0.0
 10
250.059928274941
 20
38.54873924697293
 30
0.0
 10
250.0587173266605
 20
38.54340967221064
 30
0.0
 10
250.0577211740529
 20
38.53840832537128
 30
0.0
 10
250.0569207280013
 20
38.53393098671062
 30
0.0
 10
250.0561092595877
 20
38.5288484893888
 30
0.0
 10
250.0553918270506
 20
38.52337865755398
 30
0.0
 10
250.0548791313574
 20
38.518418847231
 30
0.0
 10
250.0545655400446
 20
38.51475975558043
 30
0.0
 10
250.054328809448
 20
38.5114027859897
 30
0.0
 10
250.0541408882364
 20
38.5079959163085
 30
0.0
 10
250.0540056971441
 20
38.50454034072547
 30
0.0
 10
250.0539209082414
 20
38.50108347478365
 30
0.0
 10
250.0539104078479
 20
38.4987785168401
 30
0.0
 10
250.0539051584339
 20
38.49762620969048
 30
0.0
  0
SPLINE
  5
29E
330
1F
100
AcDbEntity
  8
0
  6
Continuous
 62
     7
370
    15
100
AcDbSpline
210
0.0
220
0.0
230
1.0
 70
     8
 71
     3
 72
    12
 73
     8
 74
     0
 42
0.00000001
 43
0.00000001
 12
1.0
 22
0.0
 32
0.0
 13
1.0
 23
0.0
 33
0.0
 40
0.0
 40
0.0
 40
0.0
 40
0.0
 40
0.2023942240046795
 40
0.403590945572705
 40
0.6035905516258068
 40
0.8023934360774797
 40
1.0
 40
1.0
 40
1.0
 40
1.0
 10
255.8301539270354
 20
36.62397217912562
 30
0.0
 10
255.4675063654379
 20
36.76651209215814
 30
0.0
 10
254.7443569128556
 20
37.05074855476249
 30
0.0
 10
253.6582288463524
 20
37.47385422558815
 30
0.0
 10
252.5752308701019
 20
37.8929345239678
 30
0.0
 10
251.4954511667484
 20
38.30799943114245
 30
0.0
 10
250.7749710784015
 20
38.58251416055858
 30
0.0
 10
250.4158181994358
 20
38.71935729749319
 30
0.0
  0
SPLINE
  5
29F
330
1F
100
AcDbEntity
  8
0
  6
Continuous
 62
     7
370
    15
100
AcDbSpline
210
0.0
220
0.0
230
1.0
 70
     8
 71
     3
 72
    32
 73
    28
 74
     0
 42
0.00000001
 43
0.00000001
 12
1.0
 22
0.0
 32
0.0
 13
1.0
 23
0.0
 33
0.0
 40
0.0
 40
0.0
 40
0.0
 40
0.0
 40
0.007787809464394
 40
0.0155856134389418
 40
0.0233924595541801
 40
0.0312073450332943
 40
0.0351175150333762
 40
0.0390292982078534
 40
0.0468570763531995
 40
0.0625252047050398
 40
0.0768592188358883
 40
0.0854606790733348
 40
0.0983595279199232
 40
0.1091022895027077
 40
0.1251975845725135
 40
0.1408155434732845
 40
0.156399234173467
 40
0.1876417744141549
 40
0.2503068749158284
 40
0.3751356402797292
 40
0.5000163127712242
 40
0.562629767338432
 40
0.6252037580609604
 40
0.7499713573141443
 40
0.8747559517685135
 40
0.9375377268198388
 40
1.0
 40
1.0
 40
1.0
 40
1.0
 10
256.1785493181225
 20
36.83613762578523
 30
0.0
 10
256.1784894805585
 20
36.83486089005699
 30
0.0
 10
256.1783697286381
 20
36.83230578009765
 30
0.0
 10
256.17810641175
 20
36.82847601313098
 30
0.0
 10
256.1777823493717
 20
36.82464717887971
 30
0.0
 10
256.1774570739138
 20
36.82145961046128
 30
0.0
 10
256.1771648155671
 20
36.81891171463356
 30
0.0
 10
256.1768509531581
 20
36.8163645578917
 30
0.0
 10
256.1762455022279
 20
36.81191162504115
 30
0.0
 10
256.1752569495148
 20
36.80578976948141
 30
0.0
 10
256.1740521304227
 20
36.79958207022999
 30
0.0
 10
256.1727963109383
 20
36.79385227300948
 30
0.0
 10
256.1715510344843
 20
36.78872599852316
 30
0.0
 10
256.1698614469502
 20
36.78245323930722
 30
0.0
 10
256.1678691431036
 20
36.77580986156271
 30
0.0
 10
256.165405177716
 20
36.7684964006661
 30
0.0
 10
256.1618345899558
 20
36.75896747769983
 30
0.0
 10
256.1547487106729
 20
36.74262114134599
 30
0.0
 10
256.137554473739
 20
36.71156119569943
 30
0.0
 10
256.1050589641983
 20
36.6727646975717
 30
0.0
 10
256.0648334915037
 20
36.64335300807668
 30
0.0
 10
256.029607970463
 20
36.62601510488067
 30
0.0
 10
255.9928445901622
 20
36.6127791071948
 30
0.0
 10
255.9447155475343
 20
36.60417813654855
 30
0.0
 10
255.8959684941605
 20
36.60632090841729
 30
0.0
 10
255.8577836015927
 20
36.61412434005662
 30
0.0
 10
255.8393481420577
 20
36.62069515355962
 30
0.0
 10
255.8301539270355
 20
36.62397217912559
 30
0.0
  0
SPLINE
  5
2A0
330
1F
100
AcDbEntity
  8
0
  6
Continuous
 62
     7
370
    15
100
AcDbSpline
210
0.0
220
0.0
230
1.0
 70
     8
 71
     3
 72
    30
 73
    26
 74
     0
 42
0.00000001
 43
0.00000001
 12
1.0
 22
0.0
 32
0.0
 13
1.0
 23
0.0
 33
0.0
 40
0.0
 40
0.0
 40
0.0
 40
0.0
 40
0.0209985586625111
 40
0.0419646292716039
 40
0.0629150888092219
 40
0.094293493529207
 40
0.1255991245726689
 40
0.1880570486423104
 40
0.25033718391233
 40
0.3125000820601231
 40
0.3746428554295583
 40
0.4369086003588754
 40
0.4994948971412144
 40
0.5621614594994011
 40
0.6245715632806622
 40
0.6868575882918996
 40
0.7492163005774133
 40
0.780464578690309
 40
0.8117112336603641
 40
0.842968764441916
 40
0.8742510190993719
 40
0.9056230980930957
 40
0.9369571072951242
 40
0.9684824178496514
 40
1.0
 40
1.0
 40
1.0
 40
1.0
 10
250.3255185924486
 20
42.32288943046959
 30
0.0
 10
250.3875665379429
 20
42.32449036529563
 30
0.0
 10
250.5115664310587
 20
42.32768975805124
 30
0.0
 10
250.6974423799609
 20
42.32552144141739
 30
0.0
 10
250.9137328127445
 20
42.31702725009358
 30
0.0
 10
251.1599694351614
 20
42.29803775309799
 30
0.0
 10
251.5266309030318
 20
42.25317857658255
 30
0.0
 10
251.9794845380397
 20
42.16631621206349
 30
0.0
 10
252.510305302961
 20
42.01276033372434
 30
0.0
 10
253.0242946710135
 20
41.81003212839251
 30
0.0
 10
253.5175599216682
 20
41.55821314364775
 30
0.0
 10
253.9861990061543
 20
41.25731508194884
 30
0.0
 10
254.4252724495354
 20
40.9084850328048
 30
0.0
 10
254.8282750894553
 20
40.51403155366774
 30
0.0
 10
255.1884963814622
 20
40.07743232296853
 30
0.0
 10
255.5008253744803
 20
39.60284747094768
 30
0.0
 10
255.7173423206912
 20
39.17875883123342
 30
0.0
 10
255.8616639725765
 20
38.82506364275918
 30
0.0
 10
255.9549978411564
 20
38.5531335966208
 30
0.0
 10
256.0329999391417
 20
38.2757527055532
 30
0.0
 10
256.0953391540679
 20
37.9935776405483
 30
0.0
 10
256.1417430227812
 20
37.70772082155141
 30
0.0
 10
256.1714931524355
 20
37.41869027097184
 30
0.0
 10
256.1858043750732
 20
37.12775021834191
 30
0.0
 10
256.180967472788
 20
36.93333387882915
 30
0.0
 10
256.1785493181225
 20
36.83613762578523
 30
0.0
  0
SPLINE
  5
2A1
330
1F
100
AcDbEntity
  8
0
  6
Continuous
 62
     7
370
    15
100
AcDbSpline
210
0.0
220
0.0
230
1.0
 70
     8
 71
     3
 72
    31
 73
    27
 74
     0
 42
0.00000001
 43
0.00000001
 12
1.0
 22
0.0
 32
0.0
 13
1.0
 23
0.0
 33
0.0
 40
0.0
 40
0.0
 40
0.0
 40
0.0
 40
0.00890263788433
 40
0.0178165924671078
 40
0.0267408070873712
 40
0.035674170062774
 40
0.0446155198541996
 40
0.0535636501405877
 40
0.0625173148115799
 40
0.0714752328876154
 40
0.0804360933752832
 40
0.089398560067819
 40
0.1073222187065602
 40
0.1216547068902014
 40
0.1431281184994401
 40
0.1645551390751466
 40
0.177381853971405
 40
0.1966434852481464
 40
0.223461034394007
 40
0.2503316105040032
 40
0.3753442427012084
 40
0.5005303778525372
 40
0.6254499769622834
 40
0.7505258613279403
 40
0.8752510198134354
 40
1.0
 40
1.0
 40
1.0
 40
1.0
 10
250.0539051584338
 20
42.56272159863035
 30
0.0
 10
250.0539112910656
 20
42.56149567836748
 30
0.0
 10
250.0539235641247
 20
42.559042279498
 30
0.0
 10
250.0540222837697
 20
42.55536117866626
 30
0.0
 10
250.0541792690046
 20
42.55167819454374
 30
0.0
 10
250.0543999430684
 20
42.54799492284443
 30
0.0
 10
250.0546823527012
 20
42.54431295872259
 30
0.0
 10
250.0550265243737
 20
42.54063389787807
 30
0.0
 10
250.0554319536049
 20
42.53695933445903
 30
0.0
 10
250.0558982775759
 20
42.53329086835415
 30
0.0
 10
250.0564250986155
 20
42.5296300781069
 30
0.0
 10
250.0572076328917
 20
42.52476161557076
 30
0.0
 10
250.058244762558
 20
42.51918844062791
 30
0.0
 10
250.0598093367674
 20
42.51197111519348
 30
0.0
 10
250.0617262543197
 20
42.50434534892086
 30
0.0
 10
250.0638830445498
 20
42.49700617529834
 30
0.0
 10
250.0661764378885
 20
42.49003511572926
 30
0.0
 10
250.06892934584
 20
42.48244670848243
 30
0.0
 10
250.0727286985306
 20
42.47321017647998
 30
0.0
 10
250.0830884775639
 20
42.45109631840671
 30
0.0
 10
250.1036641504788
 20
42.41911757474377
 30
0.0
 10
250.1395846926509
 20
42.38305992758843
 30
0.0
 10
250.1814963596104
 20
42.35491662427849
 30
0.0
 10
250.2274825003388
 20
42.33530923635514
 30
0.0
 10
250.2760202164148
 20
42.32370455502464
 30
0.0
 10
250.3090180834743
 20
42.32316115595058
 30
0.0
 10
250.3255185924486
 20
42.32288943046959
 30
0.0
  0
LINE
  5
2A2
330
1F
100
AcDbEntity
  8
0
  6
Continuous
 62
     7
370
    15
100
AcDbLine
 10
254.954190349
 20
47.3665812858
 30
0.0
 11
250.3157382661
 21
47.3665812858
 31
0.0
  0
SPLINE
  5
2A3
330
1F
100
AcDbEntity
  8
0
  6
Continuous
 62
     7
370
    15
100
AcDbSpline
210
0.0
220
0.0
230
1.0
 70
     8
 71
     3
 72
    42
 73
    38
 74
     0
 42
0.00000001
 43
0.00000001
 12
1.0
 22
0.0
 32
0.0
 13
1.0
 23
0.0
 33
0.0
 40
0.0
 40
0.0
 40
0.0
 40
0.0
 40
0.0077828895158818
 40
0.0155741106595905
 40
0.0233730240859818
 40
0.0311789636462187
 40
0.0389912385135104
 40
0.0468091352779706
 40
0.0546319200129063
 40
0.0624588403147342
 40
0.0702891273188736
 40
0.0781219976943732
 40
0.0859566556200032
 40
0.093792294744892
 40
0.1016281001350476
 40
0.1094632502112532
 40
0.1172969186789004
 40
0.125128276453415
 40
0.1329564935858853
 40
0.1407807411891496
 40
0.1486001933694401
 40
0.1564140291666965
 40
0.1642214345048934
 40
0.1720216041574804
 40
0.179813743730024
 40
0.1875970716622823
 40
0.2125525176461585
 40
0.2275571299361641
 40
0.2500957540241402
 40
0.2814367959221575
 40
0.312783106312072
 40
0.3752761108028197
 40
0.5002737950803146
 40
0.6250894296415315
 40
0.750158866538972
 40
0.8750010883072417
 40
1.0
 40
1.0
 40
1.0
 40
1.0
 10
255.2078259119337
 20
47.12658173093303
 30
0.0
 10
255.2078216941212
 20
47.12761614699463
 30
0.0
 10
255.207813253981
 20
47.12968608646619
 30
0.0
 10
255.2077452896191
 20
47.13279188647626
 30
0.0
 10
255.2076371256672
 20
47.13589939406764
 30
0.0
 10
255.2074849765555
 20
47.13900768307273
 30
0.0
 10
255.2072901279485
 20
47.14211582753378
 30
0.0
 10
255.2070525047143
 20
47.145222901432
 30
0.0
 10
255.2067723967658
 20
47.14832797875988
 30
0.0
 10
255.2064499960466
 20
47.15143013350171
 30
0.0
 10
255.2060855207343
 20
47.1545284396387
 30
0.0
 10
255.2056791819297
 20
47.15762197114759
 30
0.0
 10
255.20523119259
 20
47.16070980200118
 30
0.0
 10
255.2047417651353
 20
47.16379100616818
 30
0.0
 10
255.2042111120905
 20
47.16686465761362
 30
0.0
 10
255.2036394459141
 20
47.16992983029854
 30
0.0
 10
255.2030269790449
 20
47.17298559818136
 30
0.0
 10
255.2023739238883
 20
47.17603103521365
 30
0.0
 10
255.2016804928275
 20
47.17906521535715
 30
0.0
 10
255.2009468981919
 20
47.18208721252017
 30
0.0
 10
255.2001733523753
 20
47.1850961007961
 30
0.0
 10
255.1993600673929
 20
47.1880909535742
 30
0.0
 10
255.1985072565352
 20
47.19107084685494
 30
0.0
 10
255.1976151282004
 20
47.19403484689283
 30
0.0
 10
255.1966839088793
 20
47.1969820562479
 30
0.0
 10
255.194999864353
 20
47.20206705279073
 30
0.0
 10
255.1928450393991
 20
47.20799337961829
 30
0.0
 10
255.1897645308333
 20
47.21563734611462
 30
0.0
 10
255.186106240275
 20
47.2239403856349
 30
0.0
 10
255.1811297898956
 20
47.23398150708265
 30
0.0
 10
255.1730877648444
 20
47.24829689541365
 30
0.0
 10
255.1571779420723
 20
47.27210281606166
 30
0.0
 10
255.1295758450218
 20
47.30207829015731
 30
0.0
 10
255.0906046822436
 20
47.33070797231158
 30
0.0
 10
255.0473973199571
 20
47.35124159706224
 30
0.0
 10
255.0014502835792
 20
47.36415952843417
 30
0.0
 10
254.9699493879226
 20
47.3657739925919
 30
0.0
 10
254.9541890620712
 20
47.36658173093301
 30
0.0
  0
LINE
  5
2A4
330
1F
100
AcDbEntity
  8
0
  6
Continuous
 62
     7
370
    15
100
AcDbLine
 10
255.2078267389
 20
45.7485610493
 30
0.0
 11
255.2078267389
 21
47.126581321
 31
0.0
  0
SPLINE
  5
2A5
330
1F
100
AcDbEntity
  8
0
  6
Continuous
 62
     7
370
    15
100
AcDbSpline
210
0.0
220
0.0
230
1.0
 70
     8
 71
     3
 72
    21
 73
    17
 74
     0
 42
0.00000001
 43
0.00000001
 12
1.0
 22
0.0
 32
0.0
 13
1.0
 23
0.0
 33
0.0
 40
0.0
 40
0.0
 40
0.0
 40
0.0
 40
0.1249026585144896
 40
0.2500665950989908
 40
0.3124691989294616
 40
0.3747052203251786
 40
0.4246797054901776
 40
0.4997808242615662
 40
0.5814295229370656
 40
0.642431776926212
 40
0.6851022416735388
 40
0.7493854819219635
 40
0.8209807788363475
 40
0.8746399203831031
 40
0.9245788544324511
 40
1.0
 40
1.0
 40
1.0
 40
1.0
 10
255.3428866137103
 20
45.53631737003815
 30
0.0
 10
255.3334319608508
 20
45.54148898075143
 30
0.0
 10
255.3145028773827
 20
45.55184302043023
 30
0.0
 10
255.2929872243336
 20
45.56858150128298
 30
0.0
 10
255.2770388323677
 20
45.58345717304016
 30
0.0
 10
255.2665932332504
 20
45.59465522195693
 30
0.0
 10
255.2561128944273
 20
45.60736414500689
 30
0.0
 10
255.2454736992082
 20
45.62220497927829
 30
0.0
 10
255.2355984208674
 20
45.63881565776426
 30
0.0
 10
255.2283360010049
 20
45.65363058123313
 30
0.0
 10
255.2225767404399
 20
45.66746463753324
 30
0.0
 10
255.21737524903
 20
45.68257156662012
 30
0.0
 10
255.2131012457436
 20
45.69903445518931
 30
0.0
 10
255.2102785394914
 20
45.71451421749249
 30
0.0
 10
255.2082776148921
 20
45.73049436794935
 30
0.0
 10
255.2079955889269
 20
45.74177432936563
 30
0.0
 10
255.2078259119338
 20
45.74856076101576
 30
0.0
  0
SPLINE
  5
2A6
330
1F
100
AcDbEntity
  8
0
  6
Continuous
 62
     7
370
    15
100
AcDbSpline
210
0.0
220
0.0
230
1.0
 70
     8
 71
     3
 72
    20
 73
    16
 74
     0
 42
0.00000001
 43
0.00000001
 12
1.0
 22
0.0
 32
0.0
 13
1.0
 23
0.0
 33
0.0
 40
0.0
 40
0.0
 40
0.0
 40
0.0
 40
0.0418230271812587
 40
0.0836944813399427
 40
0.1256576932623172
 40
0.1879665730977811
 40
0.250539316954995
 40
0.3750234232863379
 40
0.4994487497565437
 40
0.6240329444729991
 40
0.7489224782139741
 40
0.8114748365610832
 40
0.8742361658002592
 40
0.9370390719544786
 40
1.0
 40
1.0
 40
1.0
 40
1.0
 10
259.9192894896964
 20
40.6826002026019
 30
0.0
 10
259.8811075761548
 20
40.77147448131002
 30
0.0
 10
259.8046995381475
 20
40.94932594645387
 30
0.0
 10
259.6798030019324
 20
41.2111580521511
 30
0.0
 10
259.5260837799893
 20
41.51086095499925
 30
0.0
 10
259.3376902208776
 20
41.84528682369913
 30
0.0
 10
259.0343661892111
 20
42.33041162687363
 30
0.0
 10
258.6160115975354
 20
42.90749232591995
 30
0.0
 10
258.0573038516205
 20
43.54832868449255
 30
0.0
 10
257.4464553049521
 20
44.13525431292457
 30
0.0
 10
256.8981825027514
 20
44.57695564881986
 30
0.0
 10
256.4383784974989
 20
44.90097644171844
 30
0.0
 10
256.0829137425168
 20
45.12886434459161
 30
0.0
 10
255.7182882540559
 20
45.34268195271593
 30
0.0
 10
255.468125270179
 20
45.47171818638017
 30
0.0
 10
255.3428866137103
 20
45.53631737003815
 30
0.0
  0
SPLINE
  5
2A7
330
1F
100
AcDbEntity
  8
0
  6
Continuous
 62
     7
370
    15
100
AcDbSpline
210
0.0
220
0.0
230
1.0
 70
     8
 71
     3
 72
    20
 73
    16
 74
     0
 42
0.00000001
 43
0.00000001
 12
1.0
 22
0.0
 32
0.0
 13
1.0
 23
0.0
 33
0.0
 40
0.0
 40
0.0
 40
0.0
 40
0.0
 40
0.0621941540539483
 40
0.1251054103193371
 40
0.2499118881448087
 40
0.3750659069974911
 40
0.4998221306218494
 40
0.6247710140696356
 40
0.7495662720988315
 40
0.87436197966686
 40
0.9372242201146989
 40
0.9686508629607681
 40
0.9843382615169483
 40
0.9921727243702267
 40
0.9999999999999999
 40
0.9999999999999999
 40
0.9999999999999999
 40
0.9999999999999999
 10
260.2783291869424
 20
40.57108671739855
 30
0.0
 10
260.2706881807368
 20
40.56665529688728
 30
0.0
 10
260.25531806708
 20
40.55774136132869
 30
0.0
 10
260.2226804127134
 20
40.54430750994287
 30
0.0
 10
260.1798196951919
 20
40.53384293899111
 30
0.0
 10
260.1271736068522
 20
40.53242420272898
 30
0.0
 10
260.0752567803494
 20
40.54195548467571
 30
0.0
 10
260.0260909375732
 20
40.56218246931206
 30
0.0
 10
259.9818947114683
 20
40.59290745381384
 30
0.0
 10
259.9509352058052
 20
40.6264539859061
 30
0.0
 10
259.93355679916
 20
40.65350922579555
 30
0.0
 10
259.9259973309085
 20
40.66783746369219
 30
0.0
 10
259.9225346659875
 20
40.67517208858964
 30
0.0
 10
259.9206460255551
 20
40.67940187388079
 30
0.0
 10
259.9197415299573
 20
40.68153441923891
 30
0.0
 10
259.9192894896964
 20
40.68260020260193
 30
0.0
  0
SPLINE
  5
2A8
330
1F
100
AcDbEntity
  8
0
  6
Continuous
 62
     7
370
    15
100
AcDbSpline
210
0.0
220
0.0
230
1.0
 70
     8
 71
     3
 72
    13
 73
     9
 74
     0
 42
0.00000001
 43
0.00000001
 12
1.0
 22
0.0
 32
0.0
 13
1.0
 23
0.0
 33
0.0
 40
0.0
 40
0.0
 40
0.0
 40
0.0
 40
0.1699239723714217
 40
0.338544496571567
 40
0.5058619600857295
 40
0.6718767595264108
 40
0.836589300919236
 40
1.0
 40
1.0
 40
1.0
 40
1.0
 10
266.6955345635425
 20
44.65953344395006
 30
0.0
 10
266.336483463938
 20
44.42633702961675
 30
0.0
 10
265.6211354641079
 20
43.96173299764297
 30
0.0
 10
264.545870995889
 20
43.26973301581552
 30
0.0
 10
263.4744196989163
 20
42.58472254493267
 30
0.0
 10
262.4063706150883
 20
41.90690384906097
 30
0.0
 10
261.342412708294
 20
41.23606372769763
 30
0.0
 10
260.6320842750693
 20
40.79215865034404
 30
0.0
 10
260.2783291869424
 20
40.57108671739849
 30
0.0
  0
SPLINE
  5
2A9
330
1F
100
AcDbEntity
  8
0
  6
Continuous
 62
     7
370
    15
100
AcDbSpline
210
0.0
220
0.0
230
1.0
 70
     8
 71
     3
 72
    42
 73
    38
 74
     0
 42
0.00000001
 43
0.00000001
 12
1.0
 22
0.0
 32
0.0
 13
1.0
 23
0.0
 33
0.0
 40
0.0
 40
0.0
 40
0.0
 40
0.0
 40
0.0077877556965065
 40
0.0155860641961979
 40
0.0233937922752797
 40
0.0312097574019283
 40
0.0351204894782355
 40
0.0390328177653364
 40
0.0468615410543548
 40
0.053127819488992
 40
0.0578290101556079
 40
0.0625311345769291
 40
0.0703692219603345
 40
0.0782077343112461
 40
0.0821267628902028
 40
0.0860453834701339
 40
0.0938806310417107
 40
0.1064085003446629
 40
0.1139185266553034
 40
0.1195468045435918
 40
0.1251708661543722
 40
0.1290737391266039
 40
0.1329741796101493
 40
0.1407670388082005
 40
0.1563535855773591
 40
0.187622182715843
 40
0.2502675319406586
 40
0.3750128074592087
 40
0.4997468885368812
 40
0.5712681530949455
 40
0.6247132093588561
 40
0.6872804929788583
 40
0.7497629437162388
 40
0.8120968487435657
 40
0.8746538315659409
 40
0.9374099099172009
 40
1.0
 40
1.0
 40
1.0
 40
1.0
 10
267.0562448559549
 20
44.45711949695501
 30
0.0
 10
267.056237849759
 20
44.45850739914038
 30
0.0
 10
267.0562238278735
 20
44.46128508418887
 30
0.0
 10
267.0561110146879
 20
44.46545271713738
 30
0.0
 10
267.0559315808706
 20
44.46962237714444
 30
0.0
 10
267.0557213517154
 20
44.47309627909705
 30
0.0
 10
267.0555179104592
 20
44.475874461505
 30
0.0
 10
267.0552907217668
 20
44.4786527185161
 30
0.0
 10
267.0549888583363
 20
44.48184497392779
 30
0.0
 10
267.0546233784613
 20
44.48517079093156
 30
0.0
 10
267.0542861708456
 20
44.48793881914927
 30
0.0
 10
267.0538845621576
 20
44.49097983928192
 30
0.0
 10
267.0533618287104
 20
44.49456635067456
 30
0.0
 10
267.0528017141172
 20
44.49800439611028
 30
0.0
 10
267.0523193031093
 20
44.50074765441749
 30
0.0
 10
267.0518141484574
 20
44.50348540321436
 30
0.0
 10
267.0509785309663
 20
44.50771495866015
 30
0.0
 10
267.0499141976551
 20
44.51254427906977
 30
0.0
 10
267.0488392647003
 20
44.51696426402274
 30
0.0
 10
267.0480080202341
 20
44.52018159579405
 30
0.0
 10
267.0473051525731
 20
44.52277038602409
 30
0.0
 10
267.0466588456864
 20
44.52505614203829
 30
0.0
 10
267.0458857095356
 20
44.52770334997138
 30
0.0
 10
267.0444745857582
 20
44.53231278328775
 30
0.0
 10
267.0414114719321
 20
44.5414573857792
 30
0.0
 10
267.03435265222
 20
44.55939157931231
 30
0.0
 10
267.0168343956115
 20
44.59344249545984
 30
0.0
 10
266.9827019862725
 20
44.63563581527971
 30
0.0
 10
266.9384766565163
 20
44.66728520781314
 30
0.0
 10
266.9006398885559
 20
44.68386674455825
 30
0.0
 10
266.8710653204742
 20
44.69234766799157
 30
0.0
 10
266.8422357825578
 20
44.69685019844874
 30
0.0
 10
266.8116728984591
 20
44.69758550213582
 30
0.0
 10
266.7812459411723
 20
44.69420619073031
 30
0.0
 10
266.7514097517853
 20
44.68675218049466
 30
0.0
 10
266.7224322417239
 20
44.67560170230937
 30
0.0
 10
266.7044925374518
 20
44.6648847994901
 30
0.0
 10
266.6955345635425
 20
44.65953344395012
 30
0.0
  0
LINE
  5
2AA
330
1F
100
AcDbEntity
  8
0
  6
Continuous
 62
     7
370
    15
100
AcDbLine
 10
267.0562466436
 20
39.7811842956
 30
0.0
 11
267.0562466436
 21
44.4571202495
 31
0.0
  0
SPLINE
  5
2AB
330
1F
100
AcDbEntity
  8
0
  6
Continuous
 62
     7
370
    15
100
AcDbSpline
210
0.0
220
0.0
230
1.0
 70
     8
 71
     3
 72
    18
 73
    14
 74
     0
 42
0.00000001
 43
0.00000001
 12
1.0
 22
0.0
 32
0.0
 13
1.0
 23
0.0
 33
0.0
 40
0.0
 40
0.0
 40
0.0
 40
0.0
 40
0.1249297736136334
 40
0.1876007500118443
 40
0.2502287141926642
 40
0.3073584977137659
 40
0.3927961858884279
 40
0.5000264117603412
 40
0.5818045280686203
 40
0.642985261498135
 40
0.7498316633251557
 40
0.8750825490868558
 40
1.0
 40
1.0
 40
1.0
 40
1.0
 10
266.9477693885675
 20
39.57877124469676
 30
0.0
 10
266.9556344597137
 20
39.5842952688397
 30
0.0
 10
266.9674450409967
 20
39.59259041772476
 30
0.0
 10
266.9818609584801
 20
39.60565560292544
 30
0.0
 10
266.9918697418051
 20
39.61579091329056
 30
0.0
 10
267.0024807631443
 20
39.62791631747126
 30
0.0
 10
267.0143950989872
 20
39.64367539915504
 30
0.0
 10
267.0258630478208
 20
39.66234349707038
 30
0.0
 10
267.0347622424281
 20
39.68036739352905
 30
0.0
 10
267.0424044711533
 20
39.69902879053296
 30
0.0
 10
267.0494655384121
 20
39.72178571760545
 30
0.0
 10
267.0551043037872
 20
39.7504751585789
 30
0.0
 10
267.055865009866
 20
39.770957613946
 30
0.0
 10
267.0562448559549
 20
39.78118519169187
 30
0.0
  0
LINE
  5
2AC
330
1F
100
AcDbEntity
  8
0
  6
Continuous
 62
     7
370
    15
100
AcDbLine
 10
249.2648599499
 20
42.3228902616
 30
0.0
 11
250.3255171531
 21
42.3228902616
 31
0.0
  0
SPLINE
  5
2AD
330
1F
100
AcDbEntity
  8
0
  6
Continuous
 62
     7
370
    15
100
AcDbSpline
210
0.0
220
0.0
230
1.0
 70
     8
 71
     3
 72
    10
 73
     6
 74
     0
 42
0.00000001
 43
0.00000001
 12
1.0
 22
0.0
 32
0.0
 13
1.0
 23
0.0
 33
0.0
 40
0.0
 40
0.0
 40
0.0
 40
0.0
 40
0.3309139083765061
 40
0.6642471118591674
 40
0.9999999999999999
 40
0.9999999999999999
 40
0.9999999999999999
 40
0.9999999999999999
 10
263.886517357856
 20
12.07155549365025
 30
0.0
 10
264.2217591261369
 20
12.21105901457473
 30
0.0
 10
264.894693598573
 20
12.49108595971854
 30
0.0
 10
265.9030892823666
 20
12.91410138397676
 30
0.0
 10
266.5745560088916
 20
13.19807589515515
 30
0.0
 10
266.9115035191503
 20
13.34057663381969
 30
0.0
  0
SPLINE
  5
2AE
330
1F
100
AcDbEntity
  8
0
  6
Continuous
 62
     7
370
    15
100
AcDbSpline
210
0.0
220
0.0
230
1.0
 70
     8
 71
     3
 72
    23
 73
    19
 74
     0
 42
0.00000001
 43
0.00000001
 12
1.0
 22
0.0
 32
0.0
 13
1.0
 23
0.0
 33
0.0
 40
0.0
 40
0.0
 40
0.0
 40
0.0
 40
0.0155507801287474
 40
0.0311244130365156
 40
0.062327632570779
 40
0.1248686483235997
 40
0.1963590855490047
 40
0.2498196071384952
 40
0.3210275968630985
 40
0.3746393994959669
 40
0.4461716567743984
 40
0.499714382794371
 40
0.562009383658838
 40
0.5977029232752294
 40
0.6245120938233639
 40
0.7495697060453765
 40
0.8746179568358411
 40
1.0
 40
1.0
 40
1.0
 40
1.0
 10
263.738673425403
 20
11.8498244058476
 30
0.0
 10
263.7386819103098
 20
11.85133168276522
 30
0.0
 10
263.7386988925921
 20
11.85434845163187
 30
0.0
 10
263.7388797613827
 20
11.86038694616658
 30
0.0
 10
263.7394857235797
 20
11.87096467275188
 30
0.0
 10
263.7413103773189
 20
11.88687593541668
 30
0.0
 10
263.7447992738634
 20
11.90467835742832
 30
0.0
 10
263.7498108889837
 20
11.92291333654186
 30
0.0
 10
263.7556103015014
 20
11.93903982356357
 30
0.0
 10
263.7632618563197
 20
11.95618403596234
 30
0.0
 10
263.771318904322
 20
11.97117114352835
 30
0.0
 10
263.7808364021288
 20
11.98613431719726
 30
0.0
 10
263.7893144488981
 20
11.99761496593305
 30
0.0
 10
263.7967932240848
 20
12.0065998968348
 30
0.0
 10
263.8084781736518
 20
12.01964918542418
 30
0.0
 10
263.8273101224902
 20
12.03721411262734
 30
0.0
 10
263.8555766562706
 20
12.05718573777417
 30
0.0
 10
263.8761946302641
 20
12.06676132067217
 30
0.0
 10
263.886517357856
 20
12.07155549365053
 30
0.0
  0
LINE
  5
2AF
330
1F
100
AcDbEntity
  8
0
  6
Continuous
 62
     7
370
    15
100
AcDbLine
 10
263.7386744672
 20
4.6981846788
 30
0.0
 11
263.7386744672
 21
11.8498246991
 31
0.0
  0
SPLINE
  5
2B0
330
1F
100
AcDbEntity
  8
0
  6
Continuous
 62
     7
370
    15
100
AcDbSpline
210
0.0
220
0.0
230
1.0
 70
     8
 71
     3
 72
    21
 73
    17
 74
     0
 42
0.00000001
 43
0.00000001
 12
1.0
 22
0.0
 32
0.0
 13
1.0
 23
0.0
 33
0.0
 40
0.0
 40
0.0
 40
0.0
 40
0.0
 40
0.1248366613723658
 40
0.2498816534839842
 40
0.3744049742475888
 40
0.3994124672795334
 40
0.4369583638627388
 40
0.4995250587609767
 40
0.5809843778433507
 40
0.6419286699418429
 40
0.6847676773099404
 40
0.7491553012926063
 40
0.8308287070119521
 40
0.8919168497719697
 40
0.9536834191240056
 40
1.0
 40
1.0
 40
1.0
 40
1.0
 10
263.8865173578561
 20
4.476453647207983
 30
0.0
 10
263.8762427311468
 20
4.48123260164136
 30
0.0
 10
263.855676331158
 20
4.490798485754316
 30
0.0
 10
263.8274709618165
 20
4.510670198351316
 30
0.0
 10
263.8087719398012
 20
4.528056240487917
 30
0.0
 10
263.7971108961963
 20
4.54106372880608
 30
0.0
 10
263.7896049388485
 20
4.550064378680701
 30
0.0
 10
263.7794326871892
 20
4.563803799027919
 30
0.0
 10
263.7692099267776
 20
4.580338715329361
 30
0.0
 10
263.7612564229775
 20
4.596110245817672
 30
0.0
 10
263.7549272203752
 20
4.610905063577031
 30
0.0
 10
263.7488600719922
 20
4.628013068811994
 30
0.0
 10
263.743806335488
 20
4.647371971384272
 30
0.0
 10
263.7405073704093
 20
4.666886674715689
 30
0.0
 10
263.7389224761305
 20
4.683218562149459
 30
0.0
 10
263.7387481352363
 20
4.693695206753265
 30
0.0
 10
263.738673425403
 20
4.698184735010695
 30
0.0
  0
SPLINE
  5
2B1
330
1F
100
AcDbEntity
  8
0
  6
Continuous
 62
     7
370
    15
100
AcDbSpline
210
0.0
220
0.0
230
1.0
 70
     8
 71
     3
 72
    10
 73
     6
 74
     0
 42
0.00000001
 43
0.00000001
 12
1.0
 22
0.0
 32
0.0
 13
1.0
 23
0.0
 33
0.0
 40
0.0
 40
0.0
 40
0.0
 40
0.0
 40
0.3357528881412517
 40
0.6690860916239147
 40
1.0
 40
1.0
 40
1.0
 40
1.0
 10
266.9115035191504
 20
3.207432507038571
 30
0.0
 10
266.5745560088914
 20
3.349933245703315
 30
0.0
 10
265.9030892823659
 20
3.633907756881913
 30
0.0
 10
264.8946935985723
 20
4.056923181140017
 30
0.0
 10
264.2217591261365
 20
4.336950126283691
 30
0.0
 10
263.8865173578562
 20
4.476453647208011
 30
0.0
  0
SPLINE
  5
2B2
330
1F
100
AcDbEntity
  8
0
  6
Continuous
 62
     7
370
    15
100
AcDbSpline
210
0.0
220
0.0
230
1.0
 70
     8
 71
     3
 72
    23
 73
    19
 74
     0
 42
0.00000001
 43
0.00000001
 12
1.0
 22
0.0
 32
0.0
 13
1.0
 23
0.0
 33
0.0
 40
0.0
 40
0.0
 40
0.0
 40
0.0
 40
0.0155509323309257
 40
0.0311244629957161
 40
0.0623269501136547
 40
0.1248663104909659
 40
0.1963596441297356
 40
0.2498304173058535
 40
0.3210229259297324
 40
0.3746245195801413
 40
0.446156161748903
 40
0.499711394209196
 40
0.5619975034458929
 40
0.5976758071357965
 40
0.6244771133854601
 40
0.7495396119342759
 40
0.8745721133914947
 40
1.0
 40
1.0
 40
1.0
 40
1.0
 10
267.0562448559549
 20
2.985701419235858
 30
0.0
 10
267.0562366249655
 20
2.987202980797996
 30
0.0
 10
267.0562201510253
 20
2.990208285964392
 30
0.0
 10
267.0560446626457
 20
2.996223836902359
 30
0.0
 10
267.0554566046428
 20
3.006761628937767
 30
0.0
 10
267.0536851377702
 20
3.022615398254488
 30
0.0
 10
267.0502955157668
 20
3.040361252174089
 30
0.0
 10
267.0454248214612
 20
3.058547265178152
 30
0.0
 10
267.0397856041182
 20
3.074640904983793
 30
0.0
 10
267.0323352946992
 20
3.091761968406812
 30
0.0
 10
267.0244808968089
 20
3.106743408807889
 30
0.0
 10
267.015192980692
 20
3.121714897119692
 30
0.0
 10
267.006913123788
 20
3.133212625026603
 30
0.0
 10
266.9996012140851
 20
3.142213791587086
 30
0.0
 10
266.9881680424584
 20
3.155293699498789
 30
0.0
 10
266.9697149773268
 20
3.172917119725543
 30
0.0
 10
266.9419599914616
 20
3.192990576227229
 30
0.0
 10
266.9216663553252
 20
3.20261346642936
 30
0.0
 10
266.9115035191504
 20
3.207432507038709
 30
0.0
  0
LINE
  5
2B3
330
1F
100
AcDbEntity
  8
0
  6
Continuous
 62
     7
370
    15
100
AcDbLine
 10
267.0562466436
 20
-1.6902336977
 30
0.0
 11
267.0562466436
 21
2.9857022562
 31
0.0
  0
SPLINE
  5
2B4
330
1F
100
AcDbEntity
  8
0
  6
Continuous
 62
     7
370
    15
100
AcDbSpline
210
0.0
220
0.0
230
1.0
 70
     8
 71
     3
 72
    33
 73
    29
 74
     0
 42
0.00000001
 43
0.00000001
 12
1.0
 22
0.0
 32
0.0
 13
1.0
 23
0.0
 33
0.0
 40
0.0
 40
0.0
 40
0.0
 40
0.0
 40
0.0622574168111691
 40
0.125024808976777
 40
0.2496656553421889
 40
0.3122817670859078
 40
0.3746993479122296
 40
0.4370828776226747
 40
0.4996779141226378
 40
0.6242046262140729
 40
0.6868064309822333
 40
0.7491452354170267
 40
0.8116323576377937
 40
0.8273086095533312
 40
0.842984399965873
 40
0.85551900728113
 40
0.8742996874568677
 40
0.888585098090349
 40
0.8971438757925957
 40
0.9099609489585532
 40
0.9243247131109147
 40
0.9329707958067562
 40
0.9459470132921448
 40
0.9583092903867169
 40
0.9768491811774739
 40
0.9861142333841648
 40
0.9930592026229765
 40
1.0
 40
1.0
 40
1.0
 40
1.0
 10
266.7318531356419
 20
-1.911963973829995
 30
0.0
 10
266.7406454613805
 20
-1.915317734386888
 30
0.0
 10
266.7583021343078
 20
-1.922052727492227
 30
0.0
 10
266.7949954032223
 20
-1.92990945358399
 30
0.0
 10
266.8326531598496
 20
-1.931304221203821
 30
0.0
 10
266.8696503201545
 20
-1.925725705533343
 30
0.0
 10
266.8968438268392
 20
-1.918222850665376
 30
0.0
 10
266.9230539416726
 20
-1.907302608414419
 30
0.0
 10
266.9561959060086
 20
-1.888545966475079
 30
0.0
 10
266.9861156883387
 20
-1.863401289720273
 30
0.0
 10
267.0110079055448
 20
-1.832956566744468
 30
0.0
 10
267.0269836439119
 20
-1.80769441979755
 30
0.0
 10
267.0365494193268
 20
-1.787164866819721
 30
0.0
 10
267.0418848560421
 20
-1.772977068373826
 30
0.0
 10
267.0441801399252
 20
-1.766254426819304
 30
0.0
 10
267.0464412400491
 20
-1.758980341955908
 30
0.0
 10
267.0484206501603
 20
-1.751844048630942
 30
0.0
 10
267.0500145999471
 20
-1.745264544278747
 30
0.0
 10
267.0512514181368
 20
-1.739592750781997
 30
0.0
 10
267.0523684337668
 20
-1.733877554244159
 30
0.0
 10
267.0533291498321
 20
-1.728113563942268
 30
0.0
 10
267.0541616273657
 20
-1.722300140460247
 30
0.0
 10
267.0548296981479
 20
-1.716790706044313
 30
0.0
 10
267.0555131797561
 20
-1.709654376686482
 30
0.0
 10
267.055939263453
 20
-1.703100872850055
 30
0.0
 10
267.0561489736506
 20
-1.69742309036509
 30
0.0
 10
267.0562310753691
 20
-1.693638399723529
 30
0.0
 10
267.0562402633466
 20
-1.691367829868177
 30
0.0
 10
267.0562448559551
 20
-1.69023288602731
 30
0.0
  0
SPLINE
  5
2B5
330
1F
100
AcDbEntity
  8
0
  6
Continuous
 62
     7
370
    15
100
AcDbSpline
210
0.0
220
0.0
230
1.0
 70
     8
 71
     3
 72
    15
 73
    11
 74
     0
 42
0.00000001
 43
0.00000001
 12
1.0
 22
0.0
 32
0.0
 13
1.0
 23
0.0
 33
0.0
 40
0.0
 40
0.0
 40
0.0
 40
0.0
 40
0.0984976403870796
 40
0.1976853601863806
 40
0.297563346604281
 40
0.3981317829906006
 40
0.4993908489427664
 40
0.6641128952805881
 40
0.830982383594027
 40
1.0
 40
1.0
 40
1.0
 40
1.0
 10
255.5578366066215
 20
2.646495315691145
 30
0.0
 10
255.9314324308992
 20
2.499300666495123
 30
0.0
 10
256.6812415105505
 20
2.203880115002995
 30
0.0
 10
257.8047376632966
 20
1.7571000777304
 30
0.0
 10
258.9321388582334
 20
1.305694471558368
 30
0.0
 10
260.0629094824653
 20
0.8495058414261445
 30
0.0
 10
261.4313740903572
 20
0.2933449191492958
 30
0.0
 10
263.0386034697646
 20
-0.3664563699199881
 30
0.0
 10
264.8857655732473
 20
-1.133373705611826
 30
0.0
 10
266.1138725416455
 20
-1.651329708026717
 30
0.0
 10
266.7318531356419
 20
-1.911963973829995
 30
0.0
  0
SPLINE
  5
2B6
330
1F
100
AcDbEntity
  8
0
  6
Continuous
 62
     7
370
    15
100
AcDbSpline
210
0.0
220
0.0
230
1.0
 70
     8
 71
     3
 72
    36
 73
    32
 74
     0
 42
0.00000001
 43
0.00000001
 12
1.0
 22
0.0
 32
0.0
 13
1.0
 23
0.0
 33
0.0
 40
0.0
 40
0.0
 40
0.0
 40
0.0
 40
0.007790535169293
 40
0.0155913820492948
 40
0.0234015057014632
 40
0.0312198194210767
 40
0.0390451900806484
 40
0.0468764433803972
 40
0.050793938859152
 40
0.0547124484414524
 40
0.0625518051891394
 40
0.0768908588018543
 40
0.0854947186017532
 40
0.0983959935886534
 40
0.109139520377823
 40
0.1252333944128521
 40
0.1377273915649984
 40
0.1452115711484754
 40
0.1564368304853185
 40
0.1720597818638804
 40
0.1877113533862107
 40
0.2503997844018603
 40
0.375260764396635
 40
0.5001427703413629
 40
0.5628029697146157
 40
0.625303739137453
 40
0.687756888143933
 40
0.7503687791430393
 40
0.8750283306023725
 40
0.9377408027226868
 40
1.0
 40
1.0
 40
1.0
 40
1.0
 10
255.2078259119337
 20
2.424764227888437
 30
0.0
 10
255.2078326308169
 20
2.426069771458181
 30
0.0
 10
255.2078460774766
 20
2.428682586641664
 30
0.0
 10
255.2079542302303
 20
2.432602853122259
 30
0.0
 10
255.2081262151275
 20
2.436525060500905
 30
0.0
 10
255.2083679760143
 20
2.440447350804915
 30
0.0
 10
255.2086773721992
 20
2.444367856141136
 30
0.0
 10
255.2089915471436
 20
2.447631431221346
 30
0.0
 10
255.2092764386414
 20
2.450239660052357
 30
0.0
 10
255.2095837217028
 20
2.452846428388073
 30
0.0
 10
255.210150666603
 20
2.457178735626269
 30
0.0
 10
255.2109418654896
 20
2.462270157205571
 30
0.0
 10
255.2120091109331
 20
2.468170474488777
 30
0.0
 10
255.2130919035728
 20
2.473453203913949
 30
0.0
 10
255.2145911944569
 20
2.479922163573692
 30
0.0
 10
255.2162600243779
 20
2.486274985491546
 30
0.0
 10
255.2179705291761
 20
2.492044557118739
 30
0.0
 10
255.2195588488392
 20
2.496997515327285
 30
0.0
 10
255.2214188772737
 20
2.502405857545641
 30
0.0
 10
255.223915624658
 20
2.509023681801011
 30
0.0
 10
255.2299195346881
 20
2.523439269772255
 30
0.0
 10
255.2454188764698
 20
2.553417371174663
 30
0.0
 10
255.2777899008092
 20
2.593892391952866
 30
0.0
 10
255.3184641204248
 20
2.624706932623372
 30
0.0
 10
255.3542430334079
 20
2.64295993885293
 30
0.0
 10
255.3823574537649
 20
2.653472679593399
 30
0.0
 10
255.4113843933021
 20
2.660639682559186
 30
0.0
 10
255.4507445078069
 20
2.665863762370088
 30
0.0
 10
255.4906832899941
 20
2.664307840598262
 30
0.0
 10
255.5296655494856
 20
2.65649426651076
 30
0.0
 10
255.54846898773
 20
2.649820230341712
 30
0.0
 10
255.5578366066215
 20
2.646495315691149
 30
0.0
  0
LINE
  5
2B7
330
1F
100
AcDbEntity
  8
0
  6
Continuous
 62
     7
370
    15
100
AcDbLine
 10
255.2078267389
 20
-0.3934191666
 30
0.0
 11
255.2078267389
 21
2.4247648068
 31
0.0
  0
SPLINE
  5
2B8
330
1F
100
AcDbEntity
  8
0
  6
Continuous
 62
     7
370
    15
100
AcDbSpline
210
0.0
220
0.0
230
1.0
 70
     8
 71
     3
 72
    26
 73
    22
 74
     0
 42
0.00000001
 43
0.00000001
 12
1.0
 22
0.0
 32
0.0
 13
1.0
 23
0.0
 33
0.0
 40
0.0
 40
0.0
 40
0.0
 40
0.0
 40
0.12490744231434
 40
0.2497709326311705
 40
0.374590924200462
 40
0.4992868599560717
 40
0.6241203570698439
 40
0.6866415135291689
 40
0.7177855513703131
 40
0.7333307283023414
 40
0.7489193798459043
 40
0.7652431047774629
 40
0.7897790261135997
 40
0.8204996000907525
 40
0.8420153235848392
 40
0.8742617880080968
 40
0.902864464213194
 40
0.9199851184686486
 40
0.9457781263977006
 40
0.9674702751900586
 40
1.0
 40
1.0
 40
1.0
 40
1.0
 10
254.9541890620712
 20
-0.6334182690670049
 30
0.0
 10
254.9699359812678
 20
-0.6326049042543018
 30
0.0
 10
255.0014242786897
 20
-0.6309784608329039
 30
0.0
 10
255.0473469825559
 20
-0.6181203878089445
 30
0.0
 10
255.0904820837674
 20
-0.5975514391619203
 30
0.0
 10
255.1294762795925
 20
-0.5690757258956202
 30
0.0
 10
255.1569868980543
 20
-0.5390576682930658
 30
0.0
 10
255.1729481117352
 20
-0.5153520517018721
 30
0.0
 10
255.1799977486911
 20
-0.5028831209258587
 30
0.0
 10
255.1837346696163
 20
-0.4956062372447195
 30
0.0
 10
255.1864340579814
 20
-0.4899788118085912
 30
0.0
 10
255.1894636319874
 20
-0.4831917988693778
 30
0.0
 10
255.193009145546
 20
-0.4744430318936593
 30
0.0
 10
255.196376717814
 20
-0.46487364271584
 30
0.0
 10
255.1996188516916
 20
-0.4541779581000577
 30
0.0
 10
255.2023069648498
 20
-0.44359903981896
 30
0.0
 10
255.2043257727756
 20
-0.4334533635481225
 30
0.0
 10
255.2058052761439
 20
-0.4240762815613877
 30
0.0
 10
255.2068061853842
 20
-0.4155523361323923
 30
0.0
 10
255.2076404238907
 20
-0.4049499164256384
 30
0.0
 10
255.2077563584603
 20
-0.3977423544100599
 30
0.0
 10
255.2078259119338
 20
-0.393418269066987
 30
0.0
  0
LINE
  5
2B9
330
1F
100
AcDbEntity
  8
0
  6
Continuous
 62
     7
370
    15
100
AcDbLine
 10
250.3157382661
 20
-0.6334191314
 30
0.0
 11
254.954190349
 21
-0.6334191314
 31
0.0
  0
SPLINE
  5
2BA
330
1F
100
AcDbEntity
  8
0
  6
Continuous
 62
     7
370
    15
100
AcDbSpline
210
0.0
220
0.0
230
1.0
 70
     8
 71
     3
 72
    41
 73
    37
 74
     0
 42
0.00000001
 43
0.00000001
 12
1.0
 22
0.0
 32
0.0
 13
1.0
 23
0.0
 33
0.0
 40
0.0
 40
0.0
 40
0.0
 40
0.0
 40
0.0077834651771551
 40
0.0155754836354556
 40
0.0233753911985202
 40
0.0311824929987088
 40
0.0389960658839105
 40
0.0468153607874433
 40
0.0546396050637018
 40
0.0624680047924795
 40
0.0702997470550062
 40
0.0781340021840951
 40
0.0859699259921487
 40
0.0938066619801051
 40
0.1016433435307719
 40
0.1094790960899837
 40
0.1173130393382324
 40
0.1251442893584877
 40
0.1329719608013821
 40
0.1407951690529541
 40
0.1486130324082058
 40
0.1564246742537248
 40
0.1642292252644484
 40
0.1720258256159154
 40
0.1876008062444458
 40
0.2125757551408194
 40
0.2275904253187502
 40
0.2501414591490211
 40
0.281493149816834
 40
0.3128402393756514
 40
0.3753102045459767
 40
0.5003829611210286
 40
0.6252168386642256
 40
0.7502823882758419
 40
0.8750915748194131
 40
1.0
 40
1.0
 40
1.0
 40
1.0
 10
250.0539051584339
 20
-0.3934182690669905
 30
0.0
 10
250.0539096197915
 20
-0.3944638860509282
 30
0.0
 10
250.0539185474094
 20
-0.396556269051513
 30
0.0
 10
250.0539904162638
 20
-0.3996957388120482
 30
0.0
 10
250.0541047674417
 20
-0.4028369224906881
 30
0.0
 10
250.0542655869082
 20
-0.4059788295108294
 30
0.0
 10
250.0544714962216
 20
-0.4091204695360929
 30
0.0
 10
250.0547225564227
 20
-0.4122608521600069
 30
0.0
 10
250.0550184423565
 20
-0.415398986989033
 30
0.0
 10
250.0553589324846
 20
-0.4185338836200439
 30
0.0
 10
250.0557437774905
 20
-0.4216645516461858
 30
0.0
 10
250.056172735521
 20
-0.4247900006553694
 30
0.0
 10
250.0566455627347
 20
-0.4279092402307144
 30
0.0
 10
250.0571620158351
 20
-0.4310212799505837
 30
0.0
 10
250.0577218513927
 20
-0.4341251293887016
 30
0.0
 10
250.0583248260231
 20
-0.4372197981147331
 30
0.0
 10
250.0589706963499
 20
-0.4403042956928928
 30
0.0
 10
250.059659218976
 20
-0.4433776316880196
 30
0.0
 10
250.0603901506354
 20
-0.4464388156439902
 30
0.0
 10
250.061163247618
 20
-0.4494868571650393
 30
0.0
 10
250.0619782679171
 20
-0.4525207656134733
 30
0.0
 10
250.0628349632255
 20
-0.4555395512370677
 30
0.0
 10
250.0637331087739
 20
-0.4585422209672473
 30
0.0
 10
250.0649851195813
 20
-0.4625218185803532
 30
0.0
 10
250.0670576819371
 20
-0.4686474045427283
 30
0.0
 10
250.0696958927221
 20
-0.475589680988743
 30
0.0
 10
250.0729350613745
 20
-0.4832832995886223
 30
0.0
 10
250.0767771679009
 20
-0.4916325526523463
 30
0.0
 10
250.0819956811545
 20
-0.5017162680440237
 30
0.0
 10
250.0904122948705
 20
-0.5160676705480427
 30
0.0
 10
250.1070424459049
 20
-0.5398802763188284
 30
0.0
 10
250.1357298867872
 20
-0.569738342817705
 30
0.0
 10
250.175999810946
 20
-0.598080867407369
 30
0.0
 10
250.2203974928825
 20
-0.6183417973764025
 30
0.0
 10
250.2674464047995
 20
-0.6310338655275589
 30
0.0
 10
250.2996358537202
 20
-0.6326232573439297
 30
0.0
 10
250.3157369742793
 20
-0.6334182690670049
 30
0.0
  0
LINE
  5
2BB
330
1F
100
AcDbEntity
  8
0
  6
Continuous
 62
     7
370
    15
100
AcDbLine
 10
250.0539062375
 20
-0.3934191666
 30
0.0
 11
250.0539062375
 21
11.615471343
 31
0.0
  0
SPLINE
  5
2BC
330
1F
100
AcDbEntity
  8
0
  6
Continuous
 62
     7
370
    15
100
AcDbSpline
210
0.0
220
0.0
230
1.0
 70
     8
 71
     3
 72
    22
 73
    18
 74
     0
 42
0.00000001
 43
0.00000001
 12
1.0
 22
0.0
 32
0.0
 13
1.0
 23
0.0
 33
0.0
 40
0.0
 40
0.0
 40
0.0
 40
0.0
 40
0.1248737286916667
 40
0.2499678488711212
 40
0.3744547361755364
 40
0.4369571102206444
 40
0.4619916288198764
 40
0.4995342058740144
 40
0.5708815889165855
 40
0.624169982221354
 40
0.695400925341561
 40
0.7490630779595308
 40
0.78179942945332
 40
0.8308481793052348
 40
0.8919317904526959
 40
0.9535873559376762
 40
1.0
 40
1.0
 40
1.0
 40
1.0
 10
250.2155907675478
 20
11.83720264524139
 30
0.0
 10
250.2046094280024
 20
11.83254627074049
 30
0.0
 10
250.1826273677831
 20
11.82322530363457
 30
0.0
 10
250.1522086182406
 20
11.80382978065152
 30
0.0
 10
250.1290794520836
 20
11.78443486637071
 30
0.0
 10
250.1149052039904
 20
11.76953821453744
 30
0.0
 10
250.1069869410947
 20
11.76032883835457
 30
0.0
 10
250.0988638558344
 20
11.75014515095623
 30
0.0
 10
250.0898126312226
 20
11.73715163410144
 30
0.0
 10
250.0801096441553
 20
11.720621698818
 30
0.0
 10
250.0725079793628
 20
11.70485451890586
 30
0.0
 10
250.0669114894307
 20
11.69038804122776
 30
0.0
 10
250.0627942046667
 20
11.67769822938262
 30
0.0
 10
250.0591525372419
 20
11.66407947602995
 30
0.0
 10
250.0559919517785
 20
11.64739830017119
 30
0.0
 10
250.0541890201026
 20
11.63074847067425
 30
0.0
 10
250.0539904425988
 20
11.62006139443016
 30
0.0
 10
250.0539051584339
 20
11.61547155743868
 30
0.0
  0
SPLINE
  5
2BD
330
1F
100
AcDbEntity
  8
0
  6
Continuous
 62
     7
370
    15
100
AcDbSpline
210
0.0
220
0.0
230
1.0
 70
     8
 71
     3
 72
    37
 73
    33
 74
     0
 42
0.00000001
 43
0.00000001
 12
1.0
 22
0.0
 32
0.0
 13
1.0
 23
0.0
 33
0.0
 40
0.0
 40
0.0
 40
0.0
 40
0.0
 40
0.0077888504225907
 40
0.0155874691139814
 40
0.0233949073084332
 40
0.0312101774029015
 40
0.0390322570815088
 40
0.046860093375815
 40
0.0546926066663961
 40
0.0625286946337459
 40
0.0703672361658269
 40
0.0782070952301808
 40
0.0860471247181811
 40
0.093886170270464
 40
0.1017230740910363
 40
0.1095566787586436
 40
0.1173858310441051
 40
0.1252093857418013
 40
0.1377123742712939
 40
0.1564239057108956
 40
0.1720190340755936
 40
0.1876469124392677
 40
0.2502936367261636
 40
0.3750783180339827
 40
0.4466701903355724
 40
0.5001652590395997
 40
0.5627627334682088
 40
0.6253555332846567
 40
0.7501239498832762
 40
0.8748589886245434
 40
0.937507971439495
 40
1.0
 40
1.0
 40
1.0
 40
1.0
 10
267.0562448559549
 20
18.23824202688558
 30
0.0
 10
267.0562389584805
 20
18.23951537353528
 30
0.0
 10
267.0562271561355
 20
18.24206366378311
 30
0.0
 10
267.0561321618204
 20
18.24588716830135
 30
0.0
 10
267.0559810163153
 20
18.24971267642716
 30
0.0
 10
267.055768444982
 20
18.25353857759684
 30
0.0
 10
267.0554962664887
 20
18.25736326164362
 30
0.0
 10
267.0551643957095
 20
18.26118511827957
 30
0.0
 10
267.0547732582318
 20
18.26500253723455
 30
0.0
 10
267.0543231425183
 20
18.26881390821829
 30
0.0
 10
267.0538143736981
 20
18.27261762093324
 30
0.0
 10
267.0532472669579
 20
18.27641206506248
 30
0.0
 10
267.0526221400439
 20
18.28019563030759
 30
0.0
 10
267.051939309905
 20
18.28396670625199
 30
0.0
 10
267.0511990936202
 20
18.28772368287243
 30
0.0
 10
267.0504018080532
 20
18.29146494863398
 30
0.0
 10
267.0495477703084
 20
18.29518889759659
 30
0.0
 10
267.0484555017637
 20
18.29963368189036
 30
0.0
 10
267.046817957839
 20
18.30575896136511
 30
0.0
 10
267.0446275183388
 20
18.31302768158812
 30
0.0
 10
267.042025290735
 20
18.32067847929294
 30
0.0
 10
267.0366928502532
 20
18.33487086158068
 30
0.0
 10
267.0228643415903
 20
18.36450326807042
 30
0.0
 10
266.9986258178674
 20
18.39816399824876
 30
0.0
 10
266.9702241208002
 20
18.42479906647074
 30
0.0
 10
266.9468756795467
 20
18.44184249094414
 30
0.0
 10
266.9231260976074
 20
18.45528276180393
 30
0.0
 10
266.888190325104
 20
18.46982674520149
 30
0.0
 10
266.8420227212572
 20
18.47963257212778
 30
0.0
 10
266.7950685319194
 20
18.47794350108742
 30
0.0
 10
266.758346703182
 20
18.47007224476948
 30
0.0
 10
266.740676937569
 20
18.46333667542197
 30
0.0
 10
266.7318531356419
 20
18.45997311468829
 30
0.0
  0
LINE
  5
2BE
330
1F
100
AcDbEntity
  8
0
  6
Continuous
 62
     7
370
    15
100
AcDbLine
 10
267.0562466436
 20
13.562308053
 30
0.0
 11
267.0562466436
 21
18.2382421442
 31
0.0
  0
SPLINE
  5
2BF
330
1F
100
AcDbEntity
  8
0
  6
Continuous
 62
     7
370
    15
100
AcDbSpline
210
0.0
220
0.0
230
1.0
 70
     8
 71
     3
 72
    21
 73
    17
 74
     0
 42
0.00000001
 43
0.00000001
 12
1.0
 22
0.0
 32
0.0
 13
1.0
 23
0.0
 33
0.0
 40
0.0
 40
0.0
 40
0.0
 40
0.0
 40
0.1248289442000938
 40
0.2498636415414567
 40
0.3743947841634211
 40
0.3994057012365946
 40
0.4369542566664377
 40
0.4995198900274249
 40
0.5809684401134755
 40
0.6419309319016318
 40
0.6847798175680198
 40
0.7491680336552968
 40
0.8308260386425298
 40
0.8919522365791102
 40
0.9537008775286511
 40
1.0
 40
1.0
 40
1.0
 40
1.0
 10
266.9115035191504
 20
13.34057663381975
 30
0.0
 10
266.9216143214363
 20
13.34537887208166
 30
0.0
 10
266.9418525914483
 20
13.35499126404219
 30
0.0
 10
266.9695493857159
 20
13.37495451378575
 30
0.0
 10
266.9878720401356
 20
13.39240284318846
 30
0.0
 10
266.9992842253283
 20
13.40544286697589
 30
0.0
 10
267.0066255183376
 20
13.41446205738385
 30
0.0
 10
267.0165641082555
 20
13.42821939635717
 30
0.0
 10
267.0265380236784
 20
13.44476148606361
 30
0.0
 10
267.0342858063597
 20
13.46052562413031
 30
0.0
 10
267.040449335313
 20
13.47530236241023
 30
0.0
 10
267.0463521009051
 20
13.49237472758027
 30
0.0
 10
267.0512644357268
 20
13.51168141787956
 30
0.0
 10
267.0544646653003
 20
13.53113169550492
 30
0.0
 10
267.0560033202647
 20
13.54740353118384
 30
0.0
 10
267.0561724029836
 20
13.55783694183013
 30
0.0
 10
267.0562448559549
 20
13.56230772162243
 30
0.0
  0
SPLINE
  5
2C0
330
1F
100
AcDbEntity
  8
0
  6
Continuous
 62
     7
370
    15
100
AcDbSpline
210
0.0
220
0.0
230
1.0
 70
     8
 71
     3
 72
    14
 73
    10
 74
     0
 42
0.00000001
 43
0.00000001
 12
1.0
 22
0.0
 32
0.0
 13
1.0
 23
0.0
 33
0.0
 40
0.0
 40
0.0
 40
0.0
 40
0.0
 40
0.25
 40
0.25
 40
0.5
 40
0.5
 40
0.75
 40
0.75
 40
1.0
 40
1.0
 40
1.0
 40
1.0
 10
255.0220203730593
 20
8.49573565823186
 30
0.0
 10
254.978094836157
 20
8.478525953613078
 30
0.0
 10
254.9389225907929
 20
8.449284710154963
 30
0.0
 10
254.8823214233541
 20
8.372280212956706
 30
0.0
 10
254.8653954894737
 20
8.323313779372787
 30
0.0
 10
254.8652690307597
 20
8.225546651735966
 30
0.0
 10
254.881916314522
 20
8.176479508636403
 30
0.0
 10
254.9386187006655
 20
8.09889055242527
 30
0.0
 10
254.9780548508539
 20
8.069498853194984
 30
0.0
 10
255.0220203730593
 20
8.052273482626434
 30
0.0
  0
SPLINE
  5
2C1
330
1F
100
AcDbEntity
  8
0
  6
Continuous
 62
     7
370
    15
100
AcDbSpline
210
0.0
220
0.0
230
1.0
 70
     8
 71
     3
 72
    11
 73
     7
 74
     0
 42
0.00000001
 43
0.00000001
 12
1.0
 22
0.0
 32
0.0
 13
1.0
 23
0.0
 33
0.0
 40
0.0
 40
0.0
 40
0.0
 40
0.0
 40
0.2501733451332337
 40
0.5002224205211551
 40
0.7501602812899413
 40
1.0
 40
1.0
 40
1.0
 40
1.0
 10
258.8978586380856
 20
6.514384374083589
 30
0.0
 10
258.5764022645649
 20
6.643324535458278
 30
0.0
 10
257.933649196012
 20
6.901140809173957
 30
0.0
 10
256.9657517862397
 20
7.286234910955362
 30
0.0
 10
255.995672782572
 20
7.670109521547496
 30
0.0
 10
255.346528685103
 20
7.924902173602789
 30
0.0
 10
255.0220203730593
 20
8.052273482626429
 30
0.0
  0
SPLINE
  5
2C2
330
1F
100
AcDbEntity
  8
0
  6
Continuous
 62
     7
370
    15
100
AcDbSpline
210
0.0
220
0.0
230
1.0
 70
     8
 71
     3
 72
    23
 73
    19
 74
     0
 42
0.00000001
 43
0.00000001
 12
1.0
 22
0.0
 32
0.0
 13
1.0
 23
0.0
 33
0.0
 40
0.0
 40
0.0
 40
0.0
 40
0.0
 40
0.0670643369657931
 40
0.0670643369657931
 40
0.0670643369657931
 40
0.2332287401188973
 40
0.2332287401188973
 40
0.2332287401188973
 40
0.4168682323094255
 40
0.4168682323094255
 40
0.4168682323094255
 40
0.6117568502763233
 40
0.6117568502763233
 40
0.6117568502763233
 40
0.8058271777895966
 40
0.8058271777895966
 40
0.8058271777895966
 40
1.0
 40
1.0
 40
1.0
 40
1.0
 10
259.2395384610946
 20
6.736115461886308
 30
0.0
 10
259.2395384610946
 20
6.724858971859375
 30
0.0
 10
259.2387183198381
 20
6.713569359325149
 30
0.0
 10
259.2370974711663
 20
6.702446772736216
 30
0.0
 10
259.2331389031829
 20
6.675282290370528
 30
0.0
 10
259.2241712385751
 20
6.648524688037751
 30
0.0
 10
259.2113259992946
 20
6.624700203552387
 30
0.0
 10
259.1971509146169
 20
6.598409211410864
 30
0.0
 10
259.177798751561
 20
6.574774665073262
 30
0.0
 10
259.1556089415257
 20
6.555827176002911
 30
0.0
 10
259.1320539643247
 20
6.535713994666067
 30
0.0
 10
259.1045392162968
 20
6.520154258312375
 30
0.0
 10
259.0758564108979
 20
6.510174751293524
 30
0.0
 10
259.047255258331
 20
6.500223653455706
 30
0.0
 10
259.0166381042552
 20
6.49548239682407
 30
0.0
 10
258.986555431616
 20
6.496184879586337
 30
0.0
 10
258.9564593333919
 20
6.496887675859375
 30
0.0
 10
258.9260374844329
 20
6.503061010887739
 30
0.0
 10
258.8978586380856
 20
6.514384374083609
 30
0.0
  0
LINE
  5
2C3
330
1F
100
AcDbEntity
  8
0
  6
Continuous
 62
     7
370
    15
100
AcDbLine
 10
259.2395370656
 20
6.7361159124
 30
0.0
 11
259.2395370656
 21
9.8118934654
 31
0.0
  0
SPLINE
  5
2C4
330
1F
100
AcDbEntity
  8
0
  6
Continuous
 62
     7
370
    15
100
AcDbSpline
210
0.0
220
0.0
230
1.0
 70
     8
 71
     3
 72
    23
 73
    19
 74
     0
 42
0.00000001
 43
0.00000001
 12
1.0
 22
0.0
 32
0.0
 13
1.0
 23
0.0
 33
0.0
 40
0.0
 40
0.0
 40
0.0
 40
0.0
 40
0.1855118594234877
 40
0.1855118594234877
 40
0.1855118594234877
 40
0.3704277486843219
 40
0.3704277486843219
 40
0.3704277486843219
 40
0.5405972960229019
 40
0.5405972960229019
 40
0.5405972960229019
 40
0.6972746161726111
 40
0.6972746161726111
 40
0.6972746161726111
 40
0.8484535499060951
 40
0.8484535499060951
 40
0.8484535499060951
 40
1.0
 40
1.0
 40
1.0
 40
1.0
 10
258.8978586380856
 20
10.03362476677468
 30
0.0
 10
258.9247859342568
 20
10.0444452081324
 30
0.0
 10
258.9537442018407
 20
10.05056621998985
 30
0.0
 10
258.9824913076435
 20
10.05169689280515
 30
0.0
 10
259.0111515302951
 20
10.05282414835758
 30
0.0
 10
259.0403450758544
 20
10.04902373716996
 30
0.0
 10
259.0678733015796
 20
10.04046351978116
 30
0.0
 10
259.0932367567123
 20
10.03257646262632
 30
0.0
 10
259.1177876637469
 20
10.02045655494695
 30
0.0
 10
259.1396818707447
 20
10.00468338484055
 30
0.0
 10
259.1598533757149
 20
9.990151295177203
 30
0.0
 10
259.1782195039358
 20
9.972174327212112
 30
0.0
 10
259.1932773073774
 20
9.951766732536234
 30
0.0
 10
259.207799450659
 20
9.932085109312375
 30
0.0
 10
259.2195720639678
 20
9.909652435552415
 30
0.0
 10
259.2274584180611
 20
9.88605330535633
 30
0.0
 10
259.2353555030994
 20
9.86242206387479
 30
0.0
 10
259.2395384610946
 20
9.836984840412189
 30
0.0
 10
259.2395384610946
 20
9.811893678971975
 30
0.0
  0
SPLINE
  5
2C5
330
1F
100
AcDbEntity
  8
0
  6
Continuous
 62
     7
370
    15
100
AcDbSpline
210
0.0
220
0.0
230
1.0
 70
     8
 71
     3
 72
    11
 73
     7
 74
     0
 42
0.00000001
 43
0.00000001
 12
1.0
 22
0.0
 32
0.0
 13
1.0
 23
0.0
 33
0.0
 40
0.0
 40
0.0
 40
0.0
 40
0.0
 40
0.2498397187103147
 40
0.4997775794791863
 40
0.7498266548670233
 40
1.0
 40
1.0
 40
1.0
 40
1.0
 10
255.0220203730593
 20
8.49573565823185
 30
0.0
 10
255.3465286851033
 20
8.623106967255618
 30
0.0
 10
255.9956727825727
 20
8.877899619311087
 30
0.0
 10
256.9657517862408
 20
9.261774229903335
 30
0.0
 10
257.9336491960128
 20
9.646868331684615
 30
0.0
 10
258.5764022645651
 20
9.904684605400108
 30
0.0
 10
258.8978586380856
 20
10.03362476677467
 30
0.0
  0
LINE
  5
2C6
330
1F
100
AcDbEntity
  8
0
  6
Continuous
 62
     7
370
    15
100
AcDbLine
 10
249.2550773376
 20
-0.6334191314
 30
0.0
 11
250.3157382661
 21
-0.6334191314
 31
0.0
  0
LINE
  5
2C7
330
1F
100
AcDbEntity
  8
0
  6
Continuous
 62
     7
370
    15
100
AcDbLine
 10
258.1788798624
 20
6.7996675023
 30
0.0
 11
258.1788798624
 21
9.7483418756
 31
0.0
  0
LINE
  5
2C8
330
1F
100
AcDbEntity
  8
0
  6
Continuous
 62
     7
370
    15
100
AcDbLine
 10
-89.1875686294
 20
-70.7881717137
 30
0.0
 11
-84.1875733978
 21
-73.6749215178
 31
0.0
  0
LINE
  5
2C9
330
1F
100
AcDbEntity
  8
0
  6
Continuous
 62
     7
370
    15
100
AcDbLine
 10
-89.1875686294
 20
-65.0146646551
 30
0.0
 11
-89.1875686294
 21
-70.7881717137
 31
0.0
  0
LINE
  5
2CA
330
1F
100
AcDbEntity
  8
0
  6
Continuous
 62
     7
370
    15
100
AcDbLine
 10
-84.1875733978
 20
-62.1279148511
 30
0.0
 11
-89.1875686294
 21
-65.0146646551
 31
0.0
  0
LINE
  5
2CB
330
1F
100
AcDbEntity
  8
0
  6
Continuous
 62
     7
370
    15
100
AcDbLine
 10
-79.1875781661
 20
-65.0146646551
 30
0.0
 11
-84.1875733978
 21
-62.1279148511
 31
0.0
  0
LINE
  5
2CC
330
1F
100
AcDbEntity
  8
0
  6
Continuous
 62
     7
370
    15
100
AcDbLine
 10
-79.1875781661
 20
-70.7881717137
 30
0.0
 11
-79.1875781661
 21
-65.0146646551
 31
0.0
  0
LINE
  5
2CD
330
1F
100
AcDbEntity
  8
0
  6
Continuous
 62
     7
370
    15
100
AcDbLine
 10
-84.1875733978
 20
-73.6749215178
 30
0.0
 11
-79.1875781661
 21
-70.7881717137
 31
0.0
  0
LINE
  5
2CE
330
1F
100
AcDbEntity
  8
0
  6
Continuous
 62
     7
370
    15
100
AcDbLine
 10
-50.744211877
 20
-65.9863470248
 30
0.0
 11
-49.6794047004
 21
-71.660806065
 31
0.0
  0
LINE
  5
2CF
330
1F
100
AcDbEntity
  8
0
  6
Continuous
 62
     7
370
    15
100
AcDbLine
 10
-46.3624062187
 20
-62.226955419
 30
0.0
 11
-50.744211877
 21
-65.9863470248
 31
0.0
  0
LINE
  5
2D0
330
1F
100
AcDbEntity
  8
0
  6
Continuous
 62
     7
370
    15
100
AcDbLine
 10
-40.9157635814
 20
-64.1420303039
 30
0.0
 11
-46.3624062187
 21
-62.226955419
 31
0.0
  0
LINE
  5
2D1
330
1F
100
AcDbEntity
  8
0
  6
Continuous
 62
     7
370
    15
100
AcDbLine
 10
-39.8509564048
 20
-69.816489344
 30
0.0
 11
-40.9157635814
 21
-64.1420303039
 31
0.0
  0
LINE
  5
2D2
330
1F
100
AcDbEntity
  8
0
  6
Continuous
 62
     7
370
    15
100
AcDbLine
 10
-44.2327620632
 20
-73.5758809499
 30
0.0
 11
-39.8509564048
 21
-69.816489344
 31
0.0
  0
LINE
  5
2D3
330
1F
100
AcDbEntity
  8
0
  6
Continuous
 62
     7
370
    15
100
AcDbLine
 10
-49.6794047004
 20
-71.660806065
 30
0.0
 11
-44.2327620632
 21
-73.5758809499
 31
0.0
  0
LINE
  5
2D4
330
1F
100
AcDbEntity
  8
0
  6
Continuous
 62
     7
370
    15
100
AcDbLine
 10
-50.2975942737
 20
-31.898171281
 30
0.0
 11
-45.2975692398
 21
-34.784921085
 31
0.0
  0
LINE
  5
2D5
330
1F
100
AcDbEntity
  8
0
  6
Continuous
 62
     7
370
    15
100
AcDbLine
 10
-50.2975942737
 20
-26.1246679477
 30
0.0
 11
-50.2975942737
 21
-31.898171281
 31
0.0
  0
LINE
  5
2D6
330
1F
100
AcDbEntity
  8
0
  6
Continuous
 62
     7
370
    15
100
AcDbLine
 10
-45.2975692398
 20
-23.2379144184
 30
0.0
 11
-50.2975942737
 21
-26.1246679477
 31
0.0
  0
LINE
  5
2D7
330
1F
100
AcDbEntity
  8
0
  6
Continuous
 62
     7
370
    15
100
AcDbLine
 10
-40.2975740081
 20
-26.1246679477
 30
0.0
 11
-45.2975692398
 21
-23.2379144184
 31
0.0
  0
LINE
  5
2D8
330
1F
100
AcDbEntity
  8
0
  6
Continuous
 62
     7
370
    15
100
AcDbLine
 10
-40.2975740081
 20
-31.898171281
 30
0.0
 11
-40.2975740081
 21
-26.1246679477
 31
0.0
  0
LINE
  5
2D9
330
1F
100
AcDbEntity
  8
0
  6
Continuous
 62
     7
370
    15
100
AcDbLine
 10
-45.2975692398
 20
-34.784921085
 30
0.0
 11
-40.2975740081
 21
-31.898171281
 31
0.0
  0
LINE
  5
2DA
330
1F
100
AcDbEntity
  8
0
  6
Continuous
 62
     7
370
    15
100
AcDbLine
 10
-89.1875686294
 20
-31.898171281
 30
0.0
 11
-84.1875733978
 21
-34.784921085
 31
0.0
  0
LINE
  5
2DB
330
1F
100
AcDbEntity
  8
0
  6
Continuous
 62
     7
370
    15
100
AcDbLine
 10
-89.1875686294
 20
-26.1246679477
 30
0.0
 11
-89.1875686294
 21
-31.898171281
 31
0.0
  0
LINE
  5
2DC
330
1F
100
AcDbEntity
  8
0
  6
Continuous
 62
     7
370
    15
100
AcDbLine
 10
-84.1875733978
 20
-23.2379144184
 30
0.0
 11
-89.1875686294
 21
-26.1246679477
 31
0.0
  0
LINE
  5
2DD
330
1F
100
AcDbEntity
  8
0
  6
Continuous
 62
     7
370
    15
100
AcDbLine
 10
-79.1875781661
 20
-26.1246679477
 30
0.0
 11
-84.1875733978
 21
-23.2379144184
 31
0.0
  0
LINE
  5
2DE
330
1F
100
AcDbEntity
  8
0
  6
Continuous
 62
     7
370
    15
100
AcDbLine
 10
-79.1875781661
 20
-31.898171281
 30
0.0
 11
-79.1875781661
 21
-26.1246679477
 31
0.0
  0
LINE
  5
2DF
330
1F
100
AcDbEntity
  8
0
  6
Continuous
 62
     7
370
    15
100
AcDbLine
 10
-84.1875733978
 20
-34.784921085
 30
0.0
 11
-79.1875781661
 21
-31.898171281
 31
0.0
  0
LINE
  5
2E0
330
1F
100
AcDbEntity
  8
0
  6
Continuous
 62
     7
370
    15
100
AcDbLine
 10
-29.5475782997
 20
-45.2814219646
 30
0.0
 11
-29.5475782997
 21
-22.7814173452
 31
0.0
  0
ARC
  5
2E1
330
1F
100
AcDbEntity
  8
0
  6
Continuous
 62
     7
370
    15
100
AcDbCircle
 10
-64.5475812274
 20
-45.2814182691
 30
0.0
 40
35.00000000000001
100
AcDbArc
 50
270.0
 51
0.0
  0
LINE
  5
2E2
330
1F
100
AcDbEntity
  8
0
  6
Continuous
 62
     7
370
    15
100
AcDbLine
 10
-90.2375938541
 20
-80.2814183883
 30
0.0
 11
-64.5475747234
 21
-80.2814183883
 31
0.0
  0
LINE
  5
2E3
330
1F
100
AcDbEntity
  8
0
  6
Continuous
 62
     7
370
    15
100
AcDbLine
 10
-29.5475782997
 20
-22.7814173452
 30
0.0
 11
-90.2375938541
 21
-22.7814173452
 31
0.0
  0
LINE
  5
2E4
330
1F
100
AcDbEntity
  8
0
  6
Continuous
 62
     7
370
    15
100
AcDbLine
 10
-90.2375938541
 20
-22.7814173452
 30
0.0
 11
-90.2375938541
 21
-80.2814183883
 31
0.0
  0
LINE
  5
2E5
330
1F
100
AcDbEntity
  8
0
  6
Continuous
 62
     7
370
    15
100
AcDbLine
 10
-102.2275747901
 20
44.4153560199
 30
0.0
 11
-23.2275786048
 21
44.4153560199
 31
0.0
  0
LINE
  5
2E6
330
1F
100
AcDbEntity
  8
0
  6
Continuous
 62
     7
370
    15
100
AcDbLine
 10
-102.2275747901
 20
-3.6580549679
 30
0.0
 11
-102.2275747901
 21
44.4153560199
 31
0.0
  0
LINE
  5
2E7
330
1F
100
AcDbEntity
  8
0
  6
Continuous
 62
     7
370
    15
100
AcDbLine
 10
-23.2275786048
 20
-3.6580549679
 30
0.0
 11
-23.2275786048
 21
44.4153560199
 31
0.0
  0
LINE
  5
2E8
330
1F
100
AcDbEntity
  8
0
  6
Continuous
 62
     7
370
    15
100
AcDbLine
 10
-102.2275747901
 20
44.4153560199
 30
0.0
 11
-102.2275747901
 21
78.2185824462
 31
0.0
  0
LINE
  5
2E9
330
1F
100
AcDbEntity
  8
0
  6
Continuous
 62
     7
370
    15
100
AcDbLine
 10
-23.2275786048
 20
44.4153560199
 30
0.0
 11
-23.2275786048
 21
78.2185824462
 31
0.0
  0
LINE
  5
2EA
330
1F
100
AcDbEntity
  8
0
  6
Continuous
 62
     7
370
    15
100
AcDbLine
 10
-102.2275747901
 20
88.21858036
 30
0.0
 11
-23.2275786048
 21
88.21858036
 31
0.0
  0
LINE
  5
2EB
330
1F
100
AcDbEntity
  8
0
  6
Continuous
 62
     7
370
    15
100
AcDbLine
 10
-102.2275747901
 20
78.2185824462
 30
0.0
 11
-102.2275747901
 21
88.21858036
 31
0.0
  0
LINE
  5
2EC
330
1F
100
AcDbEntity
  8
0
  6
Continuous
 62
     7
370
    15
100
AcDbLine
 10
-23.2275786048
 20
78.2185824462
 30
0.0
 11
-23.2275786048
 21
88.21858036
 31
0.0
  0
LINE
  5
2ED
330
1F
100
AcDbEntity
  8
0
  6
Continuous
 62
     7
370
    15
100
AcDbLine
 10
-102.2275747901
 20
-7.4807560197
 30
0.0
 11
-102.2275747901
 21
-3.6580549679
 31
0.0
  0
LINE
  5
2EE
330
1F
100
AcDbEntity
  8
0
  6
Continuous
 62
     7
370
    15
100
AcDbLine
 10
-23.2275786048
 20
-7.4807560197
 30
0.0
 11
-23.2275786048
 21
-3.6580549679
 31
0.0
  0
LINE
  5
2EF
330
1F
100
AcDbEntity
  8
0
  6
Continuous
 62
     7
370
    15
100
AcDbLine
 10
-29.5475782997
 20
-45.2814219646
 30
0.0
 11
-23.2275786048
 21
-45.2814219646
 31
0.0
  0
LINE
  5
2F0
330
1F
100
AcDbEntity
  8
0
  6
Continuous
 62
     7
370
    15
100
AcDbLine
 10
-102.2275747901
 20
-72.281417077
 30
0.0
 11
-102.2275747901
 21
-7.4807560197
 31
0.0
  0
LINE
  5
2F1
330
1F
100
AcDbEntity
  8
0
  6
Continuous
 62
     7
370
    15
100
AcDbLine
 10
-23.2275786048
 20
-45.2814219646
 30
0.0
 11
-23.2275786048
 21
-7.4807560197
 31
0.0
  0
LINE
  5
2F2
330
1F
100
AcDbEntity
  8
0
  6
Continuous
 62
     7
370
    15
100
AcDbLine
 10
-29.5475782997
 20
-52.9694451145
 30
0.0
 11
-29.5475782997
 21
-45.2814219646
 31
0.0
  0
ARC
  5
2F3
330
1F
100
AcDbEntity
  8
0
  6
Continuous
 62
     7
370
    15
100
AcDbCircle
 10
-63.7275812274
 20
-48.2814182691
 30
0.0
 40
34.50000000000002
100
AcDbArc
 50
315.9207901521
 51
352.1902104574
  0
LINE
  5
2F4
330
1F
100
AcDbEntity
  8
0
  6
Continuous
 62
     7
370
    15
100
AcDbLine
 10
-57.875222171
 20
-82.2814149908
 30
0.0
 11
-102.2275747901
 21
-82.2814149908
 31
0.0
  0
SPLINE
  5
2F5
330
1F
100
AcDbEntity
  8
0
  6
Continuous
 62
     7
370
    15
100
AcDbSpline
210
0.0
220
0.0
230
1.0
 70
     8
 71
     3
 72
    34
 73
    30
 74
     0
 42
0.00000001
 43
0.00000001
 12
1.0
 22
0.0
 32
0.0
 13
1.0
 23
0.0
 33
0.0
 40
0.0
 40
0.0
 40
0.0
 40
0.0
 40
0.1249999999999944
 40
0.1249999999999944
 40
0.2499999999999888
 40
0.2499999999999888
 40
0.312499999999986
 40
0.312499999999986
 40
0.3749999999999831
 40
0.3749999999999831
 40
0.4999999999999835
 40
0.4999999999999835
 40
0.6249999999999839
 40
0.6249999999999839
 40
0.6874999999999867
 40
0.6874999999999867
 40
0.7499999999999893
 40
0.7499999999999893
 40
0.8124999999999921
 40
0.8124999999999921
 40
0.8749999999999949
 40
0.8749999999999949
 40
0.9062499999999962
 40
0.9062499999999962
 40
0.9374999999999974
 40
0.9374999999999974
 40
0.9687499999999988
 40
0.9687499999999988
 40
1.0
 40
1.0
 40
1.0
 40
1.0
 10
-38.94351376464861
 20
-72.28141826906602
 30
0.0
 10
-39.6722663414707
 20
-73.03397881188438
 30
0.0
 10
-40.42355544574777
 20
-73.74151673479501
 30
0.0
 10
-41.9713240480356
 20
-75.07618464352801
 30
0.0
 10
-42.76778915111657
 20
-75.70322238428547
 30
0.0
 10
-43.99670119434901
 20
-76.58684052919025
 30
0.0
 10
-44.41140189853022
 20
-76.87129819247785
 30
0.0
 10
-45.24128126719246
 20
-77.41477941537832
 30
0.0
 10
-45.65781661406709
 20
-77.67479385476807
 30
0.0
 10
-46.91245325541599
 20
-78.42190859857746
 30
0.0
 10
-47.75565032483442
 20
-78.8762141754204
 30
0.0
 10
-49.45545330928574
 20
-79.70514303232287
 30
0.0
 10
-50.31215383770665
 20
-80.07972622305394
 30
0.0
 10
-51.60488307272021
 20
-80.58473403766955
 30
0.0
 10
-52.03745945551042
 20
-80.74367878016126
 30
0.0
 10
-52.89821045562925
 20
-81.04087542603672
 30
0.0
 10
-53.32706304447549
 20
-81.17939961625592
 30
0.0
 10
-54.17890384036256
 20
-81.43666996999178
 30
0.0
 10
-54.60218526960136
 20
-81.55545381527658
 30
0.0
 10
-55.43295946338317
 20
-81.77221615011169
 30
0.0
 10
-55.84259792443736
 20
-81.87064944044698
 30
0.0
 10
-56.42719054564371
 20
-82.00076210886351
 30
0.0
 10
-56.6168461803187
 20
-82.04118212759195
 30
0.0
 10
-56.9792194756556
 20
-82.11548131743255
 30
0.0
 10
-57.15220409031829
 20
-82.14939947659735
 30
0.0
 10
-57.4674501019119
 20
-82.20908388077991
 30
0.0
 10
-57.60700765432203
 20
-82.23432078100836
 30
0.0
 10
-57.81364676242362
 20
-82.27092236949235
 30
0.0
 10
-57.87523127207278
 20
-82.28141826906608
 30
0.0
 10
-57.87523127207278
 20
-82.28141826906605
 30
0.0
  0
LINE
  5
2F6
330
1F
100
AcDbEntity
  8
0
  6
Continuous
 62
     7
370
    15
100
AcDbLine
 10
-102.2275747901
 20
-82.2814149908
 30
0.0
 11
-102.2275747901
 21
-72.281417077
 31
0.0
  0
LINE
  5
2F7
330
1F
100
AcDbEntity
  8
0
  6
Continuous
 62
     7
370
    15
100
AcDbLine
 10
-5.727580393
 20
84.7669498869
 30
0.0
 11
-5.9282990343
 21
84.7669498869
 31
0.0
  0
LINE
  5
2F8
330
1F
100
AcDbEntity
  8
0
  6
Continuous
 62
     7
370
    15
100
AcDbLine
 10
-5.727580393
 20
84.7669498869
 30
0.0
 11
-5.727580393
 21
-39.329786425
 31
0.0
  0
LINE
  5
2F9
330
1F
100
AcDbEntity
  8
0
  6
Continuous
 62
     7
370
    15
100
AcDbLine
 10
-5.9282990343
 20
-39.329786425
 30
0.0
 11
-5.727580393
 21
-39.329786425
 31
0.0
  0
LINE
  5
2FA
330
1F
100
AcDbEntity
  8
0
  6
Continuous
 62
     7
370
    15
100
AcDbLine
 10
471.7724261635
 20
22.7185817309
 30
0.0
 11
471.7724261635
 21
-39.7814182691
 31
0.0
  0
LINE
  5
2FB
330
1F
100
AcDbEntity
  8
0
  6
Continuous
 62
     7
370
    15
100
AcDbLine
 10
471.7724261635
 20
85.2185817309
 30
0.0
 11
471.7724261635
 21
22.7185817309
 31
0.0
  0
LINE
  5
2FC
330
1F
100
AcDbEntity
  8
0
  6
Continuous
 62
     7
370
    15
100
AcDbLine
 10
427.4731365794
 20
-39.329786425
 30
0.0
 11
427.2724179381
 21
-39.329786425
 31
0.0
  0
LINE
  5
2FD
330
1F
100
AcDbEntity
  8
0
  6
Continuous
 62
     7
370
    15
100
AcDbLine
 10
427.2724179381
 20
84.7669498869
 30
0.0
 11
427.4731365794
 21
84.7669498869
 31
0.0
  0
LINE
  5
2FE
330
1F
100
AcDbEntity
  8
0
  6
Continuous
 62
     7
370
    15
100
AcDbLine
 10
427.2724179381
 20
84.7669498869
 30
0.0
 11
427.2724179381
 21
-39.329786425
 31
0.0
  0
LINE
  5
2FF
330
1F
100
AcDbEntity
  8
0
  6
Continuous
 62
     7
370
    15
100
AcDbLine
 10
-63.4075762874
 20
114.7185819097
 30
0.0
 11
-63.4075762874
 21
88.21858036
 31
0.0
  0
LINE
  5
300
330
1F
100
AcDbEntity
  8
0
  6
Continuous
 62
     7
370
    15
100
AcDbLine
 10
-53.637570346
 20
114.7185819097
 30
0.0
 11
-63.4075762874
 21
114.7185819097
 31
0.0
  0
LINE
  5
301
330
1F
100
AcDbEntity
  8
0
  6
Continuous
 62
     7
370
    15
100
AcDbLine
 10
-53.637570346
 20
114.7185819097
 30
0.0
 11
-53.637570346
 21
88.21858036
 31
0.0
  0
LINE
  5
302
330
1F
100
AcDbEntity
  8
0
  6
Continuous
 62
     7
370
    15
100
AcDbLine
 10
-73.1775822288
 20
114.7185819097
 30
0.0
 11
-73.1775822288
 21
88.21858036
 31
0.0
  0
LINE
  5
303
330
1F
100
AcDbEntity
  8
0
  6
Continuous
 62
     7
370
    15
100
AcDbLine
 10
-63.4075762874
 20
114.7185819097
 30
0.0
 11
-73.1775822288
 21
114.7185819097
 31
0.0
  0
LINE
  5
304
330
1F
100
AcDbEntity
  8
0
  6
Continuous
 62
     7
370
    15
100
AcDbLine
 10
-5.727580393
 20
30.2185815633
 30
0.0
 11
84.4048945063
 21
30.2185815633
 31
0.0
  0
LINE
  5
305
330
1F
100
AcDbEntity
  8
0
  6
Continuous
 62
     7
370
    15
100
AcDbLine
 10
-5.727580393
 20
15.2185818986
 30
0.0
 11
84.4048945063
 21
15.2185818986
 31
0.0
  0
LINE
  5
306
330
1F
100
AcDbEntity
  8
0
  6
Continuous
 62
     7
370
    15
100
AcDbLine
 10
427.2724179381
 20
15.2185818986
 30
0.0
 11
337.1399430388
 21
15.2185818986
 31
0.0
  0
LINE
  5
307
330
1F
100
AcDbEntity
  8
0
  6
Continuous
 62
     7
370
    15
100
AcDbLine
 10
427.2724179381
 20
30.2185815633
 30
0.0
 11
337.1399430388
 21
30.2185815633
 31
0.0
  0
LINE
  5
308
330
1F
100
AcDbEntity
  8
0
  6
Continuous
 62
     7
370
    15
100
AcDbLine
 10
10.1206837052
 20
51.7659572758
 30
0.0
 11
10.1206837052
 21
30.2185815633
 31
0.0
  0
SPLINE
  5
309
330
1F
100
AcDbEntity
  8
0
  6
Continuous
 62
     7
370
    15
100
AcDbSpline
210
0.0
220
0.0
230
1.0
 70
     8
 71
     3
 72
     8
 73
     4
 74
     0
 42
0.00000001
 43
0.00000001
 12
1.0
 22
0.0
 32
0.0
 13
1.0
 23
0.0
 33
0.0
 40
0.0
 40
0.0
 40
0.0
 40
0.0
 40
1.0
 40
1.0
 40
1.0
 40
1.0
 10
-5.727581227436773
 20
61.14347600534837
 30
0.0
 10
-0.4368116990494109
 20
58.03120575487964
 30
0.0
 10
4.848493418692451
 20
54.9096837005395
 30
0.0
 10
10.1206836618184
 20
51.76595682748863
 30
0.0
  0
LINE
  5
30A
330
1F
100
AcDbEntity
  8
0
  6
Continuous
 62
     7
370
    15
100
AcDbLine
 10
411.4241538399
 20
30.2185815633
 30
0.0
 11
411.4241538399
 21
51.7659572758
 31
0.0
  0
SPLINE
  5
30B
330
1F
100
AcDbEntity
  8
0
  6
Continuous
 62
     7
370
    15
100
AcDbSpline
210
0.0
220
0.0
230
1.0
 70
     8
 71
     3
 72
     8
 73
     4
 74
     0
 42
0.00000001
 43
0.00000001
 12
1.0
 22
0.0
 32
0.0
 13
1.0
 23
0.0
 33
0.0
 40
0.0
 40
0.0
 40
0.0
 40
0.0
 40
1.0
 40
1.0
 40
1.0
 40
1.0
 10
411.4241538833081
 20
51.76595682748863
 30
0.0
 10
416.6963471544103
 20
54.90968550607568
 30
0.0
 10
421.9816515493396
 20
58.03120711088133
 30
0.0
 10
427.2724187725633
 20
61.14347600534837
 30
0.0
  0
LINE
  5
30C
330
1F
100
AcDbEntity
  8
0
  6
Continuous
 62
     7
370
    15
100
AcDbLine
 10
411.4241538399
 20
-6.328793814
 30
0.0
 11
411.4241538399
 21
15.2185818986
 31
0.0
  0
SPLINE
  5
30D
330
1F
100
AcDbEntity
  8
0
  6
Continuous
 62
     7
370
    15
100
AcDbSpline
210
0.0
220
0.0
230
1.0
 70
     8
 71
     3
 72
     8
 73
     4
 74
     0
 42
0.00000001
 43
0.00000001
 12
1.0
 22
0.0
 32
0.0
 13
1.0
 23
0.0
 33
0.0
 40
0.0
 40
0.0
 40
0.0
 40
0.0
 40
1.0
 40
1.0
 40
1.0
 40
1.0
 10
427.2724187725633
 20
-15.70631254348236
 30
0.0
 10
421.9816492441759
 20
-12.59404229301363
 30
0.0
 10
416.6963441264341
 20
-9.472520238673496
 30
0.0
 10
411.4241538833081
 20
-6.328793365622615
 30
0.0
  0
LINE
  5
30E
330
1F
100
AcDbEntity
  8
0
  6
Continuous
 62
     7
370
    15
100
AcDbLine
 10
10.1206837052
 20
15.2185818986
 30
0.0
 11
10.1206837052
 21
-6.328793814
 31
0.0
  0
SPLINE
  5
30F
330
1F
100
AcDbEntity
  8
0
  6
Continuous
 62
     7
370
    15
100
AcDbSpline
210
0.0
220
0.0
230
1.0
 70
     8
 71
     3
 72
     8
 73
     4
 74
     0
 42
0.00000001
 43
0.00000001
 12
1.0
 22
0.0
 32
0.0
 13
1.0
 23
0.0
 33
0.0
 40
0.0
 40
0.0
 40
0.0
 40
0.0
 40
1.0
 40
1.0
 40
1.0
 40
1.0
 10
10.1206836618184
 20
-6.328793365622615
 30
0.0
 10
4.848490390716248
 20
-9.472522044209668
 30
0.0
 10
-0.4368140042131097
 20
-12.59404364901532
 30
0.0
 10
-5.727581227436773
 20
-15.70631254348236
 30
0.0
  0
LINE
  5
310
330
1F
100
AcDbEntity
  8
0
  6
Continuous
 62
     7
370
    15
100
AcDbLine
 10
-103.2275917179
 20
-13.7814177326
 30
0.0
 11
-103.2275917179
 21
59.2185811945
 31
0.0
  0
LINE
  5
311
330
1F
100
AcDbEntity
  8
0
  6
Continuous
 62
     7
370
    15
100
AcDbLine
 10
345.1924709433
 20
51.7659572758
 30
0.0
 11
411.4241538399
 21
51.7659572758
 31
0.0
  0
LINE
  5
312
330
1F
100
AcDbEntity
  8
0
  6
Continuous
 62
     7
370
    15
100
AcDbLine
 10
10.1206837052
 20
51.7659572758
 30
0.0
 11
76.3523666018
 21
51.7659572758
 31
0.0
  0
LINE
  5
313
330
1F
100
AcDbEntity
  8
0
  6
Continuous
 62
     7
370
    15
100
AcDbLine
 10
76.3523666018
 20
-6.328793814
 30
0.0
 11
10.1206837052
 21
-6.328793814
 31
0.0
  0
LINE
  5
314
330
1F
100
AcDbEntity
  8
0
  6
Continuous
 62
     7
370
    15
100
AcDbLine
 10
411.4241538399
 20
-6.328793814
 30
0.0
 11
345.1924709433
 21
-6.328793814
 31
0.0
  0
LINE
  5
315
330
1F
100
AcDbEntity
  8
0
  6
Continuous
 62
     7
370
    15
100
AcDbLine
 10
-102.2275747901
 20
88.21858036
 30
0.0
 11
-102.2275747901
 21
91.7185800024
 31
0.0
  0
LINE
  5
316
330
1F
100
AcDbEntity
  8
0
  6
Continuous
 62
     7
370
    15
100
AcDbLine
 10
-23.2275786048
 20
88.21858036
 30
0.0
 11
-23.2275786048
 21
91.7185800024
 31
0.0
  0
CIRCLE
  5
317
330
1F
100
AcDbEntity
  8
0
  6
Continuous
 62
     7
370
    15
100
AcDbCircle
 10
30.7724187726
 20
84.7185817309
 30
0.0
 40
19.65616497644446
  0
LINE
  5
318
330
1F
100
AcDbEntity
  8
0
  6
Continuous
 62
     7
370
    15
100
AcDbLine
 10
12.2724113816
 20
125.7185818501
 30
0.0
 11
-5.9282990343
 21
84.7669498869
 31
0.0
  0
CIRCLE
  5
319
330
1F
100
AcDbEntity
  8
0
  6
Continuous
 62
     7
370
    15
100
AcDbCircle
 10
390.7724187726
 20
84.7185817309
 30
0.0
 40
19.65616497644446
  0
LINE
  5
31A
330
1F
100
AcDbEntity
  8
0
  6
Continuous
 62
     7
370
    15
100
AcDbLine
 10
409.2724261635
 20
125.7185818501
 30
0.0
 11
427.4731365794
 21
84.7669498869
 31
0.0
  0
CIRCLE
  5
31B
330
1F
100
AcDbEntity
  8
0
  6
Continuous
 62
     7
370
    15
100
AcDbCircle
 10
390.7724187726
 20
84.7185817309
 30
0.0
 40
19.0
  0
CIRCLE
  5
31C
330
1F
100
AcDbEntity
  8
0
  6
Continuous
 62
     7
370
    15
100
AcDbCircle
 10
30.7724187726
 20
84.7185817309
 30
0.0
 40
19.0
  0
LINE
  5
31D
330
1F
100
AcDbEntity
  8
0
  6
Continuous
 62
     7
370
    15
100
AcDbLine
 10
12.2724113816
 20
-80.2814183883
 30
0.0
 11
-5.9282990343
 21
-39.329786425
 31
0.0
  0
CIRCLE
  5
31E
330
1F
100
AcDbEntity
  8
0
  6
Continuous
 62
     7
370
    15
100
AcDbCircle
 10
30.7724187726
 20
-39.2814182691
 30
0.0
 40
19.65616497644444
  0
CIRCLE
  5
31F
330
1F
100
AcDbEntity
  8
0
  6
Continuous
 62
     7
370
    15
100
AcDbCircle
 10
390.7724187726
 20
-39.2814182691
 30
0.0
 40
19.65616497644444
  0
LINE
  5
320
330
1F
100
AcDbEntity
  8
0
  6
Continuous
 62
     7
370
    15
100
AcDbLine
 10
409.2724261635
 20
-80.2814183883
 30
0.0
 11
427.4731365794
 21
-39.329786425
 31
0.0
  0
CIRCLE
  5
321
330
1F
100
AcDbEntity
  8
0
  6
Continuous
 62
     7
370
    15
100
AcDbCircle
 10
390.7724187726
 20
-39.2814182691
 30
0.0
 40
18.99999999999999
  0
CIRCLE
  5
322
330
1F
100
AcDbEntity
  8
0
  6
Continuous
 62
     7
370
    15
100
AcDbCircle
 10
30.7724187726
 20
-39.2814182691
 30
0.0
 40
18.99999999999999
  0
LINE
  5
323
330
1F
100
AcDbEntity
  8
0
  6
Continuous
 62
     8
370
     0
100
AcDbLine
 10
258.2227079028
 20
22.9403128139
 30
0.0
 11
259.2833688313
 21
22.9403128139
 31
0.0
  0
LINE
  5
324
330
1F
100
AcDbEntity
  8
0
  6
Continuous
 62
     8
370
     0
100
AcDbLine
 10
241.8155142867
 20
29.2092136913
 30
0.0
 11
242.8761733526
 21
29.2092136913
 31
0.0
  0
LINE
  5
325
330
1F
100
AcDbEntity
  8
0
  6
Continuous
 62
     8
370
     0
100
AcDbLine
 10
241.8155142867
 20
16.2279497706
 30
0.0
 11
242.8761733526
 21
16.2279497706
 31
0.0
  0
LINE
  5
326
330
1F
100
AcDbEntity
  8
0
  6
Continuous
 62
     8
370
     0
100
AcDbLine
 10
258.2227079028
 20
22.4968506479
 30
0.0
 11
259.2833688313
 21
22.4968506479
 31
0.0
  0
LINE
  5
327
330
1F
100
AcDbEntity
  8
0
  6
Continuous
 62
     8
370
     0
100
AcDbLine
 10
241.645940935
 20
29.4309448325
 30
0.0
 11
242.7066018635
 21
29.4309448325
 31
0.0
  0
LINE
  5
328
330
1F
100
AcDbEntity
  8
0
  6
Continuous
 62
     8
370
     0
100
AcDbLine
 10
241.645940935
 20
47.126581321
 30
0.0
 11
242.7066018635
 21
47.126581321
 31
0.0
  0
LINE
  5
329
330
1F
100
AcDbEntity
  8
0
  6
Continuous
 62
     8
370
     0
100
AcDbLine
 10
241.645940935
 20
16.0062186294
 30
0.0
 11
242.7066018635
 21
16.0062186294
 31
0.0
  0
LINE
  5
32A
330
1F
100
AcDbEntity
  8
0
  6
Continuous
 62
     8
370
     0
100
AcDbLine
 10
241.645940935
 20
-0.3934191666
 30
0.0
 11
242.7066018635
 21
-0.3934191666
 31
0.0
  0
LINE
  5
32B
330
1F
100
AcDbEntity
  8
0
  6
Continuous
 62
     8
370
     0
100
AcDbLine
 10
249.1549303585
 20
11.8372024842
 30
0.0
 11
250.215591287
 21
11.8372024842
 31
0.0
  0
LINE
  5
32C
330
1F
100
AcDbEntity
  8
0
  6
Continuous
 62
     8
370
     0
100
AcDbLine
 10
265.6711911613
 20
18.4599732854
 30
0.0
 11
266.7318520897
 21
18.4599732854
 31
0.0
  0
LINE
  5
32D
330
1F
100
AcDbEntity
  8
0
  6
Continuous
 62
     8
370
     0
100
AcDbLine
 10
265.6711911613
 20
26.9771901765
 30
0.0
 11
266.7318520897
 21
26.9771901765
 31
0.0
  0
LINE
  5
32E
330
1F
100
AcDbEntity
  8
0
  6
Continuous
 62
     8
370
     0
100
AcDbLine
 10
249.1549303585
 20
33.5999609776
 30
0.0
 11
250.215591287
 21
33.5999609776
 31
0.0
  0
LINE
  5
32F
330
1F
100
AcDbEntity
  8
0
  6
Continuous
 62
     8
370
     0
100
AcDbLine
 10
248.993245309
 20
47.126581321
 30
0.0
 11
250.0539062375
 21
47.126581321
 31
0.0
  0
LINE
  5
330
330
1F
100
AcDbEntity
  8
0
  6
Continuous
 62
     8
370
     0
100
AcDbLine
 10
248.993245309
 20
42.5627207257
 30
0.0
 11
250.0539062375
 21
42.5627207257
 31
0.0
  0
LINE
  5
331
330
1F
100
AcDbEntity
  8
0
  6
Continuous
 62
     8
370
     0
100
AcDbLine
 10
248.993245309
 20
38.4976262101
 30
0.0
 11
250.0539062375
 21
38.4976262101
 31
0.0
  0
LINE
  5
332
330
1F
100
AcDbEntity
  8
0
  6
Continuous
 62
     8
370
     0
100
AcDbLine
 10
248.993245309
 20
33.8216921189
 30
0.0
 11
250.0539062375
 21
33.8216921189
 31
0.0
  0
LINE
  5
333
330
1F
100
AcDbEntity
  8
0
  6
Continuous
 62
     8
370
     0
100
AcDbLine
 10
248.993245309
 20
11.615471343
 30
0.0
 11
250.0539062375
 21
11.615471343
 31
0.0
  0
LINE
  5
334
330
1F
100
AcDbEntity
  8
0
  6
Continuous
 62
     8
370
     0
100
AcDbLine
 10
248.993245309
 20
-0.3934191666
 30
0.0
 11
250.0539062375
 21
-0.3934191666
 31
0.0
  0
LINE
  5
335
330
1F
100
AcDbEntity
  8
0
  6
Continuous
 62
     8
370
     0
100
AcDbLine
 10
255.2866948598
 20
36.8361374237
 30
0.0
 11
256.1785479838
 21
36.8361374237
 31
0.0
  0
LINE
  5
336
330
1F
100
AcDbEntity
  8
0
  6
Continuous
 62
     8
370
     0
100
AcDbLine
 10
255.3679546171
 20
2.646495948
 30
0.0
 11
255.5578363889
 21
2.646495948
 31
0.0
  0
LINE
  5
337
330
1F
100
AcDbEntity
  8
0
  6
Continuous
 62
     8
370
     0
100
AcDbLine
 10
265.6711911613
 20
-1.9119648389
 30
0.0
 11
266.7318520897
 21
-1.9119648389
 31
0.0
  0
LINE
  5
338
330
1F
100
AcDbEntity
  8
0
  6
Continuous
 62
     8
370
     0
100
AcDbLine
 10
258.3390449935
 20
9.8118934654
 30
0.0
 11
259.2395370656
 21
9.8118934654
 31
0.0
  0
LINE
  5
339
330
1F
100
AcDbEntity
  8
0
  6
Continuous
 62
     8
370
     0
100
AcDbLine
 10
258.3390449935
 20
6.7361159124
 30
0.0
 11
259.2395370656
 21
6.7361159124
 31
0.0
  0
LINE
  5
33A
330
1F
100
AcDbEntity
  8
0
  6
Continuous
 62
     8
370
     0
100
AcDbLine
 10
260.0166512483
 20
40.5710873999
 30
0.0
 11
260.27833054
 21
40.5710873999
 31
0.0
  0
LINE
  5
33B
330
1F
100
AcDbEntity
  8
0
  6
Continuous
 62
     8
370
     0
100
AcDbLine
 10
265.6348733061
 20
44.6595338978
 30
0.0
 11
266.6955342346
 21
44.6595338978
 31
0.0
  0
LINE
  5
33C
330
1F
100
AcDbEntity
  8
0
  6
Continuous
 62
     8
370
     0
100
AcDbLine
 10
-102.2275747901
 20
-3.6580549679
 30
0.0
 11
-23.2275786048
 21
-3.6580549679
 31
0.0
  0
LINE
  5
33D
330
1F
100
AcDbEntity
  8
0
  6
Continuous
 62
     8
370
     0
100
AcDbLine
 10
-102.2275747901
 20
78.2185824462
 30
0.0
 11
-23.2275786048
 21
78.2185824462
 31
0.0
  0
LINE
  5
33E
330
1F
100
AcDbEntity
  8
0
  6
Continuous
 62
     8
370
     0
100
AcDbLine
 10
-102.2275747901
 20
-7.4807560197
 30
0.0
 11
-23.2275786048
 21
-7.4807560197
 31
0.0
  0
LINE
  5
33F
330
1F
100
AcDbEntity
  8
0
  6
Continuous
 62
     8
370
     0
100
AcDbLine
 10
-102.2275747901
 20
-72.281417077
 30
0.0
 11
-90.2375938541
 21
-72.281417077
 31
0.0
  0
LINE
  5
340
330
1F
100
AcDbEntity
  8
0
  6
Continuous
 62
     8
370
     0
100
AcDbLine
 10
-42.2765376216
 20
-72.281417077
 30
0.0
 11
-38.9435203916
 21
-72.281417077
 31
0.0
  0
INSERT
  5
34C
330
1F
100
AcDbEntity
  8
FORMAT
 62
     7
100
AcDbBlockReference
  2
SW_CENTERMARKSYMBOL_2
 10
-63.7275812274
 20
-48.2814182691
 30
0.0
  0
INSERT
  5
358
330
1F
100
AcDbEntity
  8
FORMAT
 62
     7
100
AcDbBlockReference
  2
SW_CENTERMARKSYMBOL_3
 10
210.7724187726
 20
22.7185817309
 30
0.0
  0
INSERT
  5
364
330
1F
100
AcDbEntity
  8
FORMAT
 62
     7
100
AcDbBlockReference
  2
SW_CENTERMARKSYMBOL_4
 10
30.7724187726
 20
-39.2814182691
 30
0.0
  0
INSERT
  5
370
330
1F
100
AcDbEntity
  8
FORMAT
 62
     7
100
AcDbBlockReference
  2
SW_CENTERMARKSYMBOL_5
 10
30.7724187726
 20
84.7185817309
 30
0.0
  0
INSERT
  5
37C
330
1F
100
AcDbEntity
  8
FORMAT
 62
     7
100
AcDbBlockReference
  2
SW_CENTERMARKSYMBOL_6
 10
390.7724187726
 20
-39.2814182691
 30
0.0
  0
INSERT
  5
388
330
1F
100
AcDbEntity
  8
FORMAT
 62
     7
100
AcDbBlockReference
  2
SW_CENTERMARKSYMBOL_7
 10
390.7724187726
 20
84.7185817309
 30
0.0
  0
ENDSEC
  0
SECTION
  2
OBJECTS
  0
DICTIONARY
  5
C
330
0
100
AcDbDictionary
281
     1
  3
ACAD_GROUP
350
D
  3
ACAD_LAYOUT
350
1A
  3
ACAD_MLINESTYLE
350
17
  3
ACAD_PLOTSETTINGS
350
19
  3
ACAD_PLOTSTYLENAME
350
E
  0
DICTIONARY
  5
D
102
{ACAD_REACTORS
330
C
102
}
330
C
100
AcDbDictionary
281
     1
  0
DICTIONARY
  5
1A
102
{ACAD_REACTORS
330
C
102
}
330
C
100
AcDbDictionary
281
     1
  3
Layout1
350
1E
  3
Layout2
350
26
  3
Model
350
22
  0
DICTIONARY
  5
17
102
{ACAD_REACTORS
330
C
102
}
330
C
100
AcDbDictionary
281
     1
  3
Standard
350
18
  0
DICTIONARY
  5
19
102
{ACAD_REACTORS
330
C
102
}
330
C
100
AcDbDictionary
281
     1
  0
ACDBDICTIONARYWDFLT
  5
E
102
{ACAD_REACTORS
330
C
102
}
330
C
100
AcDbDictionary
281
     1
  3
Normal
350
F
100
AcDbDictionaryWithDefault
340
F
  0
LAYOUT
  5
1E
102
{ACAD_REACTORS
330
1A
102
}
330
1A
100
AcDbPlotSettings
  1

  2
none_device
  4

  6

 40
0.0
 41
0.0
 42
0.0
 43
0.0
 44
0.0
 45
0.0
 46
0.0
 47
0.0
 48
0.0
 49
0.0
140
0.0
141
0.0
142
1.0
143
1.0
 70
   688
 72
     0
 73
     0
 74
     5
  7

 75
    16
147
1.0
148
0.0
149
0.0
100
AcDbLayout
  1
Layout1
 70
     1
 71
     1
 10
0.0
 20
0.0
 11
420.0
 21
297.0
 12
0.0
 22
0.0
 32
0.0
 14
1.0000000000E+20
 24
1.0000000000E+20
 34
1.0000000000E+20
 15
-1.0000000000E+20
 25
-1.0000000000E+20
 35
-1.0000000000E+20
146
0.0
 13
0.0
 23
0.0
 33
0.0
 16
1.0
 26
0.0
 36
0.0
 17
0.0
 27
1.0
 37
0.0
 76
     0
330
1B
  0
LAYOUT
  5
26
102
{ACAD_REACTORS
330
1A
102
}
330
1A
100
AcDbPlotSettings
  1

  2
none_device
  4

  6

 40
0.0
 41
0.0
 42
0.0
 43
0.0
 44
0.0
 45
0.0
 46
0.0
 47
0.0
 48
0.0
 49
0.0
140
0.0
141
0.0
142
1.0
143
1.0
 70
   688
 72
     0
 73
     0
 74
     5
  7

 75
    16
147
1.0
148
0.0
149
0.0
100
AcDbLayout
  1
Layout2
 70
     1
 71
     2
 10
0.0
 20
0.0
 11
0.0
 21
0.0
 12
0.0
 22
0.0
 32
0.0
 14
0.0
 24
0.0
 34
0.0
 15
0.0
 25
0.0
 35
0.0
146
0.0
 13
0.0
 23
0.0
 33
0.0
 16
1.0
 26
0.0
 36
0.0
 17
0.0
 27
1.0
 37
0.0
 76
     0
330
23
  0
LAYOUT
  5
22
102
{ACAD_REACTORS
330
1A
102
}
330
1A
100
AcDbPlotSettings
  1

  2
none_device
  4

  6

 40
0.0
 41
0.0
 42
0.0
 43
0.0
 44
0.0
 45
0.0
 46
0.0
 47
0.0
 48
0.0
 49
0.0
140
0.0
141
0.0
142
1.0
143
1.0
 70
  1712
 72
     0
 73
     0
 74
     0
  7

 75
     0
147
1.0
148
0.0
149
0.0
100
AcDbLayout
  1
Model
 70
     1
 71
     0
 10
0.0
 20
0.0
 11
841.0
 21
594.0
 12
0.0
 22
0.0
 32
0.0
 14
0.0
 24
0.0
 34
0.0
 15
841.0
 25
594.0
 35
0.0
146
0.0
 13
0.0
 23
0.0
 33
0.0
 16
1.0
 26
0.0
 36
0.0
 17
0.0
 27
1.0
 37
0.0
 76
     0
330
1F
331
29
  0
MLINESTYLE
  5
18
102
{ACAD_REACTORS
330
17
102
}
330
17
100
AcDbMlineStyle
  2
Standard
 70
     0
  3

 62
   256
 51
90.0
 52
90.0
 71
     2
 49
0.5
 62
   256
  6
BYLAYER
 49
-0.5
 62
   256
  6
BYLAYER
  0
ACDBPLACEHOLDER
  5
F
102
{ACAD_REACTORS
330
E
102
}
330
E
  0
ENDSEC
  0
EOF
