  0
SECTION
  2
HEADER
  9
$ACADVER
  1
AC1015
  9
$ACADMAINTVER
 70
     6
  9
$DWGCODEPAGE
  3
ANSI_1252
  9
$INSBASE
 10
0.0
 20
0.0
 30
0.0
  9
$EXTMIN
 10
0.0
 20
0.0
 30
0.0
  9
$EXTMAX
 10
841.0
 20
594.0
 30
0.0
  9
$LIMMIN
 10
0.0
 20
0.0
  9
$LIMMAX
 10
841.0
 20
594.0
  9
$ORTHOMODE
 70
     0
  9
$REGENMODE
 70
     1
  9
$FILLMODE
 70
     1
  9
$QTEXTMODE
 70
     0
  9
$MIRRTEXT
 70
     1
  9
$LTSCALE
 40
1.0
  9
$ATTMODE
 70
     1
  9
$TEXTSIZE
 40
2.5
  9
$TRACEWID
 40
1.0
  9
$TEXTSTYLE
  7
Standard
  9
$CLAYER
  8
0
  9
$CELTYPE
  6
ByLayer
  9
$CECOLOR
 62
   256
  9
$CELTSCALE
 40
1.0
  9
$DISPSILH
 70
     0
  9
$DIMSCALE
 40
1.0
  9
$DIMASZ
 40
2.5
  9
$DIMEXO
 40
1.0
  9
$DIMDLI
 40
3.75
  9
$DIMRND
 40
0.0
  9
$DIMDLE
 40
0.0
  9
$DIMEXE
 40
1.0
  9
$DIMTP
 40
0.0
  9
$DIMTM
 40
0.0
  9
$DIMTXT
 40
2.5
  9
$DIMCEN
 40
2.5
  9
$DIMTSZ
 40
0.0
  9
$DIMTOL
 70
     0
  9
$DIMLIM
 70
     0
  9
$DIMTIH
 70
     1
  9
$DIMTOH
 70
     1
  9
$DIMSE1
 70
     0
  9
$DIMSE2
 70
     0
  9
$DIMTAD
 70
     1
  9
$DIMZIN
 70
     0
  9
$DIMBLK
  1

  9
$DIMASO
 70
     1
  9
$DIMSHO
 70
     1
  9
$DIMPOST
  1

  9
$DIMAPOST
  1

  9
$DIMALT
 70
     0
  9
$DIMALTD
 70
     3
  9
$DIMALTF
 40
0.0393700787
  9
$DIMLFAC
 40
1.0
  9
$DIMTOFL
 70
     1
  9
$DIMTVP
 40
0.0
  9
$DIMTIX
 70
     0
  9
$DIMSOXD
 70
     0
  9
$DIMSAH
 70
     0
  9
$DIMBLK1
  1

  9
$DIMBLK2
  1

  9
$DIMSTYLE
  2
ISO-25
  9
$DIMCLRD
 70
     0
  9
$DIMCLRE
 70
     0
  9
$DIMCLRT
 70
     0
  9
$DIMTFAC
 40
1.0
  9
$DIMGAP
 40
1.524
  9
$DIMJUST
 70
     0
  9
$DIMSD1
 70
     0
  9
$DIMSD2
 70
     0
  9
$DIMTOLJ
 70
     0
  9
$DIMTZIN
 70
     0
  9
$DIMALTZ
 70
     0
  9
$DIMALTTZ
 70
     0
  9
$DIMUPT
 70
     0
  9
$DIMDEC
 70
     2
  9
$DIMTDEC
 70
     2
  9
$DIMALTU
 70
     2
  9
$DIMALTTD
 70
     3
  9
$DIMTXSTY
  7
Standard
  9
$DIMAUNIT
 70
     0
  9
$DIMADEC
 70
     2
  9
$DIMALTRND
 40
0.0
  9
$DIMAZIN
 70
     0
  9
$DIMDSEP
 70
    44
  9
$DIMATFIT
 70
     3
  9
$DIMFRAC
 70
     0
  9
$DIMLDRBLK
  1

  9
$DIMLUNIT
 70
     2
  9
$DIMLWD
 70
    -2
  9
$DIMLWE
 70
    -2
  9
$DIMTMOVE
 70
     0
  9
$LUNITS
 70
     2
  9
$LUPREC
 70
     2
  9
$SKETCHINC
 40
1.0
  9
$FILLETRAD
 40
10.0
  9
$AUNITS
 70
     0
  9
$AUPREC
 70
     2
  9
$MENU
  1
.
  9
$ELEVATION
 40
0.0
  9
$PELEVATION
 40
0.0
  9
$THICKNESS
 40
0.0
  9
$LIMCHECK
 70
     0
  9
$CHAMFERA
 40
10.0
  9
$CHAMFERB
 40
10.0
  9
$CHAMFERC
 40
20.0
  9
$CHAMFERD
 40
0.0
  9
$SKPOLY
 70
     0
  9
$TDCREATE
 40
2457189.584938576
  9
$TDUCREATE
 40
2457189.251605243
  9
$TDUPDATE
 40
2457189.584939479
  9
$TDUUPDATE
 40
2457189.251606146
  9
$TDINDWG
 40
0.0000000116
  9
$TDUSRTIMER
 40
0.0000000116
  9
$USRTIMER
 70
     1
  9
$ANGBASE
 50
0.0
  9
$ANGDIR
 70
     0
  9
$PDMODE
 70
     0
  9
$PDSIZE
 40
-1.0
  9
$PLINEWID
 40
0.0
  9
$SPLFRAME
 70
     0
  9
$SPLINETYPE
 70
     6
  9
$SPLINESEGS
 70
     8
  9
$HANDSEED
  5
3AD
  9
$SURFTAB1
 70
     6
  9
$SURFTAB2
 70
     6
  9
$SURFTYPE
 70
     6
  9
$SURFU
 70
     6
  9
$SURFV
 70
     6
  9
$UCSBASE
  2

  9
$UCSNAME
  2

  9
$UCSORG
 10
0.0
 20
0.0
 30
0.0
  9
$UCSXDIR
 10
1.0
 20
0.0
 30
0.0
  9
$UCSYDIR
 10
0.0
 20
1.0
 30
0.0
  9
$UCSORTHOREF
  2

  9
$UCSORTHOVIEW
 70
     0
  9
$UCSORGTOP
 10
0.0
 20
0.0
 30
0.0
  9
$UCSORGBOTTOM
 10
0.0
 20
0.0
 30
0.0
  9
$UCSORGLEFT
 10
0.0
 20
0.0
 30
0.0
  9
$UCSORGRIGHT
 10
0.0
 20
0.0
 30
0.0
  9
$UCSORGFRONT
 10
0.0
 20
0.0
 30
0.0
  9
$UCSORGBACK
 10
0.0
 20
0.0
 30
0.0
  9
$PUCSBASE
  2

  9
$PUCSNAME
  2

  9
$PUCSORG
 10
0.0
 20
0.0
 30
0.0
  9
$PUCSXDIR
 10
1.0
 20
0.0
 30
0.0
  9
$PUCSYDIR
 10
0.0
 20
1.0
 30
0.0
  9
$PUCSORTHOREF
  2

  9
$PUCSORTHOVIEW
 70
     0
  9
$PUCSORGTOP
 10
0.0
 20
0.0
 30
0.0
  9
$PUCSORGBOTTOM
 10
0.0
 20
0.0
 30
0.0
  9
$PUCSORGLEFT
 10
0.0
 20
0.0
 30
0.0
  9
$PUCSORGRIGHT
 10
0.0
 20
0.0
 30
0.0
  9
$PUCSORGFRONT
 10
0.0
 20
0.0
 30
0.0
  9
$PUCSORGBACK
 10
0.0
 20
0.0
 30
0.0
  9
$USERI1
 70
     0
  9
$USERI2
 70
     0
  9
$USERI3
 70
     0
  9
$USERI4
 70
     0
  9
$USERI5
 70
     0
  9
$USERR1
 40
0.0
  9
$USERR2
 40
0.0
  9
$USERR3
 40
0.0
  9
$USERR4
 40
0.0
  9
$USERR5
 40
0.0
  9
$WORLDVIEW
 70
     1
  9
$SHADEDGE
 70
     3
  9
$SHADEDIF
 70
    70
  9
$TILEMODE
 70
     1
  9
$MAXACTVP
 70
    64
  9
$PINSBASE
 10
0.0
 20
0.0
 30
0.0
  9
$PLIMCHECK
 70
     0
  9
$PEXTMIN
 10
1.0000000000E+20
 20
1.0000000000E+20
 30
1.0000000000E+20
  9
$PEXTMAX
 10
-1.0000000000E+20
 20
-1.0000000000E+20
 30
-1.0000000000E+20
  9
$PLIMMIN
 10
0.0
 20
0.0
  9
$PLIMMAX
 10
420.0
 20
297.0
  9
$UNITMODE
 70
     0
  9
$VISRETAIN
 70
     1
  9
$PLINEGEN
 70
     0
  9
$PSLTSCALE
 70
     1
  9
$TREEDEPTH
 70
  3020
  9
$CMLSTYLE
  2
Standard
  9
$CMLJUST
 70
     0
  9
$CMLSCALE
 40
20.0
  9
$PROXYGRAPHICS
 70
     1
  9
$MEASUREMENT
 70
     1
  9
$CELWEIGHT
370
    -1
  9
$ENDCAPS
280
     0
  9
$JOINSTYLE
280
     0
  9
$LWDISPLAY
290
     1
  9
$INSUNITS
 70
     4
  9
$HYPERLINKBASE
  1

  9
$STYLESHEET
  1

  9
$XEDIT
290
     1
  9
$CEPSNTYPE
380
     0
  9
$PSTYLEMODE
290
     1
  9
$FINGERPRINTGUID
  2
{B4C3B61F-A191-4615-8178-7F325AC92378}
  9
$VERSIONGUID
  2
{FAEB1C32-E019-11D5-929B-00C0DF256EC4}
  9
$EXTNAMES
290
     1
  9
$PSVPSCALE
 40
0.0
  9
$OLESTARTUP
290
     0
  0
ENDSEC
  0
SECTION
  2
CLASSES
  0
CLASS
  1
ACDBDICTIONARYWDFLT
  2
AcDbDictionaryWithDefault
  3
ObjectDBX Classes
 90
        0
280
     0
281
     0
  0
CLASS
  1
VISUALSTYLE
  2
AcDbVisualStyle
  3
ObjectDBX Classes
 90
     4095
280
     0
281
     0
  0
CLASS
  1
MATERIAL
  2
AcDbMaterial
  3
ObjectDBX Classes
 90
     1153
280
     0
281
     0
  0
CLASS
  1
ACDBPLACEHOLDER
  2
AcDbPlaceHolder
  3
ObjectDBX Classes
 90
        0
280
     0
281
     0
  0
CLASS
  1
LAYOUT
  2
AcDbLayout
  3
ObjectDBX Classes
 90
        0
280
     0
281
     0
  0
ENDSEC
  0
SECTION
  2
TABLES
  0
TABLE
  2
VPORT
  5
8
330
0
100
AcDbSymbolTable
 70
     1
  0
VPORT
  5
29
330
8
100
AcDbSymbolTableRecord
100
AcDbViewportTableRecord
  2
*Active
 70
     0
 10
0.0
 20
0.0
 11
1.0
 21
1.0
 12
420.5
 22
297.0
 13
0.0
 23
0.0
 14
10.0
 24
10.0
 15
10.0
 25
10.0
 16
0.0
 26
0.0
 36
1.0
 17
0.0
 27
0.0
 37
0.0
 40
594.0
 41
1.4158249158
 42
50.0
 43
0.0
 44
0.0
 50
0.0
 51
0.0
 71
     0
 72
  2000
 73
     1
 74
     3
 75
     0
 76
     0
 77
     0
 78
     0
281
     0
 65
     1
110
0.0
120
0.0
130
0.0
111
1.0
121
0.0
131
0.0
112
0.0
122
1.0
132
0.0
 79
     0
146
0.0
  0
ENDTAB
  0
TABLE
  2
LTYPE
  5
5
330
0
100
AcDbSymbolTable
 70
     6
  0
LTYPE
  5
14
330
5
100
AcDbSymbolTableRecord
100
AcDbLinetypeTableRecord
  2
ByBlock
 70
     0
  3

 72
    65
 73
     0
 40
0.0
  0
LTYPE
  5
15
330
5
100
AcDbSymbolTableRecord
100
AcDbLinetypeTableRecord
  2
ByLayer
 70
     0
  3

 72
    65
 73
     0
 40
0.0
  0
LTYPE
  5
16
330
5
100
AcDbSymbolTableRecord
100
AcDbLinetypeTableRecord
  2
Continuous
 70
     0
  3
Solid line
 72
    65
 73
     0
 40
0.0
  0
LTYPE
  5
3F
330
5
100
AcDbSymbolTableRecord
100
AcDbLinetypeTableRecord
  2
HIDDEN
 70
     0
  3
Hidden __ __ __ __ __ __ __ __ __ __ __ __ __ __
 72
    65
 73
     2
 40
1.905
 49
1.27
 74
     0
 49
-0.635
 74
     0
  0
LTYPE
  5
40
330
5
100
AcDbSymbolTableRecord
100
AcDbLinetypeTableRecord
  2
PHANTOM
 70
     0
  3
Phantom ______  __  __  ______  __  __  ______
 72
    65
 73
     6
 40
12.7
 49
6.35
 74
     0
 49
-1.27
 74
     0
 49
1.27
 74
     0
 49
-1.27
 74
     0
 49
1.27
 74
     0
 49
-1.27
 74
     0
  0
LTYPE
  5
41
330
5
100
AcDbSymbolTableRecord
100
AcDbLinetypeTableRecord
  2
CENTER
 70
     0
  3
Center ____ _ ____ _ ____ _ ____ _ ____ _ ____
 72
    65
 73
     4
 40
10.16
 49
6.35
 74
     0
 49
-1.27
 74
     0
 49
1.27
 74
     0
 49
-1.27
 74
     0
  0
LTYPE
  5
42
330
5
100
AcDbSymbolTableRecord
100
AcDbLinetypeTableRecord
  2
CENTERX2
 70
     0
  3
Center (2x) ________  __  ________  __  _____
 72
    65
 73
     4
 40
20.32
 49
12.7
 74
     0
 49
-2.54
 74
     0
 49
2.54
 74
     0
 49
-2.54
 74
     0
  0
LTYPE
  5
43
330
5
100
AcDbSymbolTableRecord
100
AcDbLinetypeTableRecord
  2
DOT2
 70
     0
  3
Dot (.5x) ........................................
 72
    65
 73
     2
 40
0.635
 49
0.0
 74
     0
 49
-0.635
 74
     0
  0
ENDTAB
  0
TABLE
  2
LAYER
  5
2
330
0
100
AcDbSymbolTable
 70
     3
  0
LAYER
  5
10
330
2
100
AcDbSymbolTableRecord
100
AcDbLayerTableRecord
  2
0
 70
     0
 62
     7
  6
Continuous
370
    -3
390
F
  0
LAYER
  5
44
330
2
100
AcDbSymbolTableRecord
100
AcDbLayerTableRecord
  2
FORMAT
 70
     0
 62
     7
  6
Continuous
370
    -3
390
F
  0
LAYER
  5
45
330
2
100
AcDbSymbolTableRecord
100
AcDbLayerTableRecord
  2
PROTOTYPE
 70
     0
 62
     7
  6
Continuous
370
    -3
390
F
  0
ENDTAB
  0
TABLE
  2
STYLE
  5
3
330
0
100
AcDbSymbolTable
 70
     1
  0
STYLE
  5
11
330
3
100
AcDbSymbolTableRecord
100
AcDbTextStyleTableRecord
  2
Standard
 70
     0
 40
0.0
 41
1.0
 50
0.0
 71
     0
 42
2.5
  3
txt
  4

  0
ENDTAB
  0
TABLE
  2
VIEW
  5
6
330
0
100
AcDbSymbolTable
 70
     0
  0
ENDTAB
  0
TABLE
  2
UCS
  5
7
330
0
100
AcDbSymbolTable
 70
     0
  0
ENDTAB
  0
TABLE
  2
APPID
  5
9
330
0
100
AcDbSymbolTable
 70
     1
  0
APPID
  5
12
330
9
100
AcDbSymbolTableRecord
100
AcDbRegAppTableRecord
  2
ACAD
 70
     0
  0
ENDTAB
  0
TABLE
  2
DIMSTYLE
  5
A
330
0
100
AcDbSymbolTable
 70
     1
100
AcDbDimStyleTable
  0
DIMSTYLE
105
27
330
A
100
AcDbSymbolTableRecord
100
AcDbDimStyleTableRecord
  2
ISO-25
 70
     0
 41
2.5
 42
0.625
 43
3.75
 44
1.25
 73
     0
 74
     0
 77
     1
 78
     8
140
2.5
141
2.5
143
0.0393700787
147
0.625
171
     3
172
     1
178
     0
271
     2
272
     2
274
     3
278
    44
283
     0
284
     8
340
11
  0
ENDTAB
  0
TABLE
  2
BLOCK_RECORD
  5
1
330
0
100
AcDbSymbolTable
 70
     2
  0
BLOCK_RECORD
  5
1F
330
1
100
AcDbSymbolTableRecord
100
AcDbBlockTableRecord
  2
*Model_Space
340
22
  0
BLOCK_RECORD
  5
1B
330
1
100
AcDbSymbolTableRecord
100
AcDbBlockTableRecord
  2
*Paper_Space
340
1E
  0
BLOCK_RECORD
  5
23
330
1
100
AcDbSymbolTableRecord
100
AcDbBlockTableRecord
  2
*Paper_Space0
340
26
  0
BLOCK_RECORD
  5
68
330
1
100
AcDbSymbolTableRecord
100
AcDbBlockTableRecord
  2
SW_CENTERMARKSYMBOL_0
340
0
102
{BLKREFS
331
153
102
}
  0
ENDTAB
  0
ENDSEC
  0
SECTION
  2
BLOCKS
  0
BLOCK
  5
20
330
1F
100
AcDbEntity
  8
0
100
AcDbBlockBegin
  2
*Model_Space
 70
     0
 10
0.0
 20
0.0
 30
0.0
  3
*Model_Space
  1

  0
ENDBLK
  5
21
330
1F
100
AcDbEntity
  8
0
100
AcDbBlockEnd
  0
BLOCK
  5
1C
330
1B
100
AcDbEntity
 67
     1
  8
0
100
AcDbBlockBegin
  2
*Paper_Space
 70
     0
 10
0.0
 20
0.0
 30
0.0
  3
*Paper_Space
  1

  0
ENDBLK
  5
1D
330
1B
100
AcDbEntity
 67
     1
  8
0
100
AcDbBlockEnd
  0
BLOCK
  5
24
330
23
100
AcDbEntity
  8
0
100
AcDbBlockBegin
  2
*Paper_Space0
 70
     0
 10
0.0
 20
0.0
 30
0.0
  3
*Paper_Space0
  1

  0
ENDBLK
  5
25
330
23
100
AcDbEntity
  8
0
100
AcDbBlockEnd
  0
BLOCK
  5
69
330
68
100
AcDbEntity
  8
0
100
AcDbBlockBegin
  2
SW_CENTERMARKSYMBOL_0
 70
     0
 10
0.0
 20
0.0
 30
0.0
  3
SW_CENTERMARKSYMBOL_0
  1

  0
ARC
  5
6B
330
68
100
AcDbEntity
  8
FORMAT
 62
     0
100
AcDbCircle
 10
-62.2408841093
 20
-631.9423014369
 30
0.0
 40
635.0000000000092
100
AcDbArc
 50
84.375
 51
84.6005739351
  0
ARC
  5
6C
330
68
100
AcDbEntity
  8
FORMAT
 62
     0
100
AcDbCircle
 10
-62.2408841093
 20
-631.9423014369
 30
0.0
 40
635.0000000000093
100
AcDbArc
 50
84.1494260649
 51
84.375
  0
ARC
  5
6D
330
68
100
AcDbEntity
  8
FORMAT
 62
     0
100
AcDbCircle
 10
-62.2408841093
 20
-631.9423014369
 30
0.0
 40
635.0000000000092
100
AcDbArc
 50
73.125
 51
73.3505739351
  0
ARC
  5
6E
330
68
100
AcDbEntity
  8
FORMAT
 62
     0
100
AcDbCircle
 10
-62.2408841093
 20
-631.9423014369
 30
0.0
 40
635.0000000000091
100
AcDbArc
 50
72.8994260649
 51
73.125
  0
ARC
  5
6F
330
68
100
AcDbEntity
  8
FORMAT
 62
     0
100
AcDbCircle
 10
-62.2408841093
 20
-631.9423014369
 30
0.0
 40
635.0000000000092
100
AcDbArc
 50
61.875
 51
62.1005739351
  0
ARC
  5
70
330
68
100
AcDbEntity
  8
FORMAT
 62
     0
100
AcDbCircle
 10
-62.2408841093
 20
-631.9423014369
 30
0.0
 40
635.0000000000091
100
AcDbArc
 50
61.6494260649
 51
61.875
  0
ARC
  5
71
330
68
100
AcDbEntity
  8
FORMAT
 62
     0
100
AcDbCircle
 10
-62.2408841093
 20
-631.9423014369
 30
0.0
 40
635.0000000000086
100
AcDbArc
 50
50.625
 51
50.8505739351
  0
ARC
  5
72
330
68
100
AcDbEntity
  8
FORMAT
 62
     0
100
AcDbCircle
 10
-62.2408841093
 20
-631.9423014369
 30
0.0
 40
635.0000000000086
100
AcDbArc
 50
50.3994260649
 51
50.625
  0
ARC
  5
73
330
68
100
AcDbEntity
  8
FORMAT
 62
     0
100
AcDbCircle
 10
-62.2408841093
 20
-631.9423014369
 30
0.0
 40
635.000000000008
100
AcDbArc
 50
39.375
 51
39.6005739351
  0
ARC
  5
74
330
68
100
AcDbEntity
  8
FORMAT
 62
     0
100
AcDbCircle
 10
-62.2408841093
 20
-631.9423014369
 30
0.0
 40
635.000000000008
100
AcDbArc
 50
39.1494260649
 51
39.375
  0
ARC
  5
75
330
68
100
AcDbEntity
  8
FORMAT
 62
     0
100
AcDbCircle
 10
-62.2408841093
 20
-631.9423014369
 30
0.0
 40
635.000000000007
100
AcDbArc
 50
28.125
 51
28.3505739351
  0
ARC
  5
76
330
68
100
AcDbEntity
  8
FORMAT
 62
     0
100
AcDbCircle
 10
-62.2408841093
 20
-631.9423014369
 30
0.0
 40
635.000000000007
100
AcDbArc
 50
27.8994260649
 51
28.125
  0
ARC
  5
77
330
68
100
AcDbEntity
  8
FORMAT
 62
     0
100
AcDbCircle
 10
-62.2408841093
 20
-631.9423014369
 30
0.0
 40
635.0000000000058
100
AcDbArc
 50
16.875
 51
17.1005739351
  0
ARC
  5
78
330
68
100
AcDbEntity
  8
FORMAT
 62
     0
100
AcDbCircle
 10
-62.2408841093
 20
-631.9423014369
 30
0.0
 40
635.0000000000057
100
AcDbArc
 50
16.6494260649
 51
16.875
  0
ARC
  5
79
330
68
100
AcDbEntity
  8
FORMAT
 62
     0
100
AcDbCircle
 10
-62.2408841093
 20
-631.9423014369
 30
0.0
 40
635.0000000000044
100
AcDbArc
 50
5.625
 51
5.8505739351
  0
ARC
  5
7A
330
68
100
AcDbEntity
  8
FORMAT
 62
     0
100
AcDbCircle
 10
-62.2408841093
 20
-631.9423014369
 30
0.0
 40
635.0000000000044
100
AcDbArc
 50
5.3994260649
 51
5.625
  0
ARC
  5
7B
330
68
100
AcDbEntity
  8
FORMAT
 62
     0
100
AcDbCircle
 10
-62.2408841093
 20
-631.9423014369
 30
0.0
 40
635.000000000003
100
AcDbArc
 50
354.375
 51
354.6005739351
  0
ARC
  5
7C
330
68
100
AcDbEntity
  8
FORMAT
 62
     0
100
AcDbCircle
 10
-62.2408841093
 20
-631.9423014369
 30
0.0
 40
635.000000000003
100
AcDbArc
 50
354.1494260649
 51
354.375
  0
ARC
  5
7D
330
68
100
AcDbEntity
  8
FORMAT
 62
     0
100
AcDbCircle
 10
-62.2408841093
 20
-631.9423014369
 30
0.0
 40
635.0000000000014
100
AcDbArc
 50
343.125
 51
343.3505739351
  0
ARC
  5
7E
330
68
100
AcDbEntity
  8
FORMAT
 62
     0
100
AcDbCircle
 10
-62.2408841093
 20
-631.9423014369
 30
0.0
 40
635.0000000000015
100
AcDbArc
 50
342.8994260649
 51
343.125
  0
ARC
  5
7F
330
68
100
AcDbEntity
  8
FORMAT
 62
     0
100
AcDbCircle
 10
-62.2408841093
 20
-631.9423014369
 30
0.0
 40
634.9999999999998
100
AcDbArc
 50
331.875
 51
332.1005739351
  0
ARC
  5
80
330
68
100
AcDbEntity
  8
FORMAT
 62
     0
100
AcDbCircle
 10
-62.2408841093
 20
-631.9423014369
 30
0.0
 40
634.9999999999999
100
AcDbArc
 50
331.6494260649
 51
331.875
  0
ARC
  5
81
330
68
100
AcDbEntity
  8
FORMAT
 62
     0
100
AcDbCircle
 10
-62.2408841093
 20
-631.9423014369
 30
0.0
 40
634.9999999999986
100
AcDbArc
 50
320.625
 51
320.8505739351
  0
ARC
  5
82
330
68
100
AcDbEntity
  8
FORMAT
 62
     0
100
AcDbCircle
 10
-62.2408841093
 20
-631.9423014369
 30
0.0
 40
634.9999999999986
100
AcDbArc
 50
320.3994260649
 51
320.625
  0
ARC
  5
83
330
68
100
AcDbEntity
  8
FORMAT
 62
     0
100
AcDbCircle
 10
-62.2408841093
 20
-631.9423014369
 30
0.0
 40
634.9999999999972
100
AcDbArc
 50
309.375
 51
309.6005739351
  0
ARC
  5
84
330
68
100
AcDbEntity
  8
FORMAT
 62
     0
100
AcDbCircle
 10
-62.2408841093
 20
-631.9423014369
 30
0.0
 40
634.9999999999974
100
AcDbArc
 50
309.1494260649
 51
309.375
  0
ARC
  5
85
330
68
100
AcDbEntity
  8
FORMAT
 62
     0
100
AcDbCircle
 10
-62.2408841093
 20
-631.9423014369
 30
0.0
 40
634.999999999996
100
AcDbArc
 50
298.125
 51
298.3505739351
  0
ARC
  5
86
330
68
100
AcDbEntity
  8
FORMAT
 62
     0
100
AcDbCircle
 10
-62.2408841093
 20
-631.9423014369
 30
0.0
 40
634.999999999996
100
AcDbArc
 50
297.8994260649
 51
298.125
  0
ARC
  5
87
330
68
100
AcDbEntity
  8
FORMAT
 62
     0
100
AcDbCircle
 10
-62.2408841093
 20
-631.9423014369
 30
0.0
 40
634.9999999999951
100
AcDbArc
 50
286.875
 51
287.1005739351
  0
ARC
  5
88
330
68
100
AcDbEntity
  8
FORMAT
 62
     0
100
AcDbCircle
 10
-62.2408841093
 20
-631.9423014369
 30
0.0
 40
634.9999999999951
100
AcDbArc
 50
286.6494260649
 51
286.875
  0
ARC
  5
89
330
68
100
AcDbEntity
  8
FORMAT
 62
     0
100
AcDbCircle
 10
-62.2408841093
 20
-631.9423014369
 30
0.0
 40
634.9999999999944
100
AcDbArc
 50
275.625
 51
275.8505739351
  0
ARC
  5
8A
330
68
100
AcDbEntity
  8
FORMAT
 62
     0
100
AcDbCircle
 10
-62.2408841093
 20
-631.9423014369
 30
0.0
 40
634.9999999999944
100
AcDbArc
 50
275.3994260649
 51
275.625
  0
ARC
  5
8B
330
68
100
AcDbEntity
  8
FORMAT
 62
     0
100
AcDbCircle
 10
-62.2408841093
 20
-631.9423014369
 30
0.0
 40
634.9999999999939
100
AcDbArc
 50
264.375
 51
264.6005739351
  0
ARC
  5
8C
330
68
100
AcDbEntity
  8
FORMAT
 62
     0
100
AcDbCircle
 10
-62.2408841093
 20
-631.9423014369
 30
0.0
 40
634.9999999999939
100
AcDbArc
 50
264.1494260649
 51
264.375
  0
ARC
  5
8D
330
68
100
AcDbEntity
  8
FORMAT
 62
     0
100
AcDbCircle
 10
-62.2408841093
 20
-631.9423014369
 30
0.0
 40
634.999999999994
100
AcDbArc
 50
253.125
 51
253.3505739351
  0
ARC
  5
8E
330
68
100
AcDbEntity
  8
FORMAT
 62
     0
100
AcDbCircle
 10
-62.2408841093
 20
-631.9423014369
 30
0.0
 40
634.9999999999939
100
AcDbArc
 50
252.8994260649
 51
253.125
  0
ARC
  5
8F
330
68
100
AcDbEntity
  8
FORMAT
 62
     0
100
AcDbCircle
 10
-62.2408841093
 20
-631.9423014369
 30
0.0
 40
634.9999999999941
100
AcDbArc
 50
241.875
 51
242.1005739351
  0
ARC
  5
90
330
68
100
AcDbEntity
  8
FORMAT
 62
     0
100
AcDbCircle
 10
-62.2408841093
 20
-631.9423014369
 30
0.0
 40
634.9999999999941
100
AcDbArc
 50
241.6494260649
 51
241.875
  0
ARC
  5
91
330
68
100
AcDbEntity
  8
FORMAT
 62
     0
100
AcDbCircle
 10
-62.2408841093
 20
-631.9423014369
 30
0.0
 40
634.9999999999945
100
AcDbArc
 50
230.625
 51
230.8505739351
  0
ARC
  5
92
330
68
100
AcDbEntity
  8
FORMAT
 62
     0
100
AcDbCircle
 10
-62.2408841093
 20
-631.9423014369
 30
0.0
 40
634.9999999999944
100
AcDbArc
 50
230.3994260649
 51
230.625
  0
ARC
  5
93
330
68
100
AcDbEntity
  8
FORMAT
 62
     0
100
AcDbCircle
 10
-62.2408841093
 20
-631.9423014369
 30
0.0
 40
634.9999999999952
100
AcDbArc
 50
219.375
 51
219.6005739351
  0
ARC
  5
94
330
68
100
AcDbEntity
  8
FORMAT
 62
     0
100
AcDbCircle
 10
-62.2408841093
 20
-631.9423014369
 30
0.0
 40
634.9999999999951
100
AcDbArc
 50
219.1494260649
 51
219.375
  0
ARC
  5
95
330
68
100
AcDbEntity
  8
FORMAT
 62
     0
100
AcDbCircle
 10
-62.2408841093
 20
-631.9423014369
 30
0.0
 40
634.9999999999962
100
AcDbArc
 50
208.125
 51
208.3505739351
  0
ARC
  5
96
330
68
100
AcDbEntity
  8
FORMAT
 62
     0
100
AcDbCircle
 10
-62.2408841093
 20
-631.9423014369
 30
0.0
 40
634.9999999999961
100
AcDbArc
 50
207.8994260649
 51
208.125
  0
ARC
  5
97
330
68
100
AcDbEntity
  8
FORMAT
 62
     0
100
AcDbCircle
 10
-62.2408841093
 20
-631.9423014369
 30
0.0
 40
634.9999999999972
100
AcDbArc
 50
196.875
 51
197.1005739351
  0
ARC
  5
98
330
68
100
AcDbEntity
  8
FORMAT
 62
     0
100
AcDbCircle
 10
-62.2408841093
 20
-631.9423014369
 30
0.0
 40
634.9999999999973
100
AcDbArc
 50
196.6494260649
 51
196.875
  0
ARC
  5
99
330
68
100
AcDbEntity
  8
FORMAT
 62
     0
100
AcDbCircle
 10
-62.2408841093
 20
-631.9423014369
 30
0.0
 40
634.9999999999986
100
AcDbArc
 50
185.625
 51
185.8505739351
  0
ARC
  5
9A
330
68
100
AcDbEntity
  8
FORMAT
 62
     0
100
AcDbCircle
 10
-62.2408841093
 20
-631.9423014369
 30
0.0
 40
634.9999999999987
100
AcDbArc
 50
185.3994260649
 51
185.625
  0
ARC
  5
9B
330
68
100
AcDbEntity
  8
FORMAT
 62
     0
100
AcDbCircle
 10
-62.2408841093
 20
-631.9423014369
 30
0.0
 40
635.0000000000001
100
AcDbArc
 50
174.375
 51
174.6005739351
  0
ARC
  5
9C
330
68
100
AcDbEntity
  8
FORMAT
 62
     0
100
AcDbCircle
 10
-62.2408841093
 20
-631.9423014369
 30
0.0
 40
635.0000000000001
100
AcDbArc
 50
174.1494260649
 51
174.375
  0
ARC
  5
9D
330
68
100
AcDbEntity
  8
FORMAT
 62
     0
100
AcDbCircle
 10
-62.2408841093
 20
-631.9423014369
 30
0.0
 40
635.0000000000017
100
AcDbArc
 50
163.125
 51
163.3505739351
  0
ARC
  5
9E
330
68
100
AcDbEntity
  8
FORMAT
 62
     0
100
AcDbCircle
 10
-62.2408841093
 20
-631.9423014369
 30
0.0
 40
635.0000000000017
100
AcDbArc
 50
162.8994260649
 51
163.125
  0
ARC
  5
9F
330
68
100
AcDbEntity
  8
FORMAT
 62
     0
100
AcDbCircle
 10
-62.2408841093
 20
-631.9423014369
 30
0.0
 40
635.0000000000032
100
AcDbArc
 50
151.875
 51
152.1005739351
  0
ARC
  5
A0
330
68
100
AcDbEntity
  8
FORMAT
 62
     0
100
AcDbCircle
 10
-62.2408841093
 20
-631.9423014369
 30
0.0
 40
635.0000000000032
100
AcDbArc
 50
151.6494260649
 51
151.875
  0
ARC
  5
A1
330
68
100
AcDbEntity
  8
FORMAT
 62
     0
100
AcDbCircle
 10
-62.2408841093
 20
-631.9423014369
 30
0.0
 40
635.0000000000047
100
AcDbArc
 50
140.625
 51
140.8505739351
  0
ARC
  5
A2
330
68
100
AcDbEntity
  8
FORMAT
 62
     0
100
AcDbCircle
 10
-62.2408841093
 20
-631.9423014369
 30
0.0
 40
635.0000000000047
100
AcDbArc
 50
140.3994260649
 51
140.625
  0
ARC
  5
A3
330
68
100
AcDbEntity
  8
FORMAT
 62
     0
100
AcDbCircle
 10
-62.2408841093
 20
-631.9423014369
 30
0.0
 40
635.000000000006
100
AcDbArc
 50
129.375
 51
129.6005739351
  0
ARC
  5
A4
330
68
100
AcDbEntity
  8
FORMAT
 62
     0
100
AcDbCircle
 10
-62.2408841093
 20
-631.9423014369
 30
0.0
 40
635.000000000006
100
AcDbArc
 50
129.1494260649
 51
129.375
  0
ARC
  5
A5
330
68
100
AcDbEntity
  8
FORMAT
 62
     0
100
AcDbCircle
 10
-62.2408841093
 20
-631.9423014369
 30
0.0
 40
635.0000000000072
100
AcDbArc
 50
118.125
 51
118.3505739351
  0
ARC
  5
A6
330
68
100
AcDbEntity
  8
FORMAT
 62
     0
100
AcDbCircle
 10
-62.2408841093
 20
-631.9423014369
 30
0.0
 40
635.000000000007
100
AcDbArc
 50
117.8994260649
 51
118.125
  0
ARC
  5
A7
330
68
100
AcDbEntity
  8
FORMAT
 62
     0
100
AcDbCircle
 10
-62.2408841093
 20
-631.9423014369
 30
0.0
 40
635.0000000000082
100
AcDbArc
 50
106.875
 51
107.1005739351
  0
ARC
  5
A8
330
68
100
AcDbEntity
  8
FORMAT
 62
     0
100
AcDbCircle
 10
-62.2408841093
 20
-631.9423014369
 30
0.0
 40
635.0000000000082
100
AcDbArc
 50
106.6494260649
 51
106.875
  0
ARC
  5
A9
330
68
100
AcDbEntity
  8
FORMAT
 62
     0
100
AcDbCircle
 10
-62.2408841093
 20
-631.9423014369
 30
0.0
 40
635.000000000009
100
AcDbArc
 50
95.625
 51
95.8505739351
  0
ARC
  5
AA
330
68
100
AcDbEntity
  8
FORMAT
 62
     0
100
AcDbCircle
 10
-62.2408841093
 20
-631.9423014369
 30
0.0
 40
635.000000000009
100
AcDbArc
 50
95.3994260649
 51
95.625
  0
ARC
  5
AB
330
68
100
AcDbEntity
  8
FORMAT
 62
     0
100
AcDbCircle
 10
-62.2408841093
 20
-631.9423014369
 30
0.0
 40
635.0000000000092
100
AcDbArc
 50
62.3261478702
 51
72.6738521298
  0
ARC
  5
AC
330
68
100
AcDbEntity
  8
FORMAT
 62
     0
100
AcDbCircle
 10
-62.2408841093
 20
-631.9423014369
 30
0.0
 40
635.0000000000093
100
AcDbArc
 50
73.5761478702
 51
83.9238521298
  0
ARC
  5
AD
330
68
100
AcDbEntity
  8
FORMAT
 62
     0
100
AcDbCircle
 10
-62.2408841093
 20
-631.9423014369
 30
0.0
 40
635.0000000000089
100
AcDbArc
 50
51.0761478702
 51
61.4238521298
  0
ARC
  5
AE
330
68
100
AcDbEntity
  8
FORMAT
 62
     0
100
AcDbCircle
 10
-62.2408841093
 20
-631.9423014369
 30
0.0
 40
635.0000000000088
100
AcDbArc
 50
39.8261478702
 51
50.1738521298
  0
ARC
  5
AF
330
68
100
AcDbEntity
  8
FORMAT
 62
     0
100
AcDbCircle
 10
-62.2408841093
 20
-631.9423014369
 30
0.0
 40
635.000000000008
100
AcDbArc
 50
28.5761478702
 51
38.9238521298
  0
ARC
  5
B0
330
68
100
AcDbEntity
  8
FORMAT
 62
     0
100
AcDbCircle
 10
-62.2408841093
 20
-631.9423014369
 30
0.0
 40
635.0000000000068
100
AcDbArc
 50
17.3261478702
 51
27.6738521298
  0
ARC
  5
B1
330
68
100
AcDbEntity
  8
FORMAT
 62
     0
100
AcDbCircle
 10
-62.2408841093
 20
-631.9423014369
 30
0.0
 40
635.0000000000057
100
AcDbArc
 50
6.0761478702
 51
16.4238521298
  0
ARC
  5
B2
330
68
100
AcDbEntity
  8
FORMAT
 62
     0
100
AcDbCircle
 10
-62.2408841093
 20
-631.9423014369
 30
0.0
 40
635.0000000000045
100
AcDbArc
 50
354.8261478702
 51
5.1738521298
  0
ARC
  5
B3
330
68
100
AcDbEntity
  8
FORMAT
 62
     0
100
AcDbCircle
 10
-62.2408841093
 20
-631.9423014369
 30
0.0
 40
635.0000000000028
100
AcDbArc
 50
343.5761478702
 51
353.9238521298
  0
ARC
  5
B4
330
68
100
AcDbEntity
  8
FORMAT
 62
     0
100
AcDbCircle
 10
-62.2408841093
 20
-631.9423014369
 30
0.0
 40
635.0000000000013
100
AcDbArc
 50
332.3261478702
 51
342.6738521298
  0
ARC
  5
B5
330
68
100
AcDbEntity
  8
FORMAT
 62
     0
100
AcDbCircle
 10
-62.2408841093
 20
-631.9423014369
 30
0.0
 40
634.9999999999998
100
AcDbArc
 50
321.0761478702
 51
331.4238521298
  0
ARC
  5
B6
330
68
100
AcDbEntity
  8
FORMAT
 62
     0
100
AcDbCircle
 10
-62.2408841093
 20
-631.9423014369
 30
0.0
 40
634.9999999999985
100
AcDbArc
 50
309.8261478702
 51
320.1738521298
  0
ARC
  5
B7
330
68
100
AcDbEntity
  8
FORMAT
 62
     0
100
AcDbCircle
 10
-62.2408841093
 20
-631.9423014369
 30
0.0
 40
634.9999999999973
100
AcDbArc
 50
298.5761478702
 51
308.9238521298
  0
ARC
  5
B8
330
68
100
AcDbEntity
  8
FORMAT
 62
     0
100
AcDbCircle
 10
-62.2408841093
 20
-631.9423014369
 30
0.0
 40
634.9999999999958
100
AcDbArc
 50
287.3261478702
 51
297.6738521298
  0
ARC
  5
B9
330
68
100
AcDbEntity
  8
FORMAT
 62
     0
100
AcDbCircle
 10
-62.2408841093
 20
-631.9423014369
 30
0.0
 40
634.9999999999948
100
AcDbArc
 50
276.0761478702
 51
286.4238521298
  0
ARC
  5
BA
330
68
100
AcDbEntity
  8
FORMAT
 62
     0
100
AcDbCircle
 10
-62.2408841093
 20
-631.9423014369
 30
0.0
 40
634.9999999999944
100
AcDbArc
 50
264.8261478702
 51
275.1738521298
  0
ARC
  5
BB
330
68
100
AcDbEntity
  8
FORMAT
 62
     0
100
AcDbCircle
 10
-62.2408841093
 20
-631.9423014369
 30
0.0
 40
634.9999999999941
100
AcDbArc
 50
253.5761478702
 51
263.9238521298
  0
ARC
  5
BC
330
68
100
AcDbEntity
  8
FORMAT
 62
     0
100
AcDbCircle
 10
-62.2408841093
 20
-631.9423014369
 30
0.0
 40
634.9999999999939
100
AcDbArc
 50
242.3261478702
 51
252.6738521298
  0
ARC
  5
BD
330
68
100
AcDbEntity
  8
FORMAT
 62
     0
100
AcDbCircle
 10
-62.2408841093
 20
-631.9423014369
 30
0.0
 40
634.9999999999944
100
AcDbArc
 50
231.0761478702
 51
241.4238521298
  0
ARC
  5
BE
330
68
100
AcDbEntity
  8
FORMAT
 62
     0
100
AcDbCircle
 10
-62.2408841093
 20
-631.9423014369
 30
0.0
 40
634.9999999999952
100
AcDbArc
 50
219.8261478702
 51
230.1738521298
  0
ARC
  5
BF
330
68
100
AcDbEntity
  8
FORMAT
 62
     0
100
AcDbCircle
 10
-62.2408841093
 20
-631.9423014369
 30
0.0
 40
634.999999999996
100
AcDbArc
 50
208.5761478702
 51
218.9238521298
  0
ARC
  5
C0
330
68
100
AcDbEntity
  8
FORMAT
 62
     0
100
AcDbCircle
 10
-62.2408841093
 20
-631.9423014369
 30
0.0
 40
634.9999999999972
100
AcDbArc
 50
197.3261478702
 51
207.6738521298
  0
ARC
  5
C1
330
68
100
AcDbEntity
  8
FORMAT
 62
     0
100
AcDbCircle
 10
-62.2408841093
 20
-631.9423014369
 30
0.0
 40
634.9999999999987
100
AcDbArc
 50
186.0761478702
 51
196.4238521298
  0
ARC
  5
C2
330
68
100
AcDbEntity
  8
FORMAT
 62
     0
100
AcDbCircle
 10
-62.2408841093
 20
-631.9423014369
 30
0.0
 40
635.0000000000002
100
AcDbArc
 50
174.8261478702
 51
185.1738521298
  0
ARC
  5
C3
330
68
100
AcDbEntity
  8
FORMAT
 62
     0
100
AcDbCircle
 10
-62.2408841093
 20
-631.9423014369
 30
0.0
 40
635.0000000000017
100
AcDbArc
 50
163.5761478702
 51
173.9238521298
  0
ARC
  5
C4
330
68
100
AcDbEntity
  8
FORMAT
 62
     0
100
AcDbCircle
 10
-62.2408841093
 20
-631.9423014369
 30
0.0
 40
635.0000000000031
100
AcDbArc
 50
152.3261478702
 51
162.6738521298
  0
ARC
  5
C5
330
68
100
AcDbEntity
  8
FORMAT
 62
     0
100
AcDbCircle
 10
-62.2408841093
 20
-631.9423014369
 30
0.0
 40
635.0000000000047
100
AcDbArc
 50
141.0761478702
 51
151.4238521298
  0
ARC
  5
C6
330
68
100
AcDbEntity
  8
FORMAT
 62
     0
100
AcDbCircle
 10
-62.2408841093
 20
-631.9423014369
 30
0.0
 40
635.0000000000059
100
AcDbArc
 50
129.8261478702
 51
140.1738521298
  0
ARC
  5
C7
330
68
100
AcDbEntity
  8
FORMAT
 62
     0
100
AcDbCircle
 10
-62.2408841093
 20
-631.9423014369
 30
0.0
 40
635.000000000007
100
AcDbArc
 50
118.5761478702
 51
128.9238521298
  0
ARC
  5
C8
330
68
100
AcDbEntity
  8
FORMAT
 62
     0
100
AcDbCircle
 10
-62.2408841093
 20
-631.9423014369
 30
0.0
 40
635.0000000000078
100
AcDbArc
 50
107.3261478702
 51
117.6738521298
  0
ARC
  5
C9
330
68
100
AcDbEntity
  8
FORMAT
 62
     0
100
AcDbCircle
 10
-62.2408841093
 20
-631.9423014369
 30
0.0
 40
635.0000000000091
100
AcDbArc
 50
84.8261478702
 51
95.1738521298
  0
ARC
  5
CA
330
68
100
AcDbEntity
  8
FORMAT
 62
     0
100
AcDbCircle
 10
-62.2408841093
 20
-631.9423014369
 30
0.0
 40
635.0000000000089
100
AcDbArc
 50
96.0761478702
 51
106.4238521298
  0
LINE
  5
CB
330
68
100
AcDbEntity
  8
FORMAT
 62
     0
100
AcDbLine
 10
0.0
 20
0.0
 30
0.0
 11
0.2450428508
 21
2.4879618167
 31
0.0
  0
LINE
  5
CC
330
68
100
AcDbEntity
  8
FORMAT
 62
     0
100
AcDbLine
 10
0.0
 20
0.0
 30
0.0
 11
-0.2450428508
 21
-2.4879618167
 31
0.0
  0
LINE
  5
CD
330
68
100
AcDbEntity
  8
FORMAT
 62
     0
100
AcDbLine
 10
0.4900857016
 20
4.9759236334
 30
0.0
 11
2.3524113679
 21
23.8844334401
 31
0.0
  0
LINE
  5
CE
330
68
100
AcDbEntity
  8
FORMAT
 62
     0
100
AcDbLine
 10
-0.4900857016
 20
-4.9759236334
 30
0.0
 11
-2.3524113679
 21
-23.8844334401
 31
0.0
  0
LINE
  5
CF
330
68
100
AcDbEntity
  8
FORMAT
 62
     0
100
AcDbLine
 10
122.0898859473
 20
-24.2851882469
 30
0.0
 11
122.8155976404
 21
-21.8928374076
 31
0.0
  0
LINE
  5
D0
330
68
100
AcDbEntity
  8
FORMAT
 62
     0
100
AcDbLine
 10
122.0898859473
 20
-24.2851882469
 30
0.0
 11
121.3641742542
 21
-26.6775390862
 31
0.0
  0
LINE
  5
D1
330
68
100
AcDbEntity
  8
FORMAT
 62
     0
100
AcDbLine
 10
123.5413093336
 20
-19.5004865682
 30
0.0
 11
129.0567182014
 21
-1.3186201893
 31
0.0
  0
LINE
  5
D2
330
68
100
AcDbEntity
  8
FORMAT
 62
     0
100
AcDbLine
 10
120.638462561
 20
-29.0698899256
 30
0.0
 11
115.1230536932
 21
-47.2517563045
 31
0.0
  0
LINE
  5
D3
330
68
100
AcDbEntity
  8
FORMAT
 62
     0
100
AcDbLine
 10
237.0960437752
 20
-71.9222985756
 30
0.0
 11
238.2745356173
 21
-69.7174954148
 31
0.0
  0
LINE
  5
D4
330
68
100
AcDbEntity
  8
FORMAT
 62
     0
100
AcDbLine
 10
237.0960437752
 20
-71.9222985756
 30
0.0
 11
235.9175519332
 21
-74.1271017365
 31
0.0
  0
LINE
  5
D5
330
68
100
AcDbEntity
  8
FORMAT
 62
     0
100
AcDbLine
 10
239.4530274594
 20
-67.5126922539
 30
0.0
 11
248.4095654591
 21
-50.7561882313
 31
0.0
  0
LINE
  5
D6
330
68
100
AcDbEntity
  8
FORMAT
 62
     0
100
AcDbLine
 10
234.7390600911
 20
-76.3319048974
 30
0.0
 11
225.7825220914
 21
-93.08840892
 31
0.0
  0
LINE
  5
D7
330
68
100
AcDbEntity
  8
FORMAT
 62
     0
100
AcDbLine
 10
-62.2408841093
 20
-631.9423014369
 30
0.0
 11
-62.2408841093
 21
-629.4423014369
 31
0.0
  0
LINE
  5
D8
330
68
100
AcDbEntity
  8
FORMAT
 62
     0
100
AcDbLine
 10
-62.2408841093
 20
-631.9423014369
 30
0.0
 11
-64.7408841093
 21
-631.9423014369
 31
0.0
  0
LINE
  5
D9
330
68
100
AcDbEntity
  8
FORMAT
 62
     0
100
AcDbLine
 10
-62.2408841093
 20
-631.9423014369
 30
0.0
 11
-62.2408841093
 21
-634.4423014369
 31
0.0
  0
LINE
  5
DA
330
68
100
AcDbEntity
  8
FORMAT
 62
     0
100
AcDbLine
 10
-62.2408841093
 20
-631.9423014369
 30
0.0
 11
-59.7408841093
 21
-631.9423014369
 31
0.0
  0
LINE
  5
DB
330
68
100
AcDbEntity
  8
FORMAT
 62
     0
100
AcDbLine
 10
-62.2408841093
 20
-626.9423014369
 30
0.0
 11
-62.2408841093
 21
2.5
 31
0.0
  0
LINE
  5
DC
330
68
100
AcDbEntity
  8
FORMAT
 62
     0
100
AcDbLine
 10
-67.2408841093
 20
-631.9423014369
 30
0.0
 11
-696.6831855461
 21
-631.9423014369
 31
0.0
  0
LINE
  5
DD
330
68
100
AcDbEntity
  8
FORMAT
 62
     0
100
AcDbLine
 10
-62.2408841093
 20
-636.9423014369
 30
0.0
 11
-62.2408841093
 21
-1266.3846028737
 31
0.0
  0
LINE
  5
DE
330
68
100
AcDbEntity
  8
FORMAT
 62
     0
100
AcDbLine
 10
-57.2408841093
 20
-631.9423014369
 30
0.0
 11
572.2014173276
 21
-631.9423014369
 31
0.0
  0
LINE
  5
DF
330
68
100
AcDbEntity
  8
FORMAT
 62
     0
100
AcDbLine
 10
340.5988513346
 20
-141.0806635515
 30
0.0
 11
342.1848345451
 21
-139.1481374181
 31
0.0
  0
LINE
  5
E0
330
68
100
AcDbEntity
  8
FORMAT
 62
     0
100
AcDbLine
 10
340.5988513346
 20
-141.0806635515
 30
0.0
 11
339.0128681242
 21
-143.0131896849
 31
0.0
  0
LINE
  5
E1
330
68
100
AcDbEntity
  8
FORMAT
 62
     0
100
AcDbLine
 10
343.7708177555
 20
-137.2156112847
 30
0.0
 11
355.8242901546
 21
-122.5284126708
 31
0.0
  0
LINE
  5
E2
330
68
100
AcDbEntity
  8
FORMAT
 62
     0
100
AcDbLine
 10
337.4268849138
 20
-144.9457158183
 30
0.0
 11
325.3734125147
 21
-159.6329144322
 31
0.0
  0
LINE
  5
E3
330
68
100
AcDbEntity
  8
FORMAT
 62
     0
100
AcDbLine
 10
428.6207537761
 20
-229.1025659929
 30
0.0
 11
430.5532799095
 21
-227.5165827825
 31
0.0
  0
LINE
  5
E4
330
68
100
AcDbEntity
  8
FORMAT
 62
     0
100
AcDbLine
 10
428.6207537761
 20
-229.1025659929
 30
0.0
 11
426.6882276427
 21
-230.6885492033
 31
0.0
  0
LINE
  5
E5
330
68
100
AcDbEntity
  8
FORMAT
 62
     0
100
AcDbLine
 10
432.4858060429
 20
-225.9305995721
 30
0.0
 11
447.1730046568
 21
-213.877127173
 31
0.0
  0
LINE
  5
E6
330
68
100
AcDbEntity
  8
FORMAT
 62
     0
100
AcDbLine
 10
424.7557015093
 20
-232.2745324138
 30
0.0
 11
410.0685028954
 21
-244.3280048129
 31
0.0
  0
LINE
  5
E7
330
68
100
AcDbEntity
  8
FORMAT
 62
     0
100
AcDbLine
 10
497.7791187519
 20
-332.6053735523
 30
0.0
 11
499.9839219128
 21
-331.4268817103
 31
0.0
  0
LINE
  5
E8
330
68
100
AcDbEntity
  8
FORMAT
 62
     0
100
AcDbLine
 10
497.7791187519
 20
-332.6053735523
 30
0.0
 11
495.5743155911
 21
-333.7838653944
 31
0.0
  0
LINE
  5
E9
330
68
100
AcDbEntity
  8
FORMAT
 62
     0
100
AcDbLine
 10
502.1887250737
 20
-330.2483898682
 30
0.0
 11
518.9452290963
 21
-321.2918518685
 31
0.0
  0
LINE
  5
EA
330
68
100
AcDbEntity
  8
FORMAT
 62
     0
100
AcDbLine
 10
493.3695124302
 20
-334.9623572365
 30
0.0
 11
476.6130084076
 21
-343.9188952362
 31
0.0
  0
LINE
  5
EB
330
68
100
AcDbEntity
  8
FORMAT
 62
     0
100
AcDbLine
 10
545.4162290807
 20
-447.6115313803
 30
0.0
 11
547.80857992
 21
-446.8858196871
 31
0.0
  0
LINE
  5
EC
330
68
100
AcDbEntity
  8
FORMAT
 62
     0
100
AcDbLine
 10
545.4162290807
 20
-447.6115313803
 30
0.0
 11
543.0238782413
 21
-448.3372430734
 31
0.0
  0
LINE
  5
ED
330
68
100
AcDbEntity
  8
FORMAT
 62
     0
100
AcDbLine
 10
550.2009307593
 20
-446.160107994
 30
0.0
 11
568.3827971382
 21
-440.6446991262
 31
0.0
  0
LINE
  5
EE
330
68
100
AcDbEntity
  8
FORMAT
 62
     0
100
AcDbLine
 10
540.631527402
 20
-449.0629547665
 30
0.0
 11
522.4496610231
 21
-454.5783636344
 31
0.0
  0
LINE
  5
EF
330
68
100
AcDbEntity
  8
FORMAT
 62
     0
100
AcDbLine
 10
569.7014173276
 20
-569.7014173276
 30
0.0
 11
572.1893791442
 21
-569.4563744768
 31
0.0
  0
LINE
  5
F0
330
68
100
AcDbEntity
  8
FORMAT
 62
     0
100
AcDbLine
 10
569.7014173276
 20
-569.7014173276
 30
0.0
 11
567.2134555109
 21
-569.9464601784
 31
0.0
  0
LINE
  5
F1
330
68
100
AcDbEntity
  8
FORMAT
 62
     0
100
AcDbLine
 10
574.6773409609
 20
-569.2113316259
 30
0.0
 11
593.5858507677
 21
-567.3490059597
 31
0.0
  0
LINE
  5
F2
330
68
100
AcDbEntity
  8
FORMAT
 62
     0
100
AcDbLine
 10
564.7254936942
 20
-570.1915030292
 30
0.0
 11
545.8169838874
 21
-572.0538286955
 31
0.0
  0
LINE
  5
F3
330
68
100
AcDbEntity
  8
FORMAT
 62
     0
100
AcDbLine
 10
569.7014173276
 20
-694.1831855461
 30
0.0
 11
572.1893791442
 21
-694.4282283969
 31
0.0
  0
LINE
  5
F4
330
68
100
AcDbEntity
  8
FORMAT
 62
     0
100
AcDbLine
 10
569.7014173276
 20
-694.1831855461
 30
0.0
 11
567.2134555109
 21
-693.9381426953
 31
0.0
  0
LINE
  5
F5
330
68
100
AcDbEntity
  8
FORMAT
 62
     0
100
AcDbLine
 10
574.6773409609
 20
-694.6732712478
 30
0.0
 11
593.5858507677
 21
-696.535596914
 31
0.0
  0
LINE
  5
F6
330
68
100
AcDbEntity
  8
FORMAT
 62
     0
100
AcDbLine
 10
564.7254936942
 20
-693.6930998445
 30
0.0
 11
545.8169838874
 21
-691.8307741782
 31
0.0
  0
LINE
  5
F7
330
68
100
AcDbEntity
  8
FORMAT
 62
     0
100
AcDbLine
 10
545.4162290807
 20
-816.2730714934
 30
0.0
 11
547.80857992
 21
-816.9987831866
 31
0.0
  0
LINE
  5
F8
330
68
100
AcDbEntity
  8
FORMAT
 62
     0
100
AcDbLine
 10
545.4162290807
 20
-816.2730714934
 30
0.0
 11
543.0238782413
 21
-815.5473598003
 31
0.0
  0
LINE
  5
F9
330
68
100
AcDbEntity
  8
FORMAT
 62
     0
100
AcDbLine
 10
550.2009307593
 20
-817.7244948797
 30
0.0
 11
568.3827971382
 21
-823.2399037475
 31
0.0
  0
LINE
  5
FA
330
68
100
AcDbEntity
  8
FORMAT
 62
     0
100
AcDbLine
 10
540.631527402
 20
-814.8216481072
 30
0.0
 11
522.4496610231
 21
-809.3062392393
 31
0.0
  0
LINE
  5
FB
330
68
100
AcDbEntity
  8
FORMAT
 62
     0
100
AcDbLine
 10
497.7791187519
 20
-931.2792293214
 30
0.0
 11
499.9839219128
 21
-932.4577211634
 31
0.0
  0
LINE
  5
FC
330
68
100
AcDbEntity
  8
FORMAT
 62
     0
100
AcDbLine
 10
497.7791187519
 20
-931.2792293214
 30
0.0
 11
495.5743155911
 21
-930.1007374793
 31
0.0
  0
LINE
  5
FD
330
68
100
AcDbEntity
  8
FORMAT
 62
     0
100
AcDbLine
 10
502.1887250737
 20
-933.6362130055
 30
0.0
 11
518.9452290963
 21
-942.5927510052
 31
0.0
  0
LINE
  5
FE
330
68
100
AcDbEntity
  8
FORMAT
 62
     0
100
AcDbLine
 10
493.3695124302
 20
-928.9222456372
 30
0.0
 11
476.6130084076
 21
-919.9657076375
 31
0.0
  0
LINE
  5
FF
330
68
100
AcDbEntity
  8
FORMAT
 62
     0
100
AcDbLine
 10
428.6207537761
 20
-1034.7820368808
 30
0.0
 11
430.5532799095
 21
-1036.3680200912
 31
0.0
  0
LINE
  5
100
330
68
100
AcDbEntity
  8
FORMAT
 62
     0
100
AcDbLine
 10
428.6207537761
 20
-1034.7820368808
 30
0.0
 11
426.6882276426
 21
-1033.1960536704
 31
0.0
  0
LINE
  5
101
330
68
100
AcDbEntity
  8
FORMAT
 62
     0
100
AcDbLine
 10
432.4858060429
 20
-1037.9540033016
 30
0.0
 11
447.1730046568
 21
-1050.0074757007
 31
0.0
  0
LINE
  5
102
330
68
100
AcDbEntity
  8
FORMAT
 62
     0
100
AcDbLine
 10
424.7557015092
 20
-1031.61007046
 30
0.0
 11
410.0685028953
 21
-1019.5565980608
 31
0.0
  0
LINE
  5
103
330
68
100
AcDbEntity
  8
FORMAT
 62
     0
100
AcDbLine
 10
340.5988513346
 20
-1122.8039393222
 30
0.0
 11
342.184834545
 21
-1124.7364654556
 31
0.0
  0
LINE
  5
104
330
68
100
AcDbEntity
  8
FORMAT
 62
     0
100
AcDbLine
 10
340.5988513346
 20
-1122.8039393222
 30
0.0
 11
339.0128681242
 21
-1120.8714131888
 31
0.0
  0
LINE
  5
105
330
68
100
AcDbEntity
  8
FORMAT
 62
     0
100
AcDbLine
 10
343.7708177554
 20
-1126.668991589
 30
0.0
 11
355.8242901546
 21
-1141.3561902029
 31
0.0
  0
LINE
  5
106
330
68
100
AcDbEntity
  8
FORMAT
 62
     0
100
AcDbLine
 10
337.4268849138
 20
-1118.9388870554
 30
0.0
 11
325.3734125147
 21
-1104.2516884415
 31
0.0
  0
LINE
  5
107
330
68
100
AcDbEntity
  8
FORMAT
 62
     0
100
AcDbLine
 10
237.0960437752
 20
-1191.9623042981
 30
0.0
 11
238.2745356173
 21
-1194.1671074589
 31
0.0
  0
LINE
  5
108
330
68
100
AcDbEntity
  8
FORMAT
 62
     0
100
AcDbLine
 10
237.0960437752
 20
-1191.9623042981
 30
0.0
 11
235.9175519332
 21
-1189.7575011372
 31
0.0
  0
LINE
  5
109
330
68
100
AcDbEntity
  8
FORMAT
 62
     0
100
AcDbLine
 10
239.4530274594
 20
-1196.3719106198
 30
0.0
 11
248.409565459
 21
-1213.1284146424
 31
0.0
  0
LINE
  5
10A
330
68
100
AcDbEntity
  8
FORMAT
 62
     0
100
AcDbLine
 10
234.7390600911
 20
-1187.5526979763
 30
0.0
 11
225.7825220914
 21
-1170.7961939537
 31
0.0
  0
LINE
  5
10B
330
68
100
AcDbEntity
  8
FORMAT
 62
     0
100
AcDbLine
 10
122.0898859473
 20
-1239.5994146268
 30
0.0
 11
122.8155976404
 21
-1241.9917654661
 31
0.0
  0
LINE
  5
10C
330
68
100
AcDbEntity
  8
FORMAT
 62
     0
100
AcDbLine
 10
122.0898859473
 20
-1239.5994146268
 30
0.0
 11
121.3641742542
 21
-1237.2070637875
 31
0.0
  0
LINE
  5
10D
330
68
100
AcDbEntity
  8
FORMAT
 62
     0
100
AcDbLine
 10
123.5413093336
 20
-1244.3841163055
 30
0.0
 11
129.0567182014
 21
-1262.5659826844
 31
0.0
  0
LINE
  5
10E
330
68
100
AcDbEntity
  8
FORMAT
 62
     0
100
AcDbLine
 10
120.638462561
 20
-1234.8147129481
 30
0.0
 11
115.1230536932
 21
-1216.6328465692
 31
0.0
  0
LINE
  5
10F
330
68
100
AcDbEntity
  8
FORMAT
 62
     0
100
AcDbLine
 10
0.0
 20
-1263.8846028737
 30
0.0
 11
0.2450428508
 21
-1266.3725646904
 31
0.0
  0
LINE
  5
110
330
68
100
AcDbEntity
  8
FORMAT
 62
     0
100
AcDbLine
 10
0.0
 20
-1263.8846028737
 30
0.0
 11
-0.2450428508
 21
-1261.396641057
 31
0.0
  0
LINE
  5
111
330
68
100
AcDbEntity
  8
FORMAT
 62
     0
100
AcDbLine
 10
0.4900857016
 20
-1268.8605265071
 30
0.0
 11
2.3524113679
 21
-1287.7690363138
 31
0.0
  0
LINE
  5
112
330
68
100
AcDbEntity
  8
FORMAT
 62
     0
100
AcDbLine
 10
-0.4900857017
 20
-1258.9086792403
 30
0.0
 11
-2.3524113679
 21
-1240.0001694336
 31
0.0
  0
LINE
  5
113
330
68
100
AcDbEntity
  8
FORMAT
 62
     0
100
AcDbLine
 10
-124.4817682186
 20
-1263.8846028737
 30
0.0
 11
-124.7268110694
 21
-1266.3725646904
 31
0.0
  0
LINE
  5
114
330
68
100
AcDbEntity
  8
FORMAT
 62
     0
100
AcDbLine
 10
-124.4817682186
 20
-1263.8846028737
 30
0.0
 11
-124.2367253677
 21
-1261.396641057
 31
0.0
  0
LINE
  5
115
330
68
100
AcDbEntity
  8
FORMAT
 62
     0
100
AcDbLine
 10
-124.9718539202
 20
-1268.8605265071
 30
0.0
 11
-126.8341795865
 21
-1287.7690363138
 31
0.0
  0
LINE
  5
116
330
68
100
AcDbEntity
  8
FORMAT
 62
     0
100
AcDbLine
 10
-123.9916825169
 20
-1258.9086792403
 30
0.0
 11
-122.1293568506
 21
-1240.0001694336
 31
0.0
  0
LINE
  5
117
330
68
100
AcDbEntity
  8
FORMAT
 62
     0
100
AcDbLine
 10
-246.5716541659
 20
-1239.5994146268
 30
0.0
 11
-247.297365859
 21
-1241.9917654661
 31
0.0
  0
LINE
  5
118
330
68
100
AcDbEntity
  8
FORMAT
 62
     0
100
AcDbLine
 10
-246.5716541659
 20
-1239.5994146268
 30
0.0
 11
-245.8459424727
 21
-1237.2070637875
 31
0.0
  0
LINE
  5
119
330
68
100
AcDbEntity
  8
FORMAT
 62
     0
100
AcDbLine
 10
-248.0230775521
 20
-1244.3841163055
 30
0.0
 11
-253.53848642
 21
-1262.5659826844
 31
0.0
  0
LINE
  5
11A
330
68
100
AcDbEntity
  8
FORMAT
 62
     0
100
AcDbLine
 10
-245.1202307796
 20
-1234.8147129481
 30
0.0
 11
-239.6048219118
 21
-1216.6328465692
 31
0.0
  0
LINE
  5
11B
330
68
100
AcDbEntity
  8
FORMAT
 62
     0
100
AcDbLine
 10
-361.5778119938
 20
-1191.962304298
 30
0.0
 11
-362.7563038359
 21
-1194.1671074589
 31
0.0
  0
LINE
  5
11C
330
68
100
AcDbEntity
  8
FORMAT
 62
     0
100
AcDbLine
 10
-361.5778119938
 20
-1191.962304298
 30
0.0
 11
-360.3993201517
 21
-1189.7575011372
 31
0.0
  0
LINE
  5
11D
330
68
100
AcDbEntity
  8
FORMAT
 62
     0
100
AcDbLine
 10
-363.9347956779
 20
-1196.3719106198
 30
0.0
 11
-372.8913336776
 21
-1213.1284146424
 31
0.0
  0
LINE
  5
11E
330
68
100
AcDbEntity
  8
FORMAT
 62
     0
100
AcDbLine
 10
-359.2208283097
 20
-1187.5526979763
 30
0.0
 11
-350.26429031
 21
-1170.7961939537
 31
0.0
  0
LINE
  5
11F
330
68
100
AcDbEntity
  8
FORMAT
 62
     0
100
AcDbLine
 10
-465.0806195532
 20
-1122.8039393222
 30
0.0
 11
-466.6666027636
 21
-1124.7364654556
 31
0.0
  0
LINE
  5
120
330
68
100
AcDbEntity
  8
FORMAT
 62
     0
100
AcDbLine
 10
-465.0806195532
 20
-1122.8039393222
 30
0.0
 11
-463.4946363428
 21
-1120.8714131888
 31
0.0
  0
LINE
  5
121
330
68
100
AcDbEntity
  8
FORMAT
 62
     0
100
AcDbLine
 10
-468.252585974
 20
-1126.668991589
 30
0.0
 11
-480.3060583731
 21
-1141.3561902029
 31
0.0
  0
LINE
  5
122
330
68
100
AcDbEntity
  8
FORMAT
 62
     0
100
AcDbLine
 10
-461.9086531324
 20
-1118.9388870554
 30
0.0
 11
-449.8551807333
 21
-1104.2516884415
 31
0.0
  0
LINE
  5
123
330
68
100
AcDbEntity
  8
FORMAT
 62
     0
100
AcDbLine
 10
-553.1025219946
 20
-1034.7820368808
 30
0.0
 11
-555.035048128
 21
-1036.3680200912
 31
0.0
  0
LINE
  5
124
330
68
100
AcDbEntity
  8
FORMAT
 62
     0
100
AcDbLine
 10
-553.1025219946
 20
-1034.7820368808
 30
0.0
 11
-551.1699958612
 21
-1033.1960536703
 31
0.0
  0
LINE
  5
125
330
68
100
AcDbEntity
  8
FORMAT
 62
     0
100
AcDbLine
 10
-556.9675742614
 20
-1037.9540033016
 30
0.0
 11
-571.6547728753
 21
-1050.0074757007
 31
0.0
  0
LINE
  5
126
330
68
100
AcDbEntity
  8
FORMAT
 62
     0
100
AcDbLine
 10
-549.2374697278
 20
-1031.6100704599
 30
0.0
 11
-534.5502711139
 21
-1019.5565980608
 31
0.0
  0
LINE
  5
127
330
68
100
AcDbEntity
  8
FORMAT
 62
     0
100
AcDbLine
 10
-622.2608869705
 20
-931.2792293213
 30
0.0
 11
-624.4656901314
 21
-932.4577211634
 31
0.0
  0
LINE
  5
128
330
68
100
AcDbEntity
  8
FORMAT
 62
     0
100
AcDbLine
 10
-622.2608869705
 20
-931.2792293213
 30
0.0
 11
-620.0560838096
 21
-930.1007374793
 31
0.0
  0
LINE
  5
129
330
68
100
AcDbEntity
  8
FORMAT
 62
     0
100
AcDbLine
 10
-626.6704932922
 20
-933.6362130055
 30
0.0
 11
-643.4269973149
 21
-942.5927510052
 31
0.0
  0
LINE
  5
12A
330
68
100
AcDbEntity
  8
FORMAT
 62
     0
100
AcDbLine
 10
-617.8512806487
 20
-928.9222456372
 30
0.0
 11
-601.0947766261
 21
-919.9657076375
 31
0.0
  0
LINE
  5
12B
330
68
100
AcDbEntity
  8
FORMAT
 62
     0
100
AcDbLine
 10
-669.8979972992
 20
-816.2730714934
 30
0.0
 11
-672.2903481386
 21
-816.9987831866
 31
0.0
  0
LINE
  5
12C
330
68
100
AcDbEntity
  8
FORMAT
 62
     0
100
AcDbLine
 10
-669.8979972992
 20
-816.2730714934
 30
0.0
 11
-667.5056464599
 21
-815.5473598003
 31
0.0
  0
LINE
  5
12D
330
68
100
AcDbEntity
  8
FORMAT
 62
     0
100
AcDbLine
 10
-674.6826989779
 20
-817.7244948797
 30
0.0
 11
-692.8645653568
 21
-823.2399037475
 31
0.0
  0
LINE
  5
12E
330
68
100
AcDbEntity
  8
FORMAT
 62
     0
100
AcDbLine
 10
-665.1132956206
 20
-814.8216481071
 30
0.0
 11
-646.9314292417
 21
-809.3062392393
 31
0.0
  0
LINE
  5
12F
330
68
100
AcDbEntity
  8
FORMAT
 62
     0
100
AcDbLine
 10
-694.1831855461
 20
-694.1831855461
 30
0.0
 11
-696.6711473628
 21
-694.4282283969
 31
0.0
  0
LINE
  5
130
330
68
100
AcDbEntity
  8
FORMAT
 62
     0
100
AcDbLine
 10
-694.1831855461
 20
-694.1831855461
 30
0.0
 11
-691.6952237294
 21
-693.9381426953
 31
0.0
  0
LINE
  5
131
330
68
100
AcDbEntity
  8
FORMAT
 62
     0
100
AcDbLine
 10
-699.1591091795
 20
-694.6732712478
 30
0.0
 11
-718.0676189863
 21
-696.535596914
 31
0.0
  0
LINE
  5
132
330
68
100
AcDbEntity
  8
FORMAT
 62
     0
100
AcDbLine
 10
-689.2072619128
 20
-693.6930998445
 30
0.0
 11
-670.298752106
 21
-691.8307741782
 31
0.0
  0
LINE
  5
133
330
68
100
AcDbEntity
  8
FORMAT
 62
     0
100
AcDbLine
 10
-694.1831855461
 20
-569.7014173276
 30
0.0
 11
-696.6711473628
 21
-569.4563744767
 31
0.0
  0
LINE
  5
134
330
68
100
AcDbEntity
  8
FORMAT
 62
     0
100
AcDbLine
 10
-694.1831855461
 20
-569.7014173276
 30
0.0
 11
-691.6952237294
 21
-569.9464601784
 31
0.0
  0
LINE
  5
135
330
68
100
AcDbEntity
  8
FORMAT
 62
     0
100
AcDbLine
 10
-699.1591091795
 20
-569.2113316259
 30
0.0
 11
-718.0676189863
 21
-567.3490059597
 31
0.0
  0
LINE
  5
136
330
68
100
AcDbEntity
  8
FORMAT
 62
     0
100
AcDbLine
 10
-689.2072619128
 20
-570.1915030292
 30
0.0
 11
-670.298752106
 21
-572.0538286955
 31
0.0
  0
LINE
  5
137
330
68
100
AcDbEntity
  8
FORMAT
 62
     0
100
AcDbLine
 10
-669.8979972992
 20
-447.6115313803
 30
0.0
 11
-672.2903481386
 21
-446.8858196871
 31
0.0
  0
LINE
  5
138
330
68
100
AcDbEntity
  8
FORMAT
 62
     0
100
AcDbLine
 10
-669.8979972992
 20
-447.6115313803
 30
0.0
 11
-667.5056464599
 21
-448.3372430734
 31
0.0
  0
LINE
  5
139
330
68
100
AcDbEntity
  8
FORMAT
 62
     0
100
AcDbLine
 10
-674.6826989779
 20
-446.160107994
 30
0.0
 11
-692.8645653568
 21
-440.6446991261
 31
0.0
  0
LINE
  5
13A
330
68
100
AcDbEntity
  8
FORMAT
 62
     0
100
AcDbLine
 10
-665.1132956206
 20
-449.0629547665
 30
0.0
 11
-646.9314292417
 21
-454.5783636344
 31
0.0
  0
LINE
  5
13B
330
68
100
AcDbEntity
  8
FORMAT
 62
     0
100
AcDbLine
 10
-622.2608869705
 20
-332.6053735523
 30
0.0
 11
-624.4656901314
 21
-331.4268817103
 31
0.0
  0
LINE
  5
13C
330
68
100
AcDbEntity
  8
FORMAT
 62
     0
100
AcDbLine
 10
-622.2608869705
 20
-332.6053735523
 30
0.0
 11
-620.0560838096
 21
-333.7838653944
 31
0.0
  0
LINE
  5
13D
330
68
100
AcDbEntity
  8
FORMAT
 62
     0
100
AcDbLine
 10
-626.6704932922
 20
-330.2483898682
 30
0.0
 11
-643.4269973148
 21
-321.2918518685
 31
0.0
  0
LINE
  5
13E
330
68
100
AcDbEntity
  8
FORMAT
 62
     0
100
AcDbLine
 10
-617.8512806487
 20
-334.9623572365
 30
0.0
 11
-601.0947766261
 21
-343.9188952362
 31
0.0
  0
LINE
  5
13F
330
68
100
AcDbEntity
  8
FORMAT
 62
     0
100
AcDbLine
 10
-553.1025219946
 20
-229.1025659929
 30
0.0
 11
-555.035048128
 21
-227.5165827825
 31
0.0
  0
LINE
  5
140
330
68
100
AcDbEntity
  8
FORMAT
 62
     0
100
AcDbLine
 10
-553.1025219946
 20
-229.1025659929
 30
0.0
 11
-551.1699958612
 21
-230.6885492033
 31
0.0
  0
LINE
  5
141
330
68
100
AcDbEntity
  8
FORMAT
 62
     0
100
AcDbLine
 10
-556.9675742614
 20
-225.9305995721
 30
0.0
 11
-571.6547728753
 21
-213.877127173
 31
0.0
  0
LINE
  5
142
330
68
100
AcDbEntity
  8
FORMAT
 62
     0
100
AcDbLine
 10
-549.2374697278
 20
-232.2745324137
 30
0.0
 11
-534.5502711139
 21
-244.3280048129
 31
0.0
  0
LINE
  5
143
330
68
100
AcDbEntity
  8
FORMAT
 62
     0
100
AcDbLine
 10
-465.0806195532
 20
-141.0806635515
 30
0.0
 11
-466.6666027636
 21
-139.1481374181
 31
0.0
  0
LINE
  5
144
330
68
100
AcDbEntity
  8
FORMAT
 62
     0
100
AcDbLine
 10
-465.0806195532
 20
-141.0806635515
 30
0.0
 11
-463.4946363428
 21
-143.0131896849
 31
0.0
  0
LINE
  5
145
330
68
100
AcDbEntity
  8
FORMAT
 62
     0
100
AcDbLine
 10
-468.252585974
 20
-137.2156112847
 30
0.0
 11
-480.3060583731
 21
-122.5284126708
 31
0.0
  0
LINE
  5
146
330
68
100
AcDbEntity
  8
FORMAT
 62
     0
100
AcDbLine
 10
-461.9086531324
 20
-144.9457158183
 30
0.0
 11
-449.8551807333
 21
-159.6329144322
 31
0.0
  0
LINE
  5
147
330
68
100
AcDbEntity
  8
FORMAT
 62
     0
100
AcDbLine
 10
-361.5778119938
 20
-71.9222985756
 30
0.0
 11
-362.7563038358
 21
-69.7174954148
 31
0.0
  0
LINE
  5
148
330
68
100
AcDbEntity
  8
FORMAT
 62
     0
100
AcDbLine
 10
-361.5778119938
 20
-71.9222985756
 30
0.0
 11
-360.3993201517
 21
-74.1271017365
 31
0.0
  0
LINE
  5
149
330
68
100
AcDbEntity
  8
FORMAT
 62
     0
100
AcDbLine
 10
-363.9347956779
 20
-67.5126922539
 30
0.0
 11
-372.8913336776
 21
-50.7561882313
 31
0.0
  0
LINE
  5
14A
330
68
100
AcDbEntity
  8
FORMAT
 62
     0
100
AcDbLine
 10
-359.2208283097
 20
-76.3319048974
 30
0.0
 11
-350.26429031
 21
-93.08840892
 31
0.0
  0
LINE
  5
14B
330
68
100
AcDbEntity
  8
FORMAT
 62
     0
100
AcDbLine
 10
-246.5716541659
 20
-24.2851882469
 30
0.0
 11
-247.297365859
 21
-21.8928374076
 31
0.0
  0
LINE
  5
14C
330
68
100
AcDbEntity
  8
FORMAT
 62
     0
100
AcDbLine
 10
-246.5716541659
 20
-24.2851882469
 30
0.0
 11
-245.8459424727
 21
-26.6775390862
 31
0.0
  0
LINE
  5
14D
330
68
100
AcDbEntity
  8
FORMAT
 62
     0
100
AcDbLine
 10
-248.0230775521
 20
-19.5004865682
 30
0.0
 11
-253.53848642
 21
-1.3186201893
 31
0.0
  0
LINE
  5
14E
330
68
100
AcDbEntity
  8
FORMAT
 62
     0
100
AcDbLine
 10
-245.1202307796
 20
-29.0698899256
 30
0.0
 11
-239.6048219117
 21
-47.2517563045
 31
0.0
  0
LINE
  5
14F
330
68
100
AcDbEntity
  8
FORMAT
 62
     0
100
AcDbLine
 10
-124.4817682185
 20
0.0
 30
0.0
 11
-124.7268110694
 21
2.4879618167
 31
0.0
  0
LINE
  5
150
330
68
100
AcDbEntity
  8
FORMAT
 62
     0
100
AcDbLine
 10
-124.4817682185
 20
0.0
 30
0.0
 11
-124.2367253677
 21
-2.4879618167
 31
0.0
  0
LINE
  5
151
330
68
100
AcDbEntity
  8
FORMAT
 62
     0
100
AcDbLine
 10
-124.9718539202
 20
4.9759236334
 30
0.0
 11
-126.8341795865
 21
23.8844334401
 31
0.0
  0
LINE
  5
152
330
68
100
AcDbEntity
  8
FORMAT
 62
     0
100
AcDbLine
 10
-123.9916825169
 20
-4.9759236334
 30
0.0
 11
-122.1293568506
 21
-23.8844334401
 31
0.0
  0
ENDBLK
  5
6A
330
68
100
AcDbEntity
  8
0
100
AcDbBlockEnd
  0
ENDSEC
  0
SECTION
  2
ENTITIES
  0
CIRCLE
  5
46
330
1F
100
AcDbEntity
  8
0
  6
Continuous
 62
     7
370
    15
100
AcDbCircle
 10
-104.4365241045
 20
1419.4528138651
 30
0.0
 40
21.50000000000001
  0
CIRCLE
  5
47
330
1F
100
AcDbEntity
  8
0
  6
Continuous
 62
     7
370
    15
100
AcDbCircle
 10
132.6595196708
 20
1347.5305152895
 30
0.0
 40
21.50000000000003
  0
CIRCLE
  5
48
330
1F
100
AcDbEntity
  8
0
  6
Continuous
 62
     7
370
    15
100
AcDbCircle
 10
324.1842296716
 20
1190.3502478722
 30
0.0
 40
21.5
  0
CIRCLE
  5
49
330
1F
100
AcDbEntity
  8
0
  6
Continuous
 62
     7
370
    15
100
AcDbCircle
 10
440.9797049762
 20
971.8412824848
 30
0.0
 40
21.49999999999994
  0
CIRCLE
  5
4A
330
1F
100
AcDbEntity
  8
0
  6
Continuous
 62
     7
370
    15
100
AcDbCircle
 10
465.2648932231
 20
725.269628319
 30
0.0
 40
21.5
  0
CIRCLE
  5
4B
330
1F
100
AcDbEntity
  8
0
  6
Continuous
 62
     7
370
    15
100
AcDbCircle
 10
393.3425946475
 20
488.1735845438
 30
0.0
 40
21.49999999999994
  0
CIRCLE
  5
4C
330
1F
100
AcDbEntity
  8
0
  6
Continuous
 62
     7
370
    15
100
AcDbCircle
 10
236.1623272302
 20
296.6488745429
 30
0.0
 40
21.50000000000003
  0
CIRCLE
  5
4D
330
1F
100
AcDbEntity
  8
0
  6
Continuous
 62
     7
370
    15
100
AcDbCircle
 10
17.6533618428
 20
179.8533992383
 30
0.0
 40
21.49999999999999
  0
CIRCLE
  5
4E
330
1F
100
AcDbEntity
  8
0
  6
Continuous
 62
     7
370
    15
100
AcDbCircle
 10
-228.918292323
 20
155.5682109914
 30
0.0
 40
21.50000000000003
  0
CIRCLE
  5
4F
330
1F
100
AcDbEntity
  8
0
  6
Continuous
 62
     7
370
    15
100
AcDbCircle
 10
-466.0143360982
 20
227.4905095671
 30
0.0
 40
21.50000000000006
  0
CIRCLE
  5
50
330
1F
100
AcDbEntity
  8
0
  6
Continuous
 62
     7
370
    15
100
AcDbCircle
 10
-726.6974110749
 20
488.1735845438
 30
0.0
 40
21.49999999999989
  0
CIRCLE
  5
51
330
1F
100
AcDbEntity
  8
0
  6
Continuous
 62
     7
370
    15
100
AcDbCircle
 10
-798.6197096506
 20
725.269628319
 30
0.0
 40
21.5
  0
CIRCLE
  5
52
330
1F
100
AcDbEntity
  8
0
  6
Continuous
 62
     7
370
    15
100
AcDbCircle
 10
-774.3345214037
 20
971.8412824849
 30
0.0
 40
21.49999999999989
  0
CIRCLE
  5
53
330
1F
100
AcDbEntity
  8
0
  6
Continuous
 62
     7
370
    15
100
AcDbCircle
 10
-657.5390460991
 20
1190.3502478722
 30
0.0
 40
21.5
  0
CIRCLE
  5
54
330
1F
100
AcDbEntity
  8
0
  6
Continuous
 62
     7
370
    15
100
AcDbCircle
 10
-466.0143360982
 20
1347.5305152895
 30
0.0
 40
21.5
  0
CIRCLE
  5
55
330
1F
100
AcDbEntity
  8
0
  6
Continuous
 62
     7
370
    15
100
AcDbCircle
 10
-569.5171436577
 20
296.6488745429
 30
0.0
 40
21.49999999999989
  0
CIRCLE
  5
56
330
1F
100
AcDbEntity
  8
0
  6
Continuous
 62
     7
370
    15
100
AcDbCircle
 10
-166.6774082137
 20
787.5105124283
 30
0.0
 40
550.0000000000001
  0
CIRCLE
  5
57
330
1F
100
AcDbEntity
  8
0
  6
Continuous
 62
     7
370
    15
100
AcDbCircle
 10
-166.6774082137
 20
787.5105124283
 30
0.0
 40
677.5
  0
CIRCLE
  5
58
330
1F
100
AcDbEntity
  8
0
  6
Continuous
 62
     7
370
    15
100
AcDbCircle
 10
-228.918292323
 20
1419.4528138651
 30
0.0
 40
21.50000000000003
  0
CIRCLE
  5
59
330
1F
100
AcDbEntity
  8
0
  6
Continuous
 62
     7
370
    15
100
AcDbCircle
 10
-351.0081782703
 20
1395.1676256182
 30
0.0
 40
21.49999999999994
  0
CIRCLE
  5
5A
330
1F
100
AcDbEntity
  8
0
  6
Continuous
 62
     7
370
    15
100
AcDbCircle
 10
-569.5171436576
 20
1278.3721503136
 30
0.0
 40
21.5
  0
CIRCLE
  5
5B
330
1F
100
AcDbEntity
  8
0
  6
Continuous
 62
     7
370
    15
100
AcDbCircle
 10
-726.6974110749
 20
1086.8474403128
 30
0.0
 40
21.5
  0
CIRCLE
  5
5C
330
1F
100
AcDbEntity
  8
0
  6
Continuous
 62
     7
370
    15
100
AcDbCircle
 10
-798.6197096506
 20
849.7513965375
 30
0.0
 40
21.5
  0
CIRCLE
  5
5D
330
1F
100
AcDbEntity
  8
0
  6
Continuous
 62
     7
370
    15
100
AcDbCircle
 10
-774.3345214037
 20
603.1797423717
 30
0.0
 40
21.49999999999989
  0
CIRCLE
  5
5E
330
1F
100
AcDbEntity
  8
0
  6
Continuous
 62
     7
370
    15
100
AcDbCircle
 10
-657.5390460991
 20
384.6707769844
 30
0.0
 40
21.50000000000011
  0
CIRCLE
  5
5F
330
1F
100
AcDbEntity
  8
0
  6
Continuous
 62
     7
370
    15
100
AcDbCircle
 10
-351.0081782703
 20
179.8533992383
 30
0.0
 40
21.49999999999994
  0
CIRCLE
  5
60
330
1F
100
AcDbEntity
  8
0
  6
Continuous
 62
     7
370
    15
100
AcDbCircle
 10
-104.4365241045
 20
155.5682109914
 30
0.0
 40
21.50000000000001
  0
CIRCLE
  5
61
330
1F
100
AcDbEntity
  8
0
  6
Continuous
 62
     7
370
    15
100
AcDbCircle
 10
132.6595196708
 20
227.4905095671
 30
0.0
 40
21.50000000000001
  0
CIRCLE
  5
62
330
1F
100
AcDbEntity
  8
0
  6
Continuous
 62
     7
370
    15
100
AcDbCircle
 10
324.1842296716
 20
384.6707769843
 30
0.0
 40
21.5
  0
CIRCLE
  5
63
330
1F
100
AcDbEntity
  8
0
  6
Continuous
 62
     7
370
    15
100
AcDbCircle
 10
440.9797049762
 20
603.1797423717
 30
0.0
 40
21.49999999999994
  0
CIRCLE
  5
64
330
1F
100
AcDbEntity
  8
0
  6
Continuous
 62
     7
370
    15
100
AcDbCircle
 10
465.2648932231
 20
849.7513965375
 30
0.0
 40
21.5
  0
CIRCLE
  5
65
330
1F
100
AcDbEntity
  8
0
  6
Continuous
 62
     7
370
    15
100
AcDbCircle
 10
393.3425946475
 20
1086.8474403128
 30
0.0
 40
21.49999999999994
  0
CIRCLE
  5
66
330
1F
100
AcDbEntity
  8
0
  6
Continuous
 62
     7
370
    15
100
AcDbCircle
 10
236.1623272302
 20
1278.3721503136
 30
0.0
 40
21.50000000000003
  0
CIRCLE
  5
67
330
1F
100
AcDbEntity
  8
0
  6
Continuous
 62
     7
370
    15
100
AcDbCircle
 10
17.6533618429
 20
1395.1676256182
 30
0.0
 40
21.49999999999999
  0
INSERT
  5
153
330
1F
100
AcDbEntity
  8
FORMAT
100
AcDbBlockReference
  2
SW_CENTERMARKSYMBOL_0
 10
-104.4365241045
 20
1419.4528138651
 30
0.0
  0
LINE
  5
154
330
1F
100
AcDbEntity
  8
0
  6
Continuous
 62
     7
370
    15
100
AcDbLine
 10
945.4851897534
 20
1465.010521965
 30
0.0
 11
915.485190424
 21
1465.010521965
 31
0.0
  0
LINE
  5
155
330
1F
100
AcDbEntity
  8
0
  6
Continuous
 62
     7
370
    15
100
AcDbLine
 10
915.485190424
 20
110.0105028915
 30
0.0
 11
945.4851897534
 21
110.0105028915
 31
0.0
  0
LINE
  5
156
330
1F
100
AcDbEntity
  8
0
  6
Continuous
 62
     7
370
    15
100
AcDbLine
 10
795.4851837929
 20
176.5105109978
 30
0.0
 11
798.7361999329
 21
176.5105109978
 31
0.0
  0
LINE
  5
157
330
1F
100
AcDbEntity
  8
0
  6
Continuous
 62
     7
370
    15
100
AcDbLine
 10
798.7361999329
 20
1398.5105138588
 30
0.0
 11
795.4851837929
 21
1398.5105138588
 31
0.0
  0
ARC
  5
158
330
1F
100
AcDbEntity
  8
0
  6
Continuous
 62
     7
370
    15
100
AcDbCircle
 10
798.7361962313
 20
179.5105124283
 30
0.0
 40
3.000000000000084
100
AcDbArc
 50
270.0
 51
355.0
  0
ARC
  5
159
330
1F
100
AcDbEntity
  8
0
  6
Continuous
 62
     7
370
    15
100
AcDbCircle
 10
798.7361962313
 20
1395.5105124283
 30
0.0
 40
3.000000000000227
100
AcDbArc
 50
5.0
 51
90.0
  0
LINE
  5
15A
330
1F
100
AcDbEntity
  8
0
  6
Continuous
 62
     7
370
    15
100
AcDbLine
 10
792.9851861771
 20
775.510512324
 30
0.0
 11
795.4851837929
 21
775.510512324
 31
0.0
  0
LINE
  5
15B
330
1F
100
AcDbEntity
  8
0
  6
Continuous
 62
     7
370
    15
100
AcDbLine
 10
795.4851837929
 20
799.5105125326
 30
0.0
 11
792.9851861771
 21
799.5105125326
 31
0.0
  0
LINE
  5
15C
330
1F
100
AcDbEntity
  8
0
  6
Continuous
 62
     7
370
    15
100
AcDbLine
 10
801.724776822
 20
179.249046402
 30
0.0
 11
802.1860869702
 21
184.5217924881
 31
0.0
  0
LINE
  5
15D
330
1F
100
AcDbEntity
  8
0
  6
Continuous
 62
     7
370
    15
100
AcDbLine
 10
802.1860869702
 20
1390.4992323685
 30
0.0
 11
801.724776822
 21
1395.7719784546
 31
0.0
  0
LINE
  5
15E
330
1F
100
AcDbEntity
  8
0
  6
Continuous
 62
     7
370
    15
100
AcDbLine
 10
791.7483301934
 20
777.1182079184
 30
0.0
 11
792.9851861771
 21
779.260512473
 31
0.0
  0
LINE
  5
15F
330
1F
100
AcDbEntity
  8
0
  6
Continuous
 62
     7
370
    15
100
AcDbLine
 10
792.9851861771
 20
795.7605123836
 30
0.0
 11
791.7483301934
 21
797.9028169381
 31
0.0
  0
LINE
  5
160
330
1F
100
AcDbEntity
  8
0
  6
Continuous
 62
     7
370
    15
100
AcDbLine
 10
783.8220449265
 20
797.9028169381
 30
0.0
 11
782.5851889428
 21
795.7605123836
 31
0.0
  0
LINE
  5
161
330
1F
100
AcDbEntity
  8
0
  6
Continuous
 62
     7
370
    15
100
AcDbLine
 10
782.5851889428
 20
779.260512473
 30
0.0
 11
783.8220449265
 21
777.1182079184
 31
0.0
  0
LINE
  5
162
330
1F
100
AcDbEntity
  8
0
  6
Continuous
 62
     7
370
    15
100
AcDbLine
 10
782.5851889428
 20
793.5105124804
 30
0.0
 11
747.4851908263
 21
793.5105124804
 31
0.0
  0
LINE
  5
163
330
1F
100
AcDbEntity
  8
0
  6
Continuous
 62
     7
370
    15
100
AcDbLine
 10
747.4851908263
 20
781.5105123761
 30
0.0
 11
782.5851889428
 21
781.5105123761
 31
0.0
  0
LINE
  5
164
330
1F
100
AcDbEntity
  8
0
  6
Continuous
 62
     7
370
    15
100
AcDbLine
 10
915.485190424
 20
793.5105124804
 30
0.0
 11
802.7073444899
 21
793.5105124804
 31
0.0
  0
LINE
  5
165
330
1F
100
AcDbEntity
  8
0
  6
Continuous
 62
     7
370
    15
100
AcDbLine
 10
802.7074040946
 20
781.5105123761
 30
0.0
 11
915.485190424
 21
781.5105123761
 31
0.0
  0
ARC
  5
166
330
1F
100
AcDbEntity
  8
0
  6
Continuous
 62
     7
370
    15
100
AcDbCircle
 10
808.1280269282
 20
195.0699225471
 30
0.0
 40
5.000000000000144
100
AcDbArc
 50
93.0
 51
163.5226866677
  0
ARC
  5
167
330
1F
100
AcDbEntity
  8
0
  6
Continuous
 62
     7
370
    15
100
AcDbCircle
 10
808.1280269282
 20
1379.9511023094
 30
0.0
 40
5.000000000000258
100
AcDbArc
 50
196.4803667118
 51
267.0
  0
LINE
  5
168
330
1F
100
AcDbEntity
  8
0
  6
Continuous
 62
     7
370
    15
100
AcDbLine
 10
807.8663500126
 20
200.0630479622
 30
0.0
 11
833.1160323795
 21
201.3863306808
 31
0.0
  0
LINE
  5
169
330
1F
100
AcDbEntity
  8
0
  6
Continuous
 62
     7
370
    15
100
AcDbLine
 10
833.1160323795
 20
1373.6346941757
 30
0.0
 11
807.8663500126
 21
1374.9579768944
 31
0.0
  0
ARC
  5
16A
330
1F
100
AcDbEntity
  8
0
  6
Continuous
 62
     7
370
    15
100
AcDbCircle
 10
832.9851897534
 20
203.8829238451
 30
0.0
 40
2.499999999999886
100
AcDbArc
 50
273.0
 51
0.0
  0
ARC
  5
16B
330
1F
100
AcDbEntity
  8
0
  6
Continuous
 62
     7
370
    15
100
AcDbCircle
 10
832.9851897534
 20
1371.1381010115
 30
0.0
 40
2.500000000000015
100
AcDbArc
 50
0.0
 51
87.0
  0
LINE
  5
16C
330
1F
100
AcDbEntity
  8
0
  6
Continuous
 62
     7
370
    15
100
AcDbLine
 10
915.485190424
 20
1357.5105052757
 30
0.0
 11
835.4851903494
 21
1357.5105052757
 31
0.0
  0
LINE
  5
16D
330
1F
100
AcDbEntity
  8
0
  6
Continuous
 62
     7
370
    15
100
AcDbLine
 10
835.4851903494
 20
217.5105195808
 30
0.0
 11
915.485190424
 21
217.5105195808
 31
0.0
  0
LINE
  5
16E
330
1F
100
AcDbEntity
  8
0
  6
Continuous
 62
     7
370
    15
100
AcDbLine
 10
792.9851861771
 20
1003.9725285339
 30
0.0
 11
795.4851837929
 21
1003.9725285339
 31
0.0
  0
LINE
  5
16F
330
1F
100
AcDbEntity
  8
0
  6
Continuous
 62
     7
370
    15
100
AcDbLine
 10
795.4851837929
 20
1027.9725175667
 30
0.0
 11
792.9851861771
 21
1027.9725175667
 31
0.0
  0
LINE
  5
170
330
1F
100
AcDbEntity
  8
0
  6
Continuous
 62
     7
370
    15
100
AcDbLine
 10
792.9851861771
 20
547.0485072899
 30
0.0
 11
795.4851837929
 21
547.0485072899
 31
0.0
  0
LINE
  5
171
330
1F
100
AcDbEntity
  8
0
  6
Continuous
 62
     7
370
    15
100
AcDbLine
 10
795.4851837929
 20
571.0484963226
 30
0.0
 11
792.9851861771
 21
571.0484963226
 31
0.0
  0
LINE
  5
172
330
1F
100
AcDbEntity
  8
0
  6
Continuous
 62
     7
370
    15
100
AcDbLine
 10
792.505949932
 20
1006.8924557733
 30
0.0
 11
792.9851861771
 21
1007.7225249576
 31
0.0
  0
LINE
  5
173
330
1F
100
AcDbEntity
  8
0
  6
Continuous
 62
     7
370
    15
100
AcDbLine
 10
792.9851861771
 20
1024.2225211429
 30
0.0
 11
792.505949932
 21
1025.0525903272
 31
0.0
  0
LINE
  5
174
330
1F
100
AcDbEntity
  8
0
  6
Continuous
 62
     7
370
    15
100
AcDbLine
 10
783.065632182
 20
1025.0546764898
 30
0.0
 11
782.5851889428
 21
1024.2225211429
 31
0.0
  0
LINE
  5
175
330
1F
100
AcDbEntity
  8
0
  6
Continuous
 62
     7
370
    15
100
AcDbLine
 10
782.5851889428
 20
1007.7225249576
 30
0.0
 11
783.065632182
 21
1006.8903696108
 31
0.0
  0
LINE
  5
176
330
1F
100
AcDbEntity
  8
0
  6
Continuous
 62
     7
370
    15
100
AcDbLine
 10
792.5047429379
 20
549.9663483667
 30
0.0
 11
792.9851861771
 21
550.7985037136
 31
0.0
  0
LINE
  5
177
330
1F
100
AcDbEntity
  8
0
  6
Continuous
 62
     7
370
    15
100
AcDbLine
 10
792.9851861771
 20
567.2984998989
 30
0.0
 11
792.5047429379
 21
568.1306552458
 31
0.0
  0
LINE
  5
178
330
1F
100
AcDbEntity
  8
0
  6
Continuous
 62
     7
370
    15
100
AcDbLine
 10
783.0644251879
 20
568.1285690832
 30
0.0
 11
782.5851889428
 21
567.2984998989
 31
0.0
  0
LINE
  5
179
330
1F
100
AcDbEntity
  8
0
  6
Continuous
 62
     7
370
    15
100
AcDbLine
 10
782.5851889428
 20
550.7985037136
 30
0.0
 11
783.0644251879
 21
549.9684345293
 31
0.0
  0
LINE
  5
17A
330
1F
100
AcDbEntity
  8
0
  6
Continuous
 62
     7
370
    15
100
AcDbLine
 10
782.5851889428
 20
1021.9725203085
 30
0.0
 11
747.4851908263
 21
1021.9725203085
 31
0.0
  0
LINE
  5
17B
330
1F
100
AcDbEntity
  8
0
  6
Continuous
 62
     7
370
    15
100
AcDbLine
 10
747.4851908263
 20
1009.9725257921
 30
0.0
 11
782.5851889428
 21
1009.9725257921
 31
0.0
  0
LINE
  5
17C
330
1F
100
AcDbEntity
  8
0
  6
Continuous
 62
     7
370
    15
100
AcDbLine
 10
915.485190424
 20
1021.9725203085
 30
0.0
 11
802.507490116
 21
1021.9725203085
 31
0.0
  0
LINE
  5
17D
330
1F
100
AcDbEntity
  8
0
  6
Continuous
 62
     7
370
    15
100
AcDbLine
 10
802.9083462533
 20
1009.9725257921
 30
0.0
 11
915.485190424
 21
1009.9725257921
 31
0.0
  0
LINE
  5
17E
330
1F
100
AcDbEntity
  8
0
  6
Continuous
 62
     7
370
    15
100
AcDbLine
 10
782.5851889428
 20
565.0484990644
 30
0.0
 11
747.4851908263
 21
565.0484990644
 31
0.0
  0
LINE
  5
17F
330
1F
100
AcDbEntity
  8
0
  6
Continuous
 62
     7
370
    15
100
AcDbLine
 10
747.4851908263
 20
553.0485045481
 30
0.0
 11
782.5851889428
 21
553.0485045481
 31
0.0
  0
LINE
  5
180
330
1F
100
AcDbEntity
  8
0
  6
Continuous
 62
     7
370
    15
100
AcDbLine
 10
915.485190424
 20
565.0484990644
 30
0.0
 11
802.9079737242
 21
565.0484990644
 31
0.0
  0
LINE
  5
181
330
1F
100
AcDbEntity
  8
0
  6
Continuous
 62
     7
370
    15
100
AcDbLine
 10
802.5070430812
 20
553.0485045481
 30
0.0
 11
915.485190424
 21
553.0485045481
 31
0.0
  0
LINE
  5
182
330
1F
100
AcDbEntity
  8
0
  6
Continuous
 62
     7
370
    15
100
AcDbLine
 10
792.9851861771
 20
1197.6532619762
 30
0.0
 11
795.4851837929
 21
1197.6532619762
 31
0.0
  0
LINE
  5
183
330
1F
100
AcDbEntity
  8
0
  6
Continuous
 62
     7
370
    15
100
AcDbLine
 10
795.4851837929
 20
1221.653251009
 30
0.0
 11
792.9851861771
 21
1221.653251009
 31
0.0
  0
LINE
  5
184
330
1F
100
AcDbEntity
  8
0
  6
Continuous
 62
     7
370
    15
100
AcDbLine
 10
792.9851861771
 20
353.3677738476
 30
0.0
 11
795.4851837929
 21
353.3677738476
 31
0.0
  0
LINE
  5
185
330
1F
100
AcDbEntity
  8
0
  6
Continuous
 62
     7
370
    15
100
AcDbLine
 10
795.4851837929
 20
377.3677628803
 30
0.0
 11
792.9851861771
 21
377.3677628803
 31
0.0
  0
LINE
  5
186
330
1F
100
AcDbEntity
  8
0
  6
Continuous
 62
     7
370
    15
100
AcDbLine
 10
783.2021566208
 20
1218.9718764591
 30
0.0
 11
782.5851889428
 21
1217.9032545853
 31
0.0
  0
LINE
  5
187
330
1F
100
AcDbEntity
  8
0
  6
Continuous
 62
     7
370
    15
100
AcDbLine
 10
782.5851889428
 20
1201.4032583999
 30
0.0
 11
783.2021566208
 21
1200.3346365261
 31
0.0
  0
LINE
  5
188
330
1F
100
AcDbEntity
  8
0
  6
Continuous
 62
     7
370
    15
100
AcDbLine
 10
792.3665644702
 20
1200.3317755031
 30
0.0
 11
792.9851861771
 21
1201.4032583999
 31
0.0
  0
LINE
  5
189
330
1F
100
AcDbEntity
  8
0
  6
Continuous
 62
     7
370
    15
100
AcDbLine
 10
792.9851861771
 20
1217.9032545853
 30
0.0
 11
792.3665644702
 21
1218.9747374821
 31
0.0
  0
LINE
  5
18A
330
1F
100
AcDbEntity
  8
0
  6
Continuous
 62
     7
370
    15
100
AcDbLine
 10
783.2038106497
 20
374.6892493534
 30
0.0
 11
782.5851889428
 21
373.6177664566
 31
0.0
  0
LINE
  5
18B
330
1F
100
AcDbEntity
  8
0
  6
Continuous
 62
     7
370
    15
100
AcDbLine
 10
782.5851889428
 20
357.1177702713
 30
0.0
 11
783.2038106497
 21
356.0462873745
 31
0.0
  0
LINE
  5
18C
330
1F
100
AcDbEntity
  8
0
  6
Continuous
 62
     7
370
    15
100
AcDbLine
 10
792.3682184991
 20
356.0491483974
 30
0.0
 11
792.9851861771
 21
357.1177702713
 31
0.0
  0
LINE
  5
18D
330
1F
100
AcDbEntity
  8
0
  6
Continuous
 62
     7
370
    15
100
AcDbLine
 10
792.9851861771
 20
373.6177664566
 30
0.0
 11
792.3682184991
 21
374.6863883304
 31
0.0
  0
LINE
  5
18E
330
1F
100
AcDbEntity
  8
0
  6
Continuous
 62
     7
370
    15
100
AcDbLine
 10
782.5851889428
 20
1215.6532686519
 30
0.0
 11
747.4851908263
 21
1215.6532686519
 31
0.0
  0
LINE
  5
18F
330
1F
100
AcDbEntity
  8
0
  6
Continuous
 62
     7
370
    15
100
AcDbLine
 10
747.4851908263
 20
1203.6532741356
 30
0.0
 11
782.5851889428
 21
1203.6532741356
 31
0.0
  0
LINE
  5
190
330
1F
100
AcDbEntity
  8
0
  6
Continuous
 62
     7
370
    15
100
AcDbLine
 10
915.485190424
 20
1215.6532686519
 30
0.0
 11
802.337676483
 21
1215.6532686519
 31
0.0
  0
LINE
  5
191
330
1F
100
AcDbEntity
  8
0
  6
Continuous
 62
     7
370
    15
100
AcDbLine
 10
803.0789645489
 20
1203.6532741356
 30
0.0
 11
915.485190424
 21
1203.6532741356
 31
0.0
  0
LINE
  5
192
330
1F
100
AcDbEntity
  8
0
  6
Continuous
 62
     7
370
    15
100
AcDbLine
 10
782.5851889428
 20
371.367750721
 30
0.0
 11
747.4851908263
 21
371.367750721
 31
0.0
  0
LINE
  5
193
330
1F
100
AcDbEntity
  8
0
  6
Continuous
 62
     7
370
    15
100
AcDbLine
 10
747.4851908263
 20
359.3677562046
 30
0.0
 11
782.5851889428
 21
359.3677562046
 31
0.0
  0
LINE
  5
194
330
1F
100
AcDbEntity
  8
0
  6
Continuous
 62
     7
370
    15
100
AcDbLine
 10
915.485190424
 20
371.367750721
 30
0.0
 11
803.0786665257
 21
371.367750721
 31
0.0
  0
LINE
  5
195
330
1F
100
AcDbEntity
  8
0
  6
Continuous
 62
     7
370
    15
100
AcDbLine
 10
802.3386152562
 20
359.3677562046
 30
0.0
 11
915.485190424
 21
359.3677562046
 31
0.0
  0
LINE
  5
196
330
1F
100
AcDbEntity
  8
0
  6
Continuous
 62
     7
370
    15
100
AcDbLine
 10
792.9851861771
 20
1327.0665984917
 30
0.0
 11
795.4851837929
 21
1327.0665984917
 31
0.0
  0
LINE
  5
197
330
1F
100
AcDbEntity
  8
0
  6
Continuous
 62
     7
370
    15
100
AcDbLine
 10
795.4851837929
 20
1351.0665875244
 30
0.0
 11
792.9851861771
 21
1351.0665875244
 31
0.0
  0
LINE
  5
198
330
1F
100
AcDbEntity
  8
0
  6
Continuous
 62
     7
370
    15
100
AcDbLine
 10
792.9851861771
 20
223.9544373321
 30
0.0
 11
795.4851837929
 21
223.9544373321
 31
0.0
  0
LINE
  5
199
330
1F
100
AcDbEntity
  8
0
  6
Continuous
 62
     7
370
    15
100
AcDbLine
 10
795.4851837929
 20
247.9544263649
 30
0.0
 11
792.9851861771
 21
247.9544263649
 31
0.0
  0
LINE
  5
19A
330
1F
100
AcDbEntity
  8
0
  6
Continuous
 62
     7
370
    15
100
AcDbLine
 10
783.4472211178
 20
1348.80965765
 30
0.0
 11
782.5851889428
 21
1347.316620903
 31
0.0
  0
LINE
  5
19B
330
1F
100
AcDbEntity
  8
0
  6
Continuous
 62
     7
370
    15
100
AcDbLine
 10
782.5851889428
 20
1330.8165651131
 30
0.0
 11
783.4497692164
 21
1329.3191176224
 31
0.0
  0
LINE
  5
19C
330
1F
100
AcDbEntity
  8
0
  6
Continuous
 62
     7
370
    15
100
AcDbLine
 10
792.1207698163
 20
1329.3193560409
 30
0.0
 11
792.9851861771
 21
1330.8165651131
 31
0.0
  0
LINE
  5
19D
330
1F
100
AcDbEntity
  8
0
  6
Continuous
 62
     7
370
    15
100
AcDbLine
 10
792.9851861771
 20
1347.316620903
 30
0.0
 11
792.1231838044
 21
1348.8095980453
 31
0.0
  0
LINE
  5
19E
330
1F
100
AcDbEntity
  8
0
  6
Continuous
 62
     7
370
    15
100
AcDbLine
 10
783.4471913155
 20
245.6974368858
 30
0.0
 11
782.5851889428
 21
244.2044597435
 31
0.0
  0
LINE
  5
19F
330
1F
100
AcDbEntity
  8
0
  6
Continuous
 62
     7
370
    15
100
AcDbLine
 10
782.5851889428
 20
227.7044039535
 30
0.0
 11
783.4496202048
 21
226.2071948814
 31
0.0
  0
LINE
  5
1A0
330
1F
100
AcDbEntity
  8
0
  6
Continuous
 62
     7
370
    15
100
AcDbLine
 10
792.1206208047
 20
226.2069564628
 30
0.0
 11
792.9851861771
 21
227.7044039535
 31
0.0
  0
LINE
  5
1A1
330
1F
100
AcDbEntity
  8
0
  6
Continuous
 62
     7
370
    15
100
AcDbLine
 10
792.9851861771
 20
244.2044597435
 30
0.0
 11
792.1231689032
 21
245.6974964905
 31
0.0
  0
LINE
  5
1A2
330
1F
100
AcDbEntity
  8
0
  6
Continuous
 62
     7
370
    15
100
AcDbLine
 10
782.5851889428
 20
1345.0666051674
 30
0.0
 11
747.4851908263
 21
1345.0666051674
 31
0.0
  0
LINE
  5
1A3
330
1F
100
AcDbEntity
  8
0
  6
Continuous
 62
     7
370
    15
100
AcDbLine
 10
747.4851908263
 20
1333.0665808487
 30
0.0
 11
782.5851889428
 21
1333.0665808487
 31
0.0
  0
LINE
  5
1A4
330
1F
100
AcDbEntity
  8
0
  6
Continuous
 62
     7
370
    15
100
AcDbLine
 10
915.485190424
 20
1345.0666051674
 30
0.0
 11
802.1851034936
 21
1345.0666051674
 31
0.0
  0
LINE
  5
1A5
330
1F
100
AcDbEntity
  8
0
  6
Continuous
 62
     7
370
    15
100
AcDbLine
 10
803.2243402775
 20
1333.0665808487
 30
0.0
 11
915.485190424
 21
1333.0665808487
 31
0.0
  0
LINE
  5
1A6
330
1F
100
AcDbEntity
  8
0
  6
Continuous
 62
     7
370
    15
100
AcDbLine
 10
782.5851889428
 20
241.9544440079
 30
0.0
 11
747.4851908263
 21
241.9544440079
 31
0.0
  0
LINE
  5
1A7
330
1F
100
AcDbEntity
  8
0
  6
Continuous
 62
     7
370
    15
100
AcDbLine
 10
747.4851908263
 20
229.9544196892
 30
0.0
 11
782.5851889428
 21
229.9544196892
 31
0.0
  0
LINE
  5
1A8
330
1F
100
AcDbEntity
  8
0
  6
Continuous
 62
     7
370
    15
100
AcDbLine
 10
915.485190424
 20
241.9544440079
 30
0.0
 11
803.2244147833
 21
241.9544440079
 31
0.0
  0
LINE
  5
1A9
330
1F
100
AcDbEntity
  8
0
  6
Continuous
 62
     7
370
    15
100
AcDbLine
 10
802.2263946112
 20
229.9544196892
 30
0.0
 11
915.485190424
 21
229.9544196892
 31
0.0
  0
LINE
  5
1AA
330
1F
100
AcDbEntity
  8
0
  6
Continuous
 62
     7
370
    15
100
AcDbLine
 10
792.9851861771
 20
1372.5104909706
 30
0.0
 11
795.4851837929
 21
1372.5104909706
 31
0.0
  0
LINE
  5
1AB
330
1F
100
AcDbEntity
  8
0
  6
Continuous
 62
     7
370
    15
100
AcDbLine
 10
795.4851837929
 20
1396.510539608
 30
0.0
 11
792.9851861771
 21
1396.510539608
 31
0.0
  0
LINE
  5
1AC
330
1F
100
AcDbEntity
  8
0
  6
Continuous
 62
     7
370
    15
100
AcDbLine
 10
792.9851861771
 20
178.5104852486
 30
0.0
 11
795.4851837929
 21
178.5104852486
 31
0.0
  0
LINE
  5
1AD
330
1F
100
AcDbEntity
  8
0
  6
Continuous
 62
     7
370
    15
100
AcDbLine
 10
795.4851837929
 20
202.5105338859
 30
0.0
 11
792.9851861771
 21
202.5105338859
 31
0.0
  0
LINE
  5
1AE
330
1F
100
AcDbEntity
  8
0
  6
Continuous
 62
     7
370
    15
100
AcDbLine
 10
783.0182017859
 20
1393.5105186272
 30
0.0
 11
782.5851889428
 21
1392.7605133819
 31
0.0
  0
LINE
  5
1AF
330
1F
100
AcDbEntity
  8
0
  6
Continuous
 62
     7
370
    15
100
AcDbLine
 10
782.5851889428
 20
1376.2605171966
 30
0.0
 11
783.0182017859
 21
1375.5105119514
 31
0.0
  0
LINE
  5
1B0
330
1F
100
AcDbEntity
  8
0
  6
Continuous
 62
     7
370
    15
100
AcDbLine
 10
792.552173334
 20
1375.5105119514
 30
0.0
 11
792.9851861771
 21
1376.2605171966
 31
0.0
  0
LINE
  5
1B1
330
1F
100
AcDbEntity
  8
0
  6
Continuous
 62
     7
370
    15
100
AcDbLine
 10
792.9851861771
 20
1392.7605133819
 30
0.0
 11
792.552173334
 21
1393.5105186272
 31
0.0
  0
LINE
  5
1B2
330
1F
100
AcDbEntity
  8
0
  6
Continuous
 62
     7
370
    15
100
AcDbLine
 10
783.0182017859
 20
199.5105129051
 30
0.0
 11
782.5851889428
 21
198.7605076599
 31
0.0
  0
LINE
  5
1B3
330
1F
100
AcDbEntity
  8
0
  6
Continuous
 62
     7
370
    15
100
AcDbLine
 10
782.5851889428
 20
182.2605114746
 30
0.0
 11
783.0182017859
 21
181.5105062294
 31
0.0
  0
LINE
  5
1B4
330
1F
100
AcDbEntity
  8
0
  6
Continuous
 62
     7
370
    15
100
AcDbLine
 10
792.552173334
 20
181.5105062294
 30
0.0
 11
792.9851861771
 21
182.2605114746
 31
0.0
  0
LINE
  5
1B5
330
1F
100
AcDbEntity
  8
0
  6
Continuous
 62
     7
370
    15
100
AcDbLine
 10
792.9851861771
 20
198.7605076599
 30
0.0
 11
792.552173334
 21
199.5105129051
 31
0.0
  0
LINE
  5
1B6
330
1F
100
AcDbEntity
  8
0
  6
Continuous
 62
     7
370
    15
100
AcDbLine
 10
782.5851889428
 20
1390.5104976463
 30
0.0
 11
747.4851908263
 21
1390.5104976463
 31
0.0
  0
LINE
  5
1B7
330
1F
100
AcDbEntity
  8
0
  6
Continuous
 62
     7
370
    15
100
AcDbLine
 10
747.4851908263
 20
1378.5105329323
 30
0.0
 11
782.5851889428
 21
1378.5105329323
 31
0.0
  0
LINE
  5
1B8
330
1F
100
AcDbEntity
  8
0
  6
Continuous
 62
     7
370
    15
100
AcDbLine
 10
915.485190424
 20
1390.5104976463
 30
0.0
 11
802.1851034936
 21
1390.5104976463
 31
0.0
  0
LINE
  5
1B9
330
1F
100
AcDbEntity
  8
0
  6
Continuous
 62
     7
370
    15
100
AcDbLine
 10
803.3400477942
 20
1378.5105329323
 30
0.0
 11
915.485190424
 21
1378.5105329323
 31
0.0
  0
LINE
  5
1BA
330
1F
100
AcDbEntity
  8
0
  6
Continuous
 62
     7
370
    15
100
AcDbLine
 10
782.5851889428
 20
196.5104919243
 30
0.0
 11
747.4851908263
 21
196.5104919243
 31
0.0
  0
LINE
  5
1BB
330
1F
100
AcDbEntity
  8
0
  6
Continuous
 62
     7
370
    15
100
AcDbLine
 10
747.4851908263
 20
184.5105272102
 30
0.0
 11
782.5851889428
 21
184.5105272102
 31
0.0
  0
LINE
  5
1BC
330
1F
100
AcDbEntity
  8
0
  6
Continuous
 62
     7
370
    15
100
AcDbLine
 10
915.485190424
 20
196.5104919243
 30
0.0
 11
803.3400477942
 21
196.5104919243
 31
0.0
  0
LINE
  5
1BD
330
1F
100
AcDbEntity
  8
0
  6
Continuous
 62
     7
370
    15
100
AcDbLine
 10
802.1851034936
 20
184.5105272102
 30
0.0
 11
915.485190424
 21
184.5105272102
 31
0.0
  0
LINE
  5
1BE
330
1F
100
AcDbEntity
  8
0
  6
Continuous
 62
     7
370
    15
100
AcDbLine
 10
792.1231689032
 20
245.6974964905
 30
0.0
 11
792.1207698163
 21
245.7016688156
 31
0.0
  0
LINE
  5
1BF
330
1F
100
AcDbEntity
  8
0
  6
Continuous
 62
     7
370
    15
100
AcDbLine
 10
783.4497692164
 20
245.7019072342
 30
0.0
 11
783.4471913155
 21
245.6974368858
 31
0.0
  0
LINE
  5
1C0
330
1F
100
AcDbEntity
  8
0
  6
Continuous
 62
     7
370
    15
100
AcDbLine
 10
783.2038106497
 20
1218.9747374821
 30
0.0
 11
783.2021566208
 21
1218.9718764591
 31
0.0
  0
LINE
  5
1C1
330
1F
100
AcDbEntity
  8
0
  6
Continuous
 62
     7
370
    15
100
AcDbLine
 10
792.3665644702
 20
356.0462873745
 30
0.0
 11
792.3682184991
 21
356.0491483974
 31
0.0
  0
LINE
  5
1C2
330
1F
100
AcDbEntity
  8
0
  6
Continuous
 62
     7
370
    15
100
AcDbLine
 10
792.5047429379
 20
1006.8903696108
 30
0.0
 11
792.505949932
 21
1006.8924557733
 31
0.0
  0
LINE
  5
1C3
330
1F
100
AcDbEntity
  8
0
  6
Continuous
 62
     7
370
    15
100
AcDbLine
 10
783.065632182
 20
568.1306552458
 30
0.0
 11
783.0644251879
 21
568.1285690832
 31
0.0
  0
LINE
  5
1C4
330
1F
100
AcDbEntity
  8
0
  6
Continuous
 62
     7
370
    15
100
AcDbLine
 10
945.4851897534
 20
787.5105124283
 30
0.0
 11
945.4851897534
 21
1465.010521965
 31
0.0
  0
LINE
  5
1C5
330
1F
100
AcDbEntity
  8
0
  6
Continuous
 62
     7
370
    15
100
AcDbLine
 10
945.4851897534
 20
110.0105028915
 30
0.0
 11
945.4851897534
 21
787.5105124283
 31
0.0
  0
LINE
  5
1C6
330
1F
100
AcDbEntity
  8
0
  6
Continuous
 62
     7
370
    15
100
AcDbLine
 10
915.485190424
 20
787.5105124283
 30
0.0
 11
915.485190424
 21
1465.010521965
 31
0.0
  0
LINE
  5
1C7
330
1F
100
AcDbEntity
  8
0
  6
Continuous
 62
     7
370
    15
100
AcDbLine
 10
915.485190424
 20
110.0105028915
 30
0.0
 11
915.485190424
 21
787.5105124283
 31
0.0
  0
LINE
  5
1C8
330
1F
100
AcDbEntity
  8
0
  6
Continuous
 62
     7
370
    15
100
AcDbLine
 10
795.4851837929
 20
787.5105124283
 30
0.0
 11
795.4851837929
 21
1398.5105138588
 31
0.0
  0
LINE
  5
1C9
330
1F
100
AcDbEntity
  8
0
  6
Continuous
 62
     7
370
    15
100
AcDbLine
 10
795.4851837929
 20
176.5105109978
 30
0.0
 11
795.4851837929
 21
787.5105124283
 31
0.0
  0
LINE
  5
1CA
330
1F
100
AcDbEntity
  8
0
  6
Continuous
 62
     7
370
    15
100
AcDbLine
 10
792.9851861771
 20
775.510512324
 30
0.0
 11
792.9851861771
 21
799.5105125326
 31
0.0
  0
SPLINE
  5
1CB
330
1F
100
AcDbEntity
  8
0
  6
Continuous
 62
     7
370
    15
100
AcDbSpline
210
0.0
220
0.0
230
1.0
 70
     8
 71
     3
 72
    23
 73
    19
 74
     0
 42
0.00000001
 43
0.00000001
 12
1.0
 22
0.0
 32
0.0
 13
1.0
 23
0.0
 33
0.0
 40
0.0
 40
0.0
 40
0.0
 40
0.0
 40
0.056461650349624
 40
0.1211015950886044
 40
0.1876122393767191
 40
0.2523181678365809
 40
0.3188878224254937
 40
0.3837872747979247
 40
0.450551574542255
 40
0.515685231920478
 40
0.582698352040168
 40
0.6480130761238461
 40
0.7152233893414748
 40
0.7805836979997205
 40
0.8478431065693444
 40
0.9130890285499552
 40
0.9802390630319989
 40
1.0
 40
1.0
 40
1.0
 40
1.0
 10
802.1860720690376
 20
1390.499232368455
 30
0.0
 10
802.1867304838881
 20
1390.491682662523
 30
0.0
 10
802.1881426829319
 20
1390.475489699245
 30
0.0
 10
802.2081129684519
 20
1390.244795768727
 30
0.0
 10
802.2414397623289
 20
1389.86037874257
 30
0.0
 10
802.2886216542406
 20
1389.316427247209
 30
0.0
 10
802.347045715928
 20
1388.643523336219
 30
0.0
 10
802.4163236481279
 20
1387.846743314343
 30
0.0
 10
802.4933329432408
 20
1386.962095721559
 30
0.0
 10
802.5773306991728
 20
1385.998934204011
 30
0.0
 10
802.6645053012624
 20
1385.000554369249
 30
0.0
 10
802.7539609428691
 20
1383.978209485452
 30
0.0
 10
802.8415445968503
 20
1382.978867147416
 30
0.0
 10
802.9262342107725
 20
1382.013935520385
 30
0.0
 10
803.0041026103418
 20
1381.128348450891
 30
0.0
 10
803.0741112873026
 20
1380.333234250337
 30
0.0
 10
803.1198846624529
 20
1379.814132415347
 30
0.0
 10
803.1420159632652
 20
1379.563121932212
 30
0.0
 10
803.1470479544288
 20
1379.506049709306
 30
0.0
  0
SPLINE
  5
1CC
330
1F
100
AcDbEntity
  8
0
  6
Continuous
 62
     7
370
    15
100
AcDbSpline
210
0.0
220
0.0
230
1.0
 70
     8
 71
     3
 72
    26
 73
    22
 74
     0
 42
0.00000001
 43
0.00000001
 12
1.0
 22
0.0
 32
0.0
 13
1.0
 23
0.0
 33
0.0
 40
0.0
 40
0.0
 40
0.0
 40
0.0
 40
0.0159275996882242
 40
0.0730465770872953
 40
0.1299833690038123
 40
0.1869197457271876
 40
0.2437805101598565
 40
0.3006419957737132
 40
0.3575607441660933
 40
0.41448069294532
 40
0.4715720135560643
 40
0.5286648400757947
 40
0.5859687863522395
 40
0.6432687602773228
 40
0.7007306465043713
 40
0.7581913040372034
 40
0.8156897044532397
 40
0.873186305959064
 40
0.9305799176046915
 40
0.9879719406166726
 40
0.9999999999999999
 40
0.9999999999999999
 40
0.9999999999999999
 40
0.9999999999999999
 10
802.2260667856818
 20
1345.049021797166
 30
0.0
 10
802.2225528378633
 20
1345.05396501541
 30
0.0
 10
802.2064372984701
 20
1345.076635422728
 30
0.0
 10
802.1913969643252
 20
1344.947878604909
 30
0.0
 10
802.1825736333864
 20
1344.656620929476
 30
0.0
 10
802.1892935340463
 20
1344.198296406836
 30
0.0
 10
802.2105266096615
 20
1343.595990170641
 30
0.0
 10
802.2455211149851
 20
1342.868097050581
 30
0.0
 10
802.2937067205488
 20
1342.031371709729
 30
0.0
 10
802.3533936912004
 20
1341.112136147111
 30
0.0
 10
802.4233026426257
 20
1340.13365183367
 30
0.0
 10
802.501314900591
 20
1339.123995446744
 30
0.0
 10
802.5854252272289
 20
1338.111886892973
 30
0.0
 10
802.6732717798747
 20
1337.124520871199
 30
0.0
 10
802.7622862616148
 20
1336.192758798235
 30
0.0
 10
802.8500509821612
 20
1335.340243685936
 30
0.0
 10
802.9338444804332
 20
1334.596048979301
 30
0.0
 10
803.0114209554994
 20
1333.976845568358
 30
0.0
 10
803.0800868232727
 20
1333.507377020463
 30
0.0
 10
803.1232977609823
 20
1333.273157504461
 30
0.0
 10
803.1435405848204
 20
1333.190716360514
 30
0.0
 10
803.1470479544288
 20
1333.176432209
 30
0.0
  0
SPLINE
  5
1CD
330
1F
100
AcDbEntity
  8
0
  6
Continuous
 62
     7
370
    15
100
AcDbSpline
210
0.0
220
0.0
230
1.0
 70
     8
 71
     3
 72
    27
 73
    23
 74
     0
 42
0.00000001
 43
0.00000001
 12
1.0
 22
0.0
 32
0.0
 13
1.0
 23
0.0
 33
0.0
 40
0.0
 40
0.0
 40
0.0
 40
0.0
 40
0.0016393928938836
 40
0.0554350101599841
 40
0.1092302702067109
 40
0.1628261469258339
 40
0.2164219572483761
 40
0.2698639169856217
 40
0.3233048740023576
 40
0.3767018494322968
 40
0.4300989779722609
 40
0.4835783329432952
 40
0.5370582765591936
 40
0.5907115960305899
 40
0.6443677242393071
 40
0.6982156059731637
 40
0.7520649628363157
 40
0.80604171799708
 40
0.8600193148377696
 40
0.914002960869684
 40
0.9679857027306576
 40
1.0
 40
1.0
 40
1.0
 40
1.0
 10
802.3376764830238
 20
1215.650705652223
 30
0.0
 10
802.336994583538
 20
1215.651553847489
 30
0.0
 10
802.3139365935552
 20
1215.680235021724
 30
0.0
 10
802.2780539679156
 20
1215.576801721126
 30
0.0
 10
802.232622752954
 20
1215.334304830848
 30
0.0
 10
802.2021862294382
 20
1214.906716599241
 30
0.0
 10
802.1854467376078
 20
1214.339499336614
 30
0.0
 10
802.1837861844905
 20
1213.635962565775
 30
0.0
 10
802.1965540395455
 20
1212.823664705235
 30
0.0
 10
802.2239073154999
 20
1211.920527922132
 30
0.0
 10
802.2645886310174
 20
1210.955088146785
 30
0.0
 10
802.3179418894009
 20
1209.952274979649
 30
0.0
 10
802.3821549041008
 20
1208.940248378485
 30
0.0
 10
802.4558400752621
 20
1207.948274896131
 30
0.0
 10
802.5366997878936
 20
1207.001853837559
 30
0.0
 10
802.6227061286714
 20
1206.131407724961
 30
0.0
 10
802.7113921373793
 20
1205.357547199146
 30
0.0
 10
802.8001543954244
 20
1204.708514481386
 30
0.0
 10
802.8866355387007
 20
1204.195545986514
 30
0.0
 10
802.9676830929246
 20
1203.847934385701
 30
0.0
 10
803.0327884943498
 20
1203.668073806185
 30
0.0
 10
803.0664378376597
 20
1203.668495244286
 30
0.0
 10
803.0789645489341
 20
1203.668652133927
 30
0.0
  0
SPLINE
  5
1CE
330
1F
100
AcDbEntity
  8
0
  6
Continuous
 62
     7
370
    15
100
AcDbSpline
210
0.0
220
0.0
230
1.0
 70
     8
 71
     3
 72
    26
 73
    22
 74
     0
 42
0.00000001
 43
0.00000001
 12
1.0
 22
0.0
 32
0.0
 13
1.0
 23
0.0
 33
0.0
 40
0.0
 40
0.0
 40
0.0
 40
0.0
 40
0.041962038594246
 40
0.0958870085433063
 40
0.1498135265971167
 40
0.2035642843160965
 40
0.257317557095578
 40
0.3108738388677679
 40
0.3644296510571138
 40
0.4178505210002852
 40
0.4712721388214219
 40
0.5246746627911437
 40
0.578079226823064
 40
0.6315896858570054
 40
0.6850998207915749
 40
0.738797279218883
 40
0.7924959324372677
 40
0.8463793309372507
 40
0.900261936838722
 40
0.9542533484301297
 40
1.0
 40
1.0
 40
1.0
 40
1.0
 10
802.5074901159888
 20
1021.957157211289
 30
0.0
 10
802.486398497462
 20
1021.953368846431
 30
0.0
 10
802.4382022640655
 20
1021.944712094143
 30
0.0
 10
802.3714472852621
 20
1021.725822538997
 30
0.0
 10
802.3081593315148
 20
1021.348545807777
 30
0.0
 10
802.2567386003772
 20
1020.809276002333
 30
0.0
 10
802.2179020540934
 20
1020.137596272956
 30
0.0
 10
802.1932775761771
 20
1019.345192733538
 30
0.0
 10
802.182858599088
 20
1018.460818812139
 30
0.0
 10
802.187535225305
 20
1017.505352710368
 30
0.0
 10
802.2064941040042
 20
1016.508625769737
 30
0.0
 10
802.2397815612857
 20
1015.496961433002
 30
0.0
 10
802.2859394392096
 20
1014.498383521602
 30
0.0
 10
802.3442315582744
 20
1013.542110901027
 30
0.0
 10
802.412663214479
 20
1012.651881311983
 30
0.0
 10
802.4897104740027
 20
1011.8568337943
 30
0.0
 10
802.5730420632799
 20
1011.174949826016
 30
0.0
 10
802.6605347384312
 20
1010.630277291753
 30
0.0
 10
802.7494672357632
 20
1010.238518035741
 30
0.0
 10
802.8334333414741
 20
1010.008238062616
 30
0.0
 10
802.8847904118135
 20
1009.991437393536
 30
0.0
 10
802.9083462532645
 20
1009.983731465325
 30
0.0
  0
SPLINE
  5
1CF
330
1F
100
AcDbEntity
  8
0
  6
Continuous
 62
     7
370
    15
100
AcDbSpline
210
0.0
220
0.0
230
1.0
 70
     8
 71
     3
 72
    27
 73
    23
 74
     0
 42
0.00000001
 43
0.00000001
 12
1.0
 22
0.0
 32
0.0
 13
1.0
 23
0.0
 33
0.0
 40
0.0
 40
0.0
 40
0.0
 40
0.0
 40
0.0081287343166189
 40
0.0621169146851401
 40
0.116102459743306
 40
0.1700810615226087
 40
0.2240578059497588
 40
0.2779018086561078
 40
0.3317458973142294
 40
0.3853952475675904
 40
0.4390438749449113
 40
0.4925187481478208
 40
0.5459936599587786
 40
0.5993913494176867
 40
0.6527885828221733
 40
0.7062370750373342
 40
0.75968558138201
 40
0.8132930441098079
 40
0.8668986194363568
 40
0.9207014277663265
 40
0.9745049532024173
 40
1.0
 40
1.0
 40
1.0
 40
1.0
 10
802.7073444899207
 20
793.4994716513014
 30
0.0
 10
802.7028938482437
 20
793.5030095486743
 30
0.0
 10
802.6688836175504
 20
793.5300449099877
 30
0.0
 10
802.6053681327708
 20
793.4138341687632
 30
0.0
 10
802.519864277329
 20
793.1472740967996
 30
0.0
 10
802.4398936079136
 20
792.6997018921836
 30
0.0
 10
802.3675310824087
 20
792.1111825436719
 30
0.0
 10
802.3051668585844
 20
791.3873063924525
 30
0.0
 10
802.2541522284685
 20
790.5564226819139
 30
0.0
 10
802.2163179145849
 20
789.6374576961274
 30
0.0
 10
802.1921673267872
 20
788.6610854431589
 30
0.0
 10
802.1828913364475
 20
787.652276324582
 30
0.0
 10
802.1880581234655
 20
786.6410892673314
 30
0.0
 10
802.208088123036
 20
785.6556560018473
 30
0.0
 10
802.2418451735564
 20
784.7218614556643
 30
0.0
 10
802.2889365109914
 20
783.8685045481213
 30
0.0
 10
802.3476242028943
 20
783.1148430508002
 30
0.0
 10
802.4167154523092
 20
782.4881923720186
 30
0.0
 10
802.4940805837841
 20
781.9970838043049
 30
0.0
 10
802.5777587181351
 20
781.67439845873
 30
0.0
 10
802.6498966637771
 20
781.5130906540059
 30
0.0
 10
802.6934132175187
 20
781.527539710734
 30
0.0
 10
802.7074040945655
 20
781.5321851837492
 30
0.0
  0
SPLINE
  5
1D0
330
1F
100
AcDbEntity
  8
0
  6
Continuous
 62
     7
370
    15
100
AcDbSpline
210
0.0
220
0.0
230
1.0
 70
     8
 71
     3
 72
    27
 73
    23
 74
     0
 42
0.00000001
 43
0.00000001
 12
1.0
 22
0.0
 32
0.0
 13
1.0
 23
0.0
 33
0.0
 40
0.0
 40
0.0
 40
0.0
 40
0.0
 40
0.0304165447323055
 40
0.0842895540726544
 40
0.1381657664505962
 40
0.1921527816380858
 40
0.2461415615540368
 40
0.3001150648686732
 40
0.3540875392126419
 40
0.4079239870421934
 40
0.4617591724682428
 40
0.5153984782598713
 40
0.5690377520015542
 40
0.6225059390498916
 40
0.6759737361987667
 40
0.7293705273782752
 40
0.7827679958044174
 40
0.8362192385450218
 40
0.8896716085445793
 40
0.9432849103570116
 40
0.9968996263380443
 40
1.0
 40
1.0
 40
1.0
 40
1.0
 10
802.9079737242347
 20
565.0272947120524
 30
0.0
 10
802.8925813760612
 20
565.0303243019174
 30
0.0
 10
802.849926492836
 20
565.0387198241896
 30
0.0
 10
802.7747345376921
 20
564.8615422362736
 30
0.0
 10
802.6859468912971
 20
564.5216437752354
 30
0.0
 10
802.5976232550238
 20
564.0140899757606
 30
0.0
 10
802.512483127459
 20
563.3691463839365
 30
0.0
 10
802.433112203672
 20
562.5972144364528
 30
0.0
 10
802.3615386050365
 20
561.7262500398101
 30
0.0
 10
802.3001599196909
 20
560.7772721338382
 30
0.0
 10
802.250223889921
 20
559.7813770608897
 30
0.0
 10
802.2136063397919
 20
558.7648634307151
 30
0.0
 10
802.1907553877492
 20
557.7581373739306
 30
0.0
 10
802.1827454397812
 20
556.7896113852058
 30
0.0
 10
802.1892471100072
 20
555.8849909097542
 30
0.0
 10
802.2105407444411
 20
555.0721368513288
 30
0.0
 10
802.2455109654616
 20
554.3690274594583
 30
0.0
 10
802.2937331984846
 20
553.8018564089253
 30
0.0
 10
802.3532978164927
 20
553.3740004356648
 30
0.0
 10
802.4236608277112
 20
553.1284325369618
 30
0.0
 10
802.4759442253312
 20
553.023415149384
 30
0.0
 10
802.5054311556045
 20
553.0516264208271
 30
0.0
 10
802.507043081153
 20
553.0531686115122
 30
0.0
  0
SPLINE
  5
1D1
330
1F
100
AcDbEntity
  8
0
  6
Continuous
 62
     7
370
    15
100
AcDbSpline
210
0.0
220
0.0
230
1.0
 70
     8
 71
     3
 72
    27
 73
    23
 74
     0
 42
0.00000001
 43
0.00000001
 12
1.0
 22
0.0
 32
0.0
 13
1.0
 23
0.0
 33
0.0
 40
0.0
 40
0.0
 40
0.0
 40
0.0
 40
0.0175538706266741
 40
0.0710818608513082
 40
0.1248071904956501
 40
0.1785323916076206
 40
0.2324417989888052
 40
0.2863497170444296
 40
0.3403487992225609
 40
0.3943449841289504
 40
0.4482988443310705
 40
0.5022510006860781
 40
0.5560484333167425
 40
0.6098455087159786
 40
0.663443194059304
 40
0.717040813003808
 40
0.7704845761712373
 40
0.8239273365843196
 40
0.8773261139264209
 40
0.9307250443837138
 40
0.9842062040468559
 40
1.0
 40
1.0
 40
1.0
 40
1.0
 10
803.0786665257102
 20
371.3486772346354
 30
0.0
 10
803.0721211281013
 20
371.3537804506772
 30
0.0
 10
803.0456164869343
 20
371.3744451861252
 30
0.0
 10
802.9886808026479
 20
371.2393745058657
 30
0.0
 10
802.9101078982297
 20
370.9402439950819
 30
0.0
 10
802.825063709354
 20
370.4736950132379
 30
0.0
 10
802.7369145406975
 20
369.8618573174901
 30
0.0
 10
802.6478682643407
 20
369.1225987006801
 30
0.0
 10
802.5606568235422
 20
368.2736226013221
 30
0.0
 10
802.4776345751159
 20
367.3425749052054
 30
0.0
 10
802.4014274873418
 20
366.3536741820644
 30
0.0
 10
802.333870309787
 20
365.3377342098311
 30
0.0
 10
802.2773180487277
 20
364.3230282155894
 30
0.0
 10
802.2328192933578
 20
363.3390765142201
 30
0.0
 10
802.2021330346768
 20
362.4148209026418
 30
0.0
 10
802.185463219074
 20
361.5743204132225
 30
0.0
 10
802.1837733186507
 20
360.8438765134127
 30
0.0
 10
802.1965890360341
 20
360.2403238338753
 30
0.0
 10
802.2237803046371
 20
359.7812912982577
 30
0.0
 10
802.2650620319478
 20
359.4888984145846
 30
0.0
 10
802.3041604893324
 20
359.3588547243383
 30
0.0
 10
802.3322184118954
 20
359.3807864574857
 30
0.0
 10
802.338615256179
 20
359.3857866096354
 30
0.0
  0
SPLINE
  5
1D2
330
1F
100
AcDbEntity
  8
0
  6
Continuous
 62
     7
370
    15
100
AcDbSpline
210
0.0
220
0.0
230
1.0
 70
     8
 71
     3
 72
    25
 73
    21
 74
     0
 42
0.00000001
 43
0.00000001
 12
1.0
 22
0.0
 32
0.0
 13
1.0
 23
0.0
 33
0.0
 40
0.0
 40
0.0
 40
0.0
 40
0.0
 40
0.054225465418373
 40
0.1112654153128051
 40
0.168307222171945
 40
0.2255612993324852
 40
0.2828183406555173
 40
0.3402536612933256
 40
0.3976896431734424
 40
0.4551891426475507
 40
0.5126910813015761
 40
0.5701154386820275
 40
0.6275414446293769
 40
0.6847802845145078
 40
0.7420218026715638
 40
0.799053546358386
 40
0.8560847899894254
 40
0.9129723344811355
 40
0.969860675383332
 40
1.0
 40
1.0
 40
1.0
 40
1.0
 10
803.1470479544288
 20
241.8445926475382
 30
0.0
 10
803.1303860990821
 20
241.7690865410011
 30
0.0
 10
803.0961975819206
 20
241.6141553064292
 30
0.0
 10
803.0307660431492
 20
241.1832905477642
 30
0.0
 10
802.9561448075507
 20
240.6113676701589
 30
0.0
 10
802.8741634642404
 20
239.9015798970885
 30
0.0
 10
802.787596956085
 20
239.0813754144723
 30
0.0
 10
802.6987247052597
 20
238.169431174596
 30
0.0
 10
802.6101244819956
 20
237.1942801738026
 30
0.0
 10
802.5244562273859
 20
236.1823226847561
 30
0.0
 10
802.4440078605285
 20
235.1636004729003
 30
0.0
 10
802.3713288870536
 20
234.1678573833007
 30
0.0
 10
802.3081903948906
 20
233.2229656832382
 30
0.0
 10
802.2567323197902
 20
232.3582205622764
 30
0.0
 10
802.2178961512469
 20
231.5950088074977
 30
0.0
 10
802.1933073135615
 20
230.9595431801586
 30
0.0
 10
802.1827456298071
 20
230.461480004534
 30
0.0
 10
802.1879562144683
 20
230.1307006345741
 30
0.0
 10
802.2022653193776
 20
229.9613131744139
 30
0.0
 10
802.220187738806
 20
229.9720866860392
 30
0.0
 10
802.2263946112281
 20
229.9758177566385
 30
0.0
  0
SPLINE
  5
1D3
330
1F
100
AcDbEntity
  8
0
  6
Continuous
 62
     7
370
    15
100
AcDbSpline
210
0.0
220
0.0
230
1.0
 70
     8
 71
     3
 72
    23
 73
    19
 74
     0
 42
0.00000001
 43
0.00000001
 12
1.0
 22
0.0
 32
0.0
 13
1.0
 23
0.0
 33
0.0
 40
0.0
 40
0.0
 40
0.0
 40
0.0
 40
0.0649130924101414
 40
0.1317031893948565
 40
0.1967427687906526
 40
0.2636543955964397
 40
0.328862332887414
 40
0.3959542081804148
 40
0.4613034615153733
 40
0.5285472556616057
 40
0.5938794200948835
 40
0.6611176539389778
 40
0.7262880331120874
 40
0.7933603722217978
 40
0.8582948315749243
 40
0.9251238674854946
 40
0.9898503540119865
 40
1.0
 40
1.0
 40
1.0
 40
1.0
 10
803.1470479544288
 20
195.514975147233
 30
0.0
 10
803.1297053874356
 20
195.3183064715379
 30
0.0
 10
803.0945187817679
 20
194.9192823166037
 30
0.0
 10
803.0278003849501
 20
194.1618075263334
 30
0.0
 10
802.952300661511
 20
193.3036793027298
 30
0.0
 10
802.8703953704749
 20
192.3709219740832
 30
0.0
 10
802.7831995274278
 20
191.3768370466714
 30
0.0
 10
802.6946821505701
 20
190.3655181050654
 30
0.0
 10
802.6057896269837
 20
189.3483865124029
 30
0.0
 10
802.5206687305566
 20
188.372556356181
 30
0.0
 10
802.4402151878787
 20
187.4488803482969
 30
0.0
 10
802.3682145256327
 20
186.6211050288952
 30
0.0
 10
802.3053441997339
 20
185.8973425813363
 30
0.0
 10
802.2546863099462
 20
185.3134290966347
 30
0.0
 10
802.2161423019701
 20
184.8688417724942
 30
0.0
 10
802.1932757318599
 20
184.6049565054078
 30
0.0
 10
802.1834395006483
 20
184.4915533972448
 30
0.0
 10
802.1857578156704
 20
184.5181828055566
 30
0.0
 10
802.1860720690376
 20
184.5217924880837
 30
0.0
  0
LINE
  5
1D4
330
1F
100
AcDbEntity
  8
0
  6
Continuous
 62
     7
370
    15
100
AcDbLine
 10
783.8220449265
 20
797.9028169381
 30
0.0
 11
791.7483301934
 21
797.9028169381
 31
0.0
  0
SPLINE
  5
1D5
330
1F
100
AcDbEntity
  8
0
  6
Continuous
 62
     7
370
    15
100
AcDbSpline
210
0.0
220
0.0
230
1.0
 70
     8
 71
     3
 72
    16
 73
    12
 74
     0
 42
0.00000001
 43
0.00000001
 12
1.0
 22
0.0
 32
0.0
 13
1.0
 23
0.0
 33
0.0
 40
0.0
 40
0.0
 40
0.0
 40
0.0
 40
0.2500000000000067
 40
0.2500000000000067
 40
0.5000000000000133
 40
0.5000000000000133
 40
0.6250000000000168
 40
0.6250000000000168
 40
0.7500000000000202
 40
0.7500000000000202
 40
1.0
 40
1.0
 40
1.0
 40
1.0
 10
791.7483294742168
 20
797.9028172736785
 30
0.0
 10
791.9932509887991
 20
797.4786007665551
 30
0.0
 10
792.1951107088356
 20
797.0512913607444
 30
0.0
 10
792.4747519804328
 20
796.187760677046
 30
0.0
 10
792.551611115161
 20
795.7514731468843
 30
0.0
 10
792.5524552763302
 20
795.088821911574
 30
0.0
 10
792.5336661896602
 20
794.866898853793
 30
0.0
 10
792.4603986975793
 20
794.4279116347979
 30
0.0
 10
792.4059946459159
 20
794.2098897863499
 30
0.0
 10
792.1959155875638
 20
793.55970582213
 30
0.0
 10
791.9935562943965
 20
793.1314101629022
 30
0.0
 10
791.7483294742166
 20
792.7066648509718
 30
0.0
  0
LINE
  5
1D6
330
1F
100
AcDbEntity
  8
0
  6
Continuous
 62
     7
370
    15
100
AcDbLine
 10
783.8220449265
 20
792.7066646832
 30
0.0
 11
791.7483301934
 21
792.7066646832
 31
0.0
  0
SPLINE
  5
1D7
330
1F
100
AcDbEntity
  8
0
  6
Continuous
 62
     7
370
    15
100
AcDbSpline
210
0.0
220
0.0
230
1.0
 70
     8
 71
     3
 72
    16
 73
    12
 74
     0
 42
0.00000001
 43
0.00000001
 12
1.0
 22
0.0
 32
0.0
 13
1.0
 23
0.0
 33
0.0
 40
0.0
 40
0.0
 40
0.0
 40
0.0
 40
0.2499999999999796
 40
0.2499999999999796
 40
0.4999999999999591
 40
0.4999999999999591
 40
0.6249999999999626
 40
0.6249999999999626
 40
0.749999999999966
 40
0.749999999999966
 40
1.0
 40
1.0
 40
1.0
 40
1.0
 10
783.8220500325871
 20
792.7066648509717
 30
0.0
 10
783.5771285180047
 20
793.1308813580952
 30
0.0
 10
783.3752687979683
 20
793.5581907639058
 30
0.0
 10
783.0956275263712
 20
794.4217214476042
 30
0.0
 10
783.0187683916428
 20
794.858008977766
 30
0.0
 10
783.0179242304737
 20
795.5206602130764
 30
0.0
 10
783.0367133171436
 20
795.7425832708573
 30
0.0
 10
783.1099808092246
 20
796.1815704898523
 30
0.0
 10
783.1643848608879
 20
796.3995923383004
 30
0.0
 10
783.3744639192399
 20
797.0497763025203
 30
0.0
 10
783.5768232124071
 20
797.4780719617481
 30
0.0
 10
783.8220500325872
 20
797.9028172736785
 30
0.0
  0
SPLINE
  5
1D8
330
1F
100
AcDbEntity
  8
0
  6
Continuous
 62
     7
370
    15
100
AcDbSpline
210
0.0
220
0.0
230
1.0
 70
     8
 71
     3
 72
    16
 73
    12
 74
     0
 42
0.00000001
 43
0.00000001
 12
1.0
 22
0.0
 32
0.0
 13
1.0
 23
0.0
 33
0.0
 40
0.0
 40
0.0
 40
0.0
 40
0.0
 40
0.25
 40
0.25
 40
0.5
 40
0.5
 40
0.625
 40
0.625
 40
0.75
 40
0.75
 40
1.0
 40
1.0
 40
1.0
 40
1.0
 10
791.7483294742165
 20
792.7066648509717
 30
0.0
 10
791.9923047707468
 20
791.8615096322069
 30
0.0
 10
792.1969987262378
 20
790.9956817353968
 30
0.0
 10
792.4768524985635
 20
789.2597963942169
 30
0.0
 10
792.5522610728544
 20
788.3871562584471
 30
0.0
 10
792.5521349336218
 20
787.069951321674
 30
0.0
 10
792.5334434674281
 20
786.6295251778563
 30
0.0
 10
792.459268610371
 20
785.745994134686
 30
0.0
 10
792.4040923620505
 20
785.306887156189
 30
0.0
 10
792.1927553219749
 20
784.005284032074
 30
0.0
 10
791.9907922576053
 20
783.154275725107
 30
0.0
 10
791.7483294742165
 20
782.3143600055586
 30
0.0
  0
LINE
  5
1D9
330
1F
100
AcDbEntity
  8
0
  6
Continuous
 62
     7
370
    15
100
AcDbLine
 10
783.8220449265
 20
782.3143601733
 30
0.0
 11
791.7483301934
 21
782.3143601733
 31
0.0
  0
SPLINE
  5
1DA
330
1F
100
AcDbEntity
  8
0
  6
Continuous
 62
     7
370
    15
100
AcDbSpline
210
0.0
220
0.0
230
1.0
 70
     8
 71
     3
 72
    16
 73
    12
 74
     0
 42
0.00000001
 43
0.00000001
 12
1.0
 22
0.0
 32
0.0
 13
1.0
 23
0.0
 33
0.0
 40
0.0
 40
0.0
 40
0.0
 40
0.0
 40
0.25
 40
0.25
 40
0.5
 40
0.5
 40
0.625
 40
0.625
 40
0.75
 40
0.75
 40
1.0
 40
1.0
 40
1.0
 40
1.0
 10
783.8220500325874
 20
792.7066648509718
 30
0.0
 10
783.578074736057
 20
791.861509632207
 30
0.0
 10
783.373380780566
 20
790.9956817353969
 30
0.0
 10
783.0935270082405
 20
789.259796394217
 30
0.0
 10
783.0181184339494
 20
788.3871562584471
 30
0.0
 10
783.0182445731822
 20
787.069951321674
 30
0.0
 10
783.0369360393756
 20
786.6295251778563
 30
0.0
 10
783.1111108964327
 20
785.7459941346862
 30
0.0
 10
783.1662871447535
 20
785.3068871561888
 30
0.0
 10
783.377624184829
 20
784.0052840320739
 30
0.0
 10
783.5795872491985
 20
783.1542757251069
 30
0.0
 10
783.8220500325874
 20
782.3143600055585
 30
0.0
  0
SPLINE
  5
1DB
330
1F
100
AcDbEntity
  8
0
  6
Continuous
 62
     7
370
    15
100
AcDbSpline
210
0.0
220
0.0
230
1.0
 70
     8
 71
     3
 72
    16
 73
    12
 74
     0
 42
0.00000001
 43
0.00000001
 12
1.0
 22
0.0
 32
0.0
 13
1.0
 23
0.0
 33
0.0
 40
0.0
 40
0.0
 40
0.0
 40
0.0
 40
0.2499999999999931
 40
0.2499999999999931
 40
0.4999999999999862
 40
0.4999999999999862
 40
0.6249999999999829
 40
0.6249999999999829
 40
0.7499999999999796
 40
0.7499999999999796
 40
1.0
 40
1.0
 40
1.0
 40
1.0
 10
791.7483294742167
 20
782.3143600055587
 30
0.0
 10
791.9932509887991
 20
781.8901434984352
 30
0.0
 10
792.1951107088356
 20
781.4628340926245
 30
0.0
 10
792.4747519804328
 20
780.5993034089262
 30
0.0
 10
792.551611115161
 20
780.1630158787644
 30
0.0
 10
792.5524552763302
 20
779.5003646434541
 30
0.0
 10
792.5336661896602
 20
779.2784415856731
 30
0.0
 10
792.4603986975793
 20
778.8394543666781
 30
0.0
 10
792.4059946459159
 20
778.62143251823
 30
0.0
 10
792.1959155875638
 20
777.9712485540101
 30
0.0
 10
791.9935562943966
 20
777.5429528947823
 30
0.0
 10
791.7483294742166
 20
777.1182075828519
 30
0.0
  0
SPLINE
  5
1DC
330
1F
100
AcDbEntity
  8
0
  6
Continuous
 62
     7
370
    15
100
AcDbSpline
210
0.0
220
0.0
230
1.0
 70
     8
 71
     3
 72
    16
 73
    12
 74
     0
 42
0.00000001
 43
0.00000001
 12
1.0
 22
0.0
 32
0.0
 13
1.0
 23
0.0
 33
0.0
 40
0.0
 40
0.0
 40
0.0
 40
0.0
 40
0.2499999999999933
 40
0.2499999999999933
 40
0.4999999999999866
 40
0.4999999999999866
 40
0.6249999999999832
 40
0.6249999999999832
 40
0.7499999999999798
 40
0.7499999999999798
 40
1.0
 40
1.0
 40
1.0
 40
1.0
 10
783.8220500325871
 20
777.1182075828519
 30
0.0
 10
783.5771285180047
 20
777.5424240899754
 30
0.0
 10
783.3752687979683
 20
777.969733495786
 30
0.0
 10
783.0956275263712
 20
778.8332641794846
 30
0.0
 10
783.0187683916428
 20
779.2695517096461
 30
0.0
 10
783.0179242304736
 20
779.9322029449565
 30
0.0
 10
783.0367133171436
 20
780.1541260027375
 30
0.0
 10
783.1099808092246
 20
780.5931132217326
 30
0.0
 10
783.1643848608878
 20
780.8111350701806
 30
0.0
 10
783.3744639192399
 20
781.4613190344004
 30
0.0
 10
783.5768232124072
 20
781.8896146936282
 30
0.0
 10
783.8220500325873
 20
782.3143600055587
 30
0.0
  0
LINE
  5
1DD
330
1F
100
AcDbEntity
  8
0
  6
Continuous
 62
     7
370
    15
100
AcDbLine
 10
782.5851889428
 20
779.260512473
 30
0.0
 11
782.5851889428
 21
795.7605123836
 31
0.0
  0
LINE
  5
1DE
330
1F
100
AcDbEntity
  8
0
  6
Continuous
 62
     7
370
    15
100
AcDbLine
 10
783.8220449265
 20
777.1182079184
 30
0.0
 11
791.7483301934
 21
777.1182079184
 31
0.0
  0
LINE
  5
1DF
330
1F
100
AcDbEntity
  8
0
  6
Continuous
 62
     7
370
    15
100
AcDbLine
 10
747.4851908263
 20
781.5105123761
 30
0.0
 11
747.4851908263
 21
793.5105124804
 31
0.0
  0
SPLINE
  5
1E0
330
1F
100
AcDbEntity
  8
0
  6
Continuous
 62
     7
370
    15
100
AcDbSpline
210
0.0
220
0.0
230
1.0
 70
     8
 71
     3
 72
    11
 73
     7
 74
     0
 42
0.00000001
 43
0.00000001
 12
1.0
 22
0.0
 32
0.0
 13
1.0
 23
0.0
 33
0.0
 40
0.0
 40
0.0
 40
0.0
 40
0.0
 40
0.1514478092367098
 40
0.4260493356480794
 40
0.7082836521667486
 40
1.0
 40
1.0
 40
1.0
 40
1.0
 10
803.3334316786414
 20
196.4885574149943
 30
0.0
 10
803.3346053101924
 20
196.4926145270934
 30
0.0
 10
803.3379069422534
 20
196.5040278973047
 30
0.0
 10
803.2907994751266
 20
196.3416964106394
 30
0.0
 10
803.2115734414966
 20
196.032767773652
 30
0.0
 10
803.1687920421261
 20
195.6894632261222
 30
0.0
 10
803.1470479544288
 20
195.514975147233
 30
0.0
  0
SPLINE
  5
1E1
330
1F
100
AcDbEntity
  8
0
  6
Continuous
 62
     7
370
    15
100
AcDbSpline
210
0.0
220
0.0
230
1.0
 70
     8
 71
     3
 72
     9
 73
     5
 74
     0
 42
0.00000001
 43
0.00000001
 12
1.0
 22
0.0
 32
0.0
 13
1.0
 23
0.0
 33
0.0
 40
0.0
 40
0.0
 40
0.0
 40
0.0
 40
0.1108521490962252
 40
1.0
 40
1.0
 40
1.0
 40
1.0
 10
803.2244147833472
 20
241.9453244972085
 30
0.0
 10
803.2212845085955
 20
241.9483003935964
 30
0.0
 10
803.1930462220366
 20
241.9751460290844
 30
0.0
 10
803.1686975361538
 20
241.9060390073742
 30
0.0
 10
803.1470479544288
 20
241.8445926475382
 30
0.0
  0
SPLINE
  5
1E2
330
1F
100
AcDbEntity
  8
0
  6
Continuous
 62
     7
370
    15
100
AcDbSpline
210
0.0
220
0.0
230
1.0
 70
     8
 71
     3
 72
     9
 73
     5
 74
     0
 42
0.00000001
 43
0.00000001
 12
1.0
 22
0.0
 32
0.0
 13
1.0
 23
0.0
 33
0.0
 40
0.0
 40
0.0
 40
0.0
 40
0.0
 40
0.8636199875939841
 40
0.9999999999999999
 40
0.9999999999999999
 40
0.9999999999999999
 40
0.9999999999999999
 10
803.1470479544288
 20
1333.176432209001
 30
0.0
 10
803.1679202056965
 20
1333.116632605515
 30
0.0
 10
803.192088533859
 20
1333.047389646407
 30
0.0
 10
803.2204696593013
 20
1333.074190962695
 30
0.0
 10
803.2243402775413
 20
1333.077846126542
 30
0.0
  0
SPLINE
  5
1E3
330
1F
100
AcDbEntity
  8
0
  6
Continuous
 62
     7
370
    15
100
AcDbSpline
210
0.0
220
0.0
230
1.0
 70
     8
 71
     3
 72
    11
 73
     7
 74
     0
 42
0.00000001
 43
0.00000001
 12
1.0
 22
0.0
 32
0.0
 13
1.0
 23
0.0
 33
0.0
 40
0.0
 40
0.0
 40
0.0
 40
0.0
 40
0.2833368430528468
 40
0.5748322785085294
 40
0.8587369629485876
 40
1.0
 40
1.0
 40
1.0
 40
1.0
 10
803.1470479544288
 20
1379.506049709306
 30
0.0
 10
803.1680509270919
 20
1379.33624509478
 30
0.0
 10
803.210661646197
 20
1378.991746396983
 30
0.0
 10
803.2912262429487
 20
1378.67741252888
 30
0.0
 10
803.338760271242
 20
1378.514256871317
 30
0.0
 10
803.3347605845361
 20
1378.52792587946
 30
0.0
 10
803.3334316786414
 20
1378.532467441544
 30
0.0
  0
LINE
  5
1E4
330
1F
100
AcDbEntity
  8
0
  6
Continuous
 62
     7
370
    15
100
AcDbLine
 10
835.4851903494
 20
793.5105124804
 30
0.0
 11
835.4851903494
 21
1009.9725257921
 31
0.0
  0
LINE
  5
1E5
330
1F
100
AcDbEntity
  8
0
  6
Continuous
 62
     7
370
    15
100
AcDbLine
 10
835.4851903494
 20
1021.9725203085
 30
0.0
 11
835.4851903494
 21
1203.6532741356
 31
0.0
  0
LINE
  5
1E6
330
1F
100
AcDbEntity
  8
0
  6
Continuous
 62
     7
370
    15
100
AcDbLine
 10
835.4851903494
 20
1215.6532686519
 30
0.0
 11
835.4851903494
 21
1333.0665808487
 31
0.0
  0
LINE
  5
1E7
330
1F
100
AcDbEntity
  8
0
  6
Continuous
 62
     7
370
    15
100
AcDbLine
 10
835.4851903494
 20
1345.0666051674
 30
0.0
 11
835.4851903494
 21
1371.1380940246
 31
0.0
  0
LINE
  5
1E8
330
1F
100
AcDbEntity
  8
0
  6
Continuous
 62
     7
370
    15
100
AcDbLine
 10
835.4851903494
 20
203.8829308319
 30
0.0
 11
835.4851903494
 21
229.9544196892
 31
0.0
  0
LINE
  5
1E9
330
1F
100
AcDbEntity
  8
0
  6
Continuous
 62
     7
370
    15
100
AcDbLine
 10
835.4851903494
 20
241.9544440079
 30
0.0
 11
835.4851903494
 21
359.3677562046
 31
0.0
  0
LINE
  5
1EA
330
1F
100
AcDbEntity
  8
0
  6
Continuous
 62
     7
370
    15
100
AcDbLine
 10
835.4851903494
 20
371.367750721
 30
0.0
 11
835.4851903494
 21
553.0485045481
 31
0.0
  0
LINE
  5
1EB
330
1F
100
AcDbEntity
  8
0
  6
Continuous
 62
     7
370
    15
100
AcDbLine
 10
835.4851903494
 20
565.0484990644
 30
0.0
 11
835.4851903494
 21
781.5105123761
 31
0.0
  0
LINE
  5
1EC
330
1F
100
AcDbEntity
  8
0
  6
Continuous
 62
     7
370
    15
100
AcDbLine
 10
792.9851861771
 20
1003.9725285339
 30
0.0
 11
792.9851861771
 21
1027.9725175667
 31
0.0
  0
LINE
  5
1ED
330
1F
100
AcDbEntity
  8
0
  6
Continuous
 62
     7
370
    15
100
AcDbLine
 10
792.9851861771
 20
570.1350551414
 30
0.0
 11
792.9851861771
 21
571.0484963226
 31
0.0
  0
LINE
  5
1EE
330
1F
100
AcDbEntity
  8
0
  6
Continuous
 62
     7
370
    15
100
AcDbLine
 10
792.9851861771
 20
547.0485072899
 30
0.0
 11
792.9851861771
 21
570.1350551414
 31
0.0
  0
SPLINE
  5
1EF
330
1F
100
AcDbEntity
  8
0
  6
Continuous
 62
     7
370
    15
100
AcDbSpline
210
0.0
220
0.0
230
1.0
 70
     8
 71
     3
 72
    16
 73
    12
 74
     0
 42
0.00000001
 43
0.00000001
 12
1.0
 22
0.0
 32
0.0
 13
1.0
 23
0.0
 33
0.0
 40
0.0
 40
0.0
 40
0.0
 40
0.0
 40
0.2499999999999999
 40
0.2499999999999999
 40
0.4999999999999998
 40
0.4999999999999998
 40
0.6249999999999967
 40
0.6249999999999967
 40
0.7499999999999934
 40
0.7499999999999934
 40
1.0
 40
1.0
 40
1.0
 40
1.0
 10
791.7483273455268
 20
1014.616059420546
 30
0.0
 10
791.9932492878014
 20
1013.94295179569
 30
0.0
 10
792.1951094266537
 20
1013.264936646813
 30
0.0
 10
792.4747514397764
 20
1011.894765811145
 30
0.0
 10
792.5516108947072
 20
1011.202505001144
 30
0.0
 10
792.552455382888
 20
1010.151071134851
 30
0.0
 10
792.5336663779822
 20
1009.798944064397
 30
0.0
 10
792.4603989868497
 20
1009.102399586598
 30
0.0
 10
792.405994955805
 20
1008.756462604711
 30
0.0
 10
792.1959158807168
 20
1007.72481060008
 30
0.0
 10
791.9935564720084
 20
1007.045230520038
 30
0.0
 10
791.7483294742166
 20
1006.37128380793
 30
0.0
  0
SPLINE
  5
1F0
330
1F
100
AcDbEntity
  8
0
  6
Continuous
 62
     7
370
    15
100
AcDbSpline
210
0.0
220
0.0
230
1.0
 70
     8
 71
     3
 72
    14
 73
    10
 74
     0
 42
0.00000001
 43
0.00000001
 12
1.0
 22
0.0
 32
0.0
 13
1.0
 23
0.0
 33
0.0
 40
0.0
 40
0.0
 40
0.0
 40
0.0
 40
0.1331931446195853
 40
0.2578376434776901
 40
0.3824526962203448
 40
0.5101675845979479
 40
0.6378836764961053
 40
0.8180593403303849
 40
1.0
 40
1.0
 40
1.0
 40
1.0
 10
791.748330193389
 20
1024.217290835366
 30
0.0
 10
791.8715837072044
 20
1023.799737676153
 30
0.0
 10
792.1101800376932
 20
1022.991430890503
 30
0.0
 10
792.3630236368019
 20
1021.769896507891
 30
0.0
 10
792.5227813384083
 20
1020.553166832299
 30
0.0
 10
792.5706209524295
 20
1019.317668047417
 30
0.0
 10
792.4935146021381
 20
1017.903056410584
 30
0.0
 10
792.241665613112
 20
1016.324671534901
 30
0.0
 10
791.9133088159945
 20
1015.187441804096
 30
0.0
 10
791.748330193389
 20
1014.616055445657
 30
0.0
  0
SPLINE
  5
1F1
330
1F
100
AcDbEntity
  8
0
  6
Continuous
 62
     7
370
    15
100
AcDbSpline
210
0.0
220
0.0
230
1.0
 70
     8
 71
     3
 72
    16
 73
    12
 74
     0
 42
0.00000001
 43
0.00000001
 12
1.0
 22
0.0
 32
0.0
 13
1.0
 23
0.0
 33
0.0
 40
0.0
 40
0.0
 40
0.0
 40
0.0
 40
0.2500000000000003
 40
0.2500000000000003
 40
0.5000000000000007
 40
0.5000000000000007
 40
0.6250000000000009
 40
0.6250000000000009
 40
0.750000000000001
 40
0.750000000000001
 40
1.0
 40
1.0
 40
1.0
 40
1.0
 10
791.7483294742167
 20
1025.57375929252
 30
0.0
 10
791.993250362689
 20
1025.463016844916
 30
0.0
 10
792.1951096769043
 20
1025.351466992865
 30
0.0
 10
792.4747508677615
 20
1025.126040837013
 30
0.0
 10
792.5516103399327
 20
1025.012147238129
 30
0.0
 10
792.5524556509876
 20
1024.839161016917
 30
0.0
 10
792.533667047743
 20
1024.781227610534
 30
0.0
 10
792.4604006489619
 20
1024.666629223645
 30
0.0
 10
792.4059972111631
 20
1024.609714235478
 30
0.0
 10
792.1959201237552
 20
1024.43998256419
 30
0.0
 10
791.9935623098908
 20
1024.328175226126
 30
0.0
 10
791.7483369968905
 20
1024.217294714086
 30
0.0
  0
SPLINE
  5
1F2
330
1F
100
AcDbEntity
  8
0
  6
Continuous
 62
     7
370
    15
100
AcDbSpline
210
0.0
220
0.0
230
1.0
 70
     8
 71
     3
 72
    10
 73
     6
 74
     0
 42
0.00000001
 43
0.00000001
 12
1.0
 22
0.0
 32
0.0
 13
1.0
 23
0.0
 33
0.0
 40
0.0
 40
0.0
 40
0.0
 40
0.0
 40
0.3413733363431549
 40
0.6826572498653306
 40
1.0
 40
1.0
 40
1.0
 40
1.0
 10
791.748330193389
 20
1006.371287660584
 30
0.0
 10
791.8701451415068
 20
1006.429896720058
 30
0.0
 10
792.1137431282896
 20
1006.54709948635
 30
0.0
 10
792.3770422779268
 20
1006.721966243142
 30
0.0
 10
792.4612090541137
 20
1006.838659123157
 30
0.0
 10
792.5017627056724
 20
1006.894884662614
 30
0.0
  0
LINE
  5
1F3
330
1F
100
AcDbEntity
  8
0
  6
Continuous
 62
     7
370
    15
100
AcDbLine
 10
783.8220449265
 20
1024.2172908354
 30
0.0
 11
791.7483301934
 21
1024.2172908354
 31
0.0
  0
LINE
  5
1F4
330
1F
100
AcDbEntity
  8
0
  6
Continuous
 62
     7
370
    15
100
AcDbLine
 10
783.8220449265
 20
1014.6160554457
 30
0.0
 11
791.7483301934
 21
1014.6160554457
 31
0.0
  0
SPLINE
  5
1F5
330
1F
100
AcDbEntity
  8
0
  6
Continuous
 62
     7
370
    15
100
AcDbSpline
210
0.0
220
0.0
230
1.0
 70
     8
 71
     3
 72
    14
 73
    10
 74
     0
 42
0.00000001
 43
0.00000001
 12
1.0
 22
0.0
 32
0.0
 13
1.0
 23
0.0
 33
0.0
 40
0.0
 40
0.0
 40
0.0
 40
0.0
 40
0.1803113065741943
 40
0.3621155246958639
 40
0.4866223765633331
 40
0.611128174282829
 40
0.7389502062642697
 40
0.8668068905345352
 40
1.0
 40
1.0
 40
1.0
 40
1.0
 10
783.8220449265128
 20
1014.616055445657
 30
0.0
 10
783.6584502021619
 20
1015.182287330263
 30
0.0
 10
783.3299062490881
 20
1016.319439291998
 30
0.0
 10
783.0788354403818
 20
1017.887434073403
 30
0.0
 10
783.0009377819216
 20
1019.286357817401
 30
0.0
 10
783.0440696429717
 20
1020.511444449762
 30
0.0
 10
783.2013327786938
 20
1021.739089317228
 30
0.0
 10
783.457244250892
 20
1022.981347256691
 30
0.0
 10
783.6987987350748
 20
1023.799733113893
 30
0.0
 10
783.8220449265128
 20
1024.217290835366
 30
0.0
  0
SPLINE
  5
1F6
330
1F
100
AcDbEntity
  8
0
  6
Continuous
 62
     7
370
    15
100
AcDbSpline
210
0.0
220
0.0
230
1.0
 70
     8
 71
     3
 72
    16
 73
    12
 74
     0
 42
0.00000001
 43
0.00000001
 12
1.0
 22
0.0
 32
0.0
 13
1.0
 23
0.0
 33
0.0
 40
0.0
 40
0.0
 40
0.0
 40
0.0
 40
0.2500000000000011
 40
0.2500000000000011
 40
0.5000000000000022
 40
0.5000000000000022
 40
0.6250000000000022
 40
0.6250000000000022
 40
0.7500000000000022
 40
0.7500000000000022
 40
1.0
 40
1.0
 40
1.0
 40
1.0
 10
783.8220422937665
 20
1024.217294811819
 30
0.0
 10
783.5771223340557
 20
1024.328037267988
 30
0.0
 10
783.3752641366201
 20
1024.439587132128
 30
0.0
 10
783.0956255608305
 20
1024.665013319314
 30
0.0
 10
783.0187675901943
 20
1024.778906937502
 30
0.0
 10
783.0179246178708
 20
1024.95189318929
 30
0.0
 10
783.0367140017922
 20
1025.009826569937
 30
0.0
 10
783.1099818608685
 20
1025.124424916338
 30
0.0
 10
783.1643859874896
 20
1025.181339885155
 30
0.0
 10
783.3744649849959
 20
1025.351071501773
 30
0.0
 10
783.5768238581142
 20
1025.462878808021
 30
0.0
 10
783.8220500325873
 20
1025.57375929252
 30
0.0
  0
SPLINE
  5
1F7
330
1F
100
AcDbEntity
  8
0
  6
Continuous
 62
     7
370
    15
100
AcDbSpline
210
0.0
220
0.0
230
1.0
 70
     8
 71
     3
 72
    16
 73
    12
 74
     0
 42
0.00000001
 43
0.00000001
 12
1.0
 22
0.0
 32
0.0
 13
1.0
 23
0.0
 33
0.0
 40
0.0
 40
0.0
 40
0.0
 40
0.0
 40
0.2499999999999905
 40
0.2499999999999905
 40
0.4999999999999809
 40
0.4999999999999809
 40
0.6249999999999857
 40
0.6249999999999857
 40
0.7499999999999905
 40
0.7499999999999905
 40
1.0
 40
1.0
 40
1.0
 40
1.0
 10
783.8220500325871
 20
1006.37128380793
 30
0.0
 10
783.5771283780808
 20
1007.044391358342
 30
0.0
 10
783.375268567351
 20
1007.722406437375
 30
0.0
 10
783.0956272777106
 20
1009.092577141017
 30
0.0
 10
783.0187682183948
 20
1009.784837888866
 30
0.0
 10
783.0179243142044
 20
1010.836271660855
 30
0.0
 10
783.0367135089111
 20
1011.188398645321
 30
0.0
 10
783.1099812453244
 20
1011.884942969719
 30
0.0
 10
783.1643854341751
 20
1012.230879876855
 30
0.0
 10
783.3744649329966
 20
1013.262531663761
 30
0.0
 10
783.5768245567607
 20
1013.942111607515
 30
0.0
 10
783.8220517137671
 20
1014.616058190674
 30
0.0
  0
SPLINE
  5
1F8
330
1F
100
AcDbEntity
  8
0
  6
Continuous
 62
     7
370
    15
100
AcDbSpline
210
0.0
220
0.0
230
1.0
 70
     8
 71
     3
 72
    10
 73
     6
 74
     0
 42
0.00000001
 43
0.00000001
 12
1.0
 22
0.0
 32
0.0
 13
1.0
 23
0.0
 33
0.0
 40
0.0
 40
0.0
 40
0.0
 40
0.0
 40
0.097412616131595
 40
0.3947559315187133
 40
1.0
 40
1.0
 40
1.0
 40
1.0
 10
783.0733956869727
 20
1006.894854860291
 30
0.0
 10
783.0806541372433
 20
1006.877554532814
 30
0.0
 10
783.1100683590524
 20
1006.807446499993
 30
0.0
 10
783.3089819637036
 20
1006.631097763484
 30
0.0
 10
783.6161012751095
 20
1006.475575526092
 30
0.0
 10
783.8220449265128
 20
1006.371287660584
 30
0.0
  0
LINE
  5
1F9
330
1F
100
AcDbEntity
  8
0
  6
Continuous
 62
     7
370
    15
100
AcDbLine
 10
782.5851889428
 20
1007.7225249576
 30
0.0
 11
782.5851889428
 21
1024.2225211429
 31
0.0
  0
SPLINE
  5
1FA
330
1F
100
AcDbEntity
  8
0
  6
Continuous
 62
     7
370
    15
100
AcDbSpline
210
0.0
220
0.0
230
1.0
 70
     8
 71
     3
 72
    16
 73
    12
 74
     0
 42
0.00000001
 43
0.00000001
 12
1.0
 22
0.0
 32
0.0
 13
1.0
 23
0.0
 33
0.0
 40
0.0
 40
0.0
 40
0.0
 40
0.0
 40
0.2499999999999765
 40
0.2499999999999765
 40
0.4999999999999529
 40
0.4999999999999529
 40
0.6249999999999567
 40
0.6249999999999567
 40
0.7499999999999605
 40
0.7499999999999605
 40
1.0
 40
1.0
 40
1.0
 40
1.0
 10
791.7483370383641
 20
550.8037301236919
 30
0.0
 10
791.99325703317
 20
550.6929876613267
 30
0.0
 10
792.1951152649724
 20
550.5814377909758
 30
0.0
 10
792.4747539016091
 20
550.3560115912218
 30
0.0
 10
792.5516118985202
 20
550.2421179666717
 30
0.0
 10
792.5524548976772
 20
550.0691317051051
 30
0.0
 10
792.533665520465
 20
550.0111983207854
 30
0.0
 10
792.460397669672
 20
549.8965999672995
 30
0.0
 10
792.405993544743
 20
549.8396849949942
 30
0.0
 10
792.1959145458632
 20
549.6699533680478
 30
0.0
 10
791.993555663264
 20
549.5581460551001
 30
0.0
 10
791.7483294742166
 20
549.4472655640113
 30
0.0
  0
SPLINE
  5
1FB
330
1F
100
AcDbEntity
  8
0
  6
Continuous
 62
     7
370
    15
100
AcDbSpline
210
0.0
220
0.0
230
1.0
 70
     8
 71
     3
 72
    14
 73
    10
 74
     0
 42
0.00000001
 43
0.00000001
 12
1.0
 22
0.0
 32
0.0
 13
1.0
 23
0.0
 33
0.0
 40
0.0
 40
0.0
 40
0.0
 40
0.0
 40
0.1331931498879865
 40
0.2578376536763543
 40
0.3824527113481072
 40
0.5101676047774212
 40
0.6378837017273372
 40
0.8180572334801411
 40
1.0
 40
1.0
 40
1.0
 40
1.0
 10
791.748330193389
 20
560.404969410882
 30
0.0
 10
791.8715837090822
 20
559.9874162603836
 30
0.0
 10
792.1101800432057
 20
559.1791094916028
 30
0.0
 10
792.3630236163946
 20
557.957574988696
 30
0.0
 10
792.52278141589
 20
556.7408457674069
 30
0.0
 10
792.5706206550905
 20
555.5053452429797
 30
0.0
 10
792.4935162821478
 20
554.0907479726512
 30
0.0
 10
792.2416600064043
 20
552.5123239015865
 30
0.0
 10
791.9133082202159
 20
551.3751160453079
 30
0.0
 10
791.748330193389
 20
550.8037340211725
 30
0.0
  0
SPLINE
  5
1FC
330
1F
100
AcDbEntity
  8
0
  6
Continuous
 62
     7
370
    15
100
AcDbSpline
210
0.0
220
0.0
230
1.0
 70
     8
 71
     3
 72
    16
 73
    12
 74
     0
 42
0.00000001
 43
0.00000001
 12
1.0
 22
0.0
 32
0.0
 13
1.0
 23
0.0
 33
0.0
 40
0.0
 40
0.0
 40
0.0
 40
0.0
 40
0.2499999999999996
 40
0.2499999999999996
 40
0.4999999999999991
 40
0.4999999999999991
 40
0.6249999999999958
 40
0.6249999999999958
 40
0.7499999999999925
 40
0.7499999999999925
 40
1.0
 40
1.0
 40
1.0
 40
1.0
 10
791.7483294742168
 20
568.6497410486015
 30
0.0
 10
791.9932511645328
 20
567.9766333997744
 30
0.0
 10
792.1951109984731
 20
567.2986182208914
 30
0.0
 10
792.4747522927312
 20
565.928447312785
 30
0.0
 10
792.5516113327471
 20
565.2361864602406
 30
0.0
 10
792.5524551711707
 20
564.184752527013
 30
0.0
 10
792.5336659488148
 20
563.8326254949175
 30
0.0
 10
792.4603981498711
 20
563.1360810754878
 30
0.0
 10
792.4059939259109
 20
562.7901441213417
 30
0.0
 10
792.1959143143631
 20
561.7584921943754
 30
0.0
 10
791.9935546059918
 20
561.0789121584918
 30
0.0
 10
791.7483273627837
 20
560.4049654834118
 30
0.0
  0
SPLINE
  5
1FD
330
1F
100
AcDbEntity
  8
0
  6
Continuous
 62
     7
370
    15
100
AcDbSpline
210
0.0
220
0.0
230
1.0
 70
     8
 71
     3
 72
    10
 73
     6
 74
     0
 42
0.00000001
 43
0.00000001
 12
1.0
 22
0.0
 32
0.0
 13
1.0
 23
0.0
 33
0.0
 40
0.0
 40
0.0
 40
0.0
 40
0.0
 40
0.0974125834235217
 40
0.394755308775061
 40
1.0
 40
1.0
 40
1.0
 40
1.0
 10
792.4969794329292
 20
568.1261699962473
 30
0.0
 10
792.4897207230322
 20
568.1434703189137
 30
0.0
 10
792.4603054856365
 20
568.2135782451805
 30
0.0
 10
792.2614217051851
 20
568.389927593494
 30
0.0
 10
791.9542854267472
 20
568.5454494693535
 30
0.0
 10
791.748330193389
 20
568.6497371959543
 30
0.0
  0
LINE
  5
1FE
330
1F
100
AcDbEntity
  8
0
  6
Continuous
 62
     7
370
    15
100
AcDbLine
 10
783.8220449265
 20
560.4049694109
 30
0.0
 11
791.7483301934
 21
560.4049694109
 31
0.0
  0
LINE
  5
1FF
330
1F
100
AcDbEntity
  8
0
  6
Continuous
 62
     7
370
    15
100
AcDbLine
 10
783.8220449265
 20
550.8037340212
 30
0.0
 11
791.7483301934
 21
550.8037340212
 31
0.0
  0
SPLINE
  5
200
330
1F
100
AcDbEntity
  8
0
  6
Continuous
 62
     7
370
    15
100
AcDbSpline
210
0.0
220
0.0
230
1.0
 70
     8
 71
     3
 72
    14
 73
    10
 74
     0
 42
0.00000001
 43
0.00000001
 12
1.0
 22
0.0
 32
0.0
 13
1.0
 23
0.0
 33
0.0
 40
0.0
 40
0.0
 40
0.0
 40
0.0
 40
0.180311302485472
 40
0.3621155164845662
 40
0.4866245251498052
 40
0.6111281588304968
 40
0.7389523359860657
 40
0.8668068935548097
 40
0.9999999999999999
 40
0.9999999999999999
 40
0.9999999999999999
 40
0.9999999999999999
 10
783.8220449265128
 20
550.8037340211725
 30
0.0
 10
783.6584502011124
 20
551.3699644281742
 30
0.0
 10
783.3299062459307
 20
552.5071134224653
 30
0.0
 10
783.0788343372104
 20
554.0751352004673
 30
0.0
 10
783.0009376586696
 20
555.4740050803148
 30
0.0
 10
783.0440722366627
 20
556.699156143923
 30
0.0
 10
783.2013280605995
 20
557.9267366590813
 30
0.0
 10
783.4572477428147
 20
559.1690424560752
 30
0.0
 10
783.698799250875
 20
559.9874150563227
 30
0.0
 10
783.8220449265128
 20
560.404969410882
 30
0.0
  0
SPLINE
  5
201
330
1F
100
AcDbEntity
  8
0
  6
Continuous
 62
     7
370
    15
100
AcDbSpline
210
0.0
220
0.0
230
1.0
 70
     8
 71
     3
 72
    10
 73
     6
 74
     0
 42
0.00000001
 43
0.00000001
 12
1.0
 22
0.0
 32
0.0
 13
1.0
 23
0.0
 33
0.0
 40
0.0
 40
0.0
 40
0.0
 40
0.0
 40
0.3413734728728933
 40
0.6826575228890434
 40
1.0
 40
1.0
 40
1.0
 40
1.0
 10
783.8220449265128
 20
568.6497371959543
 30
0.0
 10
783.7002303453386
 20
568.5911281311896
 30
0.0
 10
783.4566330923464
 20
568.4739253543177
 30
0.0
 10
783.1933286743437
 20
568.2990587449443
 30
0.0
 10
783.109174748739
 20
568.1823657513767
 30
0.0
 10
783.0686273153907
 20
568.1261401939249
 30
0.0
  0
SPLINE
  5
202
330
1F
100
AcDbEntity
  8
0
  6
Continuous
 62
     7
370
    15
100
AcDbSpline
210
0.0
220
0.0
230
1.0
 70
     8
 71
     3
 72
    16
 73
    12
 74
     0
 42
0.00000001
 43
0.00000001
 12
1.0
 22
0.0
 32
0.0
 13
1.0
 23
0.0
 33
0.0
 40
0.0
 40
0.0
 40
0.0
 40
0.0
 40
0.2499999999999937
 40
0.2499999999999937
 40
0.4999999999999873
 40
0.4999999999999873
 40
0.6249999999999937
 40
0.6249999999999937
 40
0.7500000000000001
 40
0.7500000000000001
 40
1.0
 40
1.0
 40
1.0
 40
1.0
 10
783.822051713766
 20
560.4049666658602
 30
0.0
 10
783.5771298614045
 20
561.0780741942234
 30
0.0
 10
783.3752698105989
 20
561.7560892463948
 30
0.0
 10
783.0956279533661
 20
563.126259886349
 30
0.0
 10
783.0187685657509
 20
563.818520597283
 30
0.0
 10
783.0179241463172
 20
564.8699543113013
 30
0.0
 10
783.0367131684122
 20
565.2220813245524
 30
0.0
 10
783.1099805807669
 20
565.9186256920386
 30
0.0
 10
783.1643846161463
 20
566.2645626195939
 30
0.0
 10
783.374463687716
 20
567.2962144634009
 30
0.0
 10
783.5768230721345
 20
567.9757944391101
 30
0.0
 10
783.8220500325872
 20
568.6497410486015
 30
0.0
  0
SPLINE
  5
203
330
1F
100
AcDbEntity
  8
0
  6
Continuous
 62
     7
370
    15
100
AcDbSpline
210
0.0
220
0.0
230
1.0
 70
     8
 71
     3
 72
    16
 73
    12
 74
     0
 42
0.00000001
 43
0.00000001
 12
1.0
 22
0.0
 32
0.0
 13
1.0
 23
0.0
 33
0.0
 40
0.0
 40
0.0
 40
0.0
 40
0.0
 40
0.2500000000000083
 40
0.2500000000000083
 40
0.5000000000000165
 40
0.5000000000000165
 40
0.6250000000000201
 40
0.6250000000000201
 40
0.7500000000000236
 40
0.7500000000000236
 40
1.0
 40
1.0
 40
1.0
 40
1.0
 10
783.8220500325871
 20
549.4472655640113
 30
0.0
 10
783.577129160777
 20
549.5580080040814
 30
0.0
 10
783.3752698573614
 20
549.6695578484884
 30
0.0
 10
783.0956286686528
 20
549.8949839886885
 30
0.0
 10
783.0187691875017
 20
550.008877579558
 30
0.0
 10
783.017923845846
 20
550.181863788426
 30
0.0
 10
783.0367124362257
 20
550.2397971911632
 30
0.0
 10
783.1099788059119
 20
550.3543955707775
 30
0.0
 10
783.1643822273745
 20
550.4113105553452
 30
0.0
 10
783.3744592623316
 20
550.5810422159117
 30
0.0
 10
783.5768170368287
 20
550.692849546923
 30
0.0
 10
783.8220423097199
 20
550.8037300519255
 30
0.0
  0
LINE
  5
204
330
1F
100
AcDbEntity
  8
0
  6
Continuous
 62
     7
370
    15
100
AcDbLine
 10
782.5851889428
 20
550.7985037136
 30
0.0
 11
782.5851889428
 21
567.2984998989
 31
0.0
  0
LINE
  5
205
330
1F
100
AcDbEntity
  8
0
  6
Continuous
 62
     7
370
    15
100
AcDbLine
 10
783.8220449265
 20
1006.3712876606
 30
0.0
 11
791.7483301934
 21
1006.3712876606
 31
0.0
  0
LINE
  5
206
330
1F
100
AcDbEntity
  8
0
  6
Continuous
 62
     7
370
    15
100
AcDbLine
 10
783.8220449265
 20
568.649737196
 30
0.0
 11
791.7483301934
 21
568.649737196
 31
0.0
  0
LINE
  5
207
330
1F
100
AcDbEntity
  8
0
  6
Continuous
 62
     7
370
    15
100
AcDbLine
 10
783.8220449265
 20
1025.57375844
 30
0.0
 11
791.7483301934
 21
1025.57375844
 31
0.0
  0
LINE
  5
208
330
1F
100
AcDbEntity
  8
0
  6
Continuous
 62
     7
370
    15
100
AcDbLine
 10
783.8220449265
 20
549.4472664165
 30
0.0
 11
791.7483301934
 21
549.4472664165
 31
0.0
  0
LINE
  5
209
330
1F
100
AcDbEntity
  8
0
  6
Continuous
 62
     7
370
    15
100
AcDbLine
 10
747.4851908263
 20
1009.9725257921
 30
0.0
 11
747.4851908263
 21
1021.9725203085
 31
0.0
  0
LINE
  5
20A
330
1F
100
AcDbEntity
  8
0
  6
Continuous
 62
     7
370
    15
100
AcDbLine
 10
747.4851908263
 20
553.0485045481
 30
0.0
 11
747.4851908263
 21
565.0484990644
 31
0.0
  0
LINE
  5
20B
330
1F
100
AcDbEntity
  8
0
  6
Continuous
 62
     7
370
    15
100
AcDbLine
 10
792.9851861771
 20
1197.6532619762
 30
0.0
 11
792.9851861771
 21
1221.653251009
 31
0.0
  0
LINE
  5
20C
330
1F
100
AcDbEntity
  8
0
  6
Continuous
 62
     7
370
    15
100
AcDbLine
 10
792.9851861771
 20
373.8530557918
 30
0.0
 11
792.9851861771
 21
377.3677628803
 31
0.0
  0
LINE
  5
20D
330
1F
100
AcDbEntity
  8
0
  6
Continuous
 62
     7
370
    15
100
AcDbLine
 10
792.9851861771
 20
353.3677738476
 30
0.0
 11
792.9851861771
 21
373.8530557918
 31
0.0
  0
LINE
  5
20E
330
1F
100
AcDbEntity
  8
0
  6
Continuous
 62
     7
370
    15
100
AcDbLine
 10
783.8220449265
 20
1212.3429756927
 30
0.0
 11
791.7483301934
 21
1212.3429756927
 31
0.0
  0
SPLINE
  5
20F
330
1F
100
AcDbEntity
  8
0
  6
Continuous
 62
     7
370
    15
100
AcDbSpline
210
0.0
220
0.0
230
1.0
 70
     8
 71
     3
 72
    14
 73
    10
 74
     0
 42
0.00000001
 43
0.00000001
 12
1.0
 22
0.0
 32
0.0
 13
1.0
 23
0.0
 33
0.0
 40
0.0
 40
0.0
 40
0.0
 40
0.0
 40
0.1323163657852669
 40
0.2645967753377818
 40
0.3998356383313023
 40
0.5350515939901731
 40
0.6502515302613473
 40
0.7654726987520057
 40
1.0
 40
1.0
 40
1.0
 40
1.0
 10
791.748330193389
 20
1212.342975692735
 30
0.0
 10
791.8706932555804
 20
1211.909289543293
 30
0.0
 10
792.1153861284847
 20
1211.042035096196
 30
0.0
 10
792.3787172257496
 20
1209.706533039171
 30
0.0
 10
792.5369046137137
 20
1208.345888733401
 30
0.0
 10
792.568653308633
 20
1207.034381592613
 30
0.0
 10
792.4860325112377
 20
1205.794214431413
 30
0.0
 10
792.2693761479543
 20
1204.226958547341
 30
0.0
 10
791.9574771538116
 20
1203.076338394531
 30
0.0
 10
791.748330193389
 20
1202.304778652177
 30
0.0
  0
LINE
  5
210
330
1F
100
AcDbEntity
  8
0
  6
Continuous
 62
     7
370
    15
100
AcDbLine
 10
783.8220449265
 20
1202.3047786522
 30
0.0
 11
791.7483301934
 21
1202.3047786522
 31
0.0
  0
SPLINE
  5
211
330
1F
100
AcDbEntity
  8
0
  6
Continuous
 62
     7
370
    15
100
AcDbSpline
210
0.0
220
0.0
230
1.0
 70
     8
 71
     3
 72
    14
 73
    10
 74
     0
 42
0.00000001
 43
0.00000001
 12
1.0
 22
0.0
 32
0.0
 13
1.0
 23
0.0
 33
0.0
 40
0.0
 40
0.0
 40
0.0
 40
0.0
 40
0.1323190333662945
 40
0.2645994683518749
 40
0.399838357347272
 40
0.5350543390036149
 40
0.6502542974238552
 40
0.7654729737144923
 40
1.0
 40
1.0
 40
1.0
 40
1.0
 10
783.8220449265128
 20
1202.304778652177
 30
0.0
 10
783.6996823027321
 20
1202.738475032271
 30
0.0
 10
783.4549927491973
 20
1203.605741280215
 30
0.0
 10
783.191657484901
 20
1204.941250784471
 30
0.0
 10
783.0334700617103
 20
1206.301895632052
 30
0.0
 10
783.0017238678524
 20
1207.61340204703
 30
0.0
 10
783.0843355191491
 20
1208.853562722521
 30
0.0
 10
783.3010310771291
 20
1210.420799366351
 30
0.0
 10
783.6129100093525
 20
1211.57141427021
 30
0.0
 10
783.8220449265128
 20
1212.342975692735
 30
0.0
  0
SPLINE
  5
212
330
1F
100
AcDbEntity
  8
0
  6
Continuous
 62
     7
370
    15
100
AcDbSpline
210
0.0
220
0.0
230
1.0
 70
     8
 71
     3
 72
    10
 73
     6
 74
     0
 42
0.00000001
 43
0.00000001
 12
1.0
 22
0.0
 32
0.0
 13
1.0
 23
0.0
 33
0.0
 40
0.0
 40
0.0
 40
0.0
 40
0.0
 40
0.4890171940545653
 40
0.9779015004202584
 40
0.9999999999999999
 40
0.9999999999999999
 40
0.9999999999999999
 40
0.9999999999999999
 10
783.8220449265128
 20
1219.691453533158
 30
0.0
 10
783.7021580940717
 20
1219.575181824006
 30
0.0
 10
783.462417007766
 20
1219.342670001887
 30
0.0
 10
783.2589017259122
 20
1219.101161700275
 30
0.0
 10
783.2063515124172
 20
1218.976178910299
 30
0.0
 10
783.2040788706428
 20
1218.970773773179
 30
0.0
  0
SPLINE
  5
213
330
1F
100
AcDbEntity
  8
0
  6
Continuous
 62
     7
370
    15
100
AcDbSpline
210
0.0
220
0.0
230
1.0
 70
     8
 71
     3
 72
    14
 73
    10
 74
     0
 42
0.00000001
 43
0.00000001
 12
1.0
 22
0.0
 32
0.0
 13
1.0
 23
0.0
 33
0.0
 40
0.0
 40
0.0
 40
0.0
 40
0.0
 40
0.1803119017931405
 40
0.3621157258978591
 40
0.4866233853545218
 40
0.611129058684571
 40
0.7389518871691947
 40
0.8668076924778417
 40
1.0
 40
1.0
 40
1.0
 40
1.0
 10
783.8220449265128
 20
1212.342975692735
 30
0.0
 10
783.6584503440237
 20
1212.7763502436
 30
0.0
 10
783.3299075778395
 20
1213.646685138367
 30
0.0
 10
783.0788346308458
 20
1214.846813453754
 30
0.0
 10
783.0009378259782
 20
1215.917485707417
 30
0.0
 10
783.044070263948
 20
1216.855118779072
 30
0.0
 10
783.2013310871566
 20
1217.794728660719
 30
0.0
 10
783.4572445591288
 20
1218.745517117515
 30
0.0
 10
783.6987988050895
 20
1219.371873278409
 30
0.0
 10
783.8220449265128
 20
1219.691453533158
 30
0.0
  0
SPLINE
  5
214
330
1F
100
AcDbEntity
  8
0
  6
Continuous
 62
     7
370
    15
100
AcDbSpline
210
0.0
220
0.0
230
1.0
 70
     8
 71
     3
 72
    14
 73
    10
 74
     0
 42
0.00000001
 43
0.00000001
 12
1.0
 22
0.0
 32
0.0
 13
1.0
 23
0.0
 33
0.0
 40
0.0
 40
0.0
 40
0.0
 40
0.0
 40
0.1323163825130522
 40
0.2645968087888067
 40
0.3998384014777276
 40
0.5350516458282201
 40
0.6502543204523871
 40
0.7654729891566064
 40
1.0
 40
1.0
 40
1.0
 40
1.0
 10
783.8220449265128
 20
1199.615059452042
 30
0.0
 10
783.6996819176452
 20
1199.731266820247
 30
0.0
 10
783.4549891513733
 20
1199.963649977952
 30
0.0
 10
783.1916554620526
 20
1200.321505957493
 30
0.0
 10
783.0334722927398
 20
1200.686086403154
 30
0.0
 10
783.0017245963148
 20
1201.037490827377
 30
0.0
 10
783.084334016605
 20
1201.369802312373
 30
0.0
 10
783.30103120923
 20
1201.789751113971
 30
0.0
 10
783.6129100623779
 20
1202.098046639841
 30
0.0
 10
783.8220449265128
 20
1202.304778652177
 30
0.0
  0
LINE
  5
215
330
1F
100
AcDbEntity
  8
0
  6
Continuous
 62
     7
370
    15
100
AcDbLine
 10
782.5851889428
 20
1201.4032583999
 30
0.0
 11
782.5851889428
 21
1217.9032545853
 31
0.0
  0
SPLINE
  5
216
330
1F
100
AcDbEntity
  8
0
  6
Continuous
 62
     7
370
    15
100
AcDbSpline
210
0.0
220
0.0
230
1.0
 70
     8
 71
     3
 72
    14
 73
    10
 74
     0
 42
0.00000001
 43
0.00000001
 12
1.0
 22
0.0
 32
0.0
 13
1.0
 23
0.0
 33
0.0
 40
0.0
 40
0.0
 40
0.0
 40
0.0
 40
0.1331923498549739
 40
0.2578379562602784
 40
0.3824525130853226
 40
0.5101682787318488
 40
0.6378834838994477
 40
0.8180572431475895
 40
1.0
 40
1.0
 40
1.0
 40
1.0
 10
791.748330193389
 20
1219.691453533158
 30
0.0
 10
791.8715841109761
 20
1219.371876813156
 30
0.0
 10
792.1101829362559
 20
1218.753230108271
 30
0.0
 10
792.363021623513
 20
1217.818300696805
 30
0.0
 10
792.5227823717215
 20
1216.887048698248
 30
0.0
 10
792.570620620469
 20
1215.941432089249
 30
0.0
 10
792.4935156842402
 20
1214.858771588771
 30
0.0
 10
792.2416603231793
 20
1213.650708600947
 30
0.0
 10
791.9133082542634
 20
1212.780304017745
 30
0.0
 10
791.748330193389
 20
1212.342975692735
 30
0.0
  0
SPLINE
  5
217
330
1F
100
AcDbEntity
  8
0
  6
Continuous
 62
     7
370
    15
100
AcDbSpline
210
0.0
220
0.0
230
1.0
 70
     8
 71
     3
 72
     9
 73
     5
 74
     0
 42
0.00000001
 43
0.00000001
 12
1.0
 22
0.0
 32
0.0
 13
1.0
 23
0.0
 33
0.0
 40
0.0
 40
0.0
 40
0.0
 40
0.0
 40
0.1326776745102531
 40
1.0
 40
1.0
 40
1.0
 40
1.0
 10
792.359680133689
 20
1218.970773773179
 30
0.0
 10
792.3434935987466
 20
1219.003166080144
 30
0.0
 10
792.2214946640925
 20
1219.247308940535
 30
0.0
 10
791.9681027005066
 20
1219.485159999541
 30
0.0
 10
791.748330193389
 20
1219.691453533158
 30
0.0
  0
SPLINE
  5
218
330
1F
100
AcDbEntity
  8
0
  6
Continuous
 62
     7
370
    15
100
AcDbSpline
210
0.0
220
0.0
230
1.0
 70
     8
 71
     3
 72
    14
 73
    10
 74
     0
 42
0.00000001
 43
0.00000001
 12
1.0
 22
0.0
 32
0.0
 13
1.0
 23
0.0
 33
0.0
 40
0.0
 40
0.0
 40
0.0
 40
0.0
 40
0.1323190173914869
 40
0.264598718136146
 40
0.3998375908042228
 40
0.5350515588176481
 40
0.6502534973006137
 40
0.7654719697350404
 40
1.0
 40
1.0
 40
1.0
 40
1.0
 10
791.748330193389
 20
1202.304778652177
 30
0.0
 10
791.8706926707804
 20
1202.188568848968
 30
0.0
 10
792.1153812673555
 20
1201.956183772581
 30
0.0
 10
792.3787185588523
 20
1201.598372513176
 30
0.0
 10
792.5369038968893
 20
1201.23378680281
 30
0.0
 10
792.5686521484863
 20
1200.882329395591
 30
0.0
 10
792.4860357849414
 20
1200.550076124948
 30
0.0
 10
792.2693706325592
 20
1200.130112103973
 30
0.0
 10
791.9574760332171
 20
1199.821801791688
 30
0.0
 10
791.748330193389
 20
1199.615059452043
 30
0.0
  0
SPLINE
  5
219
330
1F
100
AcDbEntity
  8
0
  6
Continuous
 62
     7
370
    15
100
AcDbSpline
210
0.0
220
0.0
230
1.0
 70
     8
 71
     3
 72
    14
 73
    10
 74
     0
 42
0.00000001
 43
0.00000001
 12
1.0
 22
0.0
 32
0.0
 13
1.0
 23
0.0
 33
0.0
 40
0.0
 40
0.0
 40
0.0
 40
0.0
 40
0.1323190346071531
 40
0.264598752562363
 40
0.3998376428260004
 40
0.5350516284317461
 40
0.6502535819033214
 40
0.7654722592744537
 40
0.9999999999999999
 40
0.9999999999999999
 40
0.9999999999999999
 40
0.9999999999999999
 10
783.8220449265128
 20
372.7162462043619
 30
0.0
 10
783.6996824391866
 20
372.8324560079355
 30
0.0
 10
783.4549938227449
 20
373.0648410850516
 30
0.0
 10
783.1916566813256
 20
373.4226523389482
 30
0.0
 10
783.033470760727
 20
373.7872380706966
 30
0.0
 10
783.0017245877942
 20
374.1386954016204
 30
0.0
 10
783.0843343299729
 20
374.4709490894747
 30
0.0
 10
783.301031785901
 20
374.8909118063182
 30
0.0
 10
783.612910168607
 20
375.1992228078756
 30
0.0
 10
783.8220449265128
 20
375.4059654044962
 30
0.0
  0
SPLINE
  5
21A
330
1F
100
AcDbEntity
  8
0
  6
Continuous
 62
     7
370
    15
100
AcDbSpline
210
0.0
220
0.0
230
1.0
 70
     8
 71
     3
 72
    14
 73
    10
 74
     0
 42
0.00000001
 43
0.00000001
 12
1.0
 22
0.0
 32
0.0
 13
1.0
 23
0.0
 33
0.0
 40
0.0
 40
0.0
 40
0.0
 40
0.0
 40
0.1323163830013054
 40
0.2645968097651804
 40
0.3998356903549934
 40
0.535051663607176
 40
0.6502516148673241
 40
0.7654729882911916
 40
1.0
 40
1.0
 40
1.0
 40
1.0
 10
783.8220449265128
 20
362.6780491638041
 30
0.0
 10
783.6996818543873
 20
363.1117353146065
 30
0.0
 10
783.4549889616171
 20
363.9789897644246
 30
0.0
 10
783.1916580144256
 20
365.3144918008937
 30
0.0
 10
783.0334700439138
 20
366.6751361864559
 30
0.0
 10
783.0017234276156
 20
367.9866430425318
 30
0.0
 10
783.0843376038733
 20
369.226811760762
 30
0.0
 10
783.3010262703044
 20
370.7940627778901
 30
0.0
 10
783.6129090478747
 20
371.9446855030152
 30
0.0
 10
783.8220449265128
 20
372.7162462043619
 30
0.0
  0
SPLINE
  5
21B
330
1F
100
AcDbEntity
  8
0
  6
Continuous
 62
     7
370
    15
100
AcDbSpline
210
0.0
220
0.0
230
1.0
 70
     8
 71
     3
 72
    14
 73
    10
 74
     0
 42
0.00000001
 43
0.00000001
 12
1.0
 22
0.0
 32
0.0
 13
1.0
 23
0.0
 33
0.0
 40
0.0
 40
0.0
 40
0.0
 40
0.0
 40
0.1803119017931405
 40
0.3621157258978591
 40
0.4866233853545218
 40
0.611129058684571
 40
0.7389518871691947
 40
0.8668076924778417
 40
1.0
 40
1.0
 40
1.0
 40
1.0
 10
783.8220449265128
 20
355.3295713233805
 30
0.0
 10
783.6584503440237
 20
355.7629488582809
 30
0.0
 10
783.3299075778395
 20
356.6332897458075
 30
0.0
 10
783.0788346308458
 20
357.8333775949229
 30
0.0
 10
783.0009378259782
 20
358.9040397819223
 30
0.0
 10
783.044070263948
 20
359.8417351964246
 30
0.0
 10
783.2013310871566
 20
360.7812827333487
 30
0.0
 10
783.4572445591288
 20
361.7320789251338
 30
0.0
 10
783.6987988050895
 20
362.3584574821014
 30
0.0
 10
783.8220449265128
 20
362.6780491638041
 30
0.0
  0
SPLINE
  5
21C
330
1F
100
AcDbEntity
  8
0
  6
Continuous
 62
     7
370
    15
100
AcDbSpline
210
0.0
220
0.0
230
1.0
 70
     8
 71
     3
 72
     9
 73
     5
 74
     0
 42
0.00000001
 43
0.00000001
 12
1.0
 22
0.0
 32
0.0
 13
1.0
 23
0.0
 33
0.0
 40
0.0
 40
0.0
 40
0.0
 40
0.0
 40
0.132678440760208
 40
1.0
 40
1.0
 40
1.0
 40
1.0
 10
783.2106949862128
 20
356.0502510833597
 30
0.0
 10
783.2268868510494
 20
356.0178587902282
 30
0.0
 10
783.3489252526439
 20
355.7737174440841
 30
0.0
 10
783.6022933303207
 20
355.5358654691493
 30
0.0
 10
783.8220449265128
 20
355.3295713233805
 30
0.0
  0
LINE
  5
21D
330
1F
100
AcDbEntity
  8
0
  6
Continuous
 62
     7
370
    15
100
AcDbLine
 10
782.5851889428
 20
357.1177702713
 30
0.0
 11
782.5851889428
 21
373.6177664566
 31
0.0
  0
LINE
  5
21E
330
1F
100
AcDbEntity
  8
0
  6
Continuous
 62
     7
370
    15
100
AcDbLine
 10
783.8220449265
 20
372.7162462044
 30
0.0
 11
791.7483301934
 21
372.7162462044
 31
0.0
  0
SPLINE
  5
21F
330
1F
100
AcDbEntity
  8
0
  6
Continuous
 62
     7
370
    15
100
AcDbSpline
210
0.0
220
0.0
230
1.0
 70
     8
 71
     3
 72
    14
 73
    10
 74
     0
 42
0.00000001
 43
0.00000001
 12
1.0
 22
0.0
 32
0.0
 13
1.0
 23
0.0
 33
0.0
 40
0.0
 40
0.0
 40
0.0
 40
0.0
 40
0.1323190161505
 40
0.2645994339253079
 40
0.3998383053250132
 40
0.5350542693886449
 40
0.6502542128204231
 40
0.7654726841742447
 40
1.0
 40
1.0
 40
1.0
 40
1.0
 10
791.748330193389
 20
372.7162462043619
 30
0.0
 10
791.870692807235
 20
372.2825498256285
 30
0.0
 10
792.1153823409029
 20
371.4152835804062
 30
0.0
 10
792.3787177552775
 20
370.079774055593
 30
0.0
 10
792.5369045959035
 20
368.7191292878085
 30
0.0
 10
792.5686528684436
 20
367.4076225881052
 30
0.0
 10
792.4860345958639
 20
366.1674634696951
 30
0.0
 10
792.2693713413196
 20
364.6002219588141
 30
0.0
 10
791.9574761924611
 20
363.4496096273069
 30
0.0
 10
791.748330193389
 20
362.6780491638041
 30
0.0
  0
LINE
  5
220
330
1F
100
AcDbEntity
  8
0
  6
Continuous
 62
     7
370
    15
100
AcDbLine
 10
783.8220449265
 20
362.6780491638
 30
0.0
 11
791.7483301934
 21
362.6780491638
 31
0.0
  0
SPLINE
  5
221
330
1F
100
AcDbEntity
  8
0
  6
Continuous
 62
     7
370
    15
100
AcDbSpline
210
0.0
220
0.0
230
1.0
 70
     8
 71
     3
 72
    10
 73
     6
 74
     0
 42
0.00000001
 43
0.00000001
 12
1.0
 22
0.0
 32
0.0
 13
1.0
 23
0.0
 33
0.0
 40
0.0
 40
0.0
 40
0.0
 40
0.0
 40
0.4890169138684262
 40
0.9779009401241192
 40
1.0
 40
1.0
 40
1.0
 40
1.0
 10
791.748330193389
 20
355.3295713233805
 30
0.0
 10
791.8682317834746
 20
355.4458426111543
 30
0.0
 10
792.1080023810584
 20
355.6783535906295
 30
0.0
 10
792.3113669131812
 20
355.9198663383419
 30
0.0
 10
792.3640334226861
 20
356.044845949632
 30
0.0
 10
792.3663111504203
 20
356.0502510833597
 30
0.0
  0
SPLINE
  5
222
330
1F
100
AcDbEntity
  8
0
  6
Continuous
 62
     7
370
    15
100
AcDbSpline
210
0.0
220
0.0
230
1.0
 70
     8
 71
     3
 72
    14
 73
    10
 74
     0
 42
0.00000001
 43
0.00000001
 12
1.0
 22
0.0
 32
0.0
 13
1.0
 23
0.0
 33
0.0
 40
0.0
 40
0.0
 40
0.0
 40
0.0
 40
0.1331923498549739
 40
0.2578379562602784
 40
0.3824525130853226
 40
0.5101682787318488
 40
0.6378834838994477
 40
0.8180572431475895
 40
1.0
 40
1.0
 40
1.0
 40
1.0
 10
791.748330193389
 20
362.6780491638041
 30
0.0
 10
791.8715841109761
 20
362.3584559862994
 30
0.0
 10
792.1101829362559
 20
361.739777422461
 30
0.0
 10
792.363021623513
 20
360.8049095373562
 30
0.0
 10
792.5227823717215
 20
359.8736382602638
 30
0.0
 10
792.570620620469
 20
358.9280387127759
 30
0.0
 10
792.4935156842402
 20
357.8453227804118
 30
0.0
 10
792.2416603231793
 20
356.63727106965
 30
0.0
 10
791.9133082542634
 20
355.7668885584679
 30
0.0
 10
791.748330193389
 20
355.3295713233805
 30
0.0
  0
SPLINE
  5
223
330
1F
100
AcDbEntity
  8
0
  6
Continuous
 62
     7
370
    15
100
AcDbSpline
210
0.0
220
0.0
230
1.0
 70
     8
 71
     3
 72
    14
 73
    10
 74
     0
 42
0.00000001
 43
0.00000001
 12
1.0
 22
0.0
 32
0.0
 13
1.0
 23
0.0
 33
0.0
 40
0.0
 40
0.0
 40
0.0
 40
0.0
 40
0.1323163652976037
 40
0.2645967743625879
 40
0.3998383494554665
 40
0.5350515762136049
 40
0.6502542358489575
 40
0.765472699616376
 40
1.0
 40
1.0
 40
1.0
 40
1.0
 10
791.748330193389
 20
375.4059654044962
 30
0.0
 10
791.8706931923223
 20
375.2897580366568
 30
0.0
 10
792.1153859387276
 20
375.0573748796804
 30
0.0
 10
792.3787197781273
 20
374.6995188946311
 30
0.0
 10
792.5369023648667
 20
374.334938470352
 30
0.0
 10
792.5686521399605
 20
373.9835339698375
 30
0.0
 10
792.486036098269
 20
373.6512229020708
 30
0.0
 10
792.2693712091898
 20
373.2312727963384
 30
0.0
 10
791.9574761394241
 20
372.9229779597239
 30
0.0
 10
791.748330193389
 20
372.7162462043619
 30
0.0
  0
LINE
  5
224
330
1F
100
AcDbEntity
  8
0
  6
Continuous
 62
     7
370
    15
100
AcDbLine
 10
783.8220449265
 20
1219.6914535332
 30
0.0
 11
791.7483301934
 21
1219.6914535332
 31
0.0
  0
LINE
  5
225
330
1F
100
AcDbEntity
  8
0
  6
Continuous
 62
     7
370
    15
100
AcDbLine
 10
783.8220449265
 20
355.3295713234
 30
0.0
 11
791.7483301934
 21
355.3295713234
 31
0.0
  0
LINE
  5
226
330
1F
100
AcDbEntity
  8
0
  6
Continuous
 62
     7
370
    15
100
AcDbLine
 10
783.8220449265
 20
1199.615059452
 30
0.0
 11
791.7483301934
 21
1199.615059452
 31
0.0
  0
LINE
  5
227
330
1F
100
AcDbEntity
  8
0
  6
Continuous
 62
     7
370
    15
100
AcDbLine
 10
783.8220449265
 20
375.4059654045
 30
0.0
 11
791.7483301934
 21
375.4059654045
 31
0.0
  0
LINE
  5
228
330
1F
100
AcDbEntity
  8
0
  6
Continuous
 62
     7
370
    15
100
AcDbLine
 10
747.4851908263
 20
1203.6532741356
 30
0.0
 11
747.4851908263
 21
1215.6532686519
 31
0.0
  0
LINE
  5
229
330
1F
100
AcDbEntity
  8
0
  6
Continuous
 62
     7
370
    15
100
AcDbLine
 10
747.4851908263
 20
359.3677562046
 30
0.0
 11
747.4851908263
 21
371.367750721
 31
0.0
  0
LINE
  5
22A
330
1F
100
AcDbEntity
  8
0
  6
Continuous
 62
     7
370
    15
100
AcDbLine
 10
792.9851861771
 20
1327.0665984917
 30
0.0
 11
792.9851861771
 21
1351.0665875244
 31
0.0
  0
LINE
  5
22B
330
1F
100
AcDbEntity
  8
0
  6
Continuous
 62
     7
370
    15
100
AcDbLine
 10
792.9851861771
 20
240.5466419029
 30
0.0
 11
792.9851861771
 21
247.9544263649
 31
0.0
  0
LINE
  5
22C
330
1F
100
AcDbEntity
  8
0
  6
Continuous
 62
     7
370
    15
100
AcDbLine
 10
792.9851861771
 20
223.9544373321
 30
0.0
 11
792.9851861771
 21
240.5466419029
 31
0.0
  0
LINE
  5
22D
330
1F
100
AcDbEntity
  8
0
  6
Continuous
 62
     7
370
    15
100
AcDbLine
 10
783.4602894362
 20
1329.3251972961
 30
0.0
 11
783.8220449265
 21
1328.7631851005
 31
0.0
  0
SPLINE
  5
22E
330
1F
100
AcDbEntity
  8
0
  6
Continuous
 62
     7
370
    15
100
AcDbSpline
210
0.0
220
0.0
230
1.0
 70
     8
 71
     3
 72
    14
 73
    10
 74
     0
 42
0.00000001
 43
0.00000001
 12
1.0
 22
0.0
 32
0.0
 13
1.0
 23
0.0
 33
0.0
 40
0.0
 40
0.0
 40
0.0
 40
0.0
 40
0.180311302485472
 40
0.3621155164845662
 40
0.4866245251498052
 40
0.6111281588304968
 40
0.7389523359860657
 40
0.8668068935548097
 40
0.9999999999999999
 40
0.9999999999999999
 40
0.9999999999999999
 40
0.9999999999999999
 10
783.8220449265128
 20
1345.393000202165
 30
0.0
 10
783.6584502011124
 20
1345.627542378884
 30
0.0
 10
783.3299062459307
 20
1346.098568655602
 30
0.0
 10
783.0788343372104
 20
1346.748061494263
 30
0.0
 10
783.0009376586696
 20
1347.327558495928
 30
0.0
 10
783.0440722366627
 20
1347.834942861638
 30
0.0
 10
783.2013280605995
 20
1348.343515430313
 30
0.0
 10
783.4572477428147
 20
1348.857999534482
 30
0.0
 10
783.698799250875
 20
1349.197022726666
 30
0.0
 10
783.8220449265128
 20
1349.370000915513
 30
0.0
  0
SPLINE
  5
22F
330
1F
100
AcDbEntity
  8
0
  6
Continuous
 62
     7
370
    15
100
AcDbSpline
210
0.0
220
0.0
230
1.0
 70
     8
 71
     3
 72
    16
 73
    12
 74
     0
 42
0.00000001
 43
0.00000001
 12
1.0
 22
0.0
 32
0.0
 13
1.0
 23
0.0
 33
0.0
 40
0.0
 40
0.0
 40
0.0
 40
0.0
 40
0.2499999999999927
 40
0.2499999999999927
 40
0.4999999999999853
 40
0.4999999999999853
 40
0.6249999999999968
 40
0.6249999999999968
 40
0.7500000000000082
 40
0.7500000000000082
 40
1.0
 40
1.0
 40
1.0
 40
1.0
 10
783.8220500325871
 20
1335.089630449079
 30
0.0
 10
783.5771291607771
 20
1335.930802793695
 30
0.0
 10
783.3752698573614
 20
1336.778107983123
 30
0.0
 10
783.0956286686528
 20
1338.490389514664
 30
0.0
 10
783.0187691875017
 20
1339.355497225924
 30
0.0
 10
783.017923845846
 20
1340.669457933377
 30
0.0
 10
783.0367124362257
 20
1341.109505815483
 30
0.0
 10
783.109978805912
 20
1341.979966928749
 30
0.0
 10
783.1643822273744
 20
1342.412279156856
 30
0.0
 10
783.3744592623315
 20
1343.701519115662
 30
0.0
 10
783.5768170368287
 20
1344.550780110025
 30
0.0
 10
783.8220423097196
 20
1345.393001161919
 30
0.0
  0
SPLINE
  5
230
330
1F
100
AcDbEntity
  8
0
  6
Continuous
 62
     7
370
    15
100
AcDbSpline
210
0.0
220
0.0
230
1.0
 70
     8
 71
     3
 72
    14
 73
    10
 74
     0
 42
0.00000001
 43
0.00000001
 12
1.0
 22
0.0
 32
0.0
 13
1.0
 23
0.0
 33
0.0
 40
0.0
 40
0.0
 40
0.0
 40
0.0
 40
0.1323185224386675
 40
0.2645981092965366
 40
0.3998383906124089
 40
0.5350529511095993
 40
0.6502543429905129
 40
0.7654732101813806
 40
1.0
 40
1.0
 40
1.0
 40
1.0
 10
783.8220449265128
 20
1328.763185100541
 30
0.0
 10
783.6996824169114
 20
1329.03652002686
 30
0.0
 10
783.4549934036681
 20
1329.583109448928
 30
0.0
 10
783.1916552401345
 20
1330.424773851302
 30
0.0
 10
783.0334714587964
 20
1331.282343400708
 30
0.0
 10
783.0017241623905
 20
1332.108855966717
 30
0.0
 10
783.084334903354
 20
1332.890480232244
 30
0.0
 10
783.3010306051573
 20
1333.878201444016
 30
0.0
 10
783.6129099298167
 20
1334.60335820007
 30
0.0
 10
783.8220449265128
 20
1335.089622097001
 30
0.0
  0
LINE
  5
231
330
1F
100
AcDbEntity
  8
0
  6
Continuous
 62
     7
370
    15
100
AcDbLine
 10
782.5851889428
 20
1330.8165651131
 30
0.0
 11
782.5851889428
 21
1347.316620903
 31
0.0
  0
LINE
  5
232
330
1F
100
AcDbEntity
  8
0
  6
Continuous
 62
     7
370
    15
100
AcDbLine
 10
783.8220449265
 20
1345.3930002022
 30
0.0
 11
791.7483301934
 21
1345.3930002022
 31
0.0
  0
SPLINE
  5
233
330
1F
100
AcDbEntity
  8
0
  6
Continuous
 62
     7
370
    15
100
AcDbSpline
210
0.0
220
0.0
230
1.0
 70
     8
 71
     3
 72
    16
 73
    12
 74
     0
 42
0.00000001
 43
0.00000001
 12
1.0
 22
0.0
 32
0.0
 13
1.0
 23
0.0
 33
0.0
 40
0.0
 40
0.0
 40
0.0
 40
0.0
 40
0.2499999999999845
 40
0.2499999999999845
 40
0.4999999999999689
 40
0.4999999999999689
 40
0.6249999999999767
 40
0.6249999999999767
 40
0.7499999999999845
 40
0.7499999999999845
 40
1.0
 40
1.0
 40
1.0
 40
1.0
 10
791.7483370383643
 20
1345.393001707038
 30
0.0
 10
791.9932570331703
 20
1344.551829193075
 30
0.0
 10
792.1951152649726
 20
1343.704523806583
 30
0.0
 10
792.4747539016092
 20
1341.992241822686
 30
0.0
 10
792.5516118985203
 20
1341.127133855596
 30
0.0
 10
792.5524548976772
 20
1339.813172747856
 30
0.0
 10
792.5336655204649
 20
1339.373125005646
 30
0.0
 10
792.460397669672
 20
1338.502664090844
 30
0.0
 10
792.405993544743
 20
1338.070351955879
 30
0.0
 10
792.1959145458632
 20
1336.781112252443
 30
0.0
 10
791.993555663264
 20
1335.931851395288
 30
0.0
 10
791.7483294742166
 20
1335.089630449079
 30
0.0
  0
LINE
  5
234
330
1F
100
AcDbEntity
  8
0
  6
Continuous
 62
     7
370
    15
100
AcDbLine
 10
783.8220449265
 20
1335.089622097
 30
0.0
 11
791.7483301934
 21
1335.089622097
 31
0.0
  0
SPLINE
  5
235
330
1F
100
AcDbEntity
  8
0
  6
Continuous
 62
     7
370
    15
100
AcDbSpline
210
0.0
220
0.0
230
1.0
 70
     8
 71
     3
 72
    14
 73
    10
 74
     0
 42
0.00000001
 43
0.00000001
 12
1.0
 22
0.0
 32
0.0
 13
1.0
 23
0.0
 33
0.0
 40
0.0
 40
0.0
 40
0.0
 40
0.0
 40
0.1331931498879865
 40
0.2578376536763543
 40
0.3824527113481072
 40
0.5101676047774212
 40
0.6378837017273372
 40
0.8180572334801411
 40
1.0
 40
1.0
 40
1.0
 40
1.0
 10
791.748330193389
 20
1349.370000915513
 30
0.0
 10
791.8715837090822
 20
1349.197023601871
 30
0.0
 10
792.1101800432057
 20
1348.862171060836
 30
0.0
 10
792.3630236163946
 20
1348.356282011803
 30
0.0
 10
792.52278141589
 20
1347.852244348232
 30
0.0
 10
792.5706206550905
 20
1347.340490287485
 30
0.0
 10
792.4935162821478
 20
1346.754537879779
 30
0.0
 10
792.2416600064043
 20
1346.100786972267
 30
0.0
 10
791.9133082202159
 20
1345.629696346742
 30
0.0
 10
791.748330193389
 20
1345.393000202165
 30
0.0
  0
LINE
  5
236
330
1F
100
AcDbEntity
  8
0
  6
Continuous
 62
     7
370
    15
100
AcDbLine
 10
791.7483301934
 20
1328.7631851005
 30
0.0
 11
792.1106966313
 21
1329.3251972961
 31
0.0
  0
SPLINE
  5
237
330
1F
100
AcDbEntity
  8
0
  6
Continuous
 62
     7
370
    15
100
AcDbSpline
210
0.0
220
0.0
230
1.0
 70
     8
 71
     3
 72
    16
 73
    12
 74
     0
 42
0.00000001
 43
0.00000001
 12
1.0
 22
0.0
 32
0.0
 13
1.0
 23
0.0
 33
0.0
 40
0.0
 40
0.0
 40
0.0
 40
0.0
 40
0.2500000000000095
 40
0.2500000000000095
 40
0.5000000000000191
 40
0.5000000000000191
 40
0.6250000000000143
 40
0.6250000000000143
 40
0.7500000000000095
 40
0.7500000000000095
 40
1.0
 40
1.0
 40
1.0
 40
1.0
 10
791.7483294742168
 20
1335.089630449079
 30
0.0
 10
791.9932511191543
 20
1334.573136880014
 30
0.0
 10
792.195110923682
 20
1334.052877632089
 30
0.0
 10
792.4747522120886
 20
1333.001508714969
 30
0.0
 10
792.5516112765614
 20
1332.470318381892
 30
0.0
 10
792.5524551983254
 20
1331.663524905632
 30
0.0
 10
792.5336660110067
 20
1331.393328377021
 30
0.0
 10
792.4603982913021
 20
1330.858851138072
 30
0.0
 10
792.405994111833
 20
1330.593404422728
 30
0.0
 10
792.195914643133
 20
1329.801790193155
 30
0.0
 10
791.9935550419771
 20
1329.280330180714
 30
0.0
 10
791.7483279080046
 20
1328.763192797847
 30
0.0
  0
LINE
  5
238
330
1F
100
AcDbEntity
  8
0
  6
Continuous
 62
     7
370
    15
100
AcDbLine
 10
783.8220449265
 20
239.9314027595
 30
0.0
 11
791.7483301934
 21
239.9314027595
 31
0.0
  0
SPLINE
  5
239
330
1F
100
AcDbEntity
  8
0
  6
Continuous
 62
     7
370
    15
100
AcDbSpline
210
0.0
220
0.0
230
1.0
 70
     8
 71
     3
 72
    16
 73
    12
 74
     0
 42
0.00000001
 43
0.00000001
 12
1.0
 22
0.0
 32
0.0
 13
1.0
 23
0.0
 33
0.0
 40
0.0
 40
0.0
 40
0.0
 40
0.0
 40
0.249999999999977
 40
0.249999999999977
 40
0.499999999999954
 40
0.499999999999954
 40
0.624999999999958
 40
0.624999999999958
 40
0.7499999999999621
 40
0.7499999999999621
 40
1.0
 40
1.0
 40
1.0
 40
1.0
 10
791.7483294742168
 20
239.9313944074559
 30
0.0
 10
791.993250362689
 20
239.090222005615
 30
0.0
 10
792.1951096769043
 20
238.2429167581269
 30
0.0
 10
792.4747508677616
 20
236.5306351076947
 30
0.0
 10
792.5516103399327
 20
235.6655273355578
 30
0.0
 10
792.5524556509877
 20
234.351566534349
 30
0.0
 10
792.533667047743
 20
233.9115186245472
 30
0.0
 10
792.4604006489619
 20
233.0410574560225
 30
0.0
 10
792.4059972111633
 20
232.6087452005811
 30
0.0
 10
792.1959201237554
 20
231.3195051603338
 30
0.0
 10
791.9935623098909
 20
230.4702441123997
 30
0.0
 10
791.7483369968909
 20
229.6280230070562
 30
0.0
  0
LINE
  5
23A
330
1F
100
AcDbEntity
  8
0
  6
Continuous
 62
     7
370
    15
100
AcDbLine
 10
783.8220449265
 20
229.6280246544
 30
0.0
 11
791.7483301934
 21
229.6280246544
 31
0.0
  0
SPLINE
  5
23B
330
1F
100
AcDbEntity
  8
0
  6
Continuous
 62
     7
370
    15
100
AcDbSpline
210
0.0
220
0.0
230
1.0
 70
     8
 71
     3
 72
    16
 73
    12
 74
     0
 42
0.00000001
 43
0.00000001
 12
1.0
 22
0.0
 32
0.0
 13
1.0
 23
0.0
 33
0.0
 40
0.0
 40
0.0
 40
0.0
 40
0.0
 40
0.2500000000000086
 40
0.2500000000000086
 40
0.5000000000000172
 40
0.5000000000000172
 40
0.6250000000000054
 40
0.6250000000000054
 40
0.7499999999999936
 40
0.7499999999999936
 40
1.0
 40
1.0
 40
1.0
 40
1.0
 10
783.8220422937662
 20
229.6280237494088
 30
0.0
 10
783.5771223340555
 20
230.4691962163047
 30
0.0
 10
783.3752641366199
 20
231.316501555625
 30
0.0
 10
783.0956255608304
 20
233.0287834440566
 30
0.0
 10
783.0187675901942
 20
233.893891362823
 30
0.0
 10
783.0179246178707
 20
235.2078523962854
 30
0.0
 10
783.0367140017923
 20
235.6479001105938
 30
0.0
 10
783.1099818608686
 20
236.5183609715866
 30
0.0
 10
783.1643859874896
 20
236.9506730800493
 30
0.0
 10
783.3744649849959
 20
238.2399127050386
 30
0.0
 10
783.5768238581142
 20
239.0891735113021
 30
0.0
 10
783.8220500325872
 20
239.9313944074559
 30
0.0
  0
SPLINE
  5
23C
330
1F
100
AcDbEntity
  8
0
  6
Continuous
 62
     7
370
    15
100
AcDbSpline
210
0.0
220
0.0
230
1.0
 70
     8
 71
     3
 72
     9
 73
     5
 74
     0
 42
0.00000001
 43
0.00000001
 12
1.0
 22
0.0
 32
0.0
 13
1.0
 23
0.0
 33
0.0
 40
0.0
 40
0.0
 40
0.0
 40
0.0
 40
0.9274852315817889
 40
1.0
 40
1.0
 40
1.0
 40
1.0
 10
783.8220449265128
 20
246.2578397559977
 30
0.0
 10
783.6915155817248
 20
246.0853877024283
 30
0.0
 10
783.5507808936205
 20
245.8994526085883
 30
0.0
 10
783.456557127503
 20
245.7097617621458
 30
0.0
 10
783.4497245129234
 20
245.6960063743448
 30
0.0
  0
SPLINE
  5
23D
330
1F
100
AcDbEntity
  8
0
  6
Continuous
 62
     7
370
    15
100
AcDbSpline
210
0.0
220
0.0
230
1.0
 70
     8
 71
     3
 72
    14
 73
    10
 74
     0
 42
0.00000001
 43
0.00000001
 12
1.0
 22
0.0
 32
0.0
 13
1.0
 23
0.0
 33
0.0
 40
0.0
 40
0.0
 40
0.0
 40
0.0
 40
0.1323185198019007
 40
0.2645981040237788
 40
0.3998349635007464
 40
0.5350529603747946
 40
0.6502543499600416
 40
0.7654732148548944
 40
1.0
 40
1.0
 40
1.0
 40
1.0
 10
783.8220449265128
 20
239.9314027595377
 30
0.0
 10
783.699682325324
 20
240.204736275265
 30
0.0
 10
783.454993128933
 20
240.7513228765651
 30
0.0
 10
783.1916586008183
 20
241.5930013901913
 30
0.0
 10
783.0334680727933
 20
242.4504881421649
 30
0.0
 10
783.0017243345
 20
243.2770809235613
 30
0.0
 10
783.0843346726824
 20
244.0586943308595
 30
0.0
 10
783.3010307358948
 20
245.0464211209276
 30
0.0
 10
783.6129099822947
 20
245.7715766690563
 30
0.0
 10
783.8220449265128
 20
246.2578397559977
 30
0.0
  0
SPLINE
  5
23E
330
1F
100
AcDbEntity
  8
0
  6
Continuous
 62
     7
370
    15
100
AcDbSpline
210
0.0
220
0.0
230
1.0
 70
     8
 71
     3
 72
    14
 73
    10
 74
     0
 42
0.00000001
 43
0.00000001
 12
1.0
 22
0.0
 32
0.0
 13
1.0
 23
0.0
 33
0.0
 40
0.0
 40
0.0
 40
0.0
 40
0.0
 40
0.1803113065741943
 40
0.3621155246958639
 40
0.4866223765633331
 40
0.611128174282829
 40
0.7389502062642697
 40
0.8668068905345352
 40
1.0
 40
1.0
 40
1.0
 40
1.0
 10
783.8220449265128
 20
225.6510239410256
 30
0.0
 10
783.6584502021619
 20
225.8855625407765
 30
0.0
 10
783.3299062490881
 20
226.356581633943
 30
0.0
 10
783.0788354403818
 20
227.0061200973926
 30
0.0
 10
783.0009377819216
 20
227.5854865061951
 30
0.0
 10
783.0440696429717
 20
228.0930076169685
 30
0.0
 10
783.2013327786938
 20
228.6014419063699
 30
0.0
 10
783.457244250892
 20
229.1160452861526
 30
0.0
 10
783.6987987350748
 20
229.4550548342912
 30
0.0
 10
783.8220449265128
 20
229.6280246543741
 30
0.0
  0
LINE
  5
23F
330
1F
100
AcDbEntity
  8
0
  6
Continuous
 62
     7
370
    15
100
AcDbLine
 10
782.5851889428
 20
227.7044039535
 30
0.0
 11
782.5851889428
 21
244.2044597435
 31
0.0
  0
SPLINE
  5
240
330
1F
100
AcDbEntity
  8
0
  6
Continuous
 62
     7
370
    15
100
AcDbSpline
210
0.0
220
0.0
230
1.0
 70
     8
 71
     3
 72
    14
 73
    10
 74
     0
 42
0.00000001
 43
0.00000001
 12
1.0
 22
0.0
 32
0.0
 13
1.0
 23
0.0
 33
0.0
 40
0.0
 40
0.0
 40
0.0
 40
0.0
 40
0.1331931446195853
 40
0.2578376434776901
 40
0.3824526962203448
 40
0.5101675845979479
 40
0.6378836764961053
 40
0.8180593403303849
 40
1.0
 40
1.0
 40
1.0
 40
1.0
 10
791.748330193389
 20
229.6280246543741
 30
0.0
 10
791.8715837072044
 20
229.4550473625784
 30
0.0
 10
792.1101800376932
 20
229.1201948638317
 30
0.0
 10
792.3630236368019
 20
228.6143055132364
 30
0.0
 10
792.5227813384083
 20
228.1102689885434
 30
0.0
 10
792.5706209524295
 20
227.5985105669831
 30
0.0
 10
792.4935146021381
 20
227.0125738816151
 30
0.0
 10
792.241665613112
 20
226.3587245935866
 30
0.0
 10
791.9133088159945
 20
225.8876894513634
 30
0.0
 10
791.748330193389
 20
225.6510239410258
 30
0.0
  0
SPLINE
  5
241
330
1F
100
AcDbEntity
  8
0
  6
Continuous
 62
     7
370
    15
100
AcDbSpline
210
0.0
220
0.0
230
1.0
 70
     8
 71
     3
 72
    16
 73
    12
 74
     0
 42
0.00000001
 43
0.00000001
 12
1.0
 22
0.0
 32
0.0
 13
1.0
 23
0.0
 33
0.0
 40
0.0
 40
0.0
 40
0.0
 40
0.0
 40
0.2499999999999905
 40
0.2499999999999905
 40
0.4999999999999809
 40
0.4999999999999809
 40
0.6249999999999857
 40
0.6249999999999857
 40
0.7499999999999905
 40
0.7499999999999905
 40
1.0
 40
1.0
 40
1.0
 40
1.0
 10
791.7483278940739
 20
246.2578320880662
 30
0.0
 10
791.9932497261353
 20
245.7413385324577
 30
0.0
 10
792.1951097570623
 20
245.2210793014239
 30
0.0
 10
792.4747515790993
 20
244.1697104251563
 30
0.0
 10
792.5516109515165
 20
243.6385201161015
 30
0.0
 10
792.552455355429
 20
242.8317266776449
 30
0.0
 10
792.533666329453
 20
242.5615301270907
 30
0.0
 10
792.460398912307
 20
242.0270528547046
 30
0.0
 10
792.405994875949
 20
241.7616061234656
 30
0.0
 10
792.1959158051735
 20
240.9699918493752
 30
0.0
 10
791.9935564262391
 20
240.4485318115983
 30
0.0
 10
791.7483294742165
 20
239.9313944074559
 30
0.0
  0
SPLINE
  5
242
330
1F
100
AcDbEntity
  8
0
  6
Continuous
 62
     7
370
    15
100
AcDbSpline
210
0.0
220
0.0
230
1.0
 70
     8
 71
     3
 72
     9
 73
     5
 74
     0
 42
0.00000001
 43
0.00000001
 12
1.0
 22
0.0
 32
0.0
 13
1.0
 23
0.0
 33
0.0
 40
0.0
 40
0.0
 40
0.0
 40
0.0
 40
0.0725044529769336
 40
1.0
 40
1.0
 40
1.0
 40
1.0
 10
792.1205612000114
 20
245.6960063743447
 30
0.0
 10
792.1137594056124
 20
245.7097618366446
 30
0.0
 10
792.0199473138074
 20
245.8994806985233
 30
0.0
 10
791.8790301942644
 20
246.0854002240069
 30
0.0
 10
791.748330193389
 20
246.2578397559977
 30
0.0
  0
LINE
  5
243
330
1F
100
AcDbEntity
  8
0
  6
Continuous
 62
     7
370
    15
100
AcDbLine
 10
783.8220449265
 20
1328.7631851005
 30
0.0
 11
791.7483301934
 21
1328.7631851005
 31
0.0
  0
LINE
  5
244
330
1F
100
AcDbEntity
  8
0
  6
Continuous
 62
     7
370
    15
100
AcDbLine
 10
783.8220449265
 20
246.257839756
 30
0.0
 11
791.7483301934
 21
246.257839756
 31
0.0
  0
LINE
  5
245
330
1F
100
AcDbEntity
  8
0
  6
Continuous
 62
     7
370
    15
100
AcDbLine
 10
783.8220449265
 20
1349.3700009155
 30
0.0
 11
791.7483301934
 21
1349.3700009155
 31
0.0
  0
LINE
  5
246
330
1F
100
AcDbEntity
  8
0
  6
Continuous
 62
     7
370
    15
100
AcDbLine
 10
783.8220449265
 20
225.651023941
 30
0.0
 11
791.7483301934
 21
225.651023941
 31
0.0
  0
LINE
  5
247
330
1F
100
AcDbEntity
  8
0
  6
Continuous
 62
     7
370
    15
100
AcDbLine
 10
747.4851908263
 20
1333.0665808487
 30
0.0
 11
747.4851908263
 21
1345.0666051674
 31
0.0
  0
LINE
  5
248
330
1F
100
AcDbEntity
  8
0
  6
Continuous
 62
     7
370
    15
100
AcDbLine
 10
747.4851908263
 20
229.9544196892
 30
0.0
 11
747.4851908263
 21
241.9544440079
 31
0.0
  0
LINE
  5
249
330
1F
100
AcDbEntity
  8
0
  6
Continuous
 62
     7
370
    15
100
AcDbLine
 10
792.9851861771
 20
1372.5104909706
 30
0.0
 11
792.9851861771
 21
1396.510539608
 31
0.0
  0
LINE
  5
24A
330
1F
100
AcDbEntity
  8
0
  6
Continuous
 62
     7
370
    15
100
AcDbLine
 10
792.9851861771
 20
190.5105095672
 30
0.0
 11
792.9851861771
 21
202.5105338859
 31
0.0
  0
LINE
  5
24B
330
1F
100
AcDbEntity
  8
0
  6
Continuous
 62
     7
370
    15
100
AcDbLine
 10
792.9851861771
 20
178.5104852486
 30
0.0
 11
792.9851861771
 21
190.5105095672
 31
0.0
  0
SPLINE
  5
24C
330
1F
100
AcDbEntity
  8
0
  6
Continuous
 62
     7
370
    15
100
AcDbSpline
210
0.0
220
0.0
230
1.0
 70
    24
 71
     3
 72
    11
 73
     7
 74
     0
 42
0.00000001
 43
0.00000001
 12
1.0
 22
0.0
 32
0.0
 13
1.0
 23
0.0
 33
0.0
 40
0.0
 40
0.0
 40
0.0
 40
0.0
 40
0.02018235280155
 40
0.2756545003225499
 40
0.6360607518602744
 40
1.0
 40
1.0
 40
1.0
 40
1.0
 10
783.0228956516868
 20
1375.510511951432
 30
0.0
 10
783.0215298417893
 20
1375.510511951432
 30
0.0
 10
783.0028753445396
 20
1375.510511951432
 30
0.0
 10
783.0879465115486
 20
1375.510511951432
 30
0.0
 10
783.3255441428819
 20
1375.510511951432
 30
0.0
 10
783.6560073869279
 20
1375.510511951432
 30
0.0
 10
783.8220449265128
 20
1375.510511951432
 30
0.0
  0
SPLINE
  5
24D
330
1F
100
AcDbEntity
  8
0
  6
Continuous
 62
     7
370
    15
100
AcDbSpline
210
0.0
220
0.0
230
1.0
 70
    24
 71
     3
 72
    11
 73
     7
 74
     0
 42
0.00000001
 43
0.00000001
 12
1.0
 22
0.0
 32
0.0
 13
1.0
 23
0.0
 33
0.0
 40
0.0
 40
0.0
 40
0.0
 40
0.0
 40
0.3606763202718356
 40
0.7243370396965445
 40
0.9733887812216153
 40
1.0
 40
1.0
 40
1.0
 40
1.0
 10
783.8220449265128
 20
1393.510518627152
 30
0.0
 10
783.6574620599508
 20
1393.510518627152
 30
0.0
 10
783.3269344936815
 20
1393.510518627152
 30
0.0
 10
783.0892635583269
 20
1393.510518627153
 30
0.0
 10
783.0047113541741
 20
1393.510518627152
 30
0.0
 10
783.0221916608979
 20
1393.510518627153
 30
0.0
 10
783.0238791283256
 20
1393.510518627153
 30
0.0
  0
SPLINE
  5
24E
330
1F
100
AcDbEntity
  8
0
  6
Continuous
 62
     7
370
    15
100
AcDbSpline
210
0.0
220
0.0
230
1.0
 70
     8
 71
     3
 72
    16
 73
    12
 74
     0
 42
0.00000001
 43
0.00000001
 12
1.0
 22
0.0
 32
0.0
 13
1.0
 23
0.0
 33
0.0
 40
0.0
 40
0.0
 40
0.0
 40
0.0
 40
0.2499999999999932
 40
0.2499999999999932
 40
0.4999999999999865
 40
0.4999999999999865
 40
0.6249999999999831
 40
0.6249999999999831
 40
0.7499999999999797
 40
0.7499999999999797
 40
1.0
 40
1.0
 40
1.0
 40
1.0
 10
783.8220500325871
 20
1384.510512428269
 30
0.0
 10
783.5771285180047
 20
1385.245276972017
 30
0.0
 10
783.3752687979681
 20
1385.985398573433
 30
0.0
 10
783.0956275263712
 20
1387.481077591493
 30
0.0
 10
783.0187683916428
 20
1388.236749760442
 30
0.0
 10
783.0179242304736
 20
1389.384495367698
 30
0.0
 10
783.0367133171436
 20
1389.768877379145
 30
0.0
 10
783.1099808092245
 20
1390.529225546318
 30
0.0
 10
783.1643848608879
 20
1390.90685046499
 30
0.0
 10
783.37446391924
 20
1392.033002125285
 30
0.0
 10
783.5768232124071
 20
1392.77483196773
 30
0.0
 10
783.8220500325873
 20
1393.510512428269
 30
0.0
  0
SPLINE
  5
24F
330
1F
100
AcDbEntity
  8
0
  6
Continuous
 62
     7
370
    15
100
AcDbSpline
210
0.0
220
0.0
230
1.0
 70
     8
 71
     3
 72
    16
 73
    12
 74
     0
 42
0.00000001
 43
0.00000001
 12
1.0
 22
0.0
 32
0.0
 13
1.0
 23
0.0
 33
0.0
 40
0.0
 40
0.0
 40
0.0
 40
0.0
 40
0.2500000000000068
 40
0.2500000000000068
 40
0.5000000000000135
 40
0.5000000000000135
 40
0.6250000000000169
 40
0.6250000000000169
 40
0.7500000000000203
 40
0.7500000000000203
 40
1.0
 40
1.0
 40
1.0
 40
1.0
 10
783.8220500325871
 20
1375.510512428269
 30
0.0
 10
783.5771285180047
 20
1376.245276972017
 30
0.0
 10
783.3752687979681
 20
1376.985398573433
 30
0.0
 10
783.0956275263712
 20
1378.481077591493
 30
0.0
 10
783.0187683916428
 20
1379.236749760442
 30
0.0
 10
783.0179242304737
 20
1380.384495367698
 30
0.0
 10
783.0367133171437
 20
1380.768877379145
 30
0.0
 10
783.1099808092246
 20
1381.529225546318
 30
0.0
 10
783.1643848608879
 20
1381.90685046499
 30
0.0
 10
783.3744639192399
 20
1383.033002125286
 30
0.0
 10
783.5768232124074
 20
1383.774831967729
 30
0.0
 10
783.8220500325873
 20
1384.510512428269
 30
0.0
  0
LINE
  5
250
330
1F
100
AcDbEntity
  8
0
  6
Continuous
 62
     7
370
    15
100
AcDbLine
 10
782.5851889428
 20
1376.2605171966
 30
0.0
 11
782.5851889428
 21
1392.7605133819
 31
0.0
  0
LINE
  5
251
330
1F
100
AcDbEntity
  8
0
  6
Continuous
 62
     7
370
    15
100
AcDbLine
 10
783.8220449265
 20
1384.5105152893
 30
0.0
 11
791.7483301934
 21
1384.5105152893
 31
0.0
  0
SPLINE
  5
252
330
1F
100
AcDbEntity
  8
0
  6
Continuous
 62
     7
370
    15
100
AcDbSpline
210
0.0
220
0.0
230
1.0
 70
     8
 71
     3
 72
    16
 73
    12
 74
     0
 42
0.00000001
 43
0.00000001
 12
1.0
 22
0.0
 32
0.0
 13
1.0
 23
0.0
 33
0.0
 40
0.0
 40
0.0
 40
0.0
 40
0.0
 40
0.2499999999999795
 40
0.2499999999999795
 40
0.499999999999959
 40
0.499999999999959
 40
0.6249999999999626
 40
0.6249999999999626
 40
0.749999999999966
 40
0.749999999999966
 40
1.0
 40
1.0
 40
1.0
 40
1.0
 10
791.7483294742167
 20
1384.510512428269
 30
0.0
 10
791.9932509887991
 20
1383.775747884522
 30
0.0
 10
792.1951107088356
 20
1383.035626283106
 30
0.0
 10
792.4747519804328
 20
1381.539947265046
 30
0.0
 10
792.551611115161
 20
1380.784275096097
 30
0.0
 10
792.5524552763302
 20
1379.636529488841
 30
0.0
 10
792.5336661896602
 20
1379.252147477393
 30
0.0
 10
792.4603986975793
 20
1378.491799310221
 30
0.0
 10
792.4059946459159
 20
1378.114174391548
 30
0.0
 10
792.1959155875638
 20
1376.988022731253
 30
0.0
 10
791.9935562943965
 20
1376.246192888809
 30
0.0
 10
791.7483294742166
 20
1375.510512428269
 30
0.0
  0
LINE
  5
253
330
1F
100
AcDbEntity
  8
0
  6
Continuous
 62
     7
370
    15
100
AcDbLine
 10
783.8220449265
 20
1375.5105119514
 30
0.0
 11
791.7483301934
 21
1375.5105119514
 31
0.0
  0
LINE
  5
254
330
1F
100
AcDbEntity
  8
0
  6
Continuous
 62
     7
370
    15
100
AcDbLine
 10
783.8220449265
 20
1393.5105186272
 30
0.0
 11
791.7483301934
 21
1393.5105186272
 31
0.0
  0
SPLINE
  5
255
330
1F
100
AcDbEntity
  8
0
  6
Continuous
 62
     7
370
    15
100
AcDbSpline
210
0.0
220
0.0
230
1.0
 70
     8
 71
     3
 72
    16
 73
    12
 74
     0
 42
0.00000001
 43
0.00000001
 12
1.0
 22
0.0
 32
0.0
 13
1.0
 23
0.0
 33
0.0
 40
0.0
 40
0.0
 40
0.0
 40
0.0
 40
0.2500000000000068
 40
0.2500000000000068
 40
0.5000000000000135
 40
0.5000000000000135
 40
0.6250000000000169
 40
0.6250000000000169
 40
0.7500000000000203
 40
0.7500000000000203
 40
1.0
 40
1.0
 40
1.0
 40
1.0
 10
791.7483294742168
 20
1393.510512428269
 30
0.0
 10
791.9932509887992
 20
1392.775747884522
 30
0.0
 10
792.1951107088356
 20
1392.035626283106
 30
0.0
 10
792.4747519804328
 20
1390.539947265046
 30
0.0
 10
792.551611115161
 20
1389.784275096097
 30
0.0
 10
792.5524552763303
 20
1388.636529488841
 30
0.0
 10
792.5336661896603
 20
1388.252147477393
 30
0.0
 10
792.4603986975793
 20
1387.491799310221
 30
0.0
 10
792.4059946459158
 20
1387.114174391549
 30
0.0
 10
792.195915587564
 20
1385.988022731253
 30
0.0
 10
791.9935562943966
 20
1385.246192888809
 30
0.0
 10
791.7483294742166
 20
1384.510512428269
 30
0.0
  0
SPLINE
  5
256
330
1F
100
AcDbEntity
  8
0
  6
Continuous
 62
     7
370
    15
100
AcDbSpline
210
0.0
220
0.0
230
1.0
 70
    24
 71
     3
 72
    11
 73
     7
 74
     0
 42
0.00000001
 43
0.00000001
 12
1.0
 22
0.0
 32
0.0
 13
1.0
 23
0.0
 33
0.0
 40
0.0
 40
0.0
 40
0.0
 40
0.0
 40
0.0201823474900451
 40
0.2756544277769833
 40
0.6360601717745342
 40
1.0
 40
1.0
 40
1.0
 40
1.0
 10
792.5474794682151
 20
1393.510518627152
 30
0.0
 10
792.5488452817908
 20
1393.510518627152
 30
0.0
 10
792.5674998292769
 20
1393.510518627152
 30
0.0
 10
792.4824240836845
 20
1393.510518627153
 30
0.0
 10
792.2448545990366
 20
1393.510518627152
 30
0.0
 10
791.9143757976274
 20
1393.510518627153
 30
0.0
 10
791.748330193389
 20
1393.510518627152
 30
0.0
  0
SPLINE
  5
257
330
1F
100
AcDbEntity
  8
0
  6
Continuous
 62
     7
370
    15
100
AcDbSpline
210
0.0
220
0.0
230
1.0
 70
    24
 71
     3
 72
    11
 73
     7
 74
     0
 42
0.00000001
 43
0.00000001
 12
1.0
 22
0.0
 32
0.0
 13
1.0
 23
0.0
 33
0.0
 40
0.0
 40
0.0
 40
0.0
 40
0.0
 40
0.3606762357906141
 40
0.7243368700350655
 40
0.9733886954908091
 40
1.0
 40
1.0
 40
1.0
 40
1.0
 10
791.748330193389
 20
1375.510511951432
 30
0.0
 10
791.912916675266
 20
1375.510511951433
 30
0.0
 10
792.24345150208
 20
1375.510511951433
 30
0.0
 10
792.4810734451283
 20
1375.510511951432
 30
0.0
 10
792.5657235646429
 20
1375.510511951433
 30
0.0
 10
792.5481887275258
 20
1375.510511951432
 30
0.0
 10
792.5464959915763
 20
1375.510511951432
 30
0.0
  0
SPLINE
  5
258
330
1F
100
AcDbEntity
  8
0
  6
Continuous
 62
     7
370
    15
100
AcDbSpline
210
0.0
220
0.0
230
1.0
 70
    24
 71
     3
 72
    11
 73
     7
 74
     0
 42
0.00000001
 43
0.00000001
 12
1.0
 22
0.0
 32
0.0
 13
1.0
 23
0.0
 33
0.0
 40
0.0
 40
0.0
 40
0.0
 40
0.0
 40
0.2663419092090988
 40
0.5155953393212273
 40
0.7647875368009964
 40
1.0
 40
1.0
 40
1.0
 40
1.0
 10
783.8220449265128
 20
199.5105129051065
 30
0.0
 10
783.698640814908
 20
199.5105129051066
 30
0.0
 10
783.459750191253
 20
199.5105129051067
 30
0.0
 10
783.2089835301942
 20
199.5105129051065
 30
0.0
 10
783.0459772532498
 20
199.5105129051066
 30
0.0
 10
783.0304400529775
 20
199.5105129051065
 30
0.0
 10
783.0228956516868
 20
199.5105129051066
 30
0.0
  0
SPLINE
  5
259
330
1F
100
AcDbEntity
  8
0
  6
Continuous
 62
     7
370
    15
100
AcDbSpline
210
0.0
220
0.0
230
1.0
 70
     8
 71
     3
 72
    16
 73
    12
 74
     0
 42
0.00000001
 43
0.00000001
 12
1.0
 22
0.0
 32
0.0
 13
1.0
 23
0.0
 33
0.0
 40
0.0
 40
0.0
 40
0.0
 40
0.0
 40
0.2499999999999932
 40
0.2499999999999932
 40
0.4999999999999863
 40
0.4999999999999863
 40
0.624999999999983
 40
0.624999999999983
 40
0.7499999999999797
 40
0.7499999999999797
 40
1.0
 40
1.0
 40
1.0
 40
1.0
 10
783.8220500325871
 20
190.5105124282693
 30
0.0
 10
783.5771285180048
 20
191.2452769720167
 30
0.0
 10
783.3752687979683
 20
191.9853985734327
 30
0.0
 10
783.0956275263712
 20
193.481077591493
 30
0.0
 10
783.0187683916429
 20
194.2367497604417
 30
0.0
 10
783.0179242304736
 20
195.3844953676976
 30
0.0
 10
783.0367133171437
 20
195.7688773791451
 30
0.0
 10
783.1099808092246
 20
196.5292255463181
 30
0.0
 10
783.164384860888
 20
196.9068504649905
 30
0.0
 10
783.3744639192399
 20
198.0330021252857
 30
0.0
 10
783.5768232124074
 20
198.7748319677294
 30
0.0
 10
783.8220500325873
 20
199.5105124282695
 30
0.0
  0
SPLINE
  5
25A
330
1F
100
AcDbEntity
  8
0
  6
Continuous
 62
     7
370
    15
100
AcDbSpline
210
0.0
220
0.0
230
1.0
 70
     8
 71
     3
 72
    16
 73
    12
 74
     0
 42
0.00000001
 43
0.00000001
 12
1.0
 22
0.0
 32
0.0
 13
1.0
 23
0.0
 33
0.0
 40
0.0
 40
0.0
 40
0.0
 40
0.0
 40
0.2499999999999796
 40
0.2499999999999796
 40
0.4999999999999591
 40
0.4999999999999591
 40
0.6249999999999626
 40
0.6249999999999626
 40
0.749999999999966
 40
0.749999999999966
 40
1.0
 40
1.0
 40
1.0
 40
1.0
 10
783.8220500325871
 20
181.5105124282693
 30
0.0
 10
783.5771285180047
 20
182.2452769720163
 30
0.0
 10
783.3752687979683
 20
182.9853985734327
 30
0.0
 10
783.0956275263712
 20
184.481077591493
 30
0.0
 10
783.0187683916428
 20
185.2367497604419
 30
0.0
 10
783.0179242304737
 20
186.384495367698
 30
0.0
 10
783.0367133171436
 20
186.7688773791454
 30
0.0
 10
783.1099808092246
 20
187.529225546318
 30
0.0
 10
783.1643848608878
 20
187.9068504649903
 30
0.0
 10
783.3744639192399
 20
189.0330021252855
 30
0.0
 10
783.5768232124072
 20
189.7748319677291
 30
0.0
 10
783.8220500325873
 20
190.5105124282694
 30
0.0
  0
SPLINE
  5
25B
330
1F
100
AcDbEntity
  8
0
  6
Continuous
 62
     7
370
    15
100
AcDbSpline
210
0.0
220
0.0
230
1.0
 70
    24
 71
     3
 72
    11
 73
     7
 74
     0
 42
0.00000001
 43
0.00000001
 12
1.0
 22
0.0
 32
0.0
 13
1.0
 23
0.0
 33
0.0
 40
0.0
 40
0.0
 40
0.0
 40
0.0
 40
0.2223706861011419
 40
0.4779793362745636
 40
0.7336556771732604
 40
0.9999999999999999
 40
0.9999999999999999
 40
0.9999999999999999
 40
0.9999999999999999
 10
783.0238791283256
 20
181.5105062293864
 30
0.0
 10
783.0300595825945
 20
181.5105062293862
 30
0.0
 10
783.0433442896805
 20
181.5105062293865
 30
0.0
 10
783.203087967117
 20
181.5105062293866
 30
0.0
 10
783.4567815952917
 20
181.510506229386
 30
0.0
 10
783.6986429283686
 20
181.5105062293864
 30
0.0
 10
783.8220449265128
 20
181.5105062293864
 30
0.0
  0
LINE
  5
25C
330
1F
100
AcDbEntity
  8
0
  6
Continuous
 62
     7
370
    15
100
AcDbLine
 10
782.5851889428
 20
182.2605114746
 30
0.0
 11
782.5851889428
 21
198.7605076599
 31
0.0
  0
LINE
  5
25D
330
1F
100
AcDbEntity
  8
0
  6
Continuous
 62
     7
370
    15
100
AcDbLine
 10
783.8220449265
 20
199.5105129051
 30
0.0
 11
791.7483301934
 21
199.5105129051
 31
0.0
  0
SPLINE
  5
25E
330
1F
100
AcDbEntity
  8
0
  6
Continuous
 62
     7
370
    15
100
AcDbSpline
210
0.0
220
0.0
230
1.0
 70
     8
 71
     3
 72
    16
 73
    12
 74
     0
 42
0.00000001
 43
0.00000001
 12
1.0
 22
0.0
 32
0.0
 13
1.0
 23
0.0
 33
0.0
 40
0.0
 40
0.0
 40
0.0
 40
0.0
 40
0.2499999999999932
 40
0.2499999999999932
 40
0.4999999999999863
 40
0.4999999999999863
 40
0.6249999999999966
 40
0.6249999999999966
 40
0.7500000000000068
 40
0.7500000000000068
 40
1.0
 40
1.0
 40
1.0
 40
1.0
 10
791.7483294742167
 20
199.5105124282695
 30
0.0
 10
791.9932509887991
 20
198.7757478845224
 30
0.0
 10
792.1951107088356
 20
198.0356262831062
 30
0.0
 10
792.4747519804328
 20
196.5399472650461
 30
0.0
 10
792.551611115161
 20
195.784275096097
 30
0.0
 10
792.5524552763302
 20
194.6365294888411
 30
0.0
 10
792.5336661896602
 20
194.2521474773938
 30
0.0
 10
792.4603986975792
 20
193.4917993102208
 30
0.0
 10
792.4059946459158
 20
193.1141743915485
 30
0.0
 10
792.1959155875638
 20
191.9880227312532
 30
0.0
 10
791.9935562943966
 20
191.2461928888094
 30
0.0
 10
791.7483294742165
 20
190.5105124282693
 30
0.0
  0
LINE
  5
25F
330
1F
100
AcDbEntity
  8
0
  6
Continuous
 62
     7
370
    15
100
AcDbLine
 10
783.8220449265
 20
190.5105095672
 30
0.0
 11
791.7483301934
 21
190.5105095672
 31
0.0
  0
SPLINE
  5
260
330
1F
100
AcDbEntity
  8
0
  6
Continuous
 62
     7
370
    15
100
AcDbSpline
210
0.0
220
0.0
230
1.0
 70
     8
 71
     3
 72
    16
 73
    12
 74
     0
 42
0.00000001
 43
0.00000001
 12
1.0
 22
0.0
 32
0.0
 13
1.0
 23
0.0
 33
0.0
 40
0.0
 40
0.0
 40
0.0
 40
0.0
 40
0.2500000000000068
 40
0.2500000000000068
 40
0.5000000000000135
 40
0.5000000000000135
 40
0.6250000000000169
 40
0.6250000000000169
 40
0.7500000000000203
 40
0.7500000000000203
 40
1.0
 40
1.0
 40
1.0
 40
1.0
 10
791.7483294742168
 20
190.5105124282694
 30
0.0
 10
791.9932509887992
 20
189.775747884522
 30
0.0
 10
792.1951107088356
 20
189.0356262831062
 30
0.0
 10
792.4747519804328
 20
187.5399472650461
 30
0.0
 10
792.551611115161
 20
186.7842750960973
 30
0.0
 10
792.5524552763303
 20
185.6365294888412
 30
0.0
 10
792.5336661896603
 20
185.2521474773936
 30
0.0
 10
792.4603986975793
 20
184.491799310221
 30
0.0
 10
792.4059946459158
 20
184.1141743915487
 30
0.0
 10
792.195915587564
 20
182.9880227312534
 30
0.0
 10
791.9935562943966
 20
182.2461928888094
 30
0.0
 10
791.7483294742166
 20
181.5105124282694
 30
0.0
  0
LINE
  5
261
330
1F
100
AcDbEntity
  8
0
  6
Continuous
 62
     7
370
    15
100
AcDbLine
 10
783.8220449265
 20
181.5105062294
 30
0.0
 11
791.7483301934
 21
181.5105062294
 31
0.0
  0
SPLINE
  5
262
330
1F
100
AcDbEntity
  8
0
  6
Continuous
 62
     7
370
    15
100
AcDbSpline
210
0.0
220
0.0
230
1.0
 70
    24
 71
     3
 72
    11
 73
     7
 74
     0
 42
0.00000001
 43
0.00000001
 12
1.0
 22
0.0
 32
0.0
 13
1.0
 23
0.0
 33
0.0
 40
0.0
 40
0.0
 40
0.0
 40
0.0
 40
0.2663418557590506
 40
0.5155957693921184
 40
0.7647875840039225
 40
0.9999999999999999
 40
0.9999999999999999
 40
0.9999999999999999
 40
0.9999999999999999
 10
791.748330193389
 20
181.5105062293864
 30
0.0
 10
791.8717320200252
 20
181.5105062293864
 30
0.0
 10
792.110618467548
 20
181.5105062293865
 30
0.0
 10
792.3614166302433
 20
181.5105062293861
 30
0.0
 10
792.5243920403061
 20
181.5105062293862
 30
0.0
 10
792.5399331590472
 20
181.5105062293862
 30
0.0
 10
792.5474794682151
 20
181.5105062293864
 30
0.0
  0
SPLINE
  5
263
330
1F
100
AcDbEntity
  8
0
  6
Continuous
 62
     7
370
    15
100
AcDbSpline
210
0.0
220
0.0
230
1.0
 70
    24
 71
     3
 72
    11
 73
     7
 74
     0
 42
0.00000001
 43
0.00000001
 12
1.0
 22
0.0
 32
0.0
 13
1.0
 23
0.0
 33
0.0
 40
0.0
 40
0.0
 40
0.0
 40
0.0
 40
0.2223704965047095
 40
0.4779790344446752
 40
0.7336557941205696
 40
1.0
 40
1.0
 40
1.0
 40
1.0
 10
792.5464959915763
 20
199.5105129051066
 30
0.0
 10
792.540321398329
 20
199.5105129051066
 30
0.0
 10
792.5270492864036
 20
199.5105129051067
 30
0.0
 10
792.3673057343588
 20
199.5105129051066
 30
0.0
 10
792.1135889794532
 20
199.5105129051068
 30
0.0
 10
791.8717305728576
 20
199.5105129051067
 30
0.0
 10
791.748330193389
 20
199.5105129051066
 30
0.0
  0
LINE
  5
264
330
1F
100
AcDbEntity
  8
0
  6
Continuous
 62
     7
370
    15
100
AcDbLine
 10
747.4851908263
 20
1378.5105329323
 30
0.0
 11
747.4851908263
 21
1390.5104976463
 31
0.0
  0
LINE
  5
265
330
1F
100
AcDbEntity
  8
0
  6
Continuous
 62
     7
370
    15
100
AcDbLine
 10
747.4851908263
 20
184.5105272102
 30
0.0
 11
747.4851908263
 21
196.5104919243
 31
0.0
  0
LINE
  5
266
330
1F
100
AcDbEntity
  8
0
  6
Continuous
 62
     7
370
     0
100
AcDbLine
 10
798.7361999329
 20
787.5105124283
 30
0.0
 11
798.7361999329
 21
1398.5105138588
 31
0.0
  0
LINE
  5
267
330
1F
100
AcDbEntity
  8
0
  6
Continuous
 62
     7
370
     0
100
AcDbLine
 10
798.7361999329
 20
176.5105109978
 30
0.0
 11
798.7361999329
 21
787.5105124283
 31
0.0
  0
LINE
  5
268
330
1F
100
AcDbEntity
  8
0
  6
Continuous
 62
     7
370
     0
100
AcDbLine
 10
801.724776822
 20
787.5105124283
 30
0.0
 11
801.724776822
 21
1395.7719784546
 31
0.0
  0
LINE
  5
269
330
1F
100
AcDbEntity
  8
0
  6
Continuous
 62
     7
370
     0
100
AcDbLine
 10
801.724776822
 20
179.249046402
 30
0.0
 11
801.724776822
 21
787.5105124283
 31
0.0
  0
LINE
  5
26A
330
1F
100
AcDbEntity
  8
0
  6
Continuous
 62
     7
370
     0
100
AcDbLine
 10
803.1470479544
 20
1345.0666051674
 30
0.0
 11
803.1470479544
 21
1379.5060497093
 31
0.0
  0
LINE
  5
26B
330
1F
100
AcDbEntity
  8
0
  6
Continuous
 62
     7
370
     0
100
AcDbLine
 10
803.1470479544
 20
1215.6532686519
 30
0.0
 11
803.1470479544
 21
1333.176432209
 31
0.0
  0
LINE
  5
26C
330
1F
100
AcDbEntity
  8
0
  6
Continuous
 62
     7
370
     0
100
AcDbLine
 10
803.1470479544
 20
1021.9725203085
 30
0.0
 11
803.1470479544
 21
1203.6532741356
 31
0.0
  0
LINE
  5
26D
330
1F
100
AcDbEntity
  8
0
  6
Continuous
 62
     7
370
     0
100
AcDbLine
 10
803.1470479544
 20
793.5105124804
 30
0.0
 11
803.1470479544
 21
1009.9725257921
 31
0.0
  0
LINE
  5
26E
330
1F
100
AcDbEntity
  8
0
  6
Continuous
 62
     7
370
     0
100
AcDbLine
 10
803.1470479544
 20
565.0484990644
 30
0.0
 11
803.1470479544
 21
781.5105123761
 31
0.0
  0
LINE
  5
26F
330
1F
100
AcDbEntity
  8
0
  6
Continuous
 62
     7
370
     0
100
AcDbLine
 10
803.1470479544
 20
371.367750721
 30
0.0
 11
803.1470479544
 21
553.0485045481
 31
0.0
  0
LINE
  5
270
330
1F
100
AcDbEntity
  8
0
  6
Continuous
 62
     7
370
     0
100
AcDbLine
 10
803.1470479544
 20
241.8445926475
 30
0.0
 11
803.1470479544
 21
359.3677562046
 31
0.0
  0
LINE
  5
271
330
1F
100
AcDbEntity
  8
0
  6
Continuous
 62
     7
370
     0
100
AcDbLine
 10
803.1470479544
 20
195.5149751472
 30
0.0
 11
803.1470479544
 21
229.9544196892
 31
0.0
  0
LINE
  5
272
330
1F
100
AcDbEntity
  8
0
  6
Continuous
 62
     7
370
     0
100
AcDbLine
 10
807.8663500126
 20
793.5105124804
 30
0.0
 11
807.8663500126
 21
1009.9725257921
 31
0.0
  0
LINE
  5
273
330
1F
100
AcDbEntity
  8
0
  6
Continuous
 62
     7
370
     0
100
AcDbLine
 10
807.8663500126
 20
1021.9725203085
 30
0.0
 11
807.8663500126
 21
1203.6532741356
 31
0.0
  0
LINE
  5
274
330
1F
100
AcDbEntity
  8
0
  6
Continuous
 62
     7
370
     0
100
AcDbLine
 10
807.8663500126
 20
1215.6532686519
 30
0.0
 11
807.8663500126
 21
1333.0665808487
 31
0.0
  0
LINE
  5
275
330
1F
100
AcDbEntity
  8
0
  6
Continuous
 62
     7
370
     0
100
AcDbLine
 10
807.8663500126
 20
1345.0666051674
 30
0.0
 11
807.8663500126
 21
1374.9579768944
 31
0.0
  0
LINE
  5
276
330
1F
100
AcDbEntity
  8
0
  6
Continuous
 62
     7
370
     0
100
AcDbLine
 10
807.8663500126
 20
200.0630479622
 30
0.0
 11
807.8663500126
 21
229.9544196892
 31
0.0
  0
LINE
  5
277
330
1F
100
AcDbEntity
  8
0
  6
Continuous
 62
     7
370
     0
100
AcDbLine
 10
807.8663500126
 20
241.9544440079
 30
0.0
 11
807.8663500126
 21
359.3677562046
 31
0.0
  0
LINE
  5
278
330
1F
100
AcDbEntity
  8
0
  6
Continuous
 62
     7
370
     0
100
AcDbLine
 10
807.8663500126
 20
371.367750721
 30
0.0
 11
807.8663500126
 21
553.0485045481
 31
0.0
  0
LINE
  5
279
330
1F
100
AcDbEntity
  8
0
  6
Continuous
 62
     7
370
     0
100
AcDbLine
 10
807.8663500126
 20
565.0484990644
 30
0.0
 11
807.8663500126
 21
781.5105123761
 31
0.0
  0
LINE
  5
27A
330
1F
100
AcDbEntity
  8
0
  6
Continuous
 62
     7
370
     0
100
AcDbLine
 10
833.1160323795
 20
793.5105124804
 30
0.0
 11
833.1160323795
 21
1009.9725257921
 31
0.0
  0
LINE
  5
27B
330
1F
100
AcDbEntity
  8
0
  6
Continuous
 62
     7
370
     0
100
AcDbLine
 10
833.1160323795
 20
1021.9725203085
 30
0.0
 11
833.1160323795
 21
1203.6532741356
 31
0.0
  0
LINE
  5
27C
330
1F
100
AcDbEntity
  8
0
  6
Continuous
 62
     7
370
     0
100
AcDbLine
 10
833.1160323795
 20
1215.6532686519
 30
0.0
 11
833.1160323795
 21
1333.0665808487
 31
0.0
  0
LINE
  5
27D
330
1F
100
AcDbEntity
  8
0
  6
Continuous
 62
     7
370
     0
100
AcDbLine
 10
833.1160323795
 20
1345.0666051674
 30
0.0
 11
833.1160323795
 21
1373.6346941757
 31
0.0
  0
LINE
  5
27E
330
1F
100
AcDbEntity
  8
0
  6
Continuous
 62
     7
370
     0
100
AcDbLine
 10
833.1160323795
 20
201.3863306808
 30
0.0
 11
833.1160323795
 21
229.9544196892
 31
0.0
  0
LINE
  5
27F
330
1F
100
AcDbEntity
  8
0
  6
Continuous
 62
     7
370
     0
100
AcDbLine
 10
833.1160323795
 20
241.9544440079
 30
0.0
 11
833.1160323795
 21
359.3677562046
 31
0.0
  0
LINE
  5
280
330
1F
100
AcDbEntity
  8
0
  6
Continuous
 62
     7
370
     0
100
AcDbLine
 10
833.1160323795
 20
371.367750721
 30
0.0
 11
833.1160323795
 21
553.0485045481
 31
0.0
  0
LINE
  5
281
330
1F
100
AcDbEntity
  8
0
  6
Continuous
 62
     7
370
     0
100
AcDbLine
 10
833.1160323795
 20
565.0484990644
 30
0.0
 11
833.1160323795
 21
781.5105123761
 31
0.0
  0
LINE
  5
282
330
1F
100
AcDbEntity
  8
FORMAT
  6
CENTERX2
370
     0
100
AcDbLine
 10
947.4851897534
 20
787.5105124283
 30
0.0
 11
729.6646286492
 21
787.5105124283
 31
0.0
  0
LINE
  5
283
330
1F
100
AcDbEntity
  8
0
  6
Continuous
 62
     7
370
    15
100
AcDbLine
 10
510.822601323
 20
-237.3420476602
 30
0.0
 11
510.822601323
 21
-207.3420483308
 31
0.0
  0
LINE
  5
284
330
1F
100
AcDbEntity
  8
0
  6
Continuous
 62
     7
370
    15
100
AcDbLine
 10
-844.1774177505
 20
-207.3420483308
 30
0.0
 11
-844.1774177505
 21
-237.3420476602
 31
0.0
  0
LINE
  5
285
330
1F
100
AcDbEntity
  8
0
  6
Continuous
 62
     7
370
    15
100
AcDbLine
 10
-777.6774096442
 20
-87.3420416998
 30
0.0
 11
-777.6774096442
 21
-90.5930578398
 31
0.0
  0
LINE
  5
286
330
1F
100
AcDbEntity
  8
0
  6
Continuous
 62
     7
370
    15
100
AcDbLine
 10
444.3225932168
 20
-90.5930578398
 30
0.0
 11
444.3225932168
 21
-87.3420416998
 31
0.0
  0
ARC
  5
287
330
1F
100
AcDbEntity
  8
0
  6
Continuous
 62
     7
370
    15
100
AcDbCircle
 10
-774.6774082137
 20
-90.5930541382
 30
0.0
 40
3.000000000000016
100
AcDbArc
 50
180.0
 51
265.0
  0
ARC
  5
288
330
1F
100
AcDbEntity
  8
0
  6
Continuous
 62
     7
370
    15
100
AcDbCircle
 10
441.3225917863
 20
-90.5930541382
 30
0.0
 40
3.000000000000016
100
AcDbArc
 50
275.0
 51
0.0
  0
LINE
  5
289
330
1F
100
AcDbEntity
  8
0
  6
Continuous
 62
     7
370
    15
100
AcDbLine
 10
-178.677408318
 20
-84.842044084
 30
0.0
 11
-178.677408318
 21
-87.3420416998
 31
0.0
  0
LINE
  5
28A
330
1F
100
AcDbEntity
  8
0
  6
Continuous
 62
     7
370
    15
100
AcDbLine
 10
-154.6774081094
 20
-87.3420416998
 30
0.0
 11
-154.6774081094
 21
-84.842044084
 31
0.0
  0
LINE
  5
28B
330
1F
100
AcDbEntity
  8
0
  6
Continuous
 62
     7
370
    15
100
AcDbLine
 10
-774.93887424
 20
-93.5816347288
 30
0.0
 11
-769.6661281539
 21
-94.042944877
 31
0.0
  0
LINE
  5
28C
330
1F
100
AcDbEntity
  8
0
  6
Continuous
 62
     7
370
    15
100
AcDbLine
 10
436.3113117265
 20
-94.042944877
 30
0.0
 11
441.5840578126
 21
-93.5816347288
 31
0.0
  0
LINE
  5
28D
330
1F
100
AcDbEntity
  8
0
  6
Continuous
 62
     7
370
    15
100
AcDbLine
 10
-156.2851037038
 20
-75.6789028334
 30
0.0
 11
-158.4274082584
 21
-74.4420468496
 31
0.0
  0
LINE
  5
28E
330
1F
100
AcDbEntity
  8
0
  6
Continuous
 62
     7
370
    15
100
AcDbLine
 10
-174.927408169
 20
-74.4420468496
 30
0.0
 11
-177.0697127236
 21
-75.6789028334
 31
0.0
  0
LINE
  5
28F
330
1F
100
AcDbEntity
  8
0
  6
Continuous
 62
     7
370
    15
100
AcDbLine
 10
-177.0697127236
 20
-83.6051881002
 30
0.0
 11
-174.927408169
 21
-84.842044084
 31
0.0
  0
LINE
  5
290
330
1F
100
AcDbEntity
  8
0
  6
Continuous
 62
     7
370
    15
100
AcDbLine
 10
-158.4274082584
 20
-84.842044084
 30
0.0
 11
-156.2851037038
 21
-83.6051881002
 31
0.0
  0
LINE
  5
291
330
1F
100
AcDbEntity
  8
0
  6
Continuous
 62
     7
370
    15
100
AcDbLine
 10
-160.6774081616
 20
-74.4420468496
 30
0.0
 11
-160.6774081616
 21
-39.3420487331
 31
0.0
  0
LINE
  5
292
330
1F
100
AcDbEntity
  8
0
  6
Continuous
 62
     7
370
    15
100
AcDbLine
 10
-172.6774082659
 20
-39.3420487331
 30
0.0
 11
-172.6774082659
 21
-74.4420468496
 31
0.0
  0
LINE
  5
293
330
1F
100
AcDbEntity
  8
0
  6
Continuous
 62
     7
370
    15
100
AcDbLine
 10
-160.6774081616
 20
-207.3420483308
 30
0.0
 11
-160.6774081616
 21
-94.5642023968
 31
0.0
  0
LINE
  5
294
330
1F
100
AcDbEntity
  8
0
  6
Continuous
 62
     7
370
    15
100
AcDbLine
 10
-172.6774082659
 20
-94.5642620014
 30
0.0
 11
-172.6774082659
 21
-207.3420483308
 31
0.0
  0
ARC
  5
295
330
1F
100
AcDbEntity
  8
0
  6
Continuous
 62
     7
370
    15
100
AcDbCircle
 10
-759.1179980949
 20
-99.9848848351
 30
0.0
 40
5.000000000000151
100
AcDbArc
 50
3.0
 51
73.5226866677
  0
ARC
  5
296
330
1F
100
AcDbEntity
  8
0
  6
Continuous
 62
     7
370
    15
100
AcDbCircle
 10
425.7631816674
 20
-99.9848848351
 30
0.0
 40
5.000000000000151
100
AcDbArc
 50
106.4803667118
 51
177.0
  0
LINE
  5
297
330
1F
100
AcDbEntity
  8
0
  6
Continuous
 62
     7
370
    15
100
AcDbLine
 10
-754.1248726798
 20
-99.7232079195
 30
0.0
 11
-752.8015899612
 21
-124.9728902863
 31
0.0
  0
LINE
  5
298
330
1F
100
AcDbEntity
  8
0
  6
Continuous
 62
     7
370
    15
100
AcDbLine
 10
419.4467735337
 20
-124.9728902863
 30
0.0
 11
420.7700562524
 21
-99.7232079195
 31
0.0
  0
ARC
  5
299
330
1F
100
AcDbEntity
  8
0
  6
Continuous
 62
     7
370
    15
100
AcDbCircle
 10
-750.3049967969
 20
-124.8420476602
 30
0.0
 40
2.499999999999915
100
AcDbArc
 50
183.0
 51
270.0
  0
ARC
  5
29A
330
1F
100
AcDbEntity
  8
0
  6
Continuous
 62
     7
370
    15
100
AcDbCircle
 10
416.9501803695
 20
-124.8420476602
 30
0.0
 40
2.499999999999915
100
AcDbArc
 50
270.0
 51
357.0
  0
LINE
  5
29B
330
1F
100
AcDbEntity
  8
0
  6
Continuous
 62
     7
370
    15
100
AcDbLine
 10
403.3225846337
 20
-207.3420483308
 30
0.0
 11
403.3225846337
 21
-127.3420482563
 31
0.0
  0
LINE
  5
29C
330
1F
100
AcDbEntity
  8
0
  6
Continuous
 62
     7
370
    15
100
AcDbLine
 10
-736.6774010612
 20
-127.3420482563
 30
0.0
 11
-736.6774010612
 21
-207.3420483308
 31
0.0
  0
LINE
  5
29D
330
1F
100
AcDbEntity
  8
0
  6
Continuous
 62
     7
370
    15
100
AcDbLine
 10
49.7846078919
 20
-84.842044084
 30
0.0
 11
49.7846078919
 21
-87.3420416998
 31
0.0
  0
LINE
  5
29E
330
1F
100
AcDbEntity
  8
0
  6
Continuous
 62
     7
370
    15
100
AcDbLine
 10
73.7845969247
 20
-87.3420416998
 30
0.0
 11
73.7845969247
 21
-84.842044084
 31
0.0
  0
LINE
  5
29F
330
1F
100
AcDbEntity
  8
0
  6
Continuous
 62
     7
370
    15
100
AcDbLine
 10
-407.1394133521
 20
-84.842044084
 30
0.0
 11
-407.1394133521
 21
-87.3420416998
 31
0.0
  0
LINE
  5
2A0
330
1F
100
AcDbEntity
  8
0
  6
Continuous
 62
     7
370
    15
100
AcDbLine
 10
-383.1394243194
 20
-87.3420416998
 30
0.0
 11
-383.1394243194
 21
-84.842044084
 31
0.0
  0
LINE
  5
2A1
330
1F
100
AcDbEntity
  8
0
  6
Continuous
 62
     7
370
    15
100
AcDbLine
 10
52.7045351313
 20
-84.3628078388
 30
0.0
 11
53.5346043156
 21
-84.842044084
 31
0.0
  0
LINE
  5
2A2
330
1F
100
AcDbEntity
  8
0
  6
Continuous
 62
     7
370
    15
100
AcDbLine
 10
70.034600501
 20
-84.842044084
 30
0.0
 11
70.8646696853
 21
-84.3628078388
 31
0.0
  0
LINE
  5
2A3
330
1F
100
AcDbEntity
  8
0
  6
Continuous
 62
     7
370
    15
100
AcDbLine
 10
70.8667558478
 20
-74.9224900888
 30
0.0
 11
70.034600501
 21
-74.4420468496
 31
0.0
  0
LINE
  5
2A4
330
1F
100
AcDbEntity
  8
0
  6
Continuous
 62
     7
370
    15
100
AcDbLine
 10
53.5346043156
 20
-74.4420468496
 30
0.0
 11
52.7024489688
 21
-74.9224900888
 31
0.0
  0
LINE
  5
2A5
330
1F
100
AcDbEntity
  8
0
  6
Continuous
 62
     7
370
    15
100
AcDbLine
 10
-404.2215722753
 20
-84.3616008448
 30
0.0
 11
-403.3894169284
 21
-84.842044084
 31
0.0
  0
LINE
  5
2A6
330
1F
100
AcDbEntity
  8
0
  6
Continuous
 62
     7
370
    15
100
AcDbLine
 10
-386.8894207431
 20
-84.842044084
 30
0.0
 11
-386.0572653962
 21
-84.3616008448
 31
0.0
  0
LINE
  5
2A7
330
1F
100
AcDbEntity
  8
0
  6
Continuous
 62
     7
370
    15
100
AcDbLine
 10
-386.0593515588
 20
-74.9212830948
 30
0.0
 11
-386.8894207431
 21
-74.4420468496
 31
0.0
  0
LINE
  5
2A8
330
1F
100
AcDbEntity
  8
0
  6
Continuous
 62
     7
370
    15
100
AcDbLine
 10
-403.3894169284
 20
-74.4420468496
 30
0.0
 11
-404.2194861127
 21
-74.9212830948
 31
0.0
  0
LINE
  5
2A9
330
1F
100
AcDbEntity
  8
0
  6
Continuous
 62
     7
370
    15
100
AcDbLine
 10
67.7845996665
 20
-74.4420468496
 30
0.0
 11
67.7845996665
 21
-39.3420487331
 31
0.0
  0
LINE
  5
2AA
330
1F
100
AcDbEntity
  8
0
  6
Continuous
 62
     7
370
    15
100
AcDbLine
 10
55.7846051501
 20
-39.3420487331
 30
0.0
 11
55.7846051501
 21
-74.4420468496
 31
0.0
  0
LINE
  5
2AB
330
1F
100
AcDbEntity
  8
0
  6
Continuous
 62
     7
370
    15
100
AcDbLine
 10
67.7845996665
 20
-207.3420483308
 30
0.0
 11
67.7845996665
 21
-94.3643480228
 31
0.0
  0
LINE
  5
2AC
330
1F
100
AcDbEntity
  8
0
  6
Continuous
 62
     7
370
    15
100
AcDbLine
 10
55.7846051501
 20
-94.7652041601
 30
0.0
 11
55.7846051501
 21
-207.3420483308
 31
0.0
  0
LINE
  5
2AD
330
1F
100
AcDbEntity
  8
0
  6
Continuous
 62
     7
370
    15
100
AcDbLine
 10
-389.1394215776
 20
-74.4420468496
 30
0.0
 11
-389.1394215776
 21
-39.3420487331
 31
0.0
  0
LINE
  5
2AE
330
1F
100
AcDbEntity
  8
0
  6
Continuous
 62
     7
370
    15
100
AcDbLine
 10
-401.1394160939
 20
-39.3420487331
 30
0.0
 11
-401.1394160939
 21
-74.4420468496
 31
0.0
  0
LINE
  5
2AF
330
1F
100
AcDbEntity
  8
0
  6
Continuous
 62
     7
370
    15
100
AcDbLine
 10
-389.1394215776
 20
-207.3420483308
 30
0.0
 11
-389.1394215776
 21
-94.7648316311
 31
0.0
  0
LINE
  5
2B0
330
1F
100
AcDbEntity
  8
0
  6
Continuous
 62
     7
370
    15
100
AcDbLine
 10
-401.1394160939
 20
-94.363900988
 30
0.0
 11
-401.1394160939
 21
-207.3420483308
 31
0.0
  0
LINE
  5
2B1
330
1F
100
AcDbEntity
  8
0
  6
Continuous
 62
     7
370
    15
100
AcDbLine
 10
243.4653413342
 20
-84.842044084
 30
0.0
 11
243.4653413342
 21
-87.3420416998
 31
0.0
  0
LINE
  5
2B2
330
1F
100
AcDbEntity
  8
0
  6
Continuous
 62
     7
370
    15
100
AcDbLine
 10
267.465330367
 20
-87.3420416998
 30
0.0
 11
267.465330367
 21
-84.842044084
 31
0.0
  0
LINE
  5
2B3
330
1F
100
AcDbEntity
  8
0
  6
Continuous
 62
     7
370
    15
100
AcDbLine
 10
-600.8201467944
 20
-84.842044084
 30
0.0
 11
-600.8201467944
 21
-87.3420416998
 31
0.0
  0
LINE
  5
2B4
330
1F
100
AcDbEntity
  8
0
  6
Continuous
 62
     7
370
    15
100
AcDbLine
 10
-576.8201577617
 20
-87.3420416998
 30
0.0
 11
-576.8201577617
 21
-84.842044084
 31
0.0
  0
LINE
  5
2B5
330
1F
100
AcDbEntity
  8
0
  6
Continuous
 62
     7
370
    15
100
AcDbLine
 10
264.7839558171
 20
-75.0590145277
 30
0.0
 11
263.7153339433
 21
-74.4420468496
 31
0.0
  0
LINE
  5
2B6
330
1F
100
AcDbEntity
  8
0
  6
Continuous
 62
     7
370
    15
100
AcDbLine
 10
247.215337758
 20
-74.4420468496
 30
0.0
 11
246.1467158841
 21
-75.0590145277
 31
0.0
  0
LINE
  5
2B7
330
1F
100
AcDbEntity
  8
0
  6
Continuous
 62
     7
370
    15
100
AcDbLine
 10
246.1438548612
 20
-84.223422377
 30
0.0
 11
247.215337758
 21
-84.842044084
 31
0.0
  0
LINE
  5
2B8
330
1F
100
AcDbEntity
  8
0
  6
Continuous
 62
     7
370
    15
100
AcDbLine
 10
263.7153339433
 20
-84.842044084
 30
0.0
 11
264.7868168401
 21
-84.223422377
 31
0.0
  0
LINE
  5
2B9
330
1F
100
AcDbEntity
  8
0
  6
Continuous
 62
     7
370
    15
100
AcDbLine
 10
-579.4986712886
 20
-75.0606685566
 30
0.0
 11
-580.5701541854
 21
-74.4420468496
 31
0.0
  0
LINE
  5
2BA
330
1F
100
AcDbEntity
  8
0
  6
Continuous
 62
     7
370
    15
100
AcDbLine
 10
-597.0701503707
 20
-74.4420468496
 30
0.0
 11
-598.1416332675
 21
-75.0606685566
 31
0.0
  0
LINE
  5
2BB
330
1F
100
AcDbEntity
  8
0
  6
Continuous
 62
     7
370
    15
100
AcDbLine
 10
-598.1387722446
 20
-84.2250764059
 30
0.0
 11
-597.0701503707
 21
-84.842044084
 31
0.0
  0
LINE
  5
2BC
330
1F
100
AcDbEntity
  8
0
  6
Continuous
 62
     7
370
    15
100
AcDbLine
 10
-580.5701541854
 20
-84.842044084
 30
0.0
 11
-579.5015323115
 21
-84.2250764059
 31
0.0
  0
LINE
  5
2BD
330
1F
100
AcDbEntity
  8
0
  6
Continuous
 62
     7
370
    15
100
AcDbLine
 10
261.46534801
 20
-74.4420468496
 30
0.0
 11
261.46534801
 21
-39.3420487331
 31
0.0
  0
LINE
  5
2BE
330
1F
100
AcDbEntity
  8
0
  6
Continuous
 62
     7
370
    15
100
AcDbLine
 10
249.4653534936
 20
-39.3420487331
 30
0.0
 11
249.4653534936
 21
-74.4420468496
 31
0.0
  0
LINE
  5
2BF
330
1F
100
AcDbEntity
  8
0
  6
Continuous
 62
     7
370
    15
100
AcDbLine
 10
261.46534801
 20
-207.3420483308
 30
0.0
 11
261.46534801
 21
-94.1945343899
 31
0.0
  0
LINE
  5
2C0
330
1F
100
AcDbEntity
  8
0
  6
Continuous
 62
     7
370
    15
100
AcDbLine
 10
249.4653534936
 20
-94.9358224558
 30
0.0
 11
249.4653534936
 21
-207.3420483308
 31
0.0
  0
LINE
  5
2C1
330
1F
100
AcDbEntity
  8
0
  6
Continuous
 62
     7
370
    15
100
AcDbLine
 10
-582.820169921
 20
-74.4420468496
 30
0.0
 11
-582.820169921
 21
-39.3420487331
 31
0.0
  0
LINE
  5
2C2
330
1F
100
AcDbEntity
  8
0
  6
Continuous
 62
     7
370
    15
100
AcDbLine
 10
-594.8201644374
 20
-39.3420487331
 30
0.0
 11
-594.8201644374
 21
-74.4420468496
 31
0.0
  0
LINE
  5
2C3
330
1F
100
AcDbEntity
  8
0
  6
Continuous
 62
     7
370
    15
100
AcDbLine
 10
-582.820169921
 20
-207.3420483308
 30
0.0
 11
-582.820169921
 21
-94.9355244326
 31
0.0
  0
LINE
  5
2C4
330
1F
100
AcDbEntity
  8
0
  6
Continuous
 62
     7
370
    15
100
AcDbLine
 10
-594.8201644374
 20
-94.195473163
 30
0.0
 11
-594.8201644374
 21
-207.3420483308
 31
0.0
  0
LINE
  5
2C5
330
1F
100
AcDbEntity
  8
0
  6
Continuous
 62
     7
370
    15
100
AcDbLine
 10
372.8786778497
 20
-84.842044084
 30
0.0
 11
372.8786778497
 21
-87.3420416998
 31
0.0
  0
LINE
  5
2C6
330
1F
100
AcDbEntity
  8
0
  6
Continuous
 62
     7
370
    15
100
AcDbLine
 10
396.8786668824
 20
-87.3420416998
 30
0.0
 11
396.8786668824
 21
-84.842044084
 31
0.0
  0
LINE
  5
2C7
330
1F
100
AcDbEntity
  8
0
  6
Continuous
 62
     7
370
    15
100
AcDbLine
 10
-730.2334833099
 20
-84.842044084
 30
0.0
 11
-730.2334833099
 21
-87.3420416998
 31
0.0
  0
LINE
  5
2C8
330
1F
100
AcDbEntity
  8
0
  6
Continuous
 62
     7
370
    15
100
AcDbLine
 10
-706.2334942771
 20
-87.3420416998
 30
0.0
 11
-706.2334942771
 21
-84.842044084
 31
0.0
  0
LINE
  5
2C9
330
1F
100
AcDbEntity
  8
0
  6
Continuous
 62
     7
370
    15
100
AcDbLine
 10
394.621737008
 20
-75.3040790247
 30
0.0
 11
393.128700261
 21
-74.4420468496
 31
0.0
  0
LINE
  5
2CA
330
1F
100
AcDbEntity
  8
0
  6
Continuous
 62
     7
370
    15
100
AcDbLine
 10
376.6286444711
 20
-74.4420468496
 30
0.0
 11
375.1311969804
 21
-75.3066271233
 31
0.0
  0
LINE
  5
2CB
330
1F
100
AcDbEntity
  8
0
  6
Continuous
 62
     7
370
    15
100
AcDbLine
 10
375.1314353989
 20
-83.9776277231
 30
0.0
 11
376.6286444711
 21
-84.842044084
 31
0.0
  0
LINE
  5
2CC
330
1F
100
AcDbEntity
  8
0
  6
Continuous
 62
     7
370
    15
100
AcDbLine
 10
393.128700261
 20
-84.842044084
 30
0.0
 11
394.6216774033
 21
-83.9800417112
 31
0.0
  0
LINE
  5
2CD
330
1F
100
AcDbEntity
  8
0
  6
Continuous
 62
     7
370
    15
100
AcDbLine
 10
-708.4904837562
 20
-75.3040492224
 30
0.0
 11
-709.9834608985
 21
-74.4420468496
 31
0.0
  0
LINE
  5
2CE
330
1F
100
AcDbEntity
  8
0
  6
Continuous
 62
     7
370
    15
100
AcDbLine
 10
-726.4835166885
 20
-74.4420468496
 30
0.0
 11
-727.9807257606
 21
-75.3064781116
 31
0.0
  0
LINE
  5
2CF
330
1F
100
AcDbEntity
  8
0
  6
Continuous
 62
     7
370
    15
100
AcDbLine
 10
-727.9809641791
 20
-83.9774787115
 30
0.0
 11
-726.4835166885
 21
-84.842044084
 31
0.0
  0
LINE
  5
2D0
330
1F
100
AcDbEntity
  8
0
  6
Continuous
 62
     7
370
    15
100
AcDbLine
 10
-709.9834608985
 20
-84.842044084
 30
0.0
 11
-708.4904241515
 21
-83.9800268101
 31
0.0
  0
LINE
  5
2D1
330
1F
100
AcDbEntity
  8
0
  6
Continuous
 62
     7
370
    15
100
AcDbLine
 10
390.8786845254
 20
-74.4420468496
 30
0.0
 11
390.8786845254
 21
-39.3420487331
 31
0.0
  0
LINE
  5
2D2
330
1F
100
AcDbEntity
  8
0
  6
Continuous
 62
     7
370
    15
100
AcDbLine
 10
378.8786602067
 20
-39.3420487331
 30
0.0
 11
378.8786602067
 21
-74.4420468496
 31
0.0
  0
LINE
  5
2D3
330
1F
100
AcDbEntity
  8
0
  6
Continuous
 62
     7
370
    15
100
AcDbLine
 10
390.8786845254
 20
-207.3420483308
 30
0.0
 11
390.8786845254
 21
-94.0419614004
 31
0.0
  0
LINE
  5
2D4
330
1F
100
AcDbEntity
  8
0
  6
Continuous
 62
     7
370
    15
100
AcDbLine
 10
378.8786602067
 20
-95.0811981844
 30
0.0
 11
378.8786602067
 21
-207.3420483308
 31
0.0
  0
LINE
  5
2D5
330
1F
100
AcDbEntity
  8
0
  6
Continuous
 62
     7
370
    15
100
AcDbLine
 10
-712.2334766341
 20
-74.4420468496
 30
0.0
 11
-712.2334766341
 21
-39.3420487331
 31
0.0
  0
LINE
  5
2D6
330
1F
100
AcDbEntity
  8
0
  6
Continuous
 62
     7
370
    15
100
AcDbLine
 10
-724.2335009528
 20
-39.3420487331
 30
0.0
 11
-724.2335009528
 21
-74.4420468496
 31
0.0
  0
LINE
  5
2D7
330
1F
100
AcDbEntity
  8
0
  6
Continuous
 62
     7
370
    15
100
AcDbLine
 10
-712.2334766341
 20
-207.3420483308
 30
0.0
 11
-712.2334766341
 21
-95.0812726902
 31
0.0
  0
LINE
  5
2D8
330
1F
100
AcDbEntity
  8
0
  6
Continuous
 62
     7
370
    15
100
AcDbLine
 10
-724.2335009528
 20
-94.0832525181
 30
0.0
 11
-724.2335009528
 21
-207.3420483308
 31
0.0
  0
LINE
  5
2D9
330
1F
100
AcDbEntity
  8
0
  6
Continuous
 62
     7
370
    15
100
AcDbLine
 10
418.3225703286
 20
-84.842044084
 30
0.0
 11
418.3225703286
 21
-87.3420416998
 31
0.0
  0
LINE
  5
2DA
330
1F
100
AcDbEntity
  8
0
  6
Continuous
 62
     7
370
    15
100
AcDbLine
 10
442.322618966
 20
-87.3420416998
 30
0.0
 11
442.322618966
 21
-84.842044084
 31
0.0
  0
LINE
  5
2DB
330
1F
100
AcDbEntity
  8
0
  6
Continuous
 62
     7
370
    15
100
AcDbLine
 10
-775.6774353934
 20
-84.842044084
 30
0.0
 11
-775.6774353934
 21
-87.3420416998
 31
0.0
  0
LINE
  5
2DC
330
1F
100
AcDbEntity
  8
0
  6
Continuous
 62
     7
370
    15
100
AcDbLine
 10
-751.6773867561
 20
-87.3420416998
 30
0.0
 11
-751.6773867561
 21
-84.842044084
 31
0.0
  0
LINE
  5
2DD
330
1F
100
AcDbEntity
  8
0
  6
Continuous
 62
     7
370
    15
100
AcDbLine
 10
439.3225979852
 20
-74.8750596928
 30
0.0
 11
438.57259274
 21
-74.4420468496
 31
0.0
  0
LINE
  5
2DE
330
1F
100
AcDbEntity
  8
0
  6
Continuous
 62
     7
370
    15
100
AcDbLine
 10
422.0725965546
 20
-74.4420468496
 30
0.0
 11
421.3225913094
 21
-74.8750596928
 31
0.0
  0
LINE
  5
2DF
330
1F
100
AcDbEntity
  8
0
  6
Continuous
 62
     7
370
    15
100
AcDbLine
 10
421.3225913094
 20
-84.4090312408
 30
0.0
 11
422.0725965546
 21
-84.842044084
 31
0.0
  0
LINE
  5
2E0
330
1F
100
AcDbEntity
  8
0
  6
Continuous
 62
     7
370
    15
100
AcDbLine
 10
438.57259274
 20
-84.842044084
 30
0.0
 11
439.3225979852
 21
-84.4090312408
 31
0.0
  0
LINE
  5
2E1
330
1F
100
AcDbEntity
  8
0
  6
Continuous
 62
     7
370
    15
100
AcDbLine
 10
-754.6774077369
 20
-74.8750596928
 30
0.0
 11
-755.4274129821
 21
-74.4420468496
 31
0.0
  0
LINE
  5
2E2
330
1F
100
AcDbEntity
  8
0
  6
Continuous
 62
     7
370
    15
100
AcDbLine
 10
-771.9274091674
 20
-74.4420468496
 30
0.0
 11
-772.6774144126
 21
-74.8750596928
 31
0.0
  0
LINE
  5
2E3
330
1F
100
AcDbEntity
  8
0
  6
Continuous
 62
     7
370
    15
100
AcDbLine
 10
-772.6774144126
 20
-84.4090312408
 30
0.0
 11
-771.9274091674
 21
-84.842044084
 31
0.0
  0
LINE
  5
2E4
330
1F
100
AcDbEntity
  8
0
  6
Continuous
 62
     7
370
    15
100
AcDbLine
 10
-755.4274129821
 20
-84.842044084
 30
0.0
 11
-754.6774077369
 21
-84.4090312408
 31
0.0
  0
LINE
  5
2E5
330
1F
100
AcDbEntity
  8
0
  6
Continuous
 62
     7
370
    15
100
AcDbLine
 10
436.3225770043
 20
-74.4420468496
 30
0.0
 11
436.3225770043
 21
-39.3420487331
 31
0.0
  0
LINE
  5
2E6
330
1F
100
AcDbEntity
  8
0
  6
Continuous
 62
     7
370
    15
100
AcDbLine
 10
424.3226122903
 20
-39.3420487331
 30
0.0
 11
424.3226122903
 21
-74.4420468496
 31
0.0
  0
LINE
  5
2E7
330
1F
100
AcDbEntity
  8
0
  6
Continuous
 62
     7
370
    15
100
AcDbLine
 10
436.3225770043
 20
-207.3420483308
 30
0.0
 11
436.3225770043
 21
-94.0419614004
 31
0.0
  0
LINE
  5
2E8
330
1F
100
AcDbEntity
  8
0
  6
Continuous
 62
     7
370
    15
100
AcDbLine
 10
424.3226122903
 20
-95.1969057011
 30
0.0
 11
424.3226122903
 21
-207.3420483308
 31
0.0
  0
LINE
  5
2E9
330
1F
100
AcDbEntity
  8
0
  6
Continuous
 62
     7
370
    15
100
AcDbLine
 10
-757.6774287177
 20
-74.4420468496
 30
0.0
 11
-757.6774287177
 21
-39.3420487331
 31
0.0
  0
LINE
  5
2EA
330
1F
100
AcDbEntity
  8
0
  6
Continuous
 62
     7
370
    15
100
AcDbLine
 10
-769.6773934318
 20
-39.3420487331
 30
0.0
 11
-769.6773934318
 21
-74.4420468496
 31
0.0
  0
LINE
  5
2EB
330
1F
100
AcDbEntity
  8
0
  6
Continuous
 62
     7
370
    15
100
AcDbLine
 10
-757.6774287177
 20
-207.3420483308
 30
0.0
 11
-757.6774287177
 21
-95.1969057011
 31
0.0
  0
LINE
  5
2EC
330
1F
100
AcDbEntity
  8
0
  6
Continuous
 62
     7
370
    15
100
AcDbLine
 10
-769.6773934318
 20
-94.0419614004
 30
0.0
 11
-769.6773934318
 21
-207.3420483308
 31
0.0
  0
LINE
  5
2ED
330
1F
100
AcDbEntity
  8
0
  6
Continuous
 62
     7
370
    15
100
AcDbLine
 10
-708.4904241515
 20
-83.9800268101
 30
0.0
 11
-708.4862518264
 21
-83.9776277231
 31
0.0
  0
LINE
  5
2EE
330
1F
100
AcDbEntity
  8
0
  6
Continuous
 62
     7
370
    15
100
AcDbLine
 10
-708.4860134078
 20
-75.3066271233
 30
0.0
 11
-708.4904837562
 21
-75.3040492224
 31
0.0
  0
LINE
  5
2EF
330
1F
100
AcDbEntity
  8
0
  6
Continuous
 62
     7
370
    15
100
AcDbLine
 10
264.7868168401
 20
-75.0606685566
 30
0.0
 11
264.7839558171
 21
-75.0590145277
 31
0.0
  0
LINE
  5
2F0
330
1F
100
AcDbEntity
  8
0
  6
Continuous
 62
     7
370
    15
100
AcDbLine
 10
-598.1416332675
 20
-84.223422377
 30
0.0
 11
-598.1387722446
 21
-84.2250764059
 31
0.0
  0
LINE
  5
2F1
330
1F
100
AcDbEntity
  8
0
  6
Continuous
 62
     7
370
    15
100
AcDbLine
 10
52.7024489688
 20
-84.3616008448
 30
0.0
 11
52.7045351313
 21
-84.3628078388
 31
0.0
  0
LINE
  5
2F2
330
1F
100
AcDbEntity
  8
0
  6
Continuous
 62
     7
370
    15
100
AcDbLine
 10
-386.0572653962
 20
-74.9224900888
 30
0.0
 11
-386.0593515588
 21
-74.9212830948
 31
0.0
  0
LINE
  5
2F3
330
1F
100
AcDbEntity
  8
0
  6
Continuous
 62
     7
370
    15
100
AcDbLine
 10
-844.1774177505
 20
-237.3420476602
 30
0.0
 11
510.822601323
 21
-237.3420476602
 31
0.0
  0
LINE
  5
2F4
330
1F
100
AcDbEntity
  8
0
  6
Continuous
 62
     7
370
    15
100
AcDbLine
 10
-844.1774177505
 20
-207.3420483308
 30
0.0
 11
510.822601323
 21
-207.3420483308
 31
0.0
  0
LINE
  5
2F5
330
1F
100
AcDbEntity
  8
0
  6
Continuous
 62
     7
370
    15
100
AcDbLine
 10
-777.6774096442
 20
-87.3420416998
 30
0.0
 11
444.3225932168
 21
-87.3420416998
 31
0.0
  0
LINE
  5
2F6
330
1F
100
AcDbEntity
  8
0
  6
Continuous
 62
     7
370
    15
100
AcDbLine
 10
-178.677408318
 20
-84.842044084
 30
0.0
 11
-154.6774081094
 21
-84.842044084
 31
0.0
  0
SPLINE
  5
2F7
330
1F
100
AcDbEntity
  8
0
  6
Continuous
 62
     7
370
    15
100
AcDbSpline
210
0.0
220
0.0
230
1.0
 70
     8
 71
     3
 72
    23
 73
    19
 74
     0
 42
0.00000001
 43
0.00000001
 12
1.0
 22
0.0
 32
0.0
 13
1.0
 23
0.0
 33
0.0
 40
0.0
 40
0.0
 40
0.0
 40
0.0
 40
0.0564616503496241
 40
0.1211015950886044
 40
0.1876122393767191
 40
0.2523181678365809
 40
0.3188878224254937
 40
0.3837872747979247
 40
0.450551574542255
 40
0.515685231920478
 40
0.582698352040168
 40
0.6480130761238461
 40
0.7152233893414748
 40
0.7805836979997205
 40
0.8478431065693444
 40
0.9130890285499552
 40
0.9802390630319989
 40
1.0
 40
1.0
 40
1.0
 40
1.0
 10
436.3113117264616
 20
-94.04292997588462
 30
0.0
 10
436.3037620205299
 20
-94.04358839073518
 30
0.0
 10
436.2875690572513
 20
-94.04500058977894
 30
0.0
 10
436.0568751267335
 20
-94.06497087529894
 30
0.0
 10
435.6724581005771
 20
-94.09829766917599
 30
0.0
 10
435.1285066052153
 20
-94.14547956108768
 30
0.0
 10
434.4556026942261
 20
-94.20390362277497
 30
0.0
 10
433.6588226723492
 20
-94.27318155497483
 30
0.0
 10
432.7741750795656
 20
-94.35019085008791
 30
0.0
 10
431.8110135620176
 20
-94.43418860601982
 30
0.0
 10
430.812633727256
 20
-94.52136320810936
 30
0.0
 10
429.7902888434583
 20
-94.61081884971605
 30
0.0
 10
428.7909465054225
 20
-94.69840250369735
 30
0.0
 10
427.8260148783918
 20
-94.78309211761946
 30
0.0
 10
426.9404278088973
 20
-94.8609605171887
 30
0.0
 10
426.1453136083439
 20
-94.93096919414951
 30
0.0
 10
425.6262117733532
 20
-94.97674256930003
 30
0.0
 10
425.3752012902181
 20
-94.99887387011216
 30
0.0
 10
425.3181290673124
 20
-95.00390586127585
 30
0.0
  0
SPLINE
  5
2F8
330
1F
100
AcDbEntity
  8
0
  6
Continuous
 62
     7
370
    15
100
AcDbSpline
210
0.0
220
0.0
230
1.0
 70
     8
 71
     3
 72
    26
 73
    22
 74
     0
 42
0.00000001
 43
0.00000001
 12
1.0
 22
0.0
 32
0.0
 13
1.0
 23
0.0
 33
0.0
 40
0.0
 40
0.0
 40
0.0
 40
0.0
 40
0.0159275996882242
 40
0.0730465770872953
 40
0.1299833690038123
 40
0.1869197457271876
 40
0.2437805101598565
 40
0.3006419957737132
 40
0.3575607441660933
 40
0.41448069294532
 40
0.4715720135560643
 40
0.5286648400757947
 40
0.5859687863522395
 40
0.6432687602773228
 40
0.7007306465043713
 40
0.7581913040372034
 40
0.8156897044532397
 40
0.873186305959064
 40
0.9305799176046915
 40
0.9879719406166726
 40
0.9999999999999999
 40
0.9999999999999999
 40
0.9999999999999999
 40
0.9999999999999999
 10
390.8611011551725
 20
-94.0829246925289
 30
0.0
 10
390.8660443734167
 20
-94.07941074471027
 30
0.0
 10
390.8887147807351
 20
-94.06329520531706
 30
0.0
 10
390.7599579629155
 20
-94.04825487117225
 30
0.0
 10
390.4687002874822
 20
-94.0394315402334
 30
0.0
 10
390.0103757648424
 20
-94.04615144089331
 30
0.0
 10
389.4080695286478
 20
-94.06738451650857
 30
0.0
 10
388.6801764085876
 20
-94.10237902183208
 30
0.0
 10
387.8434510677359
 20
-94.15056462739577
 30
0.0
 10
386.9242155051176
 20
-94.21025159804746
 30
0.0
 10
385.9457311916771
 20
-94.28016054947275
 30
0.0
 10
384.9360748047505
 20
-94.358172807438
 30
0.0
 10
383.9239662509798
 20
-94.44228313407599
 30
0.0
 10
382.9366002292054
 20
-94.5301296867217
 30
0.0
 10
382.0048381562412
 20
-94.61914416846179
 30
0.0
 10
381.1523230439429
 20
-94.70690888900826
 30
0.0
 10
380.4081283373076
 20
-94.7907023872802
 30
0.0
 10
379.788924926365
 20
-94.86827886234636
 30
0.0
 10
379.3194563784694
 20
-94.9369447301197
 30
0.0
 10
379.0852368624673
 20
-94.98015566782928
 30
0.0
 10
379.0027957185208
 20
-95.00039849166735
 30
0.0
 10
378.9885115670072
 20
-95.00390586127585
 30
0.0
  0
SPLINE
  5
2F9
330
1F
100
AcDbEntity
  8
0
  6
Continuous
 62
     7
370
    15
100
AcDbSpline
210
0.0
220
0.0
230
1.0
 70
     8
 71
     3
 72
    27
 73
    23
 74
     0
 42
0.00000001
 43
0.00000001
 12
1.0
 22
0.0
 32
0.0
 13
1.0
 23
0.0
 33
0.0
 40
0.0
 40
0.0
 40
0.0
 40
0.0
 40
0.0016393928938836
 40
0.0554350101599841
 40
0.1092302702067109
 40
0.1628261469258339
 40
0.2164219572483761
 40
0.2698639169856217
 40
0.3233048740023576
 40
0.3767018494322968
 40
0.4300989779722609
 40
0.4835783329432952
 40
0.5370582765591936
 40
0.5907115960305899
 40
0.6443677242393071
 40
0.6982156059731637
 40
0.7520649628363157
 40
0.80604171799708
 40
0.8600193148377696
 40
0.914002960869684
 40
0.9679857027306576
 40
1.0
 40
1.0
 40
1.0
 40
1.0
 10
261.4627850102293
 20
-94.19453438987082
 30
0.0
 10
261.4636332054961
 20
-94.19385249038496
 30
0.0
 10
261.4923143797304
 20
-94.17079450040228
 30
0.0
 10
261.3888810791329
 20
-94.13491187476266
 30
0.0
 10
261.1463841888545
 20
-94.08948065980097
 30
0.0
 10
260.7187959572472
 20
-94.05904413628524
 30
0.0
 10
260.1515786946203
 20
-94.04230464445487
 30
0.0
 10
259.4480419237813
 20
-94.04064409133753
 30
0.0
 10
258.6357440632411
 20
-94.05341194639247
 30
0.0
 10
257.7326072801389
 20
-94.0807652223469
 30
0.0
 10
256.7671675047916
 20
-94.1214465378645
 30
0.0
 10
255.7643543376556
 20
-94.17479979624783
 30
0.0
 10
254.7523277364914
 20
-94.23901281094787
 30
0.0
 10
253.7603542541376
 20
-94.31269798210923
 30
0.0
 10
252.8139331955658
 20
-94.3935576947406
 30
0.0
 10
251.9434870829677
 20
-94.47956403551844
 30
0.0
 10
251.1696265571525
 20
-94.56825004422633
 30
0.0
 10
250.5205938393922
 20
-94.65701230227141
 30
0.0
 10
250.0076253445203
 20
-94.74349344554783
 30
0.0
 10
249.6600137437073
 20
-94.82454099977167
 30
0.0
 10
249.480153164191
 20
-94.88964640119674
 30
0.0
 10
249.4805746022922
 20
-94.92329574450673
 30
0.0
 10
249.4807314919339
 20
-94.93582245578116
 30
0.0
  0
SPLINE
  5
2FA
330
1F
100
AcDbEntity
  8
0
  6
Continuous
 62
     7
370
    15
100
AcDbSpline
210
0.0
220
0.0
230
1.0
 70
     8
 71
     3
 72
    26
 73
    22
 74
     0
 42
0.00000001
 43
0.00000001
 12
1.0
 22
0.0
 32
0.0
 13
1.0
 23
0.0
 33
0.0
 40
0.0
 40
0.0
 40
0.0
 40
0.0
 40
0.041962038594246
 40
0.0958870085433063
 40
0.1498135265971167
 40
0.2035642843160965
 40
0.257317557095578
 40
0.3108738388677679
 40
0.3644296510571138
 40
0.4178505210002852
 40
0.4712721388214219
 40
0.5246746627911437
 40
0.578079226823064
 40
0.6315896858570054
 40
0.6850998207915749
 40
0.738797279218883
 40
0.7924959324372677
 40
0.8463793309372507
 40
0.900261936838722
 40
0.9542533484301297
 40
1.0
 40
1.0
 40
1.0
 40
1.0
 10
67.76923656929601
 20
-94.36434802283591
 30
0.0
 10
67.76544820443716
 20
-94.34325640430902
 30
0.0
 10
67.7567914521498
 20
-94.29506017091246
 30
0.0
 10
67.53790189700374
 20
-94.22830519210906
 30
0.0
 10
67.1606251657833
 20
-94.16501723836187
 30
0.0
 10
66.62135536033931
 20
-94.11359650722423
 30
0.0
 10
65.9496756309624
 20
-94.07475996094034
 30
0.0
 10
65.15727209154495
 20
-94.05013548302405
 30
0.0
 10
64.27289817014517
 20
-94.03971650593499
 30
0.0
 10
63.31743206837423
 20
-94.04439313215207
 30
0.0
 10
62.32070512774346
 20
-94.06335201085115
 30
0.0
 10
61.3090407910086
 20
-94.09663946813268
 30
0.0
 10
60.31046287960856
 20
-94.14279734605668
 30
0.0
 10
59.35419025903369
 20
-94.20108946512137
 30
0.0
 10
58.46396066998955
 20
-94.269521121326
 30
0.0
 10
57.66891315230643
 20
-94.34656838084967
 30
0.0
 10
56.9870291840221
 20
-94.42989997012697
 30
0.0
 10
56.44235664975913
 20
-94.51739264527822
 30
0.0
 10
56.05059739374704
 20
-94.60632514261013
 30
0.0
 10
55.82031742062238
 20
-94.69029124832117
 30
0.0
 10
55.80351675154221
 20
-94.74164831866052
 30
0.0
 10
55.79581082333196
 20
-94.76520416011161
 30
0.0
  0
SPLINE
  5
2FB
330
1F
100
AcDbEntity
  8
0
  6
Continuous
 62
     7
370
    15
100
AcDbSpline
210
0.0
220
0.0
230
1.0
 70
     8
 71
     3
 72
    27
 73
    23
 74
     0
 42
0.00000001
 43
0.00000001
 12
1.0
 22
0.0
 32
0.0
 13
1.0
 23
0.0
 33
0.0
 40
0.0
 40
0.0
 40
0.0
 40
0.0
 40
0.0081287343166189
 40
0.0621169146851401
 40
0.116102459743306
 40
0.1700810615226087
 40
0.2240578059497588
 40
0.2779018086561078
 40
0.3317458973142294
 40
0.3853952475675904
 40
0.4390438749449113
 40
0.4925187481478208
 40
0.5459936599587786
 40
0.5993913494176867
 40
0.6527885828221733
 40
0.7062370750373342
 40
0.75968558138201
 40
0.8132930441098079
 40
0.8668986194363568
 40
0.9207014277663265
 40
0.9745049532024173
 40
1.0
 40
1.0
 40
1.0
 40
1.0
 10
-160.688448990692
 20
-94.5642023967678
 30
0.0
 10
-160.6849110933192
 20
-94.55975175509069
 30
0.0
 10
-160.6578757320058
 20
-94.52574152439743
 30
0.0
 10
-160.7740864732302
 20
-94.46222603961773
 30
0.0
 10
-161.0406465451938
 20
-94.37672218417609
 30
0.0
 10
-161.4882187498097
 20
-94.29675151476069
 30
0.0
 10
-162.0767380983215
 20
-94.22438898925581
 30
0.0
 10
-162.8006142495409
 20
-94.1620247654314
 30
0.0
 10
-163.6314979600796
 20
-94.11101013531545
 30
0.0
 10
-164.5504629458661
 20
-94.07317582143199
 30
0.0
 10
-165.5268351988346
 20
-94.04902523363425
 30
0.0
 10
-166.5356443174115
 20
-94.0397492432945
 30
0.0
 10
-167.5468313746621
 20
-94.04491603031256
 30
0.0
 10
-168.5322646401461
 20
-94.06494602988302
 30
0.0
 10
-169.4660591863291
 20
-94.09870308040333
 30
0.0
 10
-170.3194160938721
 20
-94.14579441783846
 30
0.0
 10
-171.0730775911932
 20
-94.2044821097413
 30
0.0
 10
-171.6997282699749
 20
-94.27357335915623
 30
0.0
 10
-172.1908368376886
 20
-94.35093849063117
 30
0.0
 10
-172.5135221832634
 20
-94.43461662498213
 30
0.0
 10
-172.6748299879876
 20
-94.5067545706241
 30
0.0
 10
-172.6603809312595
 20
-94.55027112436574
 30
0.0
 10
-172.6557354582442
 20
-94.56426200141257
 30
0.0
  0
SPLINE
  5
2FC
330
1F
100
AcDbEntity
  8
0
  6
Continuous
 62
     7
370
    15
100
AcDbSpline
210
0.0
220
0.0
230
1.0
 70
     8
 71
     3
 72
    27
 73
    23
 74
     0
 42
0.00000001
 43
0.00000001
 12
1.0
 22
0.0
 32
0.0
 13
1.0
 23
0.0
 33
0.0
 40
0.0
 40
0.0
 40
0.0
 40
0.0
 40
0.0304165447323055
 40
0.0842895540726544
 40
0.1381657664505962
 40
0.1921527816380858
 40
0.2461415615540368
 40
0.3001150648686732
 40
0.3540875392126419
 40
0.4079239870421934
 40
0.4617591724682428
 40
0.5153984782598713
 40
0.5690377520015542
 40
0.6225059390498916
 40
0.6759737361987667
 40
0.7293705273782752
 40
0.7827679958044174
 40
0.8362192385450218
 40
0.8896716085445793
 40
0.9432849103570116
 40
0.9968996263380443
 40
1.0
 40
1.0
 40
1.0
 40
1.0
 10
-389.160625929941
 20
-94.76483163108176
 30
0.0
 10
-389.1575963400761
 20
-94.74943928290827
 30
0.0
 10
-389.1492008178039
 20
-94.70678439968297
 30
0.0
 10
-389.3263784057198
 20
-94.63159244453911
 30
0.0
 10
-389.666276866758
 20
-94.54280479814412
 30
0.0
 10
-390.1738306662328
 20
-94.45448116187077
 30
0.0
 10
-390.8187742580569
 20
-94.36934103430598
 30
0.0
 10
-391.5907062055407
 20
-94.28997011051898
 30
0.0
 10
-392.4616706021833
 20
-94.21839651188347
 30
0.0
 10
-393.4106485081551
 20
-94.15701782653792
 30
0.0
 10
-394.4065435811037
 20
-94.1070817967681
 30
0.0
 10
-395.4230572112784
 20
-94.07046424663886
 30
0.0
 10
-396.4297832680629
 20
-94.04761329459626
 30
0.0
 10
-397.3983092567875
 20
-94.03960334662817
 30
0.0
 10
-398.3029297322392
 20
-94.04610501685423
 30
0.0
 10
-399.1157837906646
 20
-94.06739865128816
 30
0.0
 10
-399.8188931825351
 20
-94.10236887230866
 30
0.0
 10
-400.3860642330681
 20
-94.15059110533164
 30
0.0
 10
-400.8139202063286
 20
-94.21015572333968
 30
0.0
 10
-401.0594881050317
 20
-94.28051873455817
 30
0.0
 10
-401.1645054926094
 20
-94.3328021321782
 30
0.0
 10
-401.1362942211663
 20
-94.36228906245148
 30
0.0
 10
-401.1347520304812
 20
-94.3639009880001
 30
0.0
  0
SPLINE
  5
2FD
330
1F
100
AcDbEntity
  8
0
  6
Continuous
 62
     7
370
    15
100
AcDbSpline
210
0.0
220
0.0
230
1.0
 70
     8
 71
     3
 72
    27
 73
    23
 74
     0
 42
0.00000001
 43
0.00000001
 12
1.0
 22
0.0
 32
0.0
 13
1.0
 23
0.0
 33
0.0
 40
0.0
 40
0.0
 40
0.0
 40
0.0
 40
0.0175538706266741
 40
0.0710818608513082
 40
0.1248071904956501
 40
0.1785323916076206
 40
0.2324417989888052
 40
0.2863497170444296
 40
0.3403487992225609
 40
0.3943449841289504
 40
0.4482988443310705
 40
0.5022510006860781
 40
0.5560484333167425
 40
0.6098455087159786
 40
0.663443194059304
 40
0.717040813003808
 40
0.7704845761712373
 40
0.8239273365843196
 40
0.8773261139264209
 40
0.9307250443837138
 40
0.9842062040468559
 40
1.0
 40
1.0
 40
1.0
 40
1.0
 10
-582.839243407358
 20
-94.93552443255729
 30
0.0
 10
-582.8341401913162
 20
-94.92897903494837
 30
0.0
 10
-582.8134754558682
 20
-94.90247439378133
 30
0.0
 10
-582.9485461361277
 20
-94.84553870949486
 30
0.0
 10
-583.2476766469116
 20
-94.76696580507677
 30
0.0
 10
-583.7142256287556
 20
-94.68192161620107
 30
0.0
 10
-584.3260633245034
 20
-94.5937724475445
 30
0.0
 10
-585.0653219413133
 20
-94.50472617118763
 30
0.0
 10
-585.9142980406713
 20
-94.4175147303892
 30
0.0
 10
-586.845345736788
 20
-94.33449248196291
 30
0.0
 10
-587.8342464599291
 20
-94.25828539418885
 30
0.0
 10
-588.8501864321623
 20
-94.19072821663399
 30
0.0
 10
-589.864892426404
 20
-94.13417595557478
 30
0.0
 10
-590.8488441277733
 20
-94.0896772002048
 30
0.0
 10
-591.7730997393517
 20
-94.05899094152382
 30
0.0
 10
-592.613600228771
 20
-94.04232112592103
 30
0.0
 10
-593.3440441285807
 20
-94.04063122549769
 30
0.0
 10
-593.9475968081182
 20
-94.05344694288104
 30
0.0
 10
-594.4066293437357
 20
-94.08063821148416
 30
0.0
 10
-594.6990222274089
 20
-94.12191993879479
 30
0.0
 10
-594.8290659176552
 20
-94.16101839617943
 30
0.0
 10
-594.8071341845077
 20
-94.18907631874244
 30
0.0
 10
-594.802134032358
 20
-94.19547316302604
 30
0.0
  0
SPLINE
  5
2FE
330
1F
100
AcDbEntity
  8
0
  6
Continuous
 62
     7
370
    15
100
AcDbSpline
210
0.0
220
0.0
230
1.0
 70
     8
 71
     3
 72
    25
 73
    21
 74
     0
 42
0.00000001
 43
0.00000001
 12
1.0
 22
0.0
 32
0.0
 13
1.0
 23
0.0
 33
0.0
 40
0.0
 40
0.0
 40
0.0
 40
0.0
 40
0.054225465418373
 40
0.1112654153128051
 40
0.168307222171945
 40
0.2255612993324852
 40
0.2828183406555173
 40
0.3402536612933256
 40
0.3976896431734424
 40
0.4551891426475507
 40
0.5126910813015761
 40
0.5701154386820275
 40
0.6275414446293769
 40
0.6847802845145078
 40
0.7420218026715638
 40
0.799053546358386
 40
0.8560847899894254
 40
0.9129723344811355
 40
0.969860675383332
 40
1.0
 40
1.0
 40
1.0
 40
1.0
 10
-712.3433279944552
 20
-95.00390586127585
 30
0.0
 10
-712.4188341009923
 20
-94.98724400592906
 30
0.0
 10
-712.5737653355643
 20
-94.95305548876759
 30
0.0
 10
-713.0046300942292
 20
-94.88762394999625
 30
0.0
 10
-713.5765529718345
 20
-94.81300271439774
 30
0.0
 10
-714.2863407449049
 20
-94.73102137108738
 30
0.0
 10
-715.1065452275211
 20
-94.64445486293202
 30
0.0
 10
-716.0184894673974
 20
-94.55558261210672
 30
0.0
 10
-716.9936404681908
 20
-94.46698238884268
 30
0.0
 10
-718.0055979572373
 20
-94.38131413423304
 30
0.0
 10
-719.0243201690931
 20
-94.30086576737548
 30
0.0
 10
-720.0200632586927
 20
-94.2281867939006
 30
0.0
 10
-720.9649549587552
 20
-94.1650483017377
 30
0.0
 10
-721.829700079717
 20
-94.11359022663723
 30
0.0
 10
-722.5929118344957
 20
-94.07475405809393
 30
0.0
 10
-723.2283774618347
 20
-94.05016522040854
 30
0.0
 10
-723.7264406374594
 20
-94.03960353665411
 30
0.0
 10
-724.0572200074193
 20
-94.04481412131524
 30
0.0
 10
-724.2266074675795
 20
-94.05912322622459
 30
0.0
 10
-724.2158339559543
 20
-94.07704564565303
 30
0.0
 10
-724.2121028853549
 20
-94.08325251807517
 30
0.0
  0
SPLINE
  5
2FF
330
1F
100
AcDbEntity
  8
0
  6
Continuous
 62
     7
370
    15
100
AcDbSpline
210
0.0
220
0.0
230
1.0
 70
     8
 71
     3
 72
    23
 73
    19
 74
     0
 42
0.00000001
 43
0.00000001
 12
1.0
 22
0.0
 32
0.0
 13
1.0
 23
0.0
 33
0.0
 40
0.0
 40
0.0
 40
0.0
 40
0.0
 40
0.0649130924101414
 40
0.1317031893948565
 40
0.1967427687906526
 40
0.2636543955964397
 40
0.328862332887414
 40
0.3959542081804148
 40
0.4613034615153733
 40
0.5285472556616057
 40
0.5938794200948835
 40
0.6611176539389778
 40
0.7262880331120874
 40
0.7933603722217978
 40
0.8582948315749243
 40
0.9251238674854946
 40
0.9898503540119865
 40
1.0
 40
1.0
 40
1.0
 40
1.0
 10
-758.6729454947604
 20
-95.00390586127585
 30
0.0
 10
-758.8696141704555
 20
-94.98656329428259
 30
0.0
 10
-759.2686383253897
 20
-94.95137668861483
 30
0.0
 10
-760.02611311566
 20
-94.88465829179704
 30
0.0
 10
-760.8842413392636
 20
-94.80915856835806
 30
0.0
 10
-761.8169986679102
 20
-94.72725327732189
 30
0.0
 10
-762.811083595322
 20
-94.64005743427472
 30
0.0
 10
-763.822402536928
 20
-94.55154005741703
 30
0.0
 10
-764.8395341295904
 20
-94.46264753383072
 30
0.0
 10
-765.8153642858124
 20
-94.37752663740362
 30
0.0
 10
-766.7390402936966
 20
-94.29707309472562
 30
0.0
 10
-767.5668156130982
 20
-94.22507243247965
 30
0.0
 10
-768.2905780606571
 20
-94.1622021065809
 30
0.0
 10
-768.8744915453588
 20
-94.11154421679326
 30
0.0
 10
-769.3190788694992
 20
-94.07300020881715
 30
0.0
 10
-769.5829641365857
 20
-94.0501336387069
 30
0.0
 10
-769.6963672447487
 20
-94.04029740749529
 30
0.0
 10
-769.6697378364368
 20
-94.04261572251743
 30
0.0
 10
-769.6661281539097
 20
-94.04292997588459
 30
0.0
  0
LINE
  5
300
330
1F
100
AcDbEntity
  8
0
  6
Continuous
 62
     7
370
    15
100
AcDbLine
 10
-161.4812559588
 20
-75.6789028334
 30
0.0
 11
-161.4812559588
 21
-83.6051881002
 31
0.0
  0
SPLINE
  5
301
330
1F
100
AcDbEntity
  8
0
  6
Continuous
 62
     7
370
    15
100
AcDbSpline
210
0.0
220
0.0
230
1.0
 70
     8
 71
     3
 72
    16
 73
    12
 74
     0
 42
0.00000001
 43
0.00000001
 12
1.0
 22
0.0
 32
0.0
 13
1.0
 23
0.0
 33
0.0
 40
0.0
 40
0.0
 40
0.0
 40
0.0
 40
0.2500000000000001
 40
0.2500000000000001
 40
0.5000000000000001
 40
0.5000000000000001
 40
0.6250000000000001
 40
0.6250000000000001
 40
0.7500000000000002
 40
0.7500000000000002
 40
1.0
 40
1.0
 40
1.0
 40
1.0
 10
-161.4812557910195
 20
-83.60518738106349
 30
0.0
 10
-162.3264110097844
 20
-83.84916267759391
 30
0.0
 10
-163.1922389065945
 20
-84.05385663308493
 30
0.0
 10
-164.9281242477745
 20
-84.3337104054104
 30
0.0
 10
-165.8007643835442
 20
-84.40911897970152
 30
0.0
 10
-167.1179693203174
 20
-84.4089928404688
 30
0.0
 10
-167.558395464135
 20
-84.3903013742752
 30
0.0
 10
-168.4419265073052
 20
-84.31612651721812
 30
0.0
 10
-168.8810334858023
 20
-84.2609502688974
 30
0.0
 10
-170.1826366099174
 20
-84.0496132288219
 30
0.0
 10
-171.0336449168843
 20
-83.84765016445239
 30
0.0
 10
-171.8735606364327
 20
-83.60518738106343
 30
0.0
  0
LINE
  5
302
330
1F
100
AcDbEntity
  8
0
  6
Continuous
 62
     7
370
    15
100
AcDbLine
 10
-171.8735604687
 20
-75.6789028334
 30
0.0
 11
-171.8735604687
 21
-83.6051881002
 31
0.0
  0
SPLINE
  5
303
330
1F
100
AcDbEntity
  8
0
  6
Continuous
 62
     7
370
    15
100
AcDbSpline
210
0.0
220
0.0
230
1.0
 70
     8
 71
     3
 72
    16
 73
    12
 74
     0
 42
0.00000001
 43
0.00000001
 12
1.0
 22
0.0
 32
0.0
 13
1.0
 23
0.0
 33
0.0
 40
0.0
 40
0.0
 40
0.0
 40
0.0
 40
0.2500000000000001
 40
0.2500000000000001
 40
0.5000000000000001
 40
0.5000000000000001
 40
0.6250000000000001
 40
0.6250000000000001
 40
0.7500000000000002
 40
0.7500000000000002
 40
1.0
 40
1.0
 40
1.0
 40
1.0
 10
-161.4812557910194
 20
-75.67890793943444
 30
0.0
 10
-162.3264110097842
 20
-75.43493264290396
 30
0.0
 10
-163.1922389065944
 20
-75.23023868741299
 30
0.0
 10
-164.9281242477744
 20
-74.95038491508745
 30
0.0
 10
-165.8007643835442
 20
-74.8749763407964
 30
0.0
 10
-167.1179693203173
 20
-74.87510248002904
 30
0.0
 10
-167.5583954641349
 20
-74.89379394622262
 30
0.0
 10
-168.4419265073052
 20
-74.96796880327969
 30
0.0
 10
-168.8810334858024
 20
-75.02314505160044
 30
0.0
 10
-170.1826366099175
 20
-75.23448209167596
 30
0.0
 10
-171.0336449168844
 20
-75.43644515604552
 30
0.0
 10
-171.8735606364329
 20
-75.67890793943447
 30
0.0
  0
LINE
  5
304
330
1F
100
AcDbEntity
  8
0
  6
Continuous
 62
     7
370
    15
100
AcDbLine
 10
-156.2851037038
 20
-75.6789028334
 30
0.0
 11
-156.2851037038
 21
-83.6051881002
 31
0.0
  0
SPLINE
  5
305
330
1F
100
AcDbEntity
  8
0
  6
Continuous
 62
     7
370
    15
100
AcDbSpline
210
0.0
220
0.0
230
1.0
 70
     8
 71
     3
 72
    16
 73
    12
 74
     0
 42
0.00000001
 43
0.00000001
 12
1.0
 22
0.0
 32
0.0
 13
1.0
 23
0.0
 33
0.0
 40
0.0
 40
0.0
 40
0.0
 40
0.0
 40
0.2500000000000067
 40
0.2500000000000067
 40
0.5000000000000134
 40
0.5000000000000134
 40
0.6250000000000168
 40
0.6250000000000168
 40
0.7500000000000202
 40
0.7500000000000202
 40
1.0
 40
1.0
 40
1.0
 40
1.0
 10
-156.2851033683128
 20
-83.60518738106376
 30
0.0
 10
-156.7093198754363
 20
-83.85010889564614
 30
0.0
 10
-157.1366292812469
 20
-84.05196861568268
 30
0.0
 10
-158.0001599649453
 20
-84.33160988727975
 30
0.0
 10
-158.4364474951069
 20
-84.4084690220081
 30
0.0
 10
-159.0990987304174
 20
-84.40931318317723
 30
0.0
 10
-159.3210217881983
 20
-84.39052409650719
 30
0.0
 10
-159.7600090071934
 20
-84.31725660442635
 30
0.0
 10
-159.9780308556414
 20
-84.26285255276298
 30
0.0
 10
-160.6282148198613
 20
-84.05277349441087
 30
0.0
 10
-161.0565104790892
 20
-83.85041420124354
 30
0.0
 10
-161.4812557910195
 20
-83.6051873810636
 30
0.0
  0
SPLINE
  5
306
330
1F
100
AcDbEntity
  8
0
  6
Continuous
 62
     7
370
    15
100
AcDbSpline
210
0.0
220
0.0
230
1.0
 70
     8
 71
     3
 72
    16
 73
    12
 74
     0
 42
0.00000001
 43
0.00000001
 12
1.0
 22
0.0
 32
0.0
 13
1.0
 23
0.0
 33
0.0
 40
0.0
 40
0.0
 40
0.0
 40
0.0
 40
0.2499999999999796
 40
0.2499999999999796
 40
0.4999999999999593
 40
0.4999999999999593
 40
0.6249999999999626
 40
0.6249999999999626
 40
0.7499999999999659
 40
0.7499999999999659
 40
1.0
 40
1.0
 40
1.0
 40
1.0
 10
-161.4812557910195
 20
-75.6789079394341
 30
0.0
 10
-161.0570392838961
 20
-75.43398642485172
 30
0.0
 10
-160.6297298780854
 20
-75.23212670481522
 30
0.0
 10
-159.766199194387
 20
-74.95248543321814
 30
0.0
 10
-159.3299116642254
 20
-74.87562629848973
 30
0.0
 10
-158.6672604289149
 20
-74.87478213732058
 30
0.0
 10
-158.445337371134
 20
-74.8935712239907
 30
0.0
 10
-158.0063501521389
 20
-74.96683871607155
 30
0.0
 10
-157.7883283036909
 20
-75.02124276773492
 30
0.0
 10
-157.138144339471
 20
-75.23132182608697
 30
0.0
 10
-156.7098486802431
 20
-75.43368111925425
 30
0.0
 10
-156.2851033683128
 20
-75.6789079394343
 30
0.0
  0
SPLINE
  5
307
330
1F
100
AcDbEntity
  8
0
  6
Continuous
 62
     7
370
    15
100
AcDbSpline
210
0.0
220
0.0
230
1.0
 70
     8
 71
     3
 72
    16
 73
    12
 74
     0
 42
0.00000001
 43
0.00000001
 12
1.0
 22
0.0
 32
0.0
 13
1.0
 23
0.0
 33
0.0
 40
0.0
 40
0.0
 40
0.0
 40
0.0
 40
0.2500000000000068
 40
0.2500000000000068
 40
0.5000000000000135
 40
0.5000000000000135
 40
0.6250000000000169
 40
0.6250000000000169
 40
0.7500000000000203
 40
0.7500000000000203
 40
1.0
 40
1.0
 40
1.0
 40
1.0
 10
-171.8735606364327
 20
-83.60518738106379
 30
0.0
 10
-172.2977771435561
 20
-83.8501088956462
 30
0.0
 10
-172.7250865493668
 20
-84.05196861568271
 30
0.0
 10
-173.5886172330652
 20
-84.33160988727978
 30
0.0
 10
-174.0249047632269
 20
-84.40846902200808
 30
0.0
 10
-174.6875559985373
 20
-84.40931318317729
 30
0.0
 10
-174.9094790563182
 20
-84.3905240965072
 30
0.0
 10
-175.3484662753133
 20
-84.31725660442638
 30
0.0
 10
-175.5664881237613
 20
-84.26285255276295
 30
0.0
 10
-176.2166720879811
 20
-84.05277349441096
 30
0.0
 10
-176.644967747209
 20
-83.85041420124365
 30
0.0
 10
-177.0697130591393
 20
-83.6051873810636
 30
0.0
  0
LINE
  5
308
330
1F
100
AcDbEntity
  8
0
  6
Continuous
 62
     7
370
    15
100
AcDbLine
 10
-177.0697127236
 20
-75.6789028334
 30
0.0
 11
-177.0697127236
 21
-83.6051881002
 31
0.0
  0
SPLINE
  5
309
330
1F
100
AcDbEntity
  8
0
  6
Continuous
 62
     7
370
    15
100
AcDbSpline
210
0.0
220
0.0
230
1.0
 70
     8
 71
     3
 72
    16
 73
    12
 74
     0
 42
0.00000001
 43
0.00000001
 12
1.0
 22
0.0
 32
0.0
 13
1.0
 23
0.0
 33
0.0
 40
0.0
 40
0.0
 40
0.0
 40
0.0
 40
0.2499999999999932
 40
0.2499999999999932
 40
0.4999999999999865
 40
0.4999999999999865
 40
0.6249999999999831
 40
0.6249999999999831
 40
0.7499999999999797
 40
0.7499999999999797
 40
1.0
 40
1.0
 40
1.0
 40
1.0
 10
-177.0697130591394
 20
-75.67890793943407
 30
0.0
 10
-176.6454965520159
 20
-75.43398642485164
 30
0.0
 10
-176.2181871462052
 20
-75.23212670481516
 30
0.0
 10
-175.3546564625068
 20
-74.95248543321814
 30
0.0
 10
-174.9183689323452
 20
-74.87562629848982
 30
0.0
 10
-174.2557176970347
 20
-74.87478213732058
 30
0.0
 10
-174.0337946392539
 20
-74.8935712239907
 30
0.0
 10
-173.5948074202588
 20
-74.96683871607149
 30
0.0
 10
-173.3767855718107
 20
-75.02124276773492
 30
0.0
 10
-172.7266016075909
 20
-75.23132182608705
 30
0.0
 10
-172.298305948363
 20
-75.43368111925425
 30
0.0
 10
-171.8735606364327
 20
-75.6789079394343
 30
0.0
  0
LINE
  5
30A
330
1F
100
AcDbEntity
  8
0
  6
Continuous
 62
     7
370
    15
100
AcDbLine
 10
-174.927408169
 20
-74.4420468496
 30
0.0
 11
-158.4274082584
 21
-74.4420468496
 31
0.0
  0
LINE
  5
30B
330
1F
100
AcDbEntity
  8
0
  6
Continuous
 62
     7
370
    15
100
AcDbLine
 10
-172.6774082659
 20
-39.3420487331
 30
0.0
 11
-160.6774081616
 21
-39.3420487331
 31
0.0
  0
SPLINE
  5
30C
330
1F
100
AcDbEntity
  8
0
  6
Continuous
 62
     7
370
    15
100
AcDbSpline
210
0.0
220
0.0
230
1.0
 70
     8
 71
     3
 72
    11
 73
     7
 74
     0
 42
0.00000001
 43
0.00000001
 12
1.0
 22
0.0
 32
0.0
 13
1.0
 23
0.0
 33
0.0
 40
0.0
 40
0.0
 40
0.0
 40
0.0
 40
0.1514478092367098
 40
0.4260493356480794
 40
0.7082836521667486
 40
1.0
 40
1.0
 40
1.0
 40
1.0
 10
-757.6993632269991
 20
-95.1902895854885
 30
0.0
 10
-757.6953061149
 20
-95.19146321703936
 30
0.0
 10
-757.6838927446887
 20
-95.1947648491004
 30
0.0
 10
-757.8462242313541
 20
-95.14765738197364
 30
0.0
 10
-758.1551528683415
 20
-95.0684313483437
 30
0.0
 10
-758.4984574158711
 20
-95.02564994897314
 30
0.0
 10
-758.6729454947604
 20
-95.00390586127585
 30
0.0
  0
SPLINE
  5
30D
330
1F
100
AcDbEntity
  8
0
  6
Continuous
 62
     7
370
    15
100
AcDbSpline
210
0.0
220
0.0
230
1.0
 70
     8
 71
     3
 72
     9
 73
     5
 74
     0
 42
0.00000001
 43
0.00000001
 12
1.0
 22
0.0
 32
0.0
 13
1.0
 23
0.0
 33
0.0
 40
0.0
 40
0.0
 40
0.0
 40
0.0
 40
0.1108521490962252
 40
1.0
 40
1.0
 40
1.0
 40
1.0
 10
-712.2425961447849
 20
-95.08127269019428
 30
0.0
 10
-712.239620248397
 20
-95.07814241544249
 30
0.0
 10
-712.212774612909
 20
-95.04990412888361
 30
0.0
 10
-712.2818816346193
 20
-95.02555544300087
 30
0.0
 10
-712.3433279944552
 20
-95.00390586127585
 30
0.0
  0
SPLINE
  5
30E
330
1F
100
AcDbEntity
  8
0
  6
Continuous
 62
     7
370
    15
100
AcDbSpline
210
0.0
220
0.0
230
1.0
 70
     8
 71
     3
 72
     9
 73
     5
 74
     0
 42
0.00000001
 43
0.00000001
 12
1.0
 22
0.0
 32
0.0
 13
1.0
 23
0.0
 33
0.0
 40
0.0
 40
0.0
 40
0.0
 40
0.0
 40
0.8636199875939841
 40
0.9999999999999999
 40
0.9999999999999999
 40
0.9999999999999999
 40
0.9999999999999999
 10
378.9885115670073
 20
-95.00390586127583
 30
0.0
 10
378.9287119635214
 20
-95.02477811254353
 30
0.0
 10
378.8594690044135
 20
-95.0489464407059
 30
0.0
 10
378.886270320701
 20
-95.0773275661484
 30
0.0
 10
378.8899254845487
 20
-95.08119818438834
 30
0.0
  0
SPLINE
  5
30F
330
1F
100
AcDbEntity
  8
0
  6
Continuous
 62
     7
370
    15
100
AcDbSpline
210
0.0
220
0.0
230
1.0
 70
     8
 71
     3
 72
    11
 73
     7
 74
     0
 42
0.00000001
 43
0.00000001
 12
1.0
 22
0.0
 32
0.0
 13
1.0
 23
0.0
 33
0.0
 40
0.0
 40
0.0
 40
0.0
 40
0.0
 40
0.2833368430528468
 40
0.5748322785085294
 40
0.8587369629485876
 40
1.0
 40
1.0
 40
1.0
 40
1.0
 10
425.3181290673125
 20
-95.00390586127583
 30
0.0
 10
425.148324452786
 20
-95.024908833939
 30
0.0
 10
424.8038257549894
 20
-95.067519553044
 30
0.0
 10
424.4894918868868
 20
-95.14808414979566
 30
0.0
 10
424.3263362293242
 20
-95.19561817808894
 30
0.0
 10
424.3400052374663
 20
-95.19161849138317
 30
0.0
 10
424.3445467995512
 20
-95.1902895854885
 30
0.0
  0
LINE
  5
310
330
1F
100
AcDbEntity
  8
0
  6
Continuous
 62
     7
370
    15
100
AcDbLine
 10
-750.3049898101
 20
-127.3420482563
 30
0.0
 11
-724.2335009528
 21
-127.3420482563
 31
0.0
  0
LINE
  5
311
330
1F
100
AcDbEntity
  8
0
  6
Continuous
 62
     7
370
    15
100
AcDbLine
 10
-712.2334766341
 20
-127.3420482563
 30
0.0
 11
-594.8201644374
 21
-127.3420482563
 31
0.0
  0
LINE
  5
312
330
1F
100
AcDbEntity
  8
0
  6
Continuous
 62
     7
370
    15
100
AcDbLine
 10
-582.820169921
 20
-127.3420482563
 30
0.0
 11
-401.1394160939
 21
-127.3420482563
 31
0.0
  0
LINE
  5
313
330
1F
100
AcDbEntity
  8
0
  6
Continuous
 62
     7
370
    15
100
AcDbLine
 10
-389.1394215776
 20
-127.3420482563
 30
0.0
 11
-172.6774082659
 21
-127.3420482563
 31
0.0
  0
LINE
  5
314
330
1F
100
AcDbEntity
  8
0
  6
Continuous
 62
     7
370
    15
100
AcDbLine
 10
-160.6774081616
 20
-127.3420482563
 30
0.0
 11
55.7846051501
 21
-127.3420482563
 31
0.0
  0
LINE
  5
315
330
1F
100
AcDbEntity
  8
0
  6
Continuous
 62
     7
370
    15
100
AcDbLine
 10
67.7845996665
 20
-127.3420482563
 30
0.0
 11
249.4653534936
 21
-127.3420482563
 31
0.0
  0
LINE
  5
316
330
1F
100
AcDbEntity
  8
0
  6
Continuous
 62
     7
370
    15
100
AcDbLine
 10
261.46534801
 20
-127.3420482563
 30
0.0
 11
378.8786602067
 21
-127.3420482563
 31
0.0
  0
LINE
  5
317
330
1F
100
AcDbEntity
  8
0
  6
Continuous
 62
     7
370
    15
100
AcDbLine
 10
390.8786845254
 20
-127.3420482563
 30
0.0
 11
416.9501733827
 21
-127.3420482563
 31
0.0
  0
LINE
  5
318
330
1F
100
AcDbEntity
  8
0
  6
Continuous
 62
     7
370
    15
100
AcDbLine
 10
49.7846078919
 20
-84.842044084
 30
0.0
 11
73.7845969247
 21
-84.842044084
 31
0.0
  0
LINE
  5
319
330
1F
100
AcDbEntity
  8
0
  6
Continuous
 62
     7
370
    15
100
AcDbLine
 10
-384.0528655006
 20
-84.842044084
 30
0.0
 11
-383.1394243194
 21
-84.842044084
 31
0.0
  0
LINE
  5
31A
330
1F
100
AcDbEntity
  8
0
  6
Continuous
 62
     7
370
    15
100
AcDbLine
 10
-407.1394133521
 20
-84.842044084
 30
0.0
 11
-384.0528655006
 21
-84.842044084
 31
0.0
  0
LINE
  5
31B
330
1F
100
AcDbEntity
  8
0
  6
Continuous
 62
     7
370
    15
100
AcDbLine
 10
70.0293701934
 20
-75.6789028334
 30
0.0
 11
70.0293701934
 21
-83.6051881002
 31
0.0
  0
SPLINE
  5
31C
330
1F
100
AcDbEntity
  8
0
  6
Continuous
 62
     7
370
    15
100
AcDbSpline
210
0.0
220
0.0
230
1.0
 70
     8
 71
     3
 72
    14
 73
    10
 74
     0
 42
0.00000001
 43
0.00000001
 12
1.0
 22
0.0
 32
0.0
 13
1.0
 23
0.0
 33
0.0
 40
0.0
 40
0.0
 40
0.0
 40
0.0
 40
0.1331931446195853
 40
0.2578376434776901
 40
0.3824526962203448
 40
0.5101675845979479
 40
0.6378836764961053
 40
0.8180593403303849
 40
1.0
 40
1.0
 40
1.0
 40
1.0
 10
70.02937019337286
 20
-83.60518810023612
 30
0.0
 10
69.61181703416005
 20
-83.72844161405146
 30
0.0
 10
68.80351024850998
 20
-83.96703794454017
 30
0.0
 10
67.58197586589753
 20
-84.2198815436489
 30
0.0
 10
66.36524619030578
 20
-84.37963924525543
 30
0.0
 10
65.12974740542326
 20
-84.42747885927646
 30
0.0
 10
63.71513576859059
 20
-84.35037250898512
 30
0.0
 10
62.13675089290735
 20
-84.09852351995897
 30
0.0
 10
60.99952116210303
 20
-83.77016672284144
 30
0.0
 10
60.42813480366338
 20
-83.60518810023612
 30
0.0
  0
LINE
  5
31D
330
1F
100
AcDbEntity
  8
0
  6
Continuous
 62
     7
370
    15
100
AcDbLine
 10
60.4281348037
 20
-75.6789028334
 30
0.0
 11
60.4281348037
 21
-83.6051881002
 31
0.0
  0
SPLINE
  5
31E
330
1F
100
AcDbEntity
  8
0
  6
Continuous
 62
     7
370
    15
100
AcDbSpline
210
0.0
220
0.0
230
1.0
 70
     8
 71
     3
 72
    14
 73
    10
 74
     0
 42
0.00000001
 43
0.00000001
 12
1.0
 22
0.0
 32
0.0
 13
1.0
 23
0.0
 33
0.0
 40
0.0
 40
0.0
 40
0.0
 40
0.0
 40
0.1803113065741943
 40
0.3621155246958639
 40
0.4866223765633331
 40
0.611128174282829
 40
0.7389502062642697
 40
0.8668068905345352
 40
1.0
 40
1.0
 40
1.0
 40
1.0
 10
60.42813480366341
 20
-75.67890283335987
 30
0.0
 10
60.99436668826974
 20
-75.51530810900903
 30
0.0
 10
62.13151865000419
 20
-75.1867641559352
 30
0.0
 10
63.69951343140954
 20
-74.93569334722885
 30
0.0
 10
65.09843717540781
 20
-74.85779568876855
 30
0.0
 10
66.32352380776838
 20
-74.90092754981877
 30
0.0
 10
67.55116867523489
 20
-75.05819068554071
 30
0.0
 10
68.79342661469722
 20
-75.31410215773899
 30
0.0
 10
69.61181247189968
 20
-75.55565664192176
 30
0.0
 10
70.02937019337286
 20
-75.6789028333599
 30
0.0
  0
SPLINE
  5
31F
330
1F
100
AcDbEntity
  8
0
  6
Continuous
 62
     7
370
    15
100
AcDbSpline
210
0.0
220
0.0
230
1.0
 70
     8
 71
     3
 72
    16
 73
    12
 74
     0
 42
0.00000001
 43
0.00000001
 12
1.0
 22
0.0
 32
0.0
 13
1.0
 23
0.0
 33
0.0
 40
0.0
 40
0.0
 40
0.0
 40
0.0
 40
0.2500000000000031
 40
0.2500000000000031
 40
0.5000000000000062
 40
0.5000000000000062
 40
0.6250000000000047
 40
0.6250000000000047
 40
0.7500000000000031
 40
0.7500000000000031
 40
1.0
 40
1.0
 40
1.0
 40
1.0
 10
60.42813877855355
 20
-83.60518525237414
 30
0.0
 10
59.75503115369776
 20
-83.85010719464856
 30
0.0
 10
59.07701600482088
 20
-84.05196733350087
 30
0.0
 10
57.70684516915353
 20
-84.33160934662325
 30
0.0
 10
57.01458435915158
 20
-84.40846880155419
 30
0.0
 10
55.96315049285877
 20
-84.40931328973508
 30
0.0
 10
55.61102342240487
 20
-84.39052428482913
 30
0.0
 10
54.91447894460572
 20
-84.31725689369677
 30
0.0
 10
54.56854196271899
 20
-84.26285286265195
 30
0.0
 10
53.53688995808798
 20
-84.05277378756382
 30
0.0
 10
52.85730987804673
 20
-83.85041437885549
 30
0.0
 10
52.18336316593797
 20
-83.60518738106363
 30
0.0
  0
SPLINE
  5
320
330
1F
100
AcDbEntity
  8
0
  6
Continuous
 62
     7
370
    15
100
AcDbSpline
210
0.0
220
0.0
230
1.0
 70
     8
 71
     3
 72
    16
 73
    12
 74
     0
 42
0.00000001
 43
0.00000001
 12
1.0
 22
0.0
 32
0.0
 13
1.0
 23
0.0
 33
0.0
 40
0.0
 40
0.0
 40
0.0
 40
0.0
 40
0.2500000000000148
 40
0.2500000000000148
 40
0.5000000000000295
 40
0.5000000000000295
 40
0.6250000000000218
 40
0.6250000000000218
 40
0.7500000000000141
 40
0.7500000000000141
 40
1.0
 40
1.0
 40
1.0
 40
1.0
 10
71.38583865052827
 20
-83.60518738106379
 30
0.0
 10
71.2750962029243
 20
-83.85010826953607
 30
0.0
 10
71.16354635087355
 20
-84.05196758375133
 30
0.0
 10
70.93812019502104
 20
-84.33160877460865
 30
0.0
 10
70.824226596137
 20
-84.4084682467798
 30
0.0
 10
70.65124037492582
 20
-84.4093135578346
 30
0.0
 10
70.59330696854235
 20
-84.39052495458998
 30
0.0
 10
70.4787085816531
 20
-84.31725855580888
 30
0.0
 10
70.42179359348665
 20
-84.26285511800997
 30
0.0
 10
70.25206192219827
 20
-84.05277803060196
 30
0.0
 10
70.14025458413411
 20
-83.85042021673742
 30
0.0
 10
70.02937407209481
 20
-83.60519490373719
 30
0.0
  0
SPLINE
  5
321
330
1F
100
AcDbEntity
  8
0
  6
Continuous
 62
     7
370
    15
100
AcDbSpline
210
0.0
220
0.0
230
1.0
 70
     8
 71
     3
 72
    10
 73
     6
 74
     0
 42
0.00000001
 43
0.00000001
 12
1.0
 22
0.0
 32
0.0
 13
1.0
 23
0.0
 33
0.0
 40
0.0
 40
0.0
 40
0.0
 40
0.0
 40
0.3413733363431549
 40
0.6826572498653306
 40
1.0
 40
1.0
 40
1.0
 40
1.0
 10
52.18336701859106
 20
-83.60518810023612
 30
0.0
 10
52.24197607806483
 20
-83.72700304835382
 30
0.0
 10
52.35917884435648
 20
-83.97060103513651
 30
0.0
 10
52.53404560114902
 20
-84.23390018477376
 30
0.0
 10
52.65073848116347
 20
-84.31806696096078
 30
0.0
 10
52.70696402062048
 20
-84.35862061251945
 30
0.0
  0
SPLINE
  5
322
330
1F
100
AcDbEntity
  8
0
  6
Continuous
 62
     7
370
    15
100
AcDbSpline
210
0.0
220
0.0
230
1.0
 70
     8
 71
     3
 72
    16
 73
    12
 74
     0
 42
0.00000001
 43
0.00000001
 12
1.0
 22
0.0
 32
0.0
 13
1.0
 23
0.0
 33
0.0
 40
0.0
 40
0.0
 40
0.0
 40
0.0
 40
0.2500000000000001
 40
0.2500000000000001
 40
0.5000000000000002
 40
0.5000000000000002
 40
0.6250000000000008
 40
0.6250000000000008
 40
0.7500000000000012
 40
0.7500000000000012
 40
1.0
 40
1.0
 40
1.0
 40
1.0
 10
70.02937416982735
 20
-75.67890020061385
 30
0.0
 10
70.14011662599596
 20
-75.43398024090295
 30
0.0
 10
70.2516664901367
 20
-75.23212204346721
 30
0.0
 10
70.47709267732242
 20
-74.95248346767764
 30
0.0
 10
70.59098629551069
 20
-74.87562549704127
 30
0.0
 10
70.76397254729864
 20
-74.87478252471766
 30
0.0
 10
70.82190592794491
 20
-74.89357190863925
 30
0.0
 10
70.93650427434665
 20
-74.96683976771563
 30
0.0
 10
70.99341924316305
 20
-75.02124389433654
 30
0.0
 10
71.16315085978164
 20
-75.23132289184292
 30
0.0
 10
71.27495816602935
 20
-75.4336817649611
 30
0.0
 10
71.38583865052827
 20
-75.6789079394343
 30
0.0
  0
SPLINE
  5
323
330
1F
100
AcDbEntity
  8
0
  6
Continuous
 62
     7
370
    15
100
AcDbSpline
210
0.0
220
0.0
230
1.0
 70
     8
 71
     3
 72
    16
 73
    12
 74
     0
 42
0.00000001
 43
0.00000001
 12
1.0
 22
0.0
 32
0.0
 13
1.0
 23
0.0
 33
0.0
 40
0.0
 40
0.0
 40
0.0
 40
0.0
 40
0.2499999999999892
 40
0.2499999999999892
 40
0.4999999999999785
 40
0.4999999999999785
 40
0.6249999999999826
 40
0.6249999999999826
 40
0.7499999999999868
 40
0.7499999999999868
 40
1.0
 40
1.0
 40
1.0
 40
1.0
 10
52.18336316593794
 20
-75.67890793943405
 30
0.0
 10
52.85647071635055
 20
-75.43398628492781
 30
0.0
 10
53.53448579538314
 20
-75.23212647419808
 30
0.0
 10
54.90465649902476
 20
-74.95248518455769
 30
0.0
 10
55.59691724687429
 20
-74.8756261252419
 30
0.0
 10
56.64835101886337
 20
-74.87478222105135
 30
0.0
 10
57.00047800332911
 20
-74.89357141575815
 30
0.0
 10
57.69702232772708
 20
-74.96683915217126
 30
0.0
 10
58.04295923486266
 20
-75.02124334102194
 30
0.0
 10
59.07461102176925
 20
-75.23132283984343
 30
0.0
 10
59.75419096552248
 20
-75.43368246360741
 30
0.0
 10
60.42813754868159
 20
-75.67890962061377
 30
0.0
  0
SPLINE
  5
324
330
1F
100
AcDbEntity
  8
0
  6
Continuous
 62
     7
370
    15
100
AcDbSpline
210
0.0
220
0.0
230
1.0
 70
     8
 71
     3
 72
    10
 73
     6
 74
     0
 42
0.00000001
 43
0.00000001
 12
1.0
 22
0.0
 32
0.0
 13
1.0
 23
0.0
 33
0.0
 40
0.0
 40
0.0
 40
0.0
 40
0.0
 40
0.097412616131595
 40
0.3947559315187133
 40
1.0
 40
1.0
 40
1.0
 40
1.0
 10
52.70693421829809
 20
-74.9302535938198
 30
0.0
 10
52.68963389082052
 20
-74.9375120440903
 30
0.0
 10
52.61952585799906
 20
-74.96692626589943
 30
0.0
 10
52.44317712149032
 20
-75.16583987055064
 30
0.0
 10
52.28765488409898
 20
-75.47295918195657
 30
0.0
 10
52.18336701859106
 20
-75.6789028333599
 30
0.0
  0
LINE
  5
325
330
1F
100
AcDbEntity
  8
0
  6
Continuous
 62
     7
370
    15
100
AcDbLine
 10
53.5346043156
 20
-74.4420468496
 30
0.0
 11
70.034600501
 21
-74.4420468496
 31
0.0
  0
LINE
  5
326
330
1F
100
AcDbEntity
  8
0
  6
Continuous
 62
     7
370
    15
100
AcDbLine
 10
-393.7829512311
 20
-75.6789028334
 30
0.0
 11
-393.7829512311
 21
-83.6051881002
 31
0.0
  0
SPLINE
  5
327
330
1F
100
AcDbEntity
  8
0
  6
Continuous
 62
     7
370
    15
100
AcDbSpline
210
0.0
220
0.0
230
1.0
 70
     8
 71
     3
 72
    14
 73
    10
 74
     0
 42
0.00000001
 43
0.00000001
 12
1.0
 22
0.0
 32
0.0
 13
1.0
 23
0.0
 33
0.0
 40
0.0
 40
0.0
 40
0.0
 40
0.0
 40
0.1331931498879865
 40
0.2578376536763543
 40
0.3824527113481072
 40
0.5101676047774212
 40
0.6378837017273372
 40
0.8180572334801411
 40
1.0
 40
1.0
 40
1.0
 40
1.0
 10
-393.7829512311114
 20
-83.60518810023612
 30
0.0
 10
-394.2005043816098
 20
-83.72844161592916
 30
0.0
 10
-395.0088111503906
 20
-83.9670379500527
 30
0.0
 10
-396.2303456532974
 20
-84.21988152324158
 30
0.0
 10
-397.4470748745865
 20
-84.37963932273689
 30
0.0
 10
-398.6825753990137
 20
-84.42747856193745
 30
0.0
 10
-400.0971726693422
 20
-84.35037418899476
 30
0.0
 10
-401.675596740407
 20
-84.09851791325134
 30
0.0
 10
-402.8128045966856
 20
-83.77016612706292
 30
0.0
 10
-403.3841866208209
 20
-83.60518810023612
 30
0.0
  0
LINE
  5
328
330
1F
100
AcDbEntity
  8
0
  6
Continuous
 62
     7
370
    15
100
AcDbLine
 10
-403.3841866208
 20
-75.6789028334
 30
0.0
 11
-403.3841866208
 21
-83.6051881002
 31
0.0
  0
SPLINE
  5
329
330
1F
100
AcDbEntity
  8
0
  6
Continuous
 62
     7
370
    15
100
AcDbSpline
210
0.0
220
0.0
230
1.0
 70
     8
 71
     3
 72
    14
 73
    10
 74
     0
 42
0.00000001
 43
0.00000001
 12
1.0
 22
0.0
 32
0.0
 13
1.0
 23
0.0
 33
0.0
 40
0.0
 40
0.0
 40
0.0
 40
0.0
 40
0.180311302485472
 40
0.3621155164845662
 40
0.4866245251498052
 40
0.6111281588304968
 40
0.7389523359860657
 40
0.8668068935548097
 40
0.9999999999999999
 40
0.9999999999999999
 40
0.9999999999999999
 40
0.9999999999999999
 10
-403.3841866208209
 20
-75.6789028333599
 30
0.0
 10
-402.8179562138193
 20
-75.51530810795943
 30
0.0
 10
-401.6808072195282
 20
-75.18676415277776
 30
0.0
 10
-400.1127854415261
 20
-74.93569224405732
 30
0.0
 10
-398.7139155616787
 20
-74.85779556551664
 30
0.0
 10
-397.4887644980705
 20
-74.90093014350977
 30
0.0
 10
-396.2611839829122
 20
-75.05818596744648
 30
0.0
 10
-395.0188781859182
 20
-75.31410564966178
 30
0.0
 10
-394.2005055856708
 20
-75.55565715772211
 30
0.0
 10
-393.7829512311114
 20
-75.6789028333599
 30
0.0
  0
SPLINE
  5
32A
330
1F
100
AcDbEntity
  8
0
  6
Continuous
 62
     7
370
    15
100
AcDbSpline
210
0.0
220
0.0
230
1.0
 70
     8
 71
     3
 72
    16
 73
    12
 74
     0
 42
0.00000001
 43
0.00000001
 12
1.0
 22
0.0
 32
0.0
 13
1.0
 23
0.0
 33
0.0
 40
0.0
 40
0.0
 40
0.0
 40
0.0
 40
0.2499999999999845
 40
0.2499999999999845
 40
0.4999999999999689
 40
0.4999999999999689
 40
0.6249999999999767
 40
0.6249999999999767
 40
0.7499999999999845
 40
0.7499999999999845
 40
1.0
 40
1.0
 40
1.0
 40
1.0
 10
-403.3841905182998
 20
-83.60519494521138
 30
0.0
 10
-403.4949329806649
 20
-83.85011494001724
 30
0.0
 10
-403.6064828510158
 20
-84.0519731718197
 30
0.0
 10
-403.8319090507697
 20
-84.33161180845627
 30
0.0
 10
-403.9458026753199
 20
-84.40846980536726
 30
0.0
 10
-404.1187889368865
 20
-84.40931280452426
 30
0.0
 10
-404.1767223212062
 20
-84.39052342731196
 30
0.0
 10
-404.2913206746921
 20
-84.31725557651897
 30
0.0
 10
-404.3482356469975
 20
-84.26285145158991
 30
0.0
 10
-404.5179672739437
 20
-84.05277245271017
 30
0.0
 10
-404.6297745868914
 20
-83.85041357011097
 30
0.0
 10
-404.7406550779802
 20
-83.60518738106357
 30
0.0
  0
SPLINE
  5
32B
330
1F
100
AcDbEntity
  8
0
  6
Continuous
 62
     7
370
    15
100
AcDbSpline
210
0.0
220
0.0
230
1.0
 70
     8
 71
     3
 72
    16
 73
    12
 74
     0
 42
0.00000001
 43
0.00000001
 12
1.0
 22
0.0
 32
0.0
 13
1.0
 23
0.0
 33
0.0
 40
0.0
 40
0.0
 40
0.0
 40
0.0
 40
0.2500000000000143
 40
0.2500000000000143
 40
0.5000000000000286
 40
0.5000000000000286
 40
0.6250000000000262
 40
0.6250000000000262
 40
0.7500000000000239
 40
0.7500000000000239
 40
1.0
 40
1.0
 40
1.0
 40
1.0
 10
-385.5381795933899
 20
-83.60518738106381
 30
0.0
 10
-386.2112872422171
 20
-83.85010907137976
 30
0.0
 10
-386.8893024211002
 20
-84.05196890532015
 30
0.0
 10
-388.2594733292066
 20
-84.33161019957822
 30
0.0
 10
-388.9517341817514
 20
-84.40846923959411
 30
0.0
 10
-390.003168114979
 20
-84.40931307801763
 30
0.0
 10
-390.3552951470746
 20
-84.39052385566181
 30
0.0
 10
-391.0518395665041
 20
-84.31725605671816
 30
0.0
 10
-391.3977765206503
 20
-84.26285183275789
 30
0.0
 10
-392.4294284476168
 20
-84.0527722212099
 30
0.0
 10
-393.1090084835005
 20
-83.85041251283856
 30
0.0
 10
-393.7829551585804
 20
-83.6051852696304
 30
0.0
  0
SPLINE
  5
32C
330
1F
100
AcDbEntity
  8
0
  6
Continuous
 62
     7
370
    15
100
AcDbSpline
210
0.0
220
0.0
230
1.0
 70
     8
 71
     3
 72
    10
 73
     6
 74
     0
 42
0.00000001
 43
0.00000001
 12
1.0
 22
0.0
 32
0.0
 13
1.0
 23
0.0
 33
0.0
 40
0.0
 40
0.0
 40
0.0
 40
0.0
 40
0.0974125834235217
 40
0.394755308775061
 40
1.0
 40
1.0
 40
1.0
 40
1.0
 10
-386.0617506457461
 20
-84.35383733977619
 30
0.0
 10
-386.0444503230797
 20
-84.34657862987913
 30
0.0
 10
-385.9743423968129
 20
-84.3171633924835
 30
0.0
 10
-385.7979930484994
 20
-84.11827961203205
 30
0.0
 10
-385.6424711726399
 20
-83.81114333359422
 30
0.0
 10
-385.5381834460391
 20
-83.60518810023612
 30
0.0
  0
SPLINE
  5
32D
330
1F
100
AcDbEntity
  8
0
  6
Continuous
 62
     7
370
    15
100
AcDbSpline
210
0.0
220
0.0
230
1.0
 70
     8
 71
     3
 72
    10
 73
     6
 74
     0
 42
0.00000001
 43
0.00000001
 12
1.0
 22
0.0
 32
0.0
 13
1.0
 23
0.0
 33
0.0
 40
0.0
 40
0.0
 40
0.0
 40
0.0
 40
0.3413734728728933
 40
0.6826575228890434
 40
1.0
 40
1.0
 40
1.0
 40
1.0
 10
-385.5381834460391
 20
-75.6789028333599
 30
0.0
 10
-385.5967925108038
 20
-75.55708825218558
 30
0.0
 10
-385.7139952876759
 20
-75.3134909991934
 30
0.0
 10
-385.8888618970491
 20
-75.05018658119067
 30
0.0
 10
-386.0055548906167
 20
-74.96603265558596
 30
0.0
 10
-386.0617804480685
 20
-74.92548522223777
 30
0.0
  0
SPLINE
  5
32E
330
1F
100
AcDbEntity
  8
0
  6
Continuous
 62
     7
370
    15
100
AcDbSpline
210
0.0
220
0.0
230
1.0
 70
     8
 71
     3
 72
    16
 73
    12
 74
     0
 42
0.00000001
 43
0.00000001
 12
1.0
 22
0.0
 32
0.0
 13
1.0
 23
0.0
 33
0.0
 40
0.0
 40
0.0
 40
0.0
 40
0.0
 40
0.2499999999999969
 40
0.2499999999999969
 40
0.4999999999999938
 40
0.4999999999999938
 40
0.6249999999999953
 40
0.6249999999999953
 40
0.7499999999999969
 40
0.7499999999999969
 40
1.0
 40
1.0
 40
1.0
 40
1.0
 10
-393.782953976132
 20
-75.67890962061321
 30
0.0
 10
-393.1098464477688
 20
-75.43398776825173
 30
0.0
 10
-392.4318313955972
 20
-75.232127717446
 30
0.0
 10
-391.0616607556428
 20
-74.95248586021316
 30
0.0
 10
-390.3694000447089
 20
-74.87562647259796
 30
0.0
 10
-389.3179663306907
 20
-74.8747820531642
 30
0.0
 10
-388.9658393174394
 20
-74.89357107525923
 30
0.0
 10
-388.2692949499531
 20
-74.96683848761384
 30
0.0
 10
-387.9233580223981
 20
-75.02124252299333
 30
0.0
 10
-386.8917061785907
 20
-75.23132159456303
 30
0.0
 10
-386.2121262028816
 20
-75.43368097898143
 30
0.0
 10
-385.5381795933899
 20
-75.67890793943424
 30
0.0
  0
SPLINE
  5
32F
330
1F
100
AcDbEntity
  8
0
  6
Continuous
 62
     7
370
    15
100
AcDbSpline
210
0.0
220
0.0
230
1.0
 70
     8
 71
     3
 72
    16
 73
    12
 74
     0
 42
0.00000001
 43
0.00000001
 12
1.0
 22
0.0
 32
0.0
 13
1.0
 23
0.0
 33
0.0
 40
0.0
 40
0.0
 40
0.0
 40
0.0
 40
0.2499999999999927
 40
0.2499999999999927
 40
0.4999999999999853
 40
0.4999999999999853
 40
0.6249999999999968
 40
0.6249999999999968
 40
0.7500000000000082
 40
0.7500000000000082
 40
1.0
 40
1.0
 40
1.0
 40
1.0
 10
-404.7406550779802
 20
-75.67890793943413
 30
0.0
 10
-404.62991263791
 20
-75.43398706762403
 30
0.0
 10
-404.5183627935032
 20
-75.23212776420846
 30
0.0
 10
-404.2929366533029
 20
-74.95248657549986
 30
0.0
 10
-404.1790430624335
 20
-74.8756270943487
 30
0.0
 10
-404.0060568535657
 20
-74.87478175269305
 30
0.0
 10
-403.9481234508283
 20
-74.89357034307264
 30
0.0
 10
-403.8335250712141
 20
-74.96683671275889
 30
0.0
 10
-403.7766100866464
 20
-75.0212401342214
 30
0.0
 10
-403.60687842608
 20
-75.23131716917847
 30
0.0
 10
-403.4950710950686
 20
-75.43367494367564
 30
0.0
 10
-403.3841905900661
 20
-75.67890021656656
 30
0.0
  0
LINE
  5
330
330
1F
100
AcDbEntity
  8
0
  6
Continuous
 62
     7
370
    15
100
AcDbLine
 10
-403.3894169284
 20
-74.4420468496
 30
0.0
 11
-386.8894207431
 21
-74.4420468496
 31
0.0
  0
LINE
  5
331
330
1F
100
AcDbEntity
  8
0
  6
Continuous
 62
     7
370
    15
100
AcDbLine
 10
52.1833670186
 20
-75.6789028334
 30
0.0
 11
52.1833670186
 21
-83.6051881002
 31
0.0
  0
LINE
  5
332
330
1F
100
AcDbEntity
  8
0
  6
Continuous
 62
     7
370
    15
100
AcDbLine
 10
-385.538183446
 20
-75.6789028334
 30
0.0
 11
-385.538183446
 21
-83.6051881002
 31
0.0
  0
LINE
  5
333
330
1F
100
AcDbEntity
  8
0
  6
Continuous
 62
     7
370
    15
100
AcDbLine
 10
71.385837798
 20
-75.6789028334
 30
0.0
 11
71.385837798
 21
-83.6051881002
 31
0.0
  0
LINE
  5
334
330
1F
100
AcDbEntity
  8
0
  6
Continuous
 62
     7
370
    15
100
AcDbLine
 10
-404.7406542255
 20
-75.6789028334
 30
0.0
 11
-404.7406542255
 21
-83.6051881002
 31
0.0
  0
LINE
  5
335
330
1F
100
AcDbEntity
  8
0
  6
Continuous
 62
     7
370
    15
100
AcDbLine
 10
55.7846051501
 20
-39.3420487331
 30
0.0
 11
67.7845996665
 21
-39.3420487331
 31
0.0
  0
LINE
  5
336
330
1F
100
AcDbEntity
  8
0
  6
Continuous
 62
     7
370
    15
100
AcDbLine
 10
-401.1394160939
 20
-39.3420487331
 30
0.0
 11
-389.1394215776
 21
-39.3420487331
 31
0.0
  0
LINE
  5
337
330
1F
100
AcDbEntity
  8
0
  6
Continuous
 62
     7
370
    15
100
AcDbLine
 10
243.4653413342
 20
-84.842044084
 30
0.0
 11
267.465330367
 21
-84.842044084
 31
0.0
  0
LINE
  5
338
330
1F
100
AcDbEntity
  8
0
  6
Continuous
 62
     7
370
    15
100
AcDbLine
 10
-580.3348648502
 20
-84.842044084
 30
0.0
 11
-576.8201577617
 21
-84.842044084
 31
0.0
  0
LINE
  5
339
330
1F
100
AcDbEntity
  8
0
  6
Continuous
 62
     7
370
    15
100
AcDbLine
 10
-600.8201467944
 20
-84.842044084
 30
0.0
 11
-580.3348648502
 21
-84.842044084
 31
0.0
  0
SPLINE
  5
33A
330
1F
100
AcDbEntity
  8
0
  6
Continuous
 62
     7
370
    15
100
AcDbSpline
210
0.0
220
0.0
230
1.0
 70
     8
 71
     3
 72
    10
 73
     6
 74
     0
 42
0.00000001
 43
0.00000001
 12
1.0
 22
0.0
 32
0.0
 13
1.0
 23
0.0
 33
0.0
 40
0.0
 40
0.0
 40
0.0
 40
0.0
 40
0.4890171940545653
 40
0.9779015004202584
 40
0.9999999999999999
 40
0.9999999999999999
 40
0.9999999999999999
 40
0.9999999999999999
 10
265.5035328911649
 20
-75.6789028333599
 30
0.0
 10
265.387261182012
 20
-75.55901600091877
 30
0.0
 10
265.1547493598933
 20
-75.31927491461299
 30
0.0
 10
264.9132410582821
 20
-75.11575963275918
 30
0.0
 10
264.7882582683051
 20
-75.06320941926431
 30
0.0
 10
264.7828531311857
 20
-75.06093677748984
 30
0.0
  0
SPLINE
  5
33B
330
1F
100
AcDbEntity
  8
0
  6
Continuous
 62
     7
370
    15
100
AcDbSpline
210
0.0
220
0.0
230
1.0
 70
     8
 71
     3
 72
    14
 73
    10
 74
     0
 42
0.00000001
 43
0.00000001
 12
1.0
 22
0.0
 32
0.0
 13
1.0
 23
0.0
 33
0.0
 40
0.0
 40
0.0
 40
0.0
 40
0.0
 40
0.1803119017931405
 40
0.3621157258978591
 40
0.4866233853545218
 40
0.611129058684571
 40
0.7389518871691947
 40
0.8668076924778417
 40
1.0
 40
1.0
 40
1.0
 40
1.0
 10
258.1550550507413
 20
-75.6789028333599
 30
0.0
 10
258.5884296016067
 20
-75.51530825087072
 30
0.0
 10
259.4587644963734
 20
-75.18676548468659
 30
0.0
 10
260.6588928117602
 20
-74.93569253769286
 30
0.0
 10
261.7295650654236
 20
-74.85779573282528
 30
0.0
 10
262.6671981370787
 20
-74.90092817079511
 30
0.0
 10
263.6068080187257
 20
-75.05818899400369
 30
0.0
 10
264.557596475522
 20
-75.31410246597578
 30
0.0
 10
265.183952636416
 20
-75.55565671193654
 30
0.0
 10
265.5035328911649
 20
-75.6789028333599
 30
0.0
  0
SPLINE
  5
33C
330
1F
100
AcDbEntity
  8
0
  6
Continuous
 62
     7
370
    15
100
AcDbSpline
210
0.0
220
0.0
230
1.0
 70
     8
 71
     3
 72
    14
 73
    10
 74
     0
 42
0.00000001
 43
0.00000001
 12
1.0
 22
0.0
 32
0.0
 13
1.0
 23
0.0
 33
0.0
 40
0.0
 40
0.0
 40
0.0
 40
0.0
 40
0.1323190333662945
 40
0.2645994683518749
 40
0.399838357347272
 40
0.5350543390036149
 40
0.6502542974238552
 40
0.7654729737144923
 40
1.0
 40
1.0
 40
1.0
 40
1.0
 10
248.1168580101834
 20
-75.6789028333599
 30
0.0
 10
248.5505543902779
 20
-75.55654020957911
 30
0.0
 10
249.4178206382213
 20
-75.31185065604446
 30
0.0
 10
250.7533301424778
 20
-75.04851539174808
 30
0.0
 10
252.1139749900582
 20
-74.89032796855739
 30
0.0
 10
253.4254814050365
 20
-74.85858177469937
 30
0.0
 10
254.6656420805277
 20
-74.94119342599615
 30
0.0
 10
256.232878724358
 20
-75.15788898397618
 30
0.0
 10
257.3834936282164
 20
-75.46976791619953
 30
0.0
 10
258.1550550507414
 20
-75.67890283335987
 30
0.0
  0
SPLINE
  5
33D
330
1F
100
AcDbEntity
  8
0
  6
Continuous
 62
     7
370
    15
100
AcDbSpline
210
0.0
220
0.0
230
1.0
 70
     8
 71
     3
 72
    14
 73
    10
 74
     0
 42
0.00000001
 43
0.00000001
 12
1.0
 22
0.0
 32
0.0
 13
1.0
 23
0.0
 33
0.0
 40
0.0
 40
0.0
 40
0.0
 40
0.0
 40
0.1323163825130522
 40
0.2645968087888067
 40
0.3998384014777276
 40
0.5350516458282201
 40
0.6502543204523871
 40
0.7654729891566064
 40
1.0
 40
1.0
 40
1.0
 40
1.0
 10
245.4271388100492
 20
-75.6789028333599
 30
0.0
 10
245.5433461782532
 20
-75.55653982449218
 30
0.0
 10
245.7757293359587
 20
-75.31184705822034
 30
0.0
 10
246.1335853154999
 20
-75.04851336889968
 30
0.0
 10
246.4981657611604
 20
-74.89033019958683
 30
0.0
 10
246.8495701853837
 20
-74.85858250316186
 30
0.0
 10
247.1818816703793
 20
-74.94119192345205
 30
0.0
 10
247.6018304719772
 20
-75.15788911607699
 30
0.0
 10
247.9101259978474
 20
-75.46976796922483
 30
0.0
 10
248.1168580101834
 20
-75.6789028333599
 30
0.0
  0
LINE
  5
33E
330
1F
100
AcDbEntity
  8
0
  6
Continuous
 62
     7
370
    15
100
AcDbLine
 10
247.215337758
 20
-74.4420468496
 30
0.0
 11
263.7153339433
 21
-74.4420468496
 31
0.0
  0
LINE
  5
33F
330
1F
100
AcDbEntity
  8
0
  6
Continuous
 62
     7
370
    15
100
AcDbLine
 10
258.1550550507
 20
-75.6789028334
 30
0.0
 11
258.1550550507
 21
-83.6051881002
 31
0.0
  0
SPLINE
  5
340
330
1F
100
AcDbEntity
  8
0
  6
Continuous
 62
     7
370
    15
100
AcDbSpline
210
0.0
220
0.0
230
1.0
 70
     8
 71
     3
 72
    14
 73
    10
 74
     0
 42
0.00000001
 43
0.00000001
 12
1.0
 22
0.0
 32
0.0
 13
1.0
 23
0.0
 33
0.0
 40
0.0
 40
0.0
 40
0.0
 40
0.0
 40
0.1323163657852669
 40
0.2645967753377818
 40
0.3998356383313023
 40
0.5350515939901731
 40
0.6502515302613473
 40
0.7654726987520057
 40
1.0
 40
1.0
 40
1.0
 40
1.0
 10
258.1550550507413
 20
-83.60518810023612
 30
0.0
 10
257.7213689012995
 20
-83.72755116242742
 30
0.0
 10
256.8541144542028
 20
-83.9722440353318
 30
0.0
 10
255.5186123971775
 20
-84.23557513259658
 30
0.0
 10
254.157968091408
 20
-84.3937625205606
 30
0.0
 10
252.84646095062
 20
-84.42551121548
 30
0.0
 10
251.6062937894192
 20
-84.34289041808479
 30
0.0
 10
250.0390379053478
 20
-84.12623405480139
 30
0.0
 10
248.8884177525374
 20
-83.8143350606586
 30
0.0
 10
248.1168580101834
 20
-83.60518810023612
 30
0.0
  0
LINE
  5
341
330
1F
100
AcDbEntity
  8
0
  6
Continuous
 62
     7
370
    15
100
AcDbLine
 10
248.1168580102
 20
-75.6789028334
 30
0.0
 11
248.1168580102
 21
-83.6051881002
 31
0.0
  0
SPLINE
  5
342
330
1F
100
AcDbEntity
  8
0
  6
Continuous
 62
     7
370
    15
100
AcDbSpline
210
0.0
220
0.0
230
1.0
 70
     8
 71
     3
 72
    14
 73
    10
 74
     0
 42
0.00000001
 43
0.00000001
 12
1.0
 22
0.0
 32
0.0
 13
1.0
 23
0.0
 33
0.0
 40
0.0
 40
0.0
 40
0.0
 40
0.0
 40
0.1331923498549739
 40
0.2578379562602784
 40
0.3824525130853226
 40
0.5101682787318488
 40
0.6378834838994477
 40
0.8180572431475895
 40
1.0
 40
1.0
 40
1.0
 40
1.0
 10
265.5035328911649
 20
-83.60518810023612
 30
0.0
 10
265.1839561711628
 20
-83.72844201782299
 30
0.0
 10
264.5653094662777
 20
-83.96704084310291
 30
0.0
 10
263.6303800548111
 20
-84.21987953036003
 30
0.0
 10
262.6991280562539
 20
-84.37964027856847
 30
0.0
 10
261.7535114472552
 20
-84.42747852731603
 30
0.0
 10
260.6708509467778
 20
-84.35037359108725
 30
0.0
 10
259.4627879589535
 20
-84.09851823002637
 30
0.0
 10
258.5923833757515
 20
-83.7701661611103
 30
0.0
 10
258.1550550507413
 20
-83.60518810023612
 30
0.0
  0
SPLINE
  5
343
330
1F
100
AcDbEntity
  8
0
  6
Continuous
 62
     7
370
    15
100
AcDbSpline
210
0.0
220
0.0
230
1.0
 70
     8
 71
     3
 72
     9
 73
     5
 74
     0
 42
0.00000001
 43
0.00000001
 12
1.0
 22
0.0
 32
0.0
 13
1.0
 23
0.0
 33
0.0
 40
0.0
 40
0.0
 40
0.0
 40
0.0
 40
0.1326776745102531
 40
1.0
 40
1.0
 40
1.0
 40
1.0
 10
264.7828531311857
 20
-84.21653804053611
 30
0.0
 10
264.8152454381506
 20
-84.20035150559352
 30
0.0
 10
265.059388298542
 20
-84.07835257093946
 30
0.0
 10
265.2972393575478
 20
-83.8249606073537
 30
0.0
 10
265.503532891165
 20
-83.60518810023609
 30
0.0
  0
SPLINE
  5
344
330
1F
100
AcDbEntity
  8
0
  6
Continuous
 62
     7
370
    15
100
AcDbSpline
210
0.0
220
0.0
230
1.0
 70
     8
 71
     3
 72
    14
 73
    10
 74
     0
 42
0.00000001
 43
0.00000001
 12
1.0
 22
0.0
 32
0.0
 13
1.0
 23
0.0
 33
0.0
 40
0.0
 40
0.0
 40
0.0
 40
0.0
 40
0.1323190173914869
 40
0.264598718136146
 40
0.3998375908042228
 40
0.5350515588176481
 40
0.6502534973006137
 40
0.7654719697350404
 40
1.0
 40
1.0
 40
1.0
 40
1.0
 10
248.1168580101834
 20
-83.60518810023612
 30
0.0
 10
248.0006482069744
 20
-83.72755057762743
 30
0.0
 10
247.7682631305875
 20
-83.97223917420246
 30
0.0
 10
247.4104518711828
 20
-84.23557646569927
 30
0.0
 10
247.0458661608164
 20
-84.39376180373623
 30
0.0
 10
246.6944087535974
 20
-84.42551005533328
 30
0.0
 10
246.3621554829541
 20
-84.3428936917884
 30
0.0
 10
245.9421914619798
 20
-84.12622853940616
 30
0.0
 10
245.6338811496942
 20
-83.8143339400641
 30
0.0
 10
245.4271388100492
 20
-83.60518810023609
 30
0.0
  0
SPLINE
  5
345
330
1F
100
AcDbEntity
  8
0
  6
Continuous
 62
     7
370
    15
100
AcDbSpline
210
0.0
220
0.0
230
1.0
 70
     8
 71
     3
 72
    14
 73
    10
 74
     0
 42
0.00000001
 43
0.00000001
 12
1.0
 22
0.0
 32
0.0
 13
1.0
 23
0.0
 33
0.0
 40
0.0
 40
0.0
 40
0.0
 40
0.0
 40
0.1323190346071531
 40
0.264598752562363
 40
0.3998376428260004
 40
0.5350516284317461
 40
0.6502535819033214
 40
0.7654722592744537
 40
0.9999999999999999
 40
0.9999999999999999
 40
0.9999999999999999
 40
0.9999999999999999
 10
-581.4716744376315
 20
-75.6789028333599
 30
0.0
 10
-581.355464634058
 20
-75.55654034603371
 30
0.0
 10
-581.1230795569419
 20
-75.31185172959192
 30
0.0
 10
-580.7652683030453
 20
-75.04851458817267
 30
0.0
 10
-580.4006825712969
 20
-74.89032866757408
 30
0.0
 10
-580.0492252403731
 20
-74.85858249464134
 30
0.0
 10
-579.7169715525188
 20
-74.94119223681986
 30
0.0
 10
-579.2970088356752
 20
-75.15788969274811
 30
0.0
 10
-578.9886978341178
 20
-75.46976807545391
 30
0.0
 10
-578.7819552374972
 20
-75.6789028333599
 30
0.0
  0
SPLINE
  5
346
330
1F
100
AcDbEntity
  8
0
  6
Continuous
 62
     7
370
    15
100
AcDbSpline
210
0.0
220
0.0
230
1.0
 70
     8
 71
     3
 72
    14
 73
    10
 74
     0
 42
0.00000001
 43
0.00000001
 12
1.0
 22
0.0
 32
0.0
 13
1.0
 23
0.0
 33
0.0
 40
0.0
 40
0.0
 40
0.0
 40
0.0
 40
0.1323163830013054
 40
0.2645968097651804
 40
0.3998356903549934
 40
0.535051663607176
 40
0.6502516148673241
 40
0.7654729882911916
 40
1.0
 40
1.0
 40
1.0
 40
1.0
 10
-591.5098714781893
 20
-75.6789028333599
 30
0.0
 10
-591.076185327387
 20
-75.55653976123433
 30
0.0
 10
-590.2089308775688
 20
-75.31184686846409
 30
0.0
 10
-588.8734288410997
 20
-75.0485159212726
 30
0.0
 10
-587.5127844555375
 20
-74.89032795076078
 30
0.0
 10
-586.2012775994616
 20
-74.85858133446271
 30
0.0
 10
-584.9611088812314
 20
-74.94119551072035
 30
0.0
 10
-583.3938578641033
 20
-75.15788417715136
 30
0.0
 10
-582.2432351389782
 20
-75.46976695472168
 30
0.0
 10
-581.4716744376315
 20
-75.6789028333599
 30
0.0
  0
SPLINE
  5
347
330
1F
100
AcDbEntity
  8
0
  6
Continuous
 62
     7
370
    15
100
AcDbSpline
210
0.0
220
0.0
230
1.0
 70
     8
 71
     3
 72
    14
 73
    10
 74
     0
 42
0.00000001
 43
0.00000001
 12
1.0
 22
0.0
 32
0.0
 13
1.0
 23
0.0
 33
0.0
 40
0.0
 40
0.0
 40
0.0
 40
0.0
 40
0.1803119017931405
 40
0.3621157258978591
 40
0.4866233853545218
 40
0.611129058684571
 40
0.7389518871691947
 40
0.8668076924778417
 40
1.0
 40
1.0
 40
1.0
 40
1.0
 10
-598.8583493186129
 20
-75.6789028333599
 30
0.0
 10
-598.4249717837125
 20
-75.51530825087072
 30
0.0
 10
-597.5546308961859
 20
-75.18676548468659
 30
0.0
 10
-596.3545430470706
 20
-74.93569253769286
 30
0.0
 10
-595.2838808600711
 20
-74.85779573282528
 30
0.0
 10
-594.346185445569
 20
-74.90092817079511
 30
0.0
 10
-593.4066379086447
 20
-75.05818899400369
 30
0.0
 10
-592.4558417168596
 20
-75.31410246597578
 30
0.0
 10
-591.829463159892
 20
-75.55565671193654
 30
0.0
 10
-591.5098714781893
 20
-75.6789028333599
 30
0.0
  0
SPLINE
  5
348
330
1F
100
AcDbEntity
  8
0
  6
Continuous
 62
     7
370
    15
100
AcDbSpline
210
0.0
220
0.0
230
1.0
 70
     8
 71
     3
 72
     9
 73
     5
 74
     0
 42
0.00000001
 43
0.00000001
 12
1.0
 22
0.0
 32
0.0
 13
1.0
 23
0.0
 33
0.0
 40
0.0
 40
0.0
 40
0.0
 40
0.0
 40
0.132678440760208
 40
1.0
 40
1.0
 40
1.0
 40
1.0
 10
-598.1376695586337
 20
-75.06755289305991
 30
0.0
 10
-598.1700618517651
 20
-75.08374475789634
 30
0.0
 10
-598.4142031979094
 20
-75.20578315949086
 30
0.0
 10
-598.6520551728441
 20
-75.45915123716767
 30
0.0
 10
-598.8583493186129
 20
-75.6789028333599
 30
0.0
  0
LINE
  5
349
330
1F
100
AcDbEntity
  8
0
  6
Continuous
 62
     7
370
    15
100
AcDbLine
 10
-597.0701503707
 20
-74.4420468496
 30
0.0
 11
-580.5701541854
 21
-74.4420468496
 31
0.0
  0
LINE
  5
34A
330
1F
100
AcDbEntity
  8
0
  6
Continuous
 62
     7
370
    15
100
AcDbLine
 10
-581.4716744376
 20
-75.6789028334
 30
0.0
 11
-581.4716744376
 21
-83.6051881002
 31
0.0
  0
SPLINE
  5
34B
330
1F
100
AcDbEntity
  8
0
  6
Continuous
 62
     7
370
    15
100
AcDbSpline
210
0.0
220
0.0
230
1.0
 70
     8
 71
     3
 72
    14
 73
    10
 74
     0
 42
0.00000001
 43
0.00000001
 12
1.0
 22
0.0
 32
0.0
 13
1.0
 23
0.0
 33
0.0
 40
0.0
 40
0.0
 40
0.0
 40
0.0
 40
0.1323190161505
 40
0.2645994339253079
 40
0.3998383053250132
 40
0.5350542693886449
 40
0.6502542128204231
 40
0.7654726841742447
 40
1.0
 40
1.0
 40
1.0
 40
1.0
 10
-581.4716744376315
 20
-83.60518810023612
 30
0.0
 10
-581.905370816365
 20
-83.72755071408203
 30
0.0
 10
-582.7726370615873
 20
-83.97224024774988
 30
0.0
 10
-584.1081465864004
 20
-84.23557566212456
 30
0.0
 10
-585.468791354185
 20
-84.39376250275043
 30
0.0
 10
-586.7802980538883
 20
-84.42551077529062
 30
0.0
 10
-588.0204571722984
 20
-84.34289250271091
 30
0.0
 10
-589.5876986831793
 20
-84.12622924816665
 30
0.0
 10
-590.7383110146866
 20
-83.81433409930806
 30
0.0
 10
-591.5098714781893
 20
-83.60518810023612
 30
0.0
  0
LINE
  5
34C
330
1F
100
AcDbEntity
  8
0
  6
Continuous
 62
     7
370
    15
100
AcDbLine
 10
-591.5098714782
 20
-75.6789028334
 30
0.0
 11
-591.5098714782
 21
-83.6051881002
 31
0.0
  0
SPLINE
  5
34D
330
1F
100
AcDbEntity
  8
0
  6
Continuous
 62
     7
370
    15
100
AcDbSpline
210
0.0
220
0.0
230
1.0
 70
     8
 71
     3
 72
    10
 73
     6
 74
     0
 42
0.00000001
 43
0.00000001
 12
1.0
 22
0.0
 32
0.0
 13
1.0
 23
0.0
 33
0.0
 40
0.0
 40
0.0
 40
0.0
 40
0.0
 40
0.4890169138684262
 40
0.9779009401241192
 40
1.0
 40
1.0
 40
1.0
 40
1.0
 10
-598.8583493186129
 20
-83.60518810023612
 30
0.0
 10
-598.7420780308391
 20
-83.72508969032158
 30
0.0
 10
-598.5095670513639
 20
-83.96486028790557
 30
0.0
 10
-598.2680543036516
 20
-84.16822482002826
 30
0.0
 10
-598.1430746923616
 20
-84.22089132953315
 30
0.0
 10
-598.1376695586337
 20
-84.22316905726737
 30
0.0
  0
SPLINE
  5
34E
330
1F
100
AcDbEntity
  8
0
  6
Continuous
 62
     7
370
    15
100
AcDbSpline
210
0.0
220
0.0
230
1.0
 70
     8
 71
     3
 72
    14
 73
    10
 74
     0
 42
0.00000001
 43
0.00000001
 12
1.0
 22
0.0
 32
0.0
 13
1.0
 23
0.0
 33
0.0
 40
0.0
 40
0.0
 40
0.0
 40
0.0
 40
0.1331923498549739
 40
0.2578379562602784
 40
0.3824525130853226
 40
0.5101682787318488
 40
0.6378834838994477
 40
0.8180572431475895
 40
1.0
 40
1.0
 40
1.0
 40
1.0
 10
-591.5098714781893
 20
-83.60518810023612
 30
0.0
 10
-591.8294646556941
 20
-83.72844201782299
 30
0.0
 10
-592.4481432195323
 20
-83.96704084310291
 30
0.0
 10
-593.3830111046371
 20
-84.21987953036003
 30
0.0
 10
-594.3142823817296
 20
-84.37964027856847
 30
0.0
 10
-595.2598819292175
 20
-84.42747852731603
 30
0.0
 10
-596.3425978615816
 20
-84.35037359108725
 30
0.0
 10
-597.5506495723434
 20
-84.09851823002637
 30
0.0
 10
-598.4210320835255
 20
-83.7701661611103
 30
0.0
 10
-598.8583493186129
 20
-83.60518810023612
 30
0.0
  0
SPLINE
  5
34F
330
1F
100
AcDbEntity
  8
0
  6
Continuous
 62
     7
370
    15
100
AcDbSpline
210
0.0
220
0.0
230
1.0
 70
     8
 71
     3
 72
    14
 73
    10
 74
     0
 42
0.00000001
 43
0.00000001
 12
1.0
 22
0.0
 32
0.0
 13
1.0
 23
0.0
 33
0.0
 40
0.0
 40
0.0
 40
0.0
 40
0.0
 40
0.1323163652976037
 40
0.2645967743625879
 40
0.3998383494554665
 40
0.5350515762136049
 40
0.6502542358489575
 40
0.765472699616376
 40
1.0
 40
1.0
 40
1.0
 40
1.0
 10
-578.7819552374972
 20
-83.60518810023612
 30
0.0
 10
-578.8981626053367
 20
-83.72755109916929
 30
0.0
 10
-579.1305457623131
 20
-83.97224384557464
 30
0.0
 10
-579.4884017473622
 20
-84.2355776849743
 30
0.0
 10
-579.8529821716414
 20
-84.39376027171372
 30
0.0
 10
-580.204386672156
 20
-84.42551004680755
 30
0.0
 10
-580.5366977399227
 20
-84.34289400511597
 30
0.0
 10
-580.956647845655
 20
-84.12622911603684
 30
0.0
 10
-581.2649426822696
 20
-83.81433404627111
 30
0.0
 10
-581.4716744376315
 20
-83.60518810023612
 30
0.0
  0
LINE
  5
350
330
1F
100
AcDbEntity
  8
0
  6
Continuous
 62
     7
370
    15
100
AcDbLine
 10
265.5035328912
 20
-75.6789028334
 30
0.0
 11
265.5035328912
 21
-83.6051881002
 31
0.0
  0
LINE
  5
351
330
1F
100
AcDbEntity
  8
0
  6
Continuous
 62
     7
370
    15
100
AcDbLine
 10
-598.8583493186
 20
-75.6789028334
 30
0.0
 11
-598.8583493186
 21
-83.6051881002
 31
0.0
  0
LINE
  5
352
330
1F
100
AcDbEntity
  8
0
  6
Continuous
 62
     7
370
    15
100
AcDbLine
 10
245.42713881
 20
-75.6789028334
 30
0.0
 11
245.42713881
 21
-83.6051881002
 31
0.0
  0
LINE
  5
353
330
1F
100
AcDbEntity
  8
0
  6
Continuous
 62
     7
370
    15
100
AcDbLine
 10
-578.7819552375
 20
-75.6789028334
 30
0.0
 11
-578.7819552375
 21
-83.6051881002
 31
0.0
  0
LINE
  5
354
330
1F
100
AcDbEntity
  8
0
  6
Continuous
 62
     7
370
    15
100
AcDbLine
 10
249.4653534936
 20
-39.3420487331
 30
0.0
 11
261.46534801
 21
-39.3420487331
 31
0.0
  0
LINE
  5
355
330
1F
100
AcDbEntity
  8
0
  6
Continuous
 62
     7
370
    15
100
AcDbLine
 10
-594.8201644374
 20
-39.3420487331
 30
0.0
 11
-582.820169921
 21
-39.3420487331
 31
0.0
  0
LINE
  5
356
330
1F
100
AcDbEntity
  8
0
  6
Continuous
 62
     7
370
    15
100
AcDbLine
 10
372.8786778497
 20
-84.842044084
 30
0.0
 11
396.8786668824
 21
-84.842044084
 31
0.0
  0
LINE
  5
357
330
1F
100
AcDbEntity
  8
0
  6
Continuous
 62
     7
370
    15
100
AcDbLine
 10
-713.6412787391
 20
-84.842044084
 30
0.0
 11
-706.2334942771
 21
-84.842044084
 31
0.0
  0
LINE
  5
358
330
1F
100
AcDbEntity
  8
0
  6
Continuous
 62
     7
370
    15
100
AcDbLine
 10
-730.2334833099
 20
-84.842044084
 30
0.0
 11
-713.6412787391
 21
-84.842044084
 31
0.0
  0
LINE
  5
359
330
1F
100
AcDbEntity
  8
0
  6
Continuous
 62
     7
370
    15
100
AcDbLine
 10
375.1372766541
 20
-75.3171473431
 30
0.0
 11
374.5752644585
 21
-75.6789028334
 31
0.0
  0
SPLINE
  5
35A
330
1F
100
AcDbEntity
  8
0
  6
Continuous
 62
     7
370
    15
100
AcDbSpline
210
0.0
220
0.0
230
1.0
 70
     8
 71
     3
 72
    14
 73
    10
 74
     0
 42
0.00000001
 43
0.00000001
 12
1.0
 22
0.0
 32
0.0
 13
1.0
 23
0.0
 33
0.0
 40
0.0
 40
0.0
 40
0.0
 40
0.0
 40
0.180311302485472
 40
0.3621155164845662
 40
0.4866245251498052
 40
0.6111281588304968
 40
0.7389523359860657
 40
0.8668068935548097
 40
0.9999999999999999
 40
0.9999999999999999
 40
0.9999999999999999
 40
0.9999999999999999
 10
391.2050795601713
 20
-75.6789028333599
 30
0.0
 10
391.4396217368904
 20
-75.51530810795943
 30
0.0
 10
391.910648013609
 20
-75.18676415277776
 30
0.0
 10
392.5601408522693
 20
-74.93569224405732
 30
0.0
 10
393.1396378539341
 20
-74.85779556551664
 30
0.0
 10
393.647022219645
 20
-74.90093014350977
 30
0.0
 10
394.1555947883194
 20
-75.05818596744648
 30
0.0
 10
394.6700788924884
 20
-75.31410564966178
 30
0.0
 10
395.0091020846723
 20
-75.55565715772211
 30
0.0
 10
395.1820802735197
 20
-75.6789028333599
 30
0.0
  0
SPLINE
  5
35B
330
1F
100
AcDbEntity
  8
0
  6
Continuous
 62
     7
370
    15
100
AcDbSpline
210
0.0
220
0.0
230
1.0
 70
     8
 71
     3
 72
    16
 73
    12
 74
     0
 42
0.00000001
 43
0.00000001
 12
1.0
 22
0.0
 32
0.0
 13
1.0
 23
0.0
 33
0.0
 40
0.0
 40
0.0
 40
0.0
 40
0.0
 40
0.25
 40
0.25
 40
0.5
 40
0.5
 40
0.625
 40
0.625
 40
0.75
 40
0.75
 40
1.0
 40
1.0
 40
1.0
 40
1.0
 10
380.9017098070871
 20
-75.6789079394341
 30
0.0
 10
381.7428821517026
 20
-75.43398706762397
 30
0.0
 10
382.5901873411299
 20
-75.23212776420851
 30
0.0
 10
384.3024688726713
 20
-74.95248657549988
 30
0.0
 10
385.167576583931
 20
-74.8756270943487
 30
0.0
 10
386.481537291384
 20
-74.87478175269297
 30
0.0
 10
386.9215851734901
 20
-74.89357034307254
 30
0.0
 10
387.7920462867564
 20
-74.96683671275875
 30
0.0
 10
388.2243585148623
 20
-75.02124013422134
 30
0.0
 10
389.5135984736688
 20
-75.23131716917823
 30
0.0
 10
390.3628594680312
 20
-75.4336749436754
 30
0.0
 10
391.2050805199252
 20
-75.6789002165662
 30
0.0
  0
SPLINE
  5
35C
330
1F
100
AcDbEntity
  8
0
  6
Continuous
 62
     7
370
    15
100
AcDbSpline
210
0.0
220
0.0
230
1.0
 70
     8
 71
     3
 72
    14
 73
    10
 74
     0
 42
0.00000001
 43
0.00000001
 12
1.0
 22
0.0
 32
0.0
 13
1.0
 23
0.0
 33
0.0
 40
0.0
 40
0.0
 40
0.0
 40
0.0
 40
0.1323185224386675
 40
0.2645981092965366
 40
0.3998383906124089
 40
0.5350529511095993
 40
0.6502543429905129
 40
0.7654732101813806
 40
1.0
 40
1.0
 40
1.0
 40
1.0
 10
374.5752644585478
 20
-75.67890283335987
 30
0.0
 10
374.8485993848665
 20
-75.55654032375841
 30
0.0
 10
375.3951888069346
 20
-75.31185131051507
 30
0.0
 10
376.236853209308
 20
-75.04851314698163
 30
0.0
 10
377.0944227587149
 20
-74.89032936564341
 30
0.0
 10
377.920935324724
 20
-74.85858206923749
 30
0.0
 10
378.7025595902511
 20
-74.94119281020112
 30
0.0
 10
379.6902808020229
 20
-75.1578885120043
 30
0.0
 10
380.4154375580762
 20
-75.46976783666368
 30
0.0
 10
380.9017014550078
 20
-75.67890283335987
 30
0.0
  0
LINE
  5
35D
330
1F
100
AcDbEntity
  8
0
  6
Continuous
 62
     7
370
    15
100
AcDbLine
 10
376.6286444711
 20
-74.4420468496
 30
0.0
 11
393.128700261
 21
-74.4420468496
 31
0.0
  0
LINE
  5
35E
330
1F
100
AcDbEntity
  8
0
  6
Continuous
 62
     7
370
    15
100
AcDbLine
 10
391.2050795602
 20
-75.6789028334
 30
0.0
 11
391.2050795602
 21
-83.6051881002
 31
0.0
  0
SPLINE
  5
35F
330
1F
100
AcDbEntity
  8
0
  6
Continuous
 62
     7
370
    15
100
AcDbSpline
210
0.0
220
0.0
230
1.0
 70
     8
 71
     3
 72
    16
 73
    12
 74
     0
 42
0.00000001
 43
0.00000001
 12
1.0
 22
0.0
 32
0.0
 13
1.0
 23
0.0
 33
0.0
 40
0.0
 40
0.0
 40
0.0
 40
0.0
 40
0.2500000000000228
 40
0.2500000000000228
 40
0.5000000000000456
 40
0.5000000000000456
 40
0.625000000000042
 40
0.625000000000042
 40
0.7500000000000382
 40
0.7500000000000382
 40
1.0
 40
1.0
 40
1.0
 40
1.0
 10
391.2050810650446
 20
-83.60519494521174
 30
0.0
 10
390.3639085510814
 20
-83.85011494001756
 30
0.0
 10
389.5166031645899
 20
-84.05197317181987
 30
0.0
 10
387.8043211806929
 20
-84.33161180845633
 30
0.0
 10
386.9392132136029
 20
-84.40846980536729
 30
0.0
 10
385.6252521058641
 20
-84.40931280452418
 30
0.0
 10
385.1852043636531
 20
-84.39052342731193
 30
0.0
 10
384.3147434488511
 20
-84.31725557651903
 30
0.0
 10
383.8824313138872
 20
-84.2628514515898
 30
0.0
 10
382.5931916104504
 20
-84.05277245271012
 30
0.0
 10
381.7439307532955
 20
-83.850413570111
 30
0.0
 10
380.9017098070871
 20
-83.6051873810636
 30
0.0
  0
LINE
  5
360
330
1F
100
AcDbEntity
  8
0
  6
Continuous
 62
     7
370
    15
100
AcDbLine
 10
380.901701455
 20
-75.6789028334
 30
0.0
 11
380.901701455
 21
-83.6051881002
 31
0.0
  0
SPLINE
  5
361
330
1F
100
AcDbEntity
  8
0
  6
Continuous
 62
     7
370
    15
100
AcDbSpline
210
0.0
220
0.0
230
1.0
 70
     8
 71
     3
 72
    14
 73
    10
 74
     0
 42
0.00000001
 43
0.00000001
 12
1.0
 22
0.0
 32
0.0
 13
1.0
 23
0.0
 33
0.0
 40
0.0
 40
0.0
 40
0.0
 40
0.0
 40
0.1331931498879865
 40
0.2578376536763543
 40
0.3824527113481072
 40
0.5101676047774212
 40
0.6378837017273372
 40
0.8180572334801411
 40
1.0
 40
1.0
 40
1.0
 40
1.0
 10
395.1820802735197
 20
-83.60518810023612
 30
0.0
 10
395.0091029598781
 20
-83.72844161592916
 30
0.0
 10
394.6742504188423
 20
-83.9670379500527
 30
0.0
 10
394.1683613698092
 20
-84.21988152324158
 30
0.0
 10
393.6643237062384
 20
-84.37963932273689
 30
0.0
 10
393.1525696454917
 20
-84.42747856193745
 30
0.0
 10
392.5666172377851
 20
-84.35037418899476
 30
0.0
 10
391.9128663302733
 20
-84.09851791325134
 30
0.0
 10
391.4417757047484
 20
-83.77016612706292
 30
0.0
 10
391.2050795601713
 20
-83.60518810023612
 30
0.0
  0
LINE
  5
362
330
1F
100
AcDbEntity
  8
0
  6
Continuous
 62
     7
370
    15
100
AcDbLine
 10
374.5752644585
 20
-83.6051881002
 30
0.0
 11
375.1372766541
 21
-83.9675545381
 31
0.0
  0
SPLINE
  5
363
330
1F
100
AcDbEntity
  8
0
  6
Continuous
 62
     7
370
    15
100
AcDbSpline
210
0.0
220
0.0
230
1.0
 70
     8
 71
     3
 72
    16
 73
    12
 74
     0
 42
0.00000001
 43
0.00000001
 12
1.0
 22
0.0
 32
0.0
 13
1.0
 23
0.0
 33
0.0
 40
0.0
 40
0.0
 40
0.0
 40
0.0
 40
0.2500000000000099
 40
0.2500000000000099
 40
0.5000000000000198
 40
0.5000000000000198
 40
0.6250000000000151
 40
0.6250000000000151
 40
0.7500000000000105
 40
0.7500000000000105
 40
1.0
 40
1.0
 40
1.0
 40
1.0
 10
380.9017098070871
 20
-83.60518738106373
 30
0.0
 10
380.3852162380216
 20
-83.8501090260012
 30
0.0
 10
379.8649569900962
 20
-84.05196883052895
 30
0.0
 10
378.8135880729766
 20
-84.3316101189355
 30
0.0
 10
378.2823977398995
 20
-84.40846918340841
 30
0.0
 10
377.4756042636397
 20
-84.40931310517242
 30
0.0
 10
377.2054077350292
 20
-84.39052391785378
 30
0.0
 10
376.6709304960802
 20
-84.31725619814925
 30
0.0
 10
376.4054837807358
 20
-84.26285201868016
 30
0.0
 10
375.613869551163
 20
-84.0527725499803
 30
0.0
 10
375.0924095387222
 20
-83.85041294882431
 30
0.0
 10
374.5752721558552
 20
-83.60518581485188
 30
0.0
  0
LINE
  5
364
330
1F
100
AcDbEntity
  8
0
  6
Continuous
 62
     7
370
    15
100
AcDbLine
 10
-714.2565178825
 20
-75.6789028334
 30
0.0
 11
-714.2565178825
 21
-83.6051881002
 31
0.0
  0
SPLINE
  5
365
330
1F
100
AcDbEntity
  8
0
  6
Continuous
 62
     7
370
    15
100
AcDbSpline
210
0.0
220
0.0
230
1.0
 70
     8
 71
     3
 72
    16
 73
    12
 74
     0
 42
0.00000001
 43
0.00000001
 12
1.0
 22
0.0
 32
0.0
 13
1.0
 23
0.0
 33
0.0
 40
0.0
 40
0.0
 40
0.0
 40
0.0
 40
0.2500000000000003
 40
0.2500000000000003
 40
0.5000000000000007
 40
0.5000000000000007
 40
0.6250000000000009
 40
0.6250000000000009
 40
0.750000000000001
 40
0.750000000000001
 40
1.0
 40
1.0
 40
1.0
 40
1.0
 10
-714.2565262345365
 20
-83.60518738106376
 30
0.0
 10
-715.0976986363776
 20
-83.85010826953601
 30
0.0
 10
-715.9450038838655
 20
-84.0519675837513
 30
0.0
 10
-717.657285534298
 20
-84.33160877460857
 30
0.0
 10
-718.5223933064352
 20
-84.40846824677975
 30
0.0
 10
-719.8363541076441
 20
-84.4093135578346
 30
0.0
 10
-720.2764020174458
 20
-84.39052495459009
 30
0.0
 10
-721.1468631859706
 20
-84.3172585558089
 30
0.0
 10
-721.5791754414122
 20
-84.26285511801012
 30
0.0
 10
-722.8684154816597
 20
-84.05277803060213
 30
0.0
 10
-723.7176765295939
 20
-83.85042021673772
 30
0.0
 10
-724.5598976349374
 20
-83.6051949037375
 30
0.0
  0
LINE
  5
366
330
1F
100
AcDbEntity
  8
0
  6
Continuous
 62
     7
370
    15
100
AcDbLine
 10
-724.5598959876
 20
-75.6789028334
 30
0.0
 11
-724.5598959876
 21
-83.6051881002
 31
0.0
  0
SPLINE
  5
367
330
1F
100
AcDbEntity
  8
0
  6
Continuous
 62
     7
370
    15
100
AcDbSpline
210
0.0
220
0.0
230
1.0
 70
     8
 71
     3
 72
    16
 73
    12
 74
     0
 42
0.00000001
 43
0.00000001
 12
1.0
 22
0.0
 32
0.0
 13
1.0
 23
0.0
 33
0.0
 40
0.0
 40
0.0
 40
0.0
 40
0.0
 40
0.2500000000000011
 40
0.2500000000000011
 40
0.5000000000000022
 40
0.5000000000000022
 40
0.6250000000000022
 40
0.6250000000000022
 40
0.7500000000000022
 40
0.7500000000000022
 40
1.0
 40
1.0
 40
1.0
 40
1.0
 10
-724.5598968925848
 20
-75.67890020061354
 30
0.0
 10
-723.7187244256891
 20
-75.43398024090273
 30
0.0
 10
-722.8714190863683
 20
-75.2321220434671
 30
0.0
 10
-721.1591371979366
 20
-74.95248346767755
 30
0.0
 10
-720.2940292791703
 20
-74.87562549704124
 30
0.0
 10
-718.9800682457078
 20
-74.87478252471777
 30
0.0
 10
-718.5400205313994
 20
-74.89357190863927
 30
0.0
 10
-717.6695596704059
 20
-74.9668397677156
 30
0.0
 10
-717.2372475619437
 20
-75.02124389433659
 30
0.0
 10
-715.9480079369539
 20
-75.23132289184295
 30
0.0
 10
-715.0987471306903
 20
-75.43368176496115
 30
0.0
 10
-714.2565262345365
 20
-75.6789079394343
 30
0.0
  0
SPLINE
  5
368
330
1F
100
AcDbEntity
  8
0
  6
Continuous
 62
     7
370
    15
100
AcDbSpline
210
0.0
220
0.0
230
1.0
 70
     8
 71
     3
 72
     9
 73
     5
 74
     0
 42
0.00000001
 43
0.00000001
 12
1.0
 22
0.0
 32
0.0
 13
1.0
 23
0.0
 33
0.0
 40
0.0
 40
0.0
 40
0.0
 40
0.0
 40
0.9274852315817889
 40
1.0
 40
1.0
 40
1.0
 40
1.0
 10
-707.9300808859957
 20
-75.6789028333599
 30
0.0
 10
-708.1025329395652
 20
-75.54837348857188
 30
0.0
 10
-708.2884680334051
 20
-75.40763880046752
 30
0.0
 10
-708.4781588798477
 20
-75.31341503434993
 30
0.0
 10
-708.4919142676486
 20
-75.30658241977042
 30
0.0
  0
SPLINE
  5
369
330
1F
100
AcDbEntity
  8
0
  6
Continuous
 62
     7
370
    15
100
AcDbSpline
210
0.0
220
0.0
230
1.0
 70
     8
 71
     3
 72
    14
 73
    10
 74
     0
 42
0.00000001
 43
0.00000001
 12
1.0
 22
0.0
 32
0.0
 13
1.0
 23
0.0
 33
0.0
 40
0.0
 40
0.0
 40
0.0
 40
0.0
 40
0.1323185198019007
 40
0.2645981040237788
 40
0.3998349635007464
 40
0.5350529603747946
 40
0.6502543499600416
 40
0.7654732148548944
 40
1.0
 40
1.0
 40
1.0
 40
1.0
 10
-714.2565178824557
 20
-75.6789028333599
 30
0.0
 10
-713.9831843667284
 20
-75.55654023217106
 30
0.0
 10
-713.4365977654284
 20
-75.31185103578001
 30
0.0
 10
-712.594919251802
 20
-75.04851650766525
 30
0.0
 10
-711.7374324998285
 20
-74.89032597964032
 30
0.0
 10
-710.9108397184322
 20
-74.85858224134701
 30
0.0
 10
-710.129226311134
 20
-74.9411925795295
 30
0.0
 10
-709.1414995210658
 20
-75.15788864274178
 30
0.0
 10
-708.4163439729372
 20
-75.46976788914172
 30
0.0
 10
-707.9300808859957
 20
-75.6789028333599
 30
0.0
  0
SPLINE
  5
36A
330
1F
100
AcDbEntity
  8
0
  6
Continuous
 62
     7
370
    15
100
AcDbSpline
210
0.0
220
0.0
230
1.0
 70
     8
 71
     3
 72
    14
 73
    10
 74
     0
 42
0.00000001
 43
0.00000001
 12
1.0
 22
0.0
 32
0.0
 13
1.0
 23
0.0
 33
0.0
 40
0.0
 40
0.0
 40
0.0
 40
0.0
 40
0.1803113065741943
 40
0.3621155246958639
 40
0.4866223765633331
 40
0.611128174282829
 40
0.7389502062642697
 40
0.8668068905345352
 40
1.0
 40
1.0
 40
1.0
 40
1.0
 10
-728.5368967009678
 20
-75.67890283335987
 30
0.0
 10
-728.3023581012169
 20
-75.51530810900903
 30
0.0
 10
-727.8313390080505
 20
-75.1867641559352
 30
0.0
 10
-727.1818005446008
 20
-74.93569334722885
 30
0.0
 10
-726.6024341357983
 20
-74.85779568876855
 30
0.0
 10
-726.0949130250249
 20
-74.90092754981877
 30
0.0
 10
-725.5864787356236
 20
-75.05819068554071
 30
0.0
 10
-725.0718753558408
 20
-75.31410215773899
 30
0.0
 10
-724.7328658077023
 20
-75.55565664192176
 30
0.0
 10
-724.5598959876193
 20
-75.6789028333599
 30
0.0
  0
LINE
  5
36B
330
1F
100
AcDbEntity
  8
0
  6
Continuous
 62
     7
370
    15
100
AcDbLine
 10
-726.4835166885
 20
-74.4420468496
 30
0.0
 11
-709.9834608985
 21
-74.4420468496
 31
0.0
  0
SPLINE
  5
36C
330
1F
100
AcDbEntity
  8
0
  6
Continuous
 62
     7
370
    15
100
AcDbSpline
210
0.0
220
0.0
230
1.0
 70
     8
 71
     3
 72
    14
 73
    10
 74
     0
 42
0.00000001
 43
0.00000001
 12
1.0
 22
0.0
 32
0.0
 13
1.0
 23
0.0
 33
0.0
 40
0.0
 40
0.0
 40
0.0
 40
0.0
 40
0.1331931446195853
 40
0.2578376434776901
 40
0.3824526962203448
 40
0.5101675845979479
 40
0.6378836764961053
 40
0.8180593403303849
 40
1.0
 40
1.0
 40
1.0
 40
1.0
 10
-724.5598959876193
 20
-83.60518810023612
 30
0.0
 10
-724.732873279415
 20
-83.72844161405146
 30
0.0
 10
-725.0677257781617
 20
-83.96703794454017
 30
0.0
 10
-725.5736151287571
 20
-84.2198815436489
 30
0.0
 10
-726.0776516534501
 20
-84.37963924525543
 30
0.0
 10
-726.5894100750103
 20
-84.42747885927646
 30
0.0
 10
-727.1753467603783
 20
-84.35037250898512
 30
0.0
 10
-727.8291960484067
 20
-84.09852351995897
 30
0.0
 10
-728.30023119063
 20
-83.77016672284144
 30
0.0
 10
-728.5368967009676
 20
-83.60518810023612
 30
0.0
  0
SPLINE
  5
36D
330
1F
100
AcDbEntity
  8
0
  6
Continuous
 62
     7
370
    15
100
AcDbSpline
210
0.0
220
0.0
230
1.0
 70
     8
 71
     3
 72
    16
 73
    12
 74
     0
 42
0.00000001
 43
0.00000001
 12
1.0
 22
0.0
 32
0.0
 13
1.0
 23
0.0
 33
0.0
 40
0.0
 40
0.0
 40
0.0
 40
0.0
 40
0.2500000000000142
 40
0.2500000000000142
 40
0.5000000000000284
 40
0.5000000000000284
 40
0.6250000000000229
 40
0.6250000000000229
 40
0.7500000000000173
 40
0.7500000000000173
 40
1.0
 40
1.0
 40
1.0
 40
1.0
 10
-707.9300885539257
 20
-83.60518580092058
 30
0.0
 10
-708.4465821095343
 20
-83.85010763298217
 30
0.0
 10
-708.9668413405681
 20
-84.05196766390898
 30
0.0
 10
-710.0182102168358
 20
-84.33160948594626
 30
0.0
 10
-710.5494005258905
 20
-84.4084688583635
 30
0.0
 10
-711.3561939643471
 20
-84.40931326227604
 30
0.0
 10
-711.6263905149013
 20
-84.39052423630011
 30
0.0
 10
-712.1608677872878
 20
-84.31725681915403
 30
0.0
 10
-712.4263145185266
 20
-84.26285278279605
 30
0.0
 10
-713.217928792617
 20
-84.05277371202064
 30
0.0
 10
-713.7393888303945
 20
-83.85041433308629
 30
0.0
 10
-714.2565262345365
 20
-83.6051873810636
 30
0.0
  0
SPLINE
  5
36E
330
1F
100
AcDbEntity
  8
0
  6
Continuous
 62
     7
370
    15
100
AcDbSpline
210
0.0
220
0.0
230
1.0
 70
     8
 71
     3
 72
     9
 73
     5
 74
     0
 42
0.00000001
 43
0.00000001
 12
1.0
 22
0.0
 32
0.0
 13
1.0
 23
0.0
 33
0.0
 40
0.0
 40
0.0
 40
0.0
 40
0.0
 40
0.0725044529769336
 40
1.0
 40
1.0
 40
1.0
 40
1.0
 10
-708.4919142676487
 20
-83.9774191068584
 30
0.0
 10
-708.4781588053488
 20
-83.97061731245944
 30
0.0
 10
-708.2884399434702
 20
-83.87680522065443
 30
0.0
 10
-708.1025204179865
 20
-83.73588810111148
 30
0.0
 10
-707.9300808859957
 20
-83.60518810023612
 30
0.0
  0
LINE
  5
36F
330
1F
100
AcDbEntity
  8
0
  6
Continuous
 62
     7
370
    15
100
AcDbLine
 10
374.5752644585
 20
-75.6789028334
 30
0.0
 11
374.5752644585
 21
-83.6051881002
 31
0.0
  0
LINE
  5
370
330
1F
100
AcDbEntity
  8
0
  6
Continuous
 62
     7
370
    15
100
AcDbLine
 10
-707.930080886
 20
-75.6789028334
 30
0.0
 11
-707.930080886
 21
-83.6051881002
 31
0.0
  0
LINE
  5
371
330
1F
100
AcDbEntity
  8
0
  6
Continuous
 62
     7
370
    15
100
AcDbLine
 10
395.1820802735
 20
-75.6789028334
 30
0.0
 11
395.1820802735
 21
-83.6051881002
 31
0.0
  0
LINE
  5
372
330
1F
100
AcDbEntity
  8
0
  6
Continuous
 62
     7
370
    15
100
AcDbLine
 10
-728.536896701
 20
-75.6789028334
 30
0.0
 11
-728.536896701
 21
-83.6051881002
 31
0.0
  0
LINE
  5
373
330
1F
100
AcDbEntity
  8
0
  6
Continuous
 62
     7
370
    15
100
AcDbLine
 10
378.8786602067
 20
-39.3420487331
 30
0.0
 11
390.8786845254
 21
-39.3420487331
 31
0.0
  0
LINE
  5
374
330
1F
100
AcDbEntity
  8
0
  6
Continuous
 62
     7
370
    15
100
AcDbLine
 10
-724.2335009528
 20
-39.3420487331
 30
0.0
 11
-712.2334766341
 21
-39.3420487331
 31
0.0
  0
LINE
  5
375
330
1F
100
AcDbEntity
  8
0
  6
Continuous
 62
     7
370
    15
100
AcDbLine
 10
418.3225703286
 20
-84.842044084
 30
0.0
 11
442.322618966
 21
-84.842044084
 31
0.0
  0
LINE
  5
376
330
1F
100
AcDbEntity
  8
0
  6
Continuous
 62
     7
370
    15
100
AcDbLine
 10
-763.6774110747
 20
-84.842044084
 30
0.0
 11
-751.6773867561
 21
-84.842044084
 31
0.0
  0
LINE
  5
377
330
1F
100
AcDbEntity
  8
0
  6
Continuous
 62
     7
370
    15
100
AcDbLine
 10
-775.6774353934
 20
-84.842044084
 30
0.0
 11
-763.6774110747
 21
-84.842044084
 31
0.0
  0
SPLINE
  5
378
330
1F
100
AcDbEntity
  8
0
  6
Continuous
 62
     7
370
    15
100
AcDbSpline
210
0.0
220
0.0
230
1.0
 70
    24
 71
     3
 72
    11
 73
     7
 74
     0
 42
0.00000001
 43
0.00000001
 12
1.0
 22
0.0
 32
0.0
 13
1.0
 23
0.0
 33
0.0
 40
0.0
 40
0.0
 40
0.0
 40
0.0
 40
0.02018235280155
 40
0.2756545003225499
 40
0.6360607518602744
 40
1.0
 40
1.0
 40
1.0
 40
1.0
 10
421.3225913094388
 20
-74.87975355853385
 30
0.0
 10
421.322591309439
 20
-74.87838774863637
 30
0.0
 10
421.322591309439
 20
-74.85973325138664
 30
0.0
 10
421.322591309439
 20
-74.9448044183956
 30
0.0
 10
421.3225913094386
 20
-75.18240204972886
 30
0.0
 10
421.3225913094388
 20
-75.51286529377488
 30
0.0
 10
421.3225913094388
 20
-75.6789028333599
 30
0.0
  0
SPLINE
  5
379
330
1F
100
AcDbEntity
  8
0
  6
Continuous
 62
     7
370
    15
100
AcDbSpline
210
0.0
220
0.0
230
1.0
 70
    24
 71
     3
 72
    11
 73
     7
 74
     0
 42
0.00000001
 43
0.00000001
 12
1.0
 22
0.0
 32
0.0
 13
1.0
 23
0.0
 33
0.0
 40
0.0
 40
0.0
 40
0.0
 40
0.0
 40
0.3606763202718356
 40
0.7243370396965445
 40
0.9733887812216153
 40
1.0
 40
1.0
 40
1.0
 40
1.0
 10
439.3225979851591
 20
-75.6789028333599
 30
0.0
 10
439.3225979851589
 20
-75.51431996679774
 30
0.0
 10
439.3225979851588
 20
-75.18379240052856
 30
0.0
 10
439.3225979851592
 20
-74.94612146517396
 30
0.0
 10
439.3225979851587
 20
-74.86156926102116
 30
0.0
 10
439.3225979851592
 20
-74.87904956774489
 30
0.0
 10
439.3225979851592
 20
-74.88073703517261
 30
0.0
  0
SPLINE
  5
37A
330
1F
100
AcDbEntity
  8
0
  6
Continuous
 62
     7
370
    15
100
AcDbSpline
210
0.0
220
0.0
230
1.0
 70
     8
 71
     3
 72
    16
 73
    12
 74
     0
 42
0.00000001
 43
0.00000001
 12
1.0
 22
0.0
 32
0.0
 13
1.0
 23
0.0
 33
0.0
 40
0.0
 40
0.0
 40
0.0
 40
0.0
 40
0.2499999999999796
 40
0.2499999999999796
 40
0.4999999999999593
 40
0.4999999999999593
 40
0.6249999999999626
 40
0.6249999999999626
 40
0.7499999999999659
 40
0.7499999999999659
 40
1.0
 40
1.0
 40
1.0
 40
1.0
 10
430.3225917862758
 20
-75.6789079394341
 30
0.0
 10
431.057356330023
 20
-75.43398642485172
 30
0.0
 10
431.7974779314392
 20
-75.23212670481522
 30
0.0
 10
433.2931569494996
 20
-74.95248543321814
 30
0.0
 10
434.0488291184487
 20
-74.87562629848976
 30
0.0
 10
435.1965747257043
 20
-74.87478213732068
 30
0.0
 10
435.5809567371517
 20
-74.8935712239907
 30
0.0
 10
436.3413049043248
 20
-74.96683871607155
 30
0.0
 10
436.7189298229968
 20
-75.02124276773489
 30
0.0
 10
437.8450814832923
 20
-75.23132182608697
 30
0.0
 10
438.5869113257361
 20
-75.43368111925425
 30
0.0
 10
439.3225917862761
 20
-75.67890793943432
 30
0.0
  0
SPLINE
  5
37B
330
1F
100
AcDbEntity
  8
0
  6
Continuous
 62
     7
370
    15
100
AcDbSpline
210
0.0
220
0.0
230
1.0
 70
     8
 71
     3
 72
    16
 73
    12
 74
     0
 42
0.00000001
 43
0.00000001
 12
1.0
 22
0.0
 32
0.0
 13
1.0
 23
0.0
 33
0.0
 40
0.0
 40
0.0
 40
0.0
 40
0.0
 40
0.2500000000000066
 40
0.2500000000000066
 40
0.5000000000000131
 40
0.5000000000000131
 40
0.6250000000000167
 40
0.6250000000000167
 40
0.7500000000000201
 40
0.7500000000000201
 40
1.0
 40
1.0
 40
1.0
 40
1.0
 10
421.322591786276
 20
-75.6789079394341
 30
0.0
 10
422.0573563300232
 20
-75.43398642485167
 30
0.0
 10
422.7974779314393
 20
-75.23212670481522
 30
0.0
 10
424.2931569494995
 20
-74.95248543321814
 30
0.0
 10
425.0488291184481
 20
-74.87562629848979
 30
0.0
 10
426.1965747257045
 20
-74.87478213732068
 30
0.0
 10
426.5809567371519
 20
-74.8935712239907
 30
0.0
 10
427.3413049043244
 20
-74.96683871607155
 30
0.0
 10
427.7189298229966
 20
-75.02124276773489
 30
0.0
 10
428.8450814832921
 20
-75.23132182608703
 30
0.0
 10
429.5869113257361
 20
-75.4336811192543
 30
0.0
 10
430.3225917862761
 20
-75.6789079394343
 30
0.0
  0
LINE
  5
37C
330
1F
100
AcDbEntity
  8
0
  6
Continuous
 62
     7
370
    15
100
AcDbLine
 10
422.0725965546
 20
-74.4420468496
 30
0.0
 11
438.57259274
 21
-74.4420468496
 31
0.0
  0
LINE
  5
37D
330
1F
100
AcDbEntity
  8
0
  6
Continuous
 62
     7
370
    15
100
AcDbLine
 10
439.3225979852
 20
-75.6789028334
 30
0.0
 11
439.3225979852
 21
-83.6051881002
 31
0.0
  0
SPLINE
  5
37E
330
1F
100
AcDbEntity
  8
0
  6
Continuous
 62
     7
370
    15
100
AcDbSpline
210
0.0
220
0.0
230
1.0
 70
     8
 71
     3
 72
    16
 73
    12
 74
     0
 42
0.00000001
 43
0.00000001
 12
1.0
 22
0.0
 32
0.0
 13
1.0
 23
0.0
 33
0.0
 40
0.0
 40
0.0
 40
0.0
 40
0.0
 40
0.2499999999999797
 40
0.2499999999999797
 40
0.4999999999999595
 40
0.4999999999999595
 40
0.6249999999999629
 40
0.6249999999999629
 40
0.7499999999999662
 40
0.7499999999999662
 40
1.0
 40
1.0
 40
1.0
 40
1.0
 10
439.322591786276
 20
-83.60518738106376
 30
0.0
 10
438.587827242529
 20
-83.85010889564614
 30
0.0
 10
437.8477056411126
 20
-84.05196861568268
 30
0.0
 10
436.3520266230523
 20
-84.3316098872797
 30
0.0
 10
435.5963544541037
 20
-84.40846902200805
 30
0.0
 10
434.4486088468475
 20
-84.40931318317718
 30
0.0
 10
434.0642268354
 20
-84.39052409650719
 30
0.0
 10
433.3038786682272
 20
-84.31725660442626
 30
0.0
 10
432.9262537495551
 20
-84.26285255276301
 30
0.0
 10
431.80010208926
 20
-84.05277349441087
 30
0.0
 10
431.0582722468163
 20
-83.85041420124354
 30
0.0
 10
430.322591786276
 20
-83.60518738106357
 30
0.0
  0
LINE
  5
37F
330
1F
100
AcDbEntity
  8
0
  6
Continuous
 62
     7
370
    15
100
AcDbLine
 10
430.3225946473
 20
-75.6789028334
 30
0.0
 11
430.3225946473
 21
-83.6051881002
 31
0.0
  0
SPLINE
  5
380
330
1F
100
AcDbEntity
  8
0
  6
Continuous
 62
     7
370
    15
100
AcDbSpline
210
0.0
220
0.0
230
1.0
 70
     8
 71
     3
 72
    16
 73
    12
 74
     0
 42
0.00000001
 43
0.00000001
 12
1.0
 22
0.0
 32
0.0
 13
1.0
 23
0.0
 33
0.0
 40
0.0
 40
0.0
 40
0.0
 40
0.0
 40
0.2499999999999797
 40
0.2499999999999797
 40
0.4999999999999594
 40
0.4999999999999594
 40
0.6249999999999627
 40
0.6249999999999627
 40
0.7499999999999661
 40
0.7499999999999661
 40
1.0
 40
1.0
 40
1.0
 40
1.0
 10
430.322591786276
 20
-83.60518738106376
 30
0.0
 10
429.5878272425285
 20
-83.85010889564626
 30
0.0
 10
428.8477056411124
 20
-84.05196861568268
 30
0.0
 10
427.3520266230523
 20
-84.33160988727975
 30
0.0
 10
426.5963544541035
 20
-84.40846902200808
 30
0.0
 10
425.4486088468475
 20
-84.40931318317723
 30
0.0
 10
425.0642268353999
 20
-84.39052409650719
 30
0.0
 10
424.3038786682273
 20
-84.31725660442626
 30
0.0
 10
423.9262537495551
 20
-84.26285255276295
 30
0.0
 10
422.8001020892597
 20
-84.0527734944109
 30
0.0
 10
422.0582722468158
 20
-83.85041420124362
 30
0.0
 10
421.322591786276
 20
-83.60518738106357
 30
0.0
  0
LINE
  5
381
330
1F
100
AcDbEntity
  8
0
  6
Continuous
 62
     7
370
    15
100
AcDbLine
 10
421.3225913094
 20
-75.6789028334
 30
0.0
 11
421.3225913094
 21
-83.6051881002
 31
0.0
  0
SPLINE
  5
382
330
1F
100
AcDbEntity
  8
0
  6
Continuous
 62
     7
370
    15
100
AcDbSpline
210
0.0
220
0.0
230
1.0
 70
    24
 71
     3
 72
    11
 73
     7
 74
     0
 42
0.00000001
 43
0.00000001
 12
1.0
 22
0.0
 32
0.0
 13
1.0
 23
0.0
 33
0.0
 40
0.0
 40
0.0
 40
0.0
 40
0.0
 40
0.0201823474900451
 40
0.2756544277769833
 40
0.6360601717745342
 40
1.0
 40
1.0
 40
1.0
 40
1.0
 10
439.3225979851591
 20
-84.40433737506217
 30
0.0
 10
439.3225979851589
 20
-84.4057031886378
 30
0.0
 10
439.3225979851583
 20
-84.42435773612392
 30
0.0
 10
439.3225979851595
 20
-84.33928199053145
 30
0.0
 10
439.3225979851589
 20
-84.10171250588361
 30
0.0
 10
439.3225979851592
 20
-83.77123370447434
 30
0.0
 10
439.3225979851591
 20
-83.60518810023612
 30
0.0
  0
SPLINE
  5
383
330
1F
100
AcDbEntity
  8
0
  6
Continuous
 62
     7
370
    15
100
AcDbSpline
210
0.0
220
0.0
230
1.0
 70
    24
 71
     3
 72
    11
 73
     7
 74
     0
 42
0.00000001
 43
0.00000001
 12
1.0
 22
0.0
 32
0.0
 13
1.0
 23
0.0
 33
0.0
 40
0.0
 40
0.0
 40
0.0
 40
0.0
 40
0.3606762357906141
 40
0.7243368700350655
 40
0.9733886954908091
 40
1.0
 40
1.0
 40
1.0
 40
1.0
 10
421.3225913094388
 20
-83.60518810023612
 30
0.0
 10
421.3225913094391
 20
-83.76977458211316
 30
0.0
 10
421.3225913094392
 20
-84.10030940892696
 30
0.0
 10
421.3225913094382
 20
-84.33793135197534
 30
0.0
 10
421.3225913094394
 20
-84.42258147148995
 30
0.0
 10
421.3225913094388
 20
-84.40504663437287
 30
0.0
 10
421.3225913094388
 20
-84.40335389842338
 30
0.0
  0
SPLINE
  5
384
330
1F
100
AcDbEntity
  8
0
  6
Continuous
 62
     7
370
    15
100
AcDbSpline
210
0.0
220
0.0
230
1.0
 70
    24
 71
     3
 72
    11
 73
     7
 74
     0
 42
0.00000001
 43
0.00000001
 12
1.0
 22
0.0
 32
0.0
 13
1.0
 23
0.0
 33
0.0
 40
0.0
 40
0.0
 40
0.0
 40
0.0
 40
0.2663419092090988
 40
0.5155953393212273
 40
0.7647875368009964
 40
1.0
 40
1.0
 40
1.0
 40
1.0
 10
-754.677407736887
 20
-75.67890283335987
 30
0.0
 10
-754.6774077368868
 20
-75.5554987217551
 30
0.0
 10
-754.6774077368867
 20
-75.31660809809989
 30
0.0
 10
-754.677407736887
 20
-75.06584143704129
 30
0.0
 10
-754.6774077368868
 20
-74.90283516009691
 30
0.0
 10
-754.677407736887
 20
-74.88729795982458
 30
0.0
 10
-754.6774077368868
 20
-74.87975355853385
 30
0.0
  0
SPLINE
  5
385
330
1F
100
AcDbEntity
  8
0
  6
Continuous
 62
     7
370
    15
100
AcDbSpline
210
0.0
220
0.0
230
1.0
 70
     8
 71
     3
 72
    16
 73
    12
 74
     0
 42
0.00000001
 43
0.00000001
 12
1.0
 22
0.0
 32
0.0
 13
1.0
 23
0.0
 33
0.0
 40
0.0
 40
0.0
 40
0.0
 40
0.0
 40
0.2499999999999932
 40
0.2499999999999932
 40
0.4999999999999863
 40
0.4999999999999863
 40
0.624999999999983
 40
0.624999999999983
 40
0.7499999999999797
 40
0.7499999999999797
 40
1.0
 40
1.0
 40
1.0
 40
1.0
 10
-763.6774082137241
 20
-75.67890793943413
 30
0.0
 10
-762.9426436699767
 20
-75.43398642485177
 30
0.0
 10
-762.2025220685607
 20
-75.23212670481524
 30
0.0
 10
-760.7068430505004
 20
-74.95248543321817
 30
0.0
 10
-759.9511708815518
 20
-74.87562629848988
 30
0.0
 10
-758.8034252742958
 20
-74.87478213732062
 30
0.0
 10
-758.4190432628484
 20
-74.89357122399076
 30
0.0
 10
-757.6586950956753
 20
-74.96683871607155
 30
0.0
 10
-757.281070177003
 20
-75.02124276773492
 30
0.0
 10
-756.1549185167077
 20
-75.23132182608697
 30
0.0
 10
-755.413088674264
 20
-75.43368111925433
 30
0.0
 10
-754.6774082137239
 20
-75.67890793943432
 30
0.0
  0
SPLINE
  5
386
330
1F
100
AcDbEntity
  8
0
  6
Continuous
 62
     7
370
    15
100
AcDbSpline
210
0.0
220
0.0
230
1.0
 70
     8
 71
     3
 72
    16
 73
    12
 74
     0
 42
0.00000001
 43
0.00000001
 12
1.0
 22
0.0
 32
0.0
 13
1.0
 23
0.0
 33
0.0
 40
0.0
 40
0.0
 40
0.0
 40
0.0
 40
0.2499999999999796
 40
0.2499999999999796
 40
0.4999999999999591
 40
0.4999999999999591
 40
0.6249999999999626
 40
0.6249999999999626
 40
0.749999999999966
 40
0.749999999999966
 40
1.0
 40
1.0
 40
1.0
 40
1.0
 10
-772.6774082137241
 20
-75.6789079394341
 30
0.0
 10
-771.9426436699771
 20
-75.43398642485164
 30
0.0
 10
-771.2025220685608
 20
-75.23212670481522
 30
0.0
 10
-769.7068430505004
 20
-74.95248543321817
 30
0.0
 10
-768.9511708815515
 20
-74.87562629848979
 30
0.0
 10
-767.8034252742955
 20
-74.87478213732065
 30
0.0
 10
-767.419043262848
 20
-74.8935712239907
 30
0.0
 10
-766.6586950956754
 20
-74.96683871607155
 30
0.0
 10
-766.2810701770031
 20
-75.02124276773492
 30
0.0
 10
-765.1549185167079
 20
-75.231321826087
 30
0.0
 10
-764.4130886742643
 20
-75.43368111925422
 30
0.0
 10
-763.677408213724
 20
-75.67890793943427
 30
0.0
  0
SPLINE
  5
387
330
1F
100
AcDbEntity
  8
0
  6
Continuous
 62
     7
370
    15
100
AcDbSpline
210
0.0
220
0.0
230
1.0
 70
    24
 71
     3
 72
    11
 73
     7
 74
     0
 42
0.00000001
 43
0.00000001
 12
1.0
 22
0.0
 32
0.0
 13
1.0
 23
0.0
 33
0.0
 40
0.0
 40
0.0
 40
0.0
 40
0.0
 40
0.2223706861011419
 40
0.4779793362745636
 40
0.7336556771732604
 40
0.9999999999999999
 40
0.9999999999999999
 40
0.9999999999999999
 40
0.9999999999999999
 10
-772.677414412607
 20
-74.88073703517264
 30
0.0
 10
-772.6774144126072
 20
-74.88691748944157
 30
0.0
 10
-772.6774144126069
 20
-74.90020219652752
 30
0.0
 10
-772.6774144126068
 20
-75.05994587396397
 30
0.0
 10
-772.6774144126074
 20
-75.31363950213863
 30
0.0
 10
-772.677414412607
 20
-75.55550083521558
 30
0.0
 10
-772.677414412607
 20
-75.6789028333599
 30
0.0
  0
LINE
  5
388
330
1F
100
AcDbEntity
  8
0
  6
Continuous
 62
     7
370
    15
100
AcDbLine
 10
-771.9274091674
 20
-74.4420468496
 30
0.0
 11
-755.4274129821
 21
-74.4420468496
 31
0.0
  0
LINE
  5
389
330
1F
100
AcDbEntity
  8
0
  6
Continuous
 62
     7
370
    15
100
AcDbLine
 10
-763.6774110747
 20
-75.6789028334
 30
0.0
 11
-763.6774110747
 21
-83.6051881002
 31
0.0
  0
SPLINE
  5
38A
330
1F
100
AcDbEntity
  8
0
  6
Continuous
 62
     7
370
    15
100
AcDbSpline
210
0.0
220
0.0
230
1.0
 70
     8
 71
     3
 72
    16
 73
    12
 74
     0
 42
0.00000001
 43
0.00000001
 12
1.0
 22
0.0
 32
0.0
 13
1.0
 23
0.0
 33
0.0
 40
0.0
 40
0.0
 40
0.0
 40
0.0
 40
0.2500000000000067
 40
0.2500000000000067
 40
0.5000000000000133
 40
0.5000000000000133
 40
0.6250000000000168
 40
0.6250000000000168
 40
0.7500000000000202
 40
0.7500000000000202
 40
1.0
 40
1.0
 40
1.0
 40
1.0
 10
-763.677408213724
 20
-83.60518738106379
 30
0.0
 10
-764.4121727574712
 20
-83.85010889564617
 30
0.0
 10
-765.1522943588872
 20
-84.05196861568265
 30
0.0
 10
-766.6479733769473
 20
-84.33160988727975
 30
0.0
 10
-767.4036455458961
 20
-84.40846902200808
 30
0.0
 10
-768.5513911531522
 20
-84.40931318317726
 30
0.0
 10
-768.9357731645999
 20
-84.39052409650719
 30
0.0
 10
-769.6961213317726
 20
-84.31725660442635
 30
0.0
 10
-770.0737462504445
 20
-84.26285255276301
 30
0.0
 10
-771.1998979107403
 20
-84.0527734944109
 30
0.0
 10
-771.9417277531844
 20
-83.85041420124354
 30
0.0
 10
-772.677408213724
 20
-83.6051873810636
 30
0.0
  0
LINE
  5
38B
330
1F
100
AcDbEntity
  8
0
  6
Continuous
 62
     7
370
    15
100
AcDbLine
 10
-772.6774144126
 20
-75.6789028334
 30
0.0
 11
-772.6774144126
 21
-83.6051881002
 31
0.0
  0
LINE
  5
38C
330
1F
100
AcDbEntity
  8
0
  6
Continuous
 62
     7
370
    15
100
AcDbLine
 10
-754.6774077369
 20
-75.6789028334
 30
0.0
 11
-754.6774077369
 21
-83.6051881002
 31
0.0
  0
SPLINE
  5
38D
330
1F
100
AcDbEntity
  8
0
  6
Continuous
 62
     7
370
    15
100
AcDbSpline
210
0.0
220
0.0
230
1.0
 70
     8
 71
     3
 72
    16
 73
    12
 74
     0
 42
0.00000001
 43
0.00000001
 12
1.0
 22
0.0
 32
0.0
 13
1.0
 23
0.0
 33
0.0
 40
0.0
 40
0.0
 40
0.0
 40
0.0
 40
0.2500000000000069
 40
0.2500000000000069
 40
0.5000000000000138
 40
0.5000000000000138
 40
0.625000000000017
 40
0.625000000000017
 40
0.7500000000000202
 40
0.7500000000000202
 40
1.0
 40
1.0
 40
1.0
 40
1.0
 10
-754.6774082137239
 20
-83.60518738106373
 30
0.0
 10
-755.4121727574712
 20
-83.85010889564612
 30
0.0
 10
-756.1522943588873
 20
-84.05196861568263
 30
0.0
 10
-757.6479733769476
 20
-84.33160988727973
 30
0.0
 10
-758.4036455458962
 20
-84.40846902200805
 30
0.0
 10
-759.5513911531525
 20
-84.4093131831772
 30
0.0
 10
-759.9357731645997
 20
-84.39052409650716
 30
0.0
 10
-760.6961213317727
 20
-84.31725660442629
 30
0.0
 10
-761.073746250445
 20
-84.26285255276292
 30
0.0
 10
-762.1998979107402
 20
-84.05277349441081
 30
0.0
 10
-762.9417277531845
 20
-83.85041420124348
 30
0.0
 10
-763.6774082137241
 20
-83.60518738106354
 30
0.0
  0
SPLINE
  5
38E
330
1F
100
AcDbEntity
  8
0
  6
Continuous
 62
     7
370
    15
100
AcDbSpline
210
0.0
220
0.0
230
1.0
 70
    24
 71
     3
 72
    11
 73
     7
 74
     0
 42
0.00000001
 43
0.00000001
 12
1.0
 22
0.0
 32
0.0
 13
1.0
 23
0.0
 33
0.0
 40
0.0
 40
0.0
 40
0.0
 40
0.0
 40
0.2663418557590506
 40
0.5155957693921184
 40
0.7647875840039225
 40
0.9999999999999999
 40
0.9999999999999999
 40
0.9999999999999999
 40
0.9999999999999999
 10
-772.677414412607
 20
-83.60518810023612
 30
0.0
 10
-772.677414412607
 20
-83.72858992687229
 30
0.0
 10
-772.6774144126069
 20
-83.96747637439495
 30
0.0
 10
-772.6774144126073
 20
-84.21827453709027
 30
0.0
 10
-772.6774144126072
 20
-84.3812499471531
 30
0.0
 10
-772.6774144126072
 20
-84.39679106589426
 30
0.0
 10
-772.677414412607
 20
-84.40433737506217
 30
0.0
  0
SPLINE
  5
38F
330
1F
100
AcDbEntity
  8
0
  6
Continuous
 62
     7
370
    15
100
AcDbSpline
210
0.0
220
0.0
230
1.0
 70
    24
 71
     3
 72
    11
 73
     7
 74
     0
 42
0.00000001
 43
0.00000001
 12
1.0
 22
0.0
 32
0.0
 13
1.0
 23
0.0
 33
0.0
 40
0.0
 40
0.0
 40
0.0
 40
0.0
 40
0.2223704965047095
 40
0.4779790344446752
 40
0.7336557941205696
 40
1.0
 40
1.0
 40
1.0
 40
1.0
 10
-754.6774077368868
 20
-84.40335389842338
 30
0.0
 10
-754.6774077368868
 20
-84.39717930517598
 30
0.0
 10
-754.6774077368867
 20
-84.38390719325068
 30
0.0
 10
-754.6774077368868
 20
-84.2241636412058
 30
0.0
 10
-754.6774077368866
 20
-83.97044688630018
 30
0.0
 10
-754.6774077368867
 20
-83.72858847970448
 30
0.0
 10
-754.6774077368868
 20
-83.60518810023612
 30
0.0
  0
LINE
  5
390
330
1F
100
AcDbEntity
  8
0
  6
Continuous
 62
     7
370
    15
100
AcDbLine
 10
424.3226122903
 20
-39.3420487331
 30
0.0
 11
436.3225770043
 21
-39.3420487331
 31
0.0
  0
LINE
  5
391
330
1F
100
AcDbEntity
  8
0
  6
Continuous
 62
     7
370
    15
100
AcDbLine
 10
-769.6773934318
 20
-39.3420487331
 30
0.0
 11
-757.6774287177
 21
-39.3420487331
 31
0.0
  0
LINE
  5
392
330
1F
100
AcDbEntity
  8
0
  6
Continuous
 62
     7
370
    15
100
AcDbLine
 10
-777.6774096442
 20
-90.5930578398
 30
0.0
 11
444.3225932168
 21
-90.5930578398
 31
0.0
  0
LINE
  5
393
330
1F
100
AcDbEntity
  8
0
  6
Continuous
 62
     7
370
    15
100
AcDbLine
 10
-774.93887424
 20
-93.5816347288
 30
0.0
 11
441.5840578126
 21
-93.5816347288
 31
0.0
  0
LINE
  5
394
330
1F
100
AcDbEntity
  8
0
  6
Continuous
 62
     7
370
    15
100
AcDbLine
 10
390.8786845254
 20
-95.0039058613
 30
0.0
 11
425.3181290673
 21
-95.0039058613
 31
0.0
  0
LINE
  5
395
330
1F
100
AcDbEntity
  8
0
  6
Continuous
 62
     7
370
    15
100
AcDbLine
 10
261.46534801
 20
-95.0039058613
 30
0.0
 11
378.988511567
 21
-95.0039058613
 31
0.0
  0
LINE
  5
396
330
1F
100
AcDbEntity
  8
0
  6
Continuous
 62
     7
370
    15
100
AcDbLine
 10
67.7845996665
 20
-95.0039058613
 30
0.0
 11
249.4653534936
 21
-95.0039058613
 31
0.0
  0
LINE
  5
397
330
1F
100
AcDbEntity
  8
0
  6
Continuous
 62
     7
370
    15
100
AcDbLine
 10
-160.6774081616
 20
-95.0039058613
 30
0.0
 11
55.7846051501
 21
-95.0039058613
 31
0.0
  0
LINE
  5
398
330
1F
100
AcDbEntity
  8
0
  6
Continuous
 62
     7
370
    15
100
AcDbLine
 10
-389.1394215776
 20
-95.0039058613
 30
0.0
 11
-172.6774082659
 21
-95.0039058613
 31
0.0
  0
LINE
  5
399
330
1F
100
AcDbEntity
  8
0
  6
Continuous
 62
     7
370
    15
100
AcDbLine
 10
-582.820169921
 20
-95.0039058613
 30
0.0
 11
-401.1394160939
 21
-95.0039058613
 31
0.0
  0
LINE
  5
39A
330
1F
100
AcDbEntity
  8
0
  6
Continuous
 62
     7
370
    15
100
AcDbLine
 10
-712.3433279945
 20
-95.0039058613
 30
0.0
 11
-594.8201644374
 21
-95.0039058613
 31
0.0
  0
LINE
  5
39B
330
1F
100
AcDbEntity
  8
0
  6
Continuous
 62
     7
370
    15
100
AcDbLine
 10
-758.6729454948
 20
-95.0039058613
 30
0.0
 11
-724.2335009528
 21
-95.0039058613
 31
0.0
  0
LINE
  5
39C
330
1F
100
AcDbEntity
  8
0
  6
Continuous
 62
     7
370
    15
100
AcDbLine
 10
-754.1248726798
 20
-99.7232079195
 30
0.0
 11
-724.2335009528
 21
-99.7232079195
 31
0.0
  0
LINE
  5
39D
330
1F
100
AcDbEntity
  8
0
  6
Continuous
 62
     7
370
    15
100
AcDbLine
 10
-712.2334766341
 20
-99.7232079195
 30
0.0
 11
-594.8201644374
 21
-99.7232079195
 31
0.0
  0
LINE
  5
39E
330
1F
100
AcDbEntity
  8
0
  6
Continuous
 62
     7
370
    15
100
AcDbLine
 10
-582.820169921
 20
-99.7232079195
 30
0.0
 11
-401.1394160939
 21
-99.7232079195
 31
0.0
  0
LINE
  5
39F
330
1F
100
AcDbEntity
  8
0
  6
Continuous
 62
     7
370
    15
100
AcDbLine
 10
-389.1394215776
 20
-99.7232079195
 30
0.0
 11
-172.6774082659
 21
-99.7232079195
 31
0.0
  0
LINE
  5
3A0
330
1F
100
AcDbEntity
  8
0
  6
Continuous
 62
     7
370
    15
100
AcDbLine
 10
-160.6774081616
 20
-99.7232079195
 30
0.0
 11
55.7846051501
 21
-99.7232079195
 31
0.0
  0
LINE
  5
3A1
330
1F
100
AcDbEntity
  8
0
  6
Continuous
 62
     7
370
    15
100
AcDbLine
 10
67.7845996665
 20
-99.7232079195
 30
0.0
 11
249.4653534936
 21
-99.7232079195
 31
0.0
  0
LINE
  5
3A2
330
1F
100
AcDbEntity
  8
0
  6
Continuous
 62
     7
370
    15
100
AcDbLine
 10
261.46534801
 20
-99.7232079195
 30
0.0
 11
378.8786602067
 21
-99.7232079195
 31
0.0
  0
LINE
  5
3A3
330
1F
100
AcDbEntity
  8
0
  6
Continuous
 62
     7
370
    15
100
AcDbLine
 10
390.8786845254
 20
-99.7232079195
 30
0.0
 11
420.7700562524
 21
-99.7232079195
 31
0.0
  0
LINE
  5
3A4
330
1F
100
AcDbEntity
  8
0
  6
Continuous
 62
     7
370
    15
100
AcDbLine
 10
-752.8015899612
 20
-124.9728902863
 30
0.0
 11
-724.2335009528
 21
-124.9728902863
 31
0.0
  0
LINE
  5
3A5
330
1F
100
AcDbEntity
  8
0
  6
Continuous
 62
     7
370
    15
100
AcDbLine
 10
-712.2334766341
 20
-124.9728902863
 30
0.0
 11
-594.8201644374
 21
-124.9728902863
 31
0.0
  0
LINE
  5
3A6
330
1F
100
AcDbEntity
  8
0
  6
Continuous
 62
     7
370
    15
100
AcDbLine
 10
-582.820169921
 20
-124.9728902863
 30
0.0
 11
-401.1394160939
 21
-124.9728902863
 31
0.0
  0
LINE
  5
3A7
330
1F
100
AcDbEntity
  8
0
  6
Continuous
 62
     7
370
    15
100
AcDbLine
 10
-389.1394215776
 20
-124.9728902863
 30
0.0
 11
-172.6774082659
 21
-124.9728902863
 31
0.0
  0
LINE
  5
3A8
330
1F
100
AcDbEntity
  8
0
  6
Continuous
 62
     7
370
    15
100
AcDbLine
 10
-160.6774081616
 20
-124.9728902863
 30
0.0
 11
55.7846051501
 21
-124.9728902863
 31
0.0
  0
LINE
  5
3A9
330
1F
100
AcDbEntity
  8
0
  6
Continuous
 62
     7
370
    15
100
AcDbLine
 10
67.7845996665
 20
-124.9728902863
 30
0.0
 11
249.4653534936
 21
-124.9728902863
 31
0.0
  0
LINE
  5
3AA
330
1F
100
AcDbEntity
  8
0
  6
Continuous
 62
     7
370
    15
100
AcDbLine
 10
261.46534801
 20
-124.9728902863
 30
0.0
 11
378.8786602067
 21
-124.9728902863
 31
0.0
  0
LINE
  5
3AB
330
1F
100
AcDbEntity
  8
0
  6
Continuous
 62
     7
370
    15
100
AcDbLine
 10
390.8786845254
 20
-124.9728902863
 30
0.0
 11
419.4467735337
 21
-124.9728902863
 31
0.0
  0
LINE
  5
3AC
330
1F
100
AcDbEntity
  8
FORMAT
  6
CENTERX2
370
     0
100
AcDbLine
 10
-166.6774082137
 20
-31.3520830778
 30
0.0
 11
-166.6774082137
 21
-239.3420476602
 31
0.0
  0
ENDSEC
  0
SECTION
  2
OBJECTS
  0
DICTIONARY
  5
C
330
0
100
AcDbDictionary
281
     1
  3
ACAD_GROUP
350
D
  3
ACAD_LAYOUT
350
1A
  3
ACAD_MLINESTYLE
350
17
  3
ACAD_PLOTSETTINGS
350
19
  3
ACAD_PLOTSTYLENAME
350
E
  0
DICTIONARY
  5
D
102
{ACAD_REACTORS
330
C
102
}
330
C
100
AcDbDictionary
281
     1
  0
DICTIONARY
  5
1A
102
{ACAD_REACTORS
330
C
102
}
330
C
100
AcDbDictionary
281
     1
  3
Layout1
350
1E
  3
Layout2
350
26
  3
Model
350
22
  0
DICTIONARY
  5
17
102
{ACAD_REACTORS
330
C
102
}
330
C
100
AcDbDictionary
281
     1
  3
Standard
350
18
  0
DICTIONARY
  5
19
102
{ACAD_REACTORS
330
C
102
}
330
C
100
AcDbDictionary
281
     1
  0
ACDBDICTIONARYWDFLT
  5
E
102
{ACAD_REACTORS
330
C
102
}
330
C
100
AcDbDictionary
281
     1
  3
Normal
350
F
100
AcDbDictionaryWithDefault
340
F
  0
LAYOUT
  5
1E
102
{ACAD_REACTORS
330
1A
102
}
330
1A
100
AcDbPlotSettings
  1

  2
none_device
  4

  6

 40
0.0
 41
0.0
 42
0.0
 43
0.0
 44
0.0
 45
0.0
 46
0.0
 47
0.0
 48
0.0
 49
0.0
140
0.0
141
0.0
142
1.0
143
1.0
 70
   688
 72
     0
 73
     0
 74
     5
  7

 75
    16
147
1.0
148
0.0
149
0.0
100
AcDbLayout
  1
Layout1
 70
     1
 71
     1
 10
0.0
 20
0.0
 11
420.0
 21
297.0
 12
0.0
 22
0.0
 32
0.0
 14
1.0000000000E+20
 24
1.0000000000E+20
 34
1.0000000000E+20
 15
-1.0000000000E+20
 25
-1.0000000000E+20
 35
-1.0000000000E+20
146
0.0
 13
0.0
 23
0.0
 33
0.0
 16
1.0
 26
0.0
 36
0.0
 17
0.0
 27
1.0
 37
0.0
 76
     0
330
1B
  0
LAYOUT
  5
26
102
{ACAD_REACTORS
330
1A
102
}
330
1A
100
AcDbPlotSettings
  1

  2
none_device
  4

  6

 40
0.0
 41
0.0
 42
0.0
 43
0.0
 44
0.0
 45
0.0
 46
0.0
 47
0.0
 48
0.0
 49
0.0
140
0.0
141
0.0
142
1.0
143
1.0
 70
   688
 72
     0
 73
     0
 74
     5
  7

 75
    16
147
1.0
148
0.0
149
0.0
100
AcDbLayout
  1
Layout2
 70
     1
 71
     2
 10
0.0
 20
0.0
 11
0.0
 21
0.0
 12
0.0
 22
0.0
 32
0.0
 14
0.0
 24
0.0
 34
0.0
 15
0.0
 25
0.0
 35
0.0
146
0.0
 13
0.0
 23
0.0
 33
0.0
 16
1.0
 26
0.0
 36
0.0
 17
0.0
 27
1.0
 37
0.0
 76
     0
330
23
  0
LAYOUT
  5
22
102
{ACAD_REACTORS
330
1A
102
}
330
1A
100
AcDbPlotSettings
  1

  2
none_device
  4

  6

 40
0.0
 41
0.0
 42
0.0
 43
0.0
 44
0.0
 45
0.0
 46
0.0
 47
0.0
 48
0.0
 49
0.0
140
0.0
141
0.0
142
1.0
143
1.0
 70
  1712
 72
     0
 73
     0
 74
     0
  7

 75
     0
147
1.0
148
0.0
149
0.0
100
AcDbLayout
  1
Model
 70
     1
 71
     0
 10
0.0
 20
0.0
 11
841.0
 21
594.0
 12
0.0
 22
0.0
 32
0.0
 14
0.0
 24
0.0
 34
0.0
 15
841.0
 25
594.0
 35
0.0
146
0.0
 13
0.0
 23
0.0
 33
0.0
 16
1.0
 26
0.0
 36
0.0
 17
0.0
 27
1.0
 37
0.0
 76
     0
330
1F
331
29
  0
MLINESTYLE
  5
18
102
{ACAD_REACTORS
330
17
102
}
330
17
100
AcDbMlineStyle
  2
Standard
 70
     0
  3

 62
   256
 51
90.0
 52
90.0
 71
     2
 49
0.5
 62
   256
  6
BYLAYER
 49
-0.5
 62
   256
  6
BYLAYER
  0
ACDBPLACEHOLDER
  5
F
102
{ACAD_REACTORS
330
E
102
}
330
E
  0
ENDSEC
  0
EOF
