  0
SECTION
  2
HEADER
  9
$ACADVER
  1
AC1015
  9
$ACADMAINTVER
 70
     6
  9
$DWGCODEPAGE
  3
ANSI_1252
  9
$INSBASE
 10
0.0
 20
0.0
 30
0.0
  9
$EXTMIN
 10
0.0
 20
0.0
 30
0.0
  9
$EXTMAX
 10
841.0
 20
594.0
 30
0.0
  9
$LIMMIN
 10
0.0
 20
0.0
  9
$LIMMAX
 10
841.0
 20
594.0
  9
$ORTHOMODE
 70
     0
  9
$REGENMODE
 70
     1
  9
$FILLMODE
 70
     1
  9
$QTEXTMODE
 70
     0
  9
$MIRRTEXT
 70
     1
  9
$LTSCALE
 40
1.0
  9
$ATTMODE
 70
     1
  9
$TEXTSIZE
 40
2.5
  9
$TRACEWID
 40
1.0
  9
$TEXTSTYLE
  7
Standard
  9
$CLAYER
  8
0
  9
$CELTYPE
  6
ByLayer
  9
$CECOLOR
 62
   256
  9
$CELTSCALE
 40
1.0
  9
$DISPSILH
 70
     0
  9
$DIMSCALE
 40
1.0
  9
$DIMASZ
 40
2.5
  9
$DIMEXO
 40
1.0
  9
$DIMDLI
 40
3.75
  9
$DIMRND
 40
0.0
  9
$DIMDLE
 40
0.0
  9
$DIMEXE
 40
1.0
  9
$DIMTP
 40
0.0
  9
$DIMTM
 40
0.0
  9
$DIMTXT
 40
2.5
  9
$DIMCEN
 40
2.5
  9
$DIMTSZ
 40
0.0
  9
$DIMTOL
 70
     0
  9
$DIMLIM
 70
     0
  9
$DIMTIH
 70
     1
  9
$DIMTOH
 70
     1
  9
$DIMSE1
 70
     0
  9
$DIMSE2
 70
     0
  9
$DIMTAD
 70
     1
  9
$DIMZIN
 70
     0
  9
$DIMBLK
  1

  9
$DIMASO
 70
     1
  9
$DIMSHO
 70
     1
  9
$DIMPOST
  1

  9
$DIMAPOST
  1

  9
$DIMALT
 70
     0
  9
$DIMALTD
 70
     3
  9
$DIMALTF
 40
0.0393700787
  9
$DIMLFAC
 40
1.0
  9
$DIMTOFL
 70
     1
  9
$DIMTVP
 40
0.0
  9
$DIMTIX
 70
     0
  9
$DIMSOXD
 70
     0
  9
$DIMSAH
 70
     0
  9
$DIMBLK1
  1

  9
$DIMBLK2
  1

  9
$DIMSTYLE
  2
ISO-25
  9
$DIMCLRD
 70
     0
  9
$DIMCLRE
 70
     0
  9
$DIMCLRT
 70
     0
  9
$DIMTFAC
 40
1.0
  9
$DIMGAP
 40
1.524
  9
$DIMJUST
 70
     0
  9
$DIMSD1
 70
     0
  9
$DIMSD2
 70
     0
  9
$DIMTOLJ
 70
     0
  9
$DIMTZIN
 70
     0
  9
$DIMALTZ
 70
     0
  9
$DIMALTTZ
 70
     0
  9
$DIMUPT
 70
     0
  9
$DIMDEC
 70
     2
  9
$DIMTDEC
 70
     2
  9
$DIMALTU
 70
     2
  9
$DIMALTTD
 70
     3
  9
$DIMTXSTY
  7
Standard
  9
$DIMAUNIT
 70
     0
  9
$DIMADEC
 70
     2
  9
$DIMALTRND
 40
0.0
  9
$DIMAZIN
 70
     0
  9
$DIMDSEP
 70
    44
  9
$DIMATFIT
 70
     3
  9
$DIMFRAC
 70
     0
  9
$DIMLDRBLK
  1

  9
$DIMLUNIT
 70
     2
  9
$DIMLWD
 70
    -2
  9
$DIMLWE
 70
    -2
  9
$DIMTMOVE
 70
     0
  9
$LUNITS
 70
     2
  9
$LUPREC
 70
     2
  9
$SKETCHINC
 40
1.0
  9
$FILLETRAD
 40
10.0
  9
$AUNITS
 70
     0
  9
$AUPREC
 70
     2
  9
$MENU
  1
.
  9
$ELEVATION
 40
0.0
  9
$PELEVATION
 40
0.0
  9
$THICKNESS
 40
0.0
  9
$LIMCHECK
 70
     0
  9
$CHAMFERA
 40
10.0
  9
$CHAMFERB
 40
10.0
  9
$CHAMFERC
 40
20.0
  9
$CHAMFERD
 40
0.0
  9
$SKPOLY
 70
     0
  9
$TDCREATE
 40
2457189.581666227
  9
$TDUCREATE
 40
2457189.248332893
  9
$TDUPDATE
 40
2457189.581667129
  9
$TDUUPDATE
 40
2457189.248333796
  9
$TDINDWG
 40
0.0000000116
  9
$TDUSRTIMER
 40
0.0000000116
  9
$USRTIMER
 70
     1
  9
$ANGBASE
 50
0.0
  9
$ANGDIR
 70
     0
  9
$PDMODE
 70
     0
  9
$PDSIZE
 40
-1.0
  9
$PLINEWID
 40
0.0
  9
$SPLFRAME
 70
     0
  9
$SPLINETYPE
 70
     6
  9
$SPLINESEGS
 70
     8
  9
$HANDSEED
  5
332
  9
$SURFTAB1
 70
     6
  9
$SURFTAB2
 70
     6
  9
$SURFTYPE
 70
     6
  9
$SURFU
 70
     6
  9
$SURFV
 70
     6
  9
$UCSBASE
  2

  9
$UCSNAME
  2

  9
$UCSORG
 10
0.0
 20
0.0
 30
0.0
  9
$UCSXDIR
 10
1.0
 20
0.0
 30
0.0
  9
$UCSYDIR
 10
0.0
 20
1.0
 30
0.0
  9
$UCSORTHOREF
  2

  9
$UCSORTHOVIEW
 70
     0
  9
$UCSORGTOP
 10
0.0
 20
0.0
 30
0.0
  9
$UCSORGBOTTOM
 10
0.0
 20
0.0
 30
0.0
  9
$UCSORGLEFT
 10
0.0
 20
0.0
 30
0.0
  9
$UCSORGRIGHT
 10
0.0
 20
0.0
 30
0.0
  9
$UCSORGFRONT
 10
0.0
 20
0.0
 30
0.0
  9
$UCSORGBACK
 10
0.0
 20
0.0
 30
0.0
  9
$PUCSBASE
  2

  9
$PUCSNAME
  2

  9
$PUCSORG
 10
0.0
 20
0.0
 30
0.0
  9
$PUCSXDIR
 10
1.0
 20
0.0
 30
0.0
  9
$PUCSYDIR
 10
0.0
 20
1.0
 30
0.0
  9
$PUCSORTHOREF
  2

  9
$PUCSORTHOVIEW
 70
     0
  9
$PUCSORGTOP
 10
0.0
 20
0.0
 30
0.0
  9
$PUCSORGBOTTOM
 10
0.0
 20
0.0
 30
0.0
  9
$PUCSORGLEFT
 10
0.0
 20
0.0
 30
0.0
  9
$PUCSORGRIGHT
 10
0.0
 20
0.0
 30
0.0
  9
$PUCSORGFRONT
 10
0.0
 20
0.0
 30
0.0
  9
$PUCSORGBACK
 10
0.0
 20
0.0
 30
0.0
  9
$USERI1
 70
     0
  9
$USERI2
 70
     0
  9
$USERI3
 70
     0
  9
$USERI4
 70
     0
  9
$USERI5
 70
     0
  9
$USERR1
 40
0.0
  9
$USERR2
 40
0.0
  9
$USERR3
 40
0.0
  9
$USERR4
 40
0.0
  9
$USERR5
 40
0.0
  9
$WORLDVIEW
 70
     1
  9
$SHADEDGE
 70
     3
  9
$SHADEDIF
 70
    70
  9
$TILEMODE
 70
     1
  9
$MAXACTVP
 70
    64
  9
$PINSBASE
 10
0.0
 20
0.0
 30
0.0
  9
$PLIMCHECK
 70
     0
  9
$PEXTMIN
 10
1.0000000000E+20
 20
1.0000000000E+20
 30
1.0000000000E+20
  9
$PEXTMAX
 10
-1.0000000000E+20
 20
-1.0000000000E+20
 30
-1.0000000000E+20
  9
$PLIMMIN
 10
0.0
 20
0.0
  9
$PLIMMAX
 10
420.0
 20
297.0
  9
$UNITMODE
 70
     0
  9
$VISRETAIN
 70
     1
  9
$PLINEGEN
 70
     0
  9
$PSLTSCALE
 70
     1
  9
$TREEDEPTH
 70
  3020
  9
$CMLSTYLE
  2
Standard
  9
$CMLJUST
 70
     0
  9
$CMLSCALE
 40
20.0
  9
$PROXYGRAPHICS
 70
     1
  9
$MEASUREMENT
 70
     1
  9
$CELWEIGHT
370
    -1
  9
$ENDCAPS
280
     0
  9
$JOINSTYLE
280
     0
  9
$LWDISPLAY
290
     1
  9
$INSUNITS
 70
     4
  9
$HYPERLINKBASE
  1

  9
$STYLESHEET
  1

  9
$XEDIT
290
     1
  9
$CEPSNTYPE
380
     0
  9
$PSTYLEMODE
290
     1
  9
$FINGERPRINTGUID
  2
{E81DA770-3918-4FA4-A6FF-248D2C994F8B}
  9
$VERSIONGUID
  2
{FAEB1C32-E019-11D5-929B-00C0DF256EC4}
  9
$EXTNAMES
290
     1
  9
$PSVPSCALE
 40
0.0
  9
$OLESTARTUP
290
     0
  0
ENDSEC
  0
SECTION
  2
CLASSES
  0
CLASS
  1
ACDBDICTIONARYWDFLT
  2
AcDbDictionaryWithDefault
  3
ObjectDBX Classes
 90
        0
280
     0
281
     0
  0
CLASS
  1
VISUALSTYLE
  2
AcDbVisualStyle
  3
ObjectDBX Classes
 90
     4095
280
     0
281
     0
  0
CLASS
  1
MATERIAL
  2
AcDbMaterial
  3
ObjectDBX Classes
 90
     1153
280
     0
281
     0
  0
CLASS
  1
ACDBPLACEHOLDER
  2
AcDbPlaceHolder
  3
ObjectDBX Classes
 90
        0
280
     0
281
     0
  0
CLASS
  1
LAYOUT
  2
AcDbLayout
  3
ObjectDBX Classes
 90
        0
280
     0
281
     0
  0
ENDSEC
  0
SECTION
  2
TABLES
  0
TABLE
  2
VPORT
  5
8
330
0
100
AcDbSymbolTable
 70
     1
  0
VPORT
  5
29
330
8
100
AcDbSymbolTableRecord
100
AcDbViewportTableRecord
  2
*Active
 70
     0
 10
0.0
 20
0.0
 11
1.0
 21
1.0
 12
420.5
 22
297.0
 13
0.0
 23
0.0
 14
10.0
 24
10.0
 15
10.0
 25
10.0
 16
0.0
 26
0.0
 36
1.0
 17
0.0
 27
0.0
 37
0.0
 40
594.0
 41
1.4158249158
 42
50.0
 43
0.0
 44
0.0
 50
0.0
 51
0.0
 71
     0
 72
  2000
 73
     1
 74
     3
 75
     0
 76
     0
 77
     0
 78
     0
281
     0
 65
     1
110
0.0
120
0.0
130
0.0
111
1.0
121
0.0
131
0.0
112
0.0
122
1.0
132
0.0
 79
     0
146
0.0
  0
ENDTAB
  0
TABLE
  2
LTYPE
  5
5
330
0
100
AcDbSymbolTable
 70
     6
  0
LTYPE
  5
14
330
5
100
AcDbSymbolTableRecord
100
AcDbLinetypeTableRecord
  2
ByBlock
 70
     0
  3

 72
    65
 73
     0
 40
0.0
  0
LTYPE
  5
15
330
5
100
AcDbSymbolTableRecord
100
AcDbLinetypeTableRecord
  2
ByLayer
 70
     0
  3

 72
    65
 73
     0
 40
0.0
  0
LTYPE
  5
16
330
5
100
AcDbSymbolTableRecord
100
AcDbLinetypeTableRecord
  2
Continuous
 70
     0
  3
Solid line
 72
    65
 73
     0
 40
0.0
  0
LTYPE
  5
3F
330
5
100
AcDbSymbolTableRecord
100
AcDbLinetypeTableRecord
  2
HIDDEN
 70
     0
  3
Hidden __ __ __ __ __ __ __ __ __ __ __ __ __ __
 72
    65
 73
     2
 40
1.905
 49
1.27
 74
     0
 49
-0.635
 74
     0
  0
LTYPE
  5
40
330
5
100
AcDbSymbolTableRecord
100
AcDbLinetypeTableRecord
  2
PHANTOM
 70
     0
  3
Phantom ______  __  __  ______  __  __  ______
 72
    65
 73
     6
 40
12.7
 49
6.35
 74
     0
 49
-1.27
 74
     0
 49
1.27
 74
     0
 49
-1.27
 74
     0
 49
1.27
 74
     0
 49
-1.27
 74
     0
  0
LTYPE
  5
41
330
5
100
AcDbSymbolTableRecord
100
AcDbLinetypeTableRecord
  2
CENTER
 70
     0
  3
Center ____ _ ____ _ ____ _ ____ _ ____ _ ____
 72
    65
 73
     4
 40
10.16
 49
6.35
 74
     0
 49
-1.27
 74
     0
 49
1.27
 74
     0
 49
-1.27
 74
     0
  0
LTYPE
  5
42
330
5
100
AcDbSymbolTableRecord
100
AcDbLinetypeTableRecord
  2
CENTERX2
 70
     0
  3
Center (2x) ________  __  ________  __  _____
 72
    65
 73
     4
 40
20.32
 49
12.7
 74
     0
 49
-2.54
 74
     0
 49
2.54
 74
     0
 49
-2.54
 74
     0
  0
LTYPE
  5
43
330
5
100
AcDbSymbolTableRecord
100
AcDbLinetypeTableRecord
  2
DOT2
 70
     0
  3
Dot (.5x) ........................................
 72
    65
 73
     2
 40
0.635
 49
0.0
 74
     0
 49
-0.635
 74
     0
  0
ENDTAB
  0
TABLE
  2
LAYER
  5
2
330
0
100
AcDbSymbolTable
 70
     3
  0
LAYER
  5
10
330
2
100
AcDbSymbolTableRecord
100
AcDbLayerTableRecord
  2
0
 70
     0
 62
     7
  6
Continuous
370
    -3
390
F
  0
LAYER
  5
44
330
2
100
AcDbSymbolTableRecord
100
AcDbLayerTableRecord
  2
FORMAT
 70
     0
 62
     7
  6
Continuous
370
    -3
390
F
  0
LAYER
  5
45
330
2
100
AcDbSymbolTableRecord
100
AcDbLayerTableRecord
  2
PROTOTYPE
 70
     0
 62
     7
  6
Continuous
370
    -3
390
F
  0
ENDTAB
  0
TABLE
  2
STYLE
  5
3
330
0
100
AcDbSymbolTable
 70
     1
  0
STYLE
  5
11
330
3
100
AcDbSymbolTableRecord
100
AcDbTextStyleTableRecord
  2
Standard
 70
     0
 40
0.0
 41
1.0
 50
0.0
 71
     0
 42
2.5
  3
txt
  4

  0
ENDTAB
  0
TABLE
  2
VIEW
  5
6
330
0
100
AcDbSymbolTable
 70
     0
  0
ENDTAB
  0
TABLE
  2
UCS
  5
7
330
0
100
AcDbSymbolTable
 70
     0
  0
ENDTAB
  0
TABLE
  2
APPID
  5
9
330
0
100
AcDbSymbolTable
 70
     1
  0
APPID
  5
12
330
9
100
AcDbSymbolTableRecord
100
AcDbRegAppTableRecord
  2
ACAD
 70
     0
  0
ENDTAB
  0
TABLE
  2
DIMSTYLE
  5
A
330
0
100
AcDbSymbolTable
 70
     1
100
AcDbDimStyleTable
  0
DIMSTYLE
105
27
330
A
100
AcDbSymbolTableRecord
100
AcDbDimStyleTableRecord
  2
ISO-25
 70
     0
 41
2.5
 42
0.625
 43
3.75
 44
1.25
 73
     0
 74
     0
 77
     1
 78
     8
140
2.5
141
2.5
143
0.0393700787
147
0.625
171
     3
172
     1
178
     0
271
     2
272
     2
274
     3
278
    44
283
     0
284
     8
340
11
  0
ENDTAB
  0
TABLE
  2
BLOCK_RECORD
  5
1
330
0
100
AcDbSymbolTable
 70
     2
  0
BLOCK_RECORD
  5
1F
330
1
100
AcDbSymbolTableRecord
100
AcDbBlockTableRecord
  2
*Model_Space
340
22
  0
BLOCK_RECORD
  5
1B
330
1
100
AcDbSymbolTableRecord
100
AcDbBlockTableRecord
  2
*Paper_Space
340
1E
  0
BLOCK_RECORD
  5
23
330
1
100
AcDbSymbolTableRecord
100
AcDbBlockTableRecord
  2
*Paper_Space0
340
26
  0
BLOCK_RECORD
  5
64
330
1
100
AcDbSymbolTableRecord
100
AcDbBlockTableRecord
  2
SW_CENTERMARKSYMBOL_0
340
0
102
{BLKREFS
331
133
102
}
  0
ENDTAB
  0
ENDSEC
  0
SECTION
  2
BLOCKS
  0
BLOCK
  5
20
330
1F
100
AcDbEntity
  8
0
100
AcDbBlockBegin
  2
*Model_Space
 70
     0
 10
0.0
 20
0.0
 30
0.0
  3
*Model_Space
  1

  0
ENDBLK
  5
21
330
1F
100
AcDbEntity
  8
0
100
AcDbBlockEnd
  0
BLOCK
  5
1C
330
1B
100
AcDbEntity
 67
     1
  8
0
100
AcDbBlockBegin
  2
*Paper_Space
 70
     0
 10
0.0
 20
0.0
 30
0.0
  3
*Paper_Space
  1

  0
ENDBLK
  5
1D
330
1B
100
AcDbEntity
 67
     1
  8
0
100
AcDbBlockEnd
  0
BLOCK
  5
24
330
23
100
AcDbEntity
  8
0
100
AcDbBlockBegin
  2
*Paper_Space0
 70
     0
 10
0.0
 20
0.0
 30
0.0
  3
*Paper_Space0
  1

  0
ENDBLK
  5
25
330
23
100
AcDbEntity
  8
0
100
AcDbBlockEnd
  0
BLOCK
  5
65
330
64
100
AcDbEntity
  8
0
100
AcDbBlockBegin
  2
SW_CENTERMARKSYMBOL_0
 70
     0
 10
0.0
 20
0.0
 30
0.0
  3
SW_CENTERMARKSYMBOL_0
  1

  0
ARC
  5
67
330
64
100
AcDbEntity
  8
FORMAT
 62
     0
100
AcDbCircle
 10
-65.5354540242
 20
-581.3175588831
 30
0.0
 40
585.0000000000028
100
AcDbArc
 50
83.5678571429
 51
83.8127109015
  0
ARC
  5
68
330
64
100
AcDbEntity
  8
FORMAT
 62
     0
100
AcDbCircle
 10
-65.5354540242
 20
-581.3175588831
 30
0.0
 40
585.0000000000028
100
AcDbArc
 50
83.3230033843
 51
83.5678571429
  0
ARC
  5
69
330
64
100
AcDbEntity
  8
FORMAT
 62
     0
100
AcDbCircle
 10
-65.5354540242
 20
-581.3175588831
 30
0.0
 40
585.000000000003
100
AcDbArc
 50
70.7107142857
 51
70.9555680443
  0
ARC
  5
6A
330
64
100
AcDbEntity
  8
FORMAT
 62
     0
100
AcDbCircle
 10
-65.5354540242
 20
-581.3175588831
 30
0.0
 40
585.000000000003
100
AcDbArc
 50
70.4658605271
 51
70.7107142857
  0
ARC
  5
6B
330
64
100
AcDbEntity
  8
FORMAT
 62
     0
100
AcDbCircle
 10
-65.5354540242
 20
-581.3175588831
 30
0.0
 40
585.0000000000027
100
AcDbArc
 50
57.8535714286
 51
58.0984251872
  0
ARC
  5
6C
330
64
100
AcDbEntity
  8
FORMAT
 62
     0
100
AcDbCircle
 10
-65.5354540242
 20
-581.3175588831
 30
0.0
 40
585.0000000000026
100
AcDbArc
 50
57.60871767
 51
57.8535714286
  0
ARC
  5
6D
330
64
100
AcDbEntity
  8
FORMAT
 62
     0
100
AcDbCircle
 10
-65.5354540242
 20
-581.3175588831
 30
0.0
 40
585.0000000000025
100
AcDbArc
 50
44.9964285714
 51
45.24128233
  0
ARC
  5
6E
330
64
100
AcDbEntity
  8
FORMAT
 62
     0
100
AcDbCircle
 10
-65.5354540242
 20
-581.3175588831
 30
0.0
 40
585.0000000000025
100
AcDbArc
 50
44.7515748128
 51
44.9964285714
  0
ARC
  5
6F
330
64
100
AcDbEntity
  8
FORMAT
 62
     0
100
AcDbCircle
 10
-65.5354540242
 20
-581.3175588831
 30
0.0
 40
585.0000000000023
100
AcDbArc
 50
32.1392857143
 51
32.3841394729
  0
ARC
  5
70
330
64
100
AcDbEntity
  8
FORMAT
 62
     0
100
AcDbCircle
 10
-65.5354540242
 20
-581.3175588831
 30
0.0
 40
585.0000000000023
100
AcDbArc
 50
31.8944319557
 51
32.1392857143
  0
ARC
  5
71
330
64
100
AcDbEntity
  8
FORMAT
 62
     0
100
AcDbCircle
 10
-65.5354540242
 20
-581.3175588831
 30
0.0
 40
585.0000000000019
100
AcDbArc
 50
19.2821428571
 51
19.5269966157
  0
ARC
  5
72
330
64
100
AcDbEntity
  8
FORMAT
 62
     0
100
AcDbCircle
 10
-65.5354540242
 20
-581.3175588831
 30
0.0
 40
585.0000000000019
100
AcDbArc
 50
19.0372890985
 51
19.2821428571
  0
ARC
  5
73
330
64
100
AcDbEntity
  8
FORMAT
 62
     0
100
AcDbCircle
 10
-65.5354540242
 20
-581.3175588831
 30
0.0
 40
585.0000000000016
100
AcDbArc
 50
6.425
 51
6.6698537586
  0
ARC
  5
74
330
64
100
AcDbEntity
  8
FORMAT
 62
     0
100
AcDbCircle
 10
-65.5354540242
 20
-581.3175588831
 30
0.0
 40
585.0000000000016
100
AcDbArc
 50
6.1801462414
 51
6.425
  0
ARC
  5
75
330
64
100
AcDbEntity
  8
FORMAT
 62
     0
100
AcDbCircle
 10
-65.5354540242
 20
-581.3175588831
 30
0.0
 40
585.0000000000014
100
AcDbArc
 50
353.5678571429
 51
353.8127109015
  0
ARC
  5
76
330
64
100
AcDbEntity
  8
FORMAT
 62
     0
100
AcDbCircle
 10
-65.5354540242
 20
-581.3175588831
 30
0.0
 40
585.0000000000014
100
AcDbArc
 50
353.3230033843
 51
353.5678571429
  0
ARC
  5
77
330
64
100
AcDbEntity
  8
FORMAT
 62
     0
100
AcDbCircle
 10
-65.5354540242
 20
-581.3175588831
 30
0.0
 40
585.0000000000011
100
AcDbArc
 50
340.7107142857
 51
340.9555680443
  0
ARC
  5
78
330
64
100
AcDbEntity
  8
FORMAT
 62
     0
100
AcDbCircle
 10
-65.5354540242
 20
-581.3175588831
 30
0.0
 40
585.0000000000011
100
AcDbArc
 50
340.4658605271
 51
340.7107142857
  0
ARC
  5
79
330
64
100
AcDbEntity
  8
FORMAT
 62
     0
100
AcDbCircle
 10
-65.5354540242
 20
-581.3175588831
 30
0.0
 40
585.0000000000008
100
AcDbArc
 50
327.8535714286
 51
328.0984251872
  0
ARC
  5
7A
330
64
100
AcDbEntity
  8
FORMAT
 62
     0
100
AcDbCircle
 10
-65.5354540242
 20
-581.3175588831
 30
0.0
 40
585.0000000000007
100
AcDbArc
 50
327.60871767
 51
327.8535714286
  0
ARC
  5
7B
330
64
100
AcDbEntity
  8
FORMAT
 62
     0
100
AcDbCircle
 10
-65.5354540242
 20
-581.3175588831
 30
0.0
 40
585.0000000000005
100
AcDbArc
 50
314.9964285714
 51
315.24128233
  0
ARC
  5
7C
330
64
100
AcDbEntity
  8
FORMAT
 62
     0
100
AcDbCircle
 10
-65.5354540242
 20
-581.3175588831
 30
0.0
 40
585.0000000000005
100
AcDbArc
 50
314.7515748128
 51
314.9964285714
  0
ARC
  5
7D
330
64
100
AcDbEntity
  8
FORMAT
 62
     0
100
AcDbCircle
 10
-65.5354540242
 20
-581.3175588831
 30
0.0
 40
585.0000000000002
100
AcDbArc
 50
302.1392857143
 51
302.3841394729
  0
ARC
  5
7E
330
64
100
AcDbEntity
  8
FORMAT
 62
     0
100
AcDbCircle
 10
-65.5354540242
 20
-581.3175588831
 30
0.0
 40
585.0000000000002
100
AcDbArc
 50
301.8944319557
 51
302.1392857143
  0
ARC
  5
7F
330
64
100
AcDbEntity
  8
FORMAT
 62
     0
100
AcDbCircle
 10
-65.5354540242
 20
-581.3175588831
 30
0.0
 40
585.0000000000001
100
AcDbArc
 50
289.2821428571
 51
289.5269966157
  0
ARC
  5
80
330
64
100
AcDbEntity
  8
FORMAT
 62
     0
100
AcDbCircle
 10
-65.5354540242
 20
-581.3175588831
 30
0.0
 40
585.0000000000002
100
AcDbArc
 50
289.0372890985
 51
289.2821428571
  0
ARC
  5
81
330
64
100
AcDbEntity
  8
FORMAT
 62
     0
100
AcDbCircle
 10
-65.5354540242
 20
-581.3175588831
 30
0.0
 40
585.0000000000003
100
AcDbArc
 50
276.425
 51
276.6698537586
  0
ARC
  5
82
330
64
100
AcDbEntity
  8
FORMAT
 62
     0
100
AcDbCircle
 10
-65.5354540242
 20
-581.3175588831
 30
0.0
 40
585.0000000000003
100
AcDbArc
 50
276.1801462414
 51
276.425
  0
ARC
  5
83
330
64
100
AcDbEntity
  8
FORMAT
 62
     0
100
AcDbCircle
 10
-65.5354540242
 20
-581.3175588831
 30
0.0
 40
585.0
100
AcDbArc
 50
263.5678571429
 51
263.8127109015
  0
ARC
  5
84
330
64
100
AcDbEntity
  8
FORMAT
 62
     0
100
AcDbCircle
 10
-65.5354540242
 20
-581.3175588831
 30
0.0
 40
585.0
100
AcDbArc
 50
263.3230033843
 51
263.5678571429
  0
ARC
  5
85
330
64
100
AcDbEntity
  8
FORMAT
 62
     0
100
AcDbCircle
 10
-65.5354540242
 20
-581.3175588831
 30
0.0
 40
585.0000000000003
100
AcDbArc
 50
250.7107142857
 51
250.9555680443
  0
ARC
  5
86
330
64
100
AcDbEntity
  8
FORMAT
 62
     0
100
AcDbCircle
 10
-65.5354540242
 20
-581.3175588831
 30
0.0
 40
585.0000000000002
100
AcDbArc
 50
250.4658605271
 51
250.7107142857
  0
ARC
  5
87
330
64
100
AcDbEntity
  8
FORMAT
 62
     0
100
AcDbCircle
 10
-65.5354540242
 20
-581.3175588831
 30
0.0
 40
585.0000000000003
100
AcDbArc
 50
237.8535714286
 51
238.0984251872
  0
ARC
  5
88
330
64
100
AcDbEntity
  8
FORMAT
 62
     0
100
AcDbCircle
 10
-65.5354540242
 20
-581.3175588831
 30
0.0
 40
585.0000000000003
100
AcDbArc
 50
237.60871767
 51
237.8535714286
  0
ARC
  5
89
330
64
100
AcDbEntity
  8
FORMAT
 62
     0
100
AcDbCircle
 10
-65.5354540242
 20
-581.3175588831
 30
0.0
 40
585.0000000000005
100
AcDbArc
 50
224.9964285714
 51
225.24128233
  0
ARC
  5
8A
330
64
100
AcDbEntity
  8
FORMAT
 62
     0
100
AcDbCircle
 10
-65.5354540242
 20
-581.3175588831
 30
0.0
 40
585.0000000000005
100
AcDbArc
 50
224.7515748128
 51
224.9964285714
  0
ARC
  5
8B
330
64
100
AcDbEntity
  8
FORMAT
 62
     0
100
AcDbCircle
 10
-65.5354540242
 20
-581.3175588831
 30
0.0
 40
585.0000000000006
100
AcDbArc
 50
212.1392857143
 51
212.3841394729
  0
ARC
  5
8C
330
64
100
AcDbEntity
  8
FORMAT
 62
     0
100
AcDbCircle
 10
-65.5354540242
 20
-581.3175588831
 30
0.0
 40
585.0000000000006
100
AcDbArc
 50
211.8944319557
 51
212.1392857143
  0
ARC
  5
8D
330
64
100
AcDbEntity
  8
FORMAT
 62
     0
100
AcDbCircle
 10
-65.5354540242
 20
-581.3175588831
 30
0.0
 40
585.0000000000009
100
AcDbArc
 50
199.2821428571
 51
199.5269966157
  0
ARC
  5
8E
330
64
100
AcDbEntity
  8
FORMAT
 62
     0
100
AcDbCircle
 10
-65.5354540242
 20
-581.3175588831
 30
0.0
 40
585.0000000000009
100
AcDbArc
 50
199.0372890985
 51
199.2821428571
  0
ARC
  5
8F
330
64
100
AcDbEntity
  8
FORMAT
 62
     0
100
AcDbCircle
 10
-65.5354540242
 20
-581.3175588831
 30
0.0
 40
585.0000000000013
100
AcDbArc
 50
186.425
 51
186.6698537586
  0
ARC
  5
90
330
64
100
AcDbEntity
  8
FORMAT
 62
     0
100
AcDbCircle
 10
-65.5354540242
 20
-581.3175588831
 30
0.0
 40
585.0000000000013
100
AcDbArc
 50
186.1801462414
 51
186.425
  0
ARC
  5
91
330
64
100
AcDbEntity
  8
FORMAT
 62
     0
100
AcDbCircle
 10
-65.5354540242
 20
-581.3175588831
 30
0.0
 40
585.0000000000015
100
AcDbArc
 50
173.5678571429
 51
173.8127109015
  0
ARC
  5
92
330
64
100
AcDbEntity
  8
FORMAT
 62
     0
100
AcDbCircle
 10
-65.5354540242
 20
-581.3175588831
 30
0.0
 40
585.0000000000016
100
AcDbArc
 50
173.3230033843
 51
173.5678571429
  0
ARC
  5
93
330
64
100
AcDbEntity
  8
FORMAT
 62
     0
100
AcDbCircle
 10
-65.5354540242
 20
-581.3175588831
 30
0.0
 40
585.0000000000018
100
AcDbArc
 50
160.7107142857
 51
160.9555680443
  0
ARC
  5
94
330
64
100
AcDbEntity
  8
FORMAT
 62
     0
100
AcDbCircle
 10
-65.5354540242
 20
-581.3175588831
 30
0.0
 40
585.0000000000018
100
AcDbArc
 50
160.4658605271
 51
160.7107142857
  0
ARC
  5
95
330
64
100
AcDbEntity
  8
FORMAT
 62
     0
100
AcDbCircle
 10
-65.5354540242
 20
-581.3175588831
 30
0.0
 40
585.0000000000022
100
AcDbArc
 50
147.8535714286
 51
148.0984251872
  0
ARC
  5
96
330
64
100
AcDbEntity
  8
FORMAT
 62
     0
100
AcDbCircle
 10
-65.5354540242
 20
-581.3175588831
 30
0.0
 40
585.0000000000022
100
AcDbArc
 50
147.60871767
 51
147.8535714286
  0
ARC
  5
97
330
64
100
AcDbEntity
  8
FORMAT
 62
     0
100
AcDbCircle
 10
-65.5354540242
 20
-581.3175588831
 30
0.0
 40
585.0000000000025
100
AcDbArc
 50
134.9964285714
 51
135.24128233
  0
ARC
  5
98
330
64
100
AcDbEntity
  8
FORMAT
 62
     0
100
AcDbCircle
 10
-65.5354540242
 20
-581.3175588831
 30
0.0
 40
585.0000000000025
100
AcDbArc
 50
134.7515748128
 51
134.9964285714
  0
ARC
  5
99
330
64
100
AcDbEntity
  8
FORMAT
 62
     0
100
AcDbCircle
 10
-65.5354540242
 20
-581.3175588831
 30
0.0
 40
585.0000000000025
100
AcDbArc
 50
122.1392857143
 51
122.3841394729
  0
ARC
  5
9A
330
64
100
AcDbEntity
  8
FORMAT
 62
     0
100
AcDbCircle
 10
-65.5354540242
 20
-581.3175588831
 30
0.0
 40
585.0000000000026
100
AcDbArc
 50
121.8944319557
 51
122.1392857143
  0
ARC
  5
9B
330
64
100
AcDbEntity
  8
FORMAT
 62
     0
100
AcDbCircle
 10
-65.5354540242
 20
-581.3175588831
 30
0.0
 40
585.0000000000027
100
AcDbArc
 50
109.2821428571
 51
109.5269966157
  0
ARC
  5
9C
330
64
100
AcDbEntity
  8
FORMAT
 62
     0
100
AcDbCircle
 10
-65.5354540242
 20
-581.3175588831
 30
0.0
 40
585.0000000000025
100
AcDbArc
 50
109.0372890985
 51
109.2821428571
  0
ARC
  5
9D
330
64
100
AcDbEntity
  8
FORMAT
 62
     0
100
AcDbCircle
 10
-65.5354540242
 20
-581.3175588831
 30
0.0
 40
585.0000000000027
100
AcDbArc
 50
96.425
 51
96.6698537586
  0
ARC
  5
9E
330
64
100
AcDbEntity
  8
FORMAT
 62
     0
100
AcDbCircle
 10
-65.5354540242
 20
-581.3175588831
 30
0.0
 40
585.0000000000027
100
AcDbArc
 50
96.1801462414
 51
96.425
  0
ARC
  5
9F
330
64
100
AcDbEntity
  8
FORMAT
 62
     0
100
AcDbCircle
 10
-65.5354540242
 20
-581.3175588831
 30
0.0
 40
585.0000000000028
100
AcDbArc
 50
58.3432789458
 51
70.2210067685
  0
ARC
  5
A0
330
64
100
AcDbEntity
  8
FORMAT
 62
     0
100
AcDbCircle
 10
-65.5354540242
 20
-581.3175588831
 30
0.0
 40
585.0000000000028
100
AcDbArc
 50
71.2004218029
 51
83.0781496257
  0
ARC
  5
A1
330
64
100
AcDbEntity
  8
FORMAT
 62
     0
100
AcDbCircle
 10
-65.5354540242
 20
-581.3175588831
 30
0.0
 40
585.0000000000026
100
AcDbArc
 50
45.4861360886
 51
57.3638639114
  0
ARC
  5
A2
330
64
100
AcDbEntity
  8
FORMAT
 62
     0
100
AcDbCircle
 10
-65.5354540242
 20
-581.3175588831
 30
0.0
 40
585.0000000000023
100
AcDbArc
 50
32.6289932315
 51
44.5067210542
  0
ARC
  5
A3
330
64
100
AcDbEntity
  8
FORMAT
 62
     0
100
AcDbCircle
 10
-65.5354540242
 20
-581.3175588831
 30
0.0
 40
585.0000000000022
100
AcDbArc
 50
19.7718503743
 51
31.6495781971
  0
ARC
  5
A4
330
64
100
AcDbEntity
  8
FORMAT
 62
     0
100
AcDbCircle
 10
-65.5354540242
 20
-581.3175588831
 30
0.0
 40
585.0000000000019
100
AcDbArc
 50
6.9147075172
 51
18.7924353399
  0
ARC
  5
A5
330
64
100
AcDbEntity
  8
FORMAT
 62
     0
100
AcDbCircle
 10
-65.5354540242
 20
-581.3175588831
 30
0.0
 40
585.0000000000016
100
AcDbArc
 50
354.0575646601
 51
5.9352924828
  0
ARC
  5
A6
330
64
100
AcDbEntity
  8
FORMAT
 62
     0
100
AcDbCircle
 10
-65.5354540242
 20
-581.3175588831
 30
0.0
 40
585.0000000000013
100
AcDbArc
 50
341.2004218029
 51
353.0781496257
  0
ARC
  5
A7
330
64
100
AcDbEntity
  8
FORMAT
 62
     0
100
AcDbCircle
 10
-65.5354540242
 20
-581.3175588831
 30
0.0
 40
585.0000000000013
100
AcDbArc
 50
328.3432789458
 51
340.2210067685
  0
ARC
  5
A8
330
64
100
AcDbEntity
  8
FORMAT
 62
     0
100
AcDbCircle
 10
-65.5354540242
 20
-581.3175588831
 30
0.0
 40
585.0000000000007
100
AcDbArc
 50
315.4861360886
 51
327.3638639114
  0
ARC
  5
A9
330
64
100
AcDbEntity
  8
FORMAT
 62
     0
100
AcDbCircle
 10
-65.5354540242
 20
-581.3175588831
 30
0.0
 40
585.0000000000005
100
AcDbArc
 50
302.6289932315
 51
314.5067210542
  0
ARC
  5
AA
330
64
100
AcDbEntity
  8
FORMAT
 62
     0
100
AcDbCircle
 10
-65.5354540242
 20
-581.3175588831
 30
0.0
 40
585.0000000000003
100
AcDbArc
 50
289.7718503743
 51
301.6495781971
  0
ARC
  5
AB
330
64
100
AcDbEntity
  8
FORMAT
 62
     0
100
AcDbCircle
 10
-65.5354540242
 20
-581.3175588831
 30
0.0
 40
585.0000000000001
100
AcDbArc
 50
276.9147075172
 51
288.7924353399
  0
ARC
  5
AC
330
64
100
AcDbEntity
  8
FORMAT
 62
     0
100
AcDbCircle
 10
-65.5354540242
 20
-581.3175588831
 30
0.0
 40
585.0
100
AcDbArc
 50
264.0575646601
 51
275.9352924828
  0
ARC
  5
AD
330
64
100
AcDbEntity
  8
FORMAT
 62
     0
100
AcDbCircle
 10
-65.5354540242
 20
-581.3175588831
 30
0.0
 40
585.0000000000002
100
AcDbArc
 50
251.2004218029
 51
263.0781496257
  0
ARC
  5
AE
330
64
100
AcDbEntity
  8
FORMAT
 62
     0
100
AcDbCircle
 10
-65.5354540242
 20
-581.3175588831
 30
0.0
 40
585.0000000000003
100
AcDbArc
 50
238.3432789458
 51
250.2210067685
  0
ARC
  5
AF
330
64
100
AcDbEntity
  8
FORMAT
 62
     0
100
AcDbCircle
 10
-65.5354540242
 20
-581.3175588831
 30
0.0
 40
585.0000000000005
100
AcDbArc
 50
225.4861360886
 51
237.3638639114
  0
ARC
  5
B0
330
64
100
AcDbEntity
  8
FORMAT
 62
     0
100
AcDbCircle
 10
-65.5354540242
 20
-581.3175588831
 30
0.0
 40
585.0000000000006
100
AcDbArc
 50
212.6289932315
 51
224.5067210542
  0
ARC
  5
B1
330
64
100
AcDbEntity
  8
FORMAT
 62
     0
100
AcDbCircle
 10
-65.5354540242
 20
-581.3175588831
 30
0.0
 40
585.000000000001
100
AcDbArc
 50
199.7718503743
 51
211.6495781971
  0
ARC
  5
B2
330
64
100
AcDbEntity
  8
FORMAT
 62
     0
100
AcDbCircle
 10
-65.5354540242
 20
-581.3175588831
 30
0.0
 40
585.0000000000013
100
AcDbArc
 50
186.9147075172
 51
198.7924353399
  0
ARC
  5
B3
330
64
100
AcDbEntity
  8
FORMAT
 62
     0
100
AcDbCircle
 10
-65.5354540242
 20
-581.3175588831
 30
0.0
 40
585.0000000000015
100
AcDbArc
 50
174.0575646601
 51
185.9352924828
  0
ARC
  5
B4
330
64
100
AcDbEntity
  8
FORMAT
 62
     0
100
AcDbCircle
 10
-65.5354540242
 20
-581.3175588831
 30
0.0
 40
585.0000000000019
100
AcDbArc
 50
161.2004218029
 51
173.0781496257
  0
ARC
  5
B5
330
64
100
AcDbEntity
  8
FORMAT
 62
     0
100
AcDbCircle
 10
-65.5354540242
 20
-581.3175588831
 30
0.0
 40
585.0000000000022
100
AcDbArc
 50
148.3432789458
 51
160.2210067685
  0
ARC
  5
B6
330
64
100
AcDbEntity
  8
FORMAT
 62
     0
100
AcDbCircle
 10
-65.5354540242
 20
-581.3175588831
 30
0.0
 40
585.0000000000025
100
AcDbArc
 50
135.4861360886
 51
147.3638639114
  0
ARC
  5
B7
330
64
100
AcDbEntity
  8
FORMAT
 62
     0
100
AcDbCircle
 10
-65.5354540242
 20
-581.3175588831
 30
0.0
 40
585.0000000000026
100
AcDbArc
 50
122.6289932315
 51
134.5067210542
  0
ARC
  5
B8
330
64
100
AcDbEntity
  8
FORMAT
 62
     0
100
AcDbCircle
 10
-65.5354540242
 20
-581.3175588831
 30
0.0
 40
585.0000000000028
100
AcDbArc
 50
109.7718503743
 51
121.6495781971
  0
ARC
  5
B9
330
64
100
AcDbEntity
  8
FORMAT
 62
     0
100
AcDbCircle
 10
-65.5354540242
 20
-581.3175588831
 30
0.0
 40
585.0000000000027
100
AcDbArc
 50
84.0575646601
 51
95.9352924828
  0
ARC
  5
BA
330
64
100
AcDbEntity
  8
FORMAT
 62
     0
100
AcDbCircle
 10
-65.5354540242
 20
-581.3175588831
 30
0.0
 40
585.0000000000028
100
AcDbArc
 50
96.9147075172
 51
108.7924353399
  0
LINE
  5
BB
330
64
100
AcDbEntity
  8
FORMAT
 62
     0
100
AcDbLine
 10
0.0
 20
0.0
 30
0.0
 11
0.2800660428
 21
2.4842630722
 31
0.0
  0
LINE
  5
BC
330
64
100
AcDbEntity
  8
FORMAT
 62
     0
100
AcDbLine
 10
0.0
 20
0.0
 30
0.0
 11
-0.2800660428
 21
-2.4842630722
 31
0.0
  0
LINE
  5
BD
330
64
100
AcDbEntity
  8
FORMAT
 62
     0
100
AcDbLine
 10
0.5601320857
 20
4.9685261443
 30
0.0
 11
2.6886340112
 21
23.8489254926
 31
0.0
  0
LINE
  5
BE
330
64
100
AcDbEntity
  8
FORMAT
 62
     0
100
AcDbLine
 10
-0.5601320857
 20
-4.9685261443
 30
0.0
 11
-2.6886340112
 21
-23.8489254926
 31
0.0
  0
LINE
  5
BF
330
64
100
AcDbEntity
  8
FORMAT
 62
     0
100
AcDbLine
 10
127.7122154694
 20
-29.1578553233
 30
0.0
 11
128.5380602108
 21
-26.7981984705
 31
0.0
  0
LINE
  5
C0
330
64
100
AcDbEntity
  8
FORMAT
 62
     0
100
AcDbLine
 10
127.7122154694
 20
-29.1578553233
 30
0.0
 11
126.886370728
 21
-31.5175121761
 31
0.0
  0
LINE
  5
C1
330
64
100
AcDbEntity
  8
FORMAT
 62
     0
100
AcDbLine
 10
129.3639049522
 20
-24.4385416176
 30
0.0
 11
135.6403249871
 21
-6.5051495362
 31
0.0
  0
LINE
  5
C2
330
64
100
AcDbEntity
  8
FORMAT
 62
     0
100
AcDbLine
 10
126.0605259865
 20
-33.8771690289
 30
0.0
 11
119.7841059517
 21
-51.8105611103
 31
0.0
  0
LINE
  5
C3
330
64
100
AcDbEntity
  8
FORMAT
 62
     0
100
AcDbLine
 10
245.7341858584
 20
-86.0033038012
 30
0.0
 11
247.0643979946
 21
-83.8865762154
 31
0.0
  0
LINE
  5
C4
330
64
100
AcDbEntity
  8
FORMAT
 62
     0
100
AcDbLine
 10
245.7341858584
 20
-86.0033038012
 30
0.0
 11
244.4039737221
 21
-88.120031387
 31
0.0
  0
LINE
  5
C5
330
64
100
AcDbEntity
  8
FORMAT
 62
     0
100
AcDbLine
 10
248.3946101309
 20
-81.7698486295
 30
0.0
 11
258.5042223664
 21
-65.6827189773
 31
0.0
  0
LINE
  5
C6
330
64
100
AcDbEntity
  8
FORMAT
 62
     0
100
AcDbLine
 10
243.0737615859
 20
-90.2367589728
 30
0.0
 11
232.9641493504
 21
-106.323888625
 31
0.0
  0
LINE
  5
C7
330
64
100
AcDbEntity
  8
FORMAT
 62
     0
100
AcDbLine
 10
-65.5354540242
 20
-581.3175588831
 30
0.0
 11
-65.5354540242
 21
-578.8175588831
 31
0.0
  0
LINE
  5
C8
330
64
100
AcDbEntity
  8
FORMAT
 62
     0
100
AcDbLine
 10
-65.5354540242
 20
-581.3175588831
 30
0.0
 11
-68.0354540242
 21
-581.3175588831
 31
0.0
  0
LINE
  5
C9
330
64
100
AcDbEntity
  8
FORMAT
 62
     0
100
AcDbLine
 10
-65.5354540242
 20
-581.3175588831
 30
0.0
 11
-65.5354540242
 21
-583.8175588831
 31
0.0
  0
LINE
  5
CA
330
64
100
AcDbEntity
  8
FORMAT
 62
     0
100
AcDbLine
 10
-65.5354540242
 20
-581.3175588831
 30
0.0
 11
-63.0354540242
 21
-581.3175588831
 31
0.0
  0
LINE
  5
CB
330
64
100
AcDbEntity
  8
FORMAT
 62
     0
100
AcDbLine
 10
-65.5354540242
 20
-576.3175588831
 30
0.0
 11
-65.5354540242
 21
59.0333594714
 31
0.0
  0
LINE
  5
CC
330
64
100
AcDbEntity
  8
FORMAT
 62
     0
100
AcDbLine
 10
-70.5354540242
 20
-581.3175588831
 30
0.0
 11
-706.497850977
 21
-581.3175588831
 31
0.0
  0
LINE
  5
CD
330
64
100
AcDbEntity
  8
FORMAT
 62
     0
100
AcDbLine
 10
-65.5354540242
 20
-586.3175588831
 30
0.0
 11
-65.5354540242
 21
-1228.8587316372
 31
0.0
  0
LINE
  5
CE
330
64
100
AcDbEntity
  8
FORMAT
 62
     0
100
AcDbLine
 10
-60.5354540242
 20
-581.3175588831
 30
0.0
 11
574.9115618207
 21
-581.3175588831
 31
0.0
  0
LINE
  5
CF
330
64
100
AcDbEntity
  8
FORMAT
 62
     0
100
AcDbLine
 10
348.1477967548
 20
-167.6858772811
 30
0.0
 11
349.9156738949
 21
-165.9182205221
 31
0.0
  0
LINE
  5
D0
330
64
100
AcDbEntity
  8
FORMAT
 62
     0
100
AcDbLine
 10
348.1477967548
 20
-167.6858772811
 30
0.0
 11
346.3799196147
 21
-169.4535340401
 31
0.0
  0
LINE
  5
D1
330
64
100
AcDbEntity
  8
FORMAT
 62
     0
100
AcDbLine
 10
351.683551035
 20
-164.1505637631
 30
0.0
 11
365.1194172996
 21
-150.7163723949
 31
0.0
  0
LINE
  5
D2
330
64
100
AcDbEntity
  8
FORMAT
 62
     0
100
AcDbLine
 10
344.6120424746
 20
-171.2211907991
 30
0.0
 11
331.17617621
 21
-184.6553821673
 31
0.0
  0
LINE
  5
D3
330
64
100
AcDbEntity
  8
FORMAT
 62
     0
100
AcDbLine
 10
429.8176020664
 20
-270.109670452
 30
0.0
 11
431.9344954685
 21
-268.7797222109
 31
0.0
  0
LINE
  5
D4
330
64
100
AcDbEntity
  8
FORMAT
 62
     0
100
AcDbLine
 10
429.8176020664
 20
-270.109670452
 30
0.0
 11
427.7007086643
 21
-271.4396186932
 31
0.0
  0
LINE
  5
D5
330
64
100
AcDbEntity
  8
FORMAT
 62
     0
100
AcDbLine
 10
434.0513888706
 20
-267.4497739697
 30
0.0
 11
450.1397787265
 21
-257.3421673369
 31
0.0
  0
LINE
  5
D6
330
64
100
AcDbEntity
  8
FORMAT
 62
     0
100
AcDbLine
 10
425.5838152622
 20
-272.7695669343
 30
0.0
 11
409.4954254063
 21
-282.8771735671
 31
0.0
  0
LINE
  5
D7
330
64
100
AcDbEntity
  8
FORMAT
 62
     0
100
AcDbLine
 10
486.6483367313
 20
-388.1387266399
 30
0.0
 11
489.0080965209
 21
-387.3131760747
 31
0.0
  0
LINE
  5
D8
330
64
100
AcDbEntity
  8
FORMAT
 62
     0
100
AcDbLine
 10
486.6483367313
 20
-388.1387266399
 30
0.0
 11
484.2885769418
 21
-388.964277205
 31
0.0
  0
LINE
  5
D9
330
64
100
AcDbEntity
  8
FORMAT
 62
     0
100
AcDbLine
 10
491.3678563104
 20
-386.4876255096
 30
0.0
 11
509.3020307111
 21
-380.2134412145
 31
0.0
  0
LINE
  5
DA
330
64
100
AcDbEntity
  8
FORMAT
 62
     0
100
AcDbLine
 10
481.9288171522
 20
-389.7898277701
 30
0.0
 11
463.9946427516
 21
-396.0640120652
 31
0.0
  0
LINE
  5
DB
330
64
100
AcDbEntity
  8
FORMAT
 62
     0
100
AcDbLine
 10
515.7902704091
 20
-515.8545761209
 30
0.0
 11
518.2745683768
 21
-515.5748197843
 31
0.0
  0
LINE
  5
DC
330
64
100
AcDbEntity
  8
FORMAT
 62
     0
100
AcDbLine
 10
515.7902704091
 20
-515.8545761209
 30
0.0
 11
513.3059724414
 21
-516.1343324575
 31
0.0
  0
LINE
  5
DD
330
64
100
AcDbEntity
  8
FORMAT
 62
     0
100
AcDbLine
 10
520.7588663444
 20
-515.2950634477
 30
0.0
 11
539.6395308987
 21
-513.1689152897
 31
0.0
  0
LINE
  5
DE
330
64
100
AcDbEntity
  8
FORMAT
 62
     0
100
AcDbLine
 10
510.8216744738
 20
-516.4140887941
 30
0.0
 11
491.9410099195
 21
-518.5402369522
 31
0.0
  0
LINE
  5
DF
330
64
100
AcDbEntity
  8
FORMAT
 62
     0
100
AcDbLine
 10
515.782104859
 20
-646.8530129073
 30
0.0
 11
518.2663679311
 21
-647.1330789501
 31
0.0
  0
LINE
  5
E0
330
64
100
AcDbEntity
  8
FORMAT
 62
     0
100
AcDbLine
 10
515.782104859
 20
-646.8530129073
 30
0.0
 11
513.2978417868
 21
-646.5729468645
 31
0.0
  0
LINE
  5
E1
330
64
100
AcDbEntity
  8
FORMAT
 62
     0
100
AcDbLine
 10
520.7506310033
 20
-647.413144993
 30
0.0
 11
539.6310303516
 21
-649.5416469186
 31
0.0
  0
LINE
  5
E2
330
64
100
AcDbEntity
  8
FORMAT
 62
     0
100
AcDbLine
 10
510.8135787147
 20
-646.2928808216
 30
0.0
 11
491.9331793663
 21
-644.1643788961
 31
0.0
  0
LINE
  5
E3
330
64
100
AcDbEntity
  8
FORMAT
 62
     0
100
AcDbLine
 10
486.6242495357
 20
-774.5652283767
 30
0.0
 11
488.9839063885
 21
-775.3910731181
 31
0.0
  0
LINE
  5
E4
330
64
100
AcDbEntity
  8
FORMAT
 62
     0
100
AcDbLine
 10
486.6242495357
 20
-774.5652283767
 30
0.0
 11
484.2645926829
 21
-773.7393836353
 31
0.0
  0
LINE
  5
E5
330
64
100
AcDbEntity
  8
FORMAT
 62
     0
100
AcDbLine
 10
491.3435632413
 20
-776.2169178595
 30
0.0
 11
509.2769553228
 21
-782.4933378944
 31
0.0
  0
LINE
  5
E6
330
64
100
AcDbEntity
  8
FORMAT
 62
     0
100
AcDbLine
 10
481.90493583
 20
-772.9135388938
 30
0.0
 11
463.9715437486
 21
-766.637118859
 31
0.0
  0
LINE
  5
E7
330
64
100
AcDbEntity
  8
FORMAT
 62
     0
100
AcDbLine
 10
429.7788010578
 20
-892.5871987657
 30
0.0
 11
431.8955286436
 21
-893.9174109019
 31
0.0
  0
LINE
  5
E8
330
64
100
AcDbEntity
  8
FORMAT
 62
     0
100
AcDbLine
 10
429.7788010578
 20
-892.5871987657
 30
0.0
 11
427.662073472
 21
-891.2569866294
 31
0.0
  0
LINE
  5
E9
330
64
100
AcDbEntity
  8
FORMAT
 62
     0
100
AcDbLine
 10
434.0122562294
 20
-895.2476230382
 30
0.0
 11
450.0993858817
 21
-905.3572352737
 31
0.0
  0
LINE
  5
EA
330
64
100
AcDbEntity
  8
FORMAT
 62
     0
100
AcDbLine
 10
425.5453458861
 20
-889.9267744932
 30
0.0
 11
409.4582162339
 21
-879.8171622577
 31
0.0
  0
LINE
  5
EB
330
64
100
AcDbEntity
  8
FORMAT
 62
     0
100
AcDbLine
 10
348.0962275779
 20
-995.0008096621
 30
0.0
 11
349.8638843369
 21
-996.7686868022
 31
0.0
  0
LINE
  5
EC
330
64
100
AcDbEntity
  8
FORMAT
 62
     0
100
AcDbLine
 10
348.0962275779
 20
-995.0008096621
 30
0.0
 11
346.3285708189
 21
-993.232932522
 31
0.0
  0
LINE
  5
ED
330
64
100
AcDbEntity
  8
FORMAT
 62
     0
100
AcDbLine
 10
351.6315410958
 20
-998.5365639423
 30
0.0
 11
365.0657324641
 21
-1011.9724302069
 31
0.0
  0
LINE
  5
EE
330
64
100
AcDbEntity
  8
FORMAT
 62
     0
100
AcDbLine
 10
344.5609140599
 20
-991.465055382
 30
0.0
 11
331.1267226916
 21
-978.0291891173
 31
0.0
  0
LINE
  5
EF
330
64
100
AcDbEntity
  8
FORMAT
 62
     0
100
AcDbLine
 10
245.6724344069
 20
-1076.6706149737
 30
0.0
 11
247.0023826481
 21
-1078.7875083758
 31
0.0
  0
LINE
  5
F0
330
64
100
AcDbEntity
  8
FORMAT
 62
     0
100
AcDbLine
 10
245.6724344069
 20
-1076.6706149737
 30
0.0
 11
244.3424861658
 21
-1074.5537215716
 31
0.0
  0
LINE
  5
F1
330
64
100
AcDbEntity
  8
FORMAT
 62
     0
100
AcDbLine
 10
248.3323308893
 20
-1080.9044017779
 30
0.0
 11
258.4399375221
 21
-1096.9927916338
 31
0.0
  0
LINE
  5
F2
330
64
100
AcDbEntity
  8
FORMAT
 62
     0
100
AcDbLine
 10
243.0125379246
 20
-1072.4368281695
 30
0.0
 11
232.9049312918
 21
-1056.3484383136
 31
0.0
  0
LINE
  5
F3
330
64
100
AcDbEntity
  8
FORMAT
 62
     0
100
AcDbLine
 10
127.6433782191
 20
-1133.5013496386
 30
0.0
 11
128.4689287842
 21
-1135.8611094282
 31
0.0
  0
LINE
  5
F4
330
64
100
AcDbEntity
  8
FORMAT
 62
     0
100
AcDbLine
 10
127.6433782191
 20
-1133.5013496386
 30
0.0
 11
126.817827654
 21
-1131.1415898491
 31
0.0
  0
LINE
  5
F5
330
64
100
AcDbEntity
  8
FORMAT
 62
     0
100
AcDbLine
 10
129.2944793494
 20
-1138.2208692178
 30
0.0
 11
135.5686636445
 21
-1156.1550436184
 31
0.0
  0
LINE
  5
F6
330
64
100
AcDbEntity
  8
FORMAT
 62
     0
100
AcDbLine
 10
125.9922770888
 20
-1128.7818300595
 30
0.0
 11
119.7180927937
 21
-1110.8476556589
 31
0.0
  0
LINE
  5
F7
330
64
100
AcDbEntity
  8
FORMAT
 62
     0
100
AcDbLine
 10
-0.072471262
 20
-1162.6432833164
 30
0.0
 11
0.2072850746
 21
-1165.1275812841
 31
0.0
  0
LINE
  5
F8
330
64
100
AcDbEntity
  8
FORMAT
 62
     0
100
AcDbLine
 10
-0.072471262
 20
-1162.6432833164
 30
0.0
 11
-0.3522275986
 21
-1160.1589853488
 31
0.0
  0
LINE
  5
F9
330
64
100
AcDbEntity
  8
FORMAT
 62
     0
100
AcDbLine
 10
0.4870414112
 20
-1167.6118792517
 30
0.0
 11
2.6131895693
 21
-1186.492543806
 31
0.0
  0
LINE
  5
FA
330
64
100
AcDbEntity
  8
FORMAT
 62
     0
100
AcDbLine
 10
-0.6319839351
 20
-1157.6746873811
 30
0.0
 11
-2.7581320932
 21
-1138.7940228268
 31
0.0
  0
LINE
  5
FB
330
64
100
AcDbEntity
  8
FORMAT
 62
     0
100
AcDbLine
 10
-131.0709080483
 20
-1162.6351177663
 30
0.0
 11
-131.3509740912
 21
-1165.1193808384
 31
0.0
  0
LINE
  5
FC
330
64
100
AcDbEntity
  8
FORMAT
 62
     0
100
AcDbLine
 10
-131.0709080483
 20
-1162.6351177663
 30
0.0
 11
-130.7908420055
 21
-1160.1508546941
 31
0.0
  0
LINE
  5
FD
330
64
100
AcDbEntity
  8
FORMAT
 62
     0
100
AcDbLine
 10
-131.631040134
 20
-1167.6036439106
 30
0.0
 11
-133.7595420596
 21
-1186.4840432589
 31
0.0
  0
LINE
  5
FE
330
64
100
AcDbEntity
  8
FORMAT
 62
     0
100
AcDbLine
 10
-130.5107759627
 20
-1157.666591622
 30
0.0
 11
-128.3822740371
 21
-1138.7861922736
 31
0.0
  0
LINE
  5
FF
330
64
100
AcDbEntity
  8
FORMAT
 62
     0
100
AcDbLine
 10
-258.7831235177
 20
-1133.477262443
 30
0.0
 11
-259.6089682592
 21
-1135.8369192958
 31
0.0
  0
LINE
  5
100
330
64
100
AcDbEntity
  8
FORMAT
 62
     0
100
AcDbLine
 10
-258.7831235177
 20
-1133.477262443
 30
0.0
 11
-257.9572787763
 21
-1131.1176055902
 31
0.0
  0
LINE
  5
101
330
64
100
AcDbEntity
  8
FORMAT
 62
     0
100
AcDbLine
 10
-260.4348130006
 20
-1138.1965761486
 30
0.0
 11
-266.7112330354
 21
-1156.1299682301
 31
0.0
  0
LINE
  5
102
330
64
100
AcDbEntity
  8
FORMAT
 62
     0
100
AcDbLine
 10
-257.1314340349
 20
-1128.7579487374
 30
0.0
 11
-250.855014
 21
-1110.8245566559
 31
0.0
  0
LINE
  5
103
330
64
100
AcDbEntity
  8
FORMAT
 62
     0
100
AcDbLine
 10
-376.8050939067
 20
-1076.6318139651
 30
0.0
 11
-378.135306043
 21
-1078.7485415509
 31
0.0
  0
LINE
  5
104
330
64
100
AcDbEntity
  8
FORMAT
 62
     0
100
AcDbLine
 10
-376.8050939067
 20
-1076.6318139651
 30
0.0
 11
-375.4748817705
 21
-1074.5150863793
 31
0.0
  0
LINE
  5
105
330
64
100
AcDbEntity
  8
FORMAT
 62
     0
100
AcDbLine
 10
-379.4655181792
 20
-1080.8652691367
 30
0.0
 11
-389.5751304147
 21
-1096.952398789
 31
0.0
  0
LINE
  5
106
330
64
100
AcDbEntity
  8
FORMAT
 62
     0
100
AcDbLine
 10
-374.1446696342
 20
-1072.3983587935
 30
0.0
 11
-364.0350573987
 21
-1056.3112291412
 31
0.0
  0
LINE
  5
107
330
64
100
AcDbEntity
  8
FORMAT
 62
     0
100
AcDbLine
 10
-479.2187048032
 20
-994.9492404852
 30
0.0
 11
-480.9865819432
 21
-996.7168972442
 31
0.0
  0
LINE
  5
108
330
64
100
AcDbEntity
  8
FORMAT
 62
     0
100
AcDbLine
 10
-479.2187048032
 20
-994.9492404852
 30
0.0
 11
-477.4508276631
 21
-993.1815837262
 31
0.0
  0
LINE
  5
109
330
64
100
AcDbEntity
  8
FORMAT
 62
     0
100
AcDbLine
 10
-482.7544590833
 20
-998.4845540031
 30
0.0
 11
-496.1903253479
 21
-1011.9187453714
 31
0.0
  0
LINE
  5
10A
330
64
100
AcDbEntity
  8
FORMAT
 62
     0
100
AcDbLine
 10
-475.682950523
 20
-991.4139269672
 30
0.0
 11
-462.2470842584
 21
-977.9797355989
 31
0.0
  0
LINE
  5
10B
330
64
100
AcDbEntity
  8
FORMAT
 62
     0
100
AcDbLine
 10
-560.8885101147
 20
-892.5254473142
 30
0.0
 11
-563.0054035168
 21
-893.8553955554
 31
0.0
  0
LINE
  5
10C
330
64
100
AcDbEntity
  8
FORMAT
 62
     0
100
AcDbLine
 10
-560.8885101147
 20
-892.5254473142
 30
0.0
 11
-558.7716167126
 21
-891.1954990731
 31
0.0
  0
LINE
  5
10D
330
64
100
AcDbEntity
  8
FORMAT
 62
     0
100
AcDbLine
 10
-565.1222969189
 20
-895.1853437966
 30
0.0
 11
-581.2106867748
 21
-905.2929504294
 31
0.0
  0
LINE
  5
10E
330
64
100
AcDbEntity
  8
FORMAT
 62
     0
100
AcDbLine
 10
-556.6547233105
 20
-889.8655508319
 30
0.0
 11
-540.5663334546
 21
-879.7579441991
 31
0.0
  0
LINE
  5
10F
330
64
100
AcDbEntity
  8
FORMAT
 62
     0
100
AcDbLine
 10
-617.7192447797
 20
-774.4963911264
 30
0.0
 11
-620.0790045692
 21
-775.3219416916
 31
0.0
  0
LINE
  5
110
330
64
100
AcDbEntity
  8
FORMAT
 62
     0
100
AcDbLine
 10
-617.7192447797
 20
-774.4963911264
 30
0.0
 11
-615.3594849901
 21
-773.6708405613
 31
0.0
  0
LINE
  5
111
330
64
100
AcDbEntity
  8
FORMAT
 62
     0
100
AcDbLine
 10
-622.4387643588
 20
-776.1474922567
 30
0.0
 11
-640.3729387594
 21
-782.4216765518
 31
0.0
  0
LINE
  5
112
330
64
100
AcDbEntity
  8
FORMAT
 62
     0
100
AcDbLine
 10
-612.9997252006
 20
-772.8452899961
 30
0.0
 11
-595.0655508
 21
-766.571105701
 31
0.0
  0
LINE
  5
113
330
64
100
AcDbEntity
  8
FORMAT
 62
     0
100
AcDbLine
 10
-646.8611784575
 20
-646.7805416453
 30
0.0
 11
-649.3454764251
 21
-647.0602979819
 31
0.0
  0
LINE
  5
114
330
64
100
AcDbEntity
  8
FORMAT
 62
     0
100
AcDbLine
 10
-646.8611784575
 20
-646.7805416453
 30
0.0
 11
-644.3768804898
 21
-646.5007853087
 31
0.0
  0
LINE
  5
115
330
64
100
AcDbEntity
  8
FORMAT
 62
     0
100
AcDbLine
 10
-651.8297743928
 20
-647.3400543185
 30
0.0
 11
-670.710438947
 21
-649.4662024766
 31
0.0
  0
LINE
  5
116
330
64
100
AcDbEntity
  8
FORMAT
 62
     0
100
AcDbLine
 10
-641.8925825221
 20
-646.2210289722
 30
0.0
 11
-623.0119179679
 21
-644.0948808141
 31
0.0
  0
LINE
  5
117
330
64
100
AcDbEntity
  8
FORMAT
 62
     0
100
AcDbLine
 10
-646.8530129073
 20
-515.782104859
 30
0.0
 11
-649.3372759795
 21
-515.5020388161
 31
0.0
  0
LINE
  5
118
330
64
100
AcDbEntity
  8
FORMAT
 62
     0
100
AcDbLine
 10
-646.8530129073
 20
-515.782104859
 30
0.0
 11
-644.3687498352
 21
-516.0621709018
 31
0.0
  0
LINE
  5
119
330
64
100
AcDbEntity
  8
FORMAT
 62
     0
100
AcDbLine
 10
-651.8215390516
 20
-515.2219727733
 30
0.0
 11
-670.7019383999
 21
-513.0934708477
 31
0.0
  0
LINE
  5
11A
330
64
100
AcDbEntity
  8
FORMAT
 62
     0
100
AcDbLine
 10
-641.884486763
 20
-516.3422369446
 30
0.0
 11
-623.0040874147
 21
-518.4707388702
 31
0.0
  0
LINE
  5
11B
330
64
100
AcDbEntity
  8
FORMAT
 62
     0
100
AcDbLine
 10
-617.695157584
 20
-388.0698893896
 30
0.0
 11
-620.0548144369
 21
-387.2440446482
 31
0.0
  0
LINE
  5
11C
330
64
100
AcDbEntity
  8
FORMAT
 62
     0
100
AcDbLine
 10
-617.695157584
 20
-388.0698893896
 30
0.0
 11
-615.3355007312
 21
-388.895734131
 31
0.0
  0
LINE
  5
11D
330
64
100
AcDbEntity
  8
FORMAT
 62
     0
100
AcDbLine
 10
-622.4144712897
 20
-386.4181999067
 30
0.0
 11
-640.3478633711
 21
-380.1417798719
 31
0.0
  0
LINE
  5
11E
330
64
100
AcDbEntity
  8
FORMAT
 62
     0
100
AcDbLine
 10
-612.9758438784
 20
-389.7215788724
 30
0.0
 11
-595.042451797
 21
-395.9979989073
 31
0.0
  0
LINE
  5
11F
330
64
100
AcDbEntity
  8
FORMAT
 62
     0
100
AcDbLine
 10
-560.8497091061
 20
-270.0479190006
 30
0.0
 11
-562.966436692
 21
-268.7177068643
 31
0.0
  0
LINE
  5
120
330
64
100
AcDbEntity
  8
FORMAT
 62
     0
100
AcDbLine
 10
-560.8497091061
 20
-270.0479190006
 30
0.0
 11
-558.7329815203
 21
-271.3781311368
 31
0.0
  0
LINE
  5
121
330
64
100
AcDbEntity
  8
FORMAT
 62
     0
100
AcDbLine
 10
-565.0831642778
 20
-267.3874947281
 30
0.0
 11
-581.17029393
 21
-257.2778824926
 31
0.0
  0
LINE
  5
122
330
64
100
AcDbEntity
  8
FORMAT
 62
     0
100
AcDbLine
 10
-556.6162539345
 20
-272.7083432731
 30
0.0
 11
-540.5291242823
 21
-282.8179555086
 31
0.0
  0
LINE
  5
123
330
64
100
AcDbEntity
  8
FORMAT
 62
     0
100
AcDbLine
 10
-479.1671356262
 20
-167.6343081042
 30
0.0
 11
-480.9347923852
 21
-165.8664309641
 31
0.0
  0
LINE
  5
124
330
64
100
AcDbEntity
  8
FORMAT
 62
     0
100
AcDbLine
 10
-479.1671356262
 20
-167.6343081042
 30
0.0
 11
-477.3994788672
 21
-169.4021852442
 31
0.0
  0
LINE
  5
125
330
64
100
AcDbEntity
  8
FORMAT
 62
     0
100
AcDbLine
 10
-482.7024491442
 20
-164.098553824
 30
0.0
 11
-496.1366405125
 21
-150.6626875594
 31
0.0
  0
LINE
  5
126
330
64
100
AcDbEntity
  8
FORMAT
 62
     0
100
AcDbLine
 10
-475.6318221083
 20
-171.1700623843
 30
0.0
 11
-462.19763074
 21
-184.6059286489
 31
0.0
  0
LINE
  5
127
330
64
100
AcDbEntity
  8
FORMAT
 62
     0
100
AcDbLine
 10
-376.7433424553
 20
-85.9645027926
 30
0.0
 11
-378.0732906964
 21
-83.8476093905
 31
0.0
  0
LINE
  5
128
330
64
100
AcDbEntity
  8
FORMAT
 62
     0
100
AcDbLine
 10
-376.7433424553
 20
-85.9645027926
 30
0.0
 11
-375.4133942141
 21
-88.0813961947
 31
0.0
  0
LINE
  5
129
330
64
100
AcDbEntity
  8
FORMAT
 62
     0
100
AcDbLine
 10
-379.4032389376
 20
-81.7307159884
 30
0.0
 11
-389.5108455704
 21
-65.6423261325
 31
0.0
  0
LINE
  5
12A
330
64
100
AcDbEntity
  8
FORMAT
 62
     0
100
AcDbLine
 10
-374.083445973
 20
-90.1982895968
 30
0.0
 11
-363.9758393402
 21
-106.2866794527
 31
0.0
  0
LINE
  5
12B
330
64
100
AcDbEntity
  8
FORMAT
 62
     0
100
AcDbLine
 10
-258.7142862674
 20
-29.1337681276
 30
0.0
 11
-259.5398368326
 21
-26.7740083381
 31
0.0
  0
LINE
  5
12C
330
64
100
AcDbEntity
  8
FORMAT
 62
     0
100
AcDbLine
 10
-258.7142862674
 20
-29.1337681276
 30
0.0
 11
-257.8887357023
 21
-31.4935279172
 31
0.0
  0
LINE
  5
12D
330
64
100
AcDbEntity
  8
FORMAT
 62
     0
100
AcDbLine
 10
-260.3653873977
 20
-24.4142485485
 30
0.0
 11
-266.6395716928
 21
-6.4800741479
 31
0.0
  0
LINE
  5
12E
330
64
100
AcDbEntity
  8
FORMAT
 62
     0
100
AcDbLine
 10
-257.0631851372
 20
-33.8532877067
 30
0.0
 11
-250.7890008421
 21
-51.7874621073
 31
0.0
  0
LINE
  5
12F
330
64
100
AcDbEntity
  8
FORMAT
 62
     0
100
AcDbLine
 10
-130.9984367864
 20
0.0081655501
 30
0.0
 11
-131.278193123
 21
2.4924635178
 31
0.0
  0
LINE
  5
130
330
64
100
AcDbEntity
  8
FORMAT
 62
     0
100
AcDbLine
 10
-130.9984367864
 20
0.0081655501
 30
0.0
 11
-130.7186804498
 21
-2.4761324175
 31
0.0
  0
LINE
  5
131
330
64
100
AcDbEntity
  8
FORMAT
 62
     0
100
AcDbLine
 10
-131.5579494596
 20
4.9767614855
 30
0.0
 11
-133.6840976176
 21
23.8574260397
 31
0.0
  0
LINE
  5
132
330
64
100
AcDbEntity
  8
FORMAT
 62
     0
100
AcDbLine
 10
-130.4389241132
 20
-4.9604303852
 30
0.0
 11
-128.3127759551
 21
-23.8410949394
 31
0.0
  0
ENDBLK
  5
66
330
64
100
AcDbEntity
  8
0
100
AcDbBlockEnd
  0
ENDSEC
  0
SECTION
  2
ENTITIES
  0
CIRCLE
  5
46
330
1F
100
AcDbEntity
  8
0
  6
Continuous
 62
     7
370
    15
100
AcDbCircle
 10
9.3952746957
 20
1315.3322266399
 30
0.0
 40
21.50000000000001
  0
CIRCLE
  5
47
330
1F
100
AcDbEntity
  8
0
  6
Continuous
 62
     7
370
    15
100
AcDbCircle
 10
255.129460554
 20
1229.3289228388
 30
0.0
 40
21.50000000000003
  0
CIRCLE
  5
48
330
1F
100
AcDbEntity
  8
0
  6
Continuous
 62
     7
370
    15
100
AcDbCircle
 10
439.212876762
 20
1045.2225561879
 30
0.0
 40
21.50000000000006
  0
CIRCLE
  5
49
330
1F
100
AcDbEntity
  8
0
  6
Continuous
 62
     7
370
    15
100
AcDbCircle
 10
525.1855451048
 20
799.477650519
 30
0.0
 40
21.49999999999994
  0
CIRCLE
  5
4A
330
1F
100
AcDbEntity
  8
0
  6
Continuous
 62
     7
370
    15
100
AcDbCircle
 10
496.0195242313
 20
540.7669982632
 30
0.0
 40
21.49999999999994
  0
CIRCLE
  5
4B
330
1F
100
AcDbEntity
  8
0
  6
Continuous
 62
     7
370
    15
100
AcDbCircle
 10
357.4915022735
 20
320.3314169778
 30
0.0
 40
21.5
  0
CIRCLE
  5
4C
330
1F
100
AcDbEntity
  8
0
  6
Continuous
 62
     7
370
    15
100
AcDbCircle
 10
137.0386529148
 20
181.8308770013
 30
0.0
 40
21.49999999999997
  0
CIRCLE
  5
4D
330
1F
100
AcDbEntity
  8
0
  6
Continuous
 62
     7
370
    15
100
AcDbCircle
 10
-121.6756333527
 20
152.6971088737
 30
0.0
 40
21.5
  0
CIRCLE
  5
4E
330
1F
100
AcDbEntity
  8
0
  6
Continuous
 62
     7
370
    15
100
AcDbCircle
 10
-469.8234301075
 20
320.3829861548
 30
0.0
 40
21.5
  0
CIRCLE
  5
4F
330
1F
100
AcDbEntity
  8
0
  6
Continuous
 62
     7
370
    15
100
AcDbCircle
 10
-608.323970084
 20
540.8358355135
 30
0.0
 40
21.5
  0
CIRCLE
  5
50
330
1F
100
AcDbEntity
  8
0
  6
Continuous
 62
     7
370
    15
100
AcDbCircle
 10
-637.4577382117
 20
799.550121781
 30
0.0
 40
21.49999999999989
  0
CIRCLE
  5
51
330
1F
100
AcDbEntity
  8
0
  6
Continuous
 62
     7
370
    15
100
AcDbCircle
 10
-551.4544344105
 20
1045.2843076393
 30
0.0
 40
21.49999999999989
  0
CIRCLE
  5
52
330
1F
100
AcDbEntity
  8
0
  6
Continuous
 62
     7
370
    15
100
AcDbCircle
 10
-367.3480677596
 20
1229.3677238474
 30
0.0
 40
21.5
  0
CIRCLE
  5
53
330
1F
100
AcDbEntity
  8
0
  6
Continuous
 62
     7
370
    15
100
AcDbCircle
 10
-249.3878488221
 20
181.8549641969
 30
0.0
 40
21.50000000000003
  0
CIRCLE
  5
54
330
1F
100
AcDbEntity
  8
0
  6
Continuous
 62
     7
370
    15
100
AcDbCircle
 10
-56.1401793285
 20
734.0146677568
 30
0.0
 40
500.0
  0
CIRCLE
  5
55
330
1F
100
AcDbEntity
  8
0
  6
Continuous
 62
     7
370
    15
100
AcDbCircle
 10
-56.1401793285
 20
734.0146677568
 30
0.0
 40
627.4999999999999
  0
CIRCLE
  5
56
330
1F
100
AcDbEntity
  8
0
  6
Continuous
 62
     7
370
    15
100
AcDbCircle
 10
-121.6031620907
 20
1315.3403921901
 30
0.0
 40
21.50000000000001
  0
CIRCLE
  5
57
330
1F
100
AcDbEntity
  8
0
  6
Continuous
 62
     7
370
    15
100
AcDbCircle
 10
-249.3190115718
 20
1286.1984585123
 30
0.0
 40
21.50000000000003
  0
CIRCLE
  5
58
330
1F
100
AcDbEntity
  8
0
  6
Continuous
 62
     7
370
    15
100
AcDbCircle
 10
-469.7718609306
 20
1147.6979185358
 30
0.0
 40
21.5
  0
CIRCLE
  5
59
330
1F
100
AcDbEntity
  8
0
  6
Continuous
 62
     7
370
    15
100
AcDbCircle
 10
-608.2998828884
 20
927.2623372504
 30
0.0
 40
21.5
  0
CIRCLE
  5
5A
330
1F
100
AcDbEntity
  8
0
  6
Continuous
 62
     7
370
    15
100
AcDbCircle
 10
-637.4659037618
 20
668.5516849946
 30
0.0
 40
21.5
  0
CIRCLE
  5
5B
330
1F
100
AcDbEntity
  8
0
  6
Continuous
 62
     7
370
    15
100
AcDbCircle
 10
-551.4932354191
 20
422.8067793257
 30
0.0
 40
21.49999999999989
  0
CIRCLE
  5
5C
330
1F
100
AcDbEntity
  8
0
  6
Continuous
 62
     7
370
    15
100
AcDbCircle
 10
-367.4098192111
 20
238.7004126748
 30
0.0
 40
21.5
  0
CIRCLE
  5
5D
330
1F
100
AcDbEntity
  8
0
  6
Continuous
 62
     7
370
    15
100
AcDbCircle
 10
9.3228034337
 20
152.6889433235
 30
0.0
 40
21.50000000000001
  0
CIRCLE
  5
5E
330
1F
100
AcDbEntity
  8
0
  6
Continuous
 62
     7
370
    15
100
AcDbCircle
 10
255.0677091026
 20
238.6616116663
 30
0.0
 40
21.50000000000003
  0
CIRCLE
  5
5F
330
1F
100
AcDbEntity
  8
0
  6
Continuous
 62
     7
370
    15
100
AcDbCircle
 10
439.1740757534
 20
422.7450278743
 30
0.0
 40
21.50000000000006
  0
CIRCLE
  5
60
330
1F
100
AcDbEntity
  8
0
  6
Continuous
 62
     7
370
    15
100
AcDbCircle
 10
525.1773795546
 20
668.4792137326
 30
0.0
 40
21.5
  0
CIRCLE
  5
61
330
1F
100
AcDbEntity
  8
0
  6
Continuous
 62
     7
370
    15
100
AcDbCircle
 10
496.043611427
 20
927.1935000001
 30
0.0
 40
21.49999999999994
  0
CIRCLE
  5
62
330
1F
100
AcDbEntity
  8
0
  6
Continuous
 62
     7
370
    15
100
AcDbCircle
 10
357.5430714505
 20
1147.6463493588
 30
0.0
 40
21.5
  0
CIRCLE
  5
63
330
1F
100
AcDbEntity
  8
0
  6
Continuous
 62
     7
370
    15
100
AcDbCircle
 10
137.107490165
 20
1286.1743713167
 30
0.0
 40
21.5
  0
INSERT
  5
133
330
1F
100
AcDbEntity
  8
FORMAT
100
AcDbBlockReference
  2
SW_CENTERMARKSYMBOL_0
 10
9.3952746957
 20
1315.3322266399
 30
0.0
  0
LINE
  5
134
330
1F
100
AcDbEntity
  8
0
  6
Continuous
 62
     7
370
    15
100
AcDbLine
 10
949.656881529
 20
1361.5146653726
 30
0.0
 11
919.6568821996
 21
1361.5146653726
 31
0.0
  0
LINE
  5
135
330
1F
100
AcDbEntity
  8
0
  6
Continuous
 62
     7
370
    15
100
AcDbLine
 10
919.6568821996
 20
106.514670141
 30
0.0
 11
949.656881529
 21
106.514670141
 31
0.0
  0
ARC
  5
136
330
1F
100
AcDbEntity
  8
0
  6
Continuous
 62
     7
370
    15
100
AcDbCircle
 10
802.9078880069
 20
176.0146677568
 30
0.0
 40
3.000000000000084
100
AcDbArc
 50
270.0
 51
355.0
  0
ARC
  5
137
330
1F
100
AcDbEntity
  8
0
  6
Continuous
 62
     7
370
    15
100
AcDbCircle
 10
802.9078880069
 20
1292.0146677568
 30
0.0
 40
3.000000000000087
100
AcDbArc
 50
5.0
 51
90.0
  0
LINE
  5
138
330
1F
100
AcDbEntity
  8
0
  6
Continuous
 62
     7
370
    15
100
AcDbLine
 10
799.6568755685
 20
173.0146782472
 30
0.0
 11
802.9078917085
 21
173.0146782472
 31
0.0
  0
LINE
  5
139
330
1F
100
AcDbEntity
  8
0
  6
Continuous
 62
     7
370
    15
100
AcDbLine
 10
802.9078917085
 20
1295.0146572664
 30
0.0
 11
799.6568755685
 21
1295.0146572664
 31
0.0
  0
LINE
  5
13A
330
1F
100
AcDbEntity
  8
0
  6
Continuous
 62
     7
370
    15
100
AcDbLine
 10
797.1568779527
 20
722.0146676525
 30
0.0
 11
799.6568755685
 21
722.0146676525
 31
0.0
  0
LINE
  5
13B
330
1F
100
AcDbEntity
  8
0
  6
Continuous
 62
     7
370
    15
100
AcDbLine
 10
799.6568755685
 20
746.0146678611
 30
0.0
 11
797.1568779527
 21
746.0146678611
 31
0.0
  0
LINE
  5
13C
330
1F
100
AcDbEntity
  8
0
  6
Continuous
 62
     7
370
    15
100
AcDbLine
 10
805.8964685976
 20
175.7532136514
 30
0.0
 11
807.31873973
 21
192.0098440721
 31
0.0
  0
LINE
  5
13D
330
1F
100
AcDbEntity
  8
0
  6
Continuous
 62
     7
370
    15
100
AcDbLine
 10
807.31873973
 20
1276.0194914415
 30
0.0
 11
805.8964685976
 21
1292.2761218622
 31
0.0
  0
LINE
  5
13E
330
1F
100
AcDbEntity
  8
0
  6
Continuous
 62
     7
370
    15
100
AcDbLine
 10
787.9937367021
 20
744.4069722667
 30
0.0
 11
786.7568807184
 21
742.2646677121
 31
0.0
  0
LINE
  5
13F
330
1F
100
AcDbEntity
  8
0
  6
Continuous
 62
     7
370
    15
100
AcDbLine
 10
786.7568807184
 20
725.7646678015
 30
0.0
 11
787.9937367021
 21
723.6223632469
 31
0.0
  0
LINE
  5
140
330
1F
100
AcDbEntity
  8
0
  6
Continuous
 62
     7
370
    15
100
AcDbLine
 10
795.920021969
 20
723.6223632469
 30
0.0
 11
797.1568779527
 21
725.7646678015
 31
0.0
  0
LINE
  5
141
330
1F
100
AcDbEntity
  8
0
  6
Continuous
 62
     7
370
    15
100
AcDbLine
 10
797.1568779527
 20
742.2646677121
 30
0.0
 11
795.920021969
 21
744.4069722667
 31
0.0
  0
LINE
  5
142
330
1F
100
AcDbEntity
  8
0
  6
Continuous
 62
     7
370
    15
100
AcDbLine
 10
786.7568807184
 20
740.014667809
 30
0.0
 11
751.6568826019
 21
740.014667809
 31
0.0
  0
LINE
  5
143
330
1F
100
AcDbEntity
  8
0
  6
Continuous
 62
     7
370
    15
100
AcDbLine
 10
751.6568826019
 20
728.0146677047
 30
0.0
 11
786.7568807184
 21
728.0146677047
 31
0.0
  0
LINE
  5
144
330
1F
100
AcDbEntity
  8
0
  6
Continuous
 62
     7
370
    15
100
AcDbLine
 10
919.6568821996
 20
740.014667809
 30
0.0
 11
806.8787978469
 21
740.014667809
 31
0.0
  0
LINE
  5
145
330
1F
100
AcDbEntity
  8
0
  6
Continuous
 62
     7
370
    15
100
AcDbLine
 10
806.8788574516
 20
728.0146677047
 30
0.0
 11
919.6568821996
 21
728.0146677047
 31
0.0
  0
ARC
  5
146
330
1F
100
AcDbEntity
  8
0
  6
Continuous
 62
     7
370
    15
100
AcDbCircle
 10
812.2997187038
 20
191.5740778757
 30
0.0
 40
4.999999999999996
100
AcDbArc
 50
140.8757369347
 51
175.0
  0
ARC
  5
147
330
1F
100
AcDbEntity
  8
0
  6
Continuous
 62
     7
370
    15
100
AcDbCircle
 10
812.2997187038
 20
1276.4552576379
 30
0.0
 40
4.999999999999996
100
AcDbArc
 50
185.0
 51
219.1242630653
  0
LINE
  5
148
330
1F
100
AcDbEntity
  8
0
  6
Continuous
 62
     7
370
    15
100
AcDbLine
 10
919.6568821996
 20
1253.0146615579
 30
0.0
 11
839.656882125
 21
1253.0146615579
 31
0.0
  0
LINE
  5
149
330
1F
100
AcDbEntity
  8
0
  6
Continuous
 62
     7
370
    15
100
AcDbLine
 10
839.656882125
 20
215.0146739557
 30
0.0
 11
919.6568821996
 21
215.0146739557
 31
0.0
  0
LINE
  5
14A
330
1F
100
AcDbEntity
  8
0
  6
Continuous
 62
     7
370
    15
100
AcDbLine
 10
797.1568779527
 20
959.3490736559
 30
0.0
 11
799.6568755685
 21
959.3490736559
 31
0.0
  0
LINE
  5
14B
330
1F
100
AcDbEntity
  8
0
  6
Continuous
 62
     7
370
    15
100
AcDbLine
 10
799.6568755685
 20
983.3490775898
 30
0.0
 11
797.1568779527
 21
983.3490775898
 31
0.0
  0
LINE
  5
14C
330
1F
100
AcDbEntity
  8
0
  6
Continuous
 62
     7
370
    15
100
AcDbLine
 10
797.1568779527
 20
484.6802579238
 30
0.0
 11
799.6568755685
 21
484.6802579238
 31
0.0
  0
LINE
  5
14D
330
1F
100
AcDbEntity
  8
0
  6
Continuous
 62
     7
370
    15
100
AcDbLine
 10
799.6568755685
 20
508.6802618578
 30
0.0
 11
797.1568779527
 21
508.6802618578
 31
0.0
  0
LINE
  5
14E
330
1F
100
AcDbEntity
  8
0
  6
Continuous
 62
     7
370
    15
100
AcDbLine
 10
796.7059986173
 20
962.3181300237
 30
0.0
 11
797.1568779527
 21
963.0990700796
 31
0.0
  0
LINE
  5
14F
330
1F
100
AcDbEntity
  8
0
  6
Continuous
 62
     7
370
    15
100
AcDbLine
 10
797.1568779527
 20
979.5990662649
 30
0.0
 11
796.7059986173
 21
980.3800212219
 31
0.0
  0
LINE
  5
150
330
1F
100
AcDbEntity
  8
0
  6
Continuous
 62
     7
370
    15
100
AcDbLine
 10
787.2066573679
 20
980.3781138733
 30
0.0
 11
786.7568807184
 21
979.5990662649
 31
0.0
  0
LINE
  5
151
330
1F
100
AcDbEntity
  8
0
  6
Continuous
 62
     7
370
    15
100
AcDbLine
 10
786.7568807184
 20
963.0990700796
 30
0.0
 11
787.2066573679
 21
962.3200373724
 31
0.0
  0
LINE
  5
152
330
1F
100
AcDbEntity
  8
0
  6
Continuous
 62
     7
370
    15
100
AcDbLine
 10
796.7071013032
 20
487.6512216404
 30
0.0
 11
797.1568779527
 21
488.4302692487
 31
0.0
  0
LINE
  5
153
330
1F
100
AcDbEntity
  8
0
  6
Continuous
 62
     7
370
    15
100
AcDbLine
 10
797.1568779527
 20
504.930265434
 30
0.0
 11
796.7071013032
 21
505.7092981412
 31
0.0
  0
LINE
  5
154
330
1F
100
AcDbEntity
  8
0
  6
Continuous
 62
     7
370
    15
100
AcDbLine
 10
787.2077600538
 20
505.7112054899
 30
0.0
 11
786.7568807184
 21
504.930265434
 31
0.0
  0
LINE
  5
155
330
1F
100
AcDbEntity
  8
0
  6
Continuous
 62
     7
370
    15
100
AcDbLine
 10
786.7568807184
 20
488.4302692487
 30
0.0
 11
787.2077600538
 21
487.6493142917
 31
0.0
  0
LINE
  5
156
330
1F
100
AcDbEntity
  8
0
  6
Continuous
 62
     7
370
    15
100
AcDbLine
 10
786.7568807184
 20
977.3490803316
 30
0.0
 11
751.6568826019
 21
977.3490803316
 31
0.0
  0
LINE
  5
157
330
1F
100
AcDbEntity
  8
0
  6
Continuous
 62
     7
370
    15
100
AcDbLine
 10
751.6568826019
 20
965.349070914
 30
0.0
 11
786.7568807184
 21
965.349070914
 31
0.0
  0
LINE
  5
158
330
1F
100
AcDbEntity
  8
0
  6
Continuous
 62
     7
370
    15
100
AcDbLine
 10
919.6568821996
 20
977.3490803316
 30
0.0
 11
806.6518084585
 21
977.3490803316
 31
0.0
  0
LINE
  5
159
330
1F
100
AcDbEntity
  8
0
  6
Continuous
 62
     7
370
    15
100
AcDbLine
 10
807.1063534795
 20
965.349070914
 30
0.0
 11
919.6568821996
 21
965.349070914
 31
0.0
  0
LINE
  5
15A
330
1F
100
AcDbEntity
  8
0
  6
Continuous
 62
     7
370
    15
100
AcDbLine
 10
786.7568807184
 20
502.6802645996
 30
0.0
 11
751.6568826019
 21
502.6802645996
 31
0.0
  0
LINE
  5
15B
330
1F
100
AcDbEntity
  8
0
  6
Continuous
 62
     7
370
    15
100
AcDbLine
 10
751.6568826019
 20
490.680255182
 30
0.0
 11
786.7568807184
 21
490.680255182
 31
0.0
  0
LINE
  5
15C
330
1F
100
AcDbEntity
  8
0
  6
Continuous
 62
     7
370
    15
100
AcDbLine
 10
919.6568821996
 20
502.6802645996
 30
0.0
 11
807.1063534795
 21
502.6802645996
 31
0.0
  0
LINE
  5
15D
330
1F
100
AcDbEntity
  8
0
  6
Continuous
 62
     7
370
    15
100
AcDbLine
 10
806.6518084585
 20
490.680255182
 30
0.0
 11
919.6568821996
 21
490.680255182
 31
0.0
  0
LINE
  5
15E
330
1F
100
AcDbEntity
  8
0
  6
Continuous
 62
     7
370
    15
100
AcDbLine
 10
797.1568779527
 20
1149.6764795854
 30
0.0
 11
799.6568755685
 21
1149.6764795854
 31
0.0
  0
LINE
  5
15F
330
1F
100
AcDbEntity
  8
0
  6
Continuous
 62
     7
370
    15
100
AcDbLine
 10
799.6568755685
 20
1173.6764984205
 30
0.0
 11
797.1568779527
 21
1173.6764984205
 31
0.0
  0
LINE
  5
160
330
1F
100
AcDbEntity
  8
0
  6
Continuous
 62
     7
370
    15
100
AcDbLine
 10
797.1568779527
 20
294.3528370931
 30
0.0
 11
799.6568755685
 21
294.3528370931
 31
0.0
  0
LINE
  5
161
330
1F
100
AcDbEntity
  8
0
  6
Continuous
 62
     7
370
    15
100
AcDbLine
 10
799.6568755685
 20
318.3528559282
 30
0.0
 11
797.1568779527
 21
318.3528559282
 31
0.0
  0
LINE
  5
162
330
1F
100
AcDbEntity
  8
0
  6
Continuous
 62
     7
370
    15
100
AcDbLine
 10
787.5779943048
 20
1171.3486986234
 30
0.0
 11
786.7568807184
 21
1169.9265019968
 31
0.0
  0
LINE
  5
163
330
1F
100
AcDbEntity
  8
0
  6
Continuous
 62
     7
370
    15
100
AcDbLine
 10
786.7568807184
 20
1153.4264760091
 30
0.0
 11
787.5779943048
 21
1152.0042793825
 31
0.0
  0
LINE
  5
164
330
1F
100
AcDbEntity
  8
0
  6
Continuous
 62
     7
370
    15
100
AcDbLine
 10
796.3303999483
 20
1151.9949810579
 30
0.0
 11
797.1568779527
 21
1153.4264760091
 31
0.0
  0
LINE
  5
165
330
1F
100
AcDbEntity
  8
0
  6
Continuous
 62
     7
370
    15
100
AcDbLine
 10
797.1568779527
 20
1169.9265019968
 30
0.0
 11
796.3303999483
 21
1171.357996948
 31
0.0
  0
LINE
  5
166
330
1F
100
AcDbEntity
  8
0
  6
Continuous
 62
     7
370
    15
100
AcDbLine
 10
787.583373624
 20
316.0343544557
 30
0.0
 11
786.7568807184
 21
314.6028595045
 31
0.0
  0
LINE
  5
167
330
1F
100
AcDbEntity
  8
0
  6
Continuous
 62
     7
370
    15
100
AcDbLine
 10
786.7568807184
 20
298.1028335168
 30
0.0
 11
787.583373624
 21
296.6713385656
 31
0.0
  0
LINE
  5
168
330
1F
100
AcDbEntity
  8
0
  6
Continuous
 62
     7
370
    15
100
AcDbLine
 10
796.3357643663
 20
296.6806368902
 30
0.0
 11
797.1568779527
 21
298.1028335168
 31
0.0
  0
LINE
  5
169
330
1F
100
AcDbEntity
  8
0
  6
Continuous
 62
     7
370
    15
100
AcDbLine
 10
797.1568779527
 20
314.6028595045
 30
0.0
 11
796.3357643663
 21
316.0250561311
 31
0.0
  0
LINE
  5
16A
330
1F
100
AcDbEntity
  8
0
  6
Continuous
 62
     7
370
    15
100
AcDbLine
 10
786.7568807184
 20
1167.6764862611
 30
0.0
 11
751.6568826019
 21
1167.6764862611
 31
0.0
  0
LINE
  5
16B
330
1F
100
AcDbEntity
  8
0
  6
Continuous
 62
     7
370
    15
100
AcDbLine
 10
751.6568826019
 20
1155.6764917448
 30
0.0
 11
786.7568807184
 21
1155.6764917448
 31
0.0
  0
LINE
  5
16C
330
1F
100
AcDbEntity
  8
0
  6
Continuous
 62
     7
370
    15
100
AcDbLine
 10
919.6568821996
 20
1167.6764862611
 30
0.0
 11
806.4714299022
 21
1167.6764862611
 31
0.0
  0
LINE
  5
16D
330
1F
100
AcDbEntity
  8
0
  6
Continuous
 62
     7
370
    15
100
AcDbLine
 10
807.2897569715
 20
1155.6764917448
 30
0.0
 11
919.6568821996
 21
1155.6764917448
 31
0.0
  0
LINE
  5
16E
330
1F
100
AcDbEntity
  8
0
  6
Continuous
 62
     7
370
    15
100
AcDbLine
 10
786.7568807184
 20
312.3528437688
 30
0.0
 11
751.6568826019
 21
312.3528437688
 31
0.0
  0
LINE
  5
16F
330
1F
100
AcDbEntity
  8
0
  6
Continuous
 62
     7
370
    15
100
AcDbLine
 10
751.6568826019
 20
300.3528492525
 30
0.0
 11
786.7568807184
 21
300.3528492525
 31
0.0
  0
LINE
  5
170
330
1F
100
AcDbEntity
  8
0
  6
Continuous
 62
     7
370
    15
100
AcDbLine
 10
919.6568821996
 20
312.3528437688
 30
0.0
 11
807.2897569715
 21
312.3528437688
 31
0.0
  0
LINE
  5
171
330
1F
100
AcDbEntity
  8
0
  6
Continuous
 62
     7
370
    15
100
AcDbLine
 10
806.4714299022
 20
300.3528492525
 30
0.0
 11
919.6568821996
 21
300.3528492525
 31
0.0
  0
LINE
  5
172
330
1F
100
AcDbEntity
  8
0
  6
Continuous
 62
     7
370
    15
100
AcDbLine
 10
797.1568779527
 20
1255.3002612665
 30
0.0
 11
799.6568755685
 21
1255.3002612665
 31
0.0
  0
LINE
  5
173
330
1F
100
AcDbEntity
  8
0
  6
Continuous
 62
     7
370
    15
100
AcDbLine
 10
799.6568755685
 20
1279.3002502992
 30
0.0
 11
797.1568779527
 21
1279.3002502992
 31
0.0
  0
LINE
  5
174
330
1F
100
AcDbEntity
  8
0
  6
Continuous
 62
     7
370
    15
100
AcDbLine
 10
797.1568779527
 20
188.7290852144
 30
0.0
 11
799.6568755685
 21
188.7290852144
 31
0.0
  0
LINE
  5
175
330
1F
100
AcDbEntity
  8
0
  6
Continuous
 62
     7
370
    15
100
AcDbLine
 10
799.6568755685
 20
212.7290742471
 30
0.0
 11
797.1568779527
 21
212.7290742471
 31
0.0
  0
LINE
  5
176
330
1F
100
AcDbEntity
  8
0
  6
Continuous
 62
     7
370
    15
100
AcDbLine
 10
787.3265968143
 20
1276.5370385721
 30
0.0
 11
786.7568807184
 21
1275.5502240732
 31
0.0
  0
LINE
  5
177
330
1F
100
AcDbEntity
  8
0
  6
Continuous
 62
     7
370
    15
100
AcDbLine
 10
786.7568807184
 20
1259.0502278879
 30
0.0
 11
787.3290853082
 21
1258.0591218546
 31
0.0
  0
LINE
  5
178
330
1F
100
AcDbEntity
  8
0
  6
Continuous
 62
     7
370
    15
100
AcDbLine
 10
796.5846137582
 20
1258.0590026453
 30
0.0
 11
797.1568779527
 21
1259.0502278879
 31
0.0
  0
LINE
  5
179
330
1F
100
AcDbEntity
  8
0
  6
Continuous
 62
     7
370
    15
100
AcDbLine
 10
797.1568779527
 20
1275.5502240732
 30
0.0
 11
796.5872065603
 21
1276.5369193628
 31
0.0
  0
LINE
  5
17A
330
1F
100
AcDbEntity
  8
0
  6
Continuous
 62
     7
370
    15
100
AcDbLine
 10
787.3265521108
 20
209.9658029153
 30
0.0
 11
786.7568807184
 21
208.9791076257
 31
0.0
  0
LINE
  5
17B
330
1F
100
AcDbEntity
  8
0
  6
Continuous
 62
     7
370
    15
100
AcDbLine
 10
786.7568807184
 20
192.4791114404
 30
0.0
 11
787.329159814
 21
191.4878861978
 31
0.0
  0
LINE
  5
17C
330
1F
100
AcDbEntity
  8
0
  6
Continuous
 62
     7
370
    15
100
AcDbLine
 10
796.5846733629
 20
191.4880054071
 30
0.0
 11
797.1568779527
 21
192.4791114404
 31
0.0
  0
LINE
  5
17D
330
1F
100
AcDbEntity
  8
0
  6
Continuous
 62
     7
370
    15
100
AcDbLine
 10
797.1568779527
 20
208.9791076257
 30
0.0
 11
796.5871618568
 21
209.96586252
 31
0.0
  0
LINE
  5
17E
330
1F
100
AcDbEntity
  8
0
  6
Continuous
 62
     7
370
    15
100
AcDbLine
 10
786.7568807184
 20
1273.3002083376
 30
0.0
 11
751.6568826019
 21
1273.3002083376
 31
0.0
  0
LINE
  5
17F
330
1F
100
AcDbEntity
  8
0
  6
Continuous
 62
     7
370
    15
100
AcDbLine
 10
751.6568826019
 20
1261.3002436235
 30
0.0
 11
786.7568807184
 21
1261.3002436235
 31
0.0
  0
LINE
  5
180
330
1F
100
AcDbEntity
  8
0
  6
Continuous
 62
     7
370
    15
100
AcDbLine
 10
919.6568821996
 20
1273.3002083376
 30
0.0
 11
806.3567952692
 21
1273.3002083376
 31
0.0
  0
LINE
  5
181
330
1F
100
AcDbEntity
  8
0
  6
Continuous
 62
     7
370
    15
100
AcDbLine
 10
807.4662612258
 20
1261.3002436235
 30
0.0
 11
919.6568821996
 21
1261.3002436235
 31
0.0
  0
LINE
  5
182
330
1F
100
AcDbEntity
  8
0
  6
Continuous
 62
     7
370
    15
100
AcDbLine
 10
786.7568807184
 20
206.7290918901
 30
0.0
 11
751.6568826019
 21
206.7290918901
 31
0.0
  0
LINE
  5
183
330
1F
100
AcDbEntity
  8
0
  6
Continuous
 62
     7
370
    15
100
AcDbLine
 10
751.6568826019
 20
194.7291271761
 30
0.0
 11
786.7568807184
 21
194.7291271761
 31
0.0
  0
LINE
  5
184
330
1F
100
AcDbEntity
  8
0
  6
Continuous
 62
     7
370
    15
100
AcDbLine
 10
919.6568821996
 20
206.7290918901
 30
0.0
 11
807.4663059293
 21
206.7290918901
 31
0.0
  0
LINE
  5
185
330
1F
100
AcDbEntity
  8
0
  6
Continuous
 62
     7
370
    15
100
AcDbLine
 10
806.3567952692
 20
194.7291271761
 30
0.0
 11
919.6568821996
 21
194.7291271761
 31
0.0
  0
LINE
  5
186
330
1F
100
AcDbEntity
  8
0
  6
Continuous
 62
     7
370
    15
100
AcDbLine
 10
796.5871618568
 20
209.96586252
 30
0.0
 11
796.5846137582
 21
209.9703328683
 31
0.0
  0
LINE
  5
187
330
1F
100
AcDbEntity
  8
0
  6
Continuous
 62
     7
370
    15
100
AcDbLine
 10
787.3290853082
 20
209.9702136591
 30
0.0
 11
787.3265521108
 21
209.9658029153
 31
0.0
  0
LINE
  5
188
330
1F
100
AcDbEntity
  8
0
  6
Continuous
 62
     7
370
    15
100
AcDbLine
 10
787.583373624
 20
1171.357996948
 30
0.0
 11
787.5779943048
 21
1171.3486986234
 31
0.0
  0
LINE
  5
189
330
1F
100
AcDbEntity
  8
0
  6
Continuous
 62
     7
370
    15
100
AcDbLine
 10
796.3303999483
 20
296.6713385656
 30
0.0
 11
796.3357643663
 21
296.6806368902
 31
0.0
  0
LINE
  5
18A
330
1F
100
AcDbEntity
  8
0
  6
Continuous
 62
     7
370
    15
100
AcDbLine
 10
787.2066573679
 20
962.3200373724
 30
0.0
 11
787.2077600538
 21
962.3181300237
 31
0.0
  0
LINE
  5
18B
330
1F
100
AcDbEntity
  8
0
  6
Continuous
 62
     7
370
    15
100
AcDbLine
 10
796.7071013032
 20
505.7092981412
 30
0.0
 11
796.7059986173
 21
505.7112054899
 31
0.0
  0
LINE
  5
18C
330
1F
100
AcDbEntity
  8
0
  6
Continuous
 62
     7
370
    15
100
AcDbLine
 10
949.656881529
 20
734.0146677568
 30
0.0
 11
949.656881529
 21
1361.5146653726
 31
0.0
  0
LINE
  5
18D
330
1F
100
AcDbEntity
  8
0
  6
Continuous
 62
     7
370
    15
100
AcDbLine
 10
949.656881529
 20
106.514670141
 30
0.0
 11
949.656881529
 21
734.0146677568
 31
0.0
  0
LINE
  5
18E
330
1F
100
AcDbEntity
  8
0
  6
Continuous
 62
     7
370
    15
100
AcDbLine
 10
919.6568821996
 20
734.0146677568
 30
0.0
 11
919.6568821996
 21
1361.5146653726
 31
0.0
  0
LINE
  5
18F
330
1F
100
AcDbEntity
  8
0
  6
Continuous
 62
     7
370
    15
100
AcDbLine
 10
919.6568821996
 20
106.514670141
 30
0.0
 11
919.6568821996
 21
734.0146677568
 31
0.0
  0
LINE
  5
190
330
1F
100
AcDbEntity
  8
0
  6
Continuous
 62
     7
370
    15
100
AcDbLine
 10
799.6568755685
 20
734.0146677568
 30
0.0
 11
799.6568755685
 21
1295.0146572664
 31
0.0
  0
LINE
  5
191
330
1F
100
AcDbEntity
  8
0
  6
Continuous
 62
     7
370
    15
100
AcDbLine
 10
799.6568755685
 20
173.0146782472
 30
0.0
 11
799.6568755685
 21
734.0146677568
 31
0.0
  0
LINE
  5
192
330
1F
100
AcDbEntity
  8
0
  6
Continuous
 62
     7
370
    15
100
AcDbLine
 10
797.1568779527
 20
722.0146676525
 30
0.0
 11
797.1568779527
 21
746.0146678611
 31
0.0
  0
SPLINE
  5
193
330
1F
100
AcDbEntity
  8
0
  6
Continuous
 62
     7
370
    15
100
AcDbSpline
210
0.0
220
0.0
230
1.0
 70
     8
 71
     3
 72
    24
 73
    20
 74
     0
 42
0.00000001
 43
0.00000001
 12
1.0
 22
0.0
 32
0.0
 13
1.0
 23
0.0
 33
0.0
 40
0.0
 40
0.0
 40
0.0
 40
0.0
 40
0.0179640811536897
 40
0.0784225017032993
 40
0.1387371836240019
 40
0.1990526849200956
 40
0.2593602357143204
 40
0.3196664584707151
 40
0.3801053270810761
 40
0.440540432249905
 40
0.5011924482839236
 40
0.5618438590291973
 40
0.6227039763704398
 40
0.6835599006887942
 40
0.7445274975667465
 40
0.8054942424507081
 40
0.8664239411642741
 40
0.927352297961535
 40
1.0
 40
1.0
 40
1.0
 40
1.0
 10
806.3713388024851
 20
1273.282028920897
 30
0.0
 10
806.3689860988661
 20
1273.287066587357
 30
0.0
 10
806.358715331216
 20
1273.309058605936
 30
0.0
 10
806.3549448158122
 20
1273.178047174259
 30
0.0
 10
806.3611186680764
 20
1272.884288370763
 30
0.0
 10
806.3825633335975
 20
1272.424108958786
 30
0.0
 10
806.4179228468281
 20
1271.820153384369
 30
0.0
 10
806.4660810535934
 20
1271.090626474383
 30
0.0
 10
806.5260442765932
 20
1270.2521868448
 30
0.0
 10
806.5959505558624
 20
1269.331091635599
 30
0.0
 10
806.6741237178389
 20
1268.350833849898
 30
0.0
 10
806.7582467996343
 20
1267.339562025052
 30
0.0
 10
806.8461005582675
 20
1266.326300856055
 30
0.0
 10
806.9351928232376
 20
1265.338528248588
 30
0.0
 10
807.0228185838963
 20
1264.407412998163
 30
0.0
 10
807.1067169068062
 20
1263.555806061516
 30
0.0
 10
807.1838491691988
 20
1262.816538091501
 30
0.0
 10
807.2579479373563
 20
1262.150629285299
 30
0.0
 10
807.2973242344441
 20
1261.848522735399
 30
0.0
 10
807.3187397300287
 20
1261.684216745147
 30
0.0
  0
SPLINE
  5
194
330
1F
100
AcDbEntity
  8
0
  6
Continuous
 62
     7
370
    15
100
AcDbSpline
210
0.0
220
0.0
230
1.0
 70
     8
 71
     3
 72
    27
 73
    23
 74
     0
 42
0.00000001
 43
0.00000001
 12
1.0
 22
0.0
 32
0.0
 13
1.0
 23
0.0
 33
0.0
 40
0.0
 40
0.0
 40
0.0
 40
0.0
 40
0.0210842922363486
 40
0.0705310565853866
 40
0.1241838831226144
 40
0.1778383519824422
 40
0.2316929890753859
 40
0.2855451734217239
 40
0.3395253939389793
 40
0.3935064118153502
 40
0.4474882625153687
 40
0.5014692793974399
 40
0.5553264116482751
 40
0.6091838869788431
 40
0.6628474733638493
 40
0.7165101541120129
 40
0.7699951287788341
 40
0.8234793348595091
 40
0.8768781818810577
 40
0.9302762120741046
 40
0.9837154623319994
 40
1.0
 40
1.0
 40
1.0
 40
1.0
 10
807.2897569715067
 20
1155.694432742843
 30
0.0
 10
807.2827505551802
 20
1155.690339418691
 30
0.0
 10
807.2593127304312
 20
1155.676646453611
 30
0.0
 10
807.2076460796626
 20
1155.80875736139
 30
0.0
 10
807.1359212470996
 20
1156.100222386507
 30
0.0
 10
807.0545424943842
 20
1156.564076469607
 30
0.0
 10
806.9683212924325
 20
1157.173780360933
 30
0.0
 10
806.879534523937
 20
1157.910875705523
 30
0.0
 10
806.790843694021
 20
1158.757945043536
 30
0.0
 10
806.7047170293795
 20
1159.687721402327
 30
0.0
 10
806.6237162616445
 20
1160.675908661075
 30
0.0
 10
806.5500372845048
 20
1161.691969659751
 30
0.0
 10
806.4860034542132
 20
1162.707419930235
 30
0.0
 10
806.4330771622784
 20
1163.692706155008
 30
0.0
 10
806.3931309694667
 20
1164.618713577989
 30
0.0
 10
806.3667237519521
 20
1165.461071086415
 30
0.0
 10
806.3551007243212
 20
1166.193435631612
 30
0.0
 10
806.3579479900056
 20
1166.798746312849
 30
0.0
 10
806.3754773261335
 20
1167.259383746504
 30
0.0
 10
806.4076914639845
 20
1167.553476358467
 30
0.0
 10
806.4404162080921
 20
1167.684731903216
 30
0.0
 10
806.4655578698735
 20
1167.663189281238
 30
0.0
 10
806.4714299022241
 20
1167.658157832869
 30
0.0
  0
SPLINE
  5
195
330
1F
100
AcDbEntity
  8
0
  6
Continuous
 62
     7
370
    15
100
AcDbSpline
210
0.0
220
0.0
230
1.0
 70
     8
 71
     3
 72
    27
 73
    23
 74
     0
 42
0.00000001
 43
0.00000001
 12
1.0
 22
0.0
 32
0.0
 13
1.0
 23
0.0
 33
0.0
 40
0.0
 40
0.0
 40
0.0
 40
0.0
 40
0.0301056596708655
 40
0.0839507515965285
 40
0.1377965176468889
 40
0.1917741462990283
 40
0.2457516848612787
 40
0.2997369212970704
 40
0.3537221235991554
 40
0.4075879524406096
 40
0.461452247985628
 40
0.5151257007192713
 40
0.5687978535605747
 40
0.622289580474051
 40
0.6757823540783214
 40
0.729181653593093
 40
0.7825822169709371
 40
0.8360165974776335
 40
0.8894530337409174
 40
0.9430337981119528
 40
0.9966156946371016
 40
1.0
 40
1.0
 40
1.0
 40
1.0
 10
807.1063534795328
 20
965.3703199699007
 30
0.0
 10
807.0915038917923
 20
965.3671804366975
 30
0.0
 10
807.050095264134
 20
965.3584257316033
 30
0.0
 10
806.9759683354266
 20
965.5344491250455
 30
0.0
 10
806.8875656277578
 20
965.873178775239
 30
0.0
 10
806.7987108063697
 20
966.3795193229322
 30
0.0
 10
806.7122429923987
 20
967.0234313175462
 30
0.0
 10
806.6306921289787
 20
967.7944981300928
 30
0.0
 10
806.5562638589074
 20
968.6649294100822
 30
0.0
 10
806.4913058177542
 20
969.6136677453283
 30
0.0
 10
806.4372951841026
 20
970.6097044371953
 30
0.0
 10
806.396173176838
 20
971.6266116007146
 30
0.0
 10
806.3684896554563
 20
972.6339193868043
 30
0.0
 10
806.3555572451082
 20
973.6031602028388
 30
0.0
 10
806.3570401210231
 20
974.5084613428894
 30
0.0
 10
806.3734683404405
 20
975.3219974551654
 30
0.0
 10
806.4037607110578
 20
976.0257465061268
 30
0.0
 10
806.4477166885474
 20
976.5935144824467
 30
0.0
 10
806.503392194526
 20
977.0219252394879
 30
0.0
 10
806.5706357190909
 20
977.268379155556
 30
0.0
 10
806.6210076192177
 20
977.3738223940745
 30
0.0
 10
806.6500812245181
 20
977.3456855204286
 30
0.0
 10
806.6518084584757
 20
977.3440139367663
 30
0.0
  0
SPLINE
  5
196
330
1F
100
AcDbEntity
  8
0
  6
Continuous
 62
     7
370
    15
100
AcDbSpline
210
0.0
220
0.0
230
1.0
 70
     8
 71
     3
 72
    27
 73
    23
 74
     0
 42
0.00000001
 43
0.00000001
 12
1.0
 22
0.0
 32
0.0
 13
1.0
 23
0.0
 33
0.0
 40
0.0
 40
0.0
 40
0.0
 40
0.0
 40
0.0080493898352874
 40
0.0620360211374019
 40
0.116024061092992
 40
0.1700000821159602
 40
0.2239780014880896
 40
0.2778217791009029
 40
0.3316665806097578
 40
0.3853146928611995
 40
0.4389631440224487
 40
0.492438536997555
 40
0.5459137625405394
 40
0.5993119119616757
 40
0.6527093218930603
 40
0.7061588078202121
 40
0.7596075675472226
 40
0.8132138627103616
 40
0.8668193116211439
 40
0.9206201088929128
 40
0.9744256597617639
 40
1.0
 40
1.0
 40
1.0
 40
1.0
 10
806.8787978469416
 20
740.0037177837871
 30
0.0
 10
806.87439194575
 20
740.0072291378742
 30
0.0
 10
806.8404360080892
 20
740.0342908706043
 30
0.0
 10
806.7769707648549
 20
739.9182460923872
 30
0.0
 10
806.6914633867441
 20
739.6520030596865
 30
0.0
 10
806.6115229054591
 20
739.2046026837058
 30
0.0
 10
806.539198540443
 20
738.6163383842209
 30
0.0
 10
806.476841477804
 20
737.8926162326607
 30
0.0
 10
806.42584636335
 20
737.0619217440429
 30
0.0
 10
806.3880205073165
 20
736.1430302923377
 30
0.0
 10
806.3639017603074
 20
735.1667390832057
 30
0.0
 10
806.3545798770758
 20
734.1579597015051
 30
0.0
 10
806.3597202263642
 20
733.1467478394542
 30
0.0
 10
806.379723139395
 20
732.1612556363815
 30
0.0
 10
806.4134358881514
 20
731.2273409637902
 30
0.0
 10
806.4604644844584
 20
730.3738620890985
 30
0.0
 10
806.5190867004557
 20
729.6200306246006
 30
0.0
 10
806.5881429146132
 20
728.9931649592309
 30
0.0
 10
806.6654512673424
 20
728.5018602995896
 30
0.0
 10
806.7491173460542
 20
728.1788956476956
 30
0.0
 10
806.8212515368882
 20
728.0173597290208
 30
0.0
 10
806.8648205400361
 20
728.0317210741092
 30
0.0
 10
806.8788574515863
 20
728.0363479628645
 30
0.0
  0
SPLINE
  5
197
330
1F
100
AcDbEntity
  8
0
  6
Continuous
 62
     7
370
    15
100
AcDbSpline
210
0.0
220
0.0
230
1.0
 70
     8
 71
     3
 72
    27
 73
    23
 74
     0
 42
0.00000001
 43
0.00000001
 12
1.0
 22
0.0
 32
0.0
 13
1.0
 23
0.0
 33
0.0
 40
0.0
 40
0.0
 40
0.0
 40
0.0
 40
0.0301056596708655
 40
0.0839507515965285
 40
0.1377965176468889
 40
0.1917741462990283
 40
0.2457516848612787
 40
0.2997369212970704
 40
0.3537221235991554
 40
0.4075879524406096
 40
0.461452247985628
 40
0.5151257007192713
 40
0.5687978535605747
 40
0.622289580474051
 40
0.6757823540783214
 40
0.729181653593093
 40
0.7825822169709371
 40
0.8360165974776335
 40
0.8894530337409174
 40
0.9430337981119528
 40
0.9966156946371016
 40
1.0
 40
1.0
 40
1.0
 40
1.0
 10
807.1063534795328
 20
502.6590155437075
 30
0.0
 10
807.0915038917923
 20
502.6621550769108
 30
0.0
 10
807.050095264134
 20
502.6709097820049
 30
0.0
 10
806.9759683354266
 20
502.4948863885627
 30
0.0
 10
806.8875656277578
 20
502.1561567383692
 30
0.0
 10
806.7987108063697
 20
501.6498161906761
 30
0.0
 10
806.7122429923987
 20
501.005904196062
 30
0.0
 10
806.6306921289787
 20
500.2348373835154
 30
0.0
 10
806.5562638589074
 20
499.3644061035261
 30
0.0
 10
806.4913058177542
 20
498.4156677682799
 30
0.0
 10
806.4372951841026
 20
497.4196310764129
 30
0.0
 10
806.396173176838
 20
496.4027239128936
 30
0.0
 10
806.3684896554563
 20
495.3954161268039
 30
0.0
 10
806.3555572451082
 20
494.4261753107695
 30
0.0
 10
806.3570401210231
 20
493.5208741707189
 30
0.0
 10
806.3734683404405
 20
492.7073380584429
 30
0.0
 10
806.4037607110578
 20
492.0035890074814
 30
0.0
 10
806.4477166885474
 20
491.4358210311616
 30
0.0
 10
806.503392194526
 20
491.0074102741203
 30
0.0
 10
806.5706357190909
 20
490.7609563580523
 30
0.0
 10
806.6210076192177
 20
490.6555131195337
 30
0.0
 10
806.6500812245181
 20
490.6836499931797
 30
0.0
 10
806.6518084584757
 20
490.6853215768419
 30
0.0
  0
SPLINE
  5
198
330
1F
100
AcDbEntity
  8
0
  6
Continuous
 62
     7
370
    15
100
AcDbSpline
210
0.0
220
0.0
230
1.0
 70
     8
 71
     3
 72
    27
 73
    23
 74
     0
 42
0.00000001
 43
0.00000001
 12
1.0
 22
0.0
 32
0.0
 13
1.0
 23
0.0
 33
0.0
 40
0.0
 40
0.0
 40
0.0
 40
0.0
 40
0.0210842922363486
 40
0.0705310565853866
 40
0.1241838831226144
 40
0.1778383519824422
 40
0.2316929890753859
 40
0.2855451734217239
 40
0.3395253939389793
 40
0.3935064118153502
 40
0.4474882625153687
 40
0.5014692793974399
 40
0.5553264116482751
 40
0.6091838869788431
 40
0.6628474733638493
 40
0.7165101541120129
 40
0.7699951287788341
 40
0.8234793348595091
 40
0.8768781818810577
 40
0.9302762120741046
 40
0.9837154623319994
 40
1.0
 40
1.0
 40
1.0
 40
1.0
 10
807.2897569715067
 20
312.3349027707659
 30
0.0
 10
807.2827505551802
 20
312.3389960949171
 30
0.0
 10
807.2593127304312
 20
312.3526890599972
 30
0.0
 10
807.2076460796626
 20
312.2205781522177
 30
0.0
 10
807.1359212470996
 20
311.9291131271014
 30
0.0
 10
807.0545424943842
 20
311.4652590440017
 30
0.0
 10
806.9683212924325
 20
310.855555152675
 30
0.0
 10
806.879534523937
 20
310.1184598080856
 30
0.0
 10
806.790843694021
 20
309.2713904700725
 30
0.0
 10
806.7047170293795
 20
308.3416141112814
 30
0.0
 10
806.6237162616445
 20
307.3534268525329
 30
0.0
 10
806.5500372845048
 20
306.3373658538575
 30
0.0
 10
806.4860034542132
 20
305.321915583373
 30
0.0
 10
806.4330771622784
 20
304.3366293586001
 30
0.0
 10
806.3931309694667
 20
303.4106219356192
 30
0.0
 10
806.3667237519521
 20
302.5682644271934
 30
0.0
 10
806.3551007243212
 20
301.8358998819966
 30
0.0
 10
806.3579479900056
 20
301.2305892007596
 30
0.0
 10
806.3754773261335
 20
300.7699517671042
 30
0.0
 10
806.4076914639845
 20
300.4758591551411
 30
0.0
 10
806.4404162080921
 20
300.344603610392
 30
0.0
 10
806.4655578698735
 20
300.3661462323698
 30
0.0
 10
806.4714299022241
 20
300.371177680739
 30
0.0
  0
SPLINE
  5
199
330
1F
100
AcDbEntity
  8
0
  6
Continuous
 62
     7
370
    15
100
AcDbSpline
210
0.0
220
0.0
230
1.0
 70
     8
 71
     3
 72
    24
 73
    20
 74
     0
 42
0.00000001
 43
0.00000001
 12
1.0
 22
0.0
 32
0.0
 13
1.0
 23
0.0
 33
0.0
 40
0.0
 40
0.0
 40
0.0
 40
0.0
 40
0.0585320162930488
 40
0.1170639443460757
 40
0.1776557891139048
 40
0.2382456708298498
 40
0.2990592929581947
 40
0.3598747179919651
 40
0.4208261321458049
 40
0.481779256171742
 40
0.5427239362142772
 40
0.6036695341817552
 40
0.6644726187455952
 40
0.7252706699725718
 40
0.7858523935370884
 40
0.8464326701158157
 40
0.906814810519017
 40
0.9671966078554819
 40
1.0
 40
1.0
 40
1.0
 40
1.0
 10
807.3187397300287
 20
206.3451187684617
 30
0.0
 10
807.3017320981442
 20
206.2157716030176
 30
0.0
 10
807.2677168600147
 20
205.957077467127
 30
0.0
 10
807.2027160424271
 20
205.3865601706707
 30
0.0
 10
807.1288277800166
 20
204.6898616955234
 30
0.0
 10
807.0470040764153
 20
203.8717930653497
 30
0.0
 10
806.9604214059558
 20
202.9627990344284
 30
0.0
 10
806.8715444012578
 20
201.9896390631636
 30
0.0
 10
806.782987464141
 20
200.9790411786041
 30
0.0
 10
806.6971993929523
 20
199.9604629812708
 30
0.0
 10
806.6167894120047
 20
198.9639215817732
 30
0.0
 10
806.5438660187772
 20
198.0171040222768
 30
0.0
 10
806.4807831598929
 20
197.149612558297
 30
0.0
 10
806.428936707576
 20
196.383284486103
 30
0.0
 10
806.3902242052862
 20
195.7443639158436
 30
0.0
 10
806.3649643335737
 20
195.2430930585211
 30
0.0
 10
806.3551971104207
 20
194.9091990234612
 30
0.0
 10
806.3569499522106
 20
194.7370802107009
 30
0.0
 10
806.3677907914133
 20
194.7469364165206
 30
0.0
 10
806.3716070233866
 20
194.7504060342394
 30
0.0
  0
SPLINE
  5
19A
330
1F
100
AcDbEntity
  8
0
  6
Continuous
 62
     7
370
    15
100
AcDbSpline
210
0.0
220
0.0
230
1.0
 70
     8
 71
     3
 72
    16
 73
    12
 74
     0
 42
0.00000001
 43
0.00000001
 12
1.0
 22
0.0
 32
0.0
 13
1.0
 23
0.0
 33
0.0
 40
0.0
 40
0.0
 40
0.0
 40
0.0
 40
0.2499999999999796
 40
0.2499999999999796
 40
0.4999999999999591
 40
0.4999999999999591
 40
0.6249999999999626
 40
0.6249999999999626
 40
0.749999999999966
 40
0.749999999999966
 40
1.0
 40
1.0
 40
1.0
 40
1.0
 10
787.993741808187
 20
739.2108201795068
 30
0.0
 10
787.7488202936046
 20
739.6350366866302
 30
0.0
 10
787.5469605735681
 20
740.062346092441
 30
0.0
 10
787.2673193019712
 20
740.9258767761393
 30
0.0
 10
787.1904601672427
 20
741.362164306301
 30
0.0
 10
787.1896160060736
 20
742.0248155416115
 30
0.0
 10
787.2084050927436
 20
742.2467385993924
 30
0.0
 10
787.2816725848245
 20
742.6857258183875
 30
0.0
 10
787.3360766364879
 20
742.9037476668354
 30
0.0
 10
787.54615569484
 20
743.5539316310553
 30
0.0
 10
787.7485149880072
 20
743.9822272902833
 30
0.0
 10
787.9937418081872
 20
744.4069726022135
 30
0.0
  0
SPLINE
  5
19B
330
1F
100
AcDbEntity
  8
0
  6
Continuous
 62
     7
370
    15
100
AcDbSpline
210
0.0
220
0.0
230
1.0
 70
     8
 71
     3
 72
    16
 73
    12
 74
     0
 42
0.00000001
 43
0.00000001
 12
1.0
 22
0.0
 32
0.0
 13
1.0
 23
0.0
 33
0.0
 40
0.0
 40
0.0
 40
0.0
 40
0.0
 40
0.25
 40
0.25
 40
0.5
 40
0.5
 40
0.625
 40
0.625
 40
0.75
 40
0.75
 40
1.0
 40
1.0
 40
1.0
 40
1.0
 10
787.9937418081873
 20
739.210820179507
 30
0.0
 10
787.749766511657
 20
738.3656649607422
 30
0.0
 10
787.5450725561659
 20
737.499837063932
 30
0.0
 10
787.2652187838405
 20
735.763951722752
 30
0.0
 10
787.1898102095494
 20
734.8913115869822
 30
0.0
 10
787.1899363487821
 20
733.574106650209
 30
0.0
 10
787.2086278149756
 20
733.1336805063913
 30
0.0
 10
787.2828026720326
 20
732.2501494632212
 30
0.0
 10
787.3379789203534
 20
731.811042484724
 30
0.0
 10
787.549315960429
 20
730.5094393606089
 30
0.0
 10
787.7512790247985
 20
729.658431053642
 30
0.0
 10
787.9937418081873
 20
728.8185153340935
 30
0.0
  0
SPLINE
  5
19C
330
1F
100
AcDbEntity
  8
0
  6
Continuous
 62
     7
370
    15
100
AcDbSpline
210
0.0
220
0.0
230
1.0
 70
     8
 71
     3
 72
    16
 73
    12
 74
     0
 42
0.00000001
 43
0.00000001
 12
1.0
 22
0.0
 32
0.0
 13
1.0
 23
0.0
 33
0.0
 40
0.0
 40
0.0
 40
0.0
 40
0.0
 40
0.2499999999999933
 40
0.2499999999999933
 40
0.4999999999999866
 40
0.4999999999999866
 40
0.6249999999999832
 40
0.6249999999999832
 40
0.7499999999999798
 40
0.7499999999999798
 40
1.0
 40
1.0
 40
1.0
 40
1.0
 10
787.993741808187
 20
723.6223629113871
 30
0.0
 10
787.7488202936046
 20
724.0465794185104
 30
0.0
 10
787.5469605735681
 20
724.4738888243212
 30
0.0
 10
787.267319301971
 20
725.3374195080196
 30
0.0
 10
787.1904601672427
 20
725.7737070381811
 30
0.0
 10
787.1896160060735
 20
726.4363582734916
 30
0.0
 10
787.2084050927436
 20
726.6582813312725
 30
0.0
 10
787.2816725848245
 20
727.0972685502676
 30
0.0
 10
787.3360766364879
 20
727.3152903987157
 30
0.0
 10
787.54615569484
 20
727.9654743629354
 30
0.0
 10
787.7485149880073
 20
728.3937700221634
 30
0.0
 10
787.9937418081872
 20
728.8185153340937
 30
0.0
  0
LINE
  5
19D
330
1F
100
AcDbEntity
  8
0
  6
Continuous
 62
     7
370
    15
100
AcDbLine
 10
786.7568807184
 20
725.7646678015
 30
0.0
 11
786.7568807184
 21
742.2646677121
 31
0.0
  0
LINE
  5
19E
330
1F
100
AcDbEntity
  8
0
  6
Continuous
 62
     7
370
    15
100
AcDbLine
 10
787.9937367021
 20
728.8185155019
 30
0.0
 11
795.920021969
 21
728.8185155019
 31
0.0
  0
SPLINE
  5
19F
330
1F
100
AcDbEntity
  8
0
  6
Continuous
 62
     7
370
    15
100
AcDbSpline
210
0.0
220
0.0
230
1.0
 70
     8
 71
     3
 72
    16
 73
    12
 74
     0
 42
0.00000001
 43
0.00000001
 12
1.0
 22
0.0
 32
0.0
 13
1.0
 23
0.0
 33
0.0
 40
0.0
 40
0.0
 40
0.0
 40
0.0
 40
0.2499999999999933
 40
0.2499999999999933
 40
0.4999999999999867
 40
0.4999999999999867
 40
0.6249999999999832
 40
0.6249999999999832
 40
0.7499999999999798
 40
0.7499999999999798
 40
1.0
 40
1.0
 40
1.0
 40
1.0
 10
795.9200212498167
 20
728.8185153340937
 30
0.0
 10
796.164942764399
 20
728.3942988269703
 30
0.0
 10
796.3668024844357
 20
727.9669894211596
 30
0.0
 10
796.6464437560327
 20
727.1034587374612
 30
0.0
 10
796.723302890761
 20
726.6671712072995
 30
0.0
 10
796.7241470519302
 20
726.0045199719891
 30
0.0
 10
796.7053579652601
 20
725.7825969142082
 30
0.0
 10
796.6320904731792
 20
725.3436096952132
 30
0.0
 10
796.577686421516
 20
725.125587846765
 30
0.0
 10
796.3676073631639
 20
724.4754038825453
 30
0.0
 10
796.1652480699966
 20
724.0471082233173
 30
0.0
 10
795.9200212498165
 20
723.6223629113871
 30
0.0
  0
LINE
  5
1A0
330
1F
100
AcDbEntity
  8
0
  6
Continuous
 62
     7
370
    15
100
AcDbLine
 10
787.9937367021
 20
723.6223632469
 30
0.0
 11
795.920021969
 21
723.6223632469
 31
0.0
  0
LINE
  5
1A1
330
1F
100
AcDbEntity
  8
0
  6
Continuous
 62
     7
370
    15
100
AcDbLine
 10
787.9937367021
 20
739.2108200117
 30
0.0
 11
795.920021969
 21
739.2108200117
 31
0.0
  0
SPLINE
  5
1A2
330
1F
100
AcDbEntity
  8
0
  6
Continuous
 62
     7
370
    15
100
AcDbSpline
210
0.0
220
0.0
230
1.0
 70
     8
 71
     3
 72
    16
 73
    12
 74
     0
 42
0.00000001
 43
0.00000001
 12
1.0
 22
0.0
 32
0.0
 13
1.0
 23
0.0
 33
0.0
 40
0.0
 40
0.0
 40
0.0
 40
0.0
 40
0.25
 40
0.25
 40
0.5
 40
0.5
 40
0.625
 40
0.625
 40
0.75
 40
0.75
 40
1.0
 40
1.0
 40
1.0
 40
1.0
 10
795.9200212498164
 20
739.2108201795068
 30
0.0
 10
796.1639965463469
 20
738.3656649607419
 30
0.0
 10
796.3686905018379
 20
737.499837063932
 30
0.0
 10
796.6485442741634
 20
735.7639517227519
 30
0.0
 10
796.7239528484545
 20
734.8913115869822
 30
0.0
 10
796.7238267092217
 20
733.574106650209
 30
0.0
 10
796.705135243028
 20
733.1336805063913
 30
0.0
 10
796.6309603859711
 20
732.2501494632211
 30
0.0
 10
796.5757841376504
 20
731.8110424847241
 30
0.0
 10
796.3644470975748
 20
730.509439360609
 30
0.0
 10
796.1624840332054
 20
729.6584310536422
 30
0.0
 10
795.9200212498163
 20
728.8185153340937
 30
0.0
  0
LINE
  5
1A3
330
1F
100
AcDbEntity
  8
0
  6
Continuous
 62
     7
370
    15
100
AcDbLine
 10
787.9937367021
 20
744.4069722667
 30
0.0
 11
795.920021969
 21
744.4069722667
 31
0.0
  0
SPLINE
  5
1A4
330
1F
100
AcDbEntity
  8
0
  6
Continuous
 62
     7
370
    15
100
AcDbSpline
210
0.0
220
0.0
230
1.0
 70
     8
 71
     3
 72
    16
 73
    12
 74
     0
 42
0.00000001
 43
0.00000001
 12
1.0
 22
0.0
 32
0.0
 13
1.0
 23
0.0
 33
0.0
 40
0.0
 40
0.0
 40
0.0
 40
0.0
 40
0.2500000000000067
 40
0.2500000000000067
 40
0.5000000000000133
 40
0.5000000000000133
 40
0.6250000000000168
 40
0.6250000000000168
 40
0.7500000000000202
 40
0.7500000000000202
 40
1.0
 40
1.0
 40
1.0
 40
1.0
 10
795.9200212498167
 20
744.4069726022135
 30
0.0
 10
796.164942764399
 20
743.9827560950902
 30
0.0
 10
796.3668024844355
 20
743.5554466892794
 30
0.0
 10
796.6464437560327
 20
742.691916005581
 30
0.0
 10
796.723302890761
 20
742.2556284754194
 30
0.0
 10
796.7241470519302
 20
741.592977240109
 30
0.0
 10
796.7053579652601
 20
741.3710541823281
 30
0.0
 10
796.6320904731792
 20
740.932066963333
 30
0.0
 10
796.577686421516
 20
740.7140451148849
 30
0.0
 10
796.3676073631638
 20
740.0638611506652
 30
0.0
 10
796.1652480699964
 20
739.6355654914372
 30
0.0
 10
795.9200212498165
 20
739.2108201795069
 30
0.0
  0
LINE
  5
1A5
330
1F
100
AcDbEntity
  8
0
  6
Continuous
 62
     7
370
    15
100
AcDbLine
 10
751.6568826019
 20
728.0146677047
 30
0.0
 11
751.6568826019
 21
740.014667809
 31
0.0
  0
SPLINE
  5
1A6
330
1F
100
AcDbEntity
  8
0
  6
Continuous
 62
     7
370
    15
100
AcDbSpline
210
0.0
220
0.0
230
1.0
 70
     8
 71
     3
 72
    10
 73
     6
 74
     0
 42
0.00000001
 43
0.00000001
 12
1.0
 22
0.0
 32
0.0
 13
1.0
 23
0.0
 33
0.0
 40
0.0
 40
0.0
 40
0.0
 40
0.0
 40
0.0694662806634848
 40
0.5276773064072826
 40
1.0
 40
1.0
 40
1.0
 40
1.0
 10
807.4663059293314
 20
206.7189591004931
 30
0.0
 10
807.4640495885475
 20
206.722169888463
 30
0.0
 10
807.4469100524179
 20
206.7465595625783
 30
0.0
 10
807.3806364943061
 20
206.6454505998439
 30
0.0
 10
807.3395795295683
 20
206.446236415473
 30
0.0
 10
807.3187397300287
 20
206.3451187684618
 30
0.0
  0
SPLINE
  5
1A7
330
1F
100
AcDbEntity
  8
0
  6
Continuous
 62
     7
370
    15
100
AcDbSpline
210
0.0
220
0.0
230
1.0
 70
     8
 71
     3
 72
    10
 73
     6
 74
     0
 42
0.00000001
 43
0.00000001
 12
1.0
 22
0.0
 32
0.0
 13
1.0
 23
0.0
 33
0.0
 40
0.0
 40
0.0
 40
0.0
 40
0.0
 40
0.4600617032676301
 40
0.9333431729340556
 40
1.0
 40
1.0
 40
1.0
 40
1.0
 10
807.3187397300287
 20
1261.684216745147
 30
0.0
 10
807.3389052015191
 20
1261.585466064866
 30
0.0
 10
807.3798155946483
 20
1261.385127126397
 30
0.0
 10
807.4469847725254
 20
1261.280947548523
 30
0.0
 10
807.464142997123
 20
1261.30719562278
 30
0.0
 10
807.4662612258478
 20
1261.31043601776
 30
0.0
  0
LINE
  5
1A8
330
1F
100
AcDbEntity
  8
0
  6
Continuous
 62
     7
370
    15
100
AcDbLine
 10
839.656882125
 20
740.014667809
 30
0.0
 11
839.656882125
 21
965.349070914
 31
0.0
  0
LINE
  5
1A9
330
1F
100
AcDbEntity
  8
0
  6
Continuous
 62
     7
370
    15
100
AcDbLine
 10
839.656882125
 20
977.3490803316
 30
0.0
 11
839.656882125
 21
1155.6764917448
 31
0.0
  0
LINE
  5
1AA
330
1F
100
AcDbEntity
  8
0
  6
Continuous
 62
     7
370
    15
100
AcDbLine
 10
839.656882125
 20
1167.6764862611
 30
0.0
 11
839.656882125
 21
1261.3002436235
 31
0.0
  0
LINE
  5
1AB
330
1F
100
AcDbEntity
  8
0
  6
Continuous
 62
     7
370
    15
100
AcDbLine
 10
839.656882125
 20
206.7290918901
 30
0.0
 11
839.656882125
 21
300.3528492525
 31
0.0
  0
LINE
  5
1AC
330
1F
100
AcDbEntity
  8
0
  6
Continuous
 62
     7
370
    15
100
AcDbLine
 10
839.656882125
 20
312.3528437688
 30
0.0
 11
839.656882125
 21
490.680255182
 31
0.0
  0
LINE
  5
1AD
330
1F
100
AcDbEntity
  8
0
  6
Continuous
 62
     7
370
    15
100
AcDbLine
 10
839.656882125
 20
502.6802645996
 30
0.0
 11
839.656882125
 21
728.0146677047
 31
0.0
  0
LINE
  5
1AE
330
1F
100
AcDbEntity
  8
0
  6
Continuous
 62
     7
370
    15
100
AcDbLine
 10
797.1568779527
 20
959.3490736559
 30
0.0
 11
797.1568779527
 21
983.3490775898
 31
0.0
  0
LINE
  5
1AF
330
1F
100
AcDbEntity
  8
0
  6
Continuous
 62
     7
370
    15
100
AcDbLine
 10
797.1568779527
 20
507.4918942525
 30
0.0
 11
797.1568779527
 21
508.6802618578
 31
0.0
  0
LINE
  5
1B0
330
1F
100
AcDbEntity
  8
0
  6
Continuous
 62
     7
370
    15
100
AcDbLine
 10
797.1568779527
 20
484.6802579238
 30
0.0
 11
797.1568779527
 21
507.4918942525
 31
0.0
  0
LINE
  5
1B1
330
1F
100
AcDbEntity
  8
0
  6
Continuous
 62
     7
370
    15
100
AcDbLine
 10
787.9937367021
 20
979.9355940893
 30
0.0
 11
795.920021969
 21
979.9355940893
 31
0.0
  0
SPLINE
  5
1B2
330
1F
100
AcDbEntity
  8
0
  6
Continuous
 62
     7
370
    15
100
AcDbSpline
210
0.0
220
0.0
230
1.0
 70
     8
 71
     3
 72
    14
 73
    10
 74
     0
 42
0.00000001
 43
0.00000001
 12
1.0
 22
0.0
 32
0.0
 13
1.0
 23
0.0
 33
0.0
 40
0.0
 40
0.0
 40
0.0
 40
0.0
 40
0.1331917437378453
 40
0.2578374526566489
 40
0.3824545811993502
 40
0.5101672384138636
 40
0.637883717467047
 40
0.8180582785633388
 40
1.0
 40
1.0
 40
1.0
 40
1.0
 10
795.920021968989
 20
979.9355940892779
 30
0.0
 10
796.0432759272129
 20
979.5283971728721
 30
0.0
 10
796.2818754509253
 20
978.7401304777354
 30
0.0
 10
796.5347158324847
 20
977.5488954147061
 30
0.0
 10
796.6944710619075
 20
976.3623441732657
 30
0.0
 10
796.7423128566095
 20
975.1574666250217
 30
0.0
 10
796.6652072078158
 20
973.7779667834336
 30
0.0
 10
796.4133545919707
 20
972.2386785458264
 30
0.0
 10
796.0850003095543
 20
971.1296631825832
 30
0.0
 10
795.920021968989
 20
970.5724494531237
 30
0.0
  0
LINE
  5
1B3
330
1F
100
AcDbEntity
  8
0
  6
Continuous
 62
     7
370
    15
100
AcDbLine
 10
787.9937367021
 20
970.5724494531
 30
0.0
 11
795.920021969
 21
970.5724494531
 31
0.0
  0
SPLINE
  5
1B4
330
1F
100
AcDbEntity
  8
0
  6
Continuous
 62
     7
370
    15
100
AcDbSpline
210
0.0
220
0.0
230
1.0
 70
     8
 71
     3
 72
    14
 73
    10
 74
     0
 42
0.00000001
 43
0.00000001
 12
1.0
 22
0.0
 32
0.0
 13
1.0
 23
0.0
 33
0.0
 40
0.0
 40
0.0
 40
0.0
 40
0.0
 40
0.1803125507559221
 40
0.362115469394116
 40
0.4866251270315328
 40
0.6111301578746946
 40
0.7389513420400481
 40
0.8668082953766993
 40
1.0
 40
1.0
 40
1.0
 40
1.0
 10
787.9937367021128
 20
970.5724494531237
 30
0.0
 10
787.8301423734131
 20
971.1246434545978
 30
0.0
 10
787.5016015320853
 20
972.2335956002036
 30
0.0
 10
787.2505243282288
 20
973.762749825664
 30
0.0
 10
787.1726303167715
 20
975.1269198797645
 30
0.0
 10
787.2157608315548
 20
976.3216630288221
 30
0.0
 10
787.3730260828812
 20
977.5188458763965
 30
0.0
 10
787.6289335396382
 20
978.7303053919414
 30
0.0
 10
787.8704901762026
 20
979.5283946460003
 30
0.0
 10
787.9937367021128
 20
979.9355940892779
 30
0.0
  0
SPLINE
  5
1B5
330
1F
100
AcDbEntity
  8
0
  6
Continuous
 62
     7
370
    15
100
AcDbSpline
210
0.0
220
0.0
230
1.0
 70
     8
 71
     3
 72
    14
 73
    10
 74
     0
 42
0.00000001
 43
0.00000001
 12
1.0
 22
0.0
 32
0.0
 13
1.0
 23
0.0
 33
0.0
 40
0.0
 40
0.0
 40
0.0
 40
0.0
 40
0.132315807564731
 40
0.2645974142942552
 40
0.3998353213561088
 40
0.5350492908658043
 40
0.6502515338544832
 40
0.7654709121990642
 40
1.0
 40
1.0
 40
1.0
 40
1.0
 10
795.920021968989
 20
970.5724494531237
 30
0.0
 10
796.042385396572
 20
970.2014720507927
 30
0.0
 10
796.2870806233817
 20
969.4596131359361
 30
0.0
 10
796.5504063969399
 20
968.3172986768193
 30
0.0
 10
796.7085968604194
 20
967.1533827823533
 30
0.0
 10
796.7403437186864
 20
966.0315461805175
 30
0.0
 10
796.6577271780865
 20
964.9707354190735
 30
0.0
 10
796.4410630860762
 20
963.6301233809965
 30
0.0
 10
796.129167942631
 20
962.6459055723277
 30
0.0
 10
795.920021968989
 20
961.9859235360705
 30
0.0
  0
SPLINE
  5
1B6
330
1F
100
AcDbEntity
  8
0
  6
Continuous
 62
     7
370
    15
100
AcDbSpline
210
0.0
220
0.0
230
1.0
 70
     8
 71
     3
 72
    16
 73
    12
 74
     0
 42
0.00000001
 43
0.00000001
 12
1.0
 22
0.0
 32
0.0
 13
1.0
 23
0.0
 33
0.0
 40
0.0
 40
0.0
 40
0.0
 40
0.0
 40
0.2499999999999886
 40
0.2499999999999886
 40
0.4999999999999771
 40
0.4999999999999771
 40
0.6249999999999789
 40
0.6249999999999789
 40
0.7499999999999808
 40
0.7499999999999808
 40
1.0
 40
1.0
 40
1.0
 40
1.0
 10
795.9200212498167
 20
980.7122161855743
 30
0.0
 10
796.164942764399
 20
980.6488127070179
 30
0.0
 10
796.3668024844355
 20
980.5849469632446
 30
0.0
 10
796.6464437560327
 20
980.4558835056296
 30
0.0
 10
796.723302890761
 20
980.3906758897105
 30
0.0
 10
796.7241470519302
 20
980.2916359120507
 30
0.0
 10
796.7053579652601
 20
980.2584672502967
 30
0.0
 10
796.6320904731792
 20
980.1928561383793
 30
0.0
 10
796.577686421516
 20
980.1602705521025
 30
0.0
 10
796.3676073631638
 20
980.0630939351132
 30
0.0
 10
796.1652480699966
 20
979.9990807857197
 30
0.0
 10
795.9200212498165
 20
979.9355982718978
 30
0.0
  0
SPLINE
  5
1B7
330
1F
100
AcDbEntity
  8
0
  6
Continuous
 62
     7
370
    15
100
AcDbSpline
210
0.0
220
0.0
230
1.0
 70
     8
 71
     3
 72
    11
 73
     7
 74
     0
 42
0.00000001
 43
0.00000001
 12
1.0
 22
0.0
 32
0.0
 13
1.0
 23
0.0
 33
0.0
 40
0.0
 40
0.0
 40
0.0
 40
0.0
 40
0.3034527583947796
 40
0.6068274657413181
 40
0.9169825252459719
 40
1.0
 40
1.0
 40
1.0
 40
1.0
 10
795.920021968989
 20
961.9859235360705
 30
0.0
 10
796.0428902666115
 20
962.0194767800654
 30
0.0
 10
796.2885952589161
 20
962.0865746378292
 30
0.0
 10
796.5442943163065
 20
962.1899334034022
 30
0.0
 10
796.6859178886884
 20
962.2692355563977
 30
0.0
 10
796.694365298625
 20
962.3143057910875
 30
0.0
 10
796.6961489497705
 20
962.3238222673021
 30
0.0
  0
SPLINE
  5
1B8
330
1F
100
AcDbEntity
  8
0
  6
Continuous
 62
     7
370
    15
100
AcDbSpline
210
0.0
220
0.0
230
1.0
 70
     8
 71
     3
 72
    16
 73
    12
 74
     0
 42
0.00000001
 43
0.00000001
 12
1.0
 22
0.0
 32
0.0
 13
1.0
 23
0.0
 33
0.0
 40
0.0
 40
0.0
 40
0.0
 40
0.0
 40
0.2500000000000037
 40
0.2500000000000037
 40
0.5000000000000073
 40
0.5000000000000073
 40
0.6250000000000094
 40
0.6250000000000094
 40
0.7500000000000114
 40
0.7500000000000114
 40
1.0
 40
1.0
 40
1.0
 40
1.0
 10
787.993741808187
 20
979.9355982718978
 30
0.0
 10
787.7488202936047
 20
979.9990017504543
 30
0.0
 10
787.5469605735682
 20
980.0628674942276
 30
0.0
 10
787.2673193019712
 20
980.1919309518426
 30
0.0
 10
787.1904601672428
 20
980.2571385677617
 30
0.0
 10
787.1896160060736
 20
980.3561785454216
 30
0.0
 10
787.2084050927436
 20
980.3893472071755
 30
0.0
 10
787.2816725848244
 20
980.4549583190931
 30
0.0
 10
787.3360766364879
 20
980.4875439053698
 30
0.0
 10
787.54615569484
 20
980.5847205223589
 30
0.0
 10
787.7485149880073
 20
980.6487336717524
 30
0.0
 10
787.9937418081872
 20
980.7122161855743
 30
0.0
  0
SPLINE
  5
1B9
330
1F
100
AcDbEntity
  8
0
  6
Continuous
 62
     7
370
    15
100
AcDbSpline
210
0.0
220
0.0
230
1.0
 70
     8
 71
     3
 72
    14
 73
    10
 74
     0
 42
0.00000001
 43
0.00000001
 12
1.0
 22
0.0
 32
0.0
 13
1.0
 23
0.0
 33
0.0
 40
0.0
 40
0.0
 40
0.0
 40
0.0
 40
0.132318906645158
 40
0.2645985504525297
 40
0.3998380571674414
 40
0.5350536355806014
 40
0.6502543051720073
 40
0.7654738885632442
 40
1.0
 40
1.0
 40
1.0
 40
1.0
 10
787.9937367021128
 20
961.9859235360705
 30
0.0
 10
787.8713742287795
 20
962.3568947142358
 30
0.0
 10
787.6266855905895
 20
963.0987269927134
 30
0.0
 10
787.3633477318632
 20
964.2411161295598
 30
0.0
 10
787.2051625056426
 20
965.4050033352157
 30
0.0
 10
787.173415598533
 20
966.5268239615145
 30
0.0
 10
787.2560276623402
 20
967.5876637430679
 30
0.0
 10
787.4727205192809
 20
968.9282497622644
 30
0.0
 10
787.7846013338732
 20
969.9124693620289
 30
0.0
 10
787.9937367021128
 20
970.5724494531237
 30
0.0
  0
SPLINE
  5
1BA
330
1F
100
AcDbEntity
  8
0
  6
Continuous
 62
     7
370
    15
100
AcDbSpline
210
0.0
220
0.0
230
1.0
 70
     8
 71
     3
 72
    10
 73
     6
 74
     0
 42
0.00000001
 43
0.00000001
 12
1.0
 22
0.0
 32
0.0
 13
1.0
 23
0.0
 33
0.0
 40
0.0
 40
0.0
 40
0.0
 40
0.0
 40
0.1978179549872124
 40
0.4620911268784641
 40
0.9999999999999999
 40
0.9999999999999999
 40
0.9999999999999999
 40
0.9999999999999999
 10
787.2132734834238
 20
962.3238520696245
 30
0.0
 10
787.2282439312844
 20
962.3012096548474
 30
0.0
 10
787.2632140184144
 20
962.2483183035024
 30
0.0
 10
787.4766782837376
 20
962.1346528148304
 30
0.0
 10
787.7861908502587
 20
962.0456230666435
 30
0.0
 10
787.9937367021128
 20
961.9859235360705
 30
0.0
  0
LINE
  5
1BB
330
1F
100
AcDbEntity
  8
0
  6
Continuous
 62
     7
370
    15
100
AcDbLine
 10
786.7568807184
 20
963.0990700796
 30
0.0
 11
786.7568807184
 21
979.5990662649
 31
0.0
  0
SPLINE
  5
1BC
330
1F
100
AcDbEntity
  8
0
  6
Continuous
 62
     7
370
    15
100
AcDbSpline
210
0.0
220
0.0
230
1.0
 70
     8
 71
     3
 72
    16
 73
    12
 74
     0
 42
0.00000001
 43
0.00000001
 12
1.0
 22
0.0
 32
0.0
 13
1.0
 23
0.0
 33
0.0
 40
0.0
 40
0.0
 40
0.0
 40
0.0
 40
0.2499999999999884
 40
0.2499999999999884
 40
0.4999999999999768
 40
0.4999999999999768
 40
0.6249999999999786
 40
0.6249999999999786
 40
0.7499999999999802
 40
0.7499999999999802
 40
1.0
 40
1.0
 40
1.0
 40
1.0
 10
795.9200212498167
 20
488.0937372417035
 30
0.0
 10
796.164942764399
 20
488.0303337631471
 30
0.0
 10
796.3668024844355
 20
487.9664680193738
 30
0.0
 10
796.6464437560328
 20
487.8374045617589
 30
0.0
 10
796.723302890761
 20
487.7721969458397
 30
0.0
 10
796.7241470519302
 20
487.6731569681798
 30
0.0
 10
796.7053579652601
 20
487.6399883064259
 30
0.0
 10
796.6320904731792
 20
487.5743771945085
 30
0.0
 10
796.577686421516
 20
487.5417916082316
 30
0.0
 10
796.3676073631638
 20
487.4446149912426
 30
0.0
 10
796.1652480699964
 20
487.3806018418489
 30
0.0
 10
795.9200212498165
 20
487.3171193280272
 30
0.0
  0
SPLINE
  5
1BD
330
1F
100
AcDbEntity
  8
0
  6
Continuous
 62
     7
370
    15
100
AcDbSpline
210
0.0
220
0.0
230
1.0
 70
     8
 71
     3
 72
    14
 73
    10
 74
     0
 42
0.00000001
 43
0.00000001
 12
1.0
 22
0.0
 32
0.0
 13
1.0
 23
0.0
 33
0.0
 40
0.0
 40
0.0
 40
0.0
 40
0.0
 40
0.133192974619661
 40
0.2578374785264172
 40
0.3824521245729268
 40
0.5101685025692434
 40
0.6378849803077915
 40
0.8180582804361354
 40
1.0
 40
1.0
 40
1.0
 40
1.0
 10
795.920021968989
 20
497.4568860604845
 30
0.0
 10
796.0432755318797
 20
497.0496848108064
 30
0.0
 10
796.2818721092583
 20
496.2614169327921
 30
0.0
 10
796.5347149113745
 20
495.070177719644
 30
0.0
 10
796.6944741965004
 20
493.8836070942231
 30
0.0
 10
796.7423122370499
 20
492.6787636427525
 30
0.0
 10
796.6652084681966
 20
491.2992439486741
 30
0.0
 10
796.4133527652068
 20
489.7599686338932
 30
0.0
 10
796.0850000804639
 20
488.6509558135987
 30
0.0
 10
795.920021968989
 20
488.0937414243303
 30
0.0
  0
SPLINE
  5
1BE
330
1F
100
AcDbEntity
  8
0
  6
Continuous
 62
     7
370
    15
100
AcDbSpline
210
0.0
220
0.0
230
1.0
 70
     8
 71
     3
 72
    14
 73
    10
 74
     0
 42
0.00000001
 43
0.00000001
 12
1.0
 22
0.0
 32
0.0
 13
1.0
 23
0.0
 33
0.0
 40
0.0
 40
0.0
 40
0.0
 40
0.0
 40
0.1323188894290135
 40
0.2645985160253492
 40
0.3998380051441143
 40
0.5350535659642409
 40
0.6502542205667733
 40
0.7654735990222157
 40
1.0
 40
1.0
 40
1.0
 40
1.0
 10
795.920021968989
 20
506.0434119775377
 30
0.0
 10
796.0423844323876
 20
505.6724408005363
 30
0.0
 10
796.287073050711
 20
504.9306085243865
 30
0.0
 10
796.5504110595136
 20
503.7882193699567
 30
0.0
 10
796.708595703173
 20
502.6243322325558
 30
0.0
 10
796.7403446889473
 20
501.5025113627122
 30
0.0
 10
796.6577260038654
 20
500.4416729130596
 30
0.0
 10
796.4410654502544
 20
499.1010827306828
 30
0.0
 10
796.1291684190701
 20
498.1168653312586
 30
0.0
 10
795.920021968989
 20
497.4568860604845
 30
0.0
  0
SPLINE
  5
1BF
330
1F
100
AcDbEntity
  8
0
  6
Continuous
 62
     7
370
    15
100
AcDbSpline
210
0.0
220
0.0
230
1.0
 70
     8
 71
     3
 72
    10
 73
     6
 74
     0
 42
0.00000001
 43
0.00000001
 12
1.0
 22
0.0
 32
0.0
 13
1.0
 23
0.0
 33
0.0
 40
0.0
 40
0.0
 40
0.0
 40
0.0
 40
0.1978180576209428
 40
0.4620906617327683
 40
1.0
 40
1.0
 40
1.0
 40
1.0
 10
796.7005000888391
 20
505.7054834439837
 30
0.0
 10
796.6855225546076
 20
505.7281258428665
 30
0.0
 10
796.6505359675007
 20
505.7810170764009
 30
0.0
 10
796.4371112784232
 20
505.8946829900306
 30
0.0
 10
796.1275803437653
 20
505.9837125283984
 30
0.0
 10
795.920021968989
 20
506.0434119775377
 30
0.0
  0
LINE
  5
1C0
330
1F
100
AcDbEntity
  8
0
  6
Continuous
 62
     7
370
    15
100
AcDbLine
 10
787.9937367021
 20
497.4568860605
 30
0.0
 11
795.920021969
 21
497.4568860605
 31
0.0
  0
LINE
  5
1C1
330
1F
100
AcDbEntity
  8
0
  6
Continuous
 62
     7
370
    15
100
AcDbLine
 10
787.9937367021
 20
488.0937414243
 30
0.0
 11
795.920021969
 21
488.0937414243
 31
0.0
  0
SPLINE
  5
1C2
330
1F
100
AcDbEntity
  8
0
  6
Continuous
 62
     7
370
    15
100
AcDbSpline
210
0.0
220
0.0
230
1.0
 70
     8
 71
     3
 72
    14
 73
    10
 74
     0
 42
0.00000001
 43
0.00000001
 12
1.0
 22
0.0
 32
0.0
 13
1.0
 23
0.0
 33
0.0
 40
0.0
 40
0.0
 40
0.0
 40
0.0
 40
0.1803113132033555
 40
0.3621142299669766
 40
0.4866238863205724
 40
0.6111289158799609
 40
0.7389513164413283
 40
0.8668070644975931
 40
1.0
 40
1.0
 40
1.0
 40
1.0
 10
787.9937367021128
 20
488.0937414243303
 30
0.0
 10
787.8301421997461
 20
488.6459301165706
 30
0.0
 10
787.5015998792511
 20
489.7548754153138
 30
0.0
 10
787.2505246025991
 20
491.2840276062701
 30
0.0
 10
787.172630031206
 20
492.6481955909597
 30
0.0
 10
787.2157619241563
 20
493.842949015903
 30
0.0
 10
787.3730231483814
 20
495.0401073980482
 30
0.0
 10
787.6289372536376
 20
496.2515941738063
 30
0.0
 10
787.8704906847903
 20
497.0496830743913
 30
0.0
 10
787.9937367021128
 20
497.4568860604845
 30
0.0
  0
SPLINE
  5
1C3
330
1F
100
AcDbEntity
  8
0
  6
Continuous
 62
     7
370
    15
100
AcDbSpline
210
0.0
220
0.0
230
1.0
 70
     8
 71
     3
 72
    11
 73
     7
 74
     0
 42
0.00000001
 43
0.00000001
 12
1.0
 22
0.0
 32
0.0
 13
1.0
 23
0.0
 33
0.0
 40
0.0
 40
0.0
 40
0.0
 40
0.0
 40
0.3034527583947796
 40
0.6068274657413181
 40
0.9169825252459719
 40
1.0
 40
1.0
 40
1.0
 40
1.0
 10
787.9937367021128
 20
506.0434119775377
 30
0.0
 10
787.8708684044904
 20
506.0098587335429
 30
0.0
 10
787.6251634121858
 20
505.9427608757791
 30
0.0
 10
787.3694643547954
 20
505.839402110206
 30
0.0
 10
787.2278407824134
 20
505.7600999572106
 30
0.0
 10
787.2193933724769
 20
505.7150297225208
 30
0.0
 10
787.2176097213312
 20
505.7055132463061
 30
0.0
  0
SPLINE
  5
1C4
330
1F
100
AcDbEntity
  8
0
  6
Continuous
 62
     7
370
    15
100
AcDbSpline
210
0.0
220
0.0
230
1.0
 70
     8
 71
     3
 72
    14
 73
    10
 74
     0
 42
0.00000001
 43
0.00000001
 12
1.0
 22
0.0
 32
0.0
 13
1.0
 23
0.0
 33
0.0
 40
0.0
 40
0.0
 40
0.0
 40
0.0
 40
0.1323158247799893
 40
0.264597448720322
 40
0.3998353733776206
 40
0.5350493604796465
 40
0.6502516184569833
 40
0.7654712017369361
 40
1.0
 40
1.0
 40
1.0
 40
1.0
 10
787.9937367021128
 20
497.4568860604845
 30
0.0
 10
787.8713732645957
 20
497.8278634639794
 30
0.0
 10
787.6266780179195
 20
498.5697223811637
 30
0.0
 10
787.3633523944384
 20
499.7120368226969
 30
0.0
 10
787.2051613484056
 20
500.8759527854174
 30
0.0
 10
787.173416568779
 20
501.9977891437102
 30
0.0
 10
787.2560264880499
 20
503.0586012370498
 30
0.0
 10
787.472722883565
 20
504.3992091119566
 30
0.0
 10
787.7846018103769
 20
505.3834291209535
 30
0.0
 10
787.9937367021128
 20
506.0434119775377
 30
0.0
  0
SPLINE
  5
1C5
330
1F
100
AcDbEntity
  8
0
  6
Continuous
 62
     7
370
    15
100
AcDbSpline
210
0.0
220
0.0
230
1.0
 70
     8
 71
     3
 72
    16
 73
    12
 74
     0
 42
0.00000001
 43
0.00000001
 12
1.0
 22
0.0
 32
0.0
 13
1.0
 23
0.0
 33
0.0
 40
0.0
 40
0.0
 40
0.0
 40
0.0
 40
0.2499999999999885
 40
0.2499999999999885
 40
0.4999999999999769
 40
0.4999999999999769
 40
0.6249999999999789
 40
0.6249999999999789
 40
0.7499999999999809
 40
0.7499999999999809
 40
1.0
 40
1.0
 40
1.0
 40
1.0
 10
787.993741808187
 20
487.3171193280272
 30
0.0
 10
787.7488202936045
 20
487.3805228065835
 30
0.0
 10
787.5469605735681
 20
487.4443885503569
 30
0.0
 10
787.267319301971
 20
487.573452007972
 30
0.0
 10
787.1904601672427
 20
487.638659623891
 30
0.0
 10
787.1896160060736
 20
487.7376996015508
 30
0.0
 10
787.2084050927436
 20
487.7708682633047
 30
0.0
 10
787.2816725848245
 20
487.8364793752222
 30
0.0
 10
787.3360766364879
 20
487.8690649614991
 30
0.0
 10
787.5461556948399
 20
487.966241578488
 30
0.0
 10
787.7485149880073
 20
488.0302547278815
 30
0.0
 10
787.9937418081872
 20
488.0937372417035
 30
0.0
  0
LINE
  5
1C6
330
1F
100
AcDbEntity
  8
0
  6
Continuous
 62
     7
370
    15
100
AcDbLine
 10
786.7568807184
 20
488.4302692487
 30
0.0
 11
786.7568807184
 21
504.930265434
 31
0.0
  0
LINE
  5
1C7
330
1F
100
AcDbEntity
  8
0
  6
Continuous
 62
     7
370
    15
100
AcDbLine
 10
787.9937367021
 20
961.9859235361
 30
0.0
 11
795.920021969
 21
961.9859235361
 31
0.0
  0
LINE
  5
1C8
330
1F
100
AcDbEntity
  8
0
  6
Continuous
 62
     7
370
    15
100
AcDbLine
 10
787.9937367021
 20
506.0434119775
 30
0.0
 11
795.920021969
 21
506.0434119775
 31
0.0
  0
LINE
  5
1C9
330
1F
100
AcDbEntity
  8
0
  6
Continuous
 62
     7
370
    15
100
AcDbLine
 10
751.6568826019
 20
965.349070914
 30
0.0
 11
751.6568826019
 21
977.3490803316
 31
0.0
  0
LINE
  5
1CA
330
1F
100
AcDbEntity
  8
0
  6
Continuous
 62
     7
370
    15
100
AcDbLine
 10
751.6568826019
 20
490.680255182
 30
0.0
 11
751.6568826019
 21
502.6802645996
 31
0.0
  0
LINE
  5
1CB
330
1F
100
AcDbEntity
  8
0
  6
Continuous
 62
     7
370
    15
100
AcDbLine
 10
787.9937367021
 20
980.7122128084
 30
0.0
 11
795.920021969
 21
980.7122128084
 31
0.0
  0
LINE
  5
1CC
330
1F
100
AcDbEntity
  8
0
  6
Continuous
 62
     7
370
    15
100
AcDbLine
 10
787.9937367021
 20
487.3171227052
 30
0.0
 11
795.920021969
 21
487.3171227052
 31
0.0
  0
LINE
  5
1CD
330
1F
100
AcDbEntity
  8
0
  6
Continuous
 62
     7
370
    15
100
AcDbLine
 10
797.1568779527
 20
1149.6764795854
 30
0.0
 11
797.1568779527
 21
1173.6764984205
 31
0.0
  0
LINE
  5
1CE
330
1F
100
AcDbEntity
  8
0
  6
Continuous
 62
     7
370
    15
100
AcDbLine
 10
797.1568779527
 20
313.8347344472
 30
0.0
 11
797.1568779527
 21
318.3528559282
 31
0.0
  0
LINE
  5
1CF
330
1F
100
AcDbEntity
  8
0
  6
Continuous
 62
     7
370
    15
100
AcDbLine
 10
797.1568779527
 20
294.3528370931
 30
0.0
 11
797.1568779527
 21
313.8347344472
 31
0.0
  0
SPLINE
  5
1D0
330
1F
100
AcDbEntity
  8
0
  6
Continuous
 62
     7
370
    15
100
AcDbSpline
210
0.0
220
0.0
230
1.0
 70
     8
 71
     3
 72
     9
 73
     5
 74
     0
 42
0.00000001
 43
0.00000001
 12
1.0
 22
0.0
 32
0.0
 13
1.0
 23
0.0
 33
0.0
 40
0.0
 40
0.0
 40
0.0
 40
0.0
 40
0.8143684295532528
 40
0.9999999999999999
 40
0.9999999999999999
 40
0.9999999999999999
 40
0.9999999999999999
 10
787.9937367021128
 20
1171.952732093581
 30
0.0
 10
787.8653282310366
 20
1171.789151094066
 30
0.0
 10
787.7076496344503
 20
1171.58828255155
 30
0.0
 10
787.6038743832318
 20
1171.382992281406
 30
0.0
 10
787.5846104203745
 20
1171.344883926162
 30
0.0
  0
SPLINE
  5
1D1
330
1F
100
AcDbEntity
  8
0
  6
Continuous
 62
     7
370
    15
100
AcDbSpline
210
0.0
220
0.0
230
1.0
 70
     8
 71
     3
 72
    14
 73
    10
 74
     0
 42
0.00000001
 43
0.00000001
 12
1.0
 22
0.0
 32
0.0
 13
1.0
 23
0.0
 33
0.0
 40
0.0
 40
0.0
 40
0.0
 40
0.0
 40
0.180311896694085
 40
0.362114079277748
 40
0.4866225084614271
 40
0.611129504871441
 40
0.7389496338744816
 40
0.8668079322145918
 40
1.0
 40
1.0
 40
1.0
 40
1.0
 10
787.9937367021128
 20
1165.473230369338
 30
0.0
 10
787.8301423993471
 20
1165.855362029193
 30
0.0
 10
787.5016016795875
 20
1166.622783684162
 30
0.0
 10
787.2505245240859
 20
1167.68094622397
 30
0.0
 10
787.1726304469961
 20
1168.625013552886
 30
0.0
 10
787.2157591091463
 20
1169.451798166171
 30
0.0
 10
787.3730287003883
 20
1170.280275596164
 30
0.0
 10
787.6289318637803
 20
1171.118632361807
 30
0.0
 10
787.8704899215123
 20
1171.670937293077
 30
0.0
 10
787.9937367021128
 20
1171.952732093581
 30
0.0
  0
SPLINE
  5
1D2
330
1F
100
AcDbEntity
  8
0
  6
Continuous
 62
     7
370
    15
100
AcDbSpline
210
0.0
220
0.0
230
1.0
 70
     8
 71
     3
 72
    16
 73
    12
 74
     0
 42
0.00000001
 43
0.00000001
 12
1.0
 22
0.0
 32
0.0
 13
1.0
 23
0.0
 33
0.0
 40
0.0
 40
0.0
 40
0.0
 40
0.0
 40
0.2500000000000107
 40
0.2500000000000107
 40
0.5000000000000214
 40
0.5000000000000214
 40
0.625000000000019
 40
0.625000000000019
 40
0.7500000000000165
 40
0.7500000000000165
 40
1.0
 40
1.0
 40
1.0
 40
1.0
 10
787.9937385455619
 20
1155.197003753732
 30
0.0
 10
787.7488176865003
 20
1156.03595959538
 30
0.0
 10
787.5469586083799
 20
1156.881032142224
 30
0.0
 10
787.2673184733133
 20
1158.588801882647
 30
0.0
 10
787.1904598293569
 20
1159.451630100262
 30
0.0
 10
787.1896161693957
 20
1160.762128653568
 30
0.0
 10
787.2084053813846
 20
1161.201016854937
 30
0.0
 10
787.281673028188
 20
1162.069184041447
 30
0.0
 10
787.3360771114533
 20
1162.500356996808
 30
0.0
 10
787.5461561441535
 20
1163.786199428482
 30
0.0
 10
787.7485152602318
 20
1164.633222381585
 30
0.0
 10
787.9937418081872
 20
1165.473223964566
 30
0.0
  0
SPLINE
  5
1D3
330
1F
100
AcDbEntity
  8
0
  6
Continuous
 62
     7
370
    15
100
AcDbSpline
210
0.0
220
0.0
230
1.0
 70
     8
 71
     3
 72
    14
 73
    10
 74
     0
 42
0.00000001
 43
0.00000001
 12
1.0
 22
0.0
 32
0.0
 13
1.0
 23
0.0
 33
0.0
 40
0.0
 40
0.0
 40
0.0
 40
0.0
 40
0.1323172990072467
 40
0.2645978696506829
 40
0.3998358399371629
 40
0.5350521791212898
 40
0.6502524197667919
 40
0.7654726929986018
 40
1.0
 40
1.0
 40
1.0
 40
1.0
 10
787.9937367021128
 20
1151.400245912322
 30
0.0
 10
787.8713737316366
 20
1151.564283321246
 30
0.0
 10
787.6266817559458
 20
1151.892312605928
 30
0.0
 10
787.3633506872017
 20
1152.397446430465
 30
0.0
 10
787.2051610609174
 20
1152.912090923331
 30
0.0
 10
787.1734155682708
 20
1153.408133352946
 30
0.0
 10
787.2560282911334
 20
1153.877175366139
 30
0.0
 10
787.4727202939562
 20
1154.469981810448
 30
0.0
 10
787.7846012801082
 20
1154.905176990903
 30
0.0
 10
787.9937367021128
 20
1155.19700217987
 30
0.0
  0
LINE
  5
1D4
330
1F
100
AcDbEntity
  8
0
  6
Continuous
 62
     7
370
    15
100
AcDbLine
 10
786.7568807184
 20
1153.4264760091
 30
0.0
 11
786.7568807184
 21
1169.9265019968
 31
0.0
  0
LINE
  5
1D5
330
1F
100
AcDbEntity
  8
0
  6
Continuous
 62
     7
370
    15
100
AcDbLine
 10
787.9937367021
 20
1165.4732303693
 30
0.0
 11
795.920021969
 21
1165.4732303693
 31
0.0
  0
SPLINE
  5
1D6
330
1F
100
AcDbEntity
  8
0
  6
Continuous
 62
     7
370
    15
100
AcDbSpline
210
0.0
220
0.0
230
1.0
 70
     8
 71
     3
 72
    16
 73
    12
 74
     0
 42
0.00000001
 43
0.00000001
 12
1.0
 22
0.0
 32
0.0
 13
1.0
 23
0.0
 33
0.0
 40
0.0
 40
0.0
 40
0.0
 40
0.0
 40
0.2499999999999992
 40
0.2499999999999992
 40
0.4999999999999983
 40
0.4999999999999983
 40
0.624999999999999
 40
0.624999999999999
 40
0.7499999999999997
 40
0.7499999999999997
 40
1.0
 40
1.0
 40
1.0
 40
1.0
 10
795.9200212498167
 20
1165.473223964566
 30
0.0
 10
796.1649425085847
 20
1164.634268122362
 30
0.0
 10
796.3668020628116
 20
1163.789195585813
 30
0.0
 10
796.6464433014206
 20
1162.081425887478
 30
0.0
 10
796.723302574021
 20
1161.218597701826
 30
0.0
 10
796.7241472050085
 20
1159.90809920045
 30
0.0
 10
796.7053583158555
 20
1159.469210903372
 30
0.0
 10
796.6320912704729
 20
1158.601043560599
 30
0.0
 10
796.5776874696211
 20
1158.169870530104
 30
0.0
 10
796.3676092165532
 20
1156.884027884101
 30
0.0
 10
796.1652505277962
 20
1156.037004803253
 30
0.0
 10
795.9200243234163
 20
1155.197003106241
 30
0.0
  0
LINE
  5
1D7
330
1F
100
AcDbEntity
  8
0
  6
Continuous
 62
     7
370
    15
100
AcDbLine
 10
787.9937367021
 20
1155.1970021799
 30
0.0
 11
795.920021969
 21
1155.1970021799
 31
0.0
  0
SPLINE
  5
1D8
330
1F
100
AcDbEntity
  8
0
  6
Continuous
 62
     7
370
    15
100
AcDbSpline
210
0.0
220
0.0
230
1.0
 70
     8
 71
     3
 72
    16
 73
    12
 74
     0
 42
0.00000001
 43
0.00000001
 12
1.0
 22
0.0
 32
0.0
 13
1.0
 23
0.0
 33
0.0
 40
0.0
 40
0.0
 40
0.0
 40
0.0
 40
0.2500000000000009
 40
0.2500000000000009
 40
0.5000000000000019
 40
0.5000000000000019
 40
0.6250000000000023
 40
0.6250000000000023
 40
0.7500000000000029
 40
0.7500000000000029
 40
1.0
 40
1.0
 40
1.0
 40
1.0
 10
795.9200189936694
 20
1171.952724926384
 30
0.0
 10
796.1639947257768
 20
1171.425778920156
 30
0.0
 10
796.3686891302345
 20
1170.885943686695
 30
0.0
 10
796.6485437048174
 20
1169.803636071855
 30
0.0
 10
796.7239526201814
 20
1169.259553440075
 30
0.0
 10
796.7238268239406
 20
1168.438288977731
 30
0.0
 10
796.7051354442243
 20
1168.163687561555
 30
0.0
 10
796.6309606992197
 20
1167.612814549681
 30
0.0
 10
796.5757844704154
 20
1167.339035592071
 30
0.0
 10
796.3644474092071
 20
1166.527498668529
 30
0.0
 10
796.1624842200517
 20
1165.996903253683
 30
0.0
 10
795.9200212498163
 20
1165.473223964566
 30
0.0
  0
LINE
  5
1D9
330
1F
100
AcDbEntity
  8
0
  6
Continuous
 62
     7
370
    15
100
AcDbLine
 10
796.3071988403
 20
1171.3446157053
 30
0.0
 11
795.920021969
 21
1171.9527320936
 31
0.0
  0
SPLINE
  5
1DA
330
1F
100
AcDbEntity
  8
0
  6
Continuous
 62
     7
370
    15
100
AcDbSpline
210
0.0
220
0.0
230
1.0
 70
     8
 71
     3
 72
    14
 73
    10
 74
     0
 42
0.00000001
 43
0.00000001
 12
1.0
 22
0.0
 32
0.0
 13
1.0
 23
0.0
 33
0.0
 40
0.0
 40
0.0
 40
0.0
 40
0.0
 40
0.1323198365580151
 40
0.2646003984970179
 40
0.3998383598844593
 40
0.5350520607843852
 40
0.6502549188179432
 40
0.7654723883778619
 40
1.0
 40
1.0
 40
1.0
 40
1.0
 10
795.920021968989
 20
1155.19700217987
 30
0.0
 10
796.0423845042491
 20
1155.032965748773
 30
0.0
 10
796.2870732556341
 20
1154.704941575184
 30
0.0
 10
796.5504085322136
 20
1154.199799574003
 30
0.0
 10
796.7085964141212
 20
1153.685166073948
 30
0.0
 10
796.7403433204228
 20
1153.189099365285
 30
0.0
 10
796.6577288982473
 20
1152.72008742728
 30
0.0
 10
796.4410608784951
 20
1152.127251772636
 30
0.0
 10
796.1291674801753
 20
1151.69206675241
 30
0.0
 10
795.920021968989
 20
1151.400245912322
 30
0.0
  0
SPLINE
  5
1DB
330
1F
100
AcDbEntity
  8
0
  6
Continuous
 62
     7
370
    15
100
AcDbSpline
210
0.0
220
0.0
230
1.0
 70
     8
 71
     3
 72
    14
 73
    10
 74
     0
 42
0.00000001
 43
0.00000001
 12
1.0
 22
0.0
 32
0.0
 13
1.0
 23
0.0
 33
0.0
 40
0.0
 40
0.0
 40
0.0
 40
0.0
 40
0.1323198537736206
 40
0.264600432923119
 40
0.3998384119058314
 40
0.5350521303978718
 40
0.6502550034200136
 40
0.7654726779177486
 40
0.9999999999999999
 40
0.9999999999999999
 40
0.9999999999999999
 40
0.9999999999999999
 10
787.9937367021128
 20
312.8323333337389
 30
0.0
 10
787.8713741569179
 20
312.9963697653506
 30
0.0
 10
787.6266853856653
 20
313.3243939399679
 30
0.0
 10
787.3633502591664
 20
313.829535933374
 30
0.0
 10
787.2051617946935
 20
314.3441694636125
 30
0.0
 10
787.1734169670783
 20
314.840236064574
 30
0.0
 10
787.2560247677817
 20
315.3092485915279
 30
0.0
 10
787.472725091207
 20
315.9020824052418
 30
0.0
 10
787.7846022728809
 20
316.3372683984384
 30
0.0
 10
787.9937367021128
 20
316.6290896012865
 30
0.0
  0
SPLINE
  5
1DC
330
1F
100
AcDbEntity
  8
0
  6
Continuous
 62
     7
370
    15
100
AcDbSpline
210
0.0
220
0.0
230
1.0
 70
     8
 71
     3
 72
    16
 73
    12
 74
     0
 42
0.00000001
 43
0.00000001
 12
1.0
 22
0.0
 32
0.0
 13
1.0
 23
0.0
 33
0.0
 40
0.0
 40
0.0
 40
0.0
 40
0.0
 40
0.2500000000000063
 40
0.2500000000000063
 40
0.5000000000000127
 40
0.5000000000000127
 40
0.6250000000000091
 40
0.6250000000000091
 40
0.7500000000000057
 40
0.7500000000000057
 40
1.0
 40
1.0
 40
1.0
 40
1.0
 10
787.993741808187
 20
302.5561115490374
 30
0.0
 10
787.7488205660815
 20
303.3950673341674
 30
0.0
 10
787.546961022654
 20
304.2401398128083
 30
0.0
 10
787.2673197861935
 20
305.9479093925666
 30
0.0
 10
787.1904605046133
 20
306.8107375175014
 30
0.0
 10
787.1896158430249
 20
308.1212359253689
 30
0.0
 10
787.2084047193129
 20
308.5601241948239
 30
0.0
 10
787.2816717356004
 20
309.4282914824843
 30
0.0
 10
787.336075520116
 20
309.8594644857164
 30
0.0
 10
787.546153720733
 20
311.1453070504929
 30
0.0
 10
787.7485123701226
 20
311.9923300779114
 30
0.0
 10
787.9937385343934
 20
312.8323317216139
 30
0.0
  0
SPLINE
  5
1DD
330
1F
100
AcDbEntity
  8
0
  6
Continuous
 62
     7
370
    15
100
AcDbSpline
210
0.0
220
0.0
230
1.0
 70
     8
 71
     3
 72
    14
 73
    10
 74
     0
 42
0.00000001
 43
0.00000001
 12
1.0
 22
0.0
 32
0.0
 13
1.0
 23
0.0
 33
0.0
 40
0.0
 40
0.0
 40
0.0
 40
0.0
 40
0.1803118963843955
 40
0.3621158211768641
 40
0.4866242501466974
 40
0.6111294857496057
 40
0.7389513644387122
 40
0.8668079324433523
 40
1.0
 40
1.0
 40
1.0
 40
1.0
 10
787.9937367021128
 20
296.0766034200274
 30
0.0
 10
787.8301421189279
 20
296.4587332560321
 30
0.0
 10
787.5015992550462
 20
297.2261549410994
 30
0.0
 10
787.250525919585
 20
298.2843461324973
 30
0.0
 10
787.1726298768089
 20
299.2284202754777
 30
0.0
 10
787.2157614071797
 20
300.0551640766394
 30
0.0
 10
787.3730248070469
 20
300.8836860317861
 30
0.0
 10
787.6289347214642
 20
301.7220002450736
 30
0.0
 10
787.8704903460997
 20
302.274307361331
 30
0.0
 10
787.9937367021128
 20
302.5561051442705
 30
0.0
  0
LINE
  5
1DE
330
1F
100
AcDbEntity
  8
0
  6
Continuous
 62
     7
370
    15
100
AcDbLine
 10
787.6065598308
 20
296.6847198083
 30
0.0
 11
787.9937367021
 21
296.07660342
 31
0.0
  0
LINE
  5
1DF
330
1F
100
AcDbEntity
  8
0
  6
Continuous
 62
     7
370
    15
100
AcDbLine
 10
786.7568807184
 20
298.1028335168
 30
0.0
 11
786.7568807184
 21
314.6028595045
 31
0.0
  0
LINE
  5
1E0
330
1F
100
AcDbEntity
  8
0
  6
Continuous
 62
     7
370
    15
100
AcDbLine
 10
787.9937367021
 20
312.8323333337
 30
0.0
 11
795.920021969
 21
312.8323333337
 31
0.0
  0
SPLINE
  5
1E1
330
1F
100
AcDbEntity
  8
0
  6
Continuous
 62
     7
370
    15
100
AcDbSpline
210
0.0
220
0.0
230
1.0
 70
     8
 71
     3
 72
    16
 73
    12
 74
     0
 42
0.00000001
 43
0.00000001
 12
1.0
 22
0.0
 32
0.0
 13
1.0
 23
0.0
 33
0.0
 40
0.0
 40
0.0
 40
0.0
 40
0.0
 40
0.2499999999999989
 40
0.2499999999999989
 40
0.4999999999999978
 40
0.4999999999999978
 40
0.6249999999999983
 40
0.6249999999999983
 40
0.7499999999999989
 40
0.7499999999999989
 40
1.0
 40
1.0
 40
1.0
 40
1.0
 10
795.9200243377684
 20
312.8323323582009
 30
0.0
 10
796.164945231925
 20
311.9933764696097
 30
0.0
 10
796.3668043444122
 20
311.1483038757187
 30
0.0
 10
796.6464445403262
 20
309.4405340400821
 30
0.0
 10
796.7233032105574
 20
308.5777057742711
 30
0.0
 10
796.724146897352
 20
307.2672071468835
 30
0.0
 10
796.7053576920723
 20
306.8283189176865
 30
0.0
 10
796.6320900535521
 20
305.960151677509
 30
0.0
 10
796.5776859719792
 20
305.5289786957155
 30
0.0
 10
796.3676069379054
 20
304.2431361858019
 30
0.0
 10
796.1652478123463
 20
303.3961131819422
 30
0.0
 10
795.9200212498165
 20
302.5561115490375
 30
0.0
  0
LINE
  5
1E2
330
1F
100
AcDbEntity
  8
0
  6
Continuous
 62
     7
370
    15
100
AcDbLine
 10
787.9937367021
 20
302.5561051443
 30
0.0
 11
795.920021969
 21
302.5561051443
 31
0.0
  0
SPLINE
  5
1E3
330
1F
100
AcDbEntity
  8
0
  6
Continuous
 62
     7
370
    15
100
AcDbSpline
210
0.0
220
0.0
230
1.0
 70
     8
 71
     3
 72
     9
 73
     5
 74
     0
 42
0.00000001
 43
0.00000001
 12
1.0
 22
0.0
 32
0.0
 13
1.0
 23
0.0
 33
0.0
 40
0.0
 40
0.0
 40
0.0
 40
0.0
 40
0.8143684295532528
 40
0.9999999999999999
 40
0.9999999999999999
 40
0.9999999999999999
 40
0.9999999999999999
 10
795.920021968989
 20
296.0766034200274
 30
0.0
 10
796.0484304400652
 20
296.2401844195424
 30
0.0
 10
796.2061090366517
 20
296.4410529620579
 30
0.0
 10
796.3098842878702
 20
296.6463432322025
 30
0.0
 10
796.3291482507273
 20
296.6844515874468
 30
0.0
  0
SPLINE
  5
1E4
330
1F
100
AcDbEntity
  8
0
  6
Continuous
 62
     7
370
    15
100
AcDbSpline
210
0.0
220
0.0
230
1.0
 70
     8
 71
     3
 72
    16
 73
    12
 74
     0
 42
0.00000001
 43
0.00000001
 12
1.0
 22
0.0
 32
0.0
 13
1.0
 23
0.0
 33
0.0
 40
0.0
 40
0.0
 40
0.0
 40
0.0
 40
0.2500000000000003
 40
0.2500000000000003
 40
0.5000000000000007
 40
0.5000000000000007
 40
0.6250000000000009
 40
0.6250000000000009
 40
0.750000000000001
 40
0.750000000000001
 40
1.0
 40
1.0
 40
1.0
 40
1.0
 10
795.9200212498164
 20
302.5561115490375
 30
0.0
 10
796.1639967430807
 20
302.0291654642378
 30
0.0
 10
796.3686908298042
 20
301.4893301572305
 30
0.0
 10
796.648544623192
 20
300.4070224677833
 30
0.0
 10
796.7239530874513
 20
299.8629397959526
 30
0.0
 10
796.7238265891122
 20
299.0416752723786
 30
0.0
 10
796.7051349718942
 20
298.7670738356352
 30
0.0
 10
796.6309597599201
 20
298.2162007829906
 30
0.0
 10
796.5757833202642
 20
297.942421886745
 30
0.0
 10
796.3644456648666
 20
297.1308850343713
 30
0.0
 10
796.1624821461364
 20
296.6002896556058
 30
0.0
 10
795.9200189036446
 20
296.0766103927814
 30
0.0
  0
SPLINE
  5
1E5
330
1F
100
AcDbEntity
  8
0
  6
Continuous
 62
     7
370
    15
100
AcDbSpline
210
0.0
220
0.0
230
1.0
 70
     8
 71
     3
 72
    14
 73
    10
 74
     0
 42
0.00000001
 43
0.00000001
 12
1.0
 22
0.0
 32
0.0
 13
1.0
 23
0.0
 33
0.0
 40
0.0
 40
0.0
 40
0.0
 40
0.0
 40
0.1323172817914062
 40
0.2645978352237807
 40
0.3998357879144108
 40
0.5350521095055023
 40
0.6502523351622692
 40
0.7654724034597393
 40
1.0
 40
1.0
 40
1.0
 40
1.0
 10
795.920021968989
 20
316.6290896012865
 30
0.0
 10
796.0423849295308
 20
316.465052192877
 30
0.0
 10
796.2870768853554
 20
316.1370229092244
 30
0.0
 10
796.5504081041745
 20
315.6318890769119
 30
0.0
 10
796.7085971479075
 20
315.117244614228
 30
0.0
 10
796.7403447192036
 20
314.6212020769192
 30
0.0
 10
796.6577253751246
 20
314.1521606526498
 30
0.0
 10
796.4410656755905
 20
313.5593523674796
 30
0.0
 10
796.1291684728363
 20
313.1241581599692
 30
0.0
 10
795.920021968989
 20
312.8323333337389
 30
0.0
  0
LINE
  5
1E6
330
1F
100
AcDbEntity
  8
0
  6
Continuous
 62
     7
370
    15
100
AcDbLine
 10
787.9937367021
 20
1171.9527320936
 30
0.0
 11
795.920021969
 21
1171.9527320936
 31
0.0
  0
LINE
  5
1E7
330
1F
100
AcDbEntity
  8
0
  6
Continuous
 62
     7
370
    15
100
AcDbLine
 10
787.9937367021
 20
296.07660342
 30
0.0
 11
795.920021969
 21
296.07660342
 31
0.0
  0
LINE
  5
1E8
330
1F
100
AcDbEntity
  8
0
  6
Continuous
 62
     7
370
    15
100
AcDbLine
 10
787.9937367021
 20
1151.4002459123
 30
0.0
 11
795.920021969
 21
1151.4002459123
 31
0.0
  0
LINE
  5
1E9
330
1F
100
AcDbEntity
  8
0
  6
Continuous
 62
     7
370
    15
100
AcDbLine
 10
787.9937367021
 20
316.6290896013
 30
0.0
 11
795.920021969
 21
316.6290896013
 31
0.0
  0
LINE
  5
1EA
330
1F
100
AcDbEntity
  8
0
  6
Continuous
 62
     7
370
    15
100
AcDbLine
 10
751.6568826019
 20
1155.6764917448
 30
0.0
 11
751.6568826019
 21
1167.6764862611
 31
0.0
  0
LINE
  5
1EB
330
1F
100
AcDbEntity
  8
0
  6
Continuous
 62
     7
370
    15
100
AcDbLine
 10
751.6568826019
 20
300.3528492525
 30
0.0
 11
751.6568826019
 21
312.3528437688
 31
0.0
  0
LINE
  5
1EC
330
1F
100
AcDbEntity
  8
0
  6
Continuous
 62
     7
370
    15
100
AcDbLine
 10
797.1568779527
 20
1255.3002612665
 30
0.0
 11
797.1568779527
 21
1279.3002502992
 31
0.0
  0
LINE
  5
1ED
330
1F
100
AcDbEntity
  8
0
  6
Continuous
 62
     7
370
    15
100
AcDbLine
 10
797.1568779527
 20
203.3993380144
 30
0.0
 11
797.1568779527
 21
212.7290742471
 31
0.0
  0
LINE
  5
1EE
330
1F
100
AcDbEntity
  8
0
  6
Continuous
 62
     7
370
    15
100
AcDbLine
 10
797.1568779527
 20
188.7290852144
 30
0.0
 11
797.1568779527
 21
203.3993380144
 31
0.0
  0
LINE
  5
1EF
330
1F
100
AcDbEntity
  8
0
  6
Continuous
 62
     7
370
    15
100
AcDbLine
 10
787.9937367021
 20
1274.9183552339
 30
0.0
 11
795.920021969
 21
1274.9183552339
 31
0.0
  0
SPLINE
  5
1F0
330
1F
100
AcDbEntity
  8
0
  6
Continuous
 62
     7
370
    15
100
AcDbSpline
210
0.0
220
0.0
230
1.0
 70
     8
 71
     3
 72
    14
 73
    10
 74
     0
 42
0.00000001
 43
0.00000001
 12
1.0
 22
0.0
 32
0.0
 13
1.0
 23
0.0
 33
0.0
 40
0.0
 40
0.0
 40
0.0
 40
0.0
 40
0.1323170758276309
 40
0.2645976067274167
 40
0.399838129034035
 40
0.5350522677321555
 40
0.6502557846803538
 40
0.765472339612546
 40
1.0
 40
1.0
 40
1.0
 40
1.0
 10
795.920021968989
 20
1274.918355233916
 30
0.0
 10
796.042384902981
 20
1274.489313223746
 30
0.0
 10
796.2870769752919
 20
1273.631347701408
 30
0.0
 10
796.5504104731932
 20
1272.31014944011
 30
0.0
 10
796.708595305356
 20
1270.964088166784
 30
0.0
 10
796.7403432519523
 20
1269.666630159038
 30
0.0
 10
796.6577299676898
 20
1268.439758106307
 30
0.0
 10
796.4410591818682
 20
1266.889309063668
 30
0.0
 10
796.1291671351216
 20
1265.751035587125
 30
0.0
 10
795.920021968989
 20
1264.987744577178
 30
0.0
  0
LINE
  5
1F1
330
1F
100
AcDbEntity
  8
0
  6
Continuous
 62
     7
370
    15
100
AcDbLine
 10
787.9937367021
 20
1264.9877445772
 30
0.0
 11
795.920021969
 21
1264.9877445772
 31
0.0
  0
SPLINE
  5
1F2
330
1F
100
AcDbEntity
  8
0
  6
Continuous
 62
     7
370
    15
100
AcDbSpline
210
0.0
220
0.0
230
1.0
 70
     8
 71
     3
 72
    14
 73
    10
 74
     0
 42
0.00000001
 43
0.00000001
 12
1.0
 22
0.0
 32
0.0
 13
1.0
 23
0.0
 33
0.0
 40
0.0
 40
0.0
 40
0.0
 40
0.0
 40
0.1323175026033566
 40
0.2645980571453683
 40
0.3998381897457585
 40
0.5350527688993407
 40
0.6502505016550556
 40
0.7654726177491565
 40
1.0
 40
1.0
 40
1.0
 40
1.0
 10
787.9937367021128
 20
1264.987744577178
 30
0.0
 10
787.8713738355403
 20
1265.416786380127
 30
0.0
 10
787.6266822707448
 20
1266.274750181294
 30
0.0
 10
787.3633484016442
 20
1267.595947474572
 30
0.0
 10
787.2051634285374
 20
1268.942017163856
 30
0.0
 10
787.1734143419171
 20
1270.239448097814
 30
0.0
 10
787.2560313873
 20
1271.466318681566
 30
0.0
 10
787.4727167904636
 20
1273.016774303306
 30
0.0
 10
787.7846005202139
 20
1274.155065066865
 30
0.0
 10
787.9937367021128
 20
1274.918355233916
 30
0.0
  0
SPLINE
  5
1F3
330
1F
100
AcDbEntity
  8
0
  6
Continuous
 62
     7
370
    15
100
AcDbSpline
210
0.0
220
0.0
230
1.0
 70
     8
 71
     3
 72
     9
 73
     5
 74
     0
 42
0.00000001
 43
0.00000001
 12
1.0
 22
0.0
 32
0.0
 13
1.0
 23
0.0
 33
0.0
 40
0.0
 40
0.0
 40
0.0
 40
0.0
 40
0.4024680406411478
 40
1.0
 40
1.0
 40
1.0
 40
1.0
 10
787.3459087192102
 20
1258.068837411651
 30
0.0
 10
787.4007662768277
 20
1257.973634283185
 30
0.0
 10
787.5370691681826
 20
1257.73708598903
 30
0.0
 10
787.8229273203497
 20
1257.507062005418
 30
0.0
 10
787.9937367021128
 20
1257.36961532379
 30
0.0
  0
SPLINE
  5
1F4
330
1F
100
AcDbEntity
  8
0
  6
Continuous
 62
     7
370
    15
100
AcDbSpline
210
0.0
220
0.0
230
1.0
 70
     8
 71
     3
 72
    14
 73
    10
 74
     0
 42
0.00000001
 43
0.00000001
 12
1.0
 22
0.0
 32
0.0
 13
1.0
 23
0.0
 33
0.0
 40
0.0
 40
0.0
 40
0.0
 40
0.0
 40
0.1803126120306817
 40
0.362116332999757
 40
0.486623805746792
 40
0.6111285525401238
 40
0.7389517922154365
 40
0.8668083194211138
 40
1.0
 40
1.0
 40
1.0
 40
1.0
 10
787.9937367021128
 20
1274.918355233916
 30
0.0
 10
787.8301422180809
 20
1275.054738409831
 30
0.0
 10
787.5016003929171
 20
1275.328632592768
 30
0.0
 10
787.2505264519821
 20
1275.706266080497
 30
0.0
 10
787.1726295619496
 20
1276.043227003106
 30
0.0
 10
787.215762538578
 20
1276.338237039264
 30
0.0
 10
787.3730234253987
 20
1276.633995872849
 30
0.0
 10
787.6289343760508
 20
1276.933161428042
 30
0.0
 10
787.8704903327791
 20
1277.130268778576
 30
0.0
 10
787.9937367021128
 20
1277.230836637267
 30
0.0
  0
SPLINE
  5
1F5
330
1F
100
AcDbEntity
  8
0
  6
Continuous
 62
     7
370
    15
100
AcDbSpline
210
0.0
220
0.0
230
1.0
 70
     8
 71
     3
 72
    14
 73
    10
 74
     0
 42
0.00000001
 43
0.00000001
 12
1.0
 22
0.0
 32
0.0
 13
1.0
 23
0.0
 33
0.0
 40
0.0
 40
0.0
 40
0.0
 40
0.0
 40
0.1323194418515448
 40
0.2645987464355135
 40
0.3998367527149118
 40
0.5350526296575305
 40
0.6502536952216701
 40
0.7654713070496192
 40
1.0
 40
1.0
 40
1.0
 40
1.0
 10
787.9937367021128
 20
1257.36961532379
 30
0.0
 10
787.8713743432678
 20
1257.698761170573
 30
0.0
 10
787.6266867425023
 20
1258.35695302231
 30
0.0
 10
787.363348726984
 20
1259.370476380192
 30
0.0
 10
787.2051614311757
 20
1260.403066786886
 30
0.0
 10
787.1734162523846
 20
1261.398388170873
 30
0.0
 10
787.2560256717106
 20
1262.339584169639
 30
0.0
 10
787.4727262210786
 20
1263.528955061216
 30
0.0
 10
787.7846024629183
 20
1264.402184695618
 30
0.0
 10
787.9937367021128
 20
1264.987744577178
 30
0.0
  0
LINE
  5
1F6
330
1F
100
AcDbEntity
  8
0
  6
Continuous
 62
     7
370
    15
100
AcDbLine
 10
786.7568807184
 20
1259.0502278879
 30
0.0
 11
786.7568807184
 21
1275.5502240732
 31
0.0
  0
SPLINE
  5
1F7
330
1F
100
AcDbEntity
  8
0
  6
Continuous
 62
     7
370
    15
100
AcDbSpline
210
0.0
220
0.0
230
1.0
 70
     8
 71
     3
 72
    14
 73
    10
 74
     0
 42
0.00000001
 43
0.00000001
 12
1.0
 22
0.0
 32
0.0
 13
1.0
 23
0.0
 33
0.0
 40
0.0
 40
0.0
 40
0.0
 40
0.0
 40
0.1331917184961729
 40
0.2578378417563493
 40
0.3824536835259923
 40
0.5101679068209118
 40
0.637882853492731
 40
0.8180584084227834
 40
1.0
 40
1.0
 40
1.0
 40
1.0
 10
795.920021968989
 20
1277.230836637267
 30
0.0
 10
796.0432760654379
 20
1277.130268975674
 30
0.0
 10
796.2818762620178
 20
1276.935586084664
 30
0.0
 10
796.5347140182146
 20
1276.641422244035
 30
0.0
 10
796.6944726187519
 20
1276.348271473568
 30
0.0
 10
796.7423129025582
 20
1276.050733067966
 30
0.0
 10
796.6652057651211
 20
1275.710039547224
 30
0.0
 10
796.4133560990371
 20
1275.329891847154
 30
0.0
 10
796.0850004731783
 20
1275.055979393154
 30
0.0
 10
795.920021968989
 20
1274.918355233916
 30
0.0
  0
SPLINE
  5
1F8
330
1F
100
AcDbEntity
  8
0
  6
Continuous
 62
     7
370
    15
100
AcDbSpline
210
0.0
220
0.0
230
1.0
 70
     8
 71
     3
 72
     9
 73
     5
 74
     0
 42
0.00000001
 43
0.00000001
 12
1.0
 22
0.0
 32
0.0
 13
1.0
 23
0.0
 33
0.0
 40
0.0
 40
0.0
 40
0.0
 40
0.0
 40
0.5921872301100741
 40
1.0
 40
1.0
 40
1.0
 40
1.0
 10
795.920021968989
 20
1257.36961532379
 30
0.0
 10
796.0893733471274
 20
1257.505822997082
 30
0.0
 10
796.3753494194364
 20
1257.735830782401
 30
0.0
 10
796.5118856226188
 20
1257.972372626865
 30
0.0
 10
796.5675668298288
 20
1258.068837411651
 30
0.0
  0
SPLINE
  5
1F9
330
1F
100
AcDbEntity
  8
0
  6
Continuous
 62
     7
370
    15
100
AcDbSpline
210
0.0
220
0.0
230
1.0
 70
     8
 71
     3
 72
    14
 73
    10
 74
     0
 42
0.00000001
 43
0.00000001
 12
1.0
 22
0.0
 32
0.0
 13
1.0
 23
0.0
 33
0.0
 40
0.0
 40
0.0
 40
0.0
 40
0.0
 40
0.132319890341006
 40
0.2645991783011102
 40
0.3998371675848169
 40
0.5350520669244888
 40
0.6502540770057196
 40
0.7654714844072334
 40
1.0
 40
1.0
 40
1.0
 40
1.0
 10
795.920021968989
 20
1264.987744577178
 30
0.0
 10
796.0423842408776
 20
1264.658599126831
 30
0.0
 10
796.2870712377705
 20
1264.000409224475
 30
0.0
 10
796.550410134515
 20
1262.986882294957
 30
0.0
 10
796.7085964859427
 20
1261.95429937989
 30
0.0
 10
796.740343695143
 20
1260.958961149903
 30
0.0
 10
796.6577285148664
 20
1260.017782257342
 30
0.0
 10
796.441060075896
 20
1258.828402002355
 30
0.0
 10
796.1291673392292
 20
1257.955174183968
 30
0.0
 10
795.920021968989
 20
1257.36961532379
 30
0.0
  0
SPLINE
  5
1FA
330
1F
100
AcDbEntity
  8
0
  6
Continuous
 62
     7
370
    15
100
AcDbSpline
210
0.0
220
0.0
230
1.0
 70
     8
 71
     3
 72
    10
 73
     6
 74
     0
 42
0.00000001
 43
0.00000001
 12
1.0
 22
0.0
 32
0.0
 13
1.0
 23
0.0
 33
0.0
 40
0.0
 40
0.0
 40
0.0
 40
0.0
 40
0.4371848190290209
 40
0.8463129772344347
 40
1.0
 40
1.0
 40
1.0
 40
1.0
 10
787.9937367021128
 20
210.659720189818
 30
0.0
 10
787.871829228555
 20
210.5590934002413
 30
0.0
 10
787.6358377841976
 20
210.3642976201284
 30
0.0
 10
787.4196217780492
 20
210.1303567882134
 30
0.0
 10
787.3536434989591
 20
209.9969789697683
 30
0.0
 10
787.3356269179865
 20
209.9605577066027
 30
0.0
  0
SPLINE
  5
1FB
330
1F
100
AcDbEntity
  8
0
  6
Continuous
 62
     7
370
    15
100
AcDbSpline
210
0.0
220
0.0
230
1.0
 70
     8
 71
     3
 72
    14
 73
    10
 74
     0
 42
0.00000001
 43
0.00000001
 12
1.0
 22
0.0
 32
0.0
 13
1.0
 23
0.0
 33
0.0
 40
0.0
 40
0.0
 40
0.0
 40
0.0
 40
0.1323199075563825
 40
0.2645992127265805
 40
0.3998372196053206
 40
0.5350521365370219
 40
0.6502541616065206
 40
0.7654717739450858
 40
1.0
 40
1.0
 40
1.0
 40
1.0
 10
787.9937367021128
 20
203.0415909364306
 30
0.0
 10
787.8713744202892
 20
203.3707363878102
 30
0.0
 10
787.6266874035291
 20
204.0289262922319
 30
0.0
 10
787.3633486568634
 20
205.0424532061487
 30
0.0
 10
787.2051617228703
 20
206.0750361817737
 30
0.0
 10
787.1734165923688
 20
207.0703741956789
 30
0.0
 10
787.2560251512076
 20
208.0115542699426
 30
0.0
 10
787.4727258938627
 20
209.2009308312653
 30
0.0
 10
787.7846024138578
 20
210.0741606018323
 30
0.0
 10
787.9937367021128
 20
210.6597201898179
 30
0.0
  0
SPLINE
  5
1FC
330
1F
100
AcDbEntity
  8
0
  6
Continuous
 62
     7
370
    15
100
AcDbSpline
210
0.0
220
0.0
230
1.0
 70
     8
 71
     3
 72
    14
 73
    10
 74
     0
 42
0.00000001
 43
0.00000001
 12
1.0
 22
0.0
 32
0.0
 13
1.0
 23
0.0
 33
0.0
 40
0.0
 40
0.0
 40
0.0
 40
0.0
 40
0.1323170930426672
 40
0.2645976411527345
 40
0.3998381810547423
 40
0.5350523373448197
 40
0.6502558692815047
 40
0.7654726291526999
 40
1.0
 40
1.0
 40
1.0
 40
1.0
 10
787.9937367021128
 20
193.1109802796923
 30
0.0
 10
787.8713737581861
 20
193.5400222912088
 30
0.0
 10
787.6266816660083
 20
194.397987816238
 30
0.0
 10
787.3633483181886
 20
195.7191860571992
 30
0.0
 10
787.2051629034438
 20
197.0652474094695
 30
0.0
 10
787.1734170355735
 20
198.3627051355325
 30
0.0
 10
787.256023698274
 20
199.5895787287164
 30
0.0
 10
787.4727267878927
 20
201.140022956379
 30
0.0
 10
787.7846026179756
 20
202.2782989777201
 30
0.0
 10
787.9937367021128
 20
203.0415909364306
 30
0.0
  0
SPLINE
  5
1FD
330
1F
100
AcDbEntity
  8
0
  6
Continuous
 62
     7
370
    15
100
AcDbSpline
210
0.0
220
0.0
230
1.0
 70
     8
 71
     3
 72
    14
 73
    10
 74
     0
 42
0.00000001
 43
0.00000001
 12
1.0
 22
0.0
 32
0.0
 13
1.0
 23
0.0
 33
0.0
 40
0.0
 40
0.0
 40
0.0
 40
0.0
 40
0.1803119392850243
 40
0.3621156560356217
 40
0.4866231258936506
 40
0.6111278697980397
 40
0.7389524746115359
 40
0.8668083225116235
 40
1.0
 40
1.0
 40
1.0
 40
1.0
 10
787.9937367021128
 20
190.7984988763415
 30
0.0
 10
787.830142120698
 20
190.9348821798559
 30
0.0
 10
787.5015994883698
 20
191.2087771289105
 30
0.0
 10
787.2505266365439
 20
191.5864097854563
 30
0.0
 10
787.172629318637
 20
191.923370328696
 30
0.0
 10
787.2157635504262
 20
192.2183830219277
 30
0.0
 10
787.3730212155222
 20
192.5141362155467
 30
0.0
 10
787.6289355555224
 20
192.8133064445725
 30
0.0
 10
787.8704905198217
 20
193.0104127127058
 30
0.0
 10
787.9937367021128
 20
193.1109802796923
 30
0.0
  0
LINE
  5
1FE
330
1F
100
AcDbEntity
  8
0
  6
Continuous
 62
     7
370
    15
100
AcDbLine
 10
786.7568807184
 20
192.4791114404
 30
0.0
 11
786.7568807184
 21
208.9791076257
 31
0.0
  0
LINE
  5
1FF
330
1F
100
AcDbEntity
  8
0
  6
Continuous
 62
     7
370
    15
100
AcDbLine
 10
787.9937367021
 20
203.0415909364
 30
0.0
 11
795.920021969
 21
203.0415909364
 31
0.0
  0
SPLINE
  5
200
330
1F
100
AcDbEntity
  8
0
  6
Continuous
 62
     7
370
    15
100
AcDbSpline
210
0.0
220
0.0
230
1.0
 70
     8
 71
     3
 72
    14
 73
    10
 74
     0
 42
0.00000001
 43
0.00000001
 12
1.0
 22
0.0
 32
0.0
 13
1.0
 23
0.0
 33
0.0
 40
0.0
 40
0.0
 40
0.0
 40
0.0
 40
0.1323174853870991
 40
0.2645980227176607
 40
0.3998381377215206
 40
0.5350526992818972
 40
0.6502504170488632
 40
0.7654723282110587
 40
1.0
 40
1.0
 40
1.0
 40
1.0
 10
795.920021968989
 20
203.0415909364306
 30
0.0
 10
796.0423848256273
 20
202.6125491348276
 30
0.0
 10
796.2870763705569
 20
201.7545853363524
 30
0.0
 10
796.5504103897304
 20
200.4333880227391
 30
0.0
 10
796.7085947802912
 20
199.0873184123915
 30
0.0
 10
796.7403459454857
 20
197.7898871967809
 30
0.0
 10
796.6577222791489
 20
196.5630181533382
 30
0.0
 10
796.4410691789865
 20
195.0125577168571
 30
0.0
 10
796.1291692326579
 20
193.8742694980328
 30
0.0
 10
795.920021968989
 20
193.1109802796923
 30
0.0
  0
LINE
  5
201
330
1F
100
AcDbEntity
  8
0
  6
Continuous
 62
     7
370
    15
100
AcDbLine
 10
787.9937367021
 20
193.1109802797
 30
0.0
 11
795.920021969
 21
193.1109802797
 31
0.0
  0
SPLINE
  5
202
330
1F
100
AcDbEntity
  8
0
  6
Continuous
 62
     7
370
    15
100
AcDbSpline
210
0.0
220
0.0
230
1.0
 70
     8
 71
     3
 72
    14
 73
    10
 74
     0
 42
0.00000001
 43
0.00000001
 12
1.0
 22
0.0
 32
0.0
 13
1.0
 23
0.0
 33
0.0
 40
0.0
 40
0.0
 40
0.0
 40
0.0
 40
0.1331917156555177
 40
0.2578371600369448
 40
0.3824524342724745
 40
0.5101666548435604
 40
0.6378835424476813
 40
0.818058412303155
 40
1.0
 40
1.0
 40
1.0
 40
1.0
 10
795.920021968989
 20
193.1109802796923
 30
0.0
 10
796.0432759390121
 20
193.0104146343088
 30
0.0
 10
796.281875265086
 20
192.8157361569322
 30
0.0
 10
796.5347142111423
 20
192.521545452318
 30
0.0
 10
796.6944730194383
 20
192.2284912895316
 30
0.0
 10
796.7423124847038
 20
191.9309480364434
 30
0.0
 10
796.6652075021177
 20
191.5901588721433
 30
0.0
 10
796.4133550946502
 20
191.2100420996701
 30
0.0
 10
796.0850003438702
 20
190.9361254184212
 30
0.0
 10
795.920021968989
 20
190.7984988763415
 30
0.0
  0
SPLINE
  5
203
330
1F
100
AcDbEntity
  8
0
  6
Continuous
 62
     7
370
    15
100
AcDbSpline
210
0.0
220
0.0
230
1.0
 70
     8
 71
     3
 72
    14
 73
    10
 74
     0
 42
0.00000001
 43
0.00000001
 12
1.0
 22
0.0
 32
0.0
 13
1.0
 23
0.0
 33
0.0
 40
0.0
 40
0.0
 40
0.0
 40
0.0
 40
0.1323194246363135
 40
0.2645987120102729
 40
0.3998367006947243
 40
0.5350525600452752
 40
0.6502536106213452
 40
0.7654710175123175
 40
1.0
 40
1.0
 40
1.0
 40
1.0
 10
795.920021968989
 20
210.659720189818
 30
0.0
 10
796.0423843178991
 20
210.3305743440682
 30
0.0
 10
796.2870718987975
 20
209.672382494396
 30
0.0
 10
796.5504100643943
 20
208.6588591209137
 30
0.0
 10
796.7085967776364
 20
207.6262687747774
 30
0.0
 10
796.7403440351331
 20
206.6309471747096
 30
0.0
 10
796.6577279944147
 20
205.6897523576461
 30
0.0
 10
796.4410597487117
 20
204.500377772406
 30
0.0
 10
796.1291672901853
 20
203.6271500901818
 30
0.0
 10
795.920021968989
 20
203.0415909364305
 30
0.0
  0
SPLINE
  5
204
330
1F
100
AcDbEntity
  8
0
  6
Continuous
 62
     7
370
    15
100
AcDbSpline
210
0.0
220
0.0
230
1.0
 70
     8
 71
     3
 72
    10
 73
     6
 74
     0
 42
0.00000001
 43
0.00000001
 12
1.0
 22
0.0
 32
0.0
 13
1.0
 23
0.0
 33
0.0
 40
0.0
 40
0.0
 40
0.0
 40
0.0
 40
0.143133412833214
 40
0.5628091203192803
 40
1.0
 40
1.0
 40
1.0
 40
1.0
 10
796.5779678403421
 20
209.9605577066027
 30
0.0
 10
796.5616021120233
 20
209.9944908856136
 30
0.0
 10
796.4972510916967
 20
210.1279181703455
 30
0.0
 10
796.2805147567753
 20
210.3618598632661
 30
0.0
 10
796.0418126645715
 20
210.5590895597855
 30
0.0
 10
795.920021968989
 20
210.659720189818
 30
0.0
  0
LINE
  5
205
330
1F
100
AcDbEntity
  8
0
  6
Continuous
 62
     7
370
    15
100
AcDbLine
 10
787.9937367021
 20
1257.3696153238
 30
0.0
 11
795.920021969
 21
1257.3696153238
 31
0.0
  0
LINE
  5
206
330
1F
100
AcDbEntity
  8
0
  6
Continuous
 62
     7
370
    15
100
AcDbLine
 10
787.9937367021
 20
210.6597201898
 30
0.0
 11
795.920021969
 21
210.6597201898
 31
0.0
  0
LINE
  5
207
330
1F
100
AcDbEntity
  8
0
  6
Continuous
 62
     7
370
    15
100
AcDbLine
 10
787.9937367021
 20
1277.2308366373
 30
0.0
 11
795.920021969
 21
1277.2308366373
 31
0.0
  0
LINE
  5
208
330
1F
100
AcDbEntity
  8
0
  6
Continuous
 62
     7
370
    15
100
AcDbLine
 10
787.9937367021
 20
190.7984988763
 30
0.0
 11
795.920021969
 21
190.7984988763
 31
0.0
  0
LINE
  5
209
330
1F
100
AcDbEntity
  8
0
  6
Continuous
 62
     7
370
    15
100
AcDbLine
 10
751.6568826019
 20
1261.3002436235
 30
0.0
 11
751.6568826019
 21
1273.3002083376
 31
0.0
  0
LINE
  5
20A
330
1F
100
AcDbEntity
  8
0
  6
Continuous
 62
     7
370
    15
100
AcDbLine
 10
751.6568826019
 20
194.7291271761
 30
0.0
 11
751.6568826019
 21
206.7290918901
 31
0.0
  0
LINE
  5
20B
330
1F
100
AcDbEntity
  8
0
  6
Continuous
 62
     7
370
     0
100
AcDbLine
 10
805.8964685976
 20
734.0146677568
 30
0.0
 11
805.8964685976
 21
1292.2761218622
 31
0.0
  0
LINE
  5
20C
330
1F
100
AcDbEntity
  8
0
  6
Continuous
 62
     7
370
     0
100
AcDbLine
 10
805.8964685976
 20
175.7532136514
 30
0.0
 11
805.8964685976
 21
734.0146677568
 31
0.0
  0
LINE
  5
20D
330
1F
100
AcDbEntity
  8
0
  6
Continuous
 62
     7
370
     0
100
AcDbLine
 10
802.9078917085
 20
734.0146677568
 30
0.0
 11
802.9078917085
 21
1295.0146572664
 31
0.0
  0
LINE
  5
20E
330
1F
100
AcDbEntity
  8
0
  6
Continuous
 62
     7
370
     0
100
AcDbLine
 10
802.9078917085
 20
173.0146782472
 30
0.0
 11
802.9078917085
 21
734.0146677568
 31
0.0
  0
LINE
  5
20F
330
1F
100
AcDbEntity
  8
0
  6
Continuous
 62
     7
370
     0
100
AcDbLine
 10
807.31873973
 20
1273.3002083376
 30
0.0
 11
807.31873973
 21
1276.0194914415
 31
0.0
  0
LINE
  5
210
330
1F
100
AcDbEntity
  8
0
  6
Continuous
 62
     7
370
     0
100
AcDbLine
 10
807.31873973
 20
1167.6764862611
 30
0.0
 11
807.31873973
 21
1261.6842167451
 31
0.0
  0
LINE
  5
211
330
1F
100
AcDbEntity
  8
0
  6
Continuous
 62
     7
370
     0
100
AcDbLine
 10
807.31873973
 20
977.3490803316
 30
0.0
 11
807.31873973
 21
1155.7003038004
 31
0.0
  0
LINE
  5
212
330
1F
100
AcDbEntity
  8
0
  6
Continuous
 62
     7
370
     0
100
AcDbLine
 10
807.31873973
 20
740.014667809
 30
0.0
 11
807.31873973
 21
965.349070914
 31
0.0
  0
LINE
  5
213
330
1F
100
AcDbEntity
  8
0
  6
Continuous
 62
     7
370
     0
100
AcDbLine
 10
807.31873973
 20
502.6802645996
 30
0.0
 11
807.31873973
 21
728.0146677047
 31
0.0
  0
LINE
  5
214
330
1F
100
AcDbEntity
  8
0
  6
Continuous
 62
     7
370
     0
100
AcDbLine
 10
807.31873973
 20
312.3290317133
 30
0.0
 11
807.31873973
 21
490.680255182
 31
0.0
  0
LINE
  5
215
330
1F
100
AcDbEntity
  8
0
  6
Continuous
 62
     7
370
     0
100
AcDbLine
 10
807.31873973
 20
206.3451187685
 30
0.0
 11
807.31873973
 21
300.3528492525
 31
0.0
  0
LINE
  5
216
330
1F
100
AcDbEntity
  8
0
  6
Continuous
 62
     7
370
     0
100
AcDbLine
 10
807.31873973
 20
192.0098440721
 30
0.0
 11
807.31873973
 21
194.7291271761
 31
0.0
  0
LINE
  5
217
330
1F
100
AcDbEntity
  8
0
  6
Continuous
 62
     7
370
     0
100
AcDbLine
 10
812.0380417882
 20
740.014667809
 30
0.0
 11
812.0380417882
 21
965.349070914
 31
0.0
  0
LINE
  5
218
330
1F
100
AcDbEntity
  8
0
  6
Continuous
 62
     7
370
     0
100
AcDbLine
 10
812.0380417882
 20
977.3490803316
 30
0.0
 11
812.0380417882
 21
1155.6764917448
 31
0.0
  0
LINE
  5
219
330
1F
100
AcDbEntity
  8
0
  6
Continuous
 62
     7
370
     0
100
AcDbLine
 10
812.0380417882
 20
1167.6764862611
 30
0.0
 11
812.0380417882
 21
1261.3002436235
 31
0.0
  0
LINE
  5
21A
330
1F
100
AcDbEntity
  8
0
  6
Continuous
 62
     7
370
     0
100
AcDbLine
 10
812.0380417882
 20
206.7290918901
 30
0.0
 11
812.0380417882
 21
300.3528492525
 31
0.0
  0
LINE
  5
21B
330
1F
100
AcDbEntity
  8
0
  6
Continuous
 62
     7
370
     0
100
AcDbLine
 10
812.0380417882
 20
312.3528437688
 30
0.0
 11
812.0380417882
 21
490.680255182
 31
0.0
  0
LINE
  5
21C
330
1F
100
AcDbEntity
  8
0
  6
Continuous
 62
     7
370
     0
100
AcDbLine
 10
812.0380417882
 20
502.6802645996
 30
0.0
 11
812.0380417882
 21
728.0146677047
 31
0.0
  0
LINE
  5
21D
330
1F
100
AcDbEntity
  8
0
  6
Continuous
 62
     7
370
     0
100
AcDbLine
 10
837.2877241551
 20
740.014667809
 30
0.0
 11
837.2877241551
 21
965.349070914
 31
0.0
  0
LINE
  5
21E
330
1F
100
AcDbEntity
  8
0
  6
Continuous
 62
     7
370
     0
100
AcDbLine
 10
837.2877241551
 20
977.3490803316
 30
0.0
 11
837.2877241551
 21
1155.6764917448
 31
0.0
  0
LINE
  5
21F
330
1F
100
AcDbEntity
  8
0
  6
Continuous
 62
     7
370
     0
100
AcDbLine
 10
837.2877241551
 20
1167.6764862611
 30
0.0
 11
837.2877241551
 21
1261.3002436235
 31
0.0
  0
LINE
  5
220
330
1F
100
AcDbEntity
  8
0
  6
Continuous
 62
     7
370
     0
100
AcDbLine
 10
837.2877241551
 20
206.7290918901
 30
0.0
 11
837.2877241551
 21
300.3528492525
 31
0.0
  0
LINE
  5
221
330
1F
100
AcDbEntity
  8
0
  6
Continuous
 62
     7
370
     0
100
AcDbLine
 10
837.2877241551
 20
312.3528437688
 30
0.0
 11
837.2877241551
 21
490.680255182
 31
0.0
  0
LINE
  5
222
330
1F
100
AcDbEntity
  8
0
  6
Continuous
 62
     7
370
     0
100
AcDbLine
 10
837.2877241551
 20
502.6802645996
 30
0.0
 11
837.2877241551
 21
728.0146677047
 31
0.0
  0
LINE
  5
223
330
1F
100
AcDbEntity
  8
FORMAT
  6
CENTERX2
370
     0
100
AcDbLine
 10
734.1626869026
 20
734.0146677568
 30
0.0
 11
951.656881529
 21
734.0146677568
 31
0.0
  0
LINE
  5
224
330
1F
100
AcDbEntity
  8
0
  6
Continuous
 62
     7
370
    15
100
AcDbLine
 10
571.3598182873
 20
-278.3830503693
 30
0.0
 11
571.3598182873
 21
-248.3830510398
 31
0.0
  0
LINE
  5
225
330
1F
100
AcDbEntity
  8
0
  6
Continuous
 62
     7
370
    15
100
AcDbLine
 10
-683.6401769443
 20
-248.3830510398
 30
0.0
 11
-683.6401769443
 21
-278.3830503693
 31
0.0
  0
ARC
  5
226
330
1F
100
AcDbEntity
  8
0
  6
Continuous
 62
     7
370
    15
100
AcDbCircle
 10
-614.1401793285
 20
-131.6340568472
 30
0.0
 40
3.000000000000002
100
AcDbArc
 50
180.0
 51
265.0
  0
ARC
  5
227
330
1F
100
AcDbEntity
  8
0
  6
Continuous
 62
     7
370
    15
100
AcDbCircle
 10
501.8598206715
 20
-131.6340568472
 30
0.0
 40
3.000000000000057
100
AcDbArc
 50
275.0
 51
0.0
  0
LINE
  5
228
330
1F
100
AcDbEntity
  8
0
  6
Continuous
 62
     7
370
    15
100
AcDbLine
 10
-617.1401688381
 20
-128.3830444088
 30
0.0
 11
-617.1401688381
 21
-131.6340605488
 31
0.0
  0
LINE
  5
229
330
1F
100
AcDbEntity
  8
0
  6
Continuous
 62
     7
370
    15
100
AcDbLine
 10
504.8598101811
 20
-131.6340605488
 30
0.0
 11
504.8598101811
 21
-128.3830444088
 31
0.0
  0
LINE
  5
22A
330
1F
100
AcDbEntity
  8
0
  6
Continuous
 62
     7
370
    15
100
AcDbLine
 10
-614.4016334339
 20
-134.6226374378
 30
0.0
 11
-609.1288277431
 21
-135.0839475861
 31
0.0
  0
LINE
  5
22B
330
1F
100
AcDbEntity
  8
0
  6
Continuous
 62
     7
370
    15
100
AcDbLine
 10
496.8484690861
 20
-135.0839475861
 30
0.0
 11
502.1212747769
 21
-134.6226374378
 31
0.0
  0
LINE
  5
22C
330
1F
100
AcDbEntity
  8
0
  6
Continuous
 62
     7
370
    15
100
AcDbLine
 10
53.5787692742
 20
-125.883046793
 30
0.0
 11
53.5787692742
 21
-128.3830444088
 31
0.0
  0
LINE
  5
22D
330
1F
100
AcDbEntity
  8
0
  6
Continuous
 62
     7
370
    15
100
AcDbLine
 10
77.5787732081
 20
-128.3830444088
 30
0.0
 11
77.5787732081
 21
-125.883046793
 31
0.0
  0
LINE
  5
22E
330
1F
100
AcDbEntity
  8
0
  6
Continuous
 62
     7
370
    15
100
AcDbLine
 10
-189.8591318651
 20
-125.883046793
 30
0.0
 11
-189.8591318651
 21
-128.3830444088
 31
0.0
  0
LINE
  5
22F
330
1F
100
AcDbEntity
  8
0
  6
Continuous
 62
     7
370
    15
100
AcDbLine
 10
-165.8591279312
 20
-128.3830444088
 30
0.0
 11
-165.8591279312
 21
-125.883046793
 31
0.0
  0
LINE
  5
230
330
1F
100
AcDbEntity
  8
0
  6
Continuous
 62
     7
370
    15
100
AcDbLine
 10
56.1565658526
 20
-125.206280755
 30
0.0
 11
57.3287731485
 21
-125.883046793
 31
0.0
  0
LINE
  5
231
330
1F
100
AcDbEntity
  8
0
  6
Continuous
 62
     7
370
    15
100
AcDbLine
 10
73.8287767844
 20
-125.883046793
 30
0.0
 11
75.0009766297
 21
-125.206280755
 31
0.0
  0
LINE
  5
232
330
1F
100
AcDbEntity
  8
0
  6
Continuous
 62
     7
370
    15
100
AcDbLine
 10
74.9973705487
 20
-116.1577443352
 30
0.0
 11
73.8287767844
 21
-115.4830495586
 31
0.0
  0
LINE
  5
233
330
1F
100
AcDbEntity
  8
0
  6
Continuous
 62
     7
370
    15
100
AcDbLine
 10
57.3287731485
 20
-115.4830495586
 30
0.0
 11
56.1601793842
 21
-116.1577443352
 31
0.0
  0
LINE
  5
234
330
1F
100
AcDbEntity
  8
0
  6
Continuous
 62
     7
370
    15
100
AcDbLine
 10
-187.2777292057
 20
-125.2083669176
 30
0.0
 11
-186.1091354414
 21
-125.883046793
 31
0.0
  0
LINE
  5
235
330
1F
100
AcDbEntity
  8
0
  6
Continuous
 62
     7
370
    15
100
AcDbLine
 10
-169.6091318055
 20
-125.883046793
 30
0.0
 11
-168.4405380412
 21
-125.2083669176
 31
0.0
  0
LINE
  5
236
330
1F
100
AcDbEntity
  8
0
  6
Continuous
 62
     7
370
    15
100
AcDbLine
 10
-168.4369245096
 20
-116.1598155966
 30
0.0
 11
-169.6091318055
 21
-115.4830495586
 31
0.0
  0
LINE
  5
237
330
1F
100
AcDbEntity
  8
0
  6
Continuous
 62
     7
370
    15
100
AcDbLine
 10
-186.1091354414
 20
-115.4830495586
 30
0.0
 11
-187.2813352867
 21
-116.1598155966
 31
0.0
  0
ARC
  5
238
330
1F
100
AcDbEntity
  8
0
  6
Continuous
 62
     7
370
    15
100
AcDbCircle
 10
-598.5807692097
 20
-141.0258875441
 30
0.0
 40
5.000000000000039
100
AcDbArc
 50
3.0
 51
73.5240168987
  0
ARC
  5
239
330
1F
100
AcDbEntity
  8
0
  6
Continuous
 62
     7
370
    15
100
AcDbCircle
 10
486.3004105526
 20
-141.0258875441
 30
0.0
 40
5.000000000000039
100
AcDbArc
 50
106.4784435122
 51
177.0
  0
LINE
  5
23A
330
1F
100
AcDbEntity
  8
0
  6
Continuous
 62
     7
370
    15
100
AcDbLine
 10
71.5787759499
 20
-115.4830495586
 30
0.0
 11
71.5787759499
 21
-80.3830514421
 31
0.0
  0
LINE
  5
23B
330
1F
100
AcDbEntity
  8
0
  6
Continuous
 62
     7
370
    15
100
AcDbLine
 10
59.5787739829
 20
-80.3830514421
 30
0.0
 11
59.5787739829
 21
-115.4830495586
 31
0.0
  0
LINE
  5
23C
330
1F
100
AcDbEntity
  8
0
  6
Continuous
 62
     7
370
    15
100
AcDbLine
 10
71.5787759499
 20
-248.3830510398
 30
0.0
 11
71.5787759499
 21
-135.4887376299
 31
0.0
  0
LINE
  5
23D
330
1F
100
AcDbEntity
  8
0
  6
Continuous
 62
     7
370
    15
100
AcDbLine
 10
59.5787739829
 20
-135.7218215933
 30
0.0
 11
59.5787739829
 21
-248.3830510398
 31
0.0
  0
LINE
  5
23E
330
1F
100
AcDbEntity
  8
0
  6
Continuous
 62
     7
370
    15
100
AcDbLine
 10
-171.85913264
 20
-115.4830495586
 30
0.0
 11
-171.85913264
 21
-80.3830514421
 31
0.0
  0
LINE
  5
23F
330
1F
100
AcDbEntity
  8
0
  6
Continuous
 62
     7
370
    15
100
AcDbLine
 10
-183.8591346069
 20
-80.3830514421
 30
0.0
 11
-183.8591346069
 21
-115.4830495586
 31
0.0
  0
LINE
  5
240
330
1F
100
AcDbEntity
  8
0
  6
Continuous
 62
     7
370
    15
100
AcDbLine
 10
-171.85913264
 20
-248.3830510398
 30
0.0
 11
-171.85913264
 21
-135.7215831747
 31
0.0
  0
LINE
  5
241
330
1F
100
AcDbEntity
  8
0
  6
Continuous
 62
     7
370
    15
100
AcDbLine
 10
-183.8591346069
 20
-135.4883949032
 30
0.0
 11
-183.8591346069
 21
-248.3830510398
 31
0.0
  0
LINE
  5
242
330
1F
100
AcDbEntity
  8
0
  6
Continuous
 62
     7
370
    15
100
AcDbLine
 10
-593.5876318737
 20
-140.7642106285
 30
0.0
 11
-592.264349155
 21
-166.0138929954
 31
0.0
  0
LINE
  5
243
330
1F
100
AcDbEntity
  8
0
  6
Continuous
 62
     7
370
    15
100
AcDbLine
 10
479.983990498
 20
-166.0138929954
 30
0.0
 11
481.3072732167
 21
-140.7642106285
 31
0.0
  0
ARC
  5
244
330
1F
100
AcDbEntity
  8
0
  6
Continuous
 62
     7
370
    15
100
AcDbCircle
 10
-589.7677679117
 20
-165.8830503693
 30
0.0
 40
2.500000000000018
100
AcDbArc
 50
183.0
 51
270.0
  0
ARC
  5
245
330
1F
100
AcDbEntity
  8
0
  6
Continuous
 62
     7
370
    15
100
AcDbCircle
 10
477.4874092547
 20
-165.8830503693
 30
0.0
 40
2.5
100
AcDbArc
 50
270.0
 51
357.0
  0
LINE
  5
246
330
1F
100
AcDbEntity
  8
0
  6
Continuous
 62
     7
370
    15
100
AcDbLine
 10
462.8598144726
 20
-248.3830510398
 30
0.0
 11
462.8598144726
 21
-168.3830509653
 31
0.0
  0
LINE
  5
247
330
1F
100
AcDbEntity
  8
0
  6
Continuous
 62
     7
370
    15
100
AcDbLine
 10
-575.1401731296
 20
-168.3830509653
 30
0.0
 11
-575.1401731296
 21
-248.3830510398
 31
0.0
  0
LINE
  5
248
330
1F
100
AcDbEntity
  8
0
  6
Continuous
 62
     7
370
    15
100
AcDbLine
 10
272.9087522702
 20
-125.883046793
 30
0.0
 11
272.9087522702
 21
-128.3830444088
 31
0.0
  0
LINE
  5
249
330
1F
100
AcDbEntity
  8
0
  6
Continuous
 62
     7
370
    15
100
AcDbLine
 10
296.9087413029
 20
-128.3830444088
 30
0.0
 11
296.9087413029
 21
-125.883046793
 31
0.0
  0
LINE
  5
24A
330
1F
100
AcDbEntity
  8
0
  6
Continuous
 62
     7
370
    15
100
AcDbLine
 10
-409.1890999599
 20
-125.883046793
 30
0.0
 11
-409.1890999599
 21
-128.3830444088
 31
0.0
  0
LINE
  5
24B
330
1F
100
AcDbEntity
  8
0
  6
Continuous
 62
     7
370
    15
100
AcDbLine
 10
-385.1891109272
 20
-128.3830444088
 30
0.0
 11
-385.1891109272
 21
-125.883046793
 31
0.0
  0
LINE
  5
24C
330
1F
100
AcDbEntity
  8
0
  6
Continuous
 62
     7
370
    15
100
AcDbLine
 10
294.0149954037
 20
-115.9774104824
 30
0.0
 11
293.1587448792
 21
-115.4830495586
 31
0.0
  0
LINE
  5
24D
330
1F
100
AcDbEntity
  8
0
  6
Continuous
 62
     7
370
    15
100
AcDbLine
 10
276.6587486939
 20
-115.4830495586
 30
0.0
 11
275.8024981694
 21
-115.9774104824
 31
0.0
  0
LINE
  5
24E
330
1F
100
AcDbEntity
  8
0
  6
Continuous
 62
     7
370
    15
100
AcDbLine
 10
275.8039584832
 20
-125.3895352354
 30
0.0
 11
276.6587486939
 21
-125.883046793
 31
0.0
  0
LINE
  5
24F
330
1F
100
AcDbEntity
  8
0
  6
Continuous
 62
     7
370
    15
100
AcDbLine
 10
293.1587448792
 20
-125.883046793
 30
0.0
 11
294.0135350899
 21
-125.3895352354
 31
0.0
  0
LINE
  5
250
330
1F
100
AcDbEntity
  8
0
  6
Continuous
 62
     7
370
    15
100
AcDbLine
 10
-388.0843171402
 20
-115.9765611162
 30
0.0
 11
-388.9391073509
 21
-115.4830495586
 31
0.0
  0
LINE
  5
251
330
1F
100
AcDbEntity
  8
0
  6
Continuous
 62
     7
370
    15
100
AcDbLine
 10
-405.4391035362
 20
-115.4830495586
 30
0.0
 11
-406.2938937469
 21
-115.9765611162
 31
0.0
  0
LINE
  5
252
330
1F
100
AcDbEntity
  8
0
  6
Continuous
 62
     7
370
    15
100
AcDbLine
 10
-406.2953540607
 20
-125.3886858692
 30
0.0
 11
-405.4391035362
 21
-125.883046793
 31
0.0
  0
LINE
  5
253
330
1F
100
AcDbEntity
  8
0
  6
Continuous
 62
     7
370
    15
100
AcDbLine
 10
-388.9391073509
 20
-125.883046793
 30
0.0
 11
-388.0828568264
 21
-125.3886858692
 31
0.0
  0
LINE
  5
254
330
1F
100
AcDbEntity
  8
0
  6
Continuous
 62
     7
370
    15
100
AcDbLine
 10
290.9087291436
 20
-115.4830495586
 30
0.0
 11
290.9087291436
 21
-80.3830514421
 31
0.0
  0
LINE
  5
255
330
1F
100
AcDbEntity
  8
0
  6
Continuous
 62
     7
370
    15
100
AcDbLine
 10
278.9087346272
 20
-80.3830514421
 30
0.0
 11
278.9087346272
 21
-115.4830495586
 31
0.0
  0
LINE
  5
256
330
1F
100
AcDbEntity
  8
0
  6
Continuous
 62
     7
370
    15
100
AcDbLine
 10
290.9087291436
 20
-248.3830510398
 30
0.0
 11
290.9087291436
 21
-135.2789143791
 31
0.0
  0
LINE
  5
257
330
1F
100
AcDbEntity
  8
0
  6
Continuous
 62
     7
370
    15
100
AcDbLine
 10
278.9087346272
 20
-135.9323004952
 30
0.0
 11
278.9087346272
 21
-248.3830510398
 31
0.0
  0
LINE
  5
258
330
1F
100
AcDbEntity
  8
0
  6
Continuous
 62
     7
370
    15
100
AcDbLine
 10
-391.1890932842
 20
-115.4830495586
 30
0.0
 11
-391.1890932842
 21
-80.3830514421
 31
0.0
  0
LINE
  5
259
330
1F
100
AcDbEntity
  8
0
  6
Continuous
 62
     7
370
    15
100
AcDbLine
 10
-403.1890878006
 20
-80.3830514421
 30
0.0
 11
-403.1890878006
 21
-115.4830495586
 31
0.0
  0
LINE
  5
25A
330
1F
100
AcDbEntity
  8
0
  6
Continuous
 62
     7
370
    15
100
AcDbLine
 10
-391.1890932842
 20
-248.3830510398
 30
0.0
 11
-391.1890932842
 21
-135.9323004952
 31
0.0
  0
LINE
  5
25B
330
1F
100
AcDbEntity
  8
0
  6
Continuous
 62
     7
370
    15
100
AcDbLine
 10
-403.1890878006
 20
-135.2789143791
 30
0.0
 11
-403.1890878006
 21
-248.3830510398
 31
0.0
  0
LINE
  5
25C
330
1F
100
AcDbEntity
  8
0
  6
Continuous
 62
     7
370
    15
100
AcDbLine
 10
424.6898046212
 20
-125.883046793
 30
0.0
 11
424.6898046212
 21
-128.3830444088
 31
0.0
  0
LINE
  5
25D
330
1F
100
AcDbEntity
  8
0
  6
Continuous
 62
     7
370
    15
100
AcDbLine
 10
448.6897638516
 20
-128.3830444088
 30
0.0
 11
448.6897638516
 21
-125.883046793
 31
0.0
  0
LINE
  5
25E
330
1F
100
AcDbEntity
  8
0
  6
Continuous
 62
     7
370
    15
100
AcDbLine
 10
-560.9701225086
 20
-125.883046793
 30
0.0
 11
-560.9701225086
 21
-128.3830444088
 31
0.0
  0
LINE
  5
25F
330
1F
100
AcDbEntity
  8
0
  6
Continuous
 62
     7
370
    15
100
AcDbLine
 10
-536.9701632782
 20
-128.3830444088
 30
0.0
 11
-536.9701632782
 21
-125.883046793
 31
0.0
  0
LINE
  5
260
330
1F
100
AcDbEntity
  8
0
  6
Continuous
 62
     7
370
    15
100
AcDbLine
 10
446.6832926945
 20
-116.4896677008
 30
0.0
 11
444.9397972302
 21
-115.4830495586
 31
0.0
  0
LINE
  5
261
330
1F
100
AcDbEntity
  8
0
  6
Continuous
 62
     7
370
    15
100
AcDbLine
 10
428.4398010449
 20
-115.4830495586
 30
0.0
 11
426.6916862206
 21
-116.4923201075
 31
0.0
  0
LINE
  5
262
330
1F
100
AcDbEntity
  8
0
  6
Continuous
 62
     7
370
    15
100
AcDbLine
 10
426.6918352322
 20
-124.8738805523
 30
0.0
 11
428.4398010449
 21
-125.883046793
 31
0.0
  0
LINE
  5
263
330
1F
100
AcDbEntity
  8
0
  6
Continuous
 62
     7
370
    15
100
AcDbLine
 10
444.9397972302
 20
-125.883046793
 30
0.0
 11
446.6832926945
 21
-124.8764286509
 31
0.0
  0
LINE
  5
264
330
1F
100
AcDbEntity
  8
0
  6
Continuous
 62
     7
370
    15
100
AcDbLine
 10
-538.9766344352
 20
-116.4896677008
 30
0.0
 11
-540.7201597019
 21
-115.4830495586
 31
0.0
  0
LINE
  5
265
330
1F
100
AcDbEntity
  8
0
  6
Continuous
 62
     7
370
    15
100
AcDbLine
 10
-557.2201558872
 20
-115.4830495586
 30
0.0
 11
-558.9681216999
 21
-116.4922307005
 31
0.0
  0
LINE
  5
266
330
1F
100
AcDbEntity
  8
0
  6
Continuous
 62
     7
370
    15
100
AcDbLine
 10
-558.9682409092
 20
-124.8737911453
 30
0.0
 11
-557.2201558872
 21
-125.883046793
 31
0.0
  0
LINE
  5
267
330
1F
100
AcDbEntity
  8
0
  6
Continuous
 62
     7
370
    15
100
AcDbLine
 10
-540.7201597019
 20
-125.883046793
 30
0.0
 11
-538.9766344352
 21
-124.8764286509
 31
0.0
  0
LINE
  5
268
330
1F
100
AcDbEntity
  8
0
  6
Continuous
 62
     7
370
    15
100
AcDbLine
 10
442.6897814945
 20
-115.4830495586
 30
0.0
 11
442.6897814945
 21
-80.3830514421
 31
0.0
  0
LINE
  5
269
330
1F
100
AcDbEntity
  8
0
  6
Continuous
 62
     7
370
    15
100
AcDbLine
 10
430.6897869782
 20
-80.3830514421
 30
0.0
 11
430.6897869782
 21
-115.4830495586
 31
0.0
  0
LINE
  5
26A
330
1F
100
AcDbEntity
  8
0
  6
Continuous
 62
     7
370
    15
100
AcDbLine
 10
442.6897814945
 20
-248.3830510398
 30
0.0
 11
442.6897814945
 21
-135.1357440224
 31
0.0
  0
LINE
  5
26B
330
1F
100
AcDbEntity
  8
0
  6
Continuous
 62
     7
370
    15
100
AcDbLine
 10
430.6897869782
 20
-136.0987166634
 30
0.0
 11
430.6897869782
 21
-248.3830510398
 31
0.0
  0
LINE
  5
26C
330
1F
100
AcDbEntity
  8
0
  6
Continuous
 62
     7
370
    15
100
AcDbLine
 10
-542.9701456352
 20
-115.4830495586
 30
0.0
 11
-542.9701456352
 21
-80.3830514421
 31
0.0
  0
LINE
  5
26D
330
1F
100
AcDbEntity
  8
0
  6
Continuous
 62
     7
370
    15
100
AcDbLine
 10
-554.9701401516
 20
-80.3830514421
 30
0.0
 11
-554.9701401516
 21
-115.4830495586
 31
0.0
  0
LINE
  5
26E
330
1F
100
AcDbEntity
  8
0
  6
Continuous
 62
     7
370
    15
100
AcDbLine
 10
-542.9701456352
 20
-248.3830510398
 30
0.0
 11
-542.9701456352
 21
-136.0989401808
 31
0.0
  0
LINE
  5
26F
330
1F
100
AcDbEntity
  8
0
  6
Continuous
 62
     7
370
    15
100
AcDbLine
 10
-554.9701401516
 20
-135.1357440224
 30
0.0
 11
-554.9701401516
 21
-248.3830510398
 31
0.0
  0
LINE
  5
270
330
1F
100
AcDbEntity
  8
0
  6
Continuous
 62
     7
370
    15
100
AcDbLine
 10
478.8598468975
 20
-125.883046793
 30
0.0
 11
478.8598468975
 21
-128.3830444088
 31
0.0
  0
LINE
  5
271
330
1F
100
AcDbEntity
  8
0
  6
Continuous
 62
     7
370
    15
100
AcDbLine
 10
502.8598359303
 20
-128.3830444088
 30
0.0
 11
502.8598359303
 21
-125.883046793
 31
0.0
  0
LINE
  5
272
330
1F
100
AcDbEntity
  8
0
  6
Continuous
 62
     7
370
    15
100
AcDbLine
 10
-615.1401945873
 20
-125.883046793
 30
0.0
 11
-615.1401945873
 21
-128.3830444088
 31
0.0
  0
LINE
  5
273
330
1F
100
AcDbEntity
  8
0
  6
Continuous
 62
     7
370
    15
100
AcDbLine
 10
-591.1402055546
 20
-128.3830444088
 30
0.0
 11
-591.1402055546
 21
-125.883046793
 31
0.0
  0
LINE
  5
274
330
1F
100
AcDbEntity
  8
0
  6
Continuous
 62
     7
370
    15
100
AcDbLine
 10
499.8598149494
 20
-115.9160624018
 30
0.0
 11
499.1098097042
 21
-115.4830495586
 31
0.0
  0
LINE
  5
275
330
1F
100
AcDbEntity
  8
0
  6
Continuous
 62
     7
370
    15
100
AcDbLine
 10
482.6098135189
 20
-115.4830495586
 30
0.0
 11
481.8598082737
 21
-115.9160624018
 31
0.0
  0
LINE
  5
276
330
1F
100
AcDbEntity
  8
0
  6
Continuous
 62
     7
370
    15
100
AcDbLine
 10
481.8598082737
 20
-125.4500339499
 30
0.0
 11
482.6098135189
 21
-125.883046793
 31
0.0
  0
LINE
  5
277
330
1F
100
AcDbEntity
  8
0
  6
Continuous
 62
     7
370
    15
100
AcDbLine
 10
499.1098097042
 20
-125.883046793
 30
0.0
 11
499.8598149494
 21
-125.4500339499
 31
0.0
  0
LINE
  5
278
330
1F
100
AcDbEntity
  8
0
  6
Continuous
 62
     7
370
    15
100
AcDbLine
 10
-594.1401669307
 20
-115.9160624018
 30
0.0
 11
-594.890172176
 21
-115.4830495586
 31
0.0
  0
LINE
  5
279
330
1F
100
AcDbEntity
  8
0
  6
Continuous
 62
     7
370
    15
100
AcDbLine
 10
-611.3901683613
 20
-115.4830495586
 30
0.0
 11
-612.1401736065
 21
-115.9160624018
 31
0.0
  0
LINE
  5
27A
330
1F
100
AcDbEntity
  8
0
  6
Continuous
 62
     7
370
    15
100
AcDbLine
 10
-612.1401736065
 20
-125.4500339499
 30
0.0
 11
-611.3901683613
 21
-125.883046793
 31
0.0
  0
LINE
  5
27B
330
1F
100
AcDbEntity
  8
0
  6
Continuous
 62
     7
370
    15
100
AcDbLine
 10
-594.890172176
 20
-125.883046793
 30
0.0
 11
-594.1401669307
 21
-125.4500339499
 31
0.0
  0
LINE
  5
27C
330
1F
100
AcDbEntity
  8
0
  6
Continuous
 62
     7
370
    15
100
AcDbLine
 10
496.8597939686
 20
-115.4830495586
 30
0.0
 11
496.8597939686
 21
-80.3830514421
 31
0.0
  0
LINE
  5
27D
330
1F
100
AcDbEntity
  8
0
  6
Continuous
 62
     7
370
    15
100
AcDbLine
 10
484.8598292546
 20
-80.3830514421
 30
0.0
 11
484.8598292546
 21
-115.4830495586
 31
0.0
  0
LINE
  5
27E
330
1F
100
AcDbEntity
  8
0
  6
Continuous
 62
     7
370
    15
100
AcDbLine
 10
496.8597939686
 20
-248.3830510398
 30
0.0
 11
496.8597939686
 21
-135.0829641094
 31
0.0
  0
LINE
  5
27F
330
1F
100
AcDbEntity
  8
0
  6
Continuous
 62
     7
370
    15
100
AcDbLine
 10
484.8598292546
 20
-136.2379084101
 30
0.0
 11
484.8598292546
 21
-248.3830510398
 31
0.0
  0
LINE
  5
280
330
1F
100
AcDbEntity
  8
0
  6
Continuous
 62
     7
370
    15
100
AcDbLine
 10
-597.1401879116
 20
-115.4830495586
 30
0.0
 11
-597.1401879116
 21
-80.3830514421
 31
0.0
  0
LINE
  5
281
330
1F
100
AcDbEntity
  8
0
  6
Continuous
 62
     7
370
    15
100
AcDbLine
 10
-609.1401526256
 20
-80.3830514421
 30
0.0
 11
-609.1401526256
 21
-115.4830495586
 31
0.0
  0
LINE
  5
282
330
1F
100
AcDbEntity
  8
0
  6
Continuous
 62
     7
370
    15
100
AcDbLine
 10
-597.1401879116
 20
-248.3830510398
 30
0.0
 11
-597.1401879116
 21
-136.2379084101
 31
0.0
  0
LINE
  5
283
330
1F
100
AcDbEntity
  8
0
  6
Continuous
 62
     7
370
    15
100
AcDbLine
 10
-609.1401526256
 20
-135.0829641094
 30
0.0
 11
-609.1401526256
 21
-248.3830510398
 31
0.0
  0
LINE
  5
284
330
1F
100
AcDbEntity
  8
0
  6
Continuous
 62
     7
370
    15
100
AcDbLine
 10
-538.9766344352
 20
-124.8764286509
 30
0.0
 11
-538.9721938892
 21
-124.8738805523
 31
0.0
  0
LINE
  5
285
330
1F
100
AcDbEntity
  8
0
  6
Continuous
 62
     7
370
    15
100
AcDbLine
 10
-538.9720448776
 20
-116.4923201075
 30
0.0
 11
-538.9766344352
 21
-116.4896677008
 31
0.0
  0
LINE
  5
286
330
1F
100
AcDbEntity
  8
0
  6
Continuous
 62
     7
370
    15
100
AcDbLine
 10
294.0135350899
 20
-125.3895352354
 30
0.0
 11
294.0149954037
 21
-125.3886858692
 31
0.0
  0
LINE
  5
287
330
1F
100
AcDbEntity
  8
0
  6
Continuous
 62
     7
370
    15
100
AcDbLine
 10
-406.2938937469
 20
-115.9765611162
 30
0.0
 11
-406.2953540607
 21
-115.9774104824
 31
0.0
  0
LINE
  5
288
330
1F
100
AcDbEntity
  8
0
  6
Continuous
 62
     7
370
    15
100
AcDbLine
 10
56.1601793842
 20
-116.1577443352
 30
0.0
 11
56.1565658526
 21
-116.1598155966
 31
0.0
  0
LINE
  5
289
330
1F
100
AcDbEntity
  8
0
  6
Continuous
 62
     7
370
    15
100
AcDbLine
 10
-168.4405380412
 20
-125.2083669176
 30
0.0
 11
-168.4369245096
 21
-125.206280755
 31
0.0
  0
LINE
  5
28A
330
1F
100
AcDbEntity
  8
0
  6
Continuous
 62
     7
370
    15
100
AcDbLine
 10
-683.6401769443
 20
-278.3830503693
 30
0.0
 11
571.3598182873
 21
-278.3830503693
 31
0.0
  0
LINE
  5
28B
330
1F
100
AcDbEntity
  8
0
  6
Continuous
 62
     7
370
    15
100
AcDbLine
 10
-683.6401769443
 20
-248.3830510398
 30
0.0
 11
571.3598182873
 21
-248.3830510398
 31
0.0
  0
LINE
  5
28C
330
1F
100
AcDbEntity
  8
0
  6
Continuous
 62
     7
370
    15
100
AcDbLine
 10
-617.1401688381
 20
-128.3830444088
 30
0.0
 11
504.8598101811
 21
-128.3830444088
 31
0.0
  0
SPLINE
  5
28D
330
1F
100
AcDbEntity
  8
0
  6
Continuous
 62
     7
370
    15
100
AcDbSpline
210
0.0
220
0.0
230
1.0
 70
     8
 71
     3
 72
    23
 73
    19
 74
     0
 42
0.00000001
 43
0.00000001
 12
1.0
 22
0.0
 32
0.0
 13
1.0
 23
0.0
 33
0.0
 40
0.0
 40
0.0
 40
0.0
 40
0.0
 40
0.056357516683979
 40
0.120991519360164
 40
0.1874958549501755
 40
0.2521964552027884
 40
0.3187599112486684
 40
0.3836512971302128
 40
0.4504089756151977
 40
0.5155371985098898
 40
0.5825424490188422
 40
0.6478506208286382
 40
0.7150514690177742
 40
0.7804038834430149
 40
0.8476597738062478
 40
0.9128975038857255
 40
0.9800431378977622
 40
1.0
 40
1.0
 40
1.0
 40
1.0
 10
496.8484690861019
 20
-135.0839475860628
 30
0.0
 10
496.8409935444544
 20
-135.0845922065546
 30
0.0
 10
496.8249446268445
 20
-135.0859761144571
 30
0.0
 10
496.5945611024098
 20
-135.1059179647131
 30
0.0
 10
496.2104014742854
 20
-135.1392004126727
 30
0.0
 10
495.6666196149984
 20
-135.1863153901986
 30
0.0
 10
494.9939018137941
 20
-135.2446857047348
 30
0.0
 10
494.1972940076006
 20
-135.3138908518183
 30
0.0
 10
493.312764591844
 20
-135.3908910084637
 30
0.0
 10
492.3496777856488
 20
-135.4748214675432
 30
0.0
 10
491.3513421891286
 20
-135.5619945154888
 30
0.0
 10
490.3290168025857
 20
-135.6514433339144
 30
0.0
 10
489.3296517371419
 20
-135.7390473801309
 30
0.0
 10
488.3646548729329
 20
-135.8237624413572
 30
0.0
 10
487.4789084270725
 20
-135.9016975625505
 30
0.0
 10
486.6836777711536
 20
-135.9717454132319
 30
0.0
 10
486.163676784042
 20
-136.017629374816
 30
0.0
 10
485.9121428443465
 20
-136.0398234740298
 30
0.0
 10
485.8545115665706
 20
-136.0449085702929
 30
0.0
  0
SPLINE
  5
28E
330
1F
100
AcDbEntity
  8
0
  6
Continuous
 62
     7
370
    15
100
AcDbSpline
210
0.0
220
0.0
230
1.0
 70
     8
 71
     3
 72
    26
 73
    22
 74
     0
 42
0.00000001
 43
0.00000001
 12
1.0
 22
0.0
 32
0.0
 13
1.0
 23
0.0
 33
0.0
 40
0.0
 40
0.0
 40
0.0
 40
0.0
 40
0.0152960198073079
 40
0.0713792639752393
 40
0.1272739770180179
 40
0.1831697837716367
 40
0.2389679173389339
 40
0.2947673715452879
 40
0.3506021620330108
 40
0.4064391006272015
 40
0.4624268509194294
 40
0.5184157842250492
 40
0.5746111039557957
 40
0.6308050749275359
 40
0.6871690671605243
 40
0.7435335473534548
 40
0.7999581639911694
 40
0.8563823187386416
 40
0.9127274058244351
 40
0.969070021543915
 40
1.0
 40
1.0
 40
1.0
 40
1.0
 10
442.6724067405971
 20
-135.1357440223726
 30
0.0
 10
442.6773242019776
 20
-135.1319050682358
 30
0.0
 10
442.7002716600998
 20
-135.1139904914915
 30
0.0
 10
442.5722295628609
 20
-135.095287926034
 30
0.0
 10
442.2818245006358
 20
-135.0815575078333
 30
0.0
 10
441.8240470320362
 20
-135.0832545991831
 30
0.0
 10
441.2221951254061
 20
-135.0996228931361
 30
0.0
 10
440.4948026190535
 20
-135.129941103158
 30
0.0
 10
439.6584620954078
 20
-135.1738535956616
 30
0.0
 10
438.7397154740488
 20
-135.2296773444197
 30
0.0
 10
437.7617347575967
 20
-135.296369987242
 30
0.0
 10
436.7525857174197
 20
-135.3717635718482
 30
0.0
 10
435.7408839632159
 20
-135.4540921820543
 30
0.0
 10
434.7537021677867
 20
-135.5408974488747
 30
0.0
 10
433.8219237304253
 20
-135.6298069725644
 30
0.0
 10
432.9689823727982
 20
-135.7183024983087
 30
0.0
 10
432.224183085494
 20
-135.8037208785628
 30
0.0
 10
431.6037353597023
 20
-135.8837511968757
 30
0.0
 10
431.1340282114112
 20
-135.9555824767538
 30
0.0
 10
430.8600065230567
 20
-136.008875047264
 30
0.0
 10
430.7748155054638
 20
-136.0354797053692
 30
0.0
 10
430.7446232513698
 20
-136.0449085702929
 30
0.0
  0
SPLINE
  5
28F
330
1F
100
AcDbEntity
  8
0
  6
Continuous
 62
     7
370
    15
100
AcDbSpline
210
0.0
220
0.0
230
1.0
 70
     8
 71
     3
 72
    27
 73
    23
 74
     0
 42
0.00000001
 43
0.00000001
 12
1.0
 22
0.0
 32
0.0
 13
1.0
 23
0.0
 33
0.0
 40
0.0
 40
0.0
 40
0.0
 40
0.0
 40
0.0008630882894634
 40
0.054720157223279
 40
0.1085775692364241
 40
0.1622410925319527
 40
0.2159037101917032
 40
0.2693886219790311
 40
0.3228727651811164
 40
0.3762715494244276
 40
0.4296695168401973
 40
0.4831087042723545
 40
0.5365475174962007
 40
0.590137591727448
 40
0.6437268999589717
 40
0.6975131499135452
 40
0.7513000776279671
 40
0.8052457461491528
 40
0.8591918832661083
 40
0.9131894270137925
 40
0.9671868468878363
 40
1.0
 40
1.0
 40
1.0
 40
1.0
 10
290.9073880390438
 20
-135.2789143791231
 30
0.0
 10
290.9078417292524
 20
-135.2785266325149
 30
0.0
 10
290.9366058775465
 20
-135.2539433359664
 30
0.0
 10
290.8344338880987
 20
-135.2127354249906
 30
0.0
 10
290.5943341842562
 20
-135.1590955361126
 30
0.0
 10
290.1682744457099
 20
-135.1193407343596
 30
0.0
 10
289.6022052744777
 20
-135.0928791872506
 30
0.0
 10
288.8993735065504
 20
-135.0812823684286
 30
0.0
 10
288.0875892970458
 20
-135.0840790182189
 30
0.0
 10
287.1847283230567
 20
-135.1017843761564
 30
0.0
 10
286.219679311257
 20
-135.1333450239345
 30
0.0
 10
285.2171756923995
 20
-135.1783848755654
 30
0.0
 10
284.2055813020379
 20
-135.2352390041321
 30
0.0
 10
283.2139092767172
 20
-135.3027850979616
 30
0.0
 10
282.267618997932
 20
-135.3788954320941
 30
0.0
 10
281.396977641464
 20
-135.4617105550234
 30
0.0
 10
280.6223730229477
 20
-135.5488059053582
 30
0.0
 10
279.9721172963015
 20
-135.6377486380755
 30
0.0
 10
279.4570891530428
 20
-135.7261863519487
 30
0.0
 10
279.1081611256159
 20
-135.8108904397836
 30
0.0
 10
278.9220181944289
 20
-135.8809415793734
 30
0.0
 10
278.9274959408455
 20
-135.9182125878264
 30
0.0
 10
278.9295664505275
 20
-135.932300495151
 30
0.0
  0
SPLINE
  5
290
330
1F
100
AcDbEntity
  8
0
  6
Continuous
 62
     7
370
    15
100
AcDbSpline
210
0.0
220
0.0
230
1.0
 70
     8
 71
     3
 72
    26
 73
    22
 74
     0
 42
0.00000001
 43
0.00000001
 12
1.0
 22
0.0
 32
0.0
 13
1.0
 23
0.0
 33
0.0
 40
0.0
 40
0.0
 40
0.0
 40
0.0
 40
0.0407764969375995
 40
0.0947525817472178
 40
0.1487294795235221
 40
0.2025801593008821
 40
0.2564263812680242
 40
0.3100810111183899
 40
0.3637343594356075
 40
0.4172122270544839
 40
0.4706897908338906
 40
0.5240860024815585
 40
0.577482872704505
 40
0.6309251880114253
 40
0.6843682774315372
 40
0.7379655472617119
 40
0.7915623420786293
 40
0.8453561617755003
 40
0.8991514998247794
 40
0.9531010767090733
 40
1.0
 40
1.0
 40
1.0
 40
1.0
 10
71.5624442772182
 20
-135.4887376298937
 30
0.0
 10
71.55958137568379
 20
-135.4670218525841
 30
0.0
 10
71.5529288348319
 20
-135.416560775266
 30
0.0
 10
71.3385668871321
 20
-135.3430326517164
 30
0.0
 10
70.96465962738719
 20
-135.2700155382929
 30
0.0
 10
70.42808644396638
 20
-135.2069550771337
 30
0.0
 10
69.75806025365445
 20
-135.155112536012
 30
0.0
 10
68.96665709550366
 20
-135.1163621575621
 30
0.0
 10
68.08255384391546
 20
-135.0912496187947
 30
0.0
 10
67.12676843219633
 20
-135.0809326002547
 30
0.0
 10
66.129645715906
 20
-135.0850490358519
 30
0.0
 10
65.11735357252387
 20
-135.1040628246641
 30
0.0
 10
64.11838040233071
 20
-135.1368536543436
 30
0.0
 10
63.16159494428474
 20
-135.1830031478955
 30
0.0
 10
62.27092605766637
 20
-135.2408901498611
 30
0.0
 10
61.47510090072664
 20
-135.309283392606
 30
0.0
 10
60.79196708708866
 20
-135.386057497929
 30
0.0
 10
60.24549816048673
 20
-135.4693957791442
 30
0.0
 10
59.85100919773286
 20
-135.5566808420151
 30
0.0
 10
59.61649156545508
 20
-135.6420421332112
 30
0.0
 10
59.59744423277499
 20
-135.6964974915841
 30
0.0
 10
59.58858639757954
 20
-135.7218215932879
 30
0.0
  0
SPLINE
  5
291
330
1F
100
AcDbEntity
  8
0
  6
Continuous
 62
     7
370
    15
100
AcDbSpline
210
0.0
220
0.0
230
1.0
 70
     8
 71
     3
 72
    27
 73
    23
 74
     0
 42
0.00000001
 43
0.00000001
 12
1.0
 22
0.0
 32
0.0
 13
1.0
 23
0.0
 33
0.0
 40
0.0
 40
0.0
 40
0.0
 40
0.0
 40
0.0314465016291568
 40
0.0853923555032078
 40
0.1393406205910815
 40
0.1933382721717787
 40
0.2473344184900542
 40
0.3012505302135072
 40
0.35516650783099
 40
0.4089037916336325
 40
0.4626414449193427
 40
0.5161852843110526
 40
0.5697287695273835
 40
0.6231449562287693
 40
0.6765618685894386
 40
0.7299717397873483
 40
0.7833804348418311
 40
0.8369066043730914
 40
0.8904294409066617
 40
0.9441443791127195
 40
0.9978587812599677
 40
1.0
 40
1.0
 40
1.0
 40
1.0
 10
-171.8801879807202
 20
-135.7215831747088
 30
0.0
 10
-171.8775484592696
 20
-135.7047652415674
 30
0.0
 10
-171.8703808907837
 20
-135.6590964755288
 30
0.0
 10
-172.0512327937063
 20
-135.5820469957945
 30
0.0
 10
-172.3950283422082
 20
-135.4938715000023
 30
0.0
 10
-172.9061812079932
 20
-135.4088608376262
 30
0.0
 10
-173.5542607180206
 20
-135.3295408543466
 30
0.0
 10
-174.3286518306637
 20
-135.2583066290563
 30
0.0
 10
-175.2009654440931
 20
-135.1969179380759
 30
0.0
 10
-176.1503917840924
 20
-135.1474640356325
 30
0.0
 10
-177.1457277524855
 20
-135.1108472662941
 30
0.0
 10
-178.1609400259268
 20
-135.0884973354638
 30
0.0
 10
-179.1659680609444
 20
-135.080456693938
 30
0.0
 10
-180.1324941786735
 20
-135.0874634281113
 30
0.0
 10
-181.0352653052738
 20
-135.1086848152809
 30
0.0
 10
-181.846187959424
 20
-135.1441052251578
 30
0.0
 10
-182.5477192601896
 20
-135.1922430815484
 30
0.0
 10
-183.1129699834686
 20
-135.2522268281087
 30
0.0
 10
-183.5390836567443
 20
-135.3220713076021
 30
0.0
 10
-183.7817723401046
 20
-135.40047189211
 30
0.0
 10
-183.8854427697885
 20
-135.4570294938123
 30
0.0
 10
-183.8569343184538
 20
-135.4872369055648
 30
0.0
 10
-183.8558414502827
 20
-135.4883949031862
 30
0.0
  0
SPLINE
  5
292
330
1F
100
AcDbEntity
  8
0
  6
Continuous
 62
     7
370
    15
100
AcDbSpline
210
0.0
220
0.0
230
1.0
 70
     8
 71
     3
 72
    27
 73
    23
 74
     0
 42
0.00000001
 43
0.00000001
 12
1.0
 22
0.0
 32
0.0
 13
1.0
 23
0.0
 33
0.0
 40
0.0
 40
0.0
 40
0.0
 40
0.0
 40
0.0008630882894634
 40
0.054720157223279
 40
0.1085775692364241
 40
0.1622410925319527
 40
0.2159037101917032
 40
0.2693886219790311
 40
0.3228727651811164
 40
0.3762715494244276
 40
0.4296695168401973
 40
0.4831087042723545
 40
0.5365475174962007
 40
0.590137591727448
 40
0.6437268999589717
 40
0.6975131499135452
 40
0.7513000776279671
 40
0.8052457461491528
 40
0.8591918832661083
 40
0.9131894270137925
 40
0.9671868468878363
 40
1.0
 40
1.0
 40
1.0
 40
1.0
 10
-403.1877466960636
 20
-135.2789143791231
 30
0.0
 10
-403.1882003862723
 20
-135.2785266325149
 30
0.0
 10
-403.2169645345664
 20
-135.2539433359664
 30
0.0
 10
-403.1147925451186
 20
-135.2127354249906
 30
0.0
 10
-402.8746928412762
 20
-135.1590955361126
 30
0.0
 10
-402.4486331027298
 20
-135.1193407343596
 30
0.0
 10
-401.8825639314976
 20
-135.0928791872506
 30
0.0
 10
-401.1797321635703
 20
-135.0812823684286
 30
0.0
 10
-400.3679479540658
 20
-135.0840790182189
 30
0.0
 10
-399.4650869800766
 20
-135.1017843761564
 30
0.0
 10
-398.5000379682769
 20
-135.1333450239345
 30
0.0
 10
-397.4975343494194
 20
-135.1783848755654
 30
0.0
 10
-396.4859399590578
 20
-135.2352390041321
 30
0.0
 10
-395.4942679337371
 20
-135.3027850979616
 30
0.0
 10
-394.5479776549519
 20
-135.3788954320941
 30
0.0
 10
-393.6773362984839
 20
-135.4617105550234
 30
0.0
 10
-392.9027316799676
 20
-135.5488059053582
 30
0.0
 10
-392.2524759533214
 20
-135.6377486380755
 30
0.0
 10
-391.7374478100627
 20
-135.7261863519487
 30
0.0
 10
-391.3885197826358
 20
-135.8108904397836
 30
0.0
 10
-391.2023768514488
 20
-135.8809415793734
 30
0.0
 10
-391.2078545978654
 20
-135.9182125878264
 30
0.0
 10
-391.2099251075474
 20
-135.932300495151
 30
0.0
  0
SPLINE
  5
293
330
1F
100
AcDbEntity
  8
0
  6
Continuous
 62
     7
370
    15
100
AcDbSpline
210
0.0
220
0.0
230
1.0
 70
     8
 71
     3
 72
    26
 73
    22
 74
     0
 42
0.00000001
 43
0.00000001
 12
1.0
 22
0.0
 32
0.0
 13
1.0
 23
0.0
 33
0.0
 40
0.0
 40
0.0
 40
0.0
 40
0.0
 40
0.0152960198073079
 40
0.0713792639752393
 40
0.1272739770180179
 40
0.1831697837716367
 40
0.2389679173389339
 40
0.2947673715452879
 40
0.3506021620330108
 40
0.4064391006272015
 40
0.4624268509194294
 40
0.5184157842250492
 40
0.5746111039557957
 40
0.6308050749275359
 40
0.6871690671605243
 40
0.7435335473534548
 40
0.7999581639911694
 40
0.8563823187386416
 40
0.9127274058244351
 40
0.969070021543915
 40
1.0
 40
1.0
 40
1.0
 40
1.0
 10
-554.952765397617
 20
-135.1357440223726
 30
0.0
 10
-554.9576828589975
 20
-135.1319050682358
 30
0.0
 10
-554.9806303171197
 20
-135.1139904914915
 30
0.0
 10
-554.8525882198808
 20
-135.095287926034
 30
0.0
 10
-554.5621831576556
 20
-135.0815575078333
 30
0.0
 10
-554.1044056890561
 20
-135.0832545991831
 30
0.0
 10
-553.5025537824259
 20
-135.0996228931361
 30
0.0
 10
-552.7751612760734
 20
-135.129941103158
 30
0.0
 10
-551.9388207524278
 20
-135.1738535956616
 30
0.0
 10
-551.0200741310687
 20
-135.2296773444197
 30
0.0
 10
-550.0420934146166
 20
-135.296369987242
 30
0.0
 10
-549.0329443744395
 20
-135.3717635718482
 30
0.0
 10
-548.0212426202357
 20
-135.4540921820543
 30
0.0
 10
-547.0340608248066
 20
-135.5408974488747
 30
0.0
 10
-546.1022823874451
 20
-135.6298069725644
 30
0.0
 10
-545.2493410298182
 20
-135.7183024983087
 30
0.0
 10
-544.504541742514
 20
-135.8037208785628
 30
0.0
 10
-543.8840940167221
 20
-135.8837511968757
 30
0.0
 10
-543.414386868431
 20
-135.9555824767538
 30
0.0
 10
-543.1403651800766
 20
-136.008875047264
 30
0.0
 10
-543.0551741624837
 20
-136.0354797053692
 30
0.0
 10
-543.0249819083897
 20
-136.0449085702929
 30
0.0
  0
SPLINE
  5
294
330
1F
100
AcDbEntity
  8
0
  6
Continuous
 62
     7
370
    15
100
AcDbSpline
210
0.0
220
0.0
230
1.0
 70
     8
 71
     3
 72
    23
 73
    19
 74
     0
 42
0.00000001
 43
0.00000001
 12
1.0
 22
0.0
 32
0.0
 13
1.0
 23
0.0
 33
0.0
 40
0.0
 40
0.0
 40
0.0
 40
0.0
 40
0.0649051836338987
 40
0.1316913974363443
 40
0.1967221651064675
 40
0.2636296794125146
 40
0.3288309172447678
 40
0.3959170357838114
 40
0.4612578347592407
 40
0.528497837090035
 40
0.593823819448023
 40
0.661053446004902
 40
0.7262170962237697
 40
0.793283415515493
 40
0.8582098815149087
 40
0.9250318802451071
 40
0.989752481110555
 40
0.9999999999999999
 40
0.9999999999999999
 40
0.9999999999999999
 40
0.9999999999999999
 10
-598.1348702235905
 20
-136.0449085702929
 30
0.0
 10
-598.3314526909875
 20
-136.0275559122838
 30
0.0
 10
-598.7303148217696
 20
-135.9923476953971
 30
0.0
 10
-599.4876707621582
 20
-135.9256000091972
 30
0.0
 10
-600.3456345023662
 20
-135.8500897253139
 30
0.0
 10
-601.2783113738998
 20
-135.7681444330768
 30
0.0
 10
-602.2723495946813
 20
-135.6809583617858
 30
0.0
 10
-603.2836499728502
 20
-135.5924346972793
 30
0.0
 10
-604.3008203771187
 20
-135.5035644150254
 30
0.0
 10
-605.2767317245206
 20
-135.4184321221021
 30
0.0
 10
-606.2005365686277
 20
-135.3380196726215
 30
0.0
 10
-607.0284402315976
 20
-135.2660473309945
 30
0.0
 10
-607.7523747348398
 20
-135.203188886857
 30
0.0
 10
-608.3365436927182
 20
-135.1525479204833
 30
0.0
 10
-608.7812908737608
 20
-135.1140170255427
 30
0.0
 10
-609.0454205883074
 20
-135.0911680895715
 30
0.0
 10
-609.1590937148122
 20
-135.0813283393251
 30
0.0
 10
-609.1324673463864
 20
-135.0836326112431
 30
0.0
 10
-609.1288277431217
 20
-135.0839475860628
 30
0.0
  0
LINE
  5
295
330
1F
100
AcDbEntity
  8
0
  6
Continuous
 62
     7
370
    15
100
AcDbLine
 10
53.5787692742
 20
-125.883046793
 30
0.0
 11
77.5787732081
 21
-125.883046793
 31
0.0
  0
LINE
  5
296
330
1F
100
AcDbEntity
  8
0
  6
Continuous
 62
     7
370
    15
100
AcDbLine
 10
-166.1599972769
 20
-125.883046793
 30
0.0
 11
-165.8591279312
 21
-125.883046793
 31
0.0
  0
LINE
  5
297
330
1F
100
AcDbEntity
  8
0
  6
Continuous
 62
     7
370
    15
100
AcDbLine
 10
-189.8591318651
 20
-125.883046793
 30
0.0
 11
-166.1599972769
 21
-125.883046793
 31
0.0
  0
LINE
  5
298
330
1F
100
AcDbEntity
  8
0
  6
Continuous
 62
     7
370
    15
100
AcDbLine
 10
72.6473382191
 20
-116.7199055424
 30
0.0
 11
72.6473382191
 21
-124.6461908093
 31
0.0
  0
SPLINE
  5
299
330
1F
100
AcDbEntity
  8
0
  6
Continuous
 62
     7
370
    15
100
AcDbSpline
210
0.0
220
0.0
230
1.0
 70
     8
 71
     3
 72
    14
 73
    10
 74
     0
 42
0.00000001
 43
0.00000001
 12
1.0
 22
0.0
 32
0.0
 13
1.0
 23
0.0
 33
0.0
 40
0.0
 40
0.0
 40
0.0
 40
0.0
 40
0.1331917156555177
 40
0.2578371600369448
 40
0.3824524342724745
 40
0.5101666548435604
 40
0.6378835424476813
 40
0.818058412303155
 40
1.0
 40
1.0
 40
1.0
 40
1.0
 10
72.64733821909748
 20
-124.6461908092532
 30
0.0
 10
72.20671018313573
 20
-124.7694447792762
 30
0.0
 10
71.35372709131289
 20
-125.0080441053501
 30
0.0
 10
70.06472815462033
 20
-125.2608830514065
 30
0.0
 10
68.78074864933046
 20
-125.4206418597024
 30
0.0
 10
67.47697669958504
 20
-125.468481324968
 30
0.0
 10
65.98422798649501
 20
-125.3913763423818
 30
0.0
 10
64.31859545307317
 20
-125.1395239349143
 30
0.0
 10
63.11853961374418
 20
-124.8111691841343
 30
0.0
 10
62.51558423798405
 20
-124.6461908092532
 30
0.0
  0
LINE
  5
29A
330
1F
100
AcDbEntity
  8
0
  6
Continuous
 62
     7
370
    15
100
AcDbLine
 10
62.515584238
 20
-116.7199055424
 30
0.0
 11
62.515584238
 21
-124.6461908093
 31
0.0
  0
SPLINE
  5
29B
330
1F
100
AcDbEntity
  8
0
  6
Continuous
 62
     7
370
    15
100
AcDbSpline
210
0.0
220
0.0
230
1.0
 70
     8
 71
     3
 72
    14
 73
    10
 74
     0
 42
0.00000001
 43
0.00000001
 12
1.0
 22
0.0
 32
0.0
 13
1.0
 23
0.0
 33
0.0
 40
0.0
 40
0.0
 40
0.0
 40
0.0
 40
0.1803119392850243
 40
0.3621156560356217
 40
0.4866231258936506
 40
0.6111278697980397
 40
0.7389524746115359
 40
0.8668083225116235
 40
1.0
 40
1.0
 40
1.0
 40
1.0
 10
62.51558423798405
 20
-116.7199055423769
 30
0.0
 10
63.11310284073119
 20
-116.5563109609621
 30
0.0
 10
64.31308350582322
 20
-116.2277683286339
 30
0.0
 10
65.96774441919419
 20
-115.976695476808
 30
0.0
 10
67.44392064775066
 20
-115.8987981589011
 30
0.0
 10
68.73674620191868
 20
-115.9419323906903
 30
0.0
 10
70.0321811683405
 20
-116.0991900557862
 30
0.0
 10
71.34310316981009
 20
-116.3551043957865
 30
0.0
 10
72.20670914723935
 20
-116.5966593600858
 30
0.0
 10
72.64733821909748
 20
-116.7199055423769
 30
0.0
  0
SPLINE
  5
29C
330
1F
100
AcDbEntity
  8
0
  6
Continuous
 62
     7
370
    15
100
AcDbSpline
210
0.0
220
0.0
230
1.0
 70
     8
 71
     3
 72
    14
 73
    10
 74
     0
 42
0.00000001
 43
0.00000001
 12
1.0
 22
0.0
 32
0.0
 13
1.0
 23
0.0
 33
0.0
 40
0.0
 40
0.0
 40
0.0
 40
0.0
 40
0.1323160059855393
 40
0.2645999537123533
 40
0.399838069579835
 40
0.5350545335509412
 40
0.6502524445483602
 40
0.7654744712986117
 40
1.0
 40
1.0
 40
1.0
 40
1.0
 10
62.51558423798405
 20
-124.6461908092532
 30
0.0
 10
62.21019007803682
 20
-124.7685546449706
 30
0.0
 10
61.59947575074004
 20
-125.013252669414
 30
0.0
 10
60.65910558535639
 20
-125.2765728304487
 30
0.0
 10
59.7009421091778
 20
-125.4347664022868
 30
0.0
 10
58.77747072048432
 20
-125.4665144970888
 30
0.0
 10
57.90412826641705
 20
-125.3838911822062
 30
0.0
 10
56.8005826874947
 20
-125.1672398790318
 30
0.0
 10
55.99033897368093
 20
-124.8553384011645
 30
0.0
 10
55.44702471058689
 20
-124.6461908092532
 30
0.0
  0
SPLINE
  5
29D
330
1F
100
AcDbEntity
  8
0
  6
Continuous
 62
     7
370
    15
100
AcDbSpline
210
0.0
220
0.0
230
1.0
 70
     8
 71
     3
 72
    14
 73
    10
 74
     0
 42
0.00000001
 43
0.00000001
 12
1.0
 22
0.0
 32
0.0
 13
1.0
 23
0.0
 33
0.0
 40
0.0
 40
0.0
 40
0.0
 40
0.0
 40
0.1323174853870991
 40
0.2645980227176607
 40
0.3998381377215206
 40
0.5350526992818972
 40
0.6502504170488632
 40
0.7654723282110587
 40
1.0
 40
1.0
 40
1.0
 40
1.0
 10
75.71052522223316
 20
-124.6461908092532
 30
0.0
 10
75.5781809754708
 20
-124.7685536658914
 30
0.0
 10
75.31352943747542
 20
-125.0132452108209
 30
0.0
 10
74.90599413651626
 20
-125.2765792299945
 30
0.0
 10
74.49080196381534
 20
-125.4347636205552
 30
0.0
 10
74.09058758587085
 20
-125.4665147857498
 30
0.0
 10
73.71213265943744
 20
-125.383891119413
 30
0.0
 10
73.23391065556014
 20
-125.1672380192506
 30
0.0
 10
72.8827871720442
 20
-124.855338072922
 30
0.0
 10
72.64733821909748
 20
-124.6461908092532
 30
0.0
  0
SPLINE
  5
29E
330
1F
100
AcDbEntity
  8
0
  6
Continuous
 62
     7
370
    15
100
AcDbSpline
210
0.0
220
0.0
230
1.0
 70
     8
 71
     3
 72
     9
 73
     5
 74
     0
 42
0.00000001
 43
0.00000001
 12
1.0
 22
0.0
 32
0.0
 13
1.0
 23
0.0
 33
0.0
 40
0.0
 40
0.0
 40
0.0
 40
0.0
 40
0.5618945377327447
 40
0.9999999999999999
 40
0.9999999999999999
 40
0.9999999999999999
 40
0.9999999999999999
 10
55.44702471058689
 20
-124.6461908092532
 30
0.0
 10
55.57924257560962
 20
-124.7709092196132
 30
0.0
 10
55.81454983728228
 20
-124.9928697513232
 30
0.0
 10
56.05502643766444
 20
-125.1366664989045
 30
0.0
 10
56.16038054983937
 20
-125.1996646394762
 30
0.0
  0
SPLINE
  5
29F
330
1F
100
AcDbEntity
  8
0
  6
Continuous
 62
     7
370
    15
100
AcDbSpline
210
0.0
220
0.0
230
1.0
 70
     8
 71
     3
 72
    14
 73
    10
 74
     0
 42
0.00000001
 43
0.00000001
 12
1.0
 22
0.0
 32
0.0
 13
1.0
 23
0.0
 33
0.0
 40
0.0
 40
0.0
 40
0.0
 40
0.0
 40
0.1323170930426672
 40
0.2645976411527345
 40
0.3998381810547423
 40
0.5350523373448197
 40
0.6502558692815047
 40
0.7654726291526999
 40
1.0
 40
1.0
 40
1.0
 40
1.0
 10
72.64733821909748
 20
-116.7199055423769
 30
0.0
 10
72.77967677040743
 20
-116.5975425984502
 30
0.0
 10
73.04431732216825
 20
-116.3528505062723
 30
0.0
 10
73.45184988139681
 20
-116.0895171584528
 30
0.0
 10
73.86706960277408
 20
-115.9313317437078
 30
0.0
 10
74.267265141803
 20
-115.8995858758376
 30
0.0
 10
74.64571452776687
 20
-115.9821925385382
 30
0.0
 10
75.12396940229256
 20
-116.1988956281567
 30
0.0
 10
75.4750809229011
 20
-116.5107714582397
 30
0.0
 10
75.71052522223316
 20
-116.7199055423769
 30
0.0
  0
SPLINE
  5
2A0
330
1F
100
AcDbEntity
  8
0
  6
Continuous
 62
     7
370
    15
100
AcDbSpline
210
0.0
220
0.0
230
1.0
 70
     8
 71
     3
 72
    14
 73
    10
 74
     0
 42
0.00000001
 43
0.00000001
 12
1.0
 22
0.0
 32
0.0
 13
1.0
 23
0.0
 33
0.0
 40
0.0
 40
0.0
 40
0.0
 40
0.0
 40
0.1323160269980539
 40
0.2645959268684027
 40
0.3998381814851046
 40
0.5350505257291892
 40
0.6502525892222197
 40
0.7654707195551254
 40
1.0
 40
1.0
 40
1.0
 40
1.0
 10
55.44702471058689
 20
-116.7199055423769
 30
0.0
 10
55.7524144124984
 20
-116.5975425948969
 30
0.0
 10
56.36311043373342
 20
-116.3528501095088
 30
0.0
 10
57.30354778997068
 20
-116.0895148613911
 30
0.0
 10
58.26161782485356
 20
-115.9313337765367
 30
0.0
 10
59.18518603869105
 20
-115.8995851295591
 30
0.0
 10
60.05843865561787
 20
-115.9821944994943
 30
0.0
 10
61.16207577340621
 20
-116.1988945728559
 30
0.0
 10
61.97228451194291
 20
-116.5107711893875
 30
0.0
 10
62.51558423798406
 20
-116.7199055423769
 30
0.0
  0
SPLINE
  5
2A1
330
1F
100
AcDbEntity
  8
0
  6
Continuous
 62
     7
370
    15
100
AcDbSpline
210
0.0
220
0.0
230
1.0
 70
     8
 71
     3
 72
     9
 73
     5
 74
     0
 42
0.00000001
 43
0.00000001
 12
1.0
 22
0.0
 32
0.0
 13
1.0
 23
0.0
 33
0.0
 40
0.0
 40
0.0
 40
0.0
 40
0.0
 40
0.0042800650362834
 40
1.0
 40
1.0
 40
1.0
 40
1.0
 10
56.16033584635579
 20
-116.1580125560793
 30
0.0
 10
56.15930515478594
 20
-116.1584886951478
 30
0.0
 10
55.91849302667924
 20
-116.269734450626
 30
0.0
 10
55.68225330795291
 20
-116.4953027199328
 30
0.0
 10
55.44702471058689
 20
-116.7199055423769
 30
0.0
  0
LINE
  5
2A2
330
1F
100
AcDbEntity
  8
0
  6
Continuous
 62
     7
370
    15
100
AcDbLine
 10
57.3287731485
 20
-115.4830495586
 30
0.0
 11
73.8287767844
 21
-115.4830495586
 31
0.0
  0
SPLINE
  5
2A3
330
1F
100
AcDbEntity
  8
0
  6
Continuous
 62
     7
370
    15
100
AcDbSpline
210
0.0
220
0.0
230
1.0
 70
     8
 71
     3
 72
    14
 73
    10
 74
     0
 42
0.00000001
 43
0.00000001
 12
1.0
 22
0.0
 32
0.0
 13
1.0
 23
0.0
 33
0.0
 40
0.0
 40
0.0
 40
0.0
 40
0.0
 40
0.1323170758276309
 40
0.2645976067274167
 40
0.399838129034035
 40
0.5350522677321555
 40
0.6502557846803538
 40
0.765472339612546
 40
1.0
 40
1.0
 40
1.0
 40
1.0
 10
-184.9276968761174
 20
-124.6461908092532
 30
0.0
 10
-185.0600354270121
 20
-124.768553743245
 30
0.0
 10
-185.3246759779424
 20
-125.013245815556
 30
0.0
 10
-185.7322085434442
 20
-125.2765793134573
 30
0.0
 10
-186.1474282404702
 20
-125.4347641456201
 30
0.0
 10
-186.5476238663876
 20
-125.4665120922163
 30
0.0
 10
-186.9260727771777
 20
-125.3838988079539
 30
0.0
 10
-187.4043291369442
 20
-125.1672280221324
 30
0.0
 10
-187.75543987258
 20
-124.8553359753857
 30
0.0
 10
-187.9908838792531
 20
-124.6461908092531
 30
0.0
  0
SPLINE
  5
2A4
330
1F
100
AcDbEntity
  8
0
  6
Continuous
 62
     7
370
    15
100
AcDbSpline
210
0.0
220
0.0
230
1.0
 70
     8
 71
     3
 72
    14
 73
    10
 74
     0
 42
0.00000001
 43
0.00000001
 12
1.0
 22
0.0
 32
0.0
 13
1.0
 23
0.0
 33
0.0
 40
0.0
 40
0.0
 40
0.0
 40
0.0
 40
0.1331917184961729
 40
0.2578378417563493
 40
0.3824536835259923
 40
0.5101679068209118
 40
0.637882853492731
 40
0.8180584084227834
 40
1.0
 40
1.0
 40
1.0
 40
1.0
 10
-174.7959428950039
 20
-124.6461908092532
 30
0.0
 10
-175.2365704438871
 20
-124.769444905702
 30
0.0
 10
-176.0895548298923
 20
-125.008045102282
 30
0.0
 10
-177.3785647357398
 20
-125.2608828584787
 30
0.0
 10
-178.6625266437147
 20
-125.4206414590161
 30
0.0
 10
-179.9662947555289
 20
-125.4684817428222
 30
0.0
 10
-181.4590605817424
 20
-125.3913746053852
 30
0.0
 10
-183.1246818212855
 20
-125.1395249393012
 30
0.0
 10
-184.3247409712664
 20
-124.8111693134425
 30
0.0
 10
-184.9276968761174
 20
-124.6461908092532
 30
0.0
  0
SPLINE
  5
2A5
330
1F
100
AcDbEntity
  8
0
  6
Continuous
 62
     7
370
    15
100
AcDbSpline
210
0.0
220
0.0
230
1.0
 70
     8
 71
     3
 72
    14
 73
    10
 74
     0
 42
0.00000001
 43
0.00000001
 12
1.0
 22
0.0
 32
0.0
 13
1.0
 23
0.0
 33
0.0
 40
0.0
 40
0.0
 40
0.0
 40
0.0
 40
0.132316009783105
 40
0.2645958924432051
 40
0.3998381294642417
 40
0.5350504561165526
 40
0.6502525046212427
 40
0.7654704300161081
 40
1.0
 40
1.0
 40
1.0
 40
1.0
 10
-167.7273833676068
 20
-124.6461908092532
 30
0.0
 10
-168.03277306856
 20
-124.7685537467987
 30
0.0
 10
-168.6434690878788
 20
-125.0132462123203
 30
0.0
 10
-169.583906458592
 20
-125.276581610517
 30
0.0
 10
-170.5419764372825
 20
-125.434762112795
 30
0.0
 10
-171.4655448516173
 20
-125.4665128384345
 30
0.0
 10
-172.3387963720819
 20
-125.3838968471289
 30
0.0
 10
-173.4424369171385
 20
-125.1672290774385
 30
0.0
 10
-174.2526438443003
 20
-124.8553362442307
 30
0.0
 10
-174.7959428950039
 20
-124.6461908092531
 30
0.0
  0
SPLINE
  5
2A6
330
1F
100
AcDbEntity
  8
0
  6
Continuous
 62
     7
370
    15
100
AcDbSpline
210
0.0
220
0.0
230
1.0
 70
     8
 71
     3
 72
     9
 73
     5
 74
     0
 42
0.00000001
 43
0.00000001
 12
1.0
 22
0.0
 32
0.0
 13
1.0
 23
0.0
 33
0.0
 40
0.0
 40
0.0
 40
0.0
 40
0.0
 40
0.0042792599349906
 40
1.0
 40
1.0
 40
1.0
 40
1.0
 10
-168.4406945033757
 20
-125.2080837955508
 30
0.0
 10
-168.4396638113998
 20
-125.2076126337535
 30
0.0
 10
-168.198806281931
 20
-125.0975090633966
 30
0.0
 10
-167.9625894080667
 20
-124.8713660740079
 30
0.0
 10
-167.7273833676068
 20
-124.6461908092531
 30
0.0
  0
LINE
  5
2A7
330
1F
100
AcDbEntity
  8
0
  6
Continuous
 62
     7
370
    15
100
AcDbLine
 10
-174.795942895
 20
-116.7199055424
 30
0.0
 11
-174.795942895
 21
-124.6461908093
 31
0.0
  0
LINE
  5
2A8
330
1F
100
AcDbEntity
  8
0
  6
Continuous
 62
     7
370
    15
100
AcDbLine
 10
-184.9276968761
 20
-116.7199055424
 30
0.0
 11
-184.9276968761
 21
-124.6461908093
 31
0.0
  0
SPLINE
  5
2A9
330
1F
100
AcDbEntity
  8
0
  6
Continuous
 62
     7
370
    15
100
AcDbSpline
210
0.0
220
0.0
230
1.0
 70
     8
 71
     3
 72
    14
 73
    10
 74
     0
 42
0.00000001
 43
0.00000001
 12
1.0
 22
0.0
 32
0.0
 13
1.0
 23
0.0
 33
0.0
 40
0.0
 40
0.0
 40
0.0
 40
0.0
 40
0.1803126120306817
 40
0.362116332999757
 40
0.486623805746792
 40
0.6111285525401238
 40
0.7389517922154365
 40
0.8668083194211138
 40
1.0
 40
1.0
 40
1.0
 40
1.0
 10
-184.9276968761174
 20
-116.7199055423769
 30
0.0
 10
-184.3301757380258
 20
-116.556311058345
 30
0.0
 10
-183.1301922150833
 20
-116.2277692331811
 30
0.0
 10
-181.4755292421009
 20
-115.9766952922461
 30
0.0
 10
-179.9993531111619
 20
-115.8987984022137
 30
0.0
 10
-178.7065317585523
 20
-115.9419313788422
 30
0.0
 10
-177.4111010325363
 20
-116.0991922656628
 30
0.0
 10
-176.1001798886093
 20
-116.3551032163148
 30
0.0
 10
-175.2365718678168
 20
-116.5966591730433
 30
0.0
 10
-174.7959428950039
 20
-116.7199055423769
 30
0.0
  0
SPLINE
  5
2AA
330
1F
100
AcDbEntity
  8
0
  6
Continuous
 62
     7
370
    15
100
AcDbSpline
210
0.0
220
0.0
230
1.0
 70
     8
 71
     3
 72
     9
 73
     5
 74
     0
 42
0.00000001
 43
0.00000001
 12
1.0
 22
0.0
 32
0.0
 13
1.0
 23
0.0
 33
0.0
 40
0.0
 40
0.0
 40
0.0
 40
0.0
 40
0.5618945377327447
 40
0.9999999999999999
 40
0.9999999999999999
 40
0.9999999999999999
 40
0.9999999999999999
 10
-167.7273833676068
 20
-116.7199055423769
 30
0.0
 10
-167.8596012326295
 20
-116.5951871320169
 30
0.0
 10
-168.0949084943021
 20
-116.373226600307
 30
0.0
 10
-168.3353850946843
 20
-116.2294298527256
 30
0.0
 10
-168.4407392068593
 20
-116.1664317121539
 30
0.0
  0
SPLINE
  5
2AB
330
1F
100
AcDbEntity
  8
0
  6
Continuous
 62
     7
370
    15
100
AcDbSpline
210
0.0
220
0.0
230
1.0
 70
     8
 71
     3
 72
    14
 73
    10
 74
     0
 42
0.00000001
 43
0.00000001
 12
1.0
 22
0.0
 32
0.0
 13
1.0
 23
0.0
 33
0.0
 40
0.0
 40
0.0
 40
0.0
 40
0.0
 40
0.1323160232021111
 40
0.2645999881413257
 40
0.3998381216055956
 40
0.5350546031706728
 40
0.650252529157307
 40
0.765474760840774
 40
1.0
 40
1.0
 40
1.0
 40
1.0
 10
-174.7959428950039
 20
-116.7199055423769
 30
0.0
 10
-174.4905487340986
 20
-116.5975416967253
 30
0.0
 10
-173.8798344048858
 20
-116.352843652416
 30
0.0
 10
-172.9394642539764
 20
-116.0895236414569
 30
0.0
 10
-171.9813007216135
 20
-115.931329487075
 30
0.0
 10
-171.0578295333937
 20
-115.8995834708702
 30
0.0
 10
-170.1844859829299
 20
-115.9822001647586
 30
0.0
 10
-169.0809438310953
 20
-116.1988837708335
 30
0.0
 10
-168.2706983059599
 20
-116.510769032171
 30
0.0
 10
-167.7273833676068
 20
-116.7199055423769
 30
0.0
  0
SPLINE
  5
2AC
330
1F
100
AcDbEntity
  8
0
  6
Continuous
 62
     7
370
    15
100
AcDbSpline
210
0.0
220
0.0
230
1.0
 70
     8
 71
     3
 72
    14
 73
    10
 74
     0
 42
0.00000001
 43
0.00000001
 12
1.0
 22
0.0
 32
0.0
 13
1.0
 23
0.0
 33
0.0
 40
0.0
 40
0.0
 40
0.0
 40
0.0
 40
0.1323175026033566
 40
0.2645980571453683
 40
0.3998381897457585
 40
0.5350527688993407
 40
0.6502505016550556
 40
0.7654726177491565
 40
1.0
 40
1.0
 40
1.0
 40
1.0
 10
-187.9908838792531
 20
-116.7199055423769
 30
0.0
 10
-187.8585396320755
 20
-116.5975426758044
 30
0.0
 10
-187.5938880932498
 20
-116.352851111009
 30
0.0
 10
-187.186352798563
 20
-116.0895172419083
 30
0.0
 10
-186.7711606015146
 20
-115.9313322688015
 30
0.0
 10
-186.370946310444
 20
-115.8995831821813
 30
0.0
 10
-185.9924909088941
 20
-115.9822002275642
 30
0.0
 10
-185.5142703901328
 20
-116.1988856307277
 30
0.0
 10
-185.1631461216864
 20
-116.5107693604779
 30
0.0
 10
-184.9276968761174
 20
-116.7199055423769
 30
0.0
  0
LINE
  5
2AD
330
1F
100
AcDbEntity
  8
0
  6
Continuous
 62
     7
370
    15
100
AcDbLine
 10
-186.1091354414
 20
-115.4830495586
 30
0.0
 11
-169.6091318055
 21
-115.4830495586
 31
0.0
  0
LINE
  5
2AE
330
1F
100
AcDbEntity
  8
0
  6
Continuous
 62
     7
370
    15
100
AcDbLine
 10
55.4470247106
 20
-116.7199055424
 30
0.0
 11
55.4470247106
 21
-124.6461908093
 31
0.0
  0
LINE
  5
2AF
330
1F
100
AcDbEntity
  8
0
  6
Continuous
 62
     7
370
    15
100
AcDbLine
 10
-167.7273833676
 20
-116.7199055424
 30
0.0
 11
-167.7273833676
 21
-124.6461908093
 31
0.0
  0
SPLINE
  5
2B0
330
1F
100
AcDbEntity
  8
0
  6
Continuous
 62
     7
370
    15
100
AcDbSpline
210
0.0
220
0.0
230
1.0
 70
     8
 71
     3
 72
    11
 73
     7
 74
     0
 42
0.00000001
 43
0.00000001
 12
1.0
 22
0.0
 32
0.0
 13
1.0
 23
0.0
 33
0.0
 40
0.0
 40
0.0
 40
0.0
 40
0.0
 40
0.151940062677024
 40
0.4266406778204345
 40
0.7089734362788612
 40
1.0
 40
1.0
 40
1.0
 40
1.0
 10
-597.1621820255009
 20
-136.2312773933443
 30
0.0
 10
-597.1581179153877
 20
-136.232448761018
 30
0.0
 10
-597.1467060819131
 20
-136.2357379073397
 30
0.0
 10
-597.3093568061784
 20
-136.1885226871191
 30
0.0
 10
-597.6181683468666
 20
-136.1092936700237
 30
0.0
 10
-597.9609039729795
 20
-136.0665861273136
 30
0.0
 10
-598.1348702235905
 20
-136.0449085702929
 30
0.0
  0
LINE
  5
2B1
330
1F
100
AcDbEntity
  8
0
  6
Continuous
 62
     7
370
    15
100
AcDbLine
 10
-542.984182529
 20
-136.0989401808
 30
0.0
 11
-543.0249819084
 21
-136.0449085703
 31
0.0
  0
LINE
  5
2B2
330
1F
100
AcDbEntity
  8
0
  6
Continuous
 62
     7
370
    15
100
AcDbLine
 10
430.7446232514
 20
-136.0449085703
 30
0.0
 11
430.7020059304
 21
-136.0987166634
 31
0.0
  0
SPLINE
  5
2B3
330
1F
100
AcDbEntity
  8
0
  6
Continuous
 62
     7
370
    15
100
AcDbSpline
210
0.0
220
0.0
230
1.0
 70
     8
 71
     3
 72
    11
 73
     7
 74
     0
 42
0.00000001
 43
0.00000001
 12
1.0
 22
0.0
 32
0.0
 13
1.0
 23
0.0
 33
0.0
 40
0.0
 40
0.0
 40
0.0
 40
0.0
 40
0.2834635756254296
 40
0.5750775656057678
 40
0.8591033492584566
 40
1.0
 40
1.0
 40
1.0
 40
1.0
 10
485.8545115665706
 20
-136.0449085702929
 30
0.0
 10
485.6847543846446
 20
-136.0659235095619
 30
0.0
 10
485.340359000826
 20
-136.1085576296229
 30
0.0
 10
485.0263957739963
 20
-136.1891189939126
 30
0.0
 10
484.8634083891627
 20
-136.2366847966891
 30
0.0
 10
484.8772377880762
 20
-136.2326239103504
 30
0.0
 10
484.881823368481
 20
-136.2312773933443
 30
0.0
  0
LINE
  5
2B4
330
1F
100
AcDbEntity
  8
0
  6
Continuous
 62
     7
370
    15
100
AcDbLine
 10
75.7105252222
 20
-116.7199055424
 30
0.0
 11
75.7105252222
 21
-124.6461908093
 31
0.0
  0
LINE
  5
2B5
330
1F
100
AcDbEntity
  8
0
  6
Continuous
 62
     7
370
    15
100
AcDbLine
 10
-187.9908838793
 20
-116.7199055424
 30
0.0
 11
-187.9908838793
 21
-124.6461908093
 31
0.0
  0
LINE
  5
2B6
330
1F
100
AcDbEntity
  8
0
  6
Continuous
 62
     7
370
    15
100
AcDbLine
 10
59.5787739829
 20
-80.3830514421
 30
0.0
 11
71.5787759499
 21
-80.3830514421
 31
0.0
  0
LINE
  5
2B7
330
1F
100
AcDbEntity
  8
0
  6
Continuous
 62
     7
370
    15
100
AcDbLine
 10
-183.8591346069
 20
-80.3830514421
 30
0.0
 11
-171.85913264
 21
-80.3830514421
 31
0.0
  0
LINE
  5
2B8
330
1F
100
AcDbEntity
  8
0
  6
Continuous
 62
     7
370
    15
100
AcDbLine
 10
-589.767749004
 20
-168.3830509653
 30
0.0
 11
-554.9701401516
 21
-168.3830509653
 31
0.0
  0
LINE
  5
2B9
330
1F
100
AcDbEntity
  8
0
  6
Continuous
 62
     7
370
    15
100
AcDbLine
 10
-542.9701456352
 20
-168.3830509653
 30
0.0
 11
-403.1890878006
 21
-168.3830509653
 31
0.0
  0
LINE
  5
2BA
330
1F
100
AcDbEntity
  8
0
  6
Continuous
 62
     7
370
    15
100
AcDbLine
 10
-391.1890932842
 20
-168.3830509653
 30
0.0
 11
-183.8591346069
 21
-168.3830509653
 31
0.0
  0
LINE
  5
2BB
330
1F
100
AcDbEntity
  8
0
  6
Continuous
 62
     7
370
    15
100
AcDbLine
 10
-171.85913264
 20
-168.3830509653
 30
0.0
 11
59.5787739829
 21
-168.3830509653
 31
0.0
  0
LINE
  5
2BC
330
1F
100
AcDbEntity
  8
0
  6
Continuous
 62
     7
370
    15
100
AcDbLine
 10
71.5787759499
 20
-168.3830509653
 30
0.0
 11
278.9087346272
 21
-168.3830509653
 31
0.0
  0
LINE
  5
2BD
330
1F
100
AcDbEntity
  8
0
  6
Continuous
 62
     7
370
    15
100
AcDbLine
 10
290.9087291436
 20
-168.3830509653
 30
0.0
 11
430.6897869782
 21
-168.3830509653
 31
0.0
  0
LINE
  5
2BE
330
1F
100
AcDbEntity
  8
0
  6
Continuous
 62
     7
370
    15
100
AcDbLine
 10
442.6897814945
 20
-168.3830509653
 30
0.0
 11
477.4873903469
 21
-168.3830509653
 31
0.0
  0
LINE
  5
2BF
330
1F
100
AcDbEntity
  8
0
  6
Continuous
 62
     7
370
    15
100
AcDbLine
 10
272.9087522702
 20
-125.883046793
 30
0.0
 11
296.9087413029
 21
-125.883046793
 31
0.0
  0
LINE
  5
2C0
330
1F
100
AcDbEntity
  8
0
  6
Continuous
 62
     7
370
    15
100
AcDbLine
 10
-387.8071257396
 20
-125.883046793
 30
0.0
 11
-385.1891109272
 21
-125.883046793
 31
0.0
  0
LINE
  5
2C1
330
1F
100
AcDbEntity
  8
0
  6
Continuous
 62
     7
370
    15
100
AcDbLine
 10
-409.1890999599
 20
-125.883046793
 30
0.0
 11
-387.8071257396
 21
-125.883046793
 31
0.0
  0
LINE
  5
2C2
330
1F
100
AcDbEntity
  8
0
  6
Continuous
 62
     7
370
    15
100
AcDbLine
 10
286.4576330857
 20
-116.7199055424
 30
0.0
 11
286.4576330857
 21
-124.6461908093
 31
0.0
  0
SPLINE
  5
2C3
330
1F
100
AcDbEntity
  8
0
  6
Continuous
 62
     7
370
    15
100
AcDbSpline
210
0.0
220
0.0
230
1.0
 70
     8
 71
     3
 72
    14
 73
    10
 74
     0
 42
0.00000001
 43
0.00000001
 12
1.0
 22
0.0
 32
0.0
 13
1.0
 23
0.0
 33
0.0
 40
0.0
 40
0.0
 40
0.0
 40
0.0
 40
0.1323172838063277
 40
0.2645978392530644
 40
0.3998384081615945
 40
0.5350521024252972
 40
0.6502523298363279
 40
0.7654723998883639
 40
1.0
 40
1.0
 40
1.0
 40
1.0
 10
286.4576330856594
 20
-124.6461908092532
 30
0.0
 10
286.0396820414053
 20
-124.7685536997715
 30
0.0
 10
285.2038959668889
 20
-125.0132455155686
 30
0.0
 10
283.9168524720816
 20
-125.2765795138819
 30
0.0
 10
282.6055751003755
 20
-125.4347633993657
 30
0.0
 10
281.3416765567383
 20
-125.4665136910004
 30
0.0
 10
280.1465016694632
 20
-125.383894039019
 30
0.0
 10
278.6361358867013
 20
-125.1672346158155
 30
0.0
 10
277.5272720859099
 20
-124.8553373532246
 30
0.0
 10
276.7837098316464
 20
-124.6461908092531
 30
0.0
  0
LINE
  5
2C4
330
1F
100
AcDbEntity
  8
0
  6
Continuous
 62
     7
370
    15
100
AcDbLine
 10
276.7837098316
 20
-116.7199055424
 30
0.0
 11
276.7837098316
 21
-124.6461908093
 31
0.0
  0
SPLINE
  5
2C5
330
1F
100
AcDbEntity
  8
0
  6
Continuous
 62
     7
370
    15
100
AcDbSpline
210
0.0
220
0.0
230
1.0
 70
     8
 71
     3
 72
    14
 73
    10
 74
     0
 42
0.00000001
 43
0.00000001
 12
1.0
 22
0.0
 32
0.0
 13
1.0
 23
0.0
 33
0.0
 40
0.0
 40
0.0
 40
0.0
 40
0.0
 40
0.1323173010221687
 40
0.2645978736799677
 40
0.3998384601846883
 40
0.5350521720410848
 40
0.6502524144408512
 40
0.7654726894272302
 40
1.0
 40
1.0
 40
1.0
 40
1.0
 10
276.7837098316463
 20
-116.7199055423769
 30
0.0
 10
277.2016608772117
 20
-116.5975426419241
 30
0.0
 10
278.0374469543505
 20
-116.3528508062608
 30
0.0
 10
279.3244904293476
 20
-116.0895169580237
 30
0.0
 10
280.6357678779521
 20
-115.9313324899807
 30
0.0
 10
281.8996661472097
 20
-115.8995842769665
 30
0.0
 10
283.0948425350318
 20
-115.9821973077645
 30
0.0
 10
284.6052036274344
 20
-116.1988890342613
 30
0.0
 10
285.7140699071976
 20
-116.5107700802489
 30
0.0
 10
286.4576330856594
 20
-116.7199055423769
 30
0.0
  0
SPLINE
  5
2C6
330
1F
100
AcDbEntity
  8
0
  6
Continuous
 62
     7
370
    15
100
AcDbSpline
210
0.0
220
0.0
230
1.0
 70
     8
 71
     3
 72
    10
 73
     6
 74
     0
 42
0.00000001
 43
0.00000001
 12
1.0
 22
0.0
 32
0.0
 13
1.0
 23
0.0
 33
0.0
 40
0.0
 40
0.0
 40
0.0
 40
0.0
 40
0.3564298114800299
 40
0.7127629727278552
 40
1.0
 40
1.0
 40
1.0
 40
1.0
 10
294.5826700405391
 20
-116.7199055423769
 30
0.0
 10
294.5157359318992
 20
-116.5982380096994
 30
0.0
 10
294.3818858646084
 20
-116.3549359359598
 30
0.0
 10
294.1907192426781
 20
-116.1006911712883
 30
0.0
 10
294.0660280020245
 20
-116.0209964874419
 30
0.0
 10
294.0103760437282
 20
-115.9854273071322
 30
0.0
  0
SPLINE
  5
2C7
330
1F
100
AcDbEntity
  8
0
  6
Continuous
 62
     7
370
    15
100
AcDbSpline
210
0.0
220
0.0
230
1.0
 70
     8
 71
     3
 72
    14
 73
    10
 74
     0
 42
0.00000001
 43
0.00000001
 12
1.0
 22
0.0
 32
0.0
 13
1.0
 23
0.0
 33
0.0
 40
0.0
 40
0.0
 40
0.0
 40
0.0
 40
0.1803118963843955
 40
0.3621158211768641
 40
0.4866242501466974
 40
0.6111294857496057
 40
0.7389513644387122
 40
0.8668079324433523
 40
1.0
 40
1.0
 40
1.0
 40
1.0
 10
286.4576330856594
 20
-116.7199055423769
 30
0.0
 10
286.9368053326172
 20
-116.5563109591921
 30
0.0
 10
287.8991148372679
 20
-116.2277680953104
 30
0.0
 10
289.2260505433887
 20
-115.9766947598491
 30
0.0
 10
290.4098509794856
 20
-115.8987987170729
 30
0.0
 10
291.4466326712737
 20
-115.9419302474437
 30
0.0
 10
292.4854586749178
 20
-116.0991936473111
 30
0.0
 10
293.536761488203
 20
-116.3551035617283
 30
0.0
 10
294.2293155506067
 20
-116.5966591863638
 30
0.0
 10
294.5826700405391
 20
-116.7199055423769
 30
0.0
  0
SPLINE
  5
2C8
330
1F
100
AcDbEntity
  8
0
  6
Continuous
 62
     7
370
    15
100
AcDbSpline
210
0.0
220
0.0
230
1.0
 70
     8
 71
     3
 72
    16
 73
    12
 74
     0
 42
0.00000001
 43
0.00000001
 12
1.0
 22
0.0
 32
0.0
 13
1.0
 23
0.0
 33
0.0
 40
0.0
 40
0.0
 40
0.0
 40
0.0
 40
0.2499999999999994
 40
0.2499999999999994
 40
0.4999999999999989
 40
0.4999999999999989
 40
0.6249999999999987
 40
0.6249999999999987
 40
0.7499999999999983
 40
0.7499999999999983
 40
1.0
 40
1.0
 40
1.0
 40
1.0
 10
275.2348185197134
 20
-116.7199106484511
 30
0.0
 10
275.3612708988554
 20
-116.4749891338687
 30
0.0
 10
275.4886452232562
 20
-116.2731294138322
 30
0.0
 10
275.7460503632784
 20
-115.9934881422351
 30
0.0
 10
275.8761009276778
 20
-115.9166290075068
 30
0.0
 10
276.0736270112679
 20
-115.9157848463377
 30
0.0
 10
276.1397788421648
 20
-115.9345739330077
 30
0.0
 10
276.2706341420476
 20
-116.0078414250886
 30
0.0
 10
276.3356230827848
 20
-116.062245476752
 30
0.0
 10
276.5294328657023
 20
-116.272324535104
 30
0.0
 10
276.6571011769918
 20
-116.4746838282713
 30
0.0
 10
276.7837111846674
 20
-116.7199106484513
 30
0.0
  0
LINE
  5
2C9
330
1F
100
AcDbEntity
  8
0
  6
Continuous
 62
     7
370
    15
100
AcDbLine
 10
276.6587486939
 20
-115.4830495586
 30
0.0
 11
293.1587448792
 21
-115.4830495586
 31
0.0
  0
SPLINE
  5
2CA
330
1F
100
AcDbEntity
  8
0
  6
Continuous
 62
     7
370
    15
100
AcDbSpline
210
0.0
220
0.0
230
1.0
 70
     8
 71
     3
 72
    16
 73
    12
 74
     0
 42
0.00000001
 43
0.00000001
 12
1.0
 22
0.0
 32
0.0
 13
1.0
 23
0.0
 33
0.0
 40
0.0
 40
0.0
 40
0.0
 40
0.0
 40
0.2499999999999973
 40
0.2499999999999973
 40
0.4999999999999946
 40
0.4999999999999946
 40
0.6249999999999932
 40
0.6249999999999932
 40
0.7499999999999918
 40
0.7499999999999918
 40
1.0
 40
1.0
 40
1.0
 40
1.0
 10
294.5826660567196
 20
-124.6461900900805
 30
0.0
 10
293.9218965662941
 20
-124.8901655833448
 30
0.0
 10
293.2449645024366
 20
-125.0948596700684
 30
0.0
 10
291.887793586722
 20
-125.3747134634563
 30
0.0
 10
291.2055354958364
 20
-125.4501219277155
 30
0.0
 10
290.1757023565451
 20
-125.4499954293762
 30
0.0
 10
289.8313630462033
 20
-125.431303812158
 30
0.0
 10
289.1405900870995
 20
-125.3571286001839
 30
0.0
 10
288.7972822099184
 20
-125.3019521605279
 30
0.0
 10
287.7796471844898
 20
-125.0906145051301
 30
0.0
 10
287.1143016241704
 20
-124.8886509863997
 30
0.0
 10
286.4576285989321
 20
-124.6461877439077
 30
0.0
  0
SPLINE
  5
2CB
330
1F
100
AcDbEntity
  8
0
  6
Continuous
 62
     7
370
    15
100
AcDbSpline
210
0.0
220
0.0
230
1.0
 70
     8
 71
     3
 72
    10
 73
     6
 74
     0
 42
0.00000001
 43
0.00000001
 12
1.0
 22
0.0
 32
0.0
 13
1.0
 23
0.0
 33
0.0
 40
0.0
 40
0.0
 40
0.0
 40
0.0
 40
0.0577454961096202
 40
0.3681584382717221
 40
1.0
 40
1.0
 40
1.0
 40
1.0
 10
294.0104058460506
 20
-125.3841410150561
 30
0.0
 10
294.0216259709992
 20
-125.379814539331
 30
0.0
 10
294.0931602716216
 20
-125.3522309414142
 30
0.0
 10
294.2859669647681
 20
-125.1572651324706
 30
0.0
 10
294.4635735388329
 20
-124.851335848107
 30
0.0
 10
294.5826700405391
 20
-124.6461908092532
 30
0.0
  0
SPLINE
  5
2CC
330
1F
100
AcDbEntity
  8
0
  6
Continuous
 62
     7
370
    15
100
AcDbSpline
210
0.0
220
0.0
230
1.0
 70
     8
 71
     3
 72
    16
 73
    12
 74
     0
 42
0.00000001
 43
0.00000001
 12
1.0
 22
0.0
 32
0.0
 13
1.0
 23
0.0
 33
0.0
 40
0.0
 40
0.0
 40
0.0
 40
0.0
 40
0.2499999999999939
 40
0.2499999999999939
 40
0.4999999999999879
 40
0.4999999999999879
 40
0.6249999999999916
 40
0.6249999999999916
 40
0.7499999999999951
 40
0.7499999999999951
 40
1.0
 40
1.0
 40
1.0
 40
1.0
 10
276.7837111846674
 20
-124.6461900900808
 30
0.0
 10
276.6572588055254
 20
-124.8911116046632
 30
0.0
 10
276.5298844811246
 20
-125.0929713246997
 30
0.0
 10
276.2724793411024
 20
-125.3726125962968
 30
0.0
 10
276.142428776703
 20
-125.4494717310251
 30
0.0
 10
275.9449026931129
 20
-125.4503158921943
 30
0.0
 10
275.878750862216
 20
-125.4315268055242
 30
0.0
 10
275.7478955623331
 20
-125.3582593134433
 30
0.0
 10
275.6829066215961
 20
-125.3038552617799
 30
0.0
 10
275.4890968386784
 20
-125.093776203428
 30
0.0
 10
275.3614285273889
 20
-124.8914169102606
 30
0.0
 10
275.2348185197134
 20
-124.6461900900806
 30
0.0
  0
SPLINE
  5
2CD
330
1F
100
AcDbEntity
  8
0
  6
Continuous
 62
     7
370
    15
100
AcDbSpline
210
0.0
220
0.0
230
1.0
 70
     8
 71
     3
 72
    16
 73
    12
 74
     0
 42
0.00000001
 43
0.00000001
 12
1.0
 22
0.0
 32
0.0
 13
1.0
 23
0.0
 33
0.0
 40
0.0
 40
0.0
 40
0.0
 40
0.0
 40
0.2500000000000095
 40
0.2500000000000095
 40
0.500000000000019
 40
0.500000000000019
 40
0.6250000000000149
 40
0.6250000000000149
 40
0.7500000000000107
 40
0.7500000000000107
 40
1.0
 40
1.0
 40
1.0
 40
1.0
 10
-389.0640698416902
 20
-116.7199106484511
 30
0.0
 10
-388.9376174625482
 20
-116.4749891338687
 30
0.0
 10
-388.8102431381473
 20
-116.2731294138322
 30
0.0
 10
-388.5528379981252
 20
-115.9934881422351
 30
0.0
 10
-388.4227874337257
 20
-115.9166290075068
 30
0.0
 10
-388.2252613501357
 20
-115.9157848463376
 30
0.0
 10
-388.1591095192388
 20
-115.9345739330077
 30
0.0
 10
-388.0282542193559
 20
-116.0078414250886
 30
0.0
 10
-387.9632652786187
 20
-116.0622454767519
 30
0.0
 10
-387.7694554957013
 20
-116.2723245351039
 30
0.0
 10
-387.6417871844118
 20
-116.4746838282713
 30
0.0
 10
-387.5151771767362
 20
-116.7199106484513
 30
0.0
  0
SPLINE
  5
2CE
330
1F
100
AcDbEntity
  8
0
  6
Continuous
 62
     7
370
    15
100
AcDbSpline
210
0.0
220
0.0
230
1.0
 70
     8
 71
     3
 72
    14
 73
    10
 74
     0
 42
0.00000001
 43
0.00000001
 12
1.0
 22
0.0
 32
0.0
 13
1.0
 23
0.0
 33
0.0
 40
0.0
 40
0.0
 40
0.0
 40
0.0
 40
0.1323173010221687
 40
0.2645978736799677
 40
0.3998384601846883
 40
0.5350521720410848
 40
0.6502524144408512
 40
0.7654726894272302
 40
1.0
 40
1.0
 40
1.0
 40
1.0
 10
-398.7379917426792
 20
-116.7199055423769
 30
0.0
 10
-398.3200406971138
 20
-116.5975426419241
 30
0.0
 10
-397.484254619975
 20
-116.3528508062608
 30
0.0
 10
-396.1972111449781
 20
-116.0895169580237
 30
0.0
 10
-394.8859336963736
 20
-115.9313324899807
 30
0.0
 10
-393.6220354271157
 20
-115.8995842769665
 30
0.0
 10
-392.4268590392939
 20
-115.9821973077645
 30
0.0
 10
-390.916497946891
 20
-116.1988890342613
 30
0.0
 10
-389.807631667128
 20
-116.5107700802489
 30
0.0
 10
-389.0640684886662
 20
-116.7199055423769
 30
0.0
  0
SPLINE
  5
2CF
330
1F
100
AcDbEntity
  8
0
  6
Continuous
 62
     7
370
    15
100
AcDbSpline
210
0.0
220
0.0
230
1.0
 70
     8
 71
     3
 72
    14
 73
    10
 74
     0
 42
0.00000001
 43
0.00000001
 12
1.0
 22
0.0
 32
0.0
 13
1.0
 23
0.0
 33
0.0
 40
0.0
 40
0.0
 40
0.0
 40
0.0
 40
0.180311896694085
 40
0.362114079277748
 40
0.4866225084614271
 40
0.611129504871441
 40
0.7389496338744816
 40
0.8668079322145918
 40
1.0
 40
1.0
 40
1.0
 40
1.0
 10
-406.863028697559
 20
-116.7199055423769
 30
0.0
 10
-406.3838578638803
 20
-116.5563112396112
 30
0.0
 10
-405.4215558281545
 20
-116.2277705198516
 30
0.0
 10
-404.0946058707423
 20
-115.97669336435
 30
0.0
 10
-402.9107998380083
 20
-115.8987992872603
 30
0.0
 10
-401.8740503491413
 20
-115.9419279494104
 30
0.0
 10
-400.8351820057316
 20
-116.0991975406524
 30
0.0
 10
-399.7839116425487
 20
-116.3551007040444
 30
0.0
 10
-399.0913485156161
 20
-116.5966587617764
 30
0.0
 10
-398.7379917426792
 20
-116.7199055423769
 30
0.0
  0
SPLINE
  5
2D0
330
1F
100
AcDbEntity
  8
0
  6
Continuous
 62
     7
370
    15
100
AcDbSpline
210
0.0
220
0.0
230
1.0
 70
     8
 71
     3
 72
    10
 73
     6
 74
     0
 42
0.00000001
 43
0.00000001
 12
1.0
 22
0.0
 32
0.0
 13
1.0
 23
0.0
 33
0.0
 40
0.0
 40
0.0
 40
0.0
 40
0.0
 40
0.0577455163509726
 40
0.3681590790493827
 40
1.0
 40
1.0
 40
1.0
 40
1.0
 10
-406.2907645030705
 20
-115.981955336574
 30
0.0
 10
-406.3019846300166
 20
-115.9862817178976
 30
0.0
 10
-406.3735190428051
 20
-116.0138647522929
 30
0.0
 10
-406.5663250392466
 20
-116.2088602929296
 30
0.0
 10
-406.7439320327891
 20
-116.5147722956152
 30
0.0
 10
-406.863028697559
 20
-116.7199055423769
 30
0.0
  0
LINE
  5
2D1
330
1F
100
AcDbEntity
  8
0
  6
Continuous
 62
     7
370
    15
100
AcDbLine
 10
-405.4391035362
 20
-115.4830495586
 30
0.0
 11
-388.9391073509
 21
-115.4830495586
 31
0.0
  0
LINE
  5
2D2
330
1F
100
AcDbEntity
  8
0
  6
Continuous
 62
     7
370
    15
100
AcDbLine
 10
-389.0640684887
 20
-116.7199055424
 30
0.0
 11
-389.0640684887
 21
-124.6461908093
 31
0.0
  0
SPLINE
  5
2D3
330
1F
100
AcDbEntity
  8
0
  6
Continuous
 62
     7
370
    15
100
AcDbSpline
210
0.0
220
0.0
230
1.0
 70
     8
 71
     3
 72
    14
 73
    10
 74
     0
 42
0.00000001
 43
0.00000001
 12
1.0
 22
0.0
 32
0.0
 13
1.0
 23
0.0
 33
0.0
 40
0.0
 40
0.0
 40
0.0
 40
0.0
 40
0.1323172838063277
 40
0.2645978392530644
 40
0.3998384081615945
 40
0.5350521024252972
 40
0.6502523298363279
 40
0.7654723998883639
 40
1.0
 40
1.0
 40
1.0
 40
1.0
 10
-389.0640684886662
 20
-124.6461908092532
 30
0.0
 10
-389.4820195329202
 20
-124.7685536997715
 30
0.0
 10
-390.3178056074369
 20
-125.0132455155686
 30
0.0
 10
-391.6048491022438
 20
-125.2765795138819
 30
0.0
 10
-392.9161264739503
 20
-125.4347633993657
 30
0.0
 10
-394.1800250175872
 20
-125.4665136910004
 30
0.0
 10
-395.3751999048624
 20
-125.383894039019
 30
0.0
 10
-396.8855656876243
 20
-125.1672346158155
 30
0.0
 10
-397.9944294884158
 20
-124.8553373532246
 30
0.0
 10
-398.7379917426793
 20
-124.6461908092531
 30
0.0
  0
LINE
  5
2D4
330
1F
100
AcDbEntity
  8
0
  6
Continuous
 62
     7
370
    15
100
AcDbLine
 10
-398.7379917427
 20
-116.7199055424
 30
0.0
 11
-398.7379917427
 21
-124.6461908093
 31
0.0
  0
SPLINE
  5
2D5
330
1F
100
AcDbEntity
  8
0
  6
Continuous
 62
     7
370
    15
100
AcDbSpline
210
0.0
220
0.0
230
1.0
 70
     8
 71
     3
 72
    10
 73
     6
 74
     0
 42
0.00000001
 43
0.00000001
 12
1.0
 22
0.0
 32
0.0
 13
1.0
 23
0.0
 33
0.0
 40
0.0
 40
0.0
 40
0.0
 40
0.0
 40
0.3564298114800299
 40
0.7127629727278552
 40
1.0
 40
1.0
 40
1.0
 40
1.0
 10
-406.863028697559
 20
-124.6461908092532
 30
0.0
 10
-406.7960945889191
 20
-124.7678583419307
 30
0.0
 10
-406.6622445216283
 20
-125.0111604156704
 30
0.0
 10
-406.4710778996981
 20
-125.2654051803418
 30
0.0
 10
-406.3463866590444
 20
-125.3450998641882
 30
0.0
 10
-406.2907347007481
 20
-125.3806690444979
 30
0.0
  0
SPLINE
  5
2D6
330
1F
100
AcDbEntity
  8
0
  6
Continuous
 62
     7
370
    15
100
AcDbSpline
210
0.0
220
0.0
230
1.0
 70
     8
 71
     3
 72
    16
 73
    12
 74
     0
 42
0.00000001
 43
0.00000001
 12
1.0
 22
0.0
 32
0.0
 13
1.0
 23
0.0
 33
0.0
 40
0.0
 40
0.0
 40
0.0
 40
0.0
 40
0.2500000000000009
 40
0.2500000000000009
 40
0.5000000000000019
 40
0.5000000000000019
 40
0.6250000000000023
 40
0.6250000000000023
 40
0.7500000000000029
 40
0.7500000000000029
 40
1.0
 40
1.0
 40
1.0
 40
1.0
 10
-398.7379874997754
 20
-124.6461878339335
 30
0.0
 10
-399.3987568916747
 20
-124.890163566041
 30
0.0
 10
-400.0756888633083
 20
-125.0948579704986
 30
0.0
 10
-401.432859685468
 20
-125.3747125450815
 30
0.0
 10
-402.1151177261318
 20
-125.4501214604456
 30
0.0
 10
-403.1449507886423
 20
-125.4499956642047
 30
0.0
 10
-403.4892900731928
 20
-125.4313042844883
 30
0.0
 10
-404.1800629811718
 20
-125.3571295394838
 30
0.0
 10
-404.5233709353019
 20
-125.3019533106796
 30
0.0
 10
-405.5410060499721
 20
-125.0906162494712
 30
0.0
 10
-406.2063516555351
 20
-124.8886530603159
 30
0.0
 10
-406.8630247137425
 20
-124.6461900900804
 30
0.0
  0
SPLINE
  5
2D7
330
1F
100
AcDbEntity
  8
0
  6
Continuous
 62
     7
370
    15
100
AcDbSpline
210
0.0
220
0.0
230
1.0
 70
     8
 71
     3
 72
    16
 73
    12
 74
     0
 42
0.00000001
 43
0.00000001
 12
1.0
 22
0.0
 32
0.0
 13
1.0
 23
0.0
 33
0.0
 40
0.0
 40
0.0
 40
0.0
 40
0.0
 40
0.2499999999999928
 40
0.2499999999999928
 40
0.4999999999999857
 40
0.4999999999999857
 40
0.6249999999999899
 40
0.6249999999999899
 40
0.749999999999994
 40
0.749999999999994
 40
1.0
 40
1.0
 40
1.0
 40
1.0
 10
-387.5151771767362
 20
-124.6461900900808
 30
0.0
 10
-387.6416295558781
 20
-124.8911116046632
 30
0.0
 10
-387.7690038802791
 20
-125.0929713246997
 30
0.0
 10
-388.0264090203012
 20
-125.3726125962968
 30
0.0
 10
-388.1564595847007
 20
-125.4494717310251
 30
0.0
 10
-388.3539856682908
 20
-125.4503158921943
 30
0.0
 10
-388.4201374991877
 20
-125.4315268055242
 30
0.0
 10
-388.5509927990704
 20
-125.3582593134433
 30
0.0
 10
-388.6159817398075
 20
-125.30385526178
 30
0.0
 10
-388.8097915227252
 20
-125.093776203428
 30
0.0
 10
-388.9374598340146
 20
-124.8914169102606
 30
0.0
 10
-389.0640698416902
 20
-124.6461900900806
 30
0.0
  0
LINE
  5
2D8
330
1F
100
AcDbEntity
  8
0
  6
Continuous
 62
     7
370
    15
100
AcDbLine
 10
294.5826700405
 20
-116.7199055424
 30
0.0
 11
294.5826700405
 21
-124.6461908093
 31
0.0
  0
LINE
  5
2D9
330
1F
100
AcDbEntity
  8
0
  6
Continuous
 62
     7
370
    15
100
AcDbLine
 10
-406.8630286976
 20
-116.7199055424
 30
0.0
 11
-406.8630286976
 21
-124.6461908093
 31
0.0
  0
LINE
  5
2DA
330
1F
100
AcDbEntity
  8
0
  6
Continuous
 62
     7
370
    15
100
AcDbLine
 10
275.2348235325
 20
-116.7199055424
 30
0.0
 11
275.2348235325
 21
-124.6461908093
 31
0.0
  0
LINE
  5
2DB
330
1F
100
AcDbEntity
  8
0
  6
Continuous
 62
     7
370
    15
100
AcDbLine
 10
-387.5151821895
 20
-116.7199055424
 30
0.0
 11
-387.5151821895
 21
-124.6461908093
 31
0.0
  0
LINE
  5
2DC
330
1F
100
AcDbEntity
  8
0
  6
Continuous
 62
     7
370
    15
100
AcDbLine
 10
278.9087346272
 20
-80.3830514421
 30
0.0
 11
290.9087291436
 21
-80.3830514421
 31
0.0
  0
LINE
  5
2DD
330
1F
100
AcDbEntity
  8
0
  6
Continuous
 62
     7
370
    15
100
AcDbLine
 10
-403.1890878006
 20
-80.3830514421
 30
0.0
 11
-391.1890932842
 21
-80.3830514421
 31
0.0
  0
LINE
  5
2DE
330
1F
100
AcDbEntity
  8
0
  6
Continuous
 62
     7
370
    15
100
AcDbLine
 10
424.6898046212
 20
-125.883046793
 30
0.0
 11
448.6897638516
 21
-125.883046793
 31
0.0
  0
LINE
  5
2DF
330
1F
100
AcDbEntity
  8
0
  6
Continuous
 62
     7
370
    15
100
AcDbLine
 10
-543.7635430618
 20
-125.883046793
 30
0.0
 11
-536.9701632782
 21
-125.883046793
 31
0.0
  0
LINE
  5
2E0
330
1F
100
AcDbEntity
  8
0
  6
Continuous
 62
     7
370
    15
100
AcDbLine
 10
-560.9701225086
 20
-125.883046793
 30
0.0
 11
-543.7635430618
 21
-125.883046793
 31
0.0
  0
LINE
  5
2E1
330
1F
100
AcDbEntity
  8
0
  6
Continuous
 62
     7
370
    15
100
AcDbLine
 10
426.700507708
 20
-116.5075937977
 30
0.0
 11
426.3265481667
 21
-116.7199055424
 31
0.0
  0
SPLINE
  5
2E2
330
1F
100
AcDbEntity
  8
0
  6
Continuous
 62
     7
370
    15
100
AcDbSpline
210
0.0
220
0.0
230
1.0
 70
     8
 71
     3
 72
    14
 73
    10
 74
     0
 42
0.00000001
 43
0.00000001
 12
1.0
 22
0.0
 32
0.0
 13
1.0
 23
0.0
 33
0.0
 40
0.0
 40
0.0
 40
0.0
 40
0.0
 40
0.1803113132033555
 40
0.3621142299669766
 40
0.4866238863205724
 40
0.6111289158799609
 40
0.7389513164413283
 40
0.8668070644975931
 40
1.0
 40
1.0
 40
1.0
 40
1.0
 10
442.5439885334285
 20
-116.7199055423769
 30
0.0
 10
442.8099079859878
 20
-116.5563110400102
 30
0.0
 10
443.3439466776593
 20
-116.2277687195151
 30
0.0
 10
444.0802936504709
 20
-115.9766934428631
 30
0.0
 10
444.7373318278176
 20
-115.8987988714702
 30
0.0
 10
445.3126533344127
 20
-115.9419307644203
 30
0.0
 10
445.8892042734613
 20
-116.0991919886455
 30
0.0
 10
446.4725617333563
 20
-116.3551060939017
 30
0.0
 10
446.8569147263783
 20
-116.5966595250544
 30
0.0
 10
447.0530203060421
 20
-116.7199055423769
 30
0.0
  0
SPLINE
  5
2E3
330
1F
100
AcDbEntity
  8
0
  6
Continuous
 62
     7
370
    15
100
AcDbSpline
210
0.0
220
0.0
230
1.0
 70
     8
 71
     3
 72
    16
 73
    12
 74
     0
 42
0.00000001
 43
0.00000001
 12
1.0
 22
0.0
 32
0.0
 13
1.0
 23
0.0
 33
0.0
 40
0.0
 40
0.0
 40
0.0
 40
0.0
 40
0.2499999999999956
 40
0.2499999999999956
 40
0.4999999999999912
 40
0.4999999999999912
 40
0.6249999999999971
 40
0.6249999999999971
 40
0.750000000000003
 40
0.750000000000003
 40
1.0
 40
1.0
 40
1.0
 40
1.0
 10
432.1807393297358
 20
-116.7199106484511
 30
0.0
 10
433.0267999531967
 20
-116.4749891338687
 30
0.0
 10
433.8790290772879
 20
-116.2731294138323
 30
0.0
 10
435.6012612308208
 20
-115.9934881422352
 30
0.0
 10
436.471396394301
 20
-115.9166290075068
 30
0.0
 10
437.7929930504177
 20
-115.9157848463377
 30
0.0
 10
438.2355980822201
 20
-115.9345739330077
 30
0.0
 10
439.1111175256118
 20
-116.0078414250886
 30
0.0
 10
439.5459419558936
 20
-116.0622454767519
 30
0.0
 10
440.842673791866
 20
-116.272324535104
 30
0.0
 10
441.6968699072627
 20
-116.4746838282713
 30
0.0
 10
442.5439851830463
 20
-116.7199106484514
 30
0.0
  0
SPLINE
  5
2E4
330
1F
100
AcDbEntity
  8
0
  6
Continuous
 62
     7
370
    15
100
AcDbSpline
210
0.0
220
0.0
230
1.0
 70
     8
 71
     3
 72
    16
 73
    12
 74
     0
 42
0.00000001
 43
0.00000001
 12
1.0
 22
0.0
 32
0.0
 13
1.0
 23
0.0
 33
0.0
 40
0.0
 40
0.0
 40
0.0
 40
0.0
 40
0.2500000000000093
 40
0.2500000000000093
 40
0.5000000000000185
 40
0.5000000000000185
 40
0.6250000000000155
 40
0.6250000000000155
 40
0.7500000000000124
 40
0.7500000000000124
 40
1.0
 40
1.0
 40
1.0
 40
1.0
 10
426.3265455608027
 20
-116.7199106484511
 30
0.0
 10
426.8044848956515
 20
-116.4749891338687
 30
0.0
 10
427.2859088142362
 20
-116.2731294138322
 30
0.0
 10
428.2587971239974
 20
-115.9934881422351
 30
0.0
 10
428.7503361576439
 20
-115.9166290075068
 30
0.0
 10
429.4969056223458
 20
-115.9157848463376
 30
0.0
 10
429.7469330419354
 20
-115.9345739330077
 30
0.0
 10
430.2415136533224
 20
-116.0078414250885
 30
0.0
 10
430.4871458139763
 20
-116.0622454767519
 30
0.0
 10
431.2196691509288
 20
-116.272324535104
 30
0.0
 10
431.7022042221781
 20
-116.4746838282714
 30
0.0
 10
432.1807393297358
 20
-116.7199106484514
 30
0.0
  0
LINE
  5
2E5
330
1F
100
AcDbEntity
  8
0
  6
Continuous
 62
     7
370
    15
100
AcDbLine
 10
428.4398010449
 20
-115.4830495586
 30
0.0
 11
444.9397972302
 21
-115.4830495586
 31
0.0
  0
LINE
  5
2E6
330
1F
100
AcDbEntity
  8
0
  6
Continuous
 62
     7
370
    15
100
AcDbLine
 10
442.5439885334
 20
-116.7199055424
 30
0.0
 11
442.5439885334
 21
-124.6461908093
 31
0.0
  0
SPLINE
  5
2E7
330
1F
100
AcDbEntity
  8
0
  6
Continuous
 62
     7
370
    15
100
AcDbSpline
210
0.0
220
0.0
230
1.0
 70
     8
 71
     3
 72
    16
 73
    12
 74
     0
 42
0.00000001
 43
0.00000001
 12
1.0
 22
0.0
 32
0.0
 13
1.0
 23
0.0
 33
0.0
 40
0.0
 40
0.0
 40
0.0
 40
0.0
 40
0.250000000000008
 40
0.250000000000008
 40
0.500000000000016
 40
0.500000000000016
 40
0.6250000000000119
 40
0.6250000000000119
 40
0.7500000000000078
 40
0.7500000000000078
 40
1.0
 40
1.0
 40
1.0
 40
1.0
 10
442.5439851830463
 20
-124.6461900900808
 30
0.0
 10
441.6979245595853
 20
-124.8911116046633
 30
0.0
 10
440.8456954354941
 20
-125.0929713246997
 30
0.0
 10
439.1234632819612
 20
-125.3726125962968
 30
0.0
 10
438.2533281184811
 20
-125.4494717310251
 30
0.0
 10
436.9317314623646
 20
-125.4503158921942
 30
0.0
 10
436.4891264305622
 20
-125.4315268055242
 30
0.0
 10
435.6136069871704
 20
-125.3582593134433
 30
0.0
 10
435.1787825568887
 20
-125.30385526178
 30
0.0
 10
433.8820507209161
 20
-125.093776203428
 30
0.0
 10
433.0278546055193
 20
-124.8914169102606
 30
0.0
 10
432.1807393297358
 20
-124.6461900900806
 30
0.0
  0
LINE
  5
2E8
330
1F
100
AcDbEntity
  8
0
  6
Continuous
 62
     7
370
    15
100
AcDbLine
 10
432.1807375626
 20
-116.7199055424
 30
0.0
 11
432.1807375626
 21
-124.6461908093
 31
0.0
  0
SPLINE
  5
2E9
330
1F
100
AcDbEntity
  8
0
  6
Continuous
 62
     7
370
    15
100
AcDbSpline
210
0.0
220
0.0
230
1.0
 70
     8
 71
     3
 72
    14
 73
    10
 74
     0
 42
0.00000001
 43
0.00000001
 12
1.0
 22
0.0
 32
0.0
 13
1.0
 23
0.0
 33
0.0
 40
0.0
 40
0.0
 40
0.0
 40
0.0
 40
0.133192974619661
 40
0.2578374785264172
 40
0.3824521245729268
 40
0.5101685025692434
 40
0.6378849803077915
 40
0.8180582804361354
 40
1.0
 40
1.0
 40
1.0
 40
1.0
 10
447.0530203060421
 20
-124.6461908092532
 30
0.0
 10
446.8569143378298
 20
-124.7694443721438
 30
0.0
 10
446.4772886968212
 20
-125.0080409495224
 30
0.0
 10
445.903696784632
 20
-125.2608837516386
 30
0.0
 10
445.3322623245871
 20
-125.4206430367645
 30
0.0
 10
444.751992142201
 20
-125.468481077314
 30
0.0
 10
444.0876427525344
 20
-125.3913773084608
 30
0.0
 10
443.3464117395472
 20
-125.1395216054709
 30
0.0
 10
442.812332342824
 20
-124.811168920728
 30
0.0
 10
442.5439885334285
 20
-124.6461908092532
 30
0.0
  0
LINE
  5
2EA
330
1F
100
AcDbEntity
  8
0
  6
Continuous
 62
     7
370
    15
100
AcDbLine
 10
426.3265481667
 20
-124.6461908093
 30
0.0
 11
426.700507708
 21
-124.8588601818
 31
0.0
  0
SPLINE
  5
2EB
330
1F
100
AcDbEntity
  8
0
  6
Continuous
 62
     7
370
    15
100
AcDbSpline
210
0.0
220
0.0
230
1.0
 70
     8
 71
     3
 72
    16
 73
    12
 74
     0
 42
0.00000001
 43
0.00000001
 12
1.0
 22
0.0
 32
0.0
 13
1.0
 23
0.0
 33
0.0
 40
0.0
 40
0.0
 40
0.0
 40
0.0
 40
0.2499999999999973
 40
0.2499999999999973
 40
0.4999999999999947
 40
0.4999999999999947
 40
0.6249999999999922
 40
0.6249999999999922
 40
0.7499999999999898
 40
0.7499999999999898
 40
1.0
 40
1.0
 40
1.0
 40
1.0
 10
432.1807393297358
 20
-124.6461900900808
 30
0.0
 10
431.7027999948871
 20
-124.8911116046632
 30
0.0
 10
431.2213760763024
 20
-125.0929713246996
 30
0.0
 10
430.2484877665409
 20
-125.3726125962968
 30
0.0
 10
429.7569487328948
 20
-125.4494717310251
 30
0.0
 10
429.0103792681928
 20
-125.4503158921943
 30
0.0
 10
428.7603518486031
 20
-125.4315268055242
 30
0.0
 10
428.2657712372163
 20
-125.3582593134433
 30
0.0
 10
428.0201390765624
 20
-125.30385526178
 30
0.0
 10
427.2876157396095
 20
-125.093776203428
 30
0.0
 10
426.8050806683602
 20
-124.8914169102606
 30
0.0
 10
426.3265455608027
 20
-124.6461900900806
 30
0.0
  0
LINE
  5
2EC
330
1F
100
AcDbEntity
  8
0
  6
Continuous
 62
     7
370
    15
100
AcDbLine
 10
-538.6069068237
 20
-116.7199055424
 30
0.0
 11
-538.9809259697
 21
-116.4971033802
 31
0.0
  0
SPLINE
  5
2ED
330
1F
100
AcDbEntity
  8
0
  6
Continuous
 62
     7
370
    15
100
AcDbSpline
210
0.0
220
0.0
230
1.0
 70
     8
 71
     3
 72
    16
 73
    12
 74
     0
 42
0.00000001
 43
0.00000001
 12
1.0
 22
0.0
 32
0.0
 13
1.0
 23
0.0
 33
0.0
 40
0.0
 40
0.0
 40
0.0
 40
0.0
 40
0.2500000000000071
 40
0.2500000000000071
 40
0.5000000000000142
 40
0.5000000000000142
 40
0.6250000000000144
 40
0.6250000000000144
 40
0.7500000000000147
 40
0.7500000000000147
 40
1.0
 40
1.0
 40
1.0
 40
1.0
 10
-544.4610979867574
 20
-116.7199106484512
 30
0.0
 10
-543.9831586519088
 20
-116.4749891338687
 30
0.0
 10
-543.5017347333238
 20
-116.2731294138322
 30
0.0
 10
-542.5288464235625
 20
-115.9934881422352
 30
0.0
 10
-542.0373073899164
 20
-115.9166290075069
 30
0.0
 10
-541.2907379252144
 20
-115.9157848463377
 30
0.0
 10
-541.0407105056247
 20
-115.9345739330077
 30
0.0
 10
-540.5461298942378
 20
-116.0078414250886
 30
0.0
 10
-540.3004977335842
 20
-116.0622454767519
 30
0.0
 10
-539.5679743966313
 20
-116.272324535104
 30
0.0
 10
-539.085439325382
 20
-116.4746838282713
 30
0.0
 10
-538.6069042178242
 20
-116.7199106484513
 30
0.0
  0
SPLINE
  5
2EE
330
1F
100
AcDbEntity
  8
0
  6
Continuous
 62
     7
370
    15
100
AcDbSpline
210
0.0
220
0.0
230
1.0
 70
     8
 71
     3
 72
    16
 73
    12
 74
     0
 42
0.00000001
 43
0.00000001
 12
1.0
 22
0.0
 32
0.0
 13
1.0
 23
0.0
 33
0.0
 40
0.0
 40
0.0
 40
0.0
 40
0.0
 40
0.2500000000000037
 40
0.2500000000000037
 40
0.5000000000000073
 40
0.5000000000000073
 40
0.6250000000000094
 40
0.6250000000000094
 40
0.7500000000000114
 40
0.7500000000000114
 40
1.0
 40
1.0
 40
1.0
 40
1.0
 10
-554.824343840068
 20
-116.7199106484512
 30
0.0
 10
-553.9782832166072
 20
-116.4749891338688
 30
0.0
 10
-553.1260540925159
 20
-116.2731294138323
 30
0.0
 10
-551.4038219389828
 20
-115.9934881422352
 30
0.0
 10
-550.5336867755028
 20
-115.9166290075069
 30
0.0
 10
-549.2120901193861
 20
-115.9157848463377
 30
0.0
 10
-548.7694850875838
 20
-115.9345739330078
 30
0.0
 10
-547.8939656441921
 20
-116.0078414250885
 30
0.0
 10
-547.4591412139102
 20
-116.062245476752
 30
0.0
 10
-546.1624093779375
 20
-116.272324535104
 30
0.0
 10
-545.308213262541
 20
-116.4746838282714
 30
0.0
 10
-544.4610979867573
 20
-116.7199106484513
 30
0.0
  0
SPLINE
  5
2EF
330
1F
100
AcDbEntity
  8
0
  6
Continuous
 62
     7
370
    15
100
AcDbSpline
210
0.0
220
0.0
230
1.0
 70
     8
 71
     3
 72
    14
 73
    10
 74
     0
 42
0.00000001
 43
0.00000001
 12
1.0
 22
0.0
 32
0.0
 13
1.0
 23
0.0
 33
0.0
 40
0.0
 40
0.0
 40
0.0
 40
0.0
 40
0.1803125507559221
 40
0.362115469394116
 40
0.4866251270315328
 40
0.6111301578746946
 40
0.7389513420400481
 40
0.8668082953766993
 40
1.0
 40
1.0
 40
1.0
 40
1.0
 10
-559.3333789630619
 20
-116.7199055423769
 30
0.0
 10
-559.0674601253758
 20
-116.5563112136772
 30
0.0
 10
-558.5334245059709
 20
-116.2277703723494
 30
0.0
 10
-557.7970724356642
 20
-115.9766931684929
 30
0.0
 10
-557.1400385490399
 20
-115.8987991570356
 30
0.0
 10
-556.5647052194764
 20
-115.9419296718189
 30
0.0
 10
-555.9882065795715
 20
-116.0991949231453
 30
0.0
 10
-555.4047997803907
 20
-116.3551023799023
 30
0.0
 10
-555.020449561603
 20
-116.5966590164667
 30
0.0
 10
-554.8243471904484
 20
-116.7199055423769
 30
0.0
  0
LINE
  5
2F0
330
1F
100
AcDbEntity
  8
0
  6
Continuous
 62
     7
370
    15
100
AcDbLine
 10
-557.2201558872
 20
-115.4830495586
 30
0.0
 11
-540.7201597019
 21
-115.4830495586
 31
0.0
  0
LINE
  5
2F1
330
1F
100
AcDbEntity
  8
0
  6
Continuous
 62
     7
370
    15
100
AcDbLine
 10
-544.4610962196
 20
-116.7199055424
 30
0.0
 11
-544.4610962196
 21
-124.6461908093
 31
0.0
  0
SPLINE
  5
2F2
330
1F
100
AcDbEntity
  8
0
  6
Continuous
 62
     7
370
    15
100
AcDbSpline
210
0.0
220
0.0
230
1.0
 70
     8
 71
     3
 72
    16
 73
    12
 74
     0
 42
0.00000001
 43
0.00000001
 12
1.0
 22
0.0
 32
0.0
 13
1.0
 23
0.0
 33
0.0
 40
0.0
 40
0.0
 40
0.0
 40
0.0
 40
0.2499999999999886
 40
0.2499999999999886
 40
0.4999999999999771
 40
0.4999999999999771
 40
0.6249999999999789
 40
0.6249999999999789
 40
0.7499999999999808
 40
0.7499999999999808
 40
1.0
 40
1.0
 40
1.0
 40
1.0
 10
-544.4610979867573
 20
-124.6461900900808
 30
0.0
 10
-545.3071586102183
 20
-124.8911116046632
 30
0.0
 10
-546.1593877343095
 20
-125.0929713246997
 30
0.0
 10
-547.8816198878425
 20
-125.3726125962968
 30
0.0
 10
-548.7517550513224
 20
-125.4494717310251
 30
0.0
 10
-550.0733517074392
 20
-125.4503158921943
 30
0.0
 10
-550.5159567392416
 20
-125.4315268055242
 30
0.0
 10
-551.3914761826335
 20
-125.3582593134434
 30
0.0
 10
-551.8263006129151
 20
-125.30385526178
 30
0.0
 10
-553.1230324488878
 20
-125.0937762034279
 30
0.0
 10
-553.9772285642841
 20
-124.8914169102606
 30
0.0
 10
-554.824343840068
 20
-124.6461900900806
 30
0.0
  0
LINE
  5
2F3
330
1F
100
AcDbEntity
  8
0
  6
Continuous
 62
     7
370
    15
100
AcDbLine
 10
-554.8243471904
 20
-116.7199055424
 30
0.0
 11
-554.8243471904
 21
-124.6461908093
 31
0.0
  0
SPLINE
  5
2F4
330
1F
100
AcDbEntity
  8
0
  6
Continuous
 62
     7
370
    15
100
AcDbSpline
210
0.0
220
0.0
230
1.0
 70
     8
 71
     3
 72
    14
 73
    10
 74
     0
 42
0.00000001
 43
0.00000001
 12
1.0
 22
0.0
 32
0.0
 13
1.0
 23
0.0
 33
0.0
 40
0.0
 40
0.0
 40
0.0
 40
0.0
 40
0.1331917437378453
 40
0.2578374526566489
 40
0.3824545811993502
 40
0.5101672384138636
 40
0.637883717467047
 40
0.8180582785633388
 40
1.0
 40
1.0
 40
1.0
 40
1.0
 10
-554.8243471904484
 20
-124.6461908092532
 30
0.0
 10
-555.0204516153645
 20
-124.769444767477
 30
0.0
 10
-555.4000777389972
 20
-125.0080442911894
 30
0.0
 10
-555.9737000368426
 20
-125.2608846727487
 30
0.0
 10
-556.5451752003004
 20
-125.4206399021716
 30
0.0
 10
-557.1253640245583
 20
-125.4684816968736
 30
0.0
 10
-557.7897345960683
 20
-125.3913760480798
 30
0.0
 10
-558.530949963735
 20
-125.1395234322348
 30
0.0
 10
-559.0650338373529
 20
-124.8111691498184
 30
0.0
 10
-559.3333789630619
 20
-124.6461908092532
 30
0.0
  0
SPLINE
  5
2F5
330
1F
100
AcDbEntity
  8
0
  6
Continuous
 62
     7
370
    15
100
AcDbSpline
210
0.0
220
0.0
230
1.0
 70
     8
 71
     3
 72
    16
 73
    12
 74
     0
 42
0.00000001
 43
0.00000001
 12
1.0
 22
0.0
 32
0.0
 13
1.0
 23
0.0
 33
0.0
 40
0.0
 40
0.0
 40
0.0
 40
0.0
 40
0.2500000000000049
 40
0.2500000000000049
 40
0.5000000000000099
 40
0.5000000000000099
 40
0.6250000000000112
 40
0.6250000000000112
 40
0.7500000000000125
 40
0.7500000000000125
 40
1.0
 40
1.0
 40
1.0
 40
1.0
 10
-538.6069042178242
 20
-124.6461900900808
 30
0.0
 10
-539.084843552673
 20
-124.8911116046632
 30
0.0
 10
-539.5662674712577
 20
-125.0929713246997
 30
0.0
 10
-540.539155781019
 20
-125.3726125962968
 30
0.0
 10
-541.0306948146653
 20
-125.4494717310251
 30
0.0
 10
-541.7772642793672
 20
-125.4503158921943
 30
0.0
 10
-542.0272916989569
 20
-125.4315268055242
 30
0.0
 10
-542.521872310344
 20
-125.3582593134433
 30
0.0
 10
-542.7675044709976
 20
-125.30385526178
 30
0.0
 10
-543.5000278079506
 20
-125.0937762034278
 30
0.0
 10
-543.9825628791998
 20
-124.8914169102605
 30
0.0
 10
-544.4610979867574
 20
-124.6461900900806
 30
0.0
  0
LINE
  5
2F6
330
1F
100
AcDbEntity
  8
0
  6
Continuous
 62
     7
370
    15
100
AcDbLine
 10
-538.9809259697
 20
-124.8689929714
 30
0.0
 11
-538.6069068237
 21
-124.6461908093
 31
0.0
  0
LINE
  5
2F7
330
1F
100
AcDbEntity
  8
0
  6
Continuous
 62
     7
370
    15
100
AcDbLine
 10
426.3265481667
 20
-116.7199055424
 30
0.0
 11
426.3265481667
 21
-124.6461908093
 31
0.0
  0
LINE
  5
2F8
330
1F
100
AcDbEntity
  8
0
  6
Continuous
 62
     7
370
    15
100
AcDbLine
 10
-538.6069068237
 20
-116.7199055424
 30
0.0
 11
-538.6069068237
 21
-124.6461908093
 31
0.0
  0
LINE
  5
2F9
330
1F
100
AcDbEntity
  8
0
  6
Continuous
 62
     7
370
    15
100
AcDbLine
 10
447.053020306
 20
-116.7199055424
 30
0.0
 11
447.053020306
 21
-124.6461908093
 31
0.0
  0
LINE
  5
2FA
330
1F
100
AcDbEntity
  8
0
  6
Continuous
 62
     7
370
    15
100
AcDbLine
 10
-559.3333789631
 20
-116.7199055424
 30
0.0
 11
-559.3333789631
 21
-124.6461908093
 31
0.0
  0
LINE
  5
2FB
330
1F
100
AcDbEntity
  8
0
  6
Continuous
 62
     7
370
    15
100
AcDbLine
 10
430.6897869782
 20
-80.3830514421
 30
0.0
 11
442.6897814945
 21
-80.3830514421
 31
0.0
  0
LINE
  5
2FC
330
1F
100
AcDbEntity
  8
0
  6
Continuous
 62
     7
370
    15
100
AcDbLine
 10
-554.9701401516
 20
-80.3830514421
 30
0.0
 11
-542.9701456352
 21
-80.3830514421
 31
0.0
  0
LINE
  5
2FD
330
1F
100
AcDbEntity
  8
0
  6
Continuous
 62
     7
370
    15
100
AcDbLine
 10
478.8598468975
 20
-125.883046793
 30
0.0
 11
502.8598359303
 21
-125.883046793
 31
0.0
  0
LINE
  5
2FE
330
1F
100
AcDbEntity
  8
0
  6
Continuous
 62
     7
370
    15
100
AcDbLine
 10
-603.1401702686
 20
-125.883046793
 30
0.0
 11
-591.1402055546
 21
-125.883046793
 31
0.0
  0
LINE
  5
2FF
330
1F
100
AcDbEntity
  8
0
  6
Continuous
 62
     7
370
    15
100
AcDbLine
 10
-615.1401945873
 20
-125.883046793
 30
0.0
 11
-603.1401702686
 21
-125.883046793
 31
0.0
  0
SPLINE
  5
300
330
1F
100
AcDbEntity
  8
0
  6
Continuous
 62
     7
370
    15
100
AcDbSpline
210
0.0
220
0.0
230
1.0
 70
    24
 71
     3
 72
    11
 73
     7
 74
     0
 42
0.00000001
 43
0.00000001
 12
1.0
 22
0.0
 32
0.0
 13
1.0
 23
0.0
 33
0.0
 40
0.0
 40
0.0
 40
0.0
 40
0.0
 40
0.0201879146343268
 40
0.2756586119943016
 40
0.6360628177234938
 40
1.0
 40
1.0
 40
1.0
 40
1.0
 10
481.859808273724
 20
-115.9207562675509
 30
0.0
 10
481.859808273724
 20
-115.9193904186714
 30
0.0
 10
481.8598082737241
 20
-115.9007402503349
 30
0.0
 10
481.8598082737238
 20
-115.9858039634688
 30
0.0
 10
481.8598082737241
 20
-116.223405669118
 30
0.0
 10
481.8598082737241
 20
-116.5538683072344
 30
0.0
 10
481.859808273724
 20
-116.7199055423769
 30
0.0
  0
SPLINE
  5
301
330
1F
100
AcDbEntity
  8
0
  6
Continuous
 62
     7
370
    15
100
AcDbSpline
210
0.0
220
0.0
230
1.0
 70
    24
 71
     3
 72
    11
 73
     7
 74
     0
 42
0.00000001
 43
0.00000001
 12
1.0
 22
0.0
 32
0.0
 13
1.0
 23
0.0
 33
0.0
 40
0.0
 40
0.0
 40
0.0
 40
0.0
 40
0.3606744515237254
 40
0.7243332867374561
 40
0.9733837378673855
 40
1.0
 40
1.0
 40
1.0
 40
1.0
 10
499.8598149494443
 20
-116.7199055423769
 30
0.0
 10
499.8598149494443
 20
-116.555322871755
 30
0.0
 10
499.8598149494442
 20
-116.2247956989874
 30
0.0
 10
499.8598149494443
 20
-115.9871221065013
 30
0.0
 10
499.8598149494435
 20
-115.90257452312
 30
0.0
 10
499.8598149494443
 20
-115.9200522308682
 30
0.0
 10
499.8598149494442
 20
-115.9217397441897
 30
0.0
  0
SPLINE
  5
302
330
1F
100
AcDbEntity
  8
0
  6
Continuous
 62
     7
370
    15
100
AcDbSpline
210
0.0
220
0.0
230
1.0
 70
     8
 71
     3
 72
    16
 73
    12
 74
     0
 42
0.00000001
 43
0.00000001
 12
1.0
 22
0.0
 32
0.0
 13
1.0
 23
0.0
 33
0.0
 40
0.0
 40
0.0
 40
0.0
 40
0.0
 40
0.2499999999999796
 40
0.2499999999999796
 40
0.4999999999999593
 40
0.4999999999999593
 40
0.6249999999999626
 40
0.6249999999999626
 40
0.7499999999999659
 40
0.7499999999999659
 40
1.0
 40
1.0
 40
1.0
 40
1.0
 10
490.8598206714901
 20
-116.7199106484511
 30
0.0
 10
491.5945852152373
 20
-116.4749891338687
 30
0.0
 10
492.3347068166534
 20
-116.2731294138323
 30
0.0
 10
493.8303858347138
 20
-115.9934881422352
 30
0.0
 10
494.5860580036629
 20
-115.9166290075068
 30
0.0
 10
495.7338036109186
 20
-115.9157848463377
 30
0.0
 10
496.1181856223659
 20
-115.9345739330077
 30
0.0
 10
496.878533789539
 20
-116.0078414250886
 30
0.0
 10
497.2561587082111
 20
-116.0622454767519
 30
0.0
 10
498.3823103685064
 20
-116.272324535104
 30
0.0
 10
499.1241402109504
 20
-116.4746838282713
 30
0.0
 10
499.8598206714903
 20
-116.7199106484514
 30
0.0
  0
SPLINE
  5
303
330
1F
100
AcDbEntity
  8
0
  6
Continuous
 62
     7
370
    15
100
AcDbSpline
210
0.0
220
0.0
230
1.0
 70
     8
 71
     3
 72
    16
 73
    12
 74
     0
 42
0.00000001
 43
0.00000001
 12
1.0
 22
0.0
 32
0.0
 13
1.0
 23
0.0
 33
0.0
 40
0.0
 40
0.0
 40
0.0
 40
0.0
 40
0.25
 40
0.25
 40
0.5
 40
0.5
 40
0.625
 40
0.625
 40
0.75
 40
0.75
 40
1.0
 40
1.0
 40
1.0
 40
1.0
 10
481.8598131996914
 20
-116.7199131390527
 30
0.0
 10
482.5945783296561
 20
-116.4749911240637
 30
0.0
 10
483.3347005185816
 20
-116.2731309140056
 30
0.0
 10
484.8303807256494
 20
-115.9934887748121
 30
0.0
 10
485.5860534964609
 20
-115.9166292654416
 30
0.0
 10
486.733800028824
 20
-115.9157847216634
 30
0.0
 10
487.1181823877919
 20
-115.9345737126681
 30
0.0
 10
487.8785312251444
 20
-116.0078410866377
 30
0.0
 10
488.2561564738951
 20
-116.062245114177
 30
0.0
 10
489.3823091112362
 20
-116.2723241921105
 30
0.0
 10
490.1241395875242
 20
-116.4746836204627
 30
0.0
 10
490.8598206714903
 20
-116.7199106484513
 30
0.0
  0
LINE
  5
304
330
1F
100
AcDbEntity
  8
0
  6
Continuous
 62
     7
370
    15
100
AcDbLine
 10
482.6098135189
 20
-115.4830495586
 30
0.0
 11
499.1098097042
 21
-115.4830495586
 31
0.0
  0
LINE
  5
305
330
1F
100
AcDbEntity
  8
0
  6
Continuous
 62
     7
370
    15
100
AcDbLine
 10
490.8598116116
 20
-116.7199055424
 30
0.0
 11
490.8598116116
 21
-124.6461908093
 31
0.0
  0
SPLINE
  5
306
330
1F
100
AcDbEntity
  8
0
  6
Continuous
 62
     7
370
    15
100
AcDbSpline
210
0.0
220
0.0
230
1.0
 70
     8
 71
     3
 72
    14
 73
    10
 74
     0
 42
0.00000001
 43
0.00000001
 12
1.0
 22
0.0
 32
0.0
 13
1.0
 23
0.0
 33
0.0
 40
0.0
 40
0.0
 40
0.0
 40
0.0
 40
0.1323176522152469
 40
0.2645986610498509
 40
0.3998350628869232
 40
0.5350507123214083
 40
0.6502541201062929
 40
0.7654725532519341
 40
1.0
 40
1.0
 40
1.0
 40
1.0
 10
490.8598116115841
 20
-124.6461908092532
 30
0.0
 10
490.4709749505452
 20
-124.768553847699
 30
0.0
 10
489.6934093109235
 20
-125.0132460379904
 30
0.0
 10
488.4960233188359
 20
-125.2765748310419
 30
0.0
 10
487.2761230792024
 20
-125.4347671817639
 30
0.0
 10
486.1002597317362
 20
-125.4665120617711
 30
0.0
 10
484.9883357651273
 20
-125.3838974524499
 30
0.0
 10
483.5831809651932
 20
-125.1672314477664
 30
0.0
 10
482.5515704656567
 20
-124.8553366405456
 30
0.0
 10
481.859808273724
 20
-124.6461908092532
 30
0.0
  0
LINE
  5
307
330
1F
100
AcDbEntity
  8
0
  6
Continuous
 62
     7
370
    15
100
AcDbLine
 10
481.8598082737
 20
-116.7199055424
 30
0.0
 11
481.8598082737
 21
-124.6461908093
 31
0.0
  0
LINE
  5
308
330
1F
100
AcDbEntity
  8
0
  6
Continuous
 62
     7
370
    15
100
AcDbLine
 10
499.8598149494
 20
-116.7199055424
 30
0.0
 11
499.8598149494
 21
-124.6461908093
 31
0.0
  0
SPLINE
  5
309
330
1F
100
AcDbEntity
  8
0
  6
Continuous
 62
     7
370
    15
100
AcDbSpline
210
0.0
220
0.0
230
1.0
 70
     8
 71
     3
 72
    16
 73
    12
 74
     0
 42
0.00000001
 43
0.00000001
 12
1.0
 22
0.0
 32
0.0
 13
1.0
 23
0.0
 33
0.0
 40
0.0
 40
0.0
 40
0.0
 40
0.0
 40
0.2499999999999797
 40
0.2499999999999797
 40
0.4999999999999595
 40
0.4999999999999595
 40
0.6249999999999629
 40
0.6249999999999629
 40
0.7499999999999662
 40
0.7499999999999662
 40
1.0
 40
1.0
 40
1.0
 40
1.0
 10
499.8598206714902
 20
-124.6461900900808
 30
0.0
 10
499.1250561277432
 20
-124.8911116046632
 30
0.0
 10
498.3849345263268
 20
-125.0929713246997
 30
0.0
 10
496.8892555082665
 20
-125.3726125962967
 30
0.0
 10
496.1335833393179
 20
-125.4494717310251
 30
0.0
 10
494.9858377320621
 20
-125.4503158921942
 30
0.0
 10
494.6014557206142
 20
-125.4315268055242
 30
0.0
 10
493.8411075534415
 20
-125.3582593134433
 30
0.0
 10
493.4634826347693
 20
-125.30385526178
 30
0.0
 10
492.337330974474
 20
-125.0937762034279
 30
0.0
 10
491.5955011320305
 20
-124.8914169102606
 30
0.0
 10
490.8598206714902
 20
-124.6461900900806
 30
0.0
  0
SPLINE
  5
30A
330
1F
100
AcDbEntity
  8
0
  6
Continuous
 62
     7
370
    15
100
AcDbSpline
210
0.0
220
0.0
230
1.0
 70
    24
 71
     3
 72
    11
 73
     7
 74
     0
 42
0.00000001
 43
0.00000001
 12
1.0
 22
0.0
 32
0.0
 13
1.0
 23
0.0
 33
0.0
 40
0.0
 40
0.0
 40
0.0
 40
0.0
 40
0.0201879093213883
 40
0.2756585394480647
 40
0.6360622376405027
 40
0.9999999999999999
 40
0.9999999999999999
 40
0.9999999999999999
 40
0.9999999999999999
 10
499.8598149494442
 20
-125.4453400840792
 30
0.0
 10
499.8598149494443
 20
-125.4467059366387
 30
0.0
 10
499.8598149494435
 20
-125.4653561552257
 30
0.0
 10
499.8598149494445
 20
-125.3802878635041
 30
0.0
 10
499.8598149494442
 20
-125.1427143045223
 30
0.0
 10
499.8598149494442
 20
-124.8122361090465
 30
0.0
 10
499.8598149494443
 20
-124.6461908092531
 30
0.0
  0
SPLINE
  5
30B
330
1F
100
AcDbEntity
  8
0
  6
Continuous
 62
     7
370
    15
100
AcDbSpline
210
0.0
220
0.0
230
1.0
 70
    24
 71
     3
 72
    11
 73
     7
 74
     0
 42
0.00000001
 43
0.00000001
 12
1.0
 22
0.0
 32
0.0
 13
1.0
 23
0.0
 33
0.0
 40
0.0
 40
0.0
 40
0.0
 40
0.0
 40
0.360674367049836
 40
0.7243331170907022
 40
0.9733836521556302
 40
1.0
 40
1.0
 40
1.0
 40
1.0
 10
481.859808273724
 20
-124.6461908092532
 30
0.0
 10
481.8598082737241
 20
-124.8107770946038
 30
0.0
 10
481.859808273724
 20
-125.1413115267387
 30
0.0
 10
481.8598082737241
 20
-125.3789361348683
 30
0.0
 10
481.8598082737236
 20
-125.4635816185249
 30
0.0
 10
481.859808273724
 20
-125.4460493893425
 30
0.0
 10
481.859808273724
 20
-125.4443566074404
 30
0.0
  0
SPLINE
  5
30C
330
1F
100
AcDbEntity
  8
0
  6
Continuous
 62
     7
370
    15
100
AcDbSpline
210
0.0
220
0.0
230
1.0
 70
    24
 71
     3
 72
    11
 73
     7
 74
     0
 42
0.00000001
 43
0.00000001
 12
1.0
 22
0.0
 32
0.0
 13
1.0
 23
0.0
 33
0.0
 40
0.0
 40
0.0
 40
0.0
 40
0.0
 40
0.2663434206191288
 40
0.5155982651693207
 40
0.7647918767396766
 40
1.0
 40
1.0
 40
1.0
 40
1.0
 10
-594.1401669307438
 20
-116.7199055423769
 30
0.0
 10
-594.1401669307437
 20
-116.5965014309315
 30
0.0
 10
-594.1401669307438
 20
-116.3576108075845
 30
0.0
 10
-594.1401669307438
 20
-116.1068441443273
 30
0.0
 10
-594.1401669307438
 20
-115.9438391362778
 30
0.0
 10
-594.1401669307438
 20
-115.9283010199909
 30
0.0
 10
-594.1401669307438
 20
-115.9207562675509
 30
0.0
  0
SPLINE
  5
30D
330
1F
100
AcDbEntity
  8
0
  6
Continuous
 62
     7
370
    15
100
AcDbSpline
210
0.0
220
0.0
230
1.0
 70
     8
 71
     3
 72
    16
 73
    12
 74
     0
 42
0.00000001
 43
0.00000001
 12
1.0
 22
0.0
 32
0.0
 13
1.0
 23
0.0
 33
0.0
 40
0.0
 40
0.0
 40
0.0
 40
0.0
 40
0.2500000000000068
 40
0.2500000000000068
 40
0.5000000000000135
 40
0.5000000000000135
 40
0.6250000000000169
 40
0.6250000000000169
 40
0.7500000000000203
 40
0.7500000000000203
 40
1.0
 40
1.0
 40
1.0
 40
1.0
 10
-603.1401793285102
 20
-116.7199106484512
 30
0.0
 10
-602.4054141628883
 20
-116.4749889265772
 30
0.0
 10
-601.6652919305245
 20
-116.2731290721822
 30
0.0
 10
-600.1696116204645
 20
-115.9934877738548
 30
0.0
 10
-599.4139387899548
 20
-115.9166287508472
 30
0.0
 10
-598.266192163844
 20
-115.9157849703818
 30
0.0
 10
-597.881809851427
 20
-115.9345742171039
 30
0.0
 10
-597.1214610837558
 20
-116.0078420711535
 30
0.0
 10
-596.7438358680268
 20
-116.0622463260544
 30
0.0
 10
-595.6176833227038
 20
-116.2723260369443
 30
0.0
 10
-594.8758528980945
 20
-116.4746858198774
 30
0.0
 10
-594.1401718567126
 20
-116.7199131390522
 30
0.0
  0
SPLINE
  5
30E
330
1F
100
AcDbEntity
  8
0
  6
Continuous
 62
     7
370
    15
100
AcDbSpline
210
0.0
220
0.0
230
1.0
 70
     8
 71
     3
 72
    16
 73
    12
 74
     0
 42
0.00000001
 43
0.00000001
 12
1.0
 22
0.0
 32
0.0
 13
1.0
 23
0.0
 33
0.0
 40
0.0
 40
0.0
 40
0.0
 40
0.0
 40
0.2499999999999796
 40
0.2499999999999796
 40
0.4999999999999591
 40
0.4999999999999591
 40
0.6249999999999626
 40
0.6249999999999626
 40
0.749999999999966
 40
0.749999999999966
 40
1.0
 40
1.0
 40
1.0
 40
1.0
 10
-612.1401793285102
 20
-116.7199106484511
 30
0.0
 10
-611.4054147847631
 20
-116.4749891338687
 30
0.0
 10
-610.6652931833468
 20
-116.2731294138323
 30
0.0
 10
-609.1696141652864
 20
-115.9934881422352
 30
0.0
 10
-608.4139419963375
 20
-115.9166290075068
 30
0.0
 10
-607.2661963890818
 20
-115.9157848463377
 30
0.0
 10
-606.8818143776341
 20
-115.9345739330077
 30
0.0
 10
-606.1214662104616
 20
-116.0078414250886
 30
0.0
 10
-605.7438412917892
 20
-116.062245476752
 30
0.0
 10
-604.6176896314938
 20
-116.272324535104
 30
0.0
 10
-603.8758597890503
 20
-116.4746838282713
 30
0.0
 10
-603.14017932851
 20
-116.7199106484513
 30
0.0
  0
SPLINE
  5
30F
330
1F
100
AcDbEntity
  8
0
  6
Continuous
 62
     7
370
    15
100
AcDbSpline
210
0.0
220
0.0
230
1.0
 70
    24
 71
     3
 72
    11
 73
     7
 74
     0
 42
0.00000001
 43
0.00000001
 12
1.0
 22
0.0
 32
0.0
 13
1.0
 23
0.0
 33
0.0
 40
0.0
 40
0.0
 40
0.0
 40
0.0
 40
0.2223666581642942
 40
0.4779766323303719
 40
0.7336542975723466
 40
1.0
 40
1.0
 40
1.0
 40
1.0
 10
-612.140173606464
 20
-115.9217397441897
 30
0.0
 10
-612.140173606464
 20
-115.927920501447
 30
0.0
 10
-612.140173606464
 20
-115.9412060252908
 30
0.0
 10
-612.1401736064639
 20
-116.1009485852562
 30
0.0
 10
-612.140173606464
 20
-116.354642210559
 30
0.0
 10
-612.140173606464
 20
-116.5965035440311
 30
0.0
 10
-612.140173606464
 20
-116.7199055423769
 30
0.0
  0
LINE
  5
310
330
1F
100
AcDbEntity
  8
0
  6
Continuous
 62
     7
370
    15
100
AcDbLine
 10
-611.3901683613
 20
-115.4830495586
 30
0.0
 11
-594.890172176
 21
-115.4830495586
 31
0.0
  0
LINE
  5
311
330
1F
100
AcDbEntity
  8
0
  6
Continuous
 62
     7
370
    15
100
AcDbLine
 10
-603.1401702686
 20
-116.7199055424
 30
0.0
 11
-603.1401702686
 21
-124.6461908093
 31
0.0
  0
SPLINE
  5
312
330
1F
100
AcDbEntity
  8
0
  6
Continuous
 62
     7
370
    15
100
AcDbSpline
210
0.0
220
0.0
230
1.0
 70
     8
 71
     3
 72
    16
 73
    12
 74
     0
 42
0.00000001
 43
0.00000001
 12
1.0
 22
0.0
 32
0.0
 13
1.0
 23
0.0
 33
0.0
 40
0.0
 40
0.0
 40
0.0
 40
0.0
 40
0.2500000000000067
 40
0.2500000000000067
 40
0.5000000000000133
 40
0.5000000000000133
 40
0.6250000000000168
 40
0.6250000000000168
 40
0.7500000000000202
 40
0.7500000000000202
 40
1.0
 40
1.0
 40
1.0
 40
1.0
 10
-603.14017932851
 20
-124.6461900900808
 30
0.0
 10
-603.8749438722572
 20
-124.8911116046632
 30
0.0
 10
-604.6150654736733
 20
-125.0929713246997
 30
0.0
 10
-606.1107444917334
 20
-125.3726125962968
 30
0.0
 10
-606.8664166606823
 20
-125.4494717310251
 30
0.0
 10
-608.0141622679382
 20
-125.4503158921943
 30
0.0
 10
-608.398544279386
 20
-125.4315268055242
 30
0.0
 10
-609.1588924465588
 20
-125.3582593134434
 30
0.0
 10
-609.5365173652307
 20
-125.30385526178
 30
0.0
 10
-610.6626690255263
 20
-125.0937762034279
 30
0.0
 10
-611.4044988679706
 20
-124.8914169102606
 30
0.0
 10
-612.14017932851
 20
-124.6461900900806
 30
0.0
  0
LINE
  5
313
330
1F
100
AcDbEntity
  8
0
  6
Continuous
 62
     7
370
    15
100
AcDbLine
 10
-612.1401736065
 20
-116.7199055424
 30
0.0
 11
-612.1401736065
 21
-124.6461908093
 31
0.0
  0
LINE
  5
314
330
1F
100
AcDbEntity
  8
0
  6
Continuous
 62
     7
370
    15
100
AcDbLine
 10
-594.1401669307
 20
-116.7199055424
 30
0.0
 11
-594.1401669307
 21
-124.6461908093
 31
0.0
  0
SPLINE
  5
315
330
1F
100
AcDbEntity
  8
0
  6
Continuous
 62
     7
370
    15
100
AcDbSpline
210
0.0
220
0.0
230
1.0
 70
     8
 71
     3
 72
    14
 73
    10
 74
     0
 42
0.00000001
 43
0.00000001
 12
1.0
 22
0.0
 32
0.0
 13
1.0
 23
0.0
 33
0.0
 40
0.0
 40
0.0
 40
0.0
 40
0.0
 40
0.1323176559718238
 40
0.2645987119251128
 40
0.3998399597511181
 40
0.5350507206203028
 40
0.6502541316758805
 40
0.7654725680926416
 40
1.0
 40
1.0
 40
1.0
 40
1.0
 10
-594.1401669307438
 20
-124.6461908092532
 30
0.0
 10
-594.5290042114884
 20
-124.7685537265502
 30
0.0
 10
-595.30657121778
 20
-125.0132457146782
 30
0.0
 10
-596.503962482544
 20
-125.2765795380004
 30
0.0
 10
-597.7238968817389
 20
-125.4347623876115
 30
0.0
 10
-598.8997277982746
 20
-125.4665123023583
 30
0.0
 10
-600.0116442127234
 20
-125.3838971239945
 30
0.0
 10
-601.4167966779565
 20
-125.1672316508725
 30
0.0
 10
-602.4484077282459
 20
-124.8553367182916
 30
0.0
 10
-603.1401702686039
 20
-124.6461908092532
 30
0.0
  0
SPLINE
  5
316
330
1F
100
AcDbEntity
  8
0
  6
Continuous
 62
     7
370
    15
100
AcDbSpline
210
0.0
220
0.0
230
1.0
 70
    24
 71
     3
 72
    11
 73
     7
 74
     0
 42
0.00000001
 43
0.00000001
 12
1.0
 22
0.0
 32
0.0
 13
1.0
 23
0.0
 33
0.0
 40
0.0
 40
0.0
 40
0.0
 40
0.0
 40
0.266343367168474
 40
0.5155986952420653
 40
0.7647919239419997
 40
1.0
 40
1.0
 40
1.0
 40
1.0
 10
-612.140173606464
 20
-124.6461908092532
 30
0.0
 10
-612.1401736064639
 20
-124.7695926357281
 30
0.0
 10
-612.140173606464
 20
-125.0084790829385
 30
0.0
 10
-612.140173606464
 20
-125.2592772478599
 30
0.0
 10
-612.1401736064639
 20
-125.4222513891665
 30
0.0
 10
-612.1401736064641
 20
-125.43779342383
 30
0.0
 10
-612.1401736064641
 20
-125.4453400840792
 30
0.0
  0
SPLINE
  5
317
330
1F
100
AcDbEntity
  8
0
  6
Continuous
 62
     7
370
    15
100
AcDbSpline
210
0.0
220
0.0
230
1.0
 70
    24
 71
     3
 72
    11
 73
     7
 74
     0
 42
0.00000001
 43
0.00000001
 12
1.0
 22
0.0
 32
0.0
 13
1.0
 23
0.0
 33
0.0
 40
0.0
 40
0.0
 40
0.0
 40
0.0
 40
0.2223664685669827
 40
0.4779763304989892
 40
0.7336544145202968
 40
1.0
 40
1.0
 40
1.0
 40
1.0
 10
-594.1401669307438
 20
-125.4443566074404
 30
0.0
 10
-594.1401669307438
 20
-125.4381817112021
 30
0.0
 10
-594.1401669307438
 20
-125.4249087826702
 30
0.0
 10
-594.1401669307437
 20
-125.265166347906
 30
0.0
 10
-594.1401669307438
 20
-125.0114495959247
 30
0.0
 10
-594.1401669307437
 20
-124.7695911889268
 30
0.0
 10
-594.1401669307438
 20
-124.6461908092532
 30
0.0
  0
LINE
  5
318
330
1F
100
AcDbEntity
  8
0
  6
Continuous
 62
     7
370
    15
100
AcDbLine
 10
484.8598292546
 20
-80.3830514421
 30
0.0
 11
496.8597939686
 21
-80.3830514421
 31
0.0
  0
LINE
  5
319
330
1F
100
AcDbEntity
  8
0
  6
Continuous
 62
     7
370
    15
100
AcDbLine
 10
-609.1401526256
 20
-80.3830514421
 30
0.0
 11
-597.1401879116
 21
-80.3830514421
 31
0.0
  0
LINE
  5
31A
330
1F
100
AcDbEntity
  8
0
  6
Continuous
 62
     7
370
     0
100
AcDbLine
 10
-614.4016334339
 20
-134.6226374378
 30
0.0
 11
502.1212747769
 21
-134.6226374378
 31
0.0
  0
LINE
  5
31B
330
1F
100
AcDbEntity
  8
0
  6
Continuous
 62
     7
370
     0
100
AcDbLine
 10
-617.1401688381
 20
-131.6340605488
 30
0.0
 11
504.8598101811
 21
-131.6340605488
 31
0.0
  0
LINE
  5
31C
330
1F
100
AcDbEntity
  8
0
  6
Continuous
 62
     7
370
     0
100
AcDbLine
 10
442.6897814945
 20
-136.0449085703
 30
0.0
 11
485.8545115666
 21
-136.0449085703
 31
0.0
  0
LINE
  5
31D
330
1F
100
AcDbEntity
  8
0
  6
Continuous
 62
     7
370
     0
100
AcDbLine
 10
290.9087291436
 20
-136.0449085703
 30
0.0
 11
430.7446232514
 21
-136.0449085703
 31
0.0
  0
LINE
  5
31E
330
1F
100
AcDbEntity
  8
0
  6
Continuous
 62
     7
370
     0
100
AcDbLine
 10
71.5787759499
 20
-136.0449085703
 30
0.0
 11
278.9087346272
 21
-136.0449085703
 31
0.0
  0
LINE
  5
31F
330
1F
100
AcDbEntity
  8
0
  6
Continuous
 62
     7
370
     0
100
AcDbLine
 10
-171.85913264
 20
-136.0449085703
 30
0.0
 11
59.5787739829
 21
-136.0449085703
 31
0.0
  0
LINE
  5
320
330
1F
100
AcDbEntity
  8
0
  6
Continuous
 62
     7
370
     0
100
AcDbLine
 10
-391.1890932842
 20
-136.0449085703
 30
0.0
 11
-183.8591346069
 21
-136.0449085703
 31
0.0
  0
LINE
  5
321
330
1F
100
AcDbEntity
  8
0
  6
Continuous
 62
     7
370
     0
100
AcDbLine
 10
-543.0249819084
 20
-136.0449085703
 30
0.0
 11
-403.1890878006
 21
-136.0449085703
 31
0.0
  0
LINE
  5
322
330
1F
100
AcDbEntity
  8
0
  6
Continuous
 62
     7
370
     0
100
AcDbLine
 10
-598.1348702236
 20
-136.0449085703
 30
0.0
 11
-554.9701401516
 21
-136.0449085703
 31
0.0
  0
LINE
  5
323
330
1F
100
AcDbEntity
  8
0
  6
Continuous
 62
     7
370
     0
100
AcDbLine
 10
-593.5876318737
 20
-140.7642106285
 30
0.0
 11
-554.9701401516
 21
-140.7642106285
 31
0.0
  0
LINE
  5
324
330
1F
100
AcDbEntity
  8
0
  6
Continuous
 62
     7
370
     0
100
AcDbLine
 10
-542.9701456352
 20
-140.7642106285
 30
0.0
 11
-403.1890878006
 21
-140.7642106285
 31
0.0
  0
LINE
  5
325
330
1F
100
AcDbEntity
  8
0
  6
Continuous
 62
     7
370
     0
100
AcDbLine
 10
-391.1890932842
 20
-140.7642106285
 30
0.0
 11
-183.8591346069
 21
-140.7642106285
 31
0.0
  0
LINE
  5
326
330
1F
100
AcDbEntity
  8
0
  6
Continuous
 62
     7
370
     0
100
AcDbLine
 10
-171.85913264
 20
-140.7642106285
 30
0.0
 11
59.5787739829
 21
-140.7642106285
 31
0.0
  0
LINE
  5
327
330
1F
100
AcDbEntity
  8
0
  6
Continuous
 62
     7
370
     0
100
AcDbLine
 10
71.5787759499
 20
-140.7642106285
 30
0.0
 11
278.9087346272
 21
-140.7642106285
 31
0.0
  0
LINE
  5
328
330
1F
100
AcDbEntity
  8
0
  6
Continuous
 62
     7
370
     0
100
AcDbLine
 10
290.9087291436
 20
-140.7642106285
 30
0.0
 11
430.6897869782
 21
-140.7642106285
 31
0.0
  0
LINE
  5
329
330
1F
100
AcDbEntity
  8
0
  6
Continuous
 62
     7
370
     0
100
AcDbLine
 10
442.6897814945
 20
-140.7642106285
 30
0.0
 11
481.3072732167
 21
-140.7642106285
 31
0.0
  0
LINE
  5
32A
330
1F
100
AcDbEntity
  8
0
  6
Continuous
 62
     7
370
     0
100
AcDbLine
 10
-592.264349155
 20
-166.0138929954
 30
0.0
 11
-554.9701401516
 21
-166.0138929954
 31
0.0
  0
LINE
  5
32B
330
1F
100
AcDbEntity
  8
0
  6
Continuous
 62
     7
370
     0
100
AcDbLine
 10
-542.9701456352
 20
-166.0138929954
 30
0.0
 11
-403.1890878006
 21
-166.0138929954
 31
0.0
  0
LINE
  5
32C
330
1F
100
AcDbEntity
  8
0
  6
Continuous
 62
     7
370
     0
100
AcDbLine
 10
-391.1890932842
 20
-166.0138929954
 30
0.0
 11
-183.8591346069
 21
-166.0138929954
 31
0.0
  0
LINE
  5
32D
330
1F
100
AcDbEntity
  8
0
  6
Continuous
 62
     7
370
     0
100
AcDbLine
 10
-171.85913264
 20
-166.0138929954
 30
0.0
 11
59.5787739829
 21
-166.0138929954
 31
0.0
  0
LINE
  5
32E
330
1F
100
AcDbEntity
  8
0
  6
Continuous
 62
     7
370
     0
100
AcDbLine
 10
71.5787759499
 20
-166.0138929954
 30
0.0
 11
278.9087346272
 21
-166.0138929954
 31
0.0
  0
LINE
  5
32F
330
1F
100
AcDbEntity
  8
0
  6
Continuous
 62
     7
370
     0
100
AcDbLine
 10
290.9087291436
 20
-166.0138929954
 30
0.0
 11
430.6897869782
 21
-166.0138929954
 31
0.0
  0
LINE
  5
330
330
1F
100
AcDbEntity
  8
0
  6
Continuous
 62
     7
370
     0
100
AcDbLine
 10
442.6897814945
 20
-166.0138929954
 30
0.0
 11
479.983990498
 21
-166.0138929954
 31
0.0
  0
LINE
  5
331
330
1F
100
AcDbEntity
  8
FORMAT
  6
CENTERX2
370
     0
100
AcDbLine
 10
-56.1401793285
 20
-280.3830503693
 30
0.0
 11
-56.1401793285
 21
-71.0655925015
 31
0.0
  0
ENDSEC
  0
SECTION
  2
OBJECTS
  0
DICTIONARY
  5
C
330
0
100
AcDbDictionary
281
     1
  3
ACAD_GROUP
350
D
  3
ACAD_LAYOUT
350
1A
  3
ACAD_MLINESTYLE
350
17
  3
ACAD_PLOTSETTINGS
350
19
  3
ACAD_PLOTSTYLENAME
350
E
  0
DICTIONARY
  5
D
102
{ACAD_REACTORS
330
C
102
}
330
C
100
AcDbDictionary
281
     1
  0
DICTIONARY
  5
1A
102
{ACAD_REACTORS
330
C
102
}
330
C
100
AcDbDictionary
281
     1
  3
Layout1
350
1E
  3
Layout2
350
26
  3
Model
350
22
  0
DICTIONARY
  5
17
102
{ACAD_REACTORS
330
C
102
}
330
C
100
AcDbDictionary
281
     1
  3
Standard
350
18
  0
DICTIONARY
  5
19
102
{ACAD_REACTORS
330
C
102
}
330
C
100
AcDbDictionary
281
     1
  0
ACDBDICTIONARYWDFLT
  5
E
102
{ACAD_REACTORS
330
C
102
}
330
C
100
AcDbDictionary
281
     1
  3
Normal
350
F
100
AcDbDictionaryWithDefault
340
F
  0
LAYOUT
  5
1E
102
{ACAD_REACTORS
330
1A
102
}
330
1A
100
AcDbPlotSettings
  1

  2
none_device
  4

  6

 40
0.0
 41
0.0
 42
0.0
 43
0.0
 44
0.0
 45
0.0
 46
0.0
 47
0.0
 48
0.0
 49
0.0
140
0.0
141
0.0
142
1.0
143
1.0
 70
   688
 72
     0
 73
     0
 74
     5
  7

 75
    16
147
1.0
148
0.0
149
0.0
100
AcDbLayout
  1
Layout1
 70
     1
 71
     1
 10
0.0
 20
0.0
 11
420.0
 21
297.0
 12
0.0
 22
0.0
 32
0.0
 14
1.0000000000E+20
 24
1.0000000000E+20
 34
1.0000000000E+20
 15
-1.0000000000E+20
 25
-1.0000000000E+20
 35
-1.0000000000E+20
146
0.0
 13
0.0
 23
0.0
 33
0.0
 16
1.0
 26
0.0
 36
0.0
 17
0.0
 27
1.0
 37
0.0
 76
     0
330
1B
  0
LAYOUT
  5
26
102
{ACAD_REACTORS
330
1A
102
}
330
1A
100
AcDbPlotSettings
  1

  2
none_device
  4

  6

 40
0.0
 41
0.0
 42
0.0
 43
0.0
 44
0.0
 45
0.0
 46
0.0
 47
0.0
 48
0.0
 49
0.0
140
0.0
141
0.0
142
1.0
143
1.0
 70
   688
 72
     0
 73
     0
 74
     5
  7

 75
    16
147
1.0
148
0.0
149
0.0
100
AcDbLayout
  1
Layout2
 70
     1
 71
     2
 10
0.0
 20
0.0
 11
0.0
 21
0.0
 12
0.0
 22
0.0
 32
0.0
 14
0.0
 24
0.0
 34
0.0
 15
0.0
 25
0.0
 35
0.0
146
0.0
 13
0.0
 23
0.0
 33
0.0
 16
1.0
 26
0.0
 36
0.0
 17
0.0
 27
1.0
 37
0.0
 76
     0
330
23
  0
LAYOUT
  5
22
102
{ACAD_REACTORS
330
1A
102
}
330
1A
100
AcDbPlotSettings
  1

  2
none_device
  4

  6

 40
0.0
 41
0.0
 42
0.0
 43
0.0
 44
0.0
 45
0.0
 46
0.0
 47
0.0
 48
0.0
 49
0.0
140
0.0
141
0.0
142
1.0
143
1.0
 70
  1712
 72
     0
 73
     0
 74
     0
  7

 75
     0
147
1.0
148
0.0
149
0.0
100
AcDbLayout
  1
Model
 70
     1
 71
     0
 10
0.0
 20
0.0
 11
841.0
 21
594.0
 12
0.0
 22
0.0
 32
0.0
 14
0.0
 24
0.0
 34
0.0
 15
841.0
 25
594.0
 35
0.0
146
0.0
 13
0.0
 23
0.0
 33
0.0
 16
1.0
 26
0.0
 36
0.0
 17
0.0
 27
1.0
 37
0.0
 76
     0
330
1F
331
29
  0
MLINESTYLE
  5
18
102
{ACAD_REACTORS
330
17
102
}
330
17
100
AcDbMlineStyle
  2
Standard
 70
     0
  3

 62
   256
 51
90.0
 52
90.0
 71
     2
 49
0.5
 62
   256
  6
BYLAYER
 49
-0.5
 62
   256
  6
BYLAYER
  0
ACDBPLACEHOLDER
  5
F
102
{ACAD_REACTORS
330
E
102
}
330
E
  0
ENDSEC
  0
EOF
