  0
SECTION
  2
HEADER
  9
$ACADVER
  1
AC1015
  9
$ACADMAINTVER
 70
     6
  9
$DWGCODEPAGE
  3
ANSI_1252
  9
$INSBASE
 10
0.0
 20
0.0
 30
0.0
  9
$EXTMIN
 10
0.0
 20
0.0
 30
0.0
  9
$EXTMAX
 10
841.0
 20
594.0
 30
0.0
  9
$LIMMIN
 10
0.0
 20
0.0
  9
$LIMMAX
 10
841.0
 20
594.0
  9
$ORTHOMODE
 70
     0
  9
$REGENMODE
 70
     1
  9
$FILLMODE
 70
     1
  9
$QTEXTMODE
 70
     0
  9
$MIRRTEXT
 70
     1
  9
$LTSCALE
 40
1.0
  9
$ATTMODE
 70
     1
  9
$TEXTSIZE
 40
2.5
  9
$TRACEWID
 40
1.0
  9
$TEXTSTYLE
  7
Standard
  9
$CLAYER
  8
0
  9
$CELTYPE
  6
ByLayer
  9
$CECOLOR
 62
   256
  9
$CELTSCALE
 40
1.0
  9
$DISPSILH
 70
     0
  9
$DIMSCALE
 40
1.0
  9
$DIMASZ
 40
2.5
  9
$DIMEXO
 40
1.0
  9
$DIMDLI
 40
3.75
  9
$DIMRND
 40
0.0
  9
$DIMDLE
 40
0.0
  9
$DIMEXE
 40
1.0
  9
$DIMTP
 40
0.0
  9
$DIMTM
 40
0.0
  9
$DIMTXT
 40
2.5
  9
$DIMCEN
 40
2.5
  9
$DIMTSZ
 40
0.0
  9
$DIMTOL
 70
     0
  9
$DIMLIM
 70
     0
  9
$DIMTIH
 70
     1
  9
$DIMTOH
 70
     1
  9
$DIMSE1
 70
     0
  9
$DIMSE2
 70
     0
  9
$DIMTAD
 70
     1
  9
$DIMZIN
 70
     0
  9
$DIMBLK
  1

  9
$DIMASO
 70
     1
  9
$DIMSHO
 70
     1
  9
$DIMPOST
  1

  9
$DIMAPOST
  1

  9
$DIMALT
 70
     0
  9
$DIMALTD
 70
     3
  9
$DIMALTF
 40
0.0393700787
  9
$DIMLFAC
 40
1.0
  9
$DIMTOFL
 70
     1
  9
$DIMTVP
 40
0.0
  9
$DIMTIX
 70
     0
  9
$DIMSOXD
 70
     0
  9
$DIMSAH
 70
     0
  9
$DIMBLK1
  1

  9
$DIMBLK2
  1

  9
$DIMSTYLE
  2
ISO-25
  9
$DIMCLRD
 70
     0
  9
$DIMCLRE
 70
     0
  9
$DIMCLRT
 70
     0
  9
$DIMTFAC
 40
1.0
  9
$DIMGAP
 40
1.524
  9
$DIMJUST
 70
     0
  9
$DIMSD1
 70
     0
  9
$DIMSD2
 70
     0
  9
$DIMTOLJ
 70
     0
  9
$DIMTZIN
 70
     0
  9
$DIMALTZ
 70
     0
  9
$DIMALTTZ
 70
     0
  9
$DIMUPT
 70
     0
  9
$DIMDEC
 70
     2
  9
$DIMTDEC
 70
     2
  9
$DIMALTU
 70
     2
  9
$DIMALTTD
 70
     3
  9
$DIMTXSTY
  7
Standard
  9
$DIMAUNIT
 70
     0
  9
$DIMADEC
 70
     2
  9
$DIMALTRND
 40
0.0
  9
$DIMAZIN
 70
     0
  9
$DIMDSEP
 70
    44
  9
$DIMATFIT
 70
     3
  9
$DIMFRAC
 70
     0
  9
$DIMLDRBLK
  1

  9
$DIMLUNIT
 70
     2
  9
$DIMLWD
 70
    -2
  9
$DIMLWE
 70
    -2
  9
$DIMTMOVE
 70
     0
  9
$LUNITS
 70
     2
  9
$LUPREC
 70
     2
  9
$SKETCHINC
 40
1.0
  9
$FILLETRAD
 40
10.0
  9
$AUNITS
 70
     0
  9
$AUPREC
 70
     2
  9
$MENU
  1
.
  9
$ELEVATION
 40
0.0
  9
$PELEVATION
 40
0.0
  9
$THICKNESS
 40
0.0
  9
$LIMCHECK
 70
     0
  9
$CHAMFERA
 40
10.0
  9
$CHAMFERB
 40
10.0
  9
$CHAMFERC
 40
20.0
  9
$CHAMFERD
 40
0.0
  9
$SKPOLY
 70
     0
  9
$TDCREATE
 40
2457521.372108646
  9
$TDUCREATE
 40
2457521.288775313
  9
$TDUPDATE
 40
2457521.372109907
  9
$TDUUPDATE
 40
2457521.288776574
  9
$TDINDWG
 40
0.0000000116
  9
$TDUSRTIMER
 40
0.0000000116
  9
$USRTIMER
 70
     1
  9
$ANGBASE
 50
0.0
  9
$ANGDIR
 70
     0
  9
$PDMODE
 70
     0
  9
$PDSIZE
 40
-1.0
  9
$PLINEWID
 40
0.0
  9
$SPLFRAME
 70
     0
  9
$SPLINETYPE
 70
     6
  9
$SPLINESEGS
 70
     8
  9
$HANDSEED
  5
30F
  9
$SURFTAB1
 70
     6
  9
$SURFTAB2
 70
     6
  9
$SURFTYPE
 70
     6
  9
$SURFU
 70
     6
  9
$SURFV
 70
     6
  9
$UCSBASE
  2

  9
$UCSNAME
  2

  9
$UCSORG
 10
0.0
 20
0.0
 30
0.0
  9
$UCSXDIR
 10
1.0
 20
0.0
 30
0.0
  9
$UCSYDIR
 10
0.0
 20
1.0
 30
0.0
  9
$UCSORTHOREF
  2

  9
$UCSORTHOVIEW
 70
     0
  9
$UCSORGTOP
 10
0.0
 20
0.0
 30
0.0
  9
$UCSORGBOTTOM
 10
0.0
 20
0.0
 30
0.0
  9
$UCSORGLEFT
 10
0.0
 20
0.0
 30
0.0
  9
$UCSORGRIGHT
 10
0.0
 20
0.0
 30
0.0
  9
$UCSORGFRONT
 10
0.0
 20
0.0
 30
0.0
  9
$UCSORGBACK
 10
0.0
 20
0.0
 30
0.0
  9
$PUCSBASE
  2

  9
$PUCSNAME
  2

  9
$PUCSORG
 10
0.0
 20
0.0
 30
0.0
  9
$PUCSXDIR
 10
1.0
 20
0.0
 30
0.0
  9
$PUCSYDIR
 10
0.0
 20
1.0
 30
0.0
  9
$PUCSORTHOREF
  2

  9
$PUCSORTHOVIEW
 70
     0
  9
$PUCSORGTOP
 10
0.0
 20
0.0
 30
0.0
  9
$PUCSORGBOTTOM
 10
0.0
 20
0.0
 30
0.0
  9
$PUCSORGLEFT
 10
0.0
 20
0.0
 30
0.0
  9
$PUCSORGRIGHT
 10
0.0
 20
0.0
 30
0.0
  9
$PUCSORGFRONT
 10
0.0
 20
0.0
 30
0.0
  9
$PUCSORGBACK
 10
0.0
 20
0.0
 30
0.0
  9
$USERI1
 70
     0
  9
$USERI2
 70
     0
  9
$USERI3
 70
     0
  9
$USERI4
 70
     0
  9
$USERI5
 70
     0
  9
$USERR1
 40
0.0
  9
$USERR2
 40
0.0
  9
$USERR3
 40
0.0
  9
$USERR4
 40
0.0
  9
$USERR5
 40
0.0
  9
$WORLDVIEW
 70
     1
  9
$SHADEDGE
 70
     3
  9
$SHADEDIF
 70
    70
  9
$TILEMODE
 70
     1
  9
$MAXACTVP
 70
    64
  9
$PINSBASE
 10
0.0
 20
0.0
 30
0.0
  9
$PLIMCHECK
 70
     0
  9
$PEXTMIN
 10
1.0000000000E+20
 20
1.0000000000E+20
 30
1.0000000000E+20
  9
$PEXTMAX
 10
-1.0000000000E+20
 20
-1.0000000000E+20
 30
-1.0000000000E+20
  9
$PLIMMIN
 10
0.0
 20
0.0
  9
$PLIMMAX
 10
420.0
 20
297.0
  9
$UNITMODE
 70
     0
  9
$VISRETAIN
 70
     1
  9
$PLINEGEN
 70
     0
  9
$PSLTSCALE
 70
     1
  9
$TREEDEPTH
 70
  3020
  9
$CMLSTYLE
  2
Standard
  9
$CMLJUST
 70
     0
  9
$CMLSCALE
 40
20.0
  9
$PROXYGRAPHICS
 70
     1
  9
$MEASUREMENT
 70
     1
  9
$CELWEIGHT
370
    -1
  9
$ENDCAPS
280
     0
  9
$JOINSTYLE
280
     0
  9
$LWDISPLAY
290
     1
  9
$INSUNITS
 70
     4
  9
$HYPERLINKBASE
  1

  9
$STYLESHEET
  1

  9
$XEDIT
290
     1
  9
$CEPSNTYPE
380
     0
  9
$PSTYLEMODE
290
     1
  9
$FINGERPRINTGUID
  2
{40A50115-BC09-405E-8CA2-4B1C81406589}
  9
$VERSIONGUID
  2
{FAEB1C32-E019-11D5-929B-00C0DF256EC4}
  9
$EXTNAMES
290
     1
  9
$PSVPSCALE
 40
0.0
  9
$OLESTARTUP
290
     0
  0
ENDSEC
  0
SECTION
  2
CLASSES
  0
CLASS
  1
ACDBDICTIONARYWDFLT
  2
AcDbDictionaryWithDefault
  3
ObjectDBX Classes
 90
        0
280
     0
281
     0
  0
CLASS
  1
VISUALSTYLE
  2
AcDbVisualStyle
  3
ObjectDBX Classes
 90
     4095
280
     0
281
     0
  0
CLASS
  1
MATERIAL
  2
AcDbMaterial
  3
ObjectDBX Classes
 90
     1153
280
     0
281
     0
  0
CLASS
  1
ACDBPLACEHOLDER
  2
AcDbPlaceHolder
  3
ObjectDBX Classes
 90
        0
280
     0
281
     0
  0
CLASS
  1
LAYOUT
  2
AcDbLayout
  3
ObjectDBX Classes
 90
        0
280
     0
281
     0
  0
ENDSEC
  0
SECTION
  2
TABLES
  0
TABLE
  2
VPORT
  5
8
330
0
100
AcDbSymbolTable
 70
     1
  0
VPORT
  5
29
330
8
100
AcDbSymbolTableRecord
100
AcDbViewportTableRecord
  2
*Active
 70
     0
 10
0.0
 20
0.0
 11
1.0
 21
1.0
 12
420.5
 22
297.0
 13
0.0
 23
0.0
 14
10.0
 24
10.0
 15
10.0
 25
10.0
 16
0.0
 26
0.0
 36
1.0
 17
0.0
 27
0.0
 37
0.0
 40
594.0
 41
1.4158249158
 42
50.0
 43
0.0
 44
0.0
 50
0.0
 51
0.0
 71
     0
 72
  2000
 73
     1
 74
     3
 75
     0
 76
     0
 77
     0
 78
     0
281
     0
 65
     1
110
0.0
120
0.0
130
0.0
111
1.0
121
0.0
131
0.0
112
0.0
122
1.0
132
0.0
 79
     0
146
0.0
  0
ENDTAB
  0
TABLE
  2
LTYPE
  5
5
330
0
100
AcDbSymbolTable
 70
     6
  0
LTYPE
  5
14
330
5
100
AcDbSymbolTableRecord
100
AcDbLinetypeTableRecord
  2
ByBlock
 70
     0
  3

 72
    65
 73
     0
 40
0.0
  0
LTYPE
  5
15
330
5
100
AcDbSymbolTableRecord
100
AcDbLinetypeTableRecord
  2
ByLayer
 70
     0
  3

 72
    65
 73
     0
 40
0.0
  0
LTYPE
  5
16
330
5
100
AcDbSymbolTableRecord
100
AcDbLinetypeTableRecord
  2
Continuous
 70
     0
  3
Solid line
 72
    65
 73
     0
 40
0.0
  0
LTYPE
  5
3F
330
5
100
AcDbSymbolTableRecord
100
AcDbLinetypeTableRecord
  2
HIDDEN
 70
     0
  3
Hidden __ __ __ __ __ __ __ __ __ __ __ __ __ __
 72
    65
 73
     2
 40
1.905
 49
1.27
 74
     0
 49
-0.635
 74
     0
  0
LTYPE
  5
40
330
5
100
AcDbSymbolTableRecord
100
AcDbLinetypeTableRecord
  2
PHANTOM
 70
     0
  3
Phantom ______  __  __  ______  __  __  ______
 72
    65
 73
     6
 40
12.7
 49
6.35
 74
     0
 49
-1.27
 74
     0
 49
1.27
 74
     0
 49
-1.27
 74
     0
 49
1.27
 74
     0
 49
-1.27
 74
     0
  0
LTYPE
  5
41
330
5
100
AcDbSymbolTableRecord
100
AcDbLinetypeTableRecord
  2
CENTER
 70
     0
  3
Center ____ _ ____ _ ____ _ ____ _ ____ _ ____
 72
    65
 73
     4
 40
10.16
 49
6.35
 74
     0
 49
-1.27
 74
     0
 49
1.27
 74
     0
 49
-1.27
 74
     0
  0
LTYPE
  5
42
330
5
100
AcDbSymbolTableRecord
100
AcDbLinetypeTableRecord
  2
CENTERX2
 70
     0
  3
Center (2x) ________  __  ________  __  _____
 72
    65
 73
     4
 40
20.32
 49
12.7
 74
     0
 49
-2.54
 74
     0
 49
2.54
 74
     0
 49
-2.54
 74
     0
  0
LTYPE
  5
43
330
5
100
AcDbSymbolTableRecord
100
AcDbLinetypeTableRecord
  2
DOT2
 70
     0
  3
Dot (.5x) ........................................
 72
    65
 73
     2
 40
0.635
 49
0.0
 74
     0
 49
-0.635
 74
     0
  0
ENDTAB
  0
TABLE
  2
LAYER
  5
2
330
0
100
AcDbSymbolTable
 70
     3
  0
LAYER
  5
10
330
2
100
AcDbSymbolTableRecord
100
AcDbLayerTableRecord
  2
0
 70
     0
 62
     7
  6
Continuous
370
    -3
390
F
  0
LAYER
  5
44
330
2
100
AcDbSymbolTableRecord
100
AcDbLayerTableRecord
  2
FORMAT
 70
     0
 62
     7
  6
Continuous
370
    -3
390
F
  0
LAYER
  5
45
330
2
100
AcDbSymbolTableRecord
100
AcDbLayerTableRecord
  2
PROTOTYPE
 70
     0
 62
     7
  6
Continuous
370
    -3
390
F
  0
ENDTAB
  0
TABLE
  2
STYLE
  5
3
330
0
100
AcDbSymbolTable
 70
     2
  0
STYLE
  5
11
330
3
100
AcDbSymbolTableRecord
100
AcDbTextStyleTableRecord
  2
Standard
 70
     0
 40
0.0
 41
1.0
 50
0.0
 71
     0
 42
2.5
  3
txt
  4

  0
STYLE
  5
8C
330
3
100
AcDbSymbolTableRecord
100
AcDbTextStyleTableRecord
  2
SLDTEXTSTYLE0
 70
     0
 40
0.0
 41
0.605
 50
0.0
 71
     0
 42
0.2
  3
TXT
  4

  0
ENDTAB
  0
TABLE
  2
VIEW
  5
6
330
0
100
AcDbSymbolTable
 70
     0
  0
ENDTAB
  0
TABLE
  2
UCS
  5
7
330
0
100
AcDbSymbolTable
 70
     0
  0
ENDTAB
  0
TABLE
  2
APPID
  5
9
330
0
100
AcDbSymbolTable
 70
     1
  0
APPID
  5
12
330
9
100
AcDbSymbolTableRecord
100
AcDbRegAppTableRecord
  2
ACAD
 70
     0
  0
ENDTAB
  0
TABLE
  2
DIMSTYLE
  5
A
330
0
100
AcDbSymbolTable
 70
     1
100
AcDbDimStyleTable
  0
DIMSTYLE
105
27
330
A
100
AcDbSymbolTableRecord
100
AcDbDimStyleTableRecord
  2
ISO-25
 70
     0
 41
2.5
 42
0.625
 43
3.75
 44
1.25
 73
     0
 74
     0
 77
     1
 78
     8
140
2.5
141
2.5
143
0.0393700787
147
0.625
171
     3
172
     1
178
     0
271
     2
272
     2
274
     3
278
    44
283
     0
284
     8
340
11
  0
ENDTAB
  0
TABLE
  2
BLOCK_RECORD
  5
1
330
0
100
AcDbSymbolTable
 70
     2
  0
BLOCK_RECORD
  5
1F
330
1
100
AcDbSymbolTableRecord
100
AcDbBlockTableRecord
  2
*Model_Space
340
22
  0
BLOCK_RECORD
  5
1B
330
1
100
AcDbSymbolTableRecord
100
AcDbBlockTableRecord
  2
*Paper_Space
340
1E
  0
BLOCK_RECORD
  5
23
330
1
100
AcDbSymbolTableRecord
100
AcDbBlockTableRecord
  2
*Paper_Space0
340
26
  0
BLOCK_RECORD
  5
303
330
1
100
AcDbSymbolTableRecord
100
AcDbBlockTableRecord
  2
SW_CENTERMARKSYMBOL_0
340
0
102
{BLKREFS
331
30E
102
}
  0
ENDTAB
  0
ENDSEC
  0
SECTION
  2
BLOCKS
  0
BLOCK
  5
20
330
1F
100
AcDbEntity
  8
0
100
AcDbBlockBegin
  2
*Model_Space
 70
     0
 10
0.0
 20
0.0
 30
0.0
  3
*Model_Space
  1

  0
ENDBLK
  5
21
330
1F
100
AcDbEntity
  8
0
100
AcDbBlockEnd
  0
BLOCK
  5
1C
330
1B
100
AcDbEntity
 67
     1
  8
0
100
AcDbBlockBegin
  2
*Paper_Space
 70
     0
 10
0.0
 20
0.0
 30
0.0
  3
*Paper_Space
  1

  0
ENDBLK
  5
1D
330
1B
100
AcDbEntity
 67
     1
  8
0
100
AcDbBlockEnd
  0
BLOCK
  5
24
330
23
100
AcDbEntity
  8
0
100
AcDbBlockBegin
  2
*Paper_Space0
 70
     0
 10
0.0
 20
0.0
 30
0.0
  3
*Paper_Space0
  1

  0
ENDBLK
  5
25
330
23
100
AcDbEntity
  8
0
100
AcDbBlockEnd
  0
BLOCK
  5
304
330
303
100
AcDbEntity
  8
0
100
AcDbBlockBegin
  2
SW_CENTERMARKSYMBOL_0
 70
     0
 10
0.0
 20
0.0
 30
0.0
  3
SW_CENTERMARKSYMBOL_0
  1

  0
LINE
  5
306
330
303
100
AcDbEntity
  8
FORMAT
 62
     0
100
AcDbLine
 10
0.0
 20
0.0
 30
0.0
 11
0.0
 21
2.5
 31
0.0
  0
LINE
  5
307
330
303
100
AcDbEntity
  8
FORMAT
 62
     0
100
AcDbLine
 10
0.0
 20
0.0
 30
0.0
 11
-2.5
 21
0.0
 31
0.0
  0
LINE
  5
308
330
303
100
AcDbEntity
  8
FORMAT
 62
     0
100
AcDbLine
 10
0.0
 20
0.0
 30
0.0
 11
0.0
 21
-2.5
 31
0.0
  0
LINE
  5
309
330
303
100
AcDbEntity
  8
FORMAT
 62
     0
100
AcDbLine
 10
0.0
 20
0.0
 30
0.0
 11
2.5
 21
0.0
 31
0.0
  0
LINE
  5
30A
330
303
100
AcDbEntity
  8
FORMAT
 62
     0
100
AcDbLine
 10
0.0
 20
5.0
 30
0.0
 11
0.0
 21
680.1037235681
 31
0.0
  0
LINE
  5
30B
330
303
100
AcDbEntity
  8
FORMAT
 62
     0
100
AcDbLine
 10
-5.0
 20
0.0
 30
0.0
 11
-322.8268533458
 21
0.0
 31
0.0
  0
LINE
  5
30C
330
303
100
AcDbEntity
  8
FORMAT
 62
     0
100
AcDbLine
 10
0.0
 20
-5.0
 30
0.0
 11
0.0
 21
-333.8651656224
 31
0.0
  0
LINE
  5
30D
330
303
100
AcDbEntity
  8
FORMAT
 62
     0
100
AcDbLine
 10
5.0
 20
0.0
 30
0.0
 11
330.6848873752
 21
0.0
 31
0.0
  0
ENDBLK
  5
305
330
303
100
AcDbEntity
  8
0
100
AcDbBlockEnd
  0
ENDSEC
  0
SECTION
  2
ENTITIES
  0
LINE
  5
46
330
1F
100
AcDbEntity
  8
FORMAT
370
    30
100
AcDbLine
 10
13.0
 20
12.8671069427
 30
0.0
 11
828.0
 21
12.8671069427
 31
0.0
  0
LINE
  5
47
330
1F
100
AcDbEntity
  8
FORMAT
370
    30
100
AcDbLine
 10
13.0
 20
12.8671069427
 30
0.0
 11
13.0
 21
580.8671069427
 31
0.0
  0
LINE
  5
48
330
1F
100
AcDbEntity
  8
0
  6
Continuous
 62
     7
370
    30
100
AcDbLine
 10
114.88
 20
12.8671069427
 30
0.0
 11
114.88
 21
6.8671069427
 31
0.0
  0
LINE
  5
49
330
1F
100
AcDbEntity
  8
FORMAT
370
    30
100
AcDbLine
 10
828.0
 20
12.8671069427
 30
0.0
 11
828.0
 21
580.8671069427
 31
0.0
  0
LINE
  5
4A
330
1F
100
AcDbEntity
  8
FORMAT
370
    30
100
AcDbLine
 10
828.0
 20
12.8671069427
 30
0.0
 11
828.0
 21
6.8671069427
 31
0.0
  0
LINE
  5
4B
330
1F
100
AcDbEntity
  8
0
  6
Continuous
 62
     7
370
    30
100
AcDbLine
 10
165.82
 20
12.8671069427
 30
0.0
 11
165.82
 21
6.8671069427
 31
0.0
  0
LINE
  5
4C
330
1F
100
AcDbEntity
  8
0
  6
Continuous
 62
     7
370
    30
100
AcDbLine
 10
216.76
 20
12.8671069427
 30
0.0
 11
216.76
 21
6.8671069427
 31
0.0
  0
LINE
  5
4D
330
1F
100
AcDbEntity
  8
0
  6
Continuous
 62
     7
370
    30
100
AcDbLine
 10
267.7
 20
12.8671069427
 30
0.0
 11
267.7
 21
6.8671069427
 31
0.0
  0
LINE
  5
4E
330
1F
100
AcDbEntity
  8
0
  6
Continuous
 62
     7
370
    30
100
AcDbLine
 10
318.64
 20
12.8671069427
 30
0.0
 11
318.64
 21
6.8671069427
 31
0.0
  0
LINE
  5
4F
330
1F
100
AcDbEntity
  8
0
  6
Continuous
 62
     7
370
    30
100
AcDbLine
 10
369.58
 20
12.8671069427
 30
0.0
 11
369.58
 21
6.8671069427
 31
0.0
  0
LINE
  5
50
330
1F
100
AcDbEntity
  8
0
  6
Continuous
 62
     7
370
    30
100
AcDbLine
 10
420.52
 20
12.8671069427
 30
0.0
 11
420.52
 21
6.8671069427
 31
0.0
  0
LINE
  5
51
330
1F
100
AcDbEntity
  8
0
  6
Continuous
 62
     7
370
    30
100
AcDbLine
 10
471.46
 20
12.8671069427
 30
0.0
 11
471.46
 21
6.8671069427
 31
0.0
  0
LINE
  5
52
330
1F
100
AcDbEntity
  8
0
  6
Continuous
 62
     7
370
    30
100
AcDbLine
 10
522.4
 20
12.8671069427
 30
0.0
 11
522.4
 21
6.8671069427
 31
0.0
  0
LINE
  5
53
330
1F
100
AcDbEntity
  8
0
  6
Continuous
 62
     7
370
    30
100
AcDbLine
 10
573.34
 20
12.8671069427
 30
0.0
 11
573.34
 21
6.8671069427
 31
0.0
  0
LINE
  5
54
330
1F
100
AcDbEntity
  8
0
  6
Continuous
 62
     7
370
    30
100
AcDbLine
 10
624.28
 20
12.8671069427
 30
0.0
 11
624.28
 21
6.8671069427
 31
0.0
  0
LINE
  5
55
330
1F
100
AcDbEntity
  8
0
  6
Continuous
 62
     7
370
    30
100
AcDbLine
 10
675.22
 20
12.8671069427
 30
0.0
 11
675.22
 21
6.8671069427
 31
0.0
  0
LINE
  5
56
330
1F
100
AcDbEntity
  8
0
  6
Continuous
 62
     7
370
    30
100
AcDbLine
 10
726.16
 20
12.8671069427
 30
0.0
 11
726.16
 21
6.8671069427
 31
0.0
  0
LINE
  5
57
330
1F
100
AcDbEntity
  8
0
  6
Continuous
 62
     7
370
    30
100
AcDbLine
 10
777.1
 20
12.8671069427
 30
0.0
 11
777.1
 21
6.8671069427
 31
0.0
  0
LINE
  5
58
330
1F
100
AcDbEntity
  8
0
  6
Continuous
 62
     7
370
    30
100
AcDbLine
 10
828.0
 20
116.1471069427
 30
0.0
 11
834.0
 21
116.1471069427
 31
0.0
  0
LINE
  5
59
330
1F
100
AcDbEntity
  8
0
  6
Continuous
 62
     7
370
    30
100
AcDbLine
 10
828.0
 20
167.7871069427
 30
0.0
 11
834.0
 21
167.7871069427
 31
0.0
  0
LINE
  5
5A
330
1F
100
AcDbEntity
  8
0
  6
Continuous
 62
     7
370
    30
100
AcDbLine
 10
828.0
 20
219.4271069427
 30
0.0
 11
834.0
 21
219.4271069427
 31
0.0
  0
LINE
  5
5B
330
1F
100
AcDbEntity
  8
0
  6
Continuous
 62
     7
370
    30
100
AcDbLine
 10
828.0
 20
271.0671069427
 30
0.0
 11
834.0
 21
271.0671069427
 31
0.0
  0
LINE
  5
5C
330
1F
100
AcDbEntity
  8
0
  6
Continuous
 62
     7
370
    30
100
AcDbLine
 10
828.0
 20
322.7071069427
 30
0.0
 11
834.0
 21
322.7071069427
 31
0.0
  0
LINE
  5
5D
330
1F
100
AcDbEntity
  8
0
  6
Continuous
 62
     7
370
    30
100
AcDbLine
 10
63.94
 20
12.8671069427
 30
0.0
 11
63.94
 21
6.8671069427
 31
0.0
  0
LINE
  5
5E
330
1F
100
AcDbEntity
  8
0
  6
Continuous
 62
     7
370
    30
100
AcDbLine
 10
828.0
 20
374.3471069427
 30
0.0
 11
834.0
 21
374.3471069427
 31
0.0
  0
LINE
  5
5F
330
1F
100
AcDbEntity
  8
0
  6
Continuous
 62
     7
370
    30
100
AcDbLine
 10
13.0
 20
12.8671069427
 30
0.0
 11
13.0
 21
6.8671069427
 31
0.0
  0
LINE
  5
60
330
1F
100
AcDbEntity
  8
FORMAT
  6
Continuous
 62
     7
370
    30
100
AcDbLine
 10
828.0
 20
12.8671069427
 30
0.0
 11
834.0
 21
12.8671069427
 31
0.0
  0
LINE
  5
61
330
1F
100
AcDbEntity
  8
0
  6
Continuous
 62
     7
370
    30
100
AcDbLine
 10
828.0
 20
425.9871069427
 30
0.0
 11
834.0
 21
425.9871069427
 31
0.0
  0
LINE
  5
62
330
1F
100
AcDbEntity
  8
0
  6
Continuous
 62
     7
370
    30
100
AcDbLine
 10
828.0
 20
477.6271069427
 30
0.0
 11
834.0
 21
477.6271069427
 31
0.0
  0
LINE
  5
63
330
1F
100
AcDbEntity
  8
0
  6
Continuous
 62
     7
370
    30
100
AcDbLine
 10
828.0
 20
529.2671069427
 30
0.0
 11
834.0
 21
529.2671069427
 31
0.0
  0
LINE
  5
64
330
1F
100
AcDbEntity
  8
0
  6
Continuous
 62
     7
370
    30
100
AcDbLine
 10
7.0
 20
580.8671069427
 30
0.0
 11
13.0
 21
580.8671069427
 31
0.0
  0
LINE
  5
65
330
1F
100
AcDbEntity
  8
0
  6
Continuous
 62
     7
370
    30
100
AcDbLine
 10
7.0
 20
12.8671069427
 30
0.0
 11
13.0
 21
12.8671069427
 31
0.0
  0
LINE
  5
66
330
1F
100
AcDbEntity
  8
0
  6
Continuous
 62
     7
370
    30
100
AcDbLine
 10
165.82
 20
586.8671069427
 30
0.0
 11
165.82
 21
580.8671069427
 31
0.0
  0
LINE
  5
67
330
1F
100
AcDbEntity
  8
0
  6
Continuous
 62
     7
370
    30
100
AcDbLine
 10
471.46
 20
586.8671069427
 30
0.0
 11
471.46
 21
580.8671069427
 31
0.0
  0
LINE
  5
68
330
1F
100
AcDbEntity
  8
0
  6
Continuous
 62
     7
370
    30
100
AcDbLine
 10
420.52
 20
586.8671069427
 30
0.0
 11
420.52
 21
580.8671069427
 31
0.0
  0
LINE
  5
69
330
1F
100
AcDbEntity
  8
0
  6
Continuous
 62
     7
370
    30
100
AcDbLine
 10
777.1
 20
586.8671069427
 30
0.0
 11
777.1
 21
580.8671069427
 31
0.0
  0
LINE
  5
6A
330
1F
100
AcDbEntity
  8
0
  6
Continuous
 62
     7
370
    30
100
AcDbLine
 10
726.16
 20
586.8671069427
 30
0.0
 11
726.16
 21
580.8671069427
 31
0.0
  0
LINE
  5
6B
330
1F
100
AcDbEntity
  8
0
  6
Continuous
 62
     7
370
    30
100
AcDbLine
 10
114.88
 20
586.8671069427
 30
0.0
 11
114.88
 21
580.8671069427
 31
0.0
  0
LINE
  5
6C
330
1F
100
AcDbEntity
  8
0
  6
Continuous
 62
     7
370
    30
100
AcDbLine
 10
522.4
 20
586.8671069427
 30
0.0
 11
522.4
 21
580.8671069427
 31
0.0
  0
LINE
  5
6D
330
1F
100
AcDbEntity
  8
0
  6
Continuous
 62
     7
370
    30
100
AcDbLine
 10
216.76
 20
586.8671069427
 30
0.0
 11
216.76
 21
580.8671069427
 31
0.0
  0
LINE
  5
6E
330
1F
100
AcDbEntity
  8
0
  6
Continuous
 62
     7
370
    30
100
AcDbLine
 10
369.58
 20
586.8671069427
 30
0.0
 11
369.58
 21
580.8671069427
 31
0.0
  0
LINE
  5
6F
330
1F
100
AcDbEntity
  8
0
  6
Continuous
 62
     7
370
    30
100
AcDbLine
 10
624.28
 20
586.8671069427
 30
0.0
 11
624.28
 21
580.8671069427
 31
0.0
  0
LINE
  5
70
330
1F
100
AcDbEntity
  8
0
  6
Continuous
 62
     7
370
    30
100
AcDbLine
 10
675.22
 20
586.8671069427
 30
0.0
 11
675.22
 21
580.8671069427
 31
0.0
  0
LINE
  5
71
330
1F
100
AcDbEntity
  8
0
  6
Continuous
 62
     7
370
    30
100
AcDbLine
 10
318.64
 20
586.8671069427
 30
0.0
 11
318.64
 21
580.8671069427
 31
0.0
  0
LINE
  5
72
330
1F
100
AcDbEntity
  8
0
  6
Continuous
 62
     7
370
    30
100
AcDbLine
 10
573.34
 20
586.8671069427
 30
0.0
 11
573.34
 21
580.8671069427
 31
0.0
  0
LINE
  5
73
330
1F
100
AcDbEntity
  8
0
  6
Continuous
 62
     7
370
    30
100
AcDbLine
 10
267.7
 20
586.8671069427
 30
0.0
 11
267.7
 21
580.8671069427
 31
0.0
  0
LINE
  5
74
330
1F
100
AcDbEntity
  8
0
  6
Continuous
 62
     7
370
    30
100
AcDbLine
 10
63.94
 20
586.8671069427
 30
0.0
 11
63.94
 21
580.8671069427
 31
0.0
  0
LINE
  5
75
330
1F
100
AcDbEntity
  8
0
  6
Continuous
 62
     7
370
    30
100
AcDbLine
 10
828.0
 20
64.5071069427
 30
0.0
 11
834.0
 21
64.5071069427
 31
0.0
  0
LINE
  5
76
330
1F
100
AcDbEntity
  8
0
  6
Continuous
 62
     7
370
    30
100
AcDbLine
 10
7.0
 20
167.7871069427
 30
0.0
 11
13.0
 21
167.7871069427
 31
0.0
  0
LINE
  5
77
330
1F
100
AcDbEntity
  8
0
  6
Continuous
 62
     7
370
    30
100
AcDbLine
 10
13.0
 20
586.8671069427
 30
0.0
 11
13.0
 21
580.8671069427
 31
0.0
  0
LINE
  5
78
330
1F
100
AcDbEntity
  8
0
  6
Continuous
 62
     7
370
    30
100
AcDbLine
 10
7.0
 20
477.6271069427
 30
0.0
 11
13.0
 21
477.6271069427
 31
0.0
  0
LINE
  5
79
330
1F
100
AcDbEntity
  8
0
  6
Continuous
 62
     7
370
    30
100
AcDbLine
 10
7.0
 20
529.2671069427
 30
0.0
 11
13.0
 21
529.2671069427
 31
0.0
  0
LINE
  5
7A
330
1F
100
AcDbEntity
  8
0
  6
Continuous
 62
     7
370
    30
100
AcDbLine
 10
7.0
 20
374.3471069427
 30
0.0
 11
13.0
 21
374.3471069427
 31
0.0
  0
LINE
  5
7B
330
1F
100
AcDbEntity
  8
0
  6
Continuous
 62
     7
370
    30
100
AcDbLine
 10
828.0
 20
580.8671069427
 30
0.0
 11
834.0
 21
580.8671069427
 31
0.0
  0
LINE
  5
7C
330
1F
100
AcDbEntity
  8
0
  6
Continuous
 62
     7
370
    30
100
AcDbLine
 10
7.0
 20
425.9871069427
 30
0.0
 11
13.0
 21
425.9871069427
 31
0.0
  0
LINE
  5
7D
330
1F
100
AcDbEntity
  8
0
  6
Continuous
 62
     7
370
    30
100
AcDbLine
 10
13.0
 20
580.8671069427
 30
0.0
 11
828.0
 21
580.8671069427
 31
0.0
  0
LINE
  5
7E
330
1F
100
AcDbEntity
  8
0
  6
Continuous
 62
     7
370
    30
100
AcDbLine
 10
7.0
 20
64.5071069427
 30
0.0
 11
13.0
 21
64.5071069427
 31
0.0
  0
LINE
  5
7F
330
1F
100
AcDbEntity
  8
0
  6
Continuous
 62
     7
370
    30
100
AcDbLine
 10
7.0
 20
219.4271069427
 30
0.0
 11
13.0
 21
219.4271069427
 31
0.0
  0
LINE
  5
80
330
1F
100
AcDbEntity
  8
0
  6
Continuous
 62
     7
370
    30
100
AcDbLine
 10
7.0
 20
271.0671069427
 30
0.0
 11
13.0
 21
271.0671069427
 31
0.0
  0
LINE
  5
81
330
1F
100
AcDbEntity
  8
0
  6
Continuous
 62
     7
370
    30
100
AcDbLine
 10
7.0
 20
322.7071069427
 30
0.0
 11
13.0
 21
322.7071069427
 31
0.0
  0
LINE
  5
82
330
1F
100
AcDbEntity
  8
0
  6
Continuous
 62
     7
370
    30
100
AcDbLine
 10
828.0
 20
586.8671069427
 30
0.0
 11
828.0
 21
580.8671069427
 31
0.0
  0
LINE
  5
83
330
1F
100
AcDbEntity
  8
0
  6
Continuous
 62
     7
370
    30
100
AcDbLine
 10
7.0
 20
116.1471069427
 30
0.0
 11
13.0
 21
116.1471069427
 31
0.0
  0
LINE
  5
84
330
1F
100
AcDbEntity
  8
FORMAT
100
AcDbLine
 10
420.5
 20
12.8671069427
 30
0.0
 11
420.5
 21
4.8671069427
 31
0.0
  0
LINE
  5
85
330
1F
100
AcDbEntity
  8
FORMAT
100
AcDbLine
 10
210.25
 20
12.8671069427
 30
0.0
 11
210.25
 21
4.8671069427
 31
0.0
  0
LINE
  5
86
330
1F
100
AcDbEntity
  8
FORMAT
  6
Continuous
 62
     7
370
     0
100
AcDbLine
 10
644.0
 20
12.8671069427
 30
0.0
 11
644.0
 21
4.8671069427
 31
0.0
  0
LINE
  5
87
330
1F
100
AcDbEntity
  8
0
  6
Continuous
 62
     7
370
     0
100
AcDbLine
 10
210.25
 20
588.8671069427
 30
0.0
 11
210.25
 21
580.8671069427
 31
0.0
  0
LINE
  5
88
330
1F
100
AcDbEntity
  8
0
  6
Continuous
 62
     7
370
     0
100
AcDbLine
 10
420.5
 20
588.8671069427
 30
0.0
 11
420.5
 21
580.8671069427
 31
0.0
  0
LINE
  5
89
330
1F
100
AcDbEntity
  8
0
  6
Continuous
 62
     7
370
     0
100
AcDbLine
 10
630.75
 20
588.8671069427
 30
0.0
 11
630.75
 21
580.8671069427
 31
0.0
  0
LINE
  5
8A
330
1F
100
AcDbEntity
  8
FORMAT
100
AcDbLine
 10
828.0
 20
296.8671069427
 30
0.0
 11
836.0
 21
296.8671069427
 31
0.0
  0
LINE
  5
8B
330
1F
100
AcDbEntity
  8
0
  6
Continuous
 62
     7
370
     0
100
AcDbLine
 10
5.0
 20
296.8671069427
 30
0.0
 11
13.0
 21
296.8671069427
 31
0.0
  0
MTEXT
  5
8D
330
1F
100
AcDbEntity
  8
FORMAT
100
AcDbMText
 10
37.5504191961
 20
10.9423147578
 30
0.0
 40
2.6458333333
 41
0.0
 71
     1
 72
     1
  1
A
  7
SLDTEXTSTYLE0
 73
     1
 44
1.0
  0
MTEXT
  5
8E
330
1F
100
AcDbEntity
  8
FORMAT
100
AcDbMText
 10
828.9767730496
 20
40.3656938402
 30
0.0
 40
2.6458333333
 41
0.0
 71
     1
 72
     1
  1
11
  7
SLDTEXTSTYLE0
 73
     1
 44
1.0
  0
MTEXT
  5
8F
330
1F
100
AcDbEntity
  8
FORMAT
100
AcDbMText
 10
88.4904191961
 20
10.9423147578
 30
0.0
 40
2.6458333333
 41
0.0
 71
     1
 72
     1
  1
B
  7
SLDTEXTSTYLE0
 73
     1
 44
1.0
  0
MTEXT
  5
90
330
1F
100
AcDbEntity
  8
FORMAT
100
AcDbMText
 10
139.4304191961
 20
10.9423147578
 30
0.0
 40
2.6458333333
 41
0.0
 71
     1
 72
     1
  1
C
  7
SLDTEXTSTYLE0
 73
     1
 44
1.0
  0
MTEXT
  5
91
330
1F
100
AcDbEntity
  8
FORMAT
100
AcDbMText
 10
190.3704191961
 20
10.9423147578
 30
0.0
 40
2.6458333333
 41
0.0
 71
     1
 72
     1
  1
D
  7
SLDTEXTSTYLE0
 73
     1
 44
1.0
  0
MTEXT
  5
92
330
1F
100
AcDbEntity
  8
FORMAT
100
AcDbMText
 10
241.3104191961
 20
10.9423147578
 30
0.0
 40
2.6458333333
 41
0.0
 71
     1
 72
     1
  1
E
  7
SLDTEXTSTYLE0
 73
     1
 44
1.0
  0
MTEXT
  5
93
330
1F
100
AcDbEntity
  8
FORMAT
100
AcDbMText
 10
292.2504191961
 20
10.9423147578
 30
0.0
 40
2.6458333333
 41
0.0
 71
     1
 72
     1
  1
F
  7
SLDTEXTSTYLE0
 73
     1
 44
1.0
  0
MTEXT
  5
94
330
1F
100
AcDbEntity
  8
FORMAT
100
AcDbMText
 10
343.1904191961
 20
10.9423147578
 30
0.0
 40
2.6458333333
 41
0.0
 71
     1
 72
     1
  1
G
  7
SLDTEXTSTYLE0
 73
     1
 44
1.0
  0
MTEXT
  5
95
330
1F
100
AcDbEntity
  8
FORMAT
100
AcDbMText
 10
394.1304191961
 20
10.9423147578
 30
0.0
 40
2.6458333333
 41
0.0
 71
     1
 72
     1
  1
H
  7
SLDTEXTSTYLE0
 73
     1
 44
1.0
  0
MTEXT
  5
96
330
1F
100
AcDbEntity
  8
FORMAT
100
AcDbMText
 10
445.0704191961
 20
10.9423147578
 30
0.0
 40
2.6458333333
 41
0.0
 71
     1
 72
     1
  1
I
  7
SLDTEXTSTYLE0
 73
     1
 44
1.0
  0
MTEXT
  5
97
330
1F
100
AcDbEntity
  8
FORMAT
100
AcDbMText
 10
496.0104191961
 20
10.9423147578
 30
0.0
 40
2.6458333333
 41
0.0
 71
     1
 72
     1
  1
J
  7
SLDTEXTSTYLE0
 73
     1
 44
1.0
  0
MTEXT
  5
98
330
1F
100
AcDbEntity
  8
FORMAT
100
AcDbMText
 10
546.9504191961
 20
10.9423147578
 30
0.0
 40
2.6458333333
 41
0.0
 71
     1
 72
     1
  1
K
  7
SLDTEXTSTYLE0
 73
     1
 44
1.0
  0
MTEXT
  5
99
330
1F
100
AcDbEntity
  8
FORMAT
100
AcDbMText
 10
597.8904191961
 20
10.9423147578
 30
0.0
 40
2.6458333333
 41
0.0
 71
     1
 72
     1
  1
L
  7
SLDTEXTSTYLE0
 73
     1
 44
1.0
  0
MTEXT
  5
9A
330
1F
100
AcDbEntity
  8
FORMAT
100
AcDbMText
 10
648.8304191961
 20
10.9423147578
 30
0.0
 40
2.6458333333
 41
0.0
 71
     1
 72
     1
  1
M
  7
SLDTEXTSTYLE0
 73
     1
 44
1.0
  0
MTEXT
  5
9B
330
1F
100
AcDbEntity
  8
FORMAT
100
AcDbMText
 10
699.7704191961
 20
10.9423147578
 30
0.0
 40
2.6458333333
 41
0.0
 71
     1
 72
     1
  1
N
  7
SLDTEXTSTYLE0
 73
     1
 44
1.0
  0
MTEXT
  5
9C
330
1F
100
AcDbEntity
  8
FORMAT
100
AcDbMText
 10
750.7104191961
 20
10.9423147578
 30
0.0
 40
2.6458333333
 41
0.0
 71
     1
 72
     1
  1
O
  7
SLDTEXTSTYLE0
 73
     1
 44
1.0
  0
MTEXT
  5
9D
330
1F
100
AcDbEntity
  8
FORMAT
100
AcDbMText
 10
801.6504191961
 20
10.9423147578
 30
0.0
 40
2.6458333333
 41
0.0
 71
     1
 72
     1
  1
P
  7
SLDTEXTSTYLE0
 73
     1
 44
1.0
  0
MTEXT
  5
9E
330
1F
100
AcDbEntity
  8
FORMAT
100
AcDbMText
 10
828.9767730496
 20
92.0056938402
 30
0.0
 40
2.6458333333
 41
0.0
 71
     1
 72
     1
  1
10
  7
SLDTEXTSTYLE0
 73
     1
 44
1.0
  0
MTEXT
  5
9F
330
1F
100
AcDbEntity
  8
FORMAT
100
AcDbMText
 10
829.9767730496
 20
143.6456938402
 30
0.0
 40
2.6458333333
 41
0.0
 71
     1
 72
     1
  1
9
  7
SLDTEXTSTYLE0
 73
     1
 44
1.0
  0
MTEXT
  5
A0
330
1F
100
AcDbEntity
  8
FORMAT
100
AcDbMText
 10
829.9767730496
 20
195.2856938402
 30
0.0
 40
2.6458333333
 41
0.0
 71
     1
 72
     1
  1
8
  7
SLDTEXTSTYLE0
 73
     1
 44
1.0
  0
MTEXT
  5
A1
330
1F
100
AcDbEntity
  8
FORMAT
100
AcDbMText
 10
829.9767730496
 20
246.9256938402
 30
0.0
 40
2.6458333333
 41
0.0
 71
     1
 72
     1
  1
7
  7
SLDTEXTSTYLE0
 73
     1
 44
1.0
  0
MTEXT
  5
A2
330
1F
100
AcDbEntity
  8
FORMAT
100
AcDbMText
 10
829.9767730496
 20
296.5656938402
 30
0.0
 40
2.6458333333
 41
0.0
 71
     1
 72
     1
  1
6
  7
SLDTEXTSTYLE0
 73
     1
 44
1.0
  0
MTEXT
  5
A3
330
1F
100
AcDbEntity
  8
FORMAT
100
AcDbMText
 10
829.9767730496
 20
350.2056938402
 30
0.0
 40
2.6458333333
 41
0.0
 71
     1
 72
     1
  1
5
  7
SLDTEXTSTYLE0
 73
     1
 44
1.0
  0
MTEXT
  5
A4
330
1F
100
AcDbEntity
  8
FORMAT
100
AcDbMText
 10
829.9767730496
 20
401.8456938402
 30
0.0
 40
2.6458333333
 41
0.0
 71
     1
 72
     1
  1
4
  7
SLDTEXTSTYLE0
 73
     1
 44
1.0
  0
MTEXT
  5
A5
330
1F
100
AcDbEntity
  8
FORMAT
100
AcDbMText
 10
829.9767730496
 20
453.4856938402
 30
0.0
 40
2.6458333333
 41
0.0
 71
     1
 72
     1
  1
3
  7
SLDTEXTSTYLE0
 73
     1
 44
1.0
  0
MTEXT
  5
A6
330
1F
100
AcDbEntity
  8
FORMAT
100
AcDbMText
 10
829.9767730496
 20
505.1256938402
 30
0.0
 40
2.6458333333
 41
0.0
 71
     1
 72
     1
  1
2
  7
SLDTEXTSTYLE0
 73
     1
 44
1.0
  0
MTEXT
  5
A7
330
1F
100
AcDbEntity
  8
FORMAT
100
AcDbMText
 10
829.9767730496
 20
556.7656938402
 30
0.0
 40
2.6458333333
 41
0.0
 71
     1
 72
     1
  1
1
  7
SLDTEXTSTYLE0
 73
     1
 44
1.0
  0
MTEXT
  5
A8
330
1F
100
AcDbEntity
  8
FORMAT
100
AcDbMText
 10
343.1904191961
 20
584.9423147578
 30
0.0
 40
2.6458333333
 41
0.0
 71
     1
 72
     1
  1
G
  7
SLDTEXTSTYLE0
 73
     1
 44
1.0
  0
MTEXT
  5
A9
330
1F
100
AcDbEntity
  8
FORMAT
100
AcDbMText
 10
445.0704191961
 20
584.9423147578
 30
0.0
 40
2.6458333333
 41
0.0
 71
     1
 72
     1
  1
I
  7
SLDTEXTSTYLE0
 73
     1
 44
1.0
  0
MTEXT
  5
AA
330
1F
100
AcDbEntity
  8
FORMAT
100
AcDbMText
 10
750.7104191961
 20
584.9423147578
 30
0.0
 40
2.6458333333
 41
0.0
 71
     1
 72
     1
  1
O
  7
SLDTEXTSTYLE0
 73
     1
 44
1.0
  0
MTEXT
  5
AB
330
1F
100
AcDbEntity
  8
FORMAT
100
AcDbMText
 10
139.4304191961
 20
584.9423147578
 30
0.0
 40
2.6458333333
 41
0.0
 71
     1
 72
     1
  1
C
  7
SLDTEXTSTYLE0
 73
     1
 44
1.0
  0
MTEXT
  5
AC
330
1F
100
AcDbEntity
  8
FORMAT
100
AcDbMText
 10
801.6504191961
 20
584.9423147578
 30
0.0
 40
2.6458333333
 41
0.0
 71
     1
 72
     1
  1
P
  7
SLDTEXTSTYLE0
 73
     1
 44
1.0
  0
MTEXT
  5
AD
330
1F
100
AcDbEntity
  8
FORMAT
100
AcDbMText
 10
241.3104191961
 20
584.9423147578
 30
0.0
 40
2.6458333333
 41
0.0
 71
     1
 72
     1
  1
E
  7
SLDTEXTSTYLE0
 73
     1
 44
1.0
  0
MTEXT
  5
AE
330
1F
100
AcDbEntity
  8
FORMAT
100
AcDbMText
 10
546.9504191961
 20
584.9423147578
 30
0.0
 40
2.6458333333
 41
0.0
 71
     1
 72
     1
  1
K
  7
SLDTEXTSTYLE0
 73
     1
 44
1.0
  0
MTEXT
  5
AF
330
1F
100
AcDbEntity
  8
FORMAT
100
AcDbMText
 10
648.8304191961
 20
584.9423147578
 30
0.0
 40
2.6458333333
 41
0.0
 71
     1
 72
     1
  1
M
  7
SLDTEXTSTYLE0
 73
     1
 44
1.0
  0
MTEXT
  5
B0
330
1F
100
AcDbEntity
  8
FORMAT
100
AcDbMText
 10
37.5504191961
 20
584.9423147578
 30
0.0
 40
2.6458333333
 41
0.0
 71
     1
 72
     1
  1
A
  7
SLDTEXTSTYLE0
 73
     1
 44
1.0
  0
MTEXT
  5
B1
330
1F
100
AcDbEntity
  8
FORMAT
100
AcDbMText
 10
88.4904191961
 20
584.9423147578
 30
0.0
 40
2.6458333333
 41
0.0
 71
     1
 72
     1
  1
B
  7
SLDTEXTSTYLE0
 73
     1
 44
1.0
  0
MTEXT
  5
B2
330
1F
100
AcDbEntity
  8
FORMAT
100
AcDbMText
 10
190.3704191961
 20
584.9423147578
 30
0.0
 40
2.6458333333
 41
0.0
 71
     1
 72
     1
  1
D
  7
SLDTEXTSTYLE0
 73
     1
 44
1.0
  0
MTEXT
  5
B3
330
1F
100
AcDbEntity
  8
FORMAT
100
AcDbMText
 10
292.2504191961
 20
584.9423147578
 30
0.0
 40
2.6458333333
 41
0.0
 71
     1
 72
     1
  1
F
  7
SLDTEXTSTYLE0
 73
     1
 44
1.0
  0
MTEXT
  5
B4
330
1F
100
AcDbEntity
  8
FORMAT
100
AcDbMText
 10
394.1304191961
 20
584.9423147578
 30
0.0
 40
2.6458333333
 41
0.0
 71
     1
 72
     1
  1
H
  7
SLDTEXTSTYLE0
 73
     1
 44
1.0
  0
MTEXT
  5
B5
330
1F
100
AcDbEntity
  8
FORMAT
100
AcDbMText
 10
496.0104191961
 20
584.9423147578
 30
0.0
 40
2.6458333333
 41
0.0
 71
     1
 72
     1
  1
J
  7
SLDTEXTSTYLE0
 73
     1
 44
1.0
  0
MTEXT
  5
B6
330
1F
100
AcDbEntity
  8
FORMAT
100
AcDbMText
 10
597.8904191961
 20
584.9423147578
 30
0.0
 40
2.6458333333
 41
0.0
 71
     1
 72
     1
  1
L
  7
SLDTEXTSTYLE0
 73
     1
 44
1.0
  0
MTEXT
  5
B7
330
1F
100
AcDbEntity
  8
FORMAT
100
AcDbMText
 10
699.7704191961
 20
584.9423147578
 30
0.0
 40
2.6458333333
 41
0.0
 71
     1
 72
     1
  1
N
  7
SLDTEXTSTYLE0
 73
     1
 44
1.0
  0
MTEXT
  5
B8
330
1F
100
AcDbEntity
  8
FORMAT
100
AcDbMText
 10
8.9767730496
 20
556.7656938402
 30
0.0
 40
2.6458333333
 41
0.0
 71
     1
 72
     1
  1
1
  7
SLDTEXTSTYLE0
 73
     1
 44
1.0
  0
MTEXT
  5
B9
330
1F
100
AcDbEntity
  8
FORMAT
100
AcDbMText
 10
7.9767730496
 20
92.0056938402
 30
0.0
 40
2.6458333333
 41
0.0
 71
     1
 72
     1
  1
10
  7
SLDTEXTSTYLE0
 73
     1
 44
1.0
  0
MTEXT
  5
BA
330
1F
100
AcDbEntity
  8
FORMAT
100
AcDbMText
 10
8.9767730496
 20
401.8456938402
 30
0.0
 40
2.6458333333
 41
0.0
 71
     1
 72
     1
  1
4
  7
SLDTEXTSTYLE0
 73
     1
 44
1.0
  0
MTEXT
  5
BB
330
1F
100
AcDbEntity
  8
FORMAT
100
AcDbMText
 10
8.9767730496
 20
246.9256938402
 30
0.0
 40
2.6458333333
 41
0.0
 71
     1
 72
     1
  1
7
  7
SLDTEXTSTYLE0
 73
     1
 44
1.0
  0
MTEXT
  5
BC
330
1F
100
AcDbEntity
  8
FORMAT
100
AcDbMText
 10
8.9767730496
 20
505.1256938402
 30
0.0
 40
2.6458333333
 41
0.0
 71
     1
 72
     1
  1
2
  7
SLDTEXTSTYLE0
 73
     1
 44
1.0
  0
MTEXT
  5
BD
330
1F
100
AcDbEntity
  8
FORMAT
100
AcDbMText
 10
7.9767730496
 20
40.3656938402
 30
0.0
 40
2.6458333333
 41
0.0
 71
     1
 72
     1
  1
11
  7
SLDTEXTSTYLE0
 73
     1
 44
1.0
  0
MTEXT
  5
BE
330
1F
100
AcDbEntity
  8
FORMAT
100
AcDbMText
 10
8.9767730496
 20
195.2856938402
 30
0.0
 40
2.6458333333
 41
0.0
 71
     1
 72
     1
  1
8
  7
SLDTEXTSTYLE0
 73
     1
 44
1.0
  0
MTEXT
  5
BF
330
1F
100
AcDbEntity
  8
FORMAT
100
AcDbMText
 10
8.9767730496
 20
350.2056938402
 30
0.0
 40
2.6458333333
 41
0.0
 71
     1
 72
     1
  1
5
  7
SLDTEXTSTYLE0
 73
     1
 44
1.0
  0
MTEXT
  5
C0
330
1F
100
AcDbEntity
  8
FORMAT
100
AcDbMText
 10
8.9767730496
 20
143.6456938402
 30
0.0
 40
2.6458333333
 41
0.0
 71
     1
 72
     1
  1
9
  7
SLDTEXTSTYLE0
 73
     1
 44
1.0
  0
MTEXT
  5
C1
330
1F
100
AcDbEntity
  8
FORMAT
100
AcDbMText
 10
8.9767730496
 20
296.5656938402
 30
0.0
 40
2.6458333333
 41
0.0
 71
     1
 72
     1
  1
6
  7
SLDTEXTSTYLE0
 73
     1
 44
1.0
  0
MTEXT
  5
C2
330
1F
100
AcDbEntity
  8
FORMAT
100
AcDbMText
 10
8.9767730496
 20
453.4856938402
 30
0.0
 40
2.6458333333
 41
0.0
 71
     1
 72
     1
  1
3
  7
SLDTEXTSTYLE0
 73
     1
 44
1.0
  0
LINE
  5
C3
330
1F
100
AcDbEntity
  8
0
  6
Continuous
 62
     7
370
    15
100
AcDbLine
 10
-126.7837535541
 20
1070.1214412501
 30
0.0
 11
-388.9391671817
 21
807.9659978202
 31
0.0
  0
LINE
  5
C4
330
1F
100
AcDbEntity
  8
0
  6
Continuous
 62
     7
370
    15
100
AcDbLine
 10
429.5669544537
 20
826.2704650214
 30
0.0
 11
408.0669034322
 21
826.2704650214
 31
0.0
  0
LINE
  5
C5
330
1F
100
AcDbEntity
  8
0
  6
Continuous
 62
     7
370
    15
100
AcDbLine
 10
-442.9330628316
 20
826.2704650214
 30
0.0
 11
-464.4330691497
 21
826.2704650214
 31
0.0
  0
LINE
  5
C6
330
1F
100
AcDbEntity
  8
0
  6
Continuous
 62
     7
370
    15
100
AcDbLine
 10
-464.4330691497
 20
246.2704817107
 30
0.0
 11
-442.9330628316
 21
246.2704817107
 31
0.0
  0
LINE
  5
C7
330
1F
100
AcDbEntity
  8
0
  6
Continuous
 62
     7
370
    15
100
AcDbLine
 10
408.0669034322
 20
246.2704817107
 30
0.0
 11
429.5669544537
 21
246.2704817107
 31
0.0
  0
LINE
  5
C8
330
1F
100
AcDbEntity
  8
0
  6
Continuous
 62
     7
370
    15
100
AcDbLine
 10
-52.1693032186
 20
1158.8780025294
 30
0.0
 11
-54.7517787616
 21
1155.8035949519
 31
0.0
  0
LINE
  5
C9
330
1F
100
AcDbEntity
  8
0
  6
Continuous
 62
     7
370
    15
100
AcDbLine
 10
349.8604644139
 20
756.270472174
 30
0.0
 11
350.1744616826
 21
756.5342376283
 31
0.0
  0
LINE
  5
CA
330
1F
100
AcDbEntity
  8
0
  6
Continuous
 62
     7
370
    15
100
AcDbLine
 10
-368.4330683152
 20
261.2704674056
 30
0.0
 11
-274.345184718
 21
261.2704674056
 31
0.0
  0
ARC
  5
CB
330
1F
100
AcDbEntity
  8
0
  6
Continuous
 62
     7
370
    15
100
AcDbCircle
 10
-135.2690290401
 20
1078.6066974266
 30
0.0
 40
12.00000000000671
100
AcDbArc
 50
315.0
 51
317.4872105438
  0
ARC
  5
CC
330
1F
100
AcDbEntity
  8
0
  6
Continuous
 62
     7
370
    15
100
AcDbCircle
 10
-368.4330674808
 20
290.2704733661
 30
0.0
 40
29.0
100
AcDbArc
 50
180.0
 51
270.0
  0
ARC
  5
CD
330
1F
100
AcDbEntity
  8
0
  6
Continuous
 62
     7
370
    15
100
AcDbCircle
 10
100.9193129857
 20
909.6228538326
 30
0.0
 40
269.0
100
AcDbArc
 50
338.7434045682
 51
111.2565954318
  0
LINE
  5
CE
330
1F
100
AcDbEntity
  8
0
  6
Continuous
 62
     7
370
    15
100
AcDbLine
 10
-464.4330691497
 20
780.2704761079
 30
0.0
 11
-467.4330603282
 21
777.2704700282
 31
0.0
  0
LINE
  5
CF
330
1F
100
AcDbEntity
  8
0
  6
Continuous
 62
     7
370
    15
100
AcDbLine
 10
-467.4330603282
 20
295.2704767039
 30
0.0
 11
-464.4330691497
 21
292.2704706243
 31
0.0
  0
LINE
  5
D0
330
1F
100
AcDbEntity
  8
0
  6
Continuous
 62
     7
370
    15
100
AcDbLine
 10
429.5669544537
 20
292.2704706243
 30
0.0
 11
432.5669158299
 21
295.2704767039
 31
0.0
  0
LINE
  5
D1
330
1F
100
AcDbEntity
  8
0
  6
Continuous
 62
     7
370
    15
100
AcDbLine
 10
432.5669158299
 20
777.2704700282
 30
0.0
 11
429.5669544537
 21
780.2704761079
 31
0.0
  0
ARC
  5
D2
330
1F
100
AcDbEntity
  8
0
  6
Continuous
 62
     7
370
    15
100
AcDbCircle
 10
-430.9330674808
 20
778.2704733661
 30
0.0
 40
12.0
100
AcDbArc
 50
180.0
 51
270.0
  0
ARC
  5
D3
330
1F
100
AcDbEntity
  8
0
  6
Continuous
 62
     7
370
    15
100
AcDbCircle
 10
-430.9330674808
 20
294.2704733661
 30
0.0
 40
12.0
100
AcDbArc
 50
90.0
 51
180.0
  0
ARC
  5
D4
330
1F
100
AcDbEntity
  8
0
  6
Continuous
 62
     7
370
    15
100
AcDbCircle
 10
-409.4330674808
 20
294.2704733661
 30
0.0
 40
12.0
100
AcDbArc
 50
0.0
 51
90.0
  0
ARC
  5
D5
330
1F
100
AcDbEntity
  8
0
  6
Continuous
 62
     7
370
    15
100
AcDbCircle
 10
396.0669325192
 20
304.2704733661
 30
0.0
 40
12.00000000000006
100
AcDbArc
 50
0.0
 51
90.0
  0
ARC
  5
D6
330
1F
100
AcDbEntity
  8
0
  6
Continuous
 62
     7
370
    15
100
AcDbCircle
 10
396.0669325192
 20
768.2704733661
 30
0.0
 40
12.0
100
AcDbArc
 50
270.0
 51
0.0
  0
LINE
  5
D7
330
1F
100
AcDbEntity
  8
0
  6
Continuous
 62
     7
370
    15
100
AcDbLine
 10
-409.4330619971
 20
766.2704775384
 30
0.0
 11
-430.9330683152
 21
766.2704775384
 31
0.0
  0
LINE
  5
D8
330
1F
100
AcDbEntity
  8
0
  6
Continuous
 62
     7
370
    15
100
AcDbLine
 10
-430.9330683152
 20
306.2704691937
 30
0.0
 11
-409.4330619971
 21
306.2704691937
 31
0.0
  0
LINE
  5
D9
330
1F
100
AcDbEntity
  8
0
  6
Continuous
 62
     7
370
    15
100
AcDbLine
 10
396.0669387181
 20
756.270472174
 30
0.0
 11
371.0784662564
 21
756.270472174
 31
0.0
  0
LINE
  5
DA
330
1F
100
AcDbEntity
  8
0
  6
Continuous
 62
     7
370
    15
100
AcDbLine
 10
350.4382122357
 20
756.270472174
 30
0.0
 11
349.8604644139
 21
756.270472174
 31
0.0
  0
LINE
  5
DB
330
1F
100
AcDbEntity
  8
0
  6
Continuous
 62
     7
370
    15
100
AcDbLine
 10
-102.3742210071
 20
316.2704745582
 30
0.0
 11
396.0669387181
 21
316.2704745582
 31
0.0
  0
ARC
  5
DC
330
1F
100
AcDbEntity
  8
0
  6
Continuous
 62
     7
370
    15
100
AcDbCircle
 10
-368.4330674808
 20
787.4599029287
 30
0.0
 40
29.00000000000005
100
AcDbArc
 50
135.0478651896
 51
180.0
  0
ARC
  5
DD
330
1F
100
AcDbEntity
  8
0
  6
Continuous
 62
     7
370
    15
100
AcDbCircle
 10
-409.4330674808
 20
778.2704733661
 30
0.0
 40
12.0
100
AcDbArc
 50
270.0
 51
0.0
  0
LINE
  5
DE
330
1F
100
AcDbEntity
  8
0
  6
Continuous
 62
     7
370
    15
100
AcDbLine
 10
153.9523351987
 20
918.8152293017
 30
0.0
 11
168.0944610436
 21
932.957384949
 31
0.0
  0
LINE
  5
DF
330
1F
100
AcDbEntity
  8
0
  6
Continuous
 62
     7
370
    15
100
AcDbLine
 10
153.9523351987
 20
918.8152293017
 30
0.0
 11
143.3457184632
 21
929.4218460372
 31
0.0
  0
LINE
  5
E0
330
1F
100
AcDbEntity
  8
0
  6
Continuous
 62
     7
370
    15
100
AcDbLine
 10
143.3457184632
 20
929.4218460372
 30
0.0
 11
140.1637245019
 21
932.6038101962
 31
0.0
  0
LINE
  5
E1
330
1F
100
AcDbEntity
  8
0
  6
Continuous
 62
     7
370
    15
100
AcDbLine
 10
140.1637245019
 20
932.6038101962
 30
0.0
 11
154.3058801492
 21
946.7459658435
 31
0.0
  0
LINE
  5
E2
330
1F
100
AcDbEntity
  8
0
  6
Continuous
 62
     7
370
    15
100
AcDbLine
 10
168.0944610436
 20
932.957384949
 30
0.0
 11
154.3058801492
 21
946.7459658435
 31
0.0
  0
LINE
  5
E3
330
1F
100
AcDbEntity
  8
0
  6
Continuous
 62
     7
370
    15
100
AcDbLine
 10
78.9990175565
 20
865.0751153281
 30
0.0
 11
89.6056044896
 21
854.468528395
 31
0.0
  0
LINE
  5
E4
330
1F
100
AcDbEntity
  8
0
  6
Continuous
 62
     7
370
    15
100
AcDbLine
 10
143.3457184632
 20
929.4218460372
 30
0.0
 11
78.9990175565
 21
865.0751153281
 31
0.0
  0
LINE
  5
E5
330
1F
100
AcDbEntity
  8
0
  6
Continuous
 62
     7
370
    15
100
AcDbLine
 10
153.9523351987
 20
918.8152293017
 30
0.0
 11
89.6056044896
 21
854.468528395
 31
0.0
  0
LINE
  5
E6
330
1F
100
AcDbEntity
  8
0
  6
Continuous
 62
     7
370
    15
100
AcDbLine
 10
120.7183051904
 20
952.0492593101
 30
0.0
 11
110.1116884549
 21
962.6558760455
 31
0.0
  0
LINE
  5
E7
330
1F
100
AcDbEntity
  8
0
  6
Continuous
 62
     7
370
    15
100
AcDbLine
 10
120.7183051904
 20
952.0492593101
 30
0.0
 11
56.3715744813
 21
887.7025584033
 31
0.0
  0
LINE
  5
E8
330
1F
100
AcDbEntity
  8
0
  6
Continuous
 62
     7
370
    15
100
AcDbLine
 10
56.3715744813
 20
887.7025584033
 30
0.0
 11
45.7649875481
 21
898.3091453364
 31
0.0
  0
LINE
  5
E9
330
1F
100
AcDbEntity
  8
0
  6
Continuous
 62
     7
370
    15
100
AcDbLine
 10
110.1116884549
 20
962.6558760455
 30
0.0
 11
45.7649875481
 21
898.3091453364
 31
0.0
  0
LINE
  5
EA
330
1F
100
AcDbEntity
  8
0
  6
Continuous
 62
     7
370
    15
100
AcDbLine
 10
110.1116884549
 20
962.6558760455
 30
0.0
 11
124.2538441022
 21
976.7980018905
 31
0.0
  0
LINE
  5
EB
330
1F
100
AcDbEntity
  8
0
  6
Continuous
 62
     7
370
    15
100
AcDbLine
 10
123.9002693494
 20
948.8672653487
 30
0.0
 11
138.0424249966
 21
963.009420996
 31
0.0
  0
LINE
  5
EC
330
1F
100
AcDbEntity
  8
0
  6
Continuous
 62
     7
370
    15
100
AcDbLine
 10
138.0424249966
 20
963.009420996
 30
0.0
 11
124.2538441022
 21
976.7980018905
 31
0.0
  0
LINE
  5
ED
330
1F
100
AcDbEntity
  8
0
  6
Continuous
 62
     7
370
    15
100
AcDbLine
 10
123.9002693494
 20
948.8672653487
 30
0.0
 11
120.7183051904
 21
952.0492593101
 31
0.0
  0
LINE
  5
EE
330
1F
100
AcDbEntity
  8
0
  6
Continuous
 62
     7
370
    15
100
AcDbLine
 10
192.9673899014
 20
957.8302840045
 30
0.0
 11
170.9228802521
 21
935.7858041575
 31
0.0
  0
LWPOLYLINE
  5
EF
330
1F
100
AcDbEntity
  8
0
  6
Continuous
 62
     7
370
    15
100
AcDbPolyline
 90
       16
 70
   128
 43
0.0
 10
170.9228802521
 20
935.7858041575
 10
170.8957601388
 20
935.8129242709
 10
170.8147276242
 20
935.8939567855
 10
170.6806171735
 20
936.0280672362
 10
170.494948705
 20
936.2137357047
 10
170.2597487767
 20
936.448935633
 10
169.9775803883
 20
936.7311338237
 10
169.6515131791
 20
937.0571712306
 10
169.28515323
 20
937.4235311797
 10
168.8825238545
 20
937.8261605552
 10
168.4480059941
 20
938.2606784156
 10
167.9863680203
 20
938.7223163894
 10
167.5027061303
 20
939.2060080817
 10
167.0022357304
 20
939.7064486793
 10
166.490529855
 20
940.2181545547
 10
165.9731317361
 20
940.7355526736
  0
LINE
  5
F0
330
1F
100
AcDbEntity
  8
0
  6
Continuous
 62
     7
370
    15
100
AcDbLine
 10
165.9731317361
 20
940.7355526736
 30
0.0
 11
188.4506691296
 21
963.2130900672
 31
0.0
  0
ELLIPSE
  5
F1
330
1F
100
AcDbEntity
  8
0
  6
Continuous
 62
     7
370
    15
100
AcDbEllipse
 10
188.0176278883
 20
962.7800432382
 30
0.0
 11
4.949747468305845
 21
-4.94974746830576
 31
0.0
210
0.0
220
0.0
230
1.0
 40
0.0874886635
 41
0.0
 42
1.570796326794899
  0
LINE
  5
F2
330
1F
100
AcDbEntity
  8
0
  6
Continuous
 62
     7
370
    15
100
AcDbLine
 10
154.5095492204
 20
997.1542099765
 30
0.0
 11
132.0320118268
 21
974.6766725829
 31
0.0
  0
LWPOLYLINE
  5
F3
330
1F
100
AcDbEntity
  8
0
  6
Continuous
 62
     7
370
    15
100
AcDbPolyline
 90
       16
 70
   128
 43
0.0
 10
132.0320118268
 20
974.6766725829
 10
131.5146137078
 20
975.1940707019
 10
131.0029078324
 20
975.7057765773
 10
130.5024672349
 20
976.2062469771
 10
130.0187755425
 20
976.6899088672
 10
129.5571375687
 20
977.151546841
 10
129.1226197083
 20
977.5860647014
 10
128.7199903329
 20
977.9886940768
 10
128.3536303838
 20
978.3550540259
 10
128.0275929768
 20
978.6811212352
 10
127.7453947861
 20
978.9632896235
 10
127.5101948579
 20
979.1984895518
 10
127.3245263894
 20
979.3841580203
 10
127.1904159386
 20
979.5182684711
 10
127.1093834241
 20
979.5993009856
 10
127.0822633107
 20
979.626421099
  0
LINE
  5
F4
330
1F
100
AcDbEntity
  8
0
  6
Continuous
 62
     7
370
    15
100
AcDbLine
 10
127.0822633107
 20
979.626421099
 30
0.0
 11
149.1267431577
 21
1001.6709307483
 31
0.0
  0
ELLIPSE
  5
F5
330
1F
100
AcDbEntity
  8
0
  6
Continuous
 62
     7
370
    15
100
AcDbEllipse
 10
154.0765023913
 20
996.7211687351
 30
0.0
 11
4.949747468305845
 21
-4.949747468305873
 31
0.0
210
0.0
220
0.0
230
1.0
 40
0.0874886635
 41
1.5707963267949
 42
3.141592653590081
  0
LINE
  5
F6
330
1F
100
AcDbEntity
  8
0
  6
Continuous
 62
     7
370
    15
100
AcDbLine
 10
165.9731317361
 20
940.7355526736
 30
0.0
 11
132.0320118268
 21
974.6766725829
 31
0.0
  0
LINE
  5
F7
330
1F
100
AcDbEntity
  8
0
  6
Continuous
 62
     7
370
    15
100
AcDbLine
 10
188.4506691296
 20
963.2130900672
 30
0.0
 11
154.5095492204
 21
997.1542099765
 31
0.0
  0
LWPOLYLINE
  5
F8
330
1F
100
AcDbEntity
  8
0
  6
Continuous
 62
     7
370
    15
100
AcDbPolyline
 90
       41
 70
   128
 43
0.0
 10
154.3058801492
 20
946.7459658435
 10
154.280816396
 20
946.7710295966
 10
154.2057741483
 20
946.8460718444
 10
154.0812004407
 20
946.970645552
 10
153.9078701337
 20
947.1439460567
 10
153.6868859132
 20
947.3649600795
 10
153.4195590813
 20
947.632257109
 10
153.1075883706
 20
947.9442576221
 10
152.7528513272
 20
948.2989946654
 10
152.3575533231
 20
948.6942628673
 10
151.9241381486
 20
949.1276780417
 10
151.4552880128
 20
949.5965579799
 10
150.9538639386
 20
950.097982054
 10
150.4229653676
 20
950.6288806251
 10
149.8658705552
 20
951.1859754375
 10
149.2860365708
 20
951.7658094218
 10
148.6869800885
 20
952.3648361018
 10
148.0724562009
 20
952.9793599895
 10
147.4462200005
 20
953.6055961898
 10
146.8121457894
 20
954.2396704009
 10
146.1741376717
 20
954.8776785186
 10
145.5361295541
 20
955.5156866363
 10
144.9020553429
 20
956.1497608474
 10
144.2758191426
 20
956.7759970477
 10
143.661295255
 20
957.3905209353
 10
143.062268575
 20
957.9895774177
 10
142.4824345906
 20
958.569411402
 10
141.9253397782
 20
959.1265062144
 10
141.3944412072
 20
959.6574047854
 10
140.893017133
 20
960.1588288596
 10
140.4241371949
 20
960.6276789954
 10
139.9907220204
 20
961.0610941699
 10
139.5954538186
 20
961.4563921741
 10
139.2407167752
 20
961.8111292174
 10
138.9287162621
 20
962.1230999282
 10
138.6614192326
 20
962.39042676
 10
138.4404052098
 20
962.6114109805
 10
138.2671047051
 20
962.7847412875
 10
138.1425309975
 20
962.9093149951
 10
138.0674887498
 20
962.9843572429
 10
138.0424249966
 20
963.009420996
  0
LWPOLYLINE
  5
F9
330
1F
100
AcDbEntity
  8
0
  6
Continuous
 62
     7
370
    15
100
AcDbPolyline
 90
       41
 70
   128
 43
0.0
 10
140.1637245019
 20
932.6038101962
 10
140.1386607487
 20
932.6289037517
 10
140.063618501
 20
932.7039459994
 10
139.9390447934
 20
932.8284899047
 10
139.7657442887
 20
933.0018202117
 10
139.5447600682
 20
933.2228044322
 10
139.2774332364
 20
933.490131264
 10
138.9654625256
 20
933.8021019748
 10
138.6107254823
 20
934.1568390182
 10
138.2154274781
 20
934.5521370223
 10
137.7820123036
 20
934.9855521968
 10
137.3131323655
 20
935.4544321349
 10
136.8117082913
 20
935.9558562091
 10
136.2808395226
 20
936.4867249778
 10
135.7237447102
 20
937.0438197902
 10
135.1438809235
 20
937.6236835769
 10
134.5448542435
 20
938.2227102569
 10
133.9303303559
 20
938.8372341445
 10
133.3040941556
 20
939.4634703448
 10
132.6700199445
 20
940.097544556
 10
132.0320118268
 20
940.7355526736
 10
131.3940037091
 20
941.3735607913
 10
130.759929498
 20
942.0076350024
 10
130.1336932977
 20
942.6338712028
 10
129.51916941
 20
943.2483950904
 10
128.92014273
 20
943.8474217704
 10
128.3402789433
 20
944.4272855571
 10
127.7831841309
 20
944.9843803695
 10
127.2523153622
 20
945.5152491382
 10
126.7508912881
 20
946.0166732123
 10
126.2820113499
 20
946.4855531505
 10
125.8485961755
 20
946.9189683249
 10
125.4532981713
 20
947.3142663291
 10
125.0985611279
 20
947.6690033725
 10
124.7865904172
 20
947.9809740832
 10
124.5192635854
 20
948.2483009151
 10
124.2982793649
 20
948.4692851356
 10
124.1249490578
 20
948.6425856402
 10
124.0004051526
 20
948.7671593478
 10
123.9253629048
 20
948.8422015956
 10
123.9002693494
 20
948.8672653487
  0
SPLINE
  5
FA
330
1F
100
AcDbEntity
  8
0
  6
Continuous
 62
     7
370
    15
100
AcDbSpline
210
0.0
220
0.0
230
1.0
 70
     8
 71
     3
 72
    80
 73
    76
 74
     0
 42
0.00000001
 43
0.00000001
 12
1.0
 22
0.0
 32
0.0
 13
1.0
 23
0.0
 33
0.0
 40
0.0
 40
0.0
 40
0.0
 40
0.0
 40
0.0625000000000001
 40
0.0625000000000001
 40
0.1250000000000001
 40
0.1250000000000001
 40
0.1406250000000001
 40
0.1406250000000001
 40
0.15625
 40
0.15625
 40
0.1874999999999999
 40
0.1874999999999999
 40
0.2499999999999998
 40
0.2499999999999998
 40
0.3124999999999997
 40
0.3124999999999997
 40
0.3749999999999996
 40
0.3749999999999996
 40
0.4062499999999997
 40
0.4062499999999997
 40
0.4374999999999998
 40
0.4374999999999998
 40
0.4531249999999997
 40
0.4531249999999997
 40
0.4687499999999996
 40
0.4687499999999996
 40
0.4999999999999997
 40
0.4999999999999997
 40
0.5312499999999997
 40
0.5312499999999997
 40
0.5624999999999998
 40
0.5624999999999998
 40
0.5781249999999998
 40
0.5781249999999998
 40
0.5859374999999998
 40
0.5859374999999998
 40
0.5937499999999998
 40
0.5937499999999998
 40
0.6249999999999997
 40
0.6249999999999997
 40
0.6562499999999997
 40
0.6562499999999997
 40
0.6718749999999996
 40
0.6718749999999996
 40
0.6796874999999996
 40
0.6796874999999996
 40
0.6874999999999996
 40
0.6874999999999996
 40
0.7187499999999994
 40
0.7187499999999994
 40
0.7499999999999993
 40
0.7499999999999993
 40
0.7578124999999994
 40
0.7578124999999994
 40
0.7656249999999994
 40
0.7656249999999994
 40
0.7812499999999996
 40
0.7812499999999996
 40
0.8124999999999998
 40
0.8124999999999998
 40
0.84375
 40
0.84375
 40
0.8750000000000003
 40
0.8750000000000003
 40
0.8828125000000003
 40
0.8828125000000003
 40
0.8906250000000003
 40
0.8906250000000003
 40
0.9062500000000003
 40
0.9062500000000003
 40
0.9375000000000002
 40
0.9375000000000002
 40
0.9687500000000002
 40
0.9687500000000002
 40
1.0
 40
1.0
 40
1.0
 40
1.0
 10
229.513267096451
 20
713.824388175943
 30
0.0
 10
219.0010589193284
 20
708.4192357627405
 30
0.0
 10
208.3664289459091
 20
702.8924449067375
 30
0.0
 10
186.9220982586421
 20
691.5941236092567
 30
0.0
 10
176.1119592065421
 20
685.8225538653969
 30
0.0
 10
162.5228912637244
 20
678.4415387185991
 30
0.0
 10
159.8003882110438
 20
676.9564912201323
 30
0.0
 10
154.3561406195288
 20
673.9733220387403
 30
0.0
 10
151.6336782827439
 20
672.4748147257902
 30
0.0
 10
143.4662705431352
 20
667.9576583992688
 30
0.0
 10
138.0212964698472
 20
664.9174151933519
 30
0.0
 10
121.6944105079648
 20
655.7019806002484
 30
0.0
 10
110.8202399159662
 20
649.4329380143639
 30
0.0
 10
89.14096503883285
 20
636.5822067147313
 30
0.0
 10
78.33557506956318
 20
630.0010038358176
 30
0.0
 10
56.85438098598112
 20
616.4318172415825
 30
0.0
 10
46.1781267107313
 20
609.4447460971663
 30
0.0
 10
30.32382037258952
 20
598.5488012309075
 30
0.0
 10
25.06595268383983
 20
594.8471044370982
 30
0.0
 10
14.61818071753602
 20
587.2777681118469
 30
0.0
 10
9.428242632942625
 20
583.4102082075459
 30
0.0
 10
1.70745928632849
 20
577.4588702851157
 30
0.0
 10
-0.8572526178905957
 20
575.4484990628033
 30
0.0
 10
-5.942880654667686
 20
571.3884075431752
 30
0.0
 10
-8.465803729554349
 20
569.3371887273291
 30
0.0
 10
-15.9695062739148
 20
563.1143217266839
 30
0.0
 10
-20.88542358052264
 20
558.8736824698553
 30
0.0
 10
-30.51085426959151
 20
550.1730691484157
 30
0.0
 10
-35.22040548574201
 20
545.7131372516955
 30
0.0
 10
-44.39287299901217
 20
536.5312739778248
 30
0.0
 10
-48.85582258919046
 20
531.8093814151501
 30
0.0
 10
-55.32902496238506
 20
524.4914642227587
 30
0.0
 10
-57.44982218851926
 20
522.0129063966062
 30
0.0
 10
-60.57045621555454
 20
518.2306837648663
 30
0.0
 10
-61.60140287246412
 20
516.9581548952747
 30
0.0
 10
-63.63839027515936
 20
514.395440826434
 30
0.0
 10
-64.64266334159221
 20
513.1075180538586
 30
0.0
 10
-69.5912616773193
 20
506.6344784157053
 30
0.0
 10
-73.31699276729576
 20
501.3487916993968
 30
0.0
 10
-80.26362541559025
 20
490.5518716752464
 30
0.0
 10
-83.48436061062459
 20
485.0405248212762
 30
0.0
 10
-87.91544734231333
 20
476.6029627645671
 30
0.0
 10
-89.32590387213583
 20
473.7621029706039
 30
0.0
 10
-91.3401004482296
 20
469.4590135132489
 30
0.0
 10
-91.99370223898582
 20
468.0194407413126
 30
0.0
 10
-93.25901157929306
 20
465.1456211797934
 30
0.0
 10
-93.87174426043774
 20
463.7092074193438
 30
0.0
 10
-96.83820516872638
 20
456.5308954959474
 30
0.0
 10
-98.8999158129861
 20
450.8001003997627
 30
0.0
 10
-102.4694868840583
 20
439.3977907542502
 30
0.0
 10
-103.977559823214
 20
433.7263094049392
 30
0.0
 10
-105.5641730254261
 20
426.6985497039965
 30
0.0
 10
-105.8665798171131
 20
425.2960851012338
 30
0.0
 10
-106.4427683287916
 20
422.4979736798555
 30
0.0
 10
-106.7168094716454
 20
421.1007572361947
 30
0.0
 10
-107.4931815364644
 20
416.9461512375123
 30
0.0
 10
-107.9514866854392
 20
414.2183110299496
 30
0.0
 10
-109.1719100019357
 20
406.1608218182421
 30
0.0
 10
-109.7802888393762
 20
400.957052461702
 30
0.0
 10
-110.6908545502684
 20
390.890546225056
 30
0.0
 10
-110.9928498599809
 20
386.0277761259951
 30
0.0
 10
-111.3727502762466
 20
376.653726261343
 30
0.0
 10
-111.4504932010341
 20
372.1423929247612
 30
0.0
 10
-111.4486635509039
 20
366.7335176747998
 30
0.0
 10
-111.4433034402827
 20
365.6622926583311
 30
0.0
 10
-111.4235652010501
 20
363.5477624710703
 30
0.0
 10
-111.4092163386591
 20
362.5063884849107
 30
0.0
 10
-111.3543058857246
 20
359.4294627363545
 30
0.0
 10
-111.3019163391198
 20
357.4410823256922
 30
0.0
 10
-111.1085707922137
 20
351.6617651961483
 30
0.0
 10
-110.9318432636697
 20
348.0562879173915
 30
0.0
 10
-110.530303538969
 20
341.3339328222517
 30
0.0
 10
-110.3053355141105
 20
338.2170584007102
 30
0.0
 10
-109.8433265835274
 20
332.4774085994194
 30
0.0
 10
-109.6061821485166
 20
329.8545886568078
 30
0.0
 10
-109.377352964436
 20
327.4876709929707
 30
0.0
  0
SPLINE
  5
FB
330
1F
100
AcDbEntity
  8
0
  6
Continuous
 62
     7
370
    15
100
AcDbSpline
210
0.0
220
0.0
230
1.0
 70
     8
 71
     3
 72
    51
 73
    47
 74
     0
 42
0.00000001
 43
0.00000001
 12
1.0
 22
0.0
 32
0.0
 13
1.0
 23
0.0
 33
0.0
 40
0.0
 40
0.0
 40
0.0
 40
0.0
 40
0.0239667036421724
 40
0.0479384506529076
 40
0.0719051633229604
 40
0.0964331300445685
 40
0.1209719635024364
 40
0.1455107682481062
 40
0.1700387706160635
 40
0.1945665517674471
 40
0.219105069362099
 40
0.2436436488660155
 40
0.2681714314503594
 40
0.2941608737025647
 40
0.32016308136038
 40
0.3461653060584704
 40
0.3721548058698291
 40
0.3966110843550577
 40
0.421077941890418
 40
0.4455448450828248
 40
0.4700011610859316
 40
0.4944571819255416
 40
0.5189237175052269
 40
0.543390281427117
 40
0.5678463703916257
 40
0.5937273196367614
 40
0.6196206305213237
 40
0.6455139974356898
 40
0.6713949968355968
 40
0.6945170728655464
 40
0.7176567193408218
 40
0.740805207537005
 40
0.7639536864360221
 40
0.7870933916337178
 40
0.8102155583456396
 40
0.831966026185547
 40
0.8537274546828554
 40
0.87549253444319
 40
0.8972539598568154
 40
0.9190044620988918
 40
0.9426761851360231
 40
0.9663478968002724
 40
0.9851579593547333
 40
0.9930157008560032
 40
0.9996380217862002
 40
1.0
 40
1.0
 40
1.0
 40
1.0
 10
-109.3773495356768
 20
327.48766637354
 30
0.0
 10
-109.8611545261987
 20
328.1072472285163
 30
0.0
 10
-110.8288663154395
 20
329.346539318293
 30
0.0
 10
-112.4512869720576
 20
331.424220618097
 30
0.0
 10
-114.2105891996899
 20
333.6771654867878
 30
0.0
 10
-116.1218634354891
 20
336.1246767467531
 30
0.0
 10
-118.1834892649942
 20
338.7646741339365
 30
0.0
 10
-120.3792882595668
 20
341.5764652608715
 30
0.0
 10
-122.7069010754034
 20
344.5569064393636
 30
0.0
 10
-125.1650091731547
 20
347.7044681577959
 30
0.0
 10
-127.7513129764717
 20
351.0160209525803
 30
0.0
 10
-130.4629770879156
 20
354.4880397686113
 30
0.0
 10
-133.3535698417772
 20
358.1890301691195
 30
0.0
 10
-136.4300544785957
 20
362.1279423390839
 30
0.0
 10
-139.6979623147162
 20
366.3117867943706
 30
0.0
 10
-143.0945233646746
 20
370.6602455389322
 30
0.0
 10
-146.5468004176978
 20
375.0798096791179
 30
0.0
 10
-150.0437824449355
 20
379.5565041260822
 30
0.0
 10
-153.5746628140391
 20
384.0763769009878
 30
0.0
 10
-157.2072453982358
 20
388.726330474953
 30
0.0
 10
-160.9379784968005
 20
393.5016688617271
 30
0.0
 10
-164.7643936334905
 20
398.3993074925739
 30
0.0
 10
-168.6834057702768
 20
403.4152071733925
 30
0.0
 10
-172.6909701445909
 20
408.5442061173487
 30
0.0
 10
-176.8625836041859
 20
413.88288163039
 30
0.0
 10
-181.2013947801171
 20
419.4352004572886
 30
0.0
 10
-185.709154525132
 20
425.2033428554953
 30
0.0
 10
-190.2996502138506
 20
431.0769043333551
 30
0.0
 10
-194.8020027206449
 20
436.837172139717
 30
0.0
 10
-199.2041320524316
 20
442.4687553524954
 30
0.0
 10
-203.4954709610981
 20
447.9581204989046
 30
0.0
 10
-207.8410346604799
 20
453.5161314979181
 30
0.0
 10
-212.2359401063198
 20
459.1363955106211
 30
0.0
 10
-216.675265188456
 20
464.8124408728104
 30
0.0
 10
-221.0672934554849
 20
470.4267564444497
 30
0.0
 10
-225.4071923128761
 20
475.9734410411089
 30
0.0
 10
-229.6909974985642
 20
481.4468218496407
 30
0.0
 10
-234.0054855014097
 20
486.956645033267
 30
0.0
 10
-238.3468383695307
 20
492.4969882956047
 30
0.0
 10
-242.8409916768943
 20
498.2272939689822
 30
0.0
 10
-247.4881744233262
 20
504.1463573226283
 30
0.0
 10
-251.9630831681839
 20
509.8315637186884
 30
0.0
 10
-255.3862659737721
 20
514.1645569141365
 30
0.0
 10
-257.6599745873353
 20
517.029156176622
 30
0.0
 10
-258.6766051847516
 20
518.3055557790032
 30
0.0
 10
-259.1558412266189
 20
518.9058450690998
 30
0.0
 10
-259.180678794834
 20
518.9369565150033
 30
0.0
  0
SPLINE
  5
FC
330
1F
100
AcDbEntity
  8
0
  6
Continuous
 62
     7
370
    15
100
AcDbSpline
210
0.0
220
0.0
230
1.0
 70
     8
 71
     3
 72
    16
 73
    12
 74
     0
 42
0.00000001
 43
0.00000001
 12
1.0
 22
0.0
 32
0.0
 13
1.0
 23
0.0
 33
0.0
 40
0.0
 40
0.0
 40
0.0
 40
0.0
 40
0.078201628527726
 40
0.1646306508799032
 40
0.2592870585047382
 40
0.3621708419071107
 40
0.4732819906759801
 40
0.5926204935024136
 40
0.7201863381917057
 40
0.8559795116719418
 40
0.9999999999999999
 40
0.9999999999999999
 40
0.9999999999999999
 40
0.9999999999999999
 10
-259.1806783823805
 20
518.9369568881962
 30
0.0
 10
-259.525470388209
 20
519.3879373392621
 30
0.0
 10
-260.251329087144
 20
520.3373447440805
 30
0.0
 10
-261.3951795648384
 20
521.8335346117968
 30
0.0
 10
-262.648457699857
 20
523.4728456445197
 30
0.0
 10
-264.0113081332945
 20
525.255447826837
 30
0.0
 10
-265.4837779478993
 20
527.1813809202896
 30
0.0
 10
-267.0658931224513
 20
529.2506729211967
 30
0.0
 10
-268.7576199798833
 20
531.463291489977
 30
0.0
 10
-270.558868194894
 20
533.8191387673405
 30
0.0
 10
-271.7962072931529
 20
535.4375003603537
 30
0.0
 10
-272.4330674807757
 20
536.2704733660709
 30
0.0
  0
LINE
  5
FD
330
1F
100
AcDbEntity
  8
0
  6
Continuous
 62
     7
370
    15
100
AcDbLine
 10
-372.21990786
 20
536.2704733661
 30
0.0
 11
-272.4330674808
 21
536.2704733661
 31
0.0
  0
LINE
  5
FE
330
1F
100
AcDbEntity
  8
0
  6
Continuous
 62
     7
370
    15
100
AcDbLine
 10
-373.7869139712
 20
536.2704733661
 30
0.0
 11
-372.21990786
 21
536.2704733661
 31
0.0
  0
LWPOLYLINE
  5
FF
330
1F
100
AcDbEntity
  8
0
  6
Continuous
 62
     7
370
    15
100
AcDbPolyline
 90
        5
 70
   128
 43
0.0
 10
-373.7869139712
 20
536.2704733661
 10
-374.395447592
 20
547.1820852062
 10
-374.9982964198
 20
557.9917842796
 10
-375.59488676
 20
568.6892682961
 10
-376.1846449177
 20
579.2643392733
  0
SPLINE
  5
100
330
1F
100
AcDbEntity
  8
0
  6
Continuous
 62
     7
370
    15
100
AcDbSpline
210
0.0
220
0.0
230
1.0
 70
     8
 71
     3
 72
    24
 73
    20
 74
     0
 42
0.00000001
 43
0.00000001
 12
1.0
 22
0.0
 32
0.0
 13
1.0
 23
0.0
 33
0.0
 40
0.0
 40
0.0
 40
0.0
 40
0.0
 40
0.1250000000000002
 40
0.1250000000000002
 40
0.1875000000000002
 40
0.1875000000000002
 40
0.2500000000000002
 40
0.2500000000000002
 40
0.3750000000000002
 40
0.3750000000000002
 40
0.5000000000000001
 40
0.5000000000000001
 40
0.6250000000000001
 40
0.6250000000000001
 40
0.7500000000000001
 40
0.7500000000000001
 40
0.875
 40
0.875
 40
1.0
 40
1.0
 40
1.0
 40
1.0
 10
-376.1846484355141
 20
579.2643387613825
 30
0.0
 10
-376.5099255611111
 20
585.0968941169152
 30
0.0
 10
-376.8612222881822
 20
590.8860838254487
 30
0.0
 10
-377.3981385637266
 20
599.506556847621
 30
0.0
 10
-377.5788443543983
 20
602.3692901312689
 30
0.0
 10
-377.9389626329181
 20
608.0592055854944
 30
0.0
 10
-378.1184901571307
 20
610.8882552775474
 30
0.0
 10
-378.650814882145
 20
619.328350973979
 30
0.0
 10
-378.9969570817502
 20
624.8924387850647
 30
0.0
 10
-379.6561645396774
 20
635.8970413805486
 30
0.0
 10
-379.9692279930015
 20
641.3375959123372
 30
0.0
 10
-380.5594524763258
 20
652.093383945585
 30
0.0
 10
-380.8366888492174
 20
657.4086397119813
 30
0.0
 10
-381.3643278694611
 20
667.9075468954337
 30
0.0
 10
-381.6148863560393
 20
673.0911944266953
 30
0.0
 10
-382.1066128640803
 20
683.3157732067173
 30
0.0
 10
-382.347963605028
 20
688.3566833889741
 30
0.0
 10
-382.8417726165257
 20
698.2802719256464
 30
0.0
 10
-383.094377662679
 20
703.1629318001994
 30
0.0
 10
-383.3617309252224
 20
707.9568523699437
 30
0.0
  0
SPLINE
  5
101
330
1F
100
AcDbEntity
  8
0
  6
Continuous
 62
     7
370
    15
100
AcDbSpline
210
0.0
220
0.0
230
1.0
 70
     8
 71
     3
 72
    16
 73
    12
 74
     0
 42
0.00000001
 43
0.00000001
 12
1.0
 22
0.0
 32
0.0
 13
1.0
 23
0.0
 33
0.0
 40
0.0
 40
0.0
 40
0.0
 40
0.0
 40
0.2499999999999998
 40
0.2499999999999998
 40
0.4999999999999998
 40
0.4999999999999998
 40
0.7499999999999998
 40
0.7499999999999998
 40
0.8749999999999999
 40
0.8749999999999999
 40
1.0
 40
1.0
 40
1.0
 40
1.0
 10
-109.3773529644361
 20
327.4876709929707
 30
0.0
 10
-108.6666103729914
 20
325.5051793240964
 30
0.0
 10
-108.1159923459322
 20
323.7650228907773
 30
0.0
 10
-107.2874618787735
 20
320.7711302442322
 30
0.0
 10
-107.0123985103006
 20
319.5251803827302
 30
0.0
 10
-106.6633441555879
 20
317.5295899335575
 30
0.0
 10
-106.589443410866
 20
316.7797316232451
 30
0.0
 10
-106.5419479813682
 20
316.0281623856112
 30
0.0
 10
-106.5362550156999
 20
315.8404392176533
 30
0.0
 10
-106.5309399281634
 20
315.5901084419673
 30
0.0
 10
-106.5311010379671
 20
315.5274871006491
 30
0.0
 10
-106.5311010379671
 20
315.5274871006492
 30
0.0
  0
ARC
  5
102
330
1F
100
AcDbEntity
  8
0
  6
Continuous
 62
     7
370
    15
100
AcDbCircle
 10
-110.6879798887
 20
326.7845008352
 30
0.0
 40
12.00000000000001
100
AcDbArc
 50
288.1071506085
 51
290.2676817496
  0
SPLINE
  5
103
330
1F
100
AcDbEntity
  8
0
  6
Continuous
 62
     7
370
    15
100
AcDbSpline
210
0.0
220
0.0
230
1.0
 70
     8
 71
     3
 72
    61
 73
    57
 74
     0
 42
0.00000001
 43
0.00000001
 12
1.0
 22
0.0
 32
0.0
 13
1.0
 23
0.0
 33
0.0
 40
0.0
 40
0.0
 40
0.0
 40
0.0
 40
0.0002899594816398
 40
0.0179896386507531
 40
0.0356955888424491
 40
0.0534017416018503
 40
0.0711017031512434
 40
0.0888006639898258
 40
0.1065056980545636
 40
0.1242107561295969
 40
0.1419097131650064
 40
0.160431032063428
 40
0.1789593402891088
 40
0.1974876428594533
 40
0.2160089337030683
 40
0.2323108591397018
 40
0.248615156485693
 40
0.2649170580867529
 40
0.2846196199729279
 40
0.3043306407636618
 40
0.3240416194311723
 40
0.3437441683360173
 40
0.3634468626330358
 40
0.3831580455376421
 40
0.402869169550572
 40
0.422571845679844
 40
0.4434207288170526
 40
0.464279665213959
 40
0.4851386243303387
 40
0.5059874746065355
 40
0.5257344239424185
 40
0.545489936649916
 40
0.565245454845394
 40
0.5849923660157766
 40
0.6047394431064856
 40
0.62449515906508
 40
0.6442508711397871
 40
0.6639979463006646
 40
0.6849131535797376
 40
0.7058386592128942
 40
0.7267641395327114
 40
0.7476793360624714
 40
0.7659809981391035
 40
0.784289578640497
 40
0.8025981341248014
 40
0.8208997959832486
 40
0.8392015335745926
 40
0.8575101840194941
 40
0.8758188410505592
 40
0.8941205637028562
 40
0.9133532780199873
 40
0.9325940352163768
 40
0.9518347920119039
 40
0.971067495946303
 40
0.985533748146721
 40
1.0
 40
1.0
 40
1.0
 40
1.0
 10
-259.180678794834
 20
518.9369565150033
 30
0.0
 10
-259.1573240061385
 20
518.9050315319665
 30
0.0
 10
-257.708348421622
 20
516.9243447632006
 30
0.0
 10
-254.8264200084481
 20
513.0053631122191
 30
0.0
 10
-250.5303463951971
 20
507.2055625000202
 30
0.0
 10
-246.2363177975185
 20
501.435414767561
 30
0.0
 10
-241.9564899988499
 20
495.6932256417011
 30
0.0
 10
-237.6974985214663
 20
489.9791888668985
 30
0.0
 10
-233.4588611866928
 20
484.2987405492628
 30
0.0
 10
-229.2453295679991
 20
478.6551936068088
 30
0.0
 10
-224.9958293258834
 20
472.9660839030959
 30
0.0
 10
-220.7149817804263
 20
467.2367079014562
 30
0.0
 10
-216.4072840585429
 20
461.473225096527
 30
0.0
 10
-212.1409527391464
 20
455.7665919933227
 30
0.0
 10
-208.0884631714642
 20
450.3471892355669
 30
0.0
 10
-204.2466265150052
 20
445.2103964587705
 30
0.0
 10
-200.6109154402257
 20
440.3499976425062
 30
0.0
 10
-196.7668652413659
 20
435.2118477682264
 30
0.0
 10
-192.7275130420766
 20
429.8134887720786
 30
0.0
 10
-188.5086345986639
 20
424.1761312325065
 30
0.0
 10
-184.3609195563644
 20
418.6347153361974
 30
0.0
 10
-180.2886282935866
 20
413.1948904979891
 30
0.0
 10
-176.2950099968556
 20
407.860934651252
 30
0.0
 10
-172.3827360903134
 20
402.6363087063796
 30
0.0
 10
-168.5556418062449
 20
397.5262275322534
 30
0.0
 10
-164.7452924526206
 20
392.439129879397
 30
0.0
 10
-160.9609835246721
 20
387.3875128207102
 30
0.0
 10
-157.2121744010279
 20
382.3839881556589
 30
0.0
 10
-153.5736913751431
 20
377.5283291837958
 30
0.0
 10
-150.1118547532531
 20
372.9090430056731
 30
0.0
 10
-146.8230166742101
 20
368.521133162929
 30
0.0
 10
-143.7020414751041
 20
364.3577061285872
 30
0.0
 10
-140.6920864769187
 20
360.3428090798369
 30
0.0
 10
-137.7963100395849
 20
356.4806515762828
 30
0.0
 10
-135.0173344629423
 20
352.7746970707693
 30
0.0
 10
-132.3568775275721
 20
349.2271345118212
 30
0.0
 10
-129.8175488032243
 20
345.8414648892075
 30
0.0
 10
-127.3545831544828
 20
342.5579033356518
 30
0.0
 10
-124.9790160461804
 20
339.3911673613237
 30
0.0
 10
-122.7015962607601
 20
336.3555521598913
 30
0.0
 10
-120.5698861661402
 20
333.5143959804863
 30
0.0
 10
-118.6691868626739
 20
330.9813700367706
 30
0.0
 10
-116.9807016596625
 20
328.7312753576845
 30
0.0
 10
-115.4849216886574
 20
326.738118393758
 30
0.0
 10
-114.106412372673
 20
324.9013478148065
 30
0.0
 10
-112.8465387886117
 20
323.2227523665197
 30
0.0
 10
-111.7065317406752
 20
321.7038895979148
 30
0.0
 10
-110.6867382547793
 20
320.3452873802147
 30
0.0
 10
-109.7880228128494
 20
319.1480385048829
 30
0.0
 10
-108.9981311988484
 20
318.0957873721264
 30
0.0
 10
-108.3253317284465
 20
317.1995638898373
 30
0.0
 10
-107.7774877965229
 20
316.4697755324055
 30
0.0
 10
-107.3652468366751
 20
315.920665943196
 30
0.0
 10
-107.1146557261975
 20
315.5868819502081
 30
0.0
 10
-106.9808822732065
 20
315.408672003394
 30
0.0
 10
-106.9659234503953
 20
315.38874011516
 30
0.0
 10
-106.9584440390795
 20
315.3787741711627
 30
0.0
  0
SPLINE
  5
104
330
1F
100
AcDbEntity
  8
0
  6
Continuous
 62
     7
370
    15
100
AcDbSpline
210
0.0
220
0.0
230
1.0
 70
     8
 71
     3
 72
    65
 73
    61
 74
     0
 42
0.00000001
 43
0.00000001
 12
1.0
 22
0.0
 32
0.0
 13
1.0
 23
0.0
 33
0.0
 40
0.0
 40
0.0
 40
0.0
 40
0.0
 40
0.0174341872128157
 40
0.0348746454270209
 40
0.0523151030096467
 40
0.0697492911452605
 40
0.0871834839663709
 40
0.104623948416915
 40
0.1220644053990493
 40
0.1394985975555434
 40
0.1577743323332559
 40
0.1760572715968991
 40
0.1943402104657958
 40
0.2126159302997885
 40
0.2305820637397603
 40
0.2485551148548621
 40
0.266528152449074
 40
0.2844942875039593
 40
0.3024604820299634
 40
0.3204335416894872
 40
0.3384066015651814
 40
0.3563727730346467
 40
0.375264301786889
 40
0.3941638676072107
 40
0.4130633835894497
 40
0.4319549360769583
 40
0.4499045274927843
 40
0.4678609968405305
 40
0.4858174535223249
 40
0.5037670129169722
 40
0.52171666074273
 40
0.53967315710546
 40
0.5576296845925415
 40
0.5755793114233998
 40
0.594455041830852
 40
0.6133387548731704
 40
0.6322224752905158
 40
0.651098190957369
 40
0.6690152252485371
 40
0.686939096916918
 40
0.7048629896015389
 40
0.7227800173682
 40
0.7406970888956899
 40
0.75862105753429
 40
0.7765450030762217
 40
0.794462067037961
 40
0.8133042752472962
 40
0.8321544876889722
 40
0.8510047205241806
 40
0.8698469100901797
 40
0.8866939032770426
 40
0.9035408667774087
 40
0.9204339854733055
 40
0.9373270795653404
 40
0.9479096597893271
 40
0.9584937363365619
 40
0.9690777948352068
 40
0.9796753330327145
 40
0.9902724876173993
 40
0.9999999999999999
 40
0.9999999999999999
 40
0.9999999999999999
 40
0.9999999999999999
 10
-270.615644096139
 20
261.8647555163394
 30
0.0
 10
-270.6157497827514
 20
261.8838665771027
 30
0.0
 10
-270.615961193991
 20
261.9220955727949
 30
0.0
 10
-270.6176692452837
 20
262.2306415604072
 30
0.0
 10
-270.6203949479907
 20
262.7224322533071
 30
0.0
 10
-270.6242393191675
 20
263.4154539150232
 30
0.0
 10
-270.6291780794031
 20
264.3048724015546
 30
0.0
 10
-270.6352187554172
 20
265.3909681973371
 30
0.0
 10
-270.6423593887631
 20
266.6722930122349
 30
0.0
 10
-270.650734250614
 20
268.1717923844183
 30
0.0
 10
-270.6604107857792
 20
269.9002919324231
 30
0.0
 10
-270.6714547769351
 20
271.8672175167491
 30
0.0
 10
-270.6837146108247
 20
274.0436971549759
 30
0.0
 10
-270.6971156544687
 20
276.4144581580468
 30
0.0
 10
-270.7116397171394
 20
278.9744701407874
 30
0.0
 10
-270.7272635430111
 20
281.7175464995731
 30
0.0
 10
-270.7440692179759
 20
284.6556573112106
 30
0.0
 10
-270.7620555563616
 20
287.7863580555004
 30
0.0
 10
-270.7812290077462
 20
291.1083206302526
 30
0.0
 10
-270.8015882863631
 20
294.6188128421571
 30
0.0
 10
-270.8231296509819
 20
298.3145688869579
 30
0.0
 10
-270.8462388996379
 20
302.259065568552
 30
0.0
 10
-270.8709940965329
 20
306.4614919559572
 30
0.0
 10
-270.8974627163346
 20
310.929387358729
 30
0.0
 10
-270.9252235714428
 20
315.5884120530852
 30
0.0
 10
-270.9537838923156
 20
320.3536904445755
 30
0.0
 10
-270.9830703346488
 20
325.2117209291354
 30
0.0
 10
-271.0130004142754
 20
330.1487532897133
 30
0.0
 10
-271.0440612984947
 20
335.2437804180794
 30
0.0
 10
-271.0762367945952
 20
340.4924288554081
 30
0.0
 10
-271.1095211783988
 20
345.8918182399349
 30
0.0
 10
-271.1438947779881
 20
351.4380939061668
 30
0.0
 10
-271.1793301932228
 20
357.1261696374452
 30
0.0
 10
-271.2164273254487
 20
363.051293965966
 30
0.0
 10
-271.2552356304828
 20
369.2184899778505
 30
0.0
 10
-271.2957780700281
 20
375.6310648306658
 30
0.0
 10
-271.337358099419
 20
382.1800785458288
 30
0.0
 10
-271.3792047825291
 20
388.7461353588917
 30
0.0
 10
-271.4212273756079
 20
395.3174123518717
 30
0.0
 10
-271.4633124053125
 20
401.8824222271166
 30
0.0
 10
-271.5061243353367
 20
408.5503810926015
 30
0.0
 10
-271.5495889091218
 20
415.3154578041314
 30
0.0
 10
-271.5936584812509
 20
422.1736342133088
 30
0.0
 10
-271.6382151803928
 20
429.1202001777012
 30
0.0
 10
-271.683124290966
 20
436.1489562431926
 30
0.0
 10
-271.729002850688
 20
443.3759241280162
 30
0.0
 10
-271.7758179146472
 20
450.8013983773852
 30
0.0
 10
-271.823200648952
 20
458.4240455127594
 30
0.0
 10
-271.8698691499663
 20
466.1127547324282
 30
0.0
 10
-271.9137516216584
 20
473.5866434707841
 30
0.0
 10
-271.9545513366148
 20
480.8327029816521
 30
0.0
 10
-271.9912348445529
 20
487.8476798585216
 30
0.0
 10
-272.0244545987489
 20
494.9020958631533
 30
0.0
 10
-272.0476458450356
 20
501.108611599766
 30
0.0
 10
-272.0606356856114
 20
506.4467924106424
 30
0.0
 10
-272.0649995810455
 20
510.9081566552932
 30
0.0
 10
-272.0577128476081
 20
515.3785405744057
 30
0.0
 10
-272.031245157364
 20
519.856265495861
 30
0.0
 10
-271.979147773792
 20
524.2180366606053
 30
0.0
 10
-271.8565002770135
 20
527.085116400032
 30
0.0
 10
-271.79780042006
 20
528.4573186463009
 30
0.0
  0
SPLINE
  5
105
330
1F
100
AcDbEntity
  8
0
  6
Continuous
 62
     7
370
    15
100
AcDbSpline
210
0.0
220
0.0
230
1.0
 70
     8
 71
     3
 72
    18
 73
    14
 74
     0
 42
0.00000001
 43
0.00000001
 12
1.0
 22
0.0
 32
0.0
 13
1.0
 23
0.0
 33
0.0
 40
0.0
 40
0.0
 40
0.0
 40
0.0
 40
0.0859856349634558
 40
0.1752966557700214
 40
0.2787380090734487
 40
0.4143212611024954
 40
0.5521722339002206
 40
0.6872349467571075
 40
0.7548021499463636
 40
0.8224651810314898
 40
0.8807402781828062
 40
0.9393862787521859
 40
1.0
 40
1.0
 40
1.0
 40
1.0
 10
-271.79780042006
 20
528.4573186463009
 30
0.0
 10
-271.9183062003773
 20
528.6568466937979
 30
0.0
 10
-272.1639781698821
 20
529.0636192840499
 30
0.0
 10
-272.385719893127
 20
529.7926586417335
 30
0.0
 10
-272.4656758960249
 20
530.6840212493343
 30
0.0
 10
-272.3488229586956
 20
531.7046736232496
 30
0.0
 10
-272.1117347584492
 20
532.7849119157917
 30
0.0
 10
-271.9259838361314
 20
533.6882041738047
 30
0.0
 10
-271.862197471099
 20
534.415412109275
 30
0.0
 10
-271.8818773153021
 20
534.9379874235724
 30
0.0
 10
-271.9829211511754
 20
535.4250954061063
 30
0.0
 10
-272.1580600844876
 20
535.8722278818746
 30
0.0
 10
-272.3403955366818
 20
536.1362726727614
 30
0.0
 10
-272.4330674807757
 20
536.2704733660709
 30
0.0
  0
LINE
  5
106
330
1F
100
AcDbEntity
  8
0
  6
Continuous
 62
     7
370
    15
100
AcDbLine
 10
-270.6156440961
 20
261.8647555163
 30
0.0
 11
-106.9584440391
 21
315.3787741712
 31
0.0
  0
SPLINE
  5
107
330
1F
100
AcDbEntity
  8
0
  6
Continuous
 62
     7
370
    15
100
AcDbSpline
210
0.0
220
0.0
230
1.0
 70
     8
 71
     3
 72
    67
 73
    63
 74
     0
 42
0.00000001
 43
0.00000001
 12
1.0
 22
0.0
 32
0.0
 13
1.0
 23
0.0
 33
0.0
 40
0.0
 40
0.0
 40
0.0
 40
0.0
 40
0.0012474468421912
 40
0.0047341661909789
 40
0.0082251421847635
 40
0.0152006639409169
 40
0.0221794476146302
 40
0.0361323313702197
 40
0.050085095342115
 40
0.0640445677224796
 40
0.0826684885115732
 40
0.1012963094969725
 40
0.1199202330098179
 40
0.1386858016376235
 40
0.1574553117982527
 40
0.1762208855542607
 40
0.1940340123097034
 40
0.21185054808545
 40
0.2296636936264961
 40
0.2476005649552953
 40
0.2655408862444353
 40
0.2834777593600538
 40
0.3013045185851899
 40
0.3191380720955119
 40
0.3369716278808397
 40
0.3547983772684707
 40
0.3726251288380814
 40
0.3904586982293156
 40
0.4082922503431641
 40
0.4261190005554719
 40
0.4448624588227671
 40
0.4636138465154703
 40
0.4823651964364257
 40
0.5011086665443855
 40
0.518851405060204
 40
0.536600877452433
 40
0.5543503279557221
 40
0.5720930592037705
 40
0.5898358247994389
 40
0.6075852738097419
 40
0.6253347575268287
 40
0.6430775011101063
 40
0.661723651721722
 40
0.6803775622061368
 40
0.6990315142636007
 40
0.7176776777391458
 40
0.7355037157922576
 40
0.7533365692407887
 40
0.771169426955525
 40
0.7889954651689676
 40
0.8068215089469153
 40
0.824654376426609
 40
0.8424872152397219
 40
0.860313267184856
 40
0.8790559706572554
 40
0.8978066028102839
 40
0.9165572345326161
 40
0.9352999517113811
 40
0.9514546064760583
 40
0.9676092696772404
 40
0.983804634287643
 40
1.0
 40
1.0
 40
1.0
 40
1.0
 10
-273.3099944723986
 20
530.5923062650751
 30
0.0
 10
-273.287274121137
 20
530.4165393564067
 30
0.0
 10
-273.2010484679454
 20
529.7494890835075
 30
0.0
 10
-273.104199827628
 20
528.5845510761094
 30
0.0
 10
-272.9899421144828
 20
526.6060437401001
 30
0.0
 10
-272.9109453582724
 20
524.1298091860515
 30
0.0
 10
-272.8400879381776
 20
520.1696968797862
 30
0.0
 10
-272.8083106245669
 20
515.2229355873161
 30
0.0
 10
-272.8020030702034
 20
509.2962411594716
 30
0.0
 10
-272.8140315503711
 20
502.7223131790957
 30
0.0
 10
-272.839029604245
 20
495.5098261445456
 30
0.0
 10
-272.875785097049
 20
487.6744651792783
 30
0.0
 10
-272.9179573417054
 20
479.8598201941397
 30
0.0
 10
-272.9622030877306
 20
472.0729285511975
 30
0.0
 10
-273.0087215432185
 20
464.3206869080212
 30
0.0
 10
-273.0555544188646
 20
456.7594150980302
 30
0.0
 10
-273.1020714225377
 20
449.3919207970226
 30
0.0
 10
-273.148091764255
 20
442.2196418279973
 30
0.0
 10
-273.194288376684
 20
435.1025650606958
 30
0.0
 10
-273.2404553848647
 20
428.04694087505
 30
0.0
 10
-273.2864896483457
 20
421.0586570681085
 30
0.0
 10
-273.3320715529251
 20
414.1734893651555
 30
0.0
 10
-273.3770932809369
 20
407.3959636191892
 30
0.0
 10
-273.4214954886883
 20
400.7299200541576
 30
0.0
 10
-273.4652978153676
 20
394.1672672796171
 30
0.0
 10
-273.508426460633
 20
387.7139199698538
 30
0.0
 10
-273.5508207092153
 20
381.3743577380703
 30
0.0
 10
-273.592445583897
 20
375.1522494008068
 30
0.0
 10
-273.6332504013955
 20
369.0530703016042
 30
0.0
 10
-273.6738691524066
 20
362.9799529868303
 30
0.0
 10
-273.7142067580258
 20
356.9451109721828
 30
0.0
 10
-273.7541759183287
 20
350.9607862677944
 30
0.0
 10
-273.7930651641425
 20
345.1327088237197
 30
0.0
 10
-273.8301585230107
 20
339.5675784907423
 30
0.0
 10
-273.8654917410618
 20
334.259831161429
 30
0.0
 10
-273.8991179833212
 20
329.202181457341
 30
0.0
 10
-273.9316609674099
 20
324.3009728757758
 30
0.0
 10
-273.9630923164911
 20
319.5606972832017
 30
0.0
 10
-273.9933891068174
 20
314.984834118205
 30
0.0
 10
-274.0225394902581
 20
310.5757729377445
 30
0.0
 10
-274.0505218251676
 20
306.337259744099
 30
0.0
 10
-274.0777680672873
 20
302.2042004262619
 30
0.0
 10
-274.1041888386093
 20
298.1903175538482
 30
0.0
 10
-274.1296995320566
 20
294.3089085977704
 30
0.0
 10
-274.1538475309628
 20
290.629401252102
 30
0.0
 10
-274.1762796424746
 20
287.2064762098705
 30
0.0
 10
-274.1970505003335
 20
284.0327766667963
 30
0.0
 10
-274.2162256234581
 20
281.0991475506308
 30
0.0
 10
-274.2341067456085
 20
278.3602028253815
 30
0.0
 10
-274.2506813455828
 20
275.818455936366
 30
0.0
 10
-274.2659389849155
 20
273.4762009144061
 30
0.0
 10
-274.279877395834
 20
271.3342805728383
 30
0.0
 10
-274.2924892373035
 20
269.3944837367575
 30
0.0
 10
-274.3039584912161
 20
267.6288525261655
 30
0.0
 10
-274.3141957940891
 20
266.0517596786391
 30
0.0
 10
-274.3231173762256
 20
264.6763849716719
 30
0.0
 10
-274.3305493021934
 20
263.5299258840593
 30
0.0
 10
-274.3362097808637
 20
262.6562544656292
 30
0.0
 10
-274.3403337526337
 20
262.0196729717842
 30
0.0
 10
-274.3431155837413
 20
261.5900305079786
 30
0.0
 10
-274.3448606846117
 20
261.3205625756069
 30
0.0
 10
-274.3450767068687
 20
261.2871657959853
 30
0.0
 10
-274.3451847180008
 20
261.2704674056063
 30
0.0
  0
SPLINE
  5
108
330
1F
100
AcDbEntity
  8
0
  6
Continuous
 62
     7
370
    15
100
AcDbSpline
210
0.0
220
0.0
230
1.0
 70
     8
 71
     3
 72
     9
 73
     5
 74
     0
 42
0.00000001
 43
0.00000001
 12
1.0
 22
0.0
 32
0.0
 13
1.0
 23
0.0
 33
0.0
 40
0.0
 40
0.0
 40
0.0
 40
0.0
 40
0.9861690148252242
 40
1.0
 40
1.0
 40
1.0
 40
1.0
 10
-271.79780042006
 20
528.4573186463009
 30
0.0
 10
-272.2835192525863
 20
529.1669320745356
 30
0.0
 10
-272.7760502743731
 20
529.8864978057308
 30
0.0
 10
-273.3027102461369
 20
530.5826774152173
 30
0.0
 10
-273.3099944723986
 20
530.5923062650751
 30
0.0
  0
ARC
  5
109
330
1F
100
AcDbEntity
  8
0
  6
Continuous
 62
     7
370
    15
100
AcDbCircle
 10
-274.3451847377
 20
273.2704733661
 30
0.0
 40
12.0
100
AcDbArc
 50
270.0
 51
288.1071506085
  0
LINE
  5
10A
330
1F
100
AcDbEntity
  8
0
  6
Continuous
 62
     7
370
    15
100
AcDbLine
 10
408.0669034322
 20
536.2704733661
 30
0.0
 11
429.5669544537
 21
536.2704733661
 31
0.0
  0
LINE
  5
10B
330
1F
100
AcDbEntity
  8
0
  6
Continuous
 62
     7
370
    15
100
AcDbLine
 10
408.0669034322
 20
541.2280943519
 30
0.0
 11
429.5669544537
 21
541.2280943519
 31
0.0
  0
LINE
  5
10C
330
1F
100
AcDbEntity
  8
0
  6
Continuous
 62
     7
370
    15
100
AcDbLine
 10
429.5669544537
 20
541.2280943519
 30
0.0
 11
429.5669544537
 21
536.2704733661
 31
0.0
  0
LINE
  5
10D
330
1F
100
AcDbEntity
  8
0
  6
Continuous
 62
     7
370
    15
100
AcDbLine
 10
408.0669034322
 20
536.2704733661
 30
0.0
 11
408.0669034322
 21
541.2280943519
 31
0.0
  0
LINE
  5
10E
330
1F
100
AcDbEntity
  8
0
  6
Continuous
 62
     7
370
    15
100
AcDbLine
 10
429.5669544537
 20
826.2704650214
 30
0.0
 11
429.5669544537
 21
541.2280943519
 31
0.0
  0
LINE
  5
10F
330
1F
100
AcDbEntity
  8
0
  6
Continuous
 62
     7
370
    15
100
AcDbLine
 10
408.0669034322
 20
826.2704650214
 30
0.0
 11
408.0669034322
 21
541.2280943519
 31
0.0
  0
LINE
  5
110
330
1F
100
AcDbEntity
  8
0
  6
Continuous
 62
     7
370
    15
100
AcDbLine
 10
-464.4330691497
 20
536.2704733661
 30
0.0
 11
-442.9330628316
 21
536.2704733661
 31
0.0
  0
LINE
  5
111
330
1F
100
AcDbEntity
  8
0
  6
Continuous
 62
     7
370
    15
100
AcDbLine
 10
-464.4330691497
 20
536.2704733661
 30
0.0
 11
-464.4330691497
 21
541.2280943519
 31
0.0
  0
LINE
  5
112
330
1F
100
AcDbEntity
  8
0
  6
Continuous
 62
     7
370
    15
100
AcDbLine
 10
-464.4330691497
 20
541.2280943519
 30
0.0
 11
-442.9330628316
 21
541.2280943519
 31
0.0
  0
LINE
  5
113
330
1F
100
AcDbEntity
  8
0
  6
Continuous
 62
     7
370
    15
100
AcDbLine
 10
-442.9330628316
 20
541.2280943519
 30
0.0
 11
-442.9330628316
 21
536.2704733661
 31
0.0
  0
LINE
  5
114
330
1F
100
AcDbEntity
  8
0
  6
Continuous
 62
     7
370
    15
100
AcDbLine
 10
-442.9330628316
 20
826.2704650214
 30
0.0
 11
-442.9330628316
 21
541.2280943519
 31
0.0
  0
LINE
  5
115
330
1F
100
AcDbEntity
  8
0
  6
Continuous
 62
     7
370
    15
100
AcDbLine
 10
-464.4330691497
 20
826.2704650214
 30
0.0
 11
-464.4330691497
 21
541.2280943519
 31
0.0
  0
LINE
  5
116
330
1F
100
AcDbEntity
  8
0
  6
Continuous
 62
     7
370
    15
100
AcDbLine
 10
-442.9330628316
 20
531.3128523803
 30
0.0
 11
-464.4330691497
 21
531.3128523803
 31
0.0
  0
LINE
  5
117
330
1F
100
AcDbEntity
  8
0
  6
Continuous
 62
     7
370
    15
100
AcDbLine
 10
-464.4330691497
 20
531.3128523803
 30
0.0
 11
-464.4330691497
 21
536.2704733661
 31
0.0
  0
LINE
  5
118
330
1F
100
AcDbEntity
  8
0
  6
Continuous
 62
     7
370
    15
100
AcDbLine
 10
-442.9330628316
 20
536.2704733661
 30
0.0
 11
-442.9330628316
 21
531.3128523803
 31
0.0
  0
LINE
  5
119
330
1F
100
AcDbEntity
  8
0
  6
Continuous
 62
     7
370
    15
100
AcDbLine
 10
-464.4330691497
 20
531.3128523803
 30
0.0
 11
-464.4330691497
 21
246.2704817107
 31
0.0
  0
LINE
  5
11A
330
1F
100
AcDbEntity
  8
0
  6
Continuous
 62
     7
370
    15
100
AcDbLine
 10
-442.9330628316
 20
531.3128523803
 30
0.0
 11
-442.9330628316
 21
246.2704817107
 31
0.0
  0
LINE
  5
11B
330
1F
100
AcDbEntity
  8
0
  6
Continuous
 62
     7
370
    15
100
AcDbLine
 10
429.5669544537
 20
531.3128523803
 30
0.0
 11
408.0669034322
 21
531.3128523803
 31
0.0
  0
LINE
  5
11C
330
1F
100
AcDbEntity
  8
0
  6
Continuous
 62
     7
370
    15
100
AcDbLine
 10
429.5669544537
 20
536.2704733661
 30
0.0
 11
429.5669544537
 21
531.3128523803
 31
0.0
  0
LINE
  5
11D
330
1F
100
AcDbEntity
  8
0
  6
Continuous
 62
     7
370
    15
100
AcDbLine
 10
408.0669034322
 20
531.3128523803
 30
0.0
 11
408.0669034322
 21
536.2704733661
 31
0.0
  0
LINE
  5
11E
330
1F
100
AcDbEntity
  8
0
  6
Continuous
 62
     7
370
    15
100
AcDbLine
 10
429.5669544537
 20
531.3128523803
 30
0.0
 11
429.5669544537
 21
246.2704817107
 31
0.0
  0
LINE
  5
11F
330
1F
100
AcDbEntity
  8
0
  6
Continuous
 62
     7
370
    15
100
AcDbLine
 10
408.0669034322
 20
531.3128523803
 30
0.0
 11
408.0669034322
 21
246.2704817107
 31
0.0
  0
LINE
  5
120
330
1F
100
AcDbEntity
  8
0
  6
Continuous
 62
     7
370
    15
100
AcDbLine
 10
192.905043443
 20
949.1589704803
 30
0.0
 11
175.2273786862
 21
931.4813057235
 31
0.0
  0
LWPOLYLINE
  5
121
330
1F
100
AcDbEntity
  8
0
  6
Continuous
 62
     7
370
    15
100
AcDbPolyline
 90
       15
 70
   128
 43
0.0
 10
188.6005450089
 20
953.4634689143
 10
188.626711448
 20
953.4373024753
 10
188.7049127419
 20
953.3591011813
 10
188.8343442281
 20
953.2296696952
 10
189.0136349995
 20
953.0503789237
 10
189.2408777077
 20
952.8231362155
 10
189.5136881669
 20
952.5503555587
 10
189.8291457494
 20
952.2348681739
 10
190.1839721997
 20
951.8800715259
 10
190.5743528207
 20
951.4896611026
 10
190.9962046941
 20
951.0678092292
 10
191.4450574715
 20
950.6189564517
 10
191.9161725838
 20
950.1478413394
 10
192.4045432408
 20
949.6594706824
 10
192.905043443
 20
949.1589704803
  0
LWPOLYLINE
  5
122
330
1F
100
AcDbEntity
  8
0
  6
Continuous
 62
     7
370
    15
100
AcDbPolyline
 90
       15
 70
   128
 43
0.0
 10
175.2273786862
 20
931.4813057235
 10
174.726878484
 20
931.9818059257
 10
174.2385078271
 20
932.4701765826
 10
173.7673927148
 20
932.9412916949
 10
173.3185399373
 20
933.3901444724
 10
172.8966880639
 20
933.8119963458
 10
172.5063074429
 20
934.2024067691
 10
172.1514809926
 20
934.5572034171
 10
171.8360234101
 20
934.8726609996
 10
171.563212951
 20
935.1454714587
 10
171.3359702428
 20
935.3727141669
 10
171.1566794713
 20
935.5520049384
 10
171.0272479852
 20
935.6814364245
 10
170.9490466912
 20
935.7596377185
 10
170.9228802521
 20
935.7858041575
  0
LINE
  5
123
330
1F
100
AcDbEntity
  8
0
  6
Continuous
 62
     7
370
    15
100
AcDbLine
 10
122.7777648766
 20
983.9309195331
 30
0.0
 11
140.4554296334
 21
1001.6085842898
 31
0.0
  0
LWPOLYLINE
  5
124
330
1F
100
AcDbEntity
  8
0
  6
Continuous
 62
     7
370
    15
100
AcDbPolyline
 90
       15
 70
   128
 43
0.0
 10
140.4554296334
 20
1001.6085842898
 10
140.9559298356
 20
1001.1080840877
 10
141.4443004926
 20
1000.6197134307
 10
141.9154156049
 20
1000.1485983184
 10
142.3642683823
 20
999.6997455409
 10
142.7861202557
 20
999.2778936675
 10
143.176530679
 20
998.8875130466
 10
143.531327327
 20
998.5326865962
 10
143.8468147118
 20
998.2172290137
 10
144.1195953687
 20
997.9444185546
 10
144.3468380769
 20
997.7171758464
 10
144.5261288483
 20
997.5378850749
 10
144.6555603345
 20
997.4084535888
 10
144.7337616284
 20
997.3302522948
 10
144.7599280675
 20
997.3040858558
  0
LWPOLYLINE
  5
125
330
1F
100
AcDbEntity
  8
0
  6
Continuous
 62
     7
370
    15
100
AcDbPolyline
 90
       15
 70
   128
 43
0.0
 10
127.0822633107
 20
979.626421099
 10
127.0560968716
 20
979.6525875381
 10
126.9778955777
 20
979.730788832
 10
126.8484640916
 20
979.8602203181
 10
126.6691733201
 20
980.0395110896
 10
126.4419306119
 20
980.2667537978
 10
126.1691201527
 20
980.539564257
 10
125.8536625703
 20
980.8550218394
 10
125.4988659222
 20
981.2098482898
 10
125.108455499
 20
981.6002289107
 10
124.6866036256
 20
982.0220807841
 10
124.2377508481
 20
982.4709335616
 10
123.7666357358
 20
982.9420486739
 10
123.2782650788
 20
983.4304193309
 10
122.7777648766
 20
983.9309195331
  0
LWPOLYLINE
  5
126
330
1F
100
AcDbEntity
  8
0
  6
Continuous
 62
     7
370
    15
100
AcDbPolyline
 90
       51
 70
   128
 43
0.0
 10
-11.5852307479
 20
1118.2939151576
 10
-9.641731898
 20
1116.3504461101
 10
-7.6582681339
 20
1114.3669227412
 10
-5.6353162925
 20
1112.3440007022
 10
-3.5734128158
 20
1110.2820972255
 10
-1.4730643432
 20
1108.1817487529
 10
0.6652224858
 20
1106.0434917262
 10
2.8408516248
 20
1103.8678625873
 10
5.0533164342
 20
1101.6553977778
 10
7.3020506699
 20
1099.4066337398
 10
9.5864880879
 20
1097.1221665195
 10
11.906062444
 20
1094.802651768
 10
14.2601776917
 20
1092.448506718
 10
16.6482377847
 20
1090.060446625
 10
19.0696466763
 20
1087.6390675357
 10
21.523778518
 20
1085.1849058917
 10
24.0100372632
 20
1082.6986173442
 10
26.5277970631
 20
1080.1808575442
 10
29.0764320691
 20
1077.6322821429
 10
31.6552568276
 20
1075.0534275821
 10
34.2636752923
 20
1072.4450091174
 10
36.9009722073
 20
1069.8077420047
 10
39.566521724
 20
1067.1421626857
 10
42.2596681912
 20
1064.4490460208
 10
44.9796963532
 20
1061.7289880565
 10
47.7259207566
 20
1058.9827636531
 10
50.497655948
 20
1056.2110284617
 10
53.2942462762
 20
1053.4144381335
 10
56.1149168809
 20
1050.5937675288
 10
58.959012111
 20
1047.7496722987
 10
61.8257869084
 20
1044.882867699
 10
64.7145260175
 20
1041.9941285899
 10
67.6245141824
 20
1039.0841702273
 10
70.5550063451
 20
1036.1536780646
 10
73.5052574475
 20
1033.2034567645
 10
76.4745224316
 20
1030.2341619781
 10
79.4620562394
 20
1027.2466281703
 10
82.467143615
 20
1024.241570597
 10
85.4889500935
 20
1021.2197343162
 10
88.5267902215
 20
1018.1818941882
 10
91.5798593362
 20
1015.1288250735
 10
94.6474123795
 20
1012.0612720302
 10
97.7286446889
 20
1008.9800397208
 10
100.8228112061
 20
1005.8859030059
 10
103.9291072686
 20
1002.7796069434
 10
107.0467580159
 20
999.6619561961
 10
110.1749587853
 20
996.5337256244
 10
113.3129645188
 20
993.3957198909
 10
116.4599705537
 20
990.248713856
 10
119.6151722272
 20
987.0935121825
 10
122.7777648766
 20
983.9309195331
  0
LWPOLYLINE
  5
127
330
1F
100
AcDbEntity
  8
0
  6
Continuous
 62
     7
370
    15
100
AcDbPolyline
 90
       51
 70
   128
 43
0.0
 10
175.2273786862
 20
931.4813057235
 10
178.3899713357
 20
928.318713074
 10
181.5451730092
 20
925.1635114005
 10
184.692179044
 20
922.0165053657
 10
187.8301847775
 20
918.8784996322
 10
190.9584153493
 20
915.7502988627
 10
194.0760660966
 20
912.6326481154
 10
197.182362159
 20
909.526352053
 10
200.276498874
 20
906.4321855357
 10
203.3577311833
 20
903.3509532264
 10
206.4252842267
 20
900.283400183
 10
209.4783533414
 20
897.2303310683
 10
212.5161934693
 20
894.1924909404
 10
215.5380297501
 20
891.1706844619
 10
218.5430873235
 20
888.1655970862
 10
221.5306211312
 20
885.1780632785
 10
224.4999159177
 20
882.2087982944
 10
227.4501372178
 20
879.2585471919
 10
230.3806293805
 20
876.3280550292
 10
233.2905877431
 20
873.4180668643
 10
236.1793268521
 20
870.5293277553
 10
239.0461314519
 20
867.6625529578
 10
241.890226682
 20
864.8184577277
 10
244.7108972867
 20
861.997787123
 10
247.5074876149
 20
859.2011967948
 10
250.2792228062
 20
856.4294616035
 10
253.0254472096
 20
853.6832372001
 10
255.7455051739
 20
850.9632090381
 10
258.4386218388
 20
848.2700625709
 10
261.1042011578
 20
845.6045130542
 10
263.7414682706
 20
842.9672161391
 10
266.3498867352
 20
840.3587976745
 10
268.9287412961
 20
837.7799729159
 10
271.4773166974
 20
835.23133791
 10
273.9950764973
 20
832.71357811
 10
276.4813650449
 20
830.2273193648
 10
278.9355266888
 20
827.7731875232
 10
281.3569057782
 20
825.3517786315
 10
283.7449658711
 20
822.9637185386
 10
286.0991109212
 20
820.6096032908
 10
288.4186256726
 20
818.2900289348
 10
290.7030928929
 20
816.0055915168
 10
292.951856931
 20
813.756857281
 10
295.1643217404
 20
811.5443924716
 10
297.3399508794
 20
809.3687633327
 10
299.478207906
 20
807.2304765037
 10
301.5785563786
 20
805.1301280311
 10
303.6404598553
 20
803.0682245543
 10
305.6633818944
 20
801.045272713
 10
307.6469052632
 20
799.0618089488
 10
309.5903743108
 20
797.1183100989
  0
ELLIPSE
  5
128
330
1F
100
AcDbEntity
  8
0
  6
Continuous
 62
     7
370
    15
100
AcDbEllipse
 10
-52.4391795278
 20
756.2643613191
 30
0.0
 11
369.9710114386806
 21
369.9710114386818
 31
0.0
210
0.0
220
0.0
230
1.0
 40
0.4887287625
 41
5.074949405041091
 42
5.091737776998105
  0
SPLINE
  5
129
330
1F
100
AcDbEntity
  8
0
  6
Continuous
 62
     7
370
    15
100
AcDbSpline
210
0.0
220
0.0
230
1.0
 70
     8
 71
     3
 72
    15
 73
    11
 74
     0
 42
0.00000001
 43
0.00000001
 12
1.0
 22
0.0
 32
0.0
 13
1.0
 23
0.0
 33
0.0
 40
0.0
 40
0.0
 40
0.0
 40
0.0
 40
0.2282959365538699
 40
0.4565778277121743
 40
0.5907353552732469
 40
0.7248761537407014
 40
0.8044331239648869
 40
0.8839684017241345
 40
0.9420315648838378
 40
1.0
 40
1.0
 40
1.0
 40
1.0
 10
247.839187463072
 20
718.420762782384
 30
0.0
 10
246.540742313675
 20
717.9815187494833
 30
0.0
 10
243.9439318988073
 20
717.1030577071859
 30
0.0
 10
240.5778886753116
 20
716.0401584865051
 30
0.0
 10
237.7527589805385
 20
715.2058519018741
 30
0.0
 10
235.7835751161683
 20
714.6776632309666
 30
0.0
 10
234.1353713061887
 20
714.2830202283156
 30
0.0
 10
232.932980828553
 20
714.0457614321916
 30
0.0
 10
231.8631364158494
 20
713.8730220717556
 30
0.0
 10
231.2667949343371
 20
713.8502937303482
 30
0.0
 10
230.9688676197798
 20
713.8389388373386
 30
0.0
  0
LWPOLYLINE
  5
12A
330
1F
100
AcDbEntity
  8
0
  6
Continuous
 62
     7
370
    15
100
AcDbPolyline
 90
       56
 70
   128
 43
0.0
 10
230.9688676198
 20
713.8389388373
 10
229.2536843617
 20
715.5541071942
 10
227.4970162709
 20
717.3108050874
 10
225.6992507775
 20
719.1085705808
 10
223.860894521
 20
720.9469417384
 10
221.9823945363
 20
722.825426822
 10
220.0642574628
 20
724.7435638955
 10
218.10698994
 20
726.7008463195
 10
216.1110390027
 20
728.6967674544
 10
214.0770006974
 20
730.730835562
 10
212.0053220589
 20
732.8024992993
 10
209.8965693314
 20
734.9112520268
 10
207.751308759
 20
737.0565275004
 10
205.5700469811
 20
739.2377743772
 10
203.3533800442
 20
741.454441314
 10
201.1018443902
 20
743.7059620669
 10
198.8160658677
 20
745.9917405894
 10
196.4966107209
 20
748.3112106374
 10
194.1440749963
 20
750.663746362
 10
191.7590547402
 20
753.0487666181
 10
189.3421758015
 20
755.4656455567
 10
186.894064029
 20
757.9137573293
 10
184.4153452714
 20
760.3924760869
 10
181.9066453774
 20
762.9011610797
 10
179.3686498006
 20
765.4391715577
 10
176.8019545872
 20
768.0058518699
 10
174.2072749932
 20
770.6005463651
 10
171.5852368672
 20
773.2225695899
 10
168.936555465
 20
775.8712658933
 10
166.2618864377
 20
778.5459349206
 10
163.5619152386
 20
781.2459061196
 10
160.8373571236
 20
783.9704791358
 10
158.0888975461
 20
786.7189387134
 10
155.3172219594
 20
789.4905844977
 10
152.5231052239
 20
792.2847012332
 10
149.7072327931
 20
795.1006034663
 10
146.8703199227
 20
797.9375163367
 10
144.0131116708
 20
800.7947245887
 10
141.136323293
 20
803.6714831641
 10
138.2407296498
 20
806.5670768073
 10
135.3270757993
 20
809.4807604602
 10
132.3960769971
 20
812.4117592624
 10
129.4485081036
 20
815.3593281558
 10
126.485114177
 20
818.3227220824
 10
123.5066700776
 20
821.3011363795
 10
120.5139804681
 20
824.2938557914
 10
117.5077308018
 20
827.3000756553
 10
114.4887853463
 20
830.3190509131
 10
111.4578593571
 20
833.3499471
 10
108.4157574971
 20
836.39204896
 10
105.3632546265
 20
839.4445518306
 10
102.3011554082
 20
842.5066510489
 10
99.2302347024
 20
845.5776015571
 10
96.1512673695
 20
848.6565390876
 10
93.0650878747
 20
851.7427483848
 10
89.9724412759
 20
854.8353651813
  0
LWPOLYLINE
  5
12B
330
1F
100
AcDbEntity
  8
0
  6
Continuous
 62
     7
370
    15
100
AcDbPolyline
 90
       61
 70
   128
 43
0.0
 10
46.1318243344
 20
898.6759821227
 10
43.0180180867
 20
901.7897883704
 10
39.9107683499
 20
904.8970679095
 10
36.8108499844
 20
907.996986275
 10
33.719067653
 20
911.0887388042
 10
30.6362856229
 20
914.1715506366
 10
27.5632489522
 20
917.2445575049
 10
24.5007921059
 20
920.3070143512
 10
21.4497197469
 20
923.3581165126
 10
18.410776933
 20
926.3970295241
 10
15.3848279317
 20
929.4230083278
 10
12.372617801
 20
932.4352184585
 10
9.3749512036
 20
935.4328850558
 10
6.392603
 20
938.4152332595
 10
3.4263480504
 20
941.3814882091
 10
0.4769612153
 20
944.3308750442
 10
-2.454782645
 20
947.2625891021
 10
-5.36810867
 20
950.1759449294
 10
-8.2622718017
 20
953.0700782588
 10
-11.1364971797
 20
955.9443334392
 10
-13.9900695483
 20
958.7978760055
 10
-16.8222140472
 20
961.6300205043
 10
-19.6321856181
 20
964.4400218776
 10
-22.4192690055
 20
967.227105265
 10
-25.1827489536
 20
969.9905554107
 10
-27.921865503
 20
972.7296868613
 10
-30.6359332006
 20
975.4437545589
 10
-33.3242367904
 20
978.1320730498
 10
-35.9860759179
 20
980.7938972762
 10
-38.6207502286
 20
983.4285715869
 10
-41.2275593679
 20
986.0353807261
 10
-43.8058476846
 20
988.6136690429
 10
-46.3549297254
 20
991.1627510837
 10
-48.8741498391
 20
993.6819711974
 10
-51.3628374736
 20
996.1706439307
 10
-53.8203518789
 20
998.6281732371
 10
-56.2460374038
 20
1001.0538438609
 10
-58.6392681997
 20
1003.4470895579
 10
-60.9994333188
 20
1005.8072546771
 10
-63.3258920114
 20
1008.1337133697
 10
-65.618063132
 20
1010.4258695891
 10
-67.875320832
 20
1012.6831570914
 10
-70.0970988672
 20
1014.9049202254
 10
-72.2828160922
 20
1017.0906225493
 10
-74.4318764608
 20
1019.239697819
 10
-76.543743531
 20
1021.3515797904
 10
-78.6178659599
 20
1023.425672417
 10
-80.6536924045
 20
1025.4614988616
 10
-82.650686423
 20
1027.4584928802
 10
-84.608341376
 20
1029.4161478332
 10
-86.5261357228
 20
1031.3339570811
 10
-88.403562824
 20
1033.2113841823
 10
-90.2401458423
 20
1035.0479821017
 10
-92.0354079406
 20
1036.8432143977
 10
-93.7888722818
 20
1038.5967234424
 10
-95.5000769298
 20
1040.3079131892
 10
-97.168589751
 20
1041.9764260104
 10
-98.7939637105
 20
1043.6017850688
 10
-100.3757666747
 20
1045.1835731318
 10
-101.9135963123
 20
1046.7214325717
 10
-103.4070651929
 20
1048.2148865512
  0
ELLIPSE
  5
12C
330
1F
100
AcDbEntity
  8
0
  6
Continuous
 62
     7
370
    15
100
AcDbEllipse
 10
-50.4887797363
 20
758.2147611106
 30
0.0
 11
370.3126683866799
 21
370.3126683866815
 31
0.0
210
0.0
220
0.0
230
1.0
 40
0.4887287625
 41
1.193737218734689
 42
1.244950356166287
  0
SPLINE
  5
12D
330
1F
100
AcDbEntity
  8
0
  6
Continuous
 62
     7
370
    15
100
AcDbSpline
210
0.0
220
0.0
230
1.0
 70
     8
 71
     3
 72
    14
 73
    10
 74
     0
 42
0.00000001
 43
0.00000001
 12
1.0
 22
0.0
 32
0.0
 13
1.0
 23
0.0
 33
0.0
 40
0.0
 40
0.0
 40
0.0
 40
0.0
 40
0.0000076851680266
 40
0.1805042572348585
 40
0.361002343601367
 40
0.5436838997253055
 40
0.7263692281992428
 40
0.8630825088409538
 40
1.0
 40
1.0
 40
1.0
 40
1.0
 10
349.8604644139082
 20
756.270472173978
 30
0.0
 10
349.8604644139325
 20
756.2704721739881
 30
0.0
 10
349.8604649840882
 20
756.2704724125673
 30
0.0
 10
349.7802354861705
 20
756.236876156906
 30
0.0
 10
349.4206289851316
 20
756.0863297803262
 30
0.0
 10
348.8216409910218
 20
755.835527950868
 30
0.0
 10
348.0539655436292
 20
755.5140466851744
 30
0.0
 10
347.2012045439965
 20
755.1569406204584
 30
0.0
 10
346.5875476648853
 20
754.8999479734717
 30
0.0
 10
346.2804902394087
 20
754.7713557532321
 30
0.0
  0
LWPOLYLINE
  5
12E
330
1F
100
AcDbEntity
  8
0
  6
Continuous
 62
     7
370
    15
100
AcDbPolyline
 90
        9
 70
   128
 43
0.0
 10
79.3658543427
 20
865.4419819167
 10
76.5395212968
 20
868.2682851604
 10
73.7114001115
 20
871.096436148
 10
70.8820570309
 20
873.9257494262
 10
68.0521477063
 20
876.7556885531
 10
65.2222085793
 20
879.5855978778
 10
62.3928953011
 20
882.4149409583
 10
59.5647443135
 20
885.2430621436
 10
56.7384410699
 20
888.0693951896
  0
LINE
  5
12F
330
1F
100
AcDbEntity
  8
0
  6
Continuous
 62
     7
370
    15
100
AcDbLine
 10
6.0924340089
 20
1135.9715799144
 30
0.0
 11
-11.5852307479
 21
1118.2939151576
 31
0.0
  0
LWPOLYLINE
  5
130
330
1F
100
AcDbEntity
  8
0
  6
Continuous
 62
     7
370
    15
100
AcDbPolyline
 90
       51
 70
   128
 43
0.0
 10
6.0924340089
 20
1135.9715799144
 10
8.0359328587
 20
1134.0281108668
 10
10.0193966229
 20
1132.0446471026
 10
12.0423484643
 20
1130.021665459
 10
14.104251941
 20
1127.9597619823
 10
16.2046004136
 20
1125.8594135097
 10
18.3428872426
 20
1123.721156483
 10
20.5185163815
 20
1121.545527344
 10
22.7309811909
 20
1119.3330625346
 10
24.9797154267
 20
1117.0842984965
 10
27.2641528447
 20
1114.7998908809
 10
29.5837272008
 20
1112.4803165248
 10
31.9378424485
 20
1110.1261714747
 10
34.3259025414
 20
1107.7381113818
 10
36.7473114331
 20
1105.3167322925
 10
39.2014432748
 20
1102.8625706485
 10
41.6877318223
 20
1100.376282101
 10
44.2054916222
 20
1097.858522301
 10
46.7540968259
 20
1095.3099468997
 10
49.3329215844
 20
1092.7310923388
 10
51.9413400491
 20
1090.1226738742
 10
54.5786369641
 20
1087.4854067615
 10
57.2441864808
 20
1084.8198274425
 10
59.937332948
 20
1082.1267107776
 10
62.65736111
 20
1079.4066528132
 10
65.4035855134
 20
1076.6604284099
 10
68.175350507
 20
1073.8886932185
 10
70.9719110329
 20
1071.0921028903
 10
73.7925816376
 20
1068.2714322856
 10
76.6366768678
 20
1065.4273370555
 10
79.5034516652
 20
1062.5605920604
 10
82.3921907742
 20
1059.6718529513
 10
85.3021789391
 20
1056.7618349841
 10
88.2326711018
 20
1053.8313726237
 10
91.1829222043
 20
1050.8811215213
 10
94.1521871884
 20
1047.9118565372
 10
97.1397209962
 20
1044.9242929271
 10
100.1448083718
 20
1041.9192055514
 10
103.1666446526
 20
1038.8973692706
 10
106.2044549783
 20
1035.859558945
 10
109.2575538953
 20
1032.8064898303
 10
112.3250771363
 20
1029.7389367869
 10
115.4063094456
 20
1026.6577044776
 10
118.5004759629
 20
1023.5635677627
 10
121.6067720254
 20
1020.4572717002
 10
124.7244227727
 20
1017.3396209529
 10
127.8526235421
 20
1014.2113903811
 10
130.9906292756
 20
1011.0733846477
 10
134.1376353104
 20
1007.9263786128
 10
137.2928369839
 20
1004.7712067416
 10
140.4554296334
 20
1001.6085842898
  0
LINE
  5
131
330
1F
100
AcDbEntity
  8
0
  6
Continuous
 62
     7
370
    15
100
AcDbLine
 10
309.5903743108
 20
797.1183100989
 30
0.0
 11
327.2680390675
 21
814.7959748557
 31
0.0
  0
LWPOLYLINE
  5
132
330
1F
100
AcDbEntity
  8
0
  6
Continuous
 62
     7
370
    15
100
AcDbPolyline
 90
       51
 70
   128
 43
0.0
 10
192.905043443
 20
949.1589704803
 10
196.0676658948
 20
945.9963778308
 10
199.222837766
 20
942.8411761573
 10
202.3698438008
 20
939.6941701224
 10
205.5078495343
 20
936.5561643889
 10
208.636080106
 20
933.4279636195
 10
211.7537308533
 20
930.3103128722
 10
214.8600269158
 20
927.2040168098
 10
217.9541636308
 20
924.1098502925
 10
221.0353959401
 20
921.0286179832
 10
224.1029489835
 20
917.9610947421
 10
227.1560180981
 20
914.9079958251
 10
230.1938284238
 20
911.8701854995
 10
233.2156647046
 20
908.8483492187
 10
236.2207520802
 20
905.843261843
 10
239.2083156903
 20
902.8557280353
 10
242.1775806744
 20
899.8864630511
 10
245.1278317769
 20
896.9362119487
 10
248.0582941373
 20
894.005719786
 10
250.9683121045
 20
891.0957316211
 10
253.8570512135
 20
888.206992512
 10
256.7237962086
 20
885.3402177146
 10
259.5678914387
 20
882.4961224845
 10
262.3885620435
 20
879.6754518798
 10
265.1851523717
 20
876.8788913539
 10
267.956887563
 20
874.1071263602
 10
270.7031119664
 20
871.3609019568
 10
273.4231699307
 20
868.6408737948
 10
276.1162865956
 20
865.9477273276
 10
278.7818659146
 20
863.282177811
 10
281.4191330273
 20
860.6448808959
 10
284.027551492
 20
858.0364624312
 10
286.6064060529
 20
855.4576376727
 10
289.1549814542
 20
852.9090324691
 10
291.6727412541
 20
850.3912726691
 10
294.1590298016
 20
847.9049841216
 10
296.6131914456
 20
845.45085228
 10
299.034570535
 20
843.0294433883
 10
301.4226306279
 20
840.6413832953
 10
303.7767756779
 20
838.2872680476
 10
306.096350034
 20
835.9676936915
 10
308.3807576497
 20
833.6832562736
 10
310.6295216878
 20
831.4345220378
 10
312.8419864972
 20
829.2220572284
 10
315.0176156361
 20
827.0464280894
 10
317.1558726628
 20
824.9081412604
 10
319.2562211354
 20
822.8077927878
 10
321.3181246121
 20
820.7458893111
 10
323.3411062558
 20
818.7229374698
 10
325.32457002
 20
816.7394737056
 10
327.2680390675
 20
814.7959748557
  0
SPLINE
  5
133
330
1F
100
AcDbEntity
  8
0
  6
Continuous
 62
     7
370
    15
100
AcDbSpline
210
0.0
220
0.0
230
1.0
 70
     8
 71
     3
 72
    20
 73
    16
 74
     0
 42
0.00000001
 43
0.00000001
 12
1.0
 22
0.0
 32
0.0
 13
1.0
 23
0.0
 33
0.0
 40
0.0
 40
0.0
 40
0.0
 40
0.0
 40
0.1156202686696626
 40
0.2312413761057406
 40
0.3468815013172568
 40
0.4625219511775367
 40
0.5518511615624174
 40
0.6411799947512231
 40
0.7305028927308587
 40
0.7754128032551838
 40
0.8203780429181334
 40
0.8653423128807656
 40
0.9102691071953353
 40
0.9551478176300828
 40
1.0
 40
1.0
 40
1.0
 40
1.0
 10
-368.4330683152407
 20
513.3258031955253
 30
0.0
 10
-364.7715011762332
 20
514.0359961163148
 30
0.0
 10
-357.4483403354055
 20
515.4563871099836
 30
0.0
 10
-346.4879147539042
 20
517.713301560099
 30
0.0
 10
-335.5389237514944
 20
520.0282068069067
 30
0.0
 10
-325.424885379374
 20
522.1927991280855
 30
0.0
 10
-316.1403032854683
 20
524.177878177489
 30
0.0
 10
-307.6760552230386
 20
525.9393903268892
 30
0.0
 10
-300.5965450615286
 20
527.3200239343998
 30
0.0
 10
-294.9069538850949
 20
528.3466846602668
 30
0.0
 10
-290.6140777779693
 20
529.0522211852062
 30
0.0
 10
-286.3058382002052
 20
529.6634654516344
 30
0.0
 10
-281.9842374035037
 20
530.1459341684839
 30
0.0
 10
-277.6515333526925
 20
530.489568379123
 30
0.0
 10
-274.7568888413408
 20
530.5580670534131
 30
0.0
 10
-273.3099944723986
 20
530.5923062650751
 30
0.0
  0
LWPOLYLINE
  5
134
330
1F
100
AcDbEntity
  8
0
  6
Continuous
 62
     7
370
    15
100
AcDbPolyline
 90
       19
 70
   128
 43
0.0
 10
-372.21990786
 20
536.2704733661
 10
-372.0631178419
 20
535.2669721278
 10
-371.8975435893
 20
534.2162232654
 10
-371.723579983
 20
533.1207697554
 10
-371.5416591565
 20
531.983263073
 10
-371.3522132437
 20
530.8064559749
 10
-371.1556967299
 20
529.5931973769
 10
-370.9525939028
 20
528.3464232734
 10
-370.7433965008
 20
527.0691506839
 10
-370.5286037128
 20
525.764472065
 10
-370.3087370794
 20
524.4355436689
 10
-370.0843330424
 20
523.085583215
 10
-369.8559354942
 20
521.7178577831
 10
-369.6240883271
 20
520.3356763622
 10
-369.389365236
 20
518.9423861256
 10
-369.1523175637
 20
517.5413584611
 10
-368.9135413568
 20
516.1359833828
 10
-368.6735954087
 20
514.7296639433
 10
-368.4330683152
 20
513.3258031955
  0
SPLINE
  5
135
330
1F
100
AcDbEntity
  8
0
  6
Continuous
 62
     7
370
    15
100
AcDbSpline
210
0.0
220
0.0
230
1.0
 70
     8
 71
     3
 72
    22
 73
    18
 74
     0
 42
0.00000001
 43
0.00000001
 12
1.0
 22
0.0
 32
0.0
 13
1.0
 23
0.0
 33
0.0
 40
0.0
 40
0.0
 40
0.0
 40
0.0
 40
0.1249999999999994
 40
0.1249999999999994
 40
0.2499999999999987
 40
0.2499999999999987
 40
0.3749999999999981
 40
0.3749999999999981
 40
0.4062499999999981
 40
0.4062499999999981
 40
0.437499999999998
 40
0.437499999999998
 40
0.4999999999999981
 40
0.4999999999999981
 40
0.7499999999999989
 40
0.7499999999999989
 40
1.0
 40
1.0
 40
1.0
 40
1.0
 10
-396.142946926988
 20
573.885406679261
 30
0.0
 10
-395.9878515319699
 20
579.629744131465
 30
0.0
 10
-395.865354132149
 20
585.3188225637156
 30
0.0
 10
-395.6672537072658
 20
596.5870989389055
 30
0.0
 10
-395.5917461777342
 20
602.1663060720012
 30
0.0
 10
-395.4767077900995
 20
613.2145236922602
 30
0.0
 10
-395.4372209664027
 20
618.683545358042
 30
0.0
 10
-395.4066981723327
 20
625.449959557307
 30
0.0
 10
-395.4015464546201
 20
626.7997456568628
 30
0.0
 10
-395.3930986820049
 20
629.4922840322968
 30
0.0
 10
-395.3898040309732
 20
630.8351507740963
 30
0.0
 10
-395.3826626950083
 20
634.8418644783343
 30
0.0
 10
-395.3815375841809
 20
637.4876293655243
 30
0.0
 10
-395.3934012725164
 20
650.5907252593149
 30
0.0
 10
-395.4574102419126
 20
660.6730745816209
 30
0.0
 10
-395.7052518564462
 20
680.0323805555281
 30
0.0
 10
-395.8904331869442
 20
689.3095534680593
 30
0.0
 10
-396.149220533095
 20
698.15195467771
 30
0.0
  0
LWPOLYLINE
  5
136
330
1F
100
AcDbEntity
  8
0
  6
Continuous
 62
     7
370
    15
100
AcDbPolyline
 90
       15
 70
   128
 43
0.0
 10
-383.3617296021
 20
707.9568544677
 10
-384.6396084826
 20
707.4684093049
 10
-385.8732681672
 20
706.9405654719
 10
-387.0593409936
 20
706.3747683814
 10
-388.1945934097
 20
705.7725528529
 10
-389.2759259741
 20
705.1355580142
 10
-390.3003882568
 20
704.4655273011
 10
-391.2651788394
 20
703.7642935565
 10
-392.1676825683
 20
703.033764129
 10
-393.0054184
 20
702.2759357741
 10
-393.776106457
 20
701.4928797534
 10
-394.477653126
 20
700.6867269328
 10
-395.1081361572
 20
699.8596677831
 10
-395.6658270161
 20
699.0139821818
 10
-396.1492206852
 20
698.1519500068
  0
LWPOLYLINE
  5
137
330
1F
100
AcDbEntity
  8
0
  6
Continuous
 62
     7
370
    15
100
AcDbPolyline
 90
       21
 70
   128
 43
0.0
 10
-376.1846449177
 20
579.2643392733
 10
-377.5727327864
 20
579.1470820358
 10
-378.9379324715
 20
579.0107140592
 10
-380.2768390577
 20
578.8555743447
 10
-381.5860923331
 20
578.6820540479
 10
-382.8624140422
 20
578.4905815771
 10
-384.1026153366
 20
578.2816449454
 10
-385.3035893242
 20
578.0557582429
 10
-386.4623185198
 20
577.8134914389
 10
-387.5759195487
 20
577.5554517558
 10
-388.6415909927
 20
577.2822836688
 10
-389.6566729943
 20
576.994668906
 10
-390.6186249058
 20
576.6933338991
 10
-391.5250252883
 20
576.3790274313
 10
-392.3736240666
 20
576.052535539
 10
-393.1622754733
 20
575.7146815112
 10
-393.8890274565
 20
575.3663072637
 10
-394.5520471732
 20
575.0082845142
 10
-395.1496731441
 20
574.6415147832
 10
-395.6804152529
 20
574.2669070414
 10
-396.1429472964
 20
573.8854075125
  0
SPLINE
  5
138
330
1F
100
AcDbEntity
  8
0
  6
Continuous
 62
     7
370
    15
100
AcDbSpline
210
0.0
220
0.0
230
1.0
 70
     8
 71
     3
 72
     9
 73
     5
 74
     0
 42
0.00000001
 43
0.00000001
 12
1.0
 22
0.0
 32
0.0
 13
1.0
 23
0.0
 33
0.0
 40
0.0
 40
0.0
 40
0.0
 40
0.0
 40
0.0113842267626743
 40
0.9999999999999999
 40
0.9999999999999999
 40
0.9999999999999999
 40
0.9999999999999999
 10
229.5132625897199
 20
713.8243953040134
 30
0.0
 10
229.5187060214071
 20
713.824539860172
 30
0.0
 10
229.9968616134053
 20
713.8372377940344
 30
0.0
 10
230.4856468375073
 20
713.838093184667
 30
0.0
 10
230.9688676197798
 20
713.8389388373386
 30
0.0
  0
LINE
  5
139
330
1F
100
AcDbEntity
  8
0
  6
Continuous
 62
     7
370
    15
100
AcDbLine
 10
-103.4070651929
 20
1048.2148865512
 30
0.0
 11
-103.8434307973
 21
1047.9175785831
 31
0.0
  0
LWPOLYLINE
  5
13A
330
1F
100
AcDbEntity
  8
0
  6
Continuous
 62
     7
370
    15
100
AcDbPolyline
 90
       33
 70
   128
 43
0.0
 10
-397.4330674808
 20
515.7454220852
 10
-397.3981391589
 20
515.6266970834
 10
-397.2934212486
 20
515.5082589289
 10
-397.1191894214
 20
515.3903907439
 10
-396.8758385579
 20
515.273377513
 10
-396.5639721553
 20
515.1575023582
 10
-396.1843352716
 20
515.0430446765
 10
-395.7378443281
 20
514.9302764138
 10
-395.2255722086
 20
514.8194732419
 10
-394.6487557094
 20
514.7109015188
 10
-394.0087806384
 20
514.6048220149
 10
-393.3071967165
 20
514.5014899126
 10
-392.5456877749
 20
514.4011529437
 10
-391.7260866563
 20
514.3040569773
 10
-390.8503677647
 20
514.2104311189
 10
-389.9206470649
 20
514.1205044737
 10
-388.9391671817
 20
514.0344931087
 10
-387.908275048
 20
513.9526019147
 10
-386.8304740588
 20
513.8750301948
 10
-385.7083495657
 20
513.8019660762
 10
-384.5446061294
 20
513.7335827848
 10
-383.3420451681
 20
513.6700460961
 10
-382.1035724084
 20
513.611508747
 10
-380.8321680824
 20
513.5581122985
 10
-379.5308869283
 20
513.5099852732
 10
-378.202873091
 20
513.4672431549
 10
-376.8513228695
 20
513.4299902519
 10
-375.4794921677
 20
513.3983159712
 10
-374.0906890433
 20
513.3722948185
 10
-372.6882513563
 20
513.3519919863
 10
-371.2755616705
 20
513.3374540409
 10
-369.8560323517
 20
513.3287163725
 10
-368.4330683152
 20
513.3258031955
  0
LWPOLYLINE
  5
13B
330
1F
100
AcDbEntity
  8
0
  6
Continuous
 62
     7
370
    15
100
AcDbPolyline
 90
       30
 70
   128
 43
0.0
 10
-372.21990786
 20
536.2704733661
 10
-373.6421715419
 20
536.111016433
 10
-375.0515904228
 20
535.9013667139
 10
-376.4446999829
 20
535.6420408743
 10
-377.8180655043
 20
535.3336781072
 10
-379.168296973
 20
534.9770383718
 10
-380.4920788805
 20
534.5730006038
 10
-381.7861329715
 20
534.1225606198
 10
-383.047277848
 20
533.6268285563
 10
-384.2724066179
 20
533.0870263087
 10
-385.458501796
 20
532.5044840383
 10
-386.6026278536
 20
531.8806378445
 10
-387.7019759218
 20
531.2170248753
 10
-388.7538414399
 20
530.5152803002
 10
-389.7556167047
 20
529.7771345167
 10
-390.7048430245
 20
529.0044063976
 10
-391.599180917
 20
528.1990004977
 10
-392.4364175598
 20
527.3629019311
 10
-393.2145040433
 20
526.4981698519
 10
-393.9315106671
 20
525.6069379201
 10
-394.5856716435
 20
524.6914012632
 10
-395.1753776471
 20
523.7538155442
 10
-395.6991758148
 20
522.7964932373
 10
-396.1557771961
 20
521.8217924511
 10
-396.5440493028
 20
520.8321169293
 10
-396.863045911
 20
519.8299030116
 10
-397.1119698088
 20
518.8176242909
 10
-397.2902100484
 20
517.7977739176
 10
-397.3973344962
 20
516.7728646001
 10
-397.4330674808
 20
515.7454220852
  0
LINE
  5
13C
330
1F
100
AcDbEntity
  8
0
  6
Continuous
 62
     7
370
    15
100
AcDbLine
 10
-397.4330674808
 20
290.2704665711
 30
0.0
 11
-397.4330674808
 21
515.7454220852
 31
0.0
  0
SPLINE
  5
13D
330
1F
100
AcDbEntity
  8
0
  6
Continuous
 62
     7
370
    15
100
AcDbSpline
210
0.0
220
0.0
230
1.0
 70
     8
 71
     3
 72
    10
 73
     6
 74
     0
 42
0.00000001
 43
0.00000001
 12
1.0
 22
0.0
 32
0.0
 13
1.0
 23
0.0
 33
0.0
 40
0.0
 40
0.0
 40
0.0
 40
0.0
 40
0.5
 40
0.5
 40
1.0
 40
1.0
 40
1.0
 40
1.0
 10
-397.4330674807755
 20
520.1450636599579
 30
0.0
 10
-397.4330674807755
 20
522.051872875848
 30
0.0
 10
-397.3897416324387
 20
523.9563838805863
 30
0.0
 10
-397.2950952646208
 20
527.7687696922466
 30
0.0
 10
-397.2439361814879
 20
529.6767535085545
 30
0.0
 10
-397.2109170661882
 20
531.5896072764921
 30
0.0
  0
LWPOLYLINE
  5
13E
330
1F
100
AcDbEntity
  8
0
  6
Continuous
 62
     7
370
    15
100
AcDbPolyline
 90
       26
 70
   128
 43
0.0
 10
-373.7869139712
 20
536.2704733661
 10
-375.217403094
 20
536.2129454942
 10
-376.6306292217
 20
536.1419400678
 10
-378.0229937236
 20
536.0576377815
 10
-379.3909575741
 20
535.9602531634
 10
-380.731041352
 20
535.8500339889
 10
-382.0398177902
 20
535.7272607898
 10
-383.313978831
 20
535.5922459666
 10
-384.5502685706
 20
535.4453330901
 10
-385.7455503146
 20
535.2868959116
 10
-386.896769325
 20
535.1173378103
 10
-388.0010049741
 20
534.9370901048
 10
-389.0554483931
 20
534.7466115881
 10
-390.0574173729
 20
534.5463867806
 10
-391.0043563645
 20
534.3369254651
 10
-391.8938513796
 20
534.118760358
 10
-392.723652343
 20
533.8924468769
 10
-393.4916432898
 20
533.6585608119
 10
-394.1958647172
 20
533.4176972783
 10
-394.8345210354
 20
533.1704693189
 10
-395.4060029189
 20
532.9175060423
 10
-395.9088426034
 20
532.6594509924
 10
-396.3417660396
 20
532.3969609844
 10
-396.7036705415
 20
532.1307040094
 10
-396.9936322372
 20
531.8613576046
 10
-397.2109135191
 20
531.5896074562
  0
SPLINE
  5
13F
330
1F
100
AcDbEntity
  8
0
  6
Continuous
 62
     7
370
    15
100
AcDbSpline
210
0.0
220
0.0
230
1.0
 70
    24
 71
     3
 72
    12
 73
     8
 74
     0
 42
0.00000001
 43
0.00000001
 12
1.0
 22
0.0
 32
0.0
 13
1.0
 23
0.0
 33
0.0
 40
0.0
 40
0.0
 40
0.0
 40
0.0
 40
0.2500000000000003
 40
0.2500000000000003
 40
0.5000000000000007
 40
0.5000000000000007
 40
1.0
 40
1.0
 40
1.0
 40
1.0
 10
-397.4330674807755
 20
520.1450636599579
 30
0.0
 10
-397.4330674807755
 20
519.7520696614854
 30
0.0
 10
-397.4330674807755
 20
519.3647658591801
 30
0.0
 10
-397.4330674807756
 20
518.6017082661712
 30
0.0
 10
-397.4330674807756
 20
518.2254083764441
 30
0.0
 10
-397.4330674807755
 20
517.1218615779924
 30
0.0
 10
-397.4330674807755
 20
516.4178334205399
 30
0.0
 10
-397.4330674807755
 20
515.7454224331539
 30
0.0
  0
SPLINE
  5
140
330
1F
100
AcDbEntity
  8
0
  6
Continuous
 62
     7
370
    15
100
AcDbSpline
210
0.0
220
0.0
230
1.0
 70
     8
 71
     3
 72
    10
 73
     6
 74
     0
 42
0.00000001
 43
0.00000001
 12
1.0
 22
0.0
 32
0.0
 13
1.0
 23
0.0
 33
0.0
 40
0.0
 40
0.0
 40
0.0
 40
0.0
 40
0.5
 40
0.5
 40
1.0
 40
1.0
 40
1.0
 40
1.0
 10
-397.2109170661888
 20
531.5896072764918
 30
0.0
 10
-397.0801648305797
 20
538.7042382406865
 30
0.0
 10
-396.9061401855874
 20
545.7856149931864
 30
0.0
 10
-396.5324197293905
 20
559.8838380256493
 30
0.0
 10
-396.3325751485101
 20
566.9006808313593
 30
0.0
 10
-396.1429469269879
 20
573.885406679261
 30
0.0
  0
SPLINE
  5
141
330
1F
100
AcDbEntity
  8
0
  6
Continuous
 62
     7
370
    15
100
AcDbSpline
210
0.0
220
0.0
230
1.0
 70
     8
 71
     3
 72
    20
 73
    16
 74
     0
 42
0.00000001
 43
0.00000001
 12
1.0
 22
0.0
 32
0.0
 13
1.0
 23
0.0
 33
0.0
 40
0.0
 40
0.0
 40
0.0
 40
0.0
 40
0.2500000000000005
 40
0.2500000000000005
 40
0.3750000000000004
 40
0.3750000000000004
 40
0.5000000000000003
 40
0.5000000000000003
 40
0.6250000000000002
 40
0.6250000000000002
 40
0.7500000000000001
 40
0.7500000000000001
 40
0.8750000000000001
 40
0.8750000000000001
 40
1.0
 40
1.0
 40
1.0
 40
1.0
 10
256.7537155455001
 20
708.3229005273581
 30
0.0
 10
255.6191789826898
 20
708.6741756914176
 30
0.0
 10
254.5321152187518
 20
709.1481871366633
 30
0.0
 10
252.9848396835378
 20
710.0746203064786
 30
0.0
 10
252.4813355856299
 20
710.4220985822637
 30
0.0
 10
251.5384728361389
 20
711.17589383655
 30
0.0
 10
251.095094790939
 20
711.5841387489311
 30
0.0
 10
250.2698374828462
 20
712.4693483977563
 30
0.0
 10
249.8860872519236
 20
712.9505388088761
 30
0.0
 10
249.2169129524493
 20
713.9484225683431
 30
0.0
 10
248.9272559743746
 20
714.46865453156
 30
0.0
 10
248.4411715672121
 20
715.5532951171882
 30
0.0
 10
248.2441536745362
 20
716.123075721548
 30
0.0
 10
247.9621040488611
 20
717.2647703878059
 30
0.0
 10
247.8744136681396
 20
717.8404097847789
 30
0.0
 10
247.839189120857
 20
718.4207632025727
 30
0.0
  0
SPLINE
  5
142
330
1F
100
AcDbEntity
  8
0
  6
Continuous
 62
     7
370
    15
100
AcDbSpline
210
0.0
220
0.0
230
1.0
 70
     8
 71
     3
 72
    17
 73
    13
 74
     0
 42
0.00000001
 43
0.00000001
 12
1.0
 22
0.0
 32
0.0
 13
1.0
 23
0.0
 33
0.0
 40
0.0
 40
0.0
 40
0.0
 40
0.0
 40
0.0912414005629488
 40
0.1824844382123405
 40
0.2740130491649391
 40
0.3655423970189087
 40
0.471462955622046
 40
0.5774018175073315
 40
0.6833289315317611
 40
0.7897274300947672
 40
0.8961375339907998
 40
1.0
 40
1.0
 40
1.0
 40
1.0
 10
324.5884526570112
 20
748.1791267445575
 30
0.0
 10
323.3345021729902
 20
747.6681800615546
 30
0.0
 10
320.8265787061117
 20
746.6462775279572
 30
0.0
 10
316.9058810820554
 20
745.0543734080081
 30
0.0
 10
312.8818568329916
 20
743.4252894881974
 30
0.0
 10
308.535585770236
 20
741.6717105280504
 30
0.0
 10
303.8660587154906
 20
739.7949692723093
 30
0.0
 10
298.8659640584839
 20
737.7948878166499
 30
0.0
 10
293.7605305703395
 20
735.7636363696356
 30
0.0
 10
288.5576063203055
 20
733.7063295682598
 30
0.0
 10
283.3132032502673
 20
731.6460231502313
 30
0.0
 10
279.7709690831859
 20
730.2701138642707
 30
0.0
 10
278.0213106472761
 20
729.5904943993579
 30
0.0
  0
SPLINE
  5
143
330
1F
100
AcDbEntity
  8
0
  6
Continuous
 62
     7
370
    15
100
AcDbSpline
210
0.0
220
0.0
230
1.0
 70
     8
 71
     3
 72
   101
 73
    97
 74
     0
 42
0.00000001
 43
0.00000001
 12
1.0
 22
0.0
 32
0.0
 13
1.0
 23
0.0
 33
0.0
 40
0.0
 40
0.0
 40
0.0
 40
0.0
 40
0.0097135792285579
 40
0.0194348751347973
 40
0.0291587851219838
 40
0.0388800940798141
 40
0.0485936621133692
 40
0.058578079881777
 40
0.068571132562298
 40
0.0785669085952721
 40
0.088559617405086
 40
0.0985437605376625
 40
0.1066211417099417
 40
0.114701814347228
 40
0.1227823305364965
 40
0.1308595149328937
 40
0.1389389815460546
 40
0.1470221837722837
 40
0.1551050886816546
 40
0.1631841756451694
 40
0.1717495549423771
 40
0.1803202730614089
 40
0.1888904510545267
 40
0.1974550938775128
 40
0.2045512219959289
 40
0.211653146299422
 40
0.2187566227467532
 40
0.2258577745188581
 40
0.2329532629634444
 40
0.2402599351766779
 40
0.2475737769096598
 40
0.2548898812824221
 40
0.262203490937136
 40
0.2695099904860191
 40
0.2766867357224178
 40
0.2838697521306587
 40
0.2910552773661881
 40
0.2982390712999211
 40
0.305416473144823
 40
0.3127943861469199
 40
0.3201773658661564
 40
0.3275627731060946
 40
0.3349471173228236
 40
0.342326178189637
 40
0.3517920633454477
 40
0.361262786276001
 40
0.3707345851426159
 40
0.3802019422088007
 40
0.3896584617910805
 40
0.3991178217928305
 40
0.4085778614033069
 40
0.4180352991662089
 40
0.4279464504407021
 40
0.437859557829378
 40
0.4477730783069624
 40
0.4576848670753924
 40
0.4704975389582374
 40
0.483313293977094
 40
0.4961308522213738
 40
0.5089481291740372
 40
0.5217620837833661
 40
0.5377690499065348
 40
0.5537784385617912
 40
0.5697882749002656
 40
0.5857958571546805
 40
0.6017998358023112
 40
0.6178055763544479
 40
0.6338113966461973
 40
0.6498155117194455
 40
0.6667075557726986
 40
0.6836016075922884
 40
0.7004955932448309
 40
0.7173874387431125
 40
0.7313919953185413
 40
0.7453979447597138
 40
0.7594037312636017
 40
0.7734080480462268
 40
0.7874151760546818
 40
0.8014242545323055
 40
0.8154329377846932
 40
0.8294396052197284
 40
0.8436866092131087
 40
0.8579368825825192
 40
0.8721862642472631
 40
0.8864321565808924
 40
0.8990223148388035
 40
0.9116164003221715
 40
0.924209367756682
 40
0.9367980075257377
 40
0.9470092696489866
 40
0.9572273631503311
 40
0.9674460494310537
 40
0.9776608635412731
 40
0.9878693347952964
 40
0.9939346968407865
 40
1.0
 40
1.0
 40
1.0
 40
1.0
 10
-101.2497346799105
 20
330.579553013135
 30
0.0
 10
-101.3564315331239
 20
331.4483630520327
 30
0.0
 10
-101.5699100018413
 20
333.1866733313366
 30
0.0
 10
-101.9028257117755
 20
336.0691571445647
 30
0.0
 10
-102.2381374006373
 20
339.1488087579723
 30
0.0
 10
-102.571520375578
 20
342.4408061254709
 30
0.0
 10
-102.9001758379055
 20
345.9690392825353
 30
0.0
 10
-103.2185502969389
 20
349.740542839009
 30
0.0
 10
-103.5174164686079
 20
353.7578150109138
 30
0.0
 10
-103.784643458132
 20
357.9814015245066
 30
0.0
 10
-104.0108079642429
 20
362.404329352878
 30
0.0
 10
-104.1755928654188
 20
366.7280432074132
 30
0.0
 10
-104.2818120532928
 20
370.9084460310154
 30
0.0
 10
-104.3340183237729
 20
374.9063696182973
 30
0.0
 10
-104.3333221122142
 20
379.0229707305735
 30
0.0
 10
-104.2729213249109
 20
383.2547730400492
 30
0.0
 10
-104.1458731487126
 20
387.5993548342474
 30
0.0
 10
-103.943843490395
 20
392.0527368370684
 30
0.0
 10
-103.6586480334158
 20
396.609275788107
 30
0.0
 10
-103.2744952910912
 20
401.3568954101397
 30
0.0
 10
-102.7752248346696
 20
406.2987536188788
 30
0.0
 10
-102.1425823985807
 20
411.4344430251371
 30
0.0
 10
-101.3754301592131
 20
416.6593611564901
 30
0.0
 10
-100.5152192684493
 20
421.6608160919355
 30
0.0
 10
-99.57968476260307
 20
426.4172431576684
 30
0.0
 10
-98.59055491299856
 20
430.9111084845381
 30
0.0
 10
-97.48286198689904
 20
435.442048745749
 30
0.0
 10
-96.25190329786074
 20
440.0007356538196
 30
0.0
 10
-94.8794575727752
 20
444.6250929410662
 30
0.0
 10
-93.3539839330981
 20
449.3099703943952
 30
0.0
 10
-91.66862511972177
 20
454.0486516462905
 30
0.0
 10
-89.83756422218256
 20
458.7865378553906
 30
0.0
 10
-87.86057340188653
 20
463.5118713684888
 30
0.0
 10
-85.74907465780002
 20
468.187595808603
 30
0.0
 10
-83.50362070505813
 20
472.8069848222282
 30
0.0
 10
-81.13088595277948
 20
477.3659280706188
 30
0.0
 10
-78.62165918897584
 20
481.8854899976196
 30
0.0
 10
-75.98119474018996
 20
486.3569932113803
 30
0.0
 10
-73.18730621004809
 20
490.8151620228055
 30
0.0
 10
-70.23853761529034
 20
495.2539405301239
 30
0.0
 10
-67.13782470036308
 20
499.6703033772999
 30
0.0
 10
-63.9191131943796
 20
504.0207428198265
 30
0.0
 10
-60.59059526510559
 20
508.3010853204398
 30
0.0
 10
-56.83514630526456
 20
512.9054055325706
 30
0.0
 10
-52.62289977623607
 20
517.8080115248335
 30
0.0
 10
-47.92928596293682
 20
522.9823642404737
 30
0.0
 10
-43.10202011003405
 20
528.040389709674
 30
0.0
 10
-38.15592980415527
 20
532.981618284532
 30
0.0
 10
-33.10228335739411
 20
537.8098517589185
 30
0.0
 10
-27.95093845213961
 20
542.5301818882159
 30
0.0
 10
-22.70981208484628
 20
547.1480601350082
 30
0.0
 10
-17.30317234959632
 20
551.7399041058818
 30
0.0
 10
-11.73493941197228
 20
556.3058022376539
 30
0.0
 10
-6.008099770637425
 20
560.8455129554598
 30
0.0
 10
-0.2165491054179555
 20
565.2930755586751
 30
0.0
 10
6.203271229485448
 20
570.0785691124563
 30
0.0
 10
13.26426705849332
 20
575.1784026943483
 30
0.0
 10
20.9778342518
 20
580.5677523866682
 30
0.0
 10
28.75831616423419
 20
585.8383384148576
 30
0.0
 10
36.59569941353464
 20
590.9976285878158
 30
0.0
 10
45.13616750895594
 20
596.4742577441446
 30
0.0
 10
54.38584349761916
 20
602.247871971194
 30
0.0
 10
64.34943523086301
 20
608.2961854716743
 30
0.0
 10
74.3577736636869
 20
614.2180286637545
 30
0.0
 10
84.40012057405505
 20
620.0231787795257
 30
0.0
 10
94.46802826284866
 20
625.721986273369
 30
0.0
 10
104.5553330204037
 20
631.3204017215746
 30
0.0
 10
114.6557038582123
 20
636.8248609833497
 30
0.0
 10
124.9490888990111
 20
642.3414381750647
 30
0.0
 10
135.4295883572785
 20
647.8709392378837
 30
0.0
 10
146.0908594004815
 20
653.411677549326
 30
0.0
 10
156.7386582382718
 20
658.8685677980486
 30
0.0
 10
166.7600592472516
 20
663.93881800433
 30
0.0
 10
176.1534767114476
 20
668.640391894315
 30
0.0
 10
184.9199071603889
 20
672.9875502310737
 30
0.0
 10
193.6584961807003
 20
677.283111930034
 30
0.0
 10
202.3647995381095
 20
681.5277395550245
 30
0.0
 10
211.0343672005604
 20
685.7220755393251
 30
0.0
 10
219.6616172398631
 20
689.8655038650174
 30
0.0
 10
228.2391811798931
 20
693.9568000031209
 30
0.0
 10
236.8087177695007
 20
698.0177293332347
 30
0.0
 10
245.3627277940714
 20
702.0464320793711
 30
0.0
 10
253.8905134309208
 20
706.0391643793466
 30
0.0
 10
262.3321213649513
 20
709.9697016091933
 30
0.0
 10
270.3521803729229
 20
713.6844017565512
 30
0.0
 10
277.9534449468271
 20
717.1888775758622
 30
0.0
 10
285.1381461494666
 20
720.4875808647795
 30
0.0
 10
292.2112697587053
 20
723.7223856417742
 30
0.0
 10
298.7204519258198
 20
726.6881782825848
 30
0.0
 10
304.6808974377202
 20
729.3953642456241
 30
0.0
 10
310.1090210670114
 20
731.854060193977
 30
0.0
 10
315.4198753598928
 20
734.2533978336052
 30
0.0
 10
320.5978787804662
 20
736.5869814906434
 30
0.0
 10
324.9444708967252
 20
738.5413191241022
 30
0.0
 10
328.5203235555115
 20
740.1463349487741
 30
0.0
 10
330.4082104583428
 20
740.9923997346345
 30
0.0
 10
331.3521493275435
 20
741.4154300740253
 30
0.0
  0
ARC
  5
144
330
1F
100
AcDbEntity
  8
0
  6
Continuous
 62
     7
370
    15
100
AcDbCircle
 10
-101.098416376
 20
317.9533462459
 30
0.0
 40
12.62711346899246
100
AcDbArc
 50
90.6866262602
 51
130.9687517527
  0
SPLINE
  5
145
330
1F
100
AcDbEntity
  8
0
  6
Continuous
 62
     7
370
    15
100
AcDbSpline
210
0.0
220
0.0
230
1.0
 70
     8
 71
     3
 72
    22
 73
    18
 74
     0
 42
0.00000001
 43
0.00000001
 12
1.0
 22
0.0
 32
0.0
 13
1.0
 23
0.0
 33
0.0
 40
0.0
 40
0.0
 40
0.0
 40
0.0
 40
0.2500000000000003
 40
0.2500000000000003
 40
0.5000000000000006
 40
0.5000000000000006
 40
0.5625000000000008
 40
0.5625000000000008
 40
0.5937500000000009
 40
0.5937500000000009
 40
0.625000000000001
 40
0.625000000000001
 40
0.750000000000001
 40
0.750000000000001
 40
0.8750000000000006
 40
0.8750000000000006
 40
1.0
 40
1.0
 40
1.0
 40
1.0
 10
-407.6179735202616
 20
692.1398198785733
 30
0.0
 10
-407.2510069423199
 20
683.8414688557306
 30
0.0
 10
-406.9579362659937
 20
675.0855564611624
 30
0.0
 10
-406.5470058433195
 20
656.6950912061434
 30
0.0
 10
-406.428945758016
 20
647.0604524927176
 30
0.0
 10
-406.4070638258302
 20
634.4549583628605
 30
0.0
 10
-406.4089809022542
 20
631.9056089648969
 30
0.0
 10
-406.4216647893535
 20
628.038526219565
 30
0.0
 10
-406.4275344061897
 20
626.7417020657688
 30
0.0
 10
-406.4425473544306
 20
624.1429435525798
 30
0.0
 10
-406.4516924973516
 20
622.8399368307827
 30
0.0
 10
-406.5056610245736
 20
616.3068750382598
 30
0.0
 10
-406.5751258331335
 20
611.0228077321061
 30
0.0
 10
-406.7691119852479
 20
600.3410488011255
 30
0.0
 10
-406.8935680423112
 20
594.9433540175802
 30
0.0
 10
-407.2031273856944
 20
584.0341612438924
 30
0.0
 10
-407.3881164811429
 20
578.5226638571527
 30
0.0
 10
-407.6091039392138
 20
572.9533055244352
 30
0.0
  0
LWPOLYLINE
  5
146
330
1F
100
AcDbEntity
  8
0
  6
Continuous
 62
     7
370
    15
100
AcDbPolyline
 90
       17
 70
   128
 43
0.0
 10
-396.1492206852
 20
698.1519500068
 10
-396.4647751252
 20
697.5339690497
 10
-396.8509685199
 20
696.9333181432
 10
-397.3053570788
 20
696.3538268855
 10
-397.8250574271
 20
695.7991460612
 10
-398.4067987601
 20
695.2727923444
 10
-399.0468632381
 20
694.7781035951
 10
-399.7412275474
 20
694.3182090571
 10
-400.4854660432
 20
693.8960293582
 10
-401.2748848598
 20
693.5142318061
 10
-402.1044772069
 20
693.1752452901
 10
-402.9689978759
 20
692.8812006763
 10
-403.8629632394
 20
692.6339606097
 10
-404.780695955
 20
692.4351046136
 10
-405.7164143722
 20
692.2858843854
 10
-406.6641729276
 20
692.1872535995
 10
-407.6179664533
 20
692.1398232034
  0
ARC
  5
147
330
1F
100
AcDbEntity
  8
0
  6
Continuous
 62
     7
370
    15
100
AcDbCircle
 10
-404.5544716215
 20
606.3680260013
 30
0.0
 40
33.55404961192625
100
AcDbArc
 50
264.7767860585
 51
284.5180989757
  0
LINE
  5
148
330
1F
100
AcDbEntity
  8
0
  6
Continuous
 62
     7
370
    15
100
AcDbLine
 10
-467.4330603282
 20
777.2704700282
 30
0.0
 11
-467.4330603282
 21
295.2704767039
 31
0.0
  0
LINE
  5
149
330
1F
100
AcDbEntity
  8
0
  6
Continuous
 62
     7
370
    15
100
AcDbLine
 10
432.5669158299
 20
777.2704700282
 30
0.0
 11
432.5669158299
 21
295.2704767039
 31
0.0
  0
SPLINE
  5
14A
330
1F
100
AcDbEntity
  8
0
  6
Continuous
 62
     7
370
    15
100
AcDbSpline
210
0.0
220
0.0
230
1.0
 70
     8
 71
     3
 72
    10
 73
     6
 74
     0
 42
0.00000001
 43
0.00000001
 12
1.0
 22
0.0
 32
0.0
 13
1.0
 23
0.0
 33
0.0
 40
0.0
 40
0.0
 40
0.0
 40
0.0
 40
0.5
 40
0.5
 40
1.0
 40
1.0
 40
1.0
 40
1.0
 10
-407.6091039392137
 20
572.9533055244352
 30
0.0
 10
-407.8776218279247
 20
566.1860783069668
 30
0.0
 10
-408.1602386783784
 20
559.3975879964138
 30
0.0
 10
-408.6884173005739
 20
545.776204265474
 30
0.0
 10
-408.9342234398001
 20
538.9433206931807
 30
0.0
 10
-409.1189927567037
 20
532.0863821950547
 30
0.0
  0
ARC
  5
14B
330
1F
100
AcDbEntity
  8
0
  6
Continuous
 62
     7
370
    15
100
AcDbCircle
 10
-412.4434688855
 20
309.4248060349
 30
0.0
 40
222.686393238475
100
AcDbArc
 50
86.0776984425
 51
89.1446012041
  0
LWPOLYLINE
  5
14C
330
1F
100
AcDbEntity
  8
0
  6
Continuous
 62
     7
370
    15
100
AcDbPolyline
 90
       21
 70
   128
 43
0.0
 10
-397.4330674808
 20
520.1450644335
 10
-397.4700521629
 20
520.2078001848
 10
-397.580812494
 20
520.2701503685
 10
-397.7646332185
 20
520.3317275545
 10
-398.0203818481
 20
520.3921554884
 10
-398.346508662
 20
520.4510597786
 10
-398.7409871022
 20
520.5080772093
 10
-399.2013882796
 20
520.5628576031
 10
-399.7248660724
 20
520.6150600961
 10
-400.3082018296
 20
520.6643671071
 10
-400.9477894704
 20
520.7104712999
 10
-401.6396950881
 20
520.7530895522
 10
-402.3796420495
 20
520.7919592312
 10
-403.1630855005
 20
520.8268409869
 10
-403.9851825635
 20
520.8575187525
 10
-404.8408668439
 20
520.8838044009
 10
-405.7248633306
 20
520.9055349505
 10
-406.6317181985
 20
520.9225772223
 10
-407.5558584134
 20
520.9348259768
 10
-408.4915619294
 20
520.9422057769
 10
-409.4330619971
 20
520.9446709877
  0
SPLINE
  5
14D
330
1F
100
AcDbEntity
  8
0
  6
Continuous
 62
     7
370
    15
100
AcDbSpline
210
0.0
220
0.0
230
1.0
 70
     8
 71
     3
 72
     8
 73
     4
 74
     0
 42
0.00000001
 43
0.00000001
 12
1.0
 22
0.0
 32
0.0
 13
1.0
 23
0.0
 33
0.0
 40
0.0
 40
0.0
 40
0.0
 40
0.0
 40
1.0
 40
1.0
 40
1.0
 40
1.0
 10
-409.1189927567037
 20
532.0863821950547
 30
0.0
 10
-409.2191753037234
 20
528.3685270071556
 30
0.0
 10
-409.4330674807755
 20
524.6576930154565
 30
0.0
 10
-409.4330674807755
 20
520.9446707528231
 30
0.0
  0
SPLINE
  5
14E
330
1F
100
AcDbEntity
  8
0
  6
Continuous
 62
     7
370
    15
100
AcDbSpline
210
0.0
220
0.0
230
1.0
 70
     8
 71
     3
 72
    16
 73
    12
 74
     0
 42
0.00000001
 43
0.00000001
 12
1.0
 22
0.0
 32
0.0
 13
1.0
 23
0.0
 33
0.0
 40
0.0
 40
0.0
 40
0.0
 40
0.0
 40
0.2500000000000002
 40
0.2500000000000002
 40
0.5000000000000003
 40
0.5000000000000003
 40
0.7500000000000004
 40
0.7500000000000004
 40
0.8750000000000002
 40
0.8750000000000002
 40
1.0
 40
1.0
 40
1.0
 40
1.0
 10
-409.4330674807756
 20
743.9871511799932
 30
0.0
 10
-409.4330674807755
 20
740.8129350036717
 30
0.0
 10
-409.3891541917376
 20
737.3438364058889
 30
0.0
 10
-409.2136979179848
 20
729.8363355248852
 30
0.0
 10
-409.082286584356
 20
725.7978799436853
 30
0.0
 10
-408.7486839069314
 20
717.1556643449078
 30
0.0
 10
-408.546568440027
 20
712.5519232647978
 30
0.0
 10
-408.2128374363274
 20
705.2135539689001
 30
0.0
 10
-408.0965976211087
 20
702.6951798646197
 30
0.0
 10
-407.8589610136976
 20
697.5108606439795
 30
0.0
 10
-407.738089005364
 20
694.8560357918847
 30
0.0
 10
-407.6179735202616
 20
692.1398198785733
 30
0.0
  0
ELLIPSE
  5
14F
330
1F
100
AcDbEntity
  8
0
  6
Continuous
 62
     7
370
    15
100
AcDbEllipse
 10
37.9370093564
 20
536.2704733661
 30
0.0
 11
663.7861891218226
 21
-80.57898762014061
 31
0.0
210
0.0
220
0.0
230
1.0
 40
0.3084005987
 41
1.185301892230807
 42
1.213256186436972
  0
SPLINE
  5
150
330
1F
100
AcDbEntity
  8
0
  6
Continuous
 62
     7
370
    15
100
AcDbSpline
210
0.0
220
0.0
230
1.0
 70
     8
 71
     3
 72
    16
 73
    12
 74
     0
 42
0.00000001
 43
0.00000001
 12
1.0
 22
0.0
 32
0.0
 13
1.0
 23
0.0
 33
0.0
 40
0.0
 40
0.0
 40
0.0
 40
0.0
 40
0.125
 40
0.125
 40
0.25
 40
0.25
 40
0.5000000000000001
 40
0.5000000000000001
 40
0.7500000000000002
 40
0.7500000000000002
 40
1.0
 40
1.0
 40
1.0
 40
1.0
 10
-102.3742221872532
 20
316.2704733660709
 30
0.0
 10
-102.3742221872532
 20
316.2704733660708
 30
0.0
 10
-102.3369467250681
 20
316.3465885138224
 30
0.0
 10
-102.2016007839133
 20
316.648498365133
 30
0.0
 10
-102.1040185855262
 20
316.8742927475436
 30
0.0
 10
-101.7660606466826
 20
317.7740027889685
 30
0.0
 10
-101.4843285759221
 20
318.6697386841384
 30
0.0
 10
-101.044313485279
 20
321.0540362854501
 30
0.0
 10
-100.8855241770771
 20
322.5431097636179
 30
0.0
 10
-100.841638033536
 20
326.1291679431092
 30
0.0
 10
-100.9553926432356
 20
328.2106358179348
 30
0.0
 10
-101.2497351089294
 20
330.5795576320469
 30
0.0
  0
SPLINE
  5
151
330
1F
100
AcDbEntity
  8
0
  6
Continuous
 62
     7
370
    15
100
AcDbSpline
210
0.0
220
0.0
230
1.0
 70
     8
 71
     3
 72
    16
 73
    12
 74
     0
 42
0.00000001
 43
0.00000001
 12
1.0
 22
0.0
 32
0.0
 13
1.0
 23
0.0
 33
0.0
 40
0.0
 40
0.0
 40
0.0
 40
0.0
 40
0.1249999999999999
 40
0.1249999999999999
 40
0.2499999999999999
 40
0.2499999999999999
 40
0.4999999999999998
 40
0.4999999999999998
 40
0.7499999999999997
 40
0.7499999999999997
 40
1.0
 40
1.0
 40
1.0
 40
1.0
 10
-396.1492205330949
 20
698.15195467771
 30
0.0
 10
-396.2343597226002
 20
701.0505950811712
 30
0.0
 10
-396.320041412265
 20
703.8917613613758
 30
0.0
 10
-396.4884467339045
 20
709.4553353423936
 30
0.0
 10
-396.5708381370106
 20
712.167113311241
 30
0.0
 10
-396.8073395531945
 20
720.0944632531854
 30
0.0
 10
-396.9504826507111
 20
725.1025148553518
 30
0.0
 10
-397.1863282241396
 20
734.5646314054677
 30
0.0
 10
-397.2789752501757
 20
739.0187487456456
 30
0.0
 10
-397.4023821975799
 20
747.3572690849109
 30
0.0
 10
-397.4330674807756
 20
751.2418098278177
 30
0.0
 10
-397.4330674807756
 20
754.8245430659371
 30
0.0
  0
LINE
  5
152
330
1F
100
AcDbEntity
  8
0
  6
Continuous
 62
     7
370
    15
100
AcDbLine
 10
-397.4330674808
 20
754.8245379975
 30
0.0
 11
-397.4330674808
 21
787.4599138549
 31
0.0
  0
ARC
  5
153
330
1F
100
AcDbEntity
  8
0
  6
Continuous
 62
     7
370
    15
100
AcDbCircle
 10
-408.8799315873
 20
755.4370332237
 30
0.0
 40
11.4632389957833
100
AcDbArc
 50
267.2342590905
 51
356.937156161
  0
LINE
  5
154
330
1F
100
AcDbEntity
  8
0
  6
Continuous
 62
     7
370
    15
100
AcDbLine
 10
299.9925959904
 20
772.7749834111
 30
0.0
 11
252.5274504025
 21
725.3098378232
 31
0.0
  0
LINE
  5
155
330
1F
100
AcDbEntity
  8
0
  6
Continuous
 62
     7
370
    15
100
AcDbLine
 10
310.5991829236
 20
762.1683815768
 30
0.0
 11
299.9925959904
 21
772.7749834111
 31
0.0
  0
LINE
  5
156
330
1F
100
AcDbEntity
  8
0
  6
Continuous
 62
     7
370
    15
100
AcDbLine
 10
310.5991829236
 20
762.1683815768
 30
0.0
 11
256.7537177403
 21
708.3229014924
 31
0.0
  0
LINE
  5
157
330
1F
100
AcDbEntity
  8
0
  6
Continuous
 62
     7
370
    15
100
AcDbLine
 10
333.2265961964
 20
739.5409534028
 30
0.0
 11
293.5219753583
 21
699.8363474658
 31
0.0
  0
LINE
  5
158
330
1F
100
AcDbEntity
  8
0
  6
Continuous
 62
     7
370
    15
100
AcDbLine
 10
343.8331831296
 20
728.9343515685
 30
0.0
 11
333.2265961964
 21
739.5409534028
 31
0.0
  0
LINE
  5
159
330
1F
100
AcDbEntity
  8
0
  6
Continuous
 62
     7
370
    15
100
AcDbLine
 10
343.8331831296
 20
728.9343515685
 30
0.0
 11
310.559009393
 21
695.6601629308
 31
0.0
  0
LINE
  5
15A
330
1F
100
AcDbEntity
  8
0
  6
Continuous
 62
     7
370
    15
100
AcDbLine
 10
343.8331831296
 20
728.9343515685
 30
0.0
 11
357.9753387769
 21
743.0764923146
 31
0.0
  0
LINE
  5
15B
330
1F
100
AcDbEntity
  8
0
  6
Continuous
 62
     7
370
    15
100
AcDbLine
 10
330.0446022351
 20
742.722932463
 30
0.0
 11
344.1867578824
 21
756.8650732091
 31
0.0
  0
LINE
  5
15C
330
1F
100
AcDbEntity
  8
0
  6
Continuous
 62
     7
370
    15
100
AcDbLine
 10
333.2265961964
 20
739.5409534028
 30
0.0
 11
330.0446022351
 21
742.722932463
 31
0.0
  0
LINE
  5
15D
330
1F
100
AcDbEntity
  8
0
  6
Continuous
 62
     7
370
    15
100
AcDbLine
 10
357.9753387769
 20
743.0764923146
 30
0.0
 11
344.1867578824
 21
756.8650732091
 31
0.0
  0
LINE
  5
15E
330
1F
100
AcDbEntity
  8
0
  6
Continuous
 62
     7
370
    15
100
AcDbLine
 10
313.7811768849
 20
758.9863876155
 30
0.0
 11
327.9233325322
 21
773.1285283616
 31
0.0
  0
LINE
  5
15F
330
1F
100
AcDbEntity
  8
0
  6
Continuous
 62
     7
370
    15
100
AcDbLine
 10
299.9925959904
 20
772.7749834111
 30
0.0
 11
314.1347516377
 21
786.9171241572
 31
0.0
  0
LINE
  5
160
330
1F
100
AcDbEntity
  8
0
  6
Continuous
 62
     7
370
    15
100
AcDbLine
 10
313.7811768849
 20
758.9863876155
 30
0.0
 11
310.5991829236
 21
762.1683815768
 31
0.0
  0
LINE
  5
161
330
1F
100
AcDbEntity
  8
0
  6
Continuous
 62
     7
370
    15
100
AcDbLine
 10
327.9233325322
 20
773.1285283616
 30
0.0
 11
314.1347516377
 21
786.9171241572
 31
0.0
  0
LINE
  5
162
330
1F
100
AcDbEntity
  8
0
  6
Continuous
 62
     7
370
    15
100
AcDbLine
 10
-53.2072436015
 20
1118.9037302783
 30
0.0
 11
-35.5295788448
 21
1136.5813950351
 31
0.0
  0
LINE
  5
163
330
1F
100
AcDbEntity
  8
0
  6
Continuous
 62
     7
370
    15
100
AcDbLine
 10
-35.5295788448
 20
1136.5813950351
 30
0.0
 11
-22.0945429008
 21
1123.1463888934
 31
0.0
  0
LINE
  5
164
330
1F
100
AcDbEntity
  8
0
  6
Continuous
 62
     7
370
    15
100
AcDbLine
 10
-53.2072436015
 20
1118.9037302783
 30
0.0
 11
-39.7722225587
 21
1105.4687241366
 31
0.0
  0
LINE
  5
165
330
1F
100
AcDbEntity
  8
0
  6
Continuous
 62
     7
370
    15
100
AcDbLine
 10
-39.7722225587
 20
1105.4687241366
 30
0.0
 11
-22.0945429008
 21
1123.1463888934
 31
0.0
  0
LINE
  5
166
330
1F
100
AcDbEntity
  8
0
  6
Continuous
 62
     7
370
    15
100
AcDbLine
 10
-82.905734698
 20
1148.6022213748
 30
0.0
 11
-65.2280699413
 21
1166.2798861316
 31
0.0
  0
LINE
  5
167
330
1F
100
AcDbEntity
  8
0
  6
Continuous
 62
     7
370
    15
100
AcDbLine
 10
-69.470698754
 20
1135.1672152331
 30
0.0
 11
-51.7930339973
 21
1152.8448799899
 31
0.0
  0
LINE
  5
168
330
1F
100
AcDbEntity
  8
0
  6
Continuous
 62
     7
370
    15
100
AcDbLine
 10
-51.7930339973
 20
1152.8448799899
 30
0.0
 11
-65.2280699413
 21
1166.2798861316
 31
0.0
  0
LINE
  5
169
330
1F
100
AcDbEntity
  8
0
  6
Continuous
 62
     7
370
    15
100
AcDbLine
 10
-69.470698754
 20
1135.1672152331
 30
0.0
 11
-82.905734698
 21
1148.6022213748
 31
0.0
  0
LINE
  5
16A
330
1F
100
AcDbEntity
  8
0
  6
Continuous
 62
     7
370
    15
100
AcDbLine
 10
-23.8623123567
 20
1130.5709818652
 30
0.0
 11
4.6415079434
 21
1159.0748170665
 31
0.0
  0
ELLIPSE
  5
16B
330
1F
100
AcDbEntity
  8
0
  6
Continuous
 62
     7
370
    15
100
AcDbEllipse
 10
4.2084742979
 20
1158.6417997792
 30
0.0
 11
4.949747468305836
 21
-4.949747468305759
 31
0.0
210
0.0
220
0.0
230
1.0
 40
0.0874886635
 41
0.0
 42
1.570796326794905
  0
LINE
  5
16C
330
1F
100
AcDbEntity
  8
0
  6
Continuous
 62
     7
370
    15
100
AcDbLine
 10
9.1582287152
 20
1153.6920408061
 30
0.0
 11
-1.234913985
 21
1143.2989577106
 31
0.0
  0
LINE
  5
16D
330
1F
100
AcDbEntity
  8
0
  6
Continuous
 62
     7
370
    15
100
AcDbLine
 10
-19.6993600528
 20
1126.4080742648
 30
0.0
 11
-2.021695296
 21
1144.0857390216
 31
0.0
  0
LWPOLYLINE
  5
16E
330
1F
100
AcDbEntity
  8
0
  6
Continuous
 62
     7
370
    15
100
AcDbPolyline
 90
       11
 70
   128
 43
0.0
 10
-19.6993600528
 20
1126.4080742648
 10
-19.9872504871
 20
1126.6959646991
 10
-20.3137647311
 20
1127.0224789432
 10
-20.6757139365
 20
1127.3843983462
 10
-21.0694324176
 20
1127.778087025
 10
-21.4910160701
 20
1128.1996706775
 10
-21.9362329643
 20
1128.6449173739
 10
-22.4007021587
 20
1129.109356766
 10
-22.8797297876
 20
1129.5883992961
 10
-23.3685623805
 20
1130.0772765925
 10
-23.8623123567
 20
1130.5709818652
  0
ELLIPSE
  5
16F
330
1F
100
AcDbEntity
  8
0
  6
Continuous
 62
     7
370
    15
100
AcDbEllipse
 10
349.9382589323
 20
812.9120151447
 30
0.0
 11
4.949747468305816
 21
-4.949747468305759
 31
0.0
210
0.0
220
0.0
230
1.0
 40
0.0874886635
 41
1.570796326794896
 42
3.141592653590086
  0
LINE
  5
170
330
1F
100
AcDbEntity
  8
0
  6
Continuous
 62
     7
370
    15
100
AcDbLine
 10
350.3712762196
 20
813.3450487903
 30
0.0
 11
321.8674410184
 21
784.8412284902
 31
0.0
  0
LWPOLYLINE
  5
171
330
1F
100
AcDbEntity
  8
0
  6
Continuous
 62
     7
370
    15
100
AcDbPolyline
 90
       11
 70
   128
 43
0.0
 10
321.8674410184
 20
784.8412284902
 10
321.3737357457
 20
785.3349784663
 10
320.8848584492
 20
785.8238110593
 10
320.4058159192
 20
786.3028386882
 10
319.9413765271
 20
786.7673078826
 10
319.4961298306
 20
787.2125247767
 10
319.0745461781
 20
787.6341084292
 10
318.6808574994
 20
788.0278269103
 10
318.3189380963
 20
788.3897761157
 10
317.9924238522
 20
788.7162903598
 10
317.704533418
 20
789.004180794
  0
LINE
  5
172
330
1F
100
AcDbEntity
  8
0
  6
Continuous
 62
     7
370
    15
100
AcDbLine
 10
335.3821981747
 20
806.6818455508
 30
0.0
 11
317.704533418
 21
789.004180794
 31
0.0
  0
LINE
  5
173
330
1F
100
AcDbEntity
  8
0
  6
Continuous
 62
     7
370
    15
100
AcDbLine
 10
334.5954168637
 20
807.4686268619
 30
0.0
 11
344.9884999593
 21
817.8617695621
 31
0.0
  0
LINE
  5
174
330
1F
100
AcDbEntity
  8
0
  6
Continuous
 62
     7
370
    15
100
AcDbLine
 10
-29.2995970647
 20
1193.0159667781
 30
0.0
 11
-57.8034471671
 21
1164.5121315768
 31
0.0
  0
LINE
  5
175
330
1F
100
AcDbEntity
  8
0
  6
Continuous
 62
     7
370
    15
100
AcDbLine
 10
4.6415079434
 20
1159.0748170665
 30
0.0
 11
-29.2995970647
 21
1193.0159667781
 31
0.0
  0
LINE
  5
176
330
1F
100
AcDbEntity
  8
0
  6
Continuous
 62
     7
370
    15
100
AcDbLine
 10
-57.8034471671
 20
1164.5121315768
 30
0.0
 11
-23.8623123567
 21
1130.5709818652
 31
0.0
  0
LWPOLYLINE
  5
177
330
1F
100
AcDbEntity
  8
0
  6
Continuous
 62
     7
370
    15
100
AcDbPolyline
 90
       16
 70
   128
 43
0.0
 10
-57.8034471671
 20
1164.5121315768
 10
-58.3208303849
 20
1165.0294998935
 10
-58.8325511615
 20
1165.5412653735
 10
-59.3330066602
 20
1166.0417059711
 10
-59.8166834514
 20
1166.5253976634
 10
-60.2783214252
 20
1166.9870356372
 10
-60.7128392856
 20
1167.421493893
 10
-61.115468661
 20
1167.8241828731
 10
-61.4818286102
 20
1168.1905130198
 10
-61.8078809182
 20
1168.5165504268
 10
-62.0900493066
 20
1168.7987188151
 10
-62.325264136
 20
1169.0339783481
 10
-62.5109326045
 20
1169.2196468165
 10
-62.6450281541
 20
1169.3536976626
 10
-62.7260755698
 20
1169.4347599795
 10
-62.7531956832
 20
1169.4618800929
  0
LINE
  5
178
330
1F
100
AcDbEntity
  8
0
  6
Continuous
 62
     7
370
    15
100
AcDbLine
 10
-62.7531956832
 20
1169.4618800929
 30
0.0
 11
-34.6824031274
 21
1197.5326875499
 31
0.0
  0
ELLIPSE
  5
179
330
1F
100
AcDbEntity
  8
0
  6
Continuous
 62
     7
370
    15
100
AcDbEllipse
 10
-29.7326511991
 20
1192.5829252761
 30
0.0
 11
4.949747468305836
 21
-4.949747468305759
 31
0.0
210
0.0
220
0.0
230
1.0
 40
0.0874886635
 41
1.570796326794905
 42
3.141592653589959
  0
LINE
  5
17A
330
1F
100
AcDbEntity
  8
0
  6
Continuous
 62
     7
370
    15
100
AcDbLine
 10
388.829146703
 20
774.0211377194
 30
0.0
 11
360.7583392461
 21
745.9503451636
 31
0.0
  0
LWPOLYLINE
  5
17B
330
1F
100
AcDbEntity
  8
0
  6
Continuous
 62
     7
370
    15
100
AcDbPolyline
 90
       16
 70
   128
 43
0.0
 10
360.7583392461
 20
745.9503451636
 10
360.7312191327
 20
745.977465277
 10
360.6501568158
 20
746.0585126927
 10
360.5161059697
 20
746.1926082423
 10
360.3304375012
 20
746.3782767108
 10
360.0951779683
 20
746.6134915402
 10
359.8130095799
 20
746.8956599286
 10
359.486972173
 20
747.2217122367
 10
359.1206420262
 20
747.5880721858
 10
358.7179530461
 20
747.9907015613
 10
358.2834947903
 20
748.4252194217
 10
357.8218568166
 20
748.8868573955
 10
357.3381651242
 20
749.3705341867
 10
356.8377245267
 20
749.8709896853
 10
356.3259590466
 20
750.3827104619
 10
355.80859073
 20
750.9000936797
  0
LINE
  5
17C
330
1F
100
AcDbEntity
  8
0
  6
Continuous
 62
     7
370
    15
100
AcDbLine
 10
355.80859073
 20
750.9000936797
 30
0.0
 11
384.3124259312
 21
779.4039437821
 31
0.0
  0
ELLIPSE
  5
17D
330
1F
100
AcDbEntity
  8
0
  6
Continuous
 62
     7
370
    15
100
AcDbEllipse
 10
383.8793844293
 20
778.9708896478
 30
0.0
 11
4.949747468305816
 21
-4.949747468305986
 31
0.0
210
0.0
220
0.0
230
1.0
 40
0.0874886635
 41
0.0
 42
1.570796326794898
  0
LINE
  5
17E
330
1F
100
AcDbEntity
  8
0
  6
Continuous
 62
     7
370
    15
100
AcDbLine
 10
355.80859073
 20
750.9000936797
 30
0.0
 11
321.8674410184
 21
784.8412284902
 31
0.0
  0
LINE
  5
17F
330
1F
100
AcDbEntity
  8
0
  6
Continuous
 62
     7
370
    15
100
AcDbLine
 10
350.3712762196
 20
813.3450487903
 30
0.0
 11
384.3124259312
 21
779.4039437821
 31
0.0
  0
LWPOLYLINE
  5
180
330
1F
100
AcDbEntity
  8
0
  6
Continuous
 62
     7
370
    15
100
AcDbPolyline
 90
       20
 70
   128
 43
0.0
 10
317.704533418
 20
789.004180794
 10
317.4125898679
 20
789.2961243442
 10
317.081009229
 20
789.627704983
 10
316.7131293614
 20
789.9955550483
 10
316.3128245671
 20
790.3958598426
 10
315.8840883572
 20
790.8245662501
 10
315.4314506848
 20
791.2772635272
 10
314.9593818982
 20
791.7493025115
 10
314.4728291829
 20
792.2358850291
 10
313.9766801198
 20
792.7319744876
 10
313.476120313
 20
793.2325342944
 10
312.9762757619
 20
793.7324384501
 10
312.4821532567
 20
794.226531153
 10
311.9988787968
 20
794.7097758105
 10
311.5314591725
 20
795.1772550395
 10
311.0846031506
 20
795.6241110614
 10
310.6629002888
 20
796.0458139232
 10
310.2706421216
 20
796.4380422881
 10
309.9119413693
 20
796.7967430404
 10
309.5903743108
 20
797.1183100989
  0
LWPOLYLINE
  5
181
330
1F
100
AcDbEntity
  8
0
  6
Continuous
 62
     7
370
    15
100
AcDbPolyline
 90
       20
 70
   128
 43
0.0
 10
327.2680390675
 20
814.7959748557
 10
327.5896061261
 20
814.4744375995
 10
327.9483068784
 20
814.1157070449
 10
328.3405650456
 20
813.7234786799
 10
328.7622679074
 20
813.3017758182
 10
329.2091239293
 20
812.8549197963
 10
329.6765435536
 20
812.3874703696
 10
330.1598180135
 20
811.9041959098
 10
330.6539405186
 20
811.4101032069
 10
331.1537850697
 20
810.9102288535
 10
331.6543448766
 20
810.4096392444
 10
332.1504939397
 20
809.9135497859
 10
332.637046655
 20
809.4269672683
 10
333.1091154416
 20
808.954928284
 10
333.5618127187
 20
808.5022310069
 10
333.9904893239
 20
808.0735245994
 10
334.3907941182
 20
807.6732198051
 10
334.7586739857
 20
807.3053697398
 10
335.0902546246
 20
806.9737891009
 10
335.3821981747
 20
806.6818455508
  0
LWPOLYLINE
  5
182
330
1F
100
AcDbEntity
  8
0
  6
Continuous
 62
     7
370
    15
100
AcDbPolyline
 90
       20
 70
   128
 43
0.0
 10
-11.5852307479
 20
1118.2939151576
 10
-11.9067978065
 20
1118.6154822162
 10
-12.2654985587
 20
1118.9741829684
 10
-12.6577269237
 20
1119.3664411357
 10
-13.0794297855
 20
1119.7881439975
 10
-13.5262858073
 20
1120.2350000194
 10
-13.9937650363
 20
1120.7024196437
 10
-14.4770096938
 20
1121.1856941035
 10
-14.9711023967
 20
1121.6798166087
 10
-15.4710065524
 20
1122.1796611598
 10
-15.9715663593
 20
1122.6802209666
 10
-16.4676558177
 20
1123.1763700297
 10
-16.9542383353
 20
1123.662922745
 10
-17.4262773196
 20
1124.1349915317
 10
-17.8789745967
 20
1124.5876292041
 10
-18.3076810043
 20
1125.016365414
 10
-18.7079857986
 20
1125.4166702083
 10
-19.0758358638
 20
1125.7845500758
 10
-19.4074165027
 20
1126.1161307147
 10
-19.6993600528
 20
1126.4080742648
  0
LWPOLYLINE
  5
183
330
1F
100
AcDbEntity
  8
0
  6
Continuous
 62
     7
370
    15
100
AcDbPolyline
 90
       20
 70
   128
 43
0.0
 10
-2.021695296
 20
1144.0857390216
 10
-1.7297517459
 20
1143.7937954715
 10
-1.398171107
 20
1143.4622148326
 10
-1.0303210418
 20
1143.094334965
 10
-0.6300162475
 20
1142.6940301707
 10
-0.2013098399
 20
1142.2653535655
 10
0.2513874371
 20
1141.8126562884
 10
0.7234264214
 20
1141.3405875018
 10
1.2100089391
 20
1140.8540347865
 10
1.7060983975
 20
1140.3578857234
 10
2.2066880067
 20
1139.8573259166
 10
2.7065623601
 20
1139.3574813655
 10
3.2006550629
 20
1138.8633588603
 10
3.6839295228
 20
1138.3800844005
 10
4.1513789494
 20
1137.9126647761
 10
4.5982349713
 20
1137.4658087543
 10
5.0199378331
 20
1137.0441058925
 10
5.412166198
 20
1136.6518477252
 10
5.7708967526
 20
1136.2931469729
 10
6.0924340089
 20
1135.9715799144
  0
LINE
  5
184
330
1F
100
AcDbEntity
  8
0
  6
Continuous
 62
     7
370
    15
100
AcDbLine
 10
-111.1900012891
 20
1055.2641490748
 30
0.0
 11
-103.8434307973
 21
1047.9175785831
 31
0.0
  0
LINE
  5
185
330
1F
100
AcDbEntity
  8
0
  6
Continuous
 62
     7
370
    15
100
AcDbLine
 10
-50.378824393
 20
1116.0753110698
 30
0.0
 11
-111.1900012891
 21
1055.2641490748
 31
0.0
  0
LINE
  5
186
330
1F
100
AcDbEntity
  8
0
  6
Continuous
 62
     7
370
    15
100
AcDbLine
 10
-39.7722225587
 20
1105.4687241366
 30
0.0
 11
-82.4128787915
 21
1062.8280381015
 31
0.0
  0
LINE
  5
187
330
1F
100
AcDbEntity
  8
0
  6
Continuous
 62
     7
370
    15
100
AcDbLine
 10
-133.1103097598
 20
1077.1844724467
 30
0.0
 11
-143.7169115941
 21
1087.7910593799
 31
0.0
  0
LINE
  5
188
330
1F
100
AcDbEntity
  8
0
  6
Continuous
 62
     7
370
    15
100
AcDbLine
 10
-72.2991328637
 20
1137.9956344417
 30
0.0
 11
-133.1103097598
 21
1077.1844724467
 31
0.0
  0
LINE
  5
189
330
1F
100
AcDbEntity
  8
0
  6
Continuous
 62
     7
370
    15
100
AcDbLine
 10
-82.905734698
 20
1148.6022213748
 30
0.0
 11
-143.7169115941
 21
1087.7910593799
 31
0.0
  0
LWPOLYLINE
  5
18A
330
1F
100
AcDbEntity
  8
0
  6
Continuous
 62
     7
370
    15
100
AcDbPolyline
 90
       41
 70
   128
 43
0.0
 10
330.0446022351
 20
742.722932463
 10
330.0195682843
 20
742.7480111173
 10
329.9445260365
 20
742.823053365
 10
329.8199523289
 20
742.9476121715
 10
329.6466220219
 20
743.1209275773
 10
329.4256079991
 20
743.341926699
 10
329.1583407719
 20
743.6092386296
 10
328.8463104565
 20
743.9212242415
 10
328.4916032155
 20
744.2759612849
 10
328.0963052113
 20
744.6712443879
 10
327.6629198392
 20
745.1046595624
 10
327.1940100987
 20
745.5735245994
 10
326.6926158269
 20
746.0749486735
 10
326.1617172559
 20
746.6058472445
 10
325.6046522458
 20
747.1629420569
 10
325.0247586568
 20
747.7427909425
 10
324.4257319768
 20
748.3418176225
 10
323.8112080891
 20
748.9563564113
 10
323.1850016911
 20
749.5825777104
 10
322.55092748
 20
750.2166519216
 10
321.9129193623
 20
750.8546600392
 10
321.2749112447
 20
751.4926681569
 10
320.6408370335
 20
752.126742368
 10
320.0145710309
 20
752.7529785684
 10
319.4000471432
 20
753.367502456
 10
318.8010204633
 20
753.9665440372
 10
318.2211864789
 20
754.5463929227
 10
317.6640618642
 20
755.1034877351
 10
317.1331632932
 20
755.6343714049
 10
316.6317690213
 20
756.1357954791
 10
316.1629188855
 20
756.6046605161
 10
315.7294739087
 20
757.0380756906
 10
315.3341759045
 20
757.4333736947
 10
314.9794686635
 20
757.7881107381
 10
314.6674979527
 20
758.1000814488
 10
314.4001711209
 20
758.3674082807
 10
314.1791570981
 20
758.5883925012
 10
314.0058267911
 20
758.761707907
 10
313.8813126881
 20
758.8862816146
 10
313.8062108357
 20
758.9613238624
 10
313.7811768849
 20
758.9863876155
  0
LWPOLYLINE
  5
18B
330
1F
100
AcDbEntity
  8
0
  6
Continuous
 62
     7
370
    15
100
AcDbPolyline
 90
       41
 70
   128
 43
0.0
 10
344.1867578824
 20
756.8650732091
 10
344.1616643269
 20
756.8901369622
 10
344.0866220792
 20
756.9651941112
 10
343.9621079762
 20
757.0897529176
 10
343.7887776692
 20
757.2630683234
 10
343.5677636464
 20
757.4840674451
 10
343.3004368146
 20
757.7513793757
 10
342.9884661038
 20
758.0633649877
 10
342.6337588628
 20
758.418102031
 10
342.2384608586
 20
758.813385134
 10
341.8050158818
 20
759.2468003085
 10
341.336165746
 20
759.7156653455
 10
340.8347714741
 20
760.2170894197
 10
340.3038729031
 20
760.7479879907
 10
339.7467482884
 20
761.3050679019
 10
339.166914304
 20
761.8849167874
 10
338.5678876241
 20
762.4839583686
 10
337.9533637364
 20
763.0984822562
 10
337.3270977338
 20
763.7247184566
 10
336.6930235226
 20
764.3587926677
 10
336.055015405
 20
764.9968007854
 10
335.4170072873
 20
765.634808903
 10
334.7829330762
 20
766.2688831141
 10
334.1567266782
 20
766.8951193145
 10
333.5422027905
 20
767.5096432021
 10
332.9431761105
 20
768.1086847833
 10
332.3632825215
 20
768.6885336688
 10
331.8062175114
 20
769.24561358
 10
331.2753189404
 20
769.7765121511
 10
330.7739246686
 20
770.2779362252
 10
330.3050149281
 20
770.7468012622
 10
329.871629556
 20
771.1802164367
 10
329.4763315518
 20
771.5755144408
 10
329.1216243108
 20
771.930236583
 10
328.8095939954
 20
772.242222195
 10
328.5422671635
 20
772.5095341256
 10
328.3213127454
 20
772.7305332473
 10
328.1479824384
 20
772.9038486531
 10
328.0234087308
 20
773.0284074595
 10
327.948366483
 20
773.1034646085
 10
327.9233325322
 20
773.1285283616
  0
LWPOLYLINE
  5
18C
330
1F
100
AcDbEntity
  8
0
  6
Continuous
 62
     7
370
    15
100
AcDbPolyline
 90
       41
 70
   128
 43
0.0
 10
-35.5295788448
 20
1136.5813950351
 10
-35.5546425979
 20
1136.6064885905
 10
-35.6296997468
 20
1136.6815308383
 10
-35.7542585532
 20
1136.8061045459
 10
-35.9275739591
 20
1136.9794348529
 10
-36.1485730808
 20
1137.2003892711
 10
-36.4158850114
 20
1137.4677161029
 10
-36.7278706233
 20
1137.7796868136
 10
-37.0826076667
 20
1138.1344536593
 10
-37.4778907697
 20
1138.5297516635
 10
-37.9113059442
 20
1138.9631370357
 10
-38.3801709811
 20
1139.4319871715
 10
-38.8815950553
 20
1139.933441048
 10
-39.4124936263
 20
1140.464339619
 10
-39.9695735376
 20
1141.021404629
 10
-40.5494373243
 20
1141.6012386134
 10
-41.1484640043
 20
1142.2003248981
 10
-41.7629878919
 20
1142.8148487857
 10
-42.3892240922
 20
1143.4410551837
 10
-43.0232983033
 20
1144.0751293948
 10
-43.661306421
 20
1144.7131375125
 10
-44.2993145387
 20
1145.3511456302
 10
-44.9333887498
 20
1145.9852198413
 10
-45.5596249501
 20
1146.6114858439
 10
-46.1741488378
 20
1147.2260097316
 10
-46.7731904189
 20
1147.8250364116
 10
-47.3530393045
 20
1148.4048703959
 10
-47.9101192157
 20
1148.961935406
 10
-48.4410177867
 20
1149.492833977
 10
-48.9424418609
 20
1149.9942878535
 10
-49.4113068979
 20
1150.4631379893
 10
-49.8447220723
 20
1150.8965829661
 10
-50.2400200765
 20
1151.2918213656
 10
-50.5947422187
 20
1151.6465882113
 10
-50.9067278306
 20
1151.9585589221
 10
-51.1740397613
 20
1152.2258857539
 10
-51.3950388829
 20
1152.4468997767
 10
-51.5683542888
 20
1152.6201704791
 10
-51.6929279964
 20
1152.7447441867
 10
-51.7679702441
 20
1152.8197864345
 10
-51.7930339973
 20
1152.8448799899
  0
LWPOLYLINE
  5
18D
330
1F
100
AcDbEntity
  8
0
  6
Continuous
 62
     7
370
    15
100
AcDbPolyline
 90
       41
 70
   128
 43
0.0
 10
-53.2072436015
 20
1118.9037302783
 10
-53.2323222558
 20
1118.9288238338
 10
-53.3073645036
 20
1119.0038660815
 10
-53.43192331
 20
1119.1284397891
 10
-53.6052387159
 20
1119.3017700961
 10
-53.8262378375
 20
1119.5227245143
 10
-54.0935497682
 20
1119.7900513461
 10
-54.4055353801
 20
1120.1020220569
 10
-54.7602724235
 20
1120.4567889026
 10
-55.1555704276
 20
1120.8520869067
 10
-55.588970701
 20
1121.2854722789
 10
-56.0578357379
 20
1121.7543224147
 10
-56.5592747133
 20
1122.2557762912
 10
-57.0901583831
 20
1122.7866748622
 10
-57.6472531955
 20
1123.3437398723
 10
-58.227102081
 20
1123.9235738566
 10
-58.826128761
 20
1124.5226601413
 10
-59.4406675498
 20
1125.1371840289
 10
-60.066888849
 20
1125.7633904269
 10
-60.7009630601
 20
1126.397464638
 10
-61.3389711778
 20
1127.0354727557
 10
-61.9769792955
 20
1127.6734808734
 10
-62.6110535066
 20
1128.3075550845
 10
-63.2372897069
 20
1128.9337614825
 10
-63.8518135946
 20
1129.5483449748
 10
-64.4508551757
 20
1130.1473716548
 10
-65.0307040612
 20
1130.7272056392
 10
-65.5877988736
 20
1131.2842706492
 10
-66.1186825435
 20
1131.8151692203
 10
-66.6201066177
 20
1132.3166230968
 10
-67.0889716546
 20
1132.7854732326
 10
-67.5223868291
 20
1133.2188586047
 10
-67.9176848333
 20
1133.6141566089
 10
-68.2724218766
 20
1133.9689234546
 10
-68.5844074886
 20
1134.2808941653
 10
-68.8517194192
 20
1134.5482209971
 10
-69.0727036397
 20
1134.76923502
 10
-69.2460190456
 20
1134.9425057223
 10
-69.3705927531
 20
1135.0670794299
 10
-69.4456350009
 20
1135.1421216777
 10
-69.470698754
 20
1135.1672152331
  0
LINE
  5
18E
330
1F
100
AcDbEntity
  8
0
  6
Continuous
 62
     7
370
    15
100
AcDbLine
 10
-111.1900012891
 20
1055.2641490748
 30
0.0
 11
-133.1103097598
 21
1077.1844724467
 31
0.0
  0
ARC
  5
18F
330
1F
100
AcDbEntity
  8
0
  6
Continuous
 62
     7
370
    15
100
AcDbCircle
 10
-102.3742221873
 20
304.2704733661
 30
0.0
 40
12.00000000000006
100
AcDbArc
 50
90.0
 51
110.2676817496
  0
LWPOLYLINE
  5
190
330
1F
100
AcDbEntity
  8
0
  6
Continuous
 62
     8
370
    15
100
AcDbPolyline
 90
       99
 70
   128
 43
0.0
 10
229.5132625897
 20
713.824395304
 10
226.658200105
 20
716.6794726899
 10
223.6932564576
 20
719.6444163373
 10
220.6205178101
 20
722.7171549848
 10
217.4420703252
 20
725.8955875686
 10
214.1601491769
 20
729.1775087169
 10
210.7769895394
 20
732.5606683543
 10
207.2949457963
 20
736.0427269986
 10
203.7163723309
 20
739.6212855628
 10
200.0437725385
 20
743.2938853553
 10
196.2796796162
 20
747.0579782775
 10
192.4266863663
 20
750.9109864285
 10
188.4874451955
 20
754.8502425006
 10
184.4646383126
 20
758.8730195811
 10
180.3610969384
 20
762.9765758565
 10
176.1796224911
 20
767.1580503037
 10
171.9230759938
 20
771.4145818999
 10
167.5944376786
 20
775.7432351163
 10
163.1966579755
 20
780.1409999183
 10
158.7327767213
 20
784.6048811725
 10
154.2058933575
 20
789.1317943385
 10
149.6190775235
 20
793.7185803702
 10
144.9755478699
 20
798.3621100238
 10
140.2784634431
 20
803.0591944507
 10
135.5311024983
 20
807.8065553954
 10
130.7367134888
 20
812.6009742072
 10
125.8985746701
 20
817.4390832236
 10
121.0200537045
 20
822.3176041892
 10
116.1045480569
 20
827.2331396392
 10
111.1553657849
 20
832.1822921088
 10
106.1759937604
 20
837.1616939357
 10
101.1697996457
 20
842.167858248
 10
96.1403001149
 20
847.1973875812
 10
91.0908926327
 20
852.246765261
 10
86.0251236756
 20
857.3125342181
 10
80.9464503129
 20
862.3912075809
 10
75.8583892186
 20
867.4792984775
 10
70.7644272645
 20
872.5732306293
 10
65.6680811246
 20
877.6695767692
 10
60.5728972752
 20
882.7647606185
 10
55.4823327859
 20
887.8553251079
 10
50.3999639352
 20
892.9377237609
 10
45.3292179902
 20
898.0084399035
 10
40.2736712296
 20
903.0640164664
 10
35.2367509206
 20
908.1009367755
 10
30.2219439347
 20
913.1157437613
 10
25.2327073415
 20
918.1049803546
 10
20.2724684079
 20
923.0651894858
 10
15.3446842034
 20
927.9929736903
 10
10.4527223904
 20
932.8849355033
 10
5.5999506314
 20
937.7377072623
 10
0.7897663911
 20
942.547921305
 10
-3.9745818774
 20
947.3122695735
 10
-8.6897861163
 20
952.0274440101
 10
-13.3525978725
 20
956.6902557662
 10
-17.9597686927
 20
961.2974265864
 10
-22.5081693332
 20
965.8458272269
 10
-26.9946407478
 20
970.3322986415
 10
-31.4160834949
 20
974.7537711909
 10
-35.7694726388
 20
979.1071454337
 10
-40.051798145
 20
983.3894709399
 10
-44.2600946824
 20
987.5977674773
 10
-48.3914714257
 20
991.7291442206
 10
-52.443067352
 20
995.7807401469
 10
-56.4121257465
 20
999.7497836402
 10
-60.2958600919
 20
1003.6335328868
 10
-64.0916328828
 20
1007.4293056777
 10
-67.7968066137
 20
1011.1344794086
 10
-71.408848087
 20
1014.7465208819
 10
-74.9252390067
 20
1018.2628969005
 10
-78.3435653846
 20
1021.6812232783
 10
-81.6614728372
 20
1024.9991456321
 10
-84.8766814868
 20
1028.2143393806
 10
-87.9869710605
 20
1031.3246289542
 10
-90.9901808898
 20
1034.3278387836
 10
-93.8842695157
 20
1037.2219423106
 10
-96.6672103803
 20
1040.0048831752
 10
-99.337111036
 20
1042.6747540286
 10
-101.892123739
 20
1045.2297667315
 10
-104.3304752509
 20
1047.6681331447
 10
-106.6504966418
 20
1049.9881843379
 10
-108.8505785863
 20
1052.1882513812
 10
-110.9292309682
 20
1054.2669037631
 10
-112.8849785726
 20
1056.2226513675
 10
-114.7165100972
 20
1058.0541828921
 10
-116.4225291412
 20
1059.7601870349
 10
-118.0019032161
 20
1061.3395909122
 10
-119.4534998338
 20
1062.7911428264
 10
-120.7763504188
 20
1064.1140083125
 10
-121.9695161979
 20
1065.3071740916
 10
-123.0321925084
 20
1066.3698653033
 10
-123.9636491935
 20
1067.3013070872
 10
-124.763230602
 20
1068.1009033969
 10
-125.430385391
 20
1068.7680581859
 10
-125.9646665256
 20
1069.3023542216
 10
-126.3657014768
 20
1069.7033742717
 10
-126.6332220237
 20
1069.9708799174
 10
-126.7670195501
 20
1070.104692345
 10
-126.7837535541
 20
1070.1214412501
  0
LWPOLYLINE
  5
191
330
1F
100
AcDbEntity
  8
0
  6
Continuous
 62
     8
370
    15
100
AcDbPolyline
 90
       30
 70
   128
 43
0.0
 10
-388.9391671817
 20
807.9659978202
 10
-388.9373641412
 20
807.933721905
 10
-388.9229621689
 20
807.6754549792
 10
-388.8941656749
 20
807.1590999415
 10
-388.8509970109
 20
806.3850144198
 10
-388.7934859793
 20
805.3537646583
 10
-388.7216698329
 20
804.0660659125
 10
-388.6356007259
 20
802.5228420547
 10
-388.5353457134
 20
800.7251063636
 10
-388.4209644
 20
798.6741999438
 10
-388.2925461929
 20
796.3715235045
 10
-388.1501804988
 20
793.8186863711
 10
-387.9939641754
 20
791.0175362876
 10
-387.8240015309
 20
787.9699806026
 10
-387.640419225
 20
784.6781799844
 10
-387.4433439176
 20
781.1444590142
 10
-387.2329171698
 20
777.3712763837
 10
-387.0092879932
 20
773.3613143018
 10
-386.7726053993
 20
769.1173592856
 10
-386.5230407517
 20
764.6424213698
 10
-386.2607728641
 20
759.9396148971
 10
-385.9859730999
 20
755.0122628263
 10
-385.6988500755
 20
749.8638222268
 10
-385.3995975058
 20
744.4978991797
 10
-385.0884240072
 20
738.9182636788
 10
-384.765553097
 20
733.1288645318
 10
-384.4312082927
 20
727.1337250522
 10
-384.0856280129
 20
720.9370920709
 10
-383.7290506761
 20
714.5433018258
 10
-383.3617296021
 20
707.9568544677
  0
LINE
  5
192
330
1F
100
AcDbEntity
  8
0
  6
Continuous
 62
     8
370
    15
100
AcDbLine
 10
-368.4330683152
 20
513.3258031955
 30
0.0
 11
-368.4330683152
 21
261.2704674056
 31
0.0
  0
LINE
  5
193
330
1F
100
AcDbEntity
  8
0
  6
Continuous
 62
     8
370
    15
100
AcDbLine
 10
-430.9330683152
 20
766.2704775384
 30
0.0
 11
-430.9330683152
 21
306.2704691937
 31
0.0
  0
LINE
  5
194
330
1F
100
AcDbEntity
  8
0
  6
Continuous
 62
     8
370
    15
100
AcDbLine
 10
-409.4330619971
 20
306.2704691937
 30
0.0
 11
-409.4330619971
 21
520.9446709877
 31
0.0
  0
LINE
  5
195
330
1F
100
AcDbEntity
  8
0
  6
Continuous
 62
     8
370
    15
100
AcDbLine
 10
396.0669387181
 20
536.2704733661
 30
0.0
 11
396.0669387181
 21
756.270472174
 31
0.0
  0
LINE
  5
196
330
1F
100
AcDbEntity
  8
0
  6
Continuous
 62
     8
370
    15
100
AcDbLine
 10
396.0669387181
 20
316.2704745582
 30
0.0
 11
396.0669387181
 21
536.2704733661
 31
0.0
  0
LINE
  5
197
330
1F
100
AcDbEntity
  8
0
  6
Continuous
 62
     8
370
    15
100
AcDbLine
 10
-409.4330619971
 20
743.9871469787
 30
0.0
 11
-409.4330619971
 21
766.2704775384
 31
0.0
  0
LINE
  5
198
330
1F
100
AcDbEntity
  8
FORMAT
  6
CENTERX2
370
     0
100
AcDbLine
 10
458.6820599668
 20
536.2704733661
 30
0.0
 11
-510.0261755315
 21
536.2704733661
 31
0.0
  0
ARC
  5
199
330
1F
100
AcDbEntity
  8
0
  6
Continuous
 62
     7
370
    15
100
AcDbCircle
 10
100.9193129857
 20
-172.4093221732
 30
0.0
 40
269.0000000000001
100
AcDbArc
 50
299.27020244
 51
60.72979756
  0
LINE
  5
19A
330
1F
100
AcDbEntity
  8
0
  6
Continuous
 62
     7
370
    15
100
AcDbLine
 10
45.7649875481
 20
102.0906902245
 30
0.0
 11
-272.4330674808
 21
102.0906902245
 31
0.0
  0
LINE
  5
19B
330
1F
100
AcDbEntity
  8
0
  6
Continuous
 62
     7
370
    15
100
AcDbLine
 10
-272.4330674808
 20
-446.909334571
 30
0.0
 11
45.7649875481
 21
-446.909334571
 31
0.0
  0
LINE
  5
19C
330
1F
100
AcDbEntity
  8
0
  6
Continuous
 62
     7
370
    15
100
AcDbLine
 10
-464.4330691497
 20
71.5906805686
 30
0.0
 11
-467.4330603282
 21
68.5906744889
 31
0.0
  0
LINE
  5
19D
330
1F
100
AcDbEntity
  8
0
  6
Continuous
 62
     7
370
    15
100
AcDbLine
 10
-467.4330603282
 20
-413.4093188354
 30
0.0
 11
-464.4330691497
 21
-416.4093249151
 31
0.0
  0
LINE
  5
19E
330
1F
100
AcDbEntity
  8
0
  6
Continuous
 62
     7
370
    15
100
AcDbLine
 10
429.5669544537
 20
-416.4093249151
 30
0.0
 11
432.5669158299
 21
-413.4093188354
 31
0.0
  0
LINE
  5
19F
330
1F
100
AcDbEntity
  8
0
  6
Continuous
 62
     7
370
    15
100
AcDbLine
 10
432.5669158299
 20
68.5906744889
 30
0.0
 11
429.5669544537
 21
71.5906805686
 31
0.0
  0
ARC
  5
1A0
330
1F
100
AcDbEntity
  8
0
  6
Continuous
 62
     7
370
    15
100
AcDbCircle
 10
-430.9330674808
 20
69.5906778268
 30
0.0
 40
12.00000000000001
100
AcDbArc
 50
180.0
 51
270.0
  0
ARC
  5
1A1
330
1F
100
AcDbEntity
  8
0
  6
Continuous
 62
     7
370
    15
100
AcDbCircle
 10
-430.9330674808
 20
-414.4093221732
 30
0.0
 40
12.00000000000006
100
AcDbArc
 50
90.0
 51
180.0
  0
ARC
  5
1A2
330
1F
100
AcDbEntity
  8
0
  6
Continuous
 62
     7
370
    15
100
AcDbCircle
 10
396.0669325192
 20
-404.4093221732
 30
0.0
 40
12.0
100
AcDbArc
 50
0.0
 51
90.0
  0
ARC
  5
1A3
330
1F
100
AcDbEntity
  8
0
  6
Continuous
 62
     7
370
    15
100
AcDbCircle
 10
396.0669325192
 20
59.5906778268
 30
0.0
 40
12.00000000000001
100
AcDbArc
 50
270.0
 51
0.0
  0
LINE
  5
1A4
330
1F
100
AcDbEntity
  8
0
  6
Continuous
 62
     7
370
    15
100
AcDbLine
 10
-408.9946102302
 20
57.5906819991
 30
0.0
 11
-430.9330683152
 21
57.5906819991
 31
0.0
  0
LINE
  5
1A5
330
1F
100
AcDbEntity
  8
0
  6
Continuous
 62
     7
370
    15
100
AcDbLine
 10
-430.9330683152
 20
-402.4093263456
 30
0.0
 11
-408.9946102302
 21
-402.4093263456
 31
0.0
  0
LINE
  5
1A6
330
1F
100
AcDbEntity
  8
0
  6
Continuous
 62
     7
370
    15
100
AcDbLine
 10
396.0669387181
 20
47.5906766347
 30
0.0
 11
294.2346680959
 21
47.5906766347
 31
0.0
  0
LINE
  5
1A7
330
1F
100
AcDbEntity
  8
0
  6
Continuous
 62
     7
370
    15
100
AcDbLine
 10
294.2346680959
 20
-392.4093209811
 30
0.0
 11
396.0669387181
 21
-392.4093209811
 31
0.0
  0
SPLINE
  5
1A8
330
1F
100
AcDbEntity
  8
0
  6
Continuous
 62
     7
370
    15
100
AcDbSpline
210
0.0
220
0.0
230
1.0
 70
     8
 71
     3
 72
    16
 73
    12
 74
     0
 42
0.00000001
 43
0.00000001
 12
1.0
 22
0.0
 32
0.0
 13
1.0
 23
0.0
 33
0.0
 40
0.0
 40
0.0
 40
0.0
 40
0.0
 40
0.0907940515030189
 40
0.210673158294558
 40
0.3301740433449177
 40
0.4490463942285914
 40
0.5671244005941346
 40
0.684316705904892
 40
0.800594620976184
 40
0.9159648763908426
 40
1.0
 40
1.0
 40
1.0
 40
1.0
 10
-402.1264564196795
 20
59.80603763377398
 30
0.0
 10
-402.3000507377473
 20
59.68276140768592
 30
0.0
 10
-402.702848747572
 20
59.39671852863501
 30
0.0
 10
-403.3899346405497
 20
58.99843785504341
 30
0.0
 10
-404.1699164915423
 20
58.61205717350116
 30
0.0
 10
-404.981697151117
 20
58.28428833032678
 30
0.0
 10
-405.8150889677992
 20
58.0173894757034
 30
0.0
 10
-406.6628997415507
 20
57.81316901353062
 30
0.0
 10
-407.5173869108946
 20
57.67483326299661
 30
0.0
 10
-408.2971492008809
 20
57.59936184517137
 30
0.0
 10
-408.7884752627998
 20
57.59723904779837
 30
0.0
 10
-408.9955341021746
 20
57.59634444033831
 30
0.0
  0
SPLINE
  5
1A9
330
1F
100
AcDbEntity
  8
0
  6
Continuous
 62
     7
370
    15
100
AcDbSpline
210
0.0
220
0.0
230
1.0
 70
     8
 71
     3
 72
    17
 73
    13
 74
     0
 42
0.00000001
 43
0.00000001
 12
1.0
 22
0.0
 32
0.0
 13
1.0
 23
0.0
 33
0.0
 40
0.0
 40
0.0
 40
0.0
 40
0.0
 40
0.0690967701698887
 40
0.1865348621060453
 40
0.3030639286653531
 40
0.4186791142359149
 40
0.5334038385451094
 40
0.6472690910964501
 40
0.7602994354753039
 40
0.8725055369561676
 40
0.9838780966431073
 40
1.0
 40
1.0
 40
1.0
 40
1.0
 10
-408.9952211777895
 20
-402.4169408389357
 30
0.0
 10
-408.8250149895214
 20
-402.4160797268189
 30
0.0
 10
-408.3655233551061
 20
-402.4137550533275
 30
0.0
 10
-407.6159916002106
 20
-402.4816774485412
 30
0.0
 10
-406.7581631910912
 20
-402.6129529413316
 30
0.0
 10
-405.91935642929
 20
-402.8078759878144
 30
0.0
 10
-405.1057551578502
 20
-403.0594773624705
 30
0.0
 10
-404.3231055195533
 20
-403.364971714347
 30
0.0
 10
-403.5749422201437
 20
-403.7184077616965
 30
0.0
 10
-402.8711699046124
 20
-404.1182690750952
 30
0.0
 10
-402.3865707833885
 20
-404.4237115517205
 30
0.0
 10
-402.1509996082443
 20
-404.6027831178343
 30
0.0
 10
-402.1212112109392
 20
-404.6254270383146
 30
0.0
  0
SPLINE
  5
1AA
330
1F
100
AcDbEntity
  8
0
  6
Continuous
 62
     7
370
    15
100
AcDbSpline
210
0.0
220
0.0
230
1.0
 70
     8
 71
     3
 72
    15
 73
    11
 74
     0
 42
0.00000001
 43
0.00000001
 12
1.0
 22
0.0
 32
0.0
 13
1.0
 23
0.0
 33
0.0
 40
0.0
 40
0.0
 40
0.0
 40
0.0
 40
0.1249498137755527
 40
0.2604240724388941
 40
0.3980838844176478
 40
0.5242028316036338
 40
0.6385941786641055
 40
0.7619825397309825
 40
0.9016124502655278
 40
0.9999999999999999
 40
0.9999999999999999
 40
0.9999999999999999
 40
0.9999999999999999
 10
-268.527117832306
 20
102.0906902245257
 30
0.0
 10
-268.7696971619134
 20
102.1117547665203
 30
0.0
 10
-269.2752881267734
 20
102.1556581037446
 30
0.0
 10
-269.9893453040651
 20
102.2238717070362
 30
0.0
 10
-270.6154485251912
 20
102.2892288322662
 30
0.0
 10
-271.1500111888379
 20
102.3512536303495
 30
0.0
 10
-271.6062508372211
 20
102.4118235209275
 30
0.0
 10
-271.8556468325065
 20
102.4504845053818
 30
0.0
 10
-271.9666936924048
 20
102.4674350564653
 30
0.0
 10
-272.0318104287464
 20
102.4750163808582
 30
0.0
 10
-272.0587272613525
 20
102.4781502178881
 30
0.0
  0
SPLINE
  5
1AB
330
1F
100
AcDbEntity
  8
0
  6
Continuous
 62
     7
370
    15
100
AcDbSpline
210
0.0
220
0.0
230
1.0
 70
     8
 71
     3
 72
    15
 73
    11
 74
     0
 42
0.00000001
 43
0.00000001
 12
1.0
 22
0.0
 32
0.0
 13
1.0
 23
0.0
 33
0.0
 40
0.0
 40
0.0
 40
0.0
 40
0.0
 40
0.0983875497344722
 40
0.2380174602690174
 40
0.3614058213358943
 40
0.4757971683963662
 40
0.6019161155823521
 40
0.7395759275611058
 40
0.8750501862244473
 40
1.0
 40
1.0
 40
1.0
 40
1.0
 10
-272.0587272613525
 20
-447.296794564369
 30
0.0
 10
-272.0318104287464
 20
-447.2936607273392
 30
0.0
 10
-271.9666936924048
 20
-447.2860794029464
 30
0.0
 10
-271.8556468325065
 20
-447.2691288518627
 30
0.0
 10
-271.6062508372211
 20
-447.2304678674084
 30
0.0
 10
-271.1500111888379
 20
-447.1698979768305
 30
0.0
 10
-270.6154485251912
 20
-447.1078731787471
 30
0.0
 10
-269.9893453040651
 20
-447.0425160535172
 30
0.0
 10
-269.2752881267734
 20
-446.9743024502255
 30
0.0
 10
-268.7696971619134
 20
-446.9303991130013
 30
0.0
 10
-268.527117832306
 20
-446.9093345710067
 30
0.0
  0
SPLINE
  5
1AC
330
1F
100
AcDbEntity
  8
0
  6
Continuous
 62
     7
370
    15
100
AcDbSpline
210
0.0
220
0.0
230
1.0
 70
     8
 71
     3
 72
    25
 73
    21
 74
     0
 42
0.00000001
 43
0.00000001
 12
1.0
 22
0.0
 32
0.0
 13
1.0
 23
0.0
 33
0.0
 40
0.0
 40
0.0
 40
0.0
 40
0.0
 40
0.0225086747876669
 40
0.0478727755138851
 40
0.0743187247830303
 40
0.1019519469455374
 40
0.1310517915608912
 40
0.1620036615033875
 40
0.1953821263500692
 40
0.2321273451489294
 40
0.2773048569033569
 40
0.326975626535247
 40
0.3813978864054562
 40
0.4429852943573669
 40
0.5170799362164614
 40
0.6229978721496602
 40
0.7475837356483316
 40
0.847222649387208
 40
0.9355133225112111
 40
1.0
 40
1.0
 40
1.0
 40
1.0
 10
-272.3779803507537
 20
102.5382316998217
 30
0.0
 10
-273.1117922202388
 20
102.5381762007624
 30
0.0
 10
-274.6725065327728
 20
102.5380581620938
 30
0.0
 10
-277.0941838056731
 20
102.5363234311926
 30
0.0
 10
-279.6802649508535
 20
102.5333600608607
 30
0.0
 10
-282.3841160711962
 20
102.5287198880125
 30
0.0
 10
-285.2294764960499
 20
102.5223562975584
 30
0.0
 10
-288.2553764055352
 20
102.5138341753981
 30
0.0
 10
-291.5220332249515
 20
102.5026360881511
 30
0.0
 10
-295.2416550462435
 20
102.4874557793501
 30
0.0
 10
-299.4800221463036
 20
102.4669195015794
 30
0.0
 10
-304.278986949144
 20
102.4395543318239
 30
0.0
 10
-309.5965806810152
 20
102.4043548966243
 30
0.0
 10
-315.6893656254404
 20
102.3579929308728
 30
0.0
 10
-323.4242984443076
 20
102.2906915302987
 30
0.0
 10
-333.1768875387372
 20
102.192331800827
 30
0.0
 10
-343.7512339268157
 20
102.0687831217155
 30
0.0
 10
-353.7688975425102
 20
101.9396331422675
 30
0.0
 10
-361.8670516505504
 20
101.829196185799
 30
0.0
 10
-366.775803928748
 20
101.7592070226742
 30
0.0
 10
-368.8477676312655
 20
101.7296648911211
 30
0.0
  0
SPLINE
  5
1AD
330
1F
100
AcDbEntity
  8
0
  6
Continuous
 62
     7
370
    15
100
AcDbSpline
210
0.0
220
0.0
230
1.0
 70
     8
 71
     3
 72
    25
 73
    21
 74
     0
 42
0.00000001
 43
0.00000001
 12
1.0
 22
0.0
 32
0.0
 13
1.0
 23
0.0
 33
0.0
 40
0.0
 40
0.0
 40
0.0
 40
0.0
 40
0.0098651402471147
 40
0.0927054222809607
 40
0.1824498806796492
 40
0.2818430194727288
 40
0.399416245274206
 40
0.533208836431223
 40
0.6055540134175816
 40
0.6633179536545013
 40
0.7149169501995459
 40
0.7620402576567411
 40
0.8031658873635531
 40
0.8371927360135626
 40
0.8685441217803599
 40
0.897703911458805
 40
0.9251814245415443
 40
0.9513248308010069
 40
0.9790688404038201
 40
1.0
 40
1.0
 40
1.0
 40
1.0
 10
-368.8474919597834
 20
-446.548458249214
 30
0.0
 10
-368.5303304183661
 20
-446.553033458461
 30
0.0
 10
-365.5498766293819
 20
-446.5960279516604
 30
0.0
 10
-359.6933627508417
 20
-446.6777657349784
 30
0.0
 10
-350.9687801027497
 20
-446.7953206623906
 30
0.0
 10
-341.1403247695475
 20
-446.9190026141147
 30
0.0
 10
-329.9058753001896
 20
-447.0465774468857
 30
0.0
 10
-319.5443927539261
 20
-447.1455151951437
 30
0.0
 10
-311.0900020744303
 20
-447.212399393757
 30
0.0
 10
-305.2598315740797
 20
-447.2521021981552
 30
0.0
 10
-300.2304559307892
 20
-447.281621006356
 30
0.0
 10
-295.7274656831751
 20
-447.3039540209244
 30
0.0
 10
-291.7834588304514
 20
-447.3203860622922
 30
0.0
 10
-288.3416415843665
 20
-447.3322150344273
 30
0.0
 10
-285.2799823378562
 20
-447.3408879130026
 30
0.0
 10
-282.4248417570552
 20
-447.3473014358106
 30
0.0
 10
-279.7340092265211
 20
-447.3518820447611
 30
0.0
 10
-277.0854692509431
 20
-447.3550227657842
 30
0.0
 10
-274.6474384333464
 20
-447.3567256995448
 30
0.0
 10
-273.060561774605
 20
-447.3568099953393
 30
0.0
 10
-272.378177529205
 20
-447.3568462439802
 30
0.0
  0
ARC
  5
1AE
330
1F
100
AcDbEntity
  8
0
  6
Continuous
 62
     7
370
    15
100
AcDbCircle
 10
-368.4330674808
 20
72.7329269072
 30
0.0
 40
28.99999999999996
100
AcDbArc
 50
90.8178461867
 51
180.0
  0
ARC
  5
1AF
330
1F
100
AcDbEntity
  8
0
  6
Continuous
 62
     7
370
    15
100
AcDbCircle
 10
-368.4330674808
 20
-417.5515712536
 30
0.0
 40
28.99999999999994
100
AcDbArc
 50
180.0
 51
269.1821538133
  0
SPLINE
  5
1B0
330
1F
100
AcDbEntity
  8
0
  6
Continuous
 62
     7
370
    15
100
AcDbSpline
210
0.0
220
0.0
230
1.0
 70
     8
 71
     3
 72
    25
 73
    21
 74
     0
 42
0.00000001
 43
0.00000001
 12
1.0
 22
0.0
 32
0.0
 13
1.0
 23
0.0
 33
0.0
 40
0.0
 40
0.0
 40
0.0
 40
0.0
 40
0.0113347102618332
 40
0.0727109302718488
 40
0.1336327876587269
 40
0.194084071707857
 40
0.2540517024618033
 40
0.3135201456551643
 40
0.3724693020444058
 40
0.4308829084218183
 40
0.4887643157337513
 40
0.5461619155391352
 40
0.6031891703513507
 40
0.6600393659861792
 40
0.7169692825342394
 40
0.7742274699980122
 40
0.8321525899273248
 40
0.8910269032000924
 40
0.9509056214105397
 40
1.0
 40
1.0
 40
1.0
 40
1.0
 10
-397.4369119803637
 20
69.04873618399829
 30
0.0
 10
-397.4354409091435
 20
68.9964733448988
 30
0.0
 10
-397.4260041476878
 20
68.66121293137364
 30
0.0
 10
-397.4697037960306
 20
68.04493644529181
 30
0.0
 10
-397.5696387881227
 20
67.21156198251593
 30
0.0
 10
-397.7326564922209
 20
66.40048911050329
 30
0.0
 10
-397.9471658937118
 20
65.61853117587438
 30
0.0
 10
-398.2095429645211
 20
64.87177596176768
 30
0.0
 10
-398.512810701636
 20
64.1656662936692
 30
0.0
 10
-398.8498708221592
 20
63.50476859604326
 30
0.0
 10
-399.2129021829552
 20
62.89251104483337
 30
0.0
 10
-399.5940144476651
 20
62.33087972291609
 30
0.0
 10
-399.9856399743114
 20
61.82036414588843
 30
0.0
 10
-400.3808832646283
 20
61.36010564166281
 30
0.0
 10
-400.773683041193
 20
60.94829083824877
 30
0.0
 10
-401.1585309689302
 20
60.58246908230552
 30
0.0
 10
-401.5310925687305
 20
60.25948273413675
 30
0.0
 10
-401.8847515623896
 20
59.97852046453961
 30
0.0
 10
-402.1978088098086
 20
59.748249250548
 30
0.0
 10
-402.3710897328343
 20
59.63151841719569
 30
0.0
 10
-402.4491559664934
 20
59.57892903601855
 30
0.0
  0
SPLINE
  5
1B1
330
1F
100
AcDbEntity
  8
0
  6
Continuous
 62
     7
370
    15
100
AcDbSpline
210
0.0
220
0.0
230
1.0
 70
     8
 71
     3
 72
    25
 73
    21
 74
     0
 42
0.00000001
 43
0.00000001
 12
1.0
 22
0.0
 32
0.0
 13
1.0
 23
0.0
 33
0.0
 40
0.0
 40
0.0
 40
0.0
 40
0.0
 40
0.0028257979939533
 40
0.0581677268644063
 40
0.1192778649208987
 40
0.1828438565080292
 40
0.2463574643088091
 40
0.302772647268084
 40
0.3650056628892474
 40
0.4271909320784027
 40
0.4894439109196105
 40
0.551897224009344
 40
0.6146436054684196
 40
0.6776469669111177
 40
0.740774575259722
 40
0.8038492487323319
 40
0.8666968462446506
 40
0.9291809240198977
 40
0.9912077083903819
 40
1.0
 40
1.0
 40
1.0
 40
1.0
 10
-402.4520020882815
 20
-404.3948166676786
 30
0.0
 10
-402.447893339879
 20
-404.3975061877737
 30
0.0
 10
-402.3633166803507
 20
-404.4528686979811
 30
0.0
 10
-402.1536366193419
 20
-404.5991261519005
 30
0.0
 10
-401.8198909123311
 20
-404.8463483677934
 30
0.0
 10
-401.4346435011707
 20
-405.158115310714
 30
0.0
 10
-401.0356146661752
 20
-405.513621056003
 30
0.0
 10
-400.6230269560459
 20
-405.9194332410292
 30
0.0
 10
-400.2049235761804
 20
-406.3758777830197
 30
0.0
 10
-399.7737064532755
 20
-406.9058695758541
 30
0.0
 10
-399.3528133767559
 20
-407.4942889230494
 30
0.0
 10
-398.9519371273602
 20
-408.1397771856501
 30
0.0
 10
-398.5808122482093
 20
-408.8392218472936
 30
0.0
 10
-398.2490027461963
 20
-409.5873877438574
 30
0.0
 10
-397.9650712357043
 20
-410.3767637556964
 30
0.0
 10
-397.7366997046203
 20
-411.1981867448962
 30
0.0
 10
-397.5669532027421
 20
-412.0418144591206
 30
0.0
 10
-397.4667236002431
 20
-412.8975313269218
 30
0.0
 10
-397.4245382373783
 20
-413.5132244942959
 30
0.0
 10
-397.434750093816
 20
-413.8400383452005
 30
0.0
 10
-397.436017910692
 20
-413.8806127616194
 30
0.0
  0
LINE
  5
1B2
330
1F
100
AcDbEntity
  8
0
  6
Continuous
 62
     7
370
    15
100
AcDbLine
 10
-34.6824031274
 20
-4.4093244382
 30
0.0
 11
-62.7531956832
 21
-4.4093244382
 31
0.0
  0
LINE
  5
1B3
330
1F
100
AcDbEntity
  8
0
  6
Continuous
 62
     7
370
    15
100
AcDbLine
 10
-45.0755160253
 20
-172.4093221732
 30
0.0
 11
-34.6824031274
 21
-4.4093244382
 31
0.0
  0
LINE
  5
1B4
330
1F
100
AcDbEntity
  8
0
  6
Continuous
 62
     7
370
    15
100
AcDbLine
 10
-45.0755160253
 20
-172.4093221732
 30
0.0
 11
-34.6824031274
 21
-340.4093199083
 31
0.0
  0
LINE
  5
1B5
330
1F
100
AcDbEntity
  8
0
  6
Continuous
 62
     7
370
    15
100
AcDbLine
 10
-62.7531956832
 20
-340.4093199083
 30
0.0
 11
-34.6824031274
 21
-340.4093199083
 31
0.0
  0
LINE
  5
1B6
330
1F
100
AcDbEntity
  8
0
  6
Continuous
 62
     7
370
    15
100
AcDbLine
 10
-62.7531956832
 20
-258.0130585142
 30
0.0
 11
-62.7531956832
 21
-340.4093199083
 31
0.0
  0
SPLINE
  5
1B7
330
1F
100
AcDbEntity
  8
0
  6
Continuous
 62
     7
370
    15
100
AcDbSpline
210
0.0
220
0.0
230
1.0
 70
     8
 71
     3
 72
    28
 73
    24
 74
     0
 42
0.00000001
 43
0.00000001
 12
1.0
 22
0.0
 32
0.0
 13
1.0
 23
0.0
 33
0.0
 40
0.0
 40
0.0
 40
0.0
 40
0.0
 40
0.2499999999999999
 40
0.2499999999999999
 40
0.3749999999999998
 40
0.3749999999999998
 40
0.4062499999999999
 40
0.4062499999999999
 40
0.4374999999999999
 40
0.4374999999999999
 40
0.5
 40
0.5
 40
0.625
 40
0.625
 40
0.7500000000000001
 40
0.7500000000000001
 40
0.8750000000000001
 40
0.8750000000000001
 40
0.9375000000000001
 40
0.9375000000000001
 40
0.96875
 40
0.96875
 40
1.0
 40
1.0
 40
1.0
 40
1.0
 10
-62.75319117607478
 20
-258.0130604093704
 30
0.0
 10
-59.25743130711427
 20
-244.3259362803794
 30
0.0
 10
-56.42346333170636
 20
-230.3853184873893
 30
0.0
 10
-53.48618652691544
 20
-208.9711998845072
 30
0.0
 10
-52.72652028991953
 20
-201.7491111057531
 30
0.0
 10
-52.08524417673074
 20
-192.6034059225074
 30
0.0
 10
-51.9723973137989
 20
-190.7683628468697
 30
0.0
 10
-51.77833264852502
 20
-187.0861614573512
 30
0.0
 10
-51.69701893437633
 20
-185.235760408102
 30
0.0
 10
-51.50259440333615
 20
-179.6943716141181
 30
0.0
 10
-51.43877154157788
 20
-176.014313995633
 30
0.0
 10
-51.44092288556947
 20
-165.0159341555196
 30
0.0
 10
-51.70087299794839
 20
-157.7394817872299
 30
0.0
 10
-52.70801568813895
 20
-143.291748723372
 30
0.0
 10
-53.4550662182325
 20
-136.1204373666914
 30
0.0
 10
-55.39672808151443
 20
-121.8744210077543
 30
0.0
 10
-56.59119892253219
 20
-114.7996856801514
 30
0.0
 10
-58.68483441098515
 20
-104.2527543519174
 30
0.0
 10
-59.43300653276353
 20
-100.7479664948319
 30
0.0
 10
-60.62637676403886
 20
-95.50613430131301
 30
0.0
 10
-61.03601850827819
 20
-93.76141509522994
 30
0.0
 10
-61.87828381436674
 20
-90.27693732662745
 30
0.0
 10
-62.31112459713244
 20
-88.53642940878534
 30
0.0
 10
-62.7531911760745
 20
-86.80558393710892
 30
0.0
  0
LINE
  5
1B8
330
1F
100
AcDbEntity
  8
0
  6
Continuous
 62
     7
370
    15
100
AcDbLine
 10
-62.7531956832
 20
-4.4093244382
 30
0.0
 11
-62.7531956832
 21
-86.8055858322
 31
0.0
  0
ARC
  5
1B9
330
1F
100
AcDbEntity
  8
0
  6
Continuous
 62
     7
370
    15
100
AcDbCircle
 10
341.2946392281
 20
-202.0772303887
 30
0.0
 40
354.3410770005627
100
AcDbArc
 50
162.3881080389
 51
175.1971747704
  0
LINE
  5
1BA
330
1F
100
AcDbEntity
  8
0
  6
Continuous
 62
     7
370
    15
100
AcDbLine
 10
-45.0755160253
 20
-172.4093221732
 30
0.0
 11
-11.8022512595
 21
-172.4093221732
 31
0.0
  0
ELLIPSE
  5
1BB
330
1F
100
AcDbEntity
  8
0
  6
Continuous
 62
     7
370
    15
100
AcDbEllipse
 10
-29.7326511991
 20
-4.4093221732
 30
0.0
 11
0.8564379142868077
 21
6.974149874413082
 31
0.0
210
0.0
220
0.0
230
1.0
 40
0.7017754025
 41
0.085966856549484
 42
1.656763183344383
  0
LINE
  5
1BC
330
1F
100
AcDbEntity
  8
0
  6
Continuous
 62
     7
370
    15
100
AcDbLine
 10
4.6415079434
 20
2.5906748465
 30
0.0
 11
-29.2995970647
 21
2.5906748465
 31
0.0
  0
ELLIPSE
  5
1BD
330
1F
100
AcDbEntity
  8
0
  6
Continuous
 62
     7
370
    15
100
AcDbEllipse
 10
4.2084742979
 20
-4.4093221732
 30
0.0
 11
0.8564379142868077
 21
6.974149874413082
 31
0.0
210
0.0
220
0.0
230
1.0
 40
0.7017754025
 41
4.798355836934185
 42
6.36915216372907
  0
LINE
  5
1BE
330
1F
100
AcDbEntity
  8
0
  6
Continuous
 62
     7
370
    15
100
AcDbLine
 10
3.5622764428
 20
-94.8650576779
 30
0.0
 11
9.1582287152
 21
-4.4093244382
 31
0.0
  0
LWPOLYLINE
  5
1BF
330
1F
100
AcDbEntity
  8
0
  6
Continuous
 62
     7
370
    15
100
AcDbPolyline
 90
       16
 70
   128
 43
0.0
 10
-62.7531956832
 20
-4.4093244382
 10
-62.7260755698
 20
-3.677617819
 10
-62.6450281541
 20
-2.9539429256
 10
-62.5109326045
 20
-2.2461973735
 10
-62.325264136
 20
-1.5621595689
 10
-62.0900493066
 20
-0.9093247958
 10
-61.8078809182
 20
-0.2948307105
 10
-61.4818286102
 20
0.2745873622
 10
-61.115468661
 20
0.7926858357
 10
-60.7128392856
 20
1.2538022689
 10
-60.2783214252
 20
1.6528553656
 10
-59.8166834514
 20
1.985493987
 10
-59.3330066602
 20
2.2480673484
 10
-58.8325511615
 20
2.4377144269
 10
-58.3208303849
 20
2.5523341588
 10
-57.8034471671
 20
2.5906748465
  0
LINE
  5
1C0
330
1F
100
AcDbEntity
  8
0
  6
Continuous
 62
     7
370
    15
100
AcDbLine
 10
-57.8034471671
 20
2.5906748465
 30
0.0
 11
-29.2995970647
 21
2.5906748465
 31
0.0
  0
ELLIPSE
  5
1C1
330
1F
100
AcDbEntity
  8
0
  6
Continuous
 62
     7
370
    15
100
AcDbEllipse
 10
-29.7326511991
 20
-340.4093221732
 30
0.0
 11
-0.8564379142867651
 21
6.974149874413058
 31
0.0
210
0.0
220
0.0
230
1.0
 40
0.7017754025
 41
1.484829470245414
 42
3.055625797040318
  0
ARC
  5
1C2
330
1F
100
AcDbEntity
  8
0
  6
Continuous
 62
     7
370
    15
100
AcDbCircle
 10
341.2946392281
 20
-142.7414139578
 30
0.0
 40
354.3410770005507
100
AcDbArc
 50
184.8028252296
 51
197.6118919611
  0
LINE
  5
1C3
330
1F
100
AcDbEntity
  8
0
  6
Continuous
 62
     7
370
    15
100
AcDbLine
 10
3.5622764428
 20
-249.9535866686
 30
0.0
 11
9.1582287152
 21
-340.4093199083
 31
0.0
  0
ELLIPSE
  5
1C4
330
1F
100
AcDbEntity
  8
0
  6
Continuous
 62
     7
370
    15
100
AcDbEllipse
 10
4.2084742979
 20
-340.4093221732
 30
0.0
 11
-0.8564379142867654
 21
6.974149874413058
 31
0.0
210
0.0
220
0.0
230
1.0
 40
0.7017754025
 41
3.055625797040317
 42
4.626422123835217
  0
LINE
  5
1C5
330
1F
100
AcDbEntity
  8
0
  6
Continuous
 62
     7
370
    15
100
AcDbLine
 10
4.6415079434
 20
-347.409319193
 30
0.0
 11
-29.2995970647
 21
-347.409319193
 31
0.0
  0
LINE
  5
1C6
330
1F
100
AcDbEntity
  8
0
  6
Continuous
 62
     7
370
    15
100
AcDbLine
 10
-29.2995970647
 20
-347.409319193
 30
0.0
 11
-57.8034471671
 21
-347.409319193
 31
0.0
  0
LWPOLYLINE
  5
1C7
330
1F
100
AcDbEntity
  8
0
  6
Continuous
 62
     7
370
    15
100
AcDbPolyline
 90
       16
 70
   128
 43
0.0
 10
-57.8034471671
 20
-347.409319193
 10
-58.3208303849
 20
-347.3709785053
 10
-58.8325511615
 20
-347.2563587734
 10
-59.3330066602
 20
-347.0667116948
 10
-59.8166834514
 20
-346.8041383334
 10
-60.2783214252
 20
-346.4714997121
 10
-60.7128392856
 20
-346.0724466153
 10
-61.115468661
 20
-345.6113301822
 10
-61.4818286102
 20
-345.0932317086
 10
-61.8078809182
 20
-344.5238136359
 10
-62.0900493066
 20
-343.9093195506
 10
-62.325264136
 20
-343.2564847776
 10
-62.5109326045
 20
-342.572446973
 10
-62.6450281541
 20
-341.8647014209
 10
-62.7260755698
 20
-341.1410265275
 10
-62.7531956832
 20
-340.4093199083
  0
ARC
  5
1C8
330
1F
100
AcDbEntity
  8
0
  6
Continuous
 62
     7
370
    15
100
AcDbCircle
 10
165.6679820021
 20
-54.3912463113
 30
0.0
 40
134.3980853206866
100
AcDbArc
 50
60.2094167974
 51
89.5684513308
  0
ARC
  5
1C9
330
1F
100
AcDbEntity
  8
0
  6
Continuous
 62
     7
370
    15
100
AcDbCircle
 10
165.7722863619
 20
-290.8136705401
 30
0.0
 40
134.0110765214229
100
AcDbArc
 50
270.3881989926
 51
299.8339328792
  0
LWPOLYLINE
  5
1CA
330
1F
100
AcDbEntity
  8
0
  6
Continuous
 62
     7
370
    15
100
AcDbPolyline
 90
       69
 70
   128
 43
0.0
 10
166.6802514394
 20
-424.8216711589
 10
163.6853862603
 20
-424.7861467906
 10
160.6913853486
 20
-424.6795438834
 10
157.6990533669
 20
-424.501922042
 10
154.7092545827
 20
-424.2533110687
 10
151.7228532632
 20
-423.933770568
 10
148.7406242688
 20
-423.5434197494
 10
145.7634616692
 20
-423.082377822
 10
142.7921999295
 20
-422.550734193
 10
139.8276437123
 20
-421.9486527749
 10
136.870657285
 20
-421.2763123819
 10
133.9220751126
 20
-420.5338918277
 10
130.9827018578
 20
-419.7216146299
 10
128.053401788
 20
-418.8397043058
 10
125.1349497636
 20
-417.888399274
 10
122.2282100518
 20
-416.8679826566
 10
119.3339873154
 20
-415.7787226745
 10
116.4531160195
 20
-414.6209471532
 10
113.5863412221
 20
-413.394954116
 10
110.7345569928
 20
-412.1011160919
 10
107.8985083897
 20
-410.7397907087
 10
105.0790000756
 20
-409.3113653966
 10
102.2768665154
 20
-407.8162275859
 10
99.4928527673
 20
-406.2547945091
 10
96.7277336915
 20
-404.627528102
 10
93.9823437531
 20
-402.9348753997
 10
91.2573982079
 20
-401.1773132392
 10
88.5537017186
 20
-399.3553333589
 10
85.8720291455
 20
-397.4694423982
 10
83.2130659421
 20
-395.5201917001
 10
80.577616771
 20
-393.5081177064
 10
77.9664266904
 20
-391.4338015624
 10
75.3802109559
 20
-389.2977946111
 10
72.8197146256
 20
-387.1007227012
 10
70.285623153
 20
-384.8431967803
 10
67.7786815961
 20
-382.5258724996
 10
65.2996052106
 20
-380.1493608066
 10
62.8490496476
 20
-377.7143769571
 10
60.4277301629
 20
-375.2215766021
 10
58.0363322099
 20
-372.6716600963
 10
55.6755412419
 20
-370.0653724977
 10
53.3459831078
 20
-367.4034141609
 10
51.0483730634
 20
-364.6865599462
 10
48.7832773526
 20
-361.9155698129
 10
46.5514112313
 20
-359.0912037202
 10
44.3533707459
 20
-356.214281232
 10
42.1897519429
 20
-353.285607011
 10
40.061180671
 20
-350.3060155221
 10
37.968282779
 20
-347.2763114282
 10
35.911624511
 20
-344.1973887988
 10
33.8917721112
 20
-341.0700820991
 10
31.909321626
 20
-337.8952853986
 10
29.9648392995
 20
-334.6738927671
 10
28.0588317712
 20
-331.4068131753
 10
26.1918354829
 20
-328.0949704953
 10
24.3644166787
 20
-324.739273698
 10
22.5770819981
 20
-321.3407062598
 10
20.8303082783
 20
-317.900192053
 10
19.1246021588
 20
-314.418714554
 10
17.4604404767
 20
-310.8972423383
 10
15.8383000691
 20
-307.336788685
 10
14.258627971
 20
-303.7383370706
 10
12.7219010194
 20
-300.1029007741
 10
11.2285066445
 20
-296.4315228769
 10
9.7788620789
 20
-292.7252166578
 10
8.3734143575
 20
-288.9850326487
 10
7.0125509103
 20
-285.2120288321
 10
5.6966293652
 20
-281.4072557398
 10
5.465780576
 20
-280.7227261969
  0
LWPOLYLINE
  5
1CB
330
1F
100
AcDbEntity
  8
0
  6
Continuous
 62
     7
370
    15
100
AcDbPolyline
 90
       69
 70
   128
 43
0.0
 10
5.465780576
 20
-64.0959181496
 10
5.6966293652
 20
-63.4113886067
 10
7.0125509103
 20
-59.6066155144
 10
8.3734143575
 20
-55.8336116978
 10
9.7788620789
 20
-52.0934276887
 10
11.2285066445
 20
-48.3871214696
 10
12.7219010194
 20
-44.7157435724
 10
14.258627971
 20
-41.0803072759
 10
15.8383000691
 20
-37.4818556615
 10
17.4604404767
 20
-33.9214020082
 10
19.1246021588
 20
-30.3999297925
 10
20.8303082783
 20
-26.9184522935
 10
22.5770819981
 20
-23.4779380866
 10
24.3644166787
 20
-20.0793706485
 10
26.1918354829
 20
-16.7236738511
 10
28.0588317712
 20
-13.4118311712
 10
29.9648392995
 20
-10.1447515794
 10
31.909321626
 20
-6.9233589479
 10
33.8917721112
 20
-3.7485622474
 10
35.911624511
 20
-0.6212555476
 10
37.968282779
 20
2.4576670817
 10
40.061180671
 20
5.4873711756
 10
42.1897519429
 20
8.4669626645
 10
44.3533707459
 20
11.3956368855
 10
46.5514112313
 20
14.2725593737
 10
48.7832773526
 20
17.0969254664
 10
51.0483730634
 20
19.8679155997
 10
53.3459831078
 20
22.5847698144
 10
55.6755412419
 20
25.2467281512
 10
58.0363322099
 20
27.8530157498
 10
60.4277301629
 20
30.4029322556
 10
62.8490496476
 20
32.8957326106
 10
65.2996052106
 20
35.3307164601
 10
67.7786815961
 20
37.7072281531
 10
70.285623153
 20
40.0245524338
 10
72.8197146256
 20
42.2820783547
 10
75.3802109559
 20
44.4791502646
 10
77.9664266904
 20
46.615157216
 10
80.577616771
 20
48.6894733599
 10
83.2130659421
 20
50.7015473536
 10
85.8720291455
 20
52.6507980517
 10
88.5537017186
 20
54.5366890124
 10
91.2573982079
 20
56.3586688927
 10
93.9823437531
 20
58.1162310532
 10
96.7277336915
 20
59.8088837556
 10
99.4928527673
 20
61.4361501626
 10
102.2768665154
 20
62.9975832394
 10
105.0790000756
 20
64.4927210501
 10
107.8985083897
 20
65.9211463622
 10
110.7345569928
 20
67.2824717454
 10
113.5863412221
 20
68.5763097695
 10
116.4531160195
 20
69.8023028067
 10
119.3339873154
 20
70.960078328
 10
122.2282100518
 20
72.0493383101
 10
125.1349497636
 20
73.0697549275
 10
128.053401788
 20
74.0210599593
 10
130.9827018578
 20
74.9029702834
 10
133.9220751126
 20
75.7152474812
 10
136.870657285
 20
76.4576680354
 10
139.8276437123
 20
77.1300084285
 10
142.7921999295
 20
77.7320898465
 10
145.7634616692
 20
78.2637334756
 10
148.7406242688
 20
78.7247754029
 10
151.7228532632
 20
79.1151262215
 10
154.7092545827
 20
79.4346667222
 10
157.6990533669
 20
79.6832776955
 10
160.6913853486
 20
79.860899537
 10
163.6853862603
 20
79.9675024441
 10
166.6802514394
 20
80.0030268124
  0
LINE
  5
1CC
330
1F
100
AcDbEntity
  8
0
  6
Continuous
 62
     7
370
    15
100
AcDbLine
 10
-82.905734698
 20
2.5906748465
 30
0.0
 11
-82.905734698
 21
-1.2185536929
 31
0.0
  0
LINE
  5
1CD
330
1F
100
AcDbEntity
  8
0
  6
Continuous
 62
     7
370
    15
100
AcDbLine
 10
-82.905734698
 20
2.5906748465
 30
0.0
 11
-65.2280699413
 21
2.5906748465
 31
0.0
  0
LINE
  5
1CE
330
1F
100
AcDbEntity
  8
0
  6
Continuous
 62
     7
370
    15
100
AcDbLine
 10
-65.2280699413
 20
2.5906748465
 30
0.0
 11
-65.2280699413
 21
-347.409319193
 31
0.0
  0
LINE
  5
1CF
330
1F
100
AcDbEntity
  8
0
  6
Continuous
 62
     7
370
    15
100
AcDbLine
 10
-82.905734698
 20
-347.409319193
 30
0.0
 11
-65.2280699413
 21
-347.409319193
 31
0.0
  0
LINE
  5
1D0
330
1F
100
AcDbEntity
  8
0
  6
Continuous
 62
     7
370
    15
100
AcDbLine
 10
-82.905734698
 20
-347.409319193
 30
0.0
 11
-82.905734698
 21
-343.6000906535
 31
0.0
  0
LINE
  5
1D1
330
1F
100
AcDbEntity
  8
0
  6
Continuous
 62
     7
370
    15
100
AcDbLine
 10
-82.905734698
 20
-343.6000906535
 30
0.0
 11
-143.7169115941
 21
-300.9093218156
 31
0.0
  0
LINE
  5
1D2
330
1F
100
AcDbEntity
  8
0
  6
Continuous
 62
     7
370
    15
100
AcDbLine
 10
-143.7169115941
 20
-43.9093225309
 30
0.0
 11
-143.7169115941
 21
-300.9093218156
 31
0.0
  0
LINE
  5
1D3
330
1F
100
AcDbEntity
  8
0
  6
Continuous
 62
     7
370
    15
100
AcDbLine
 10
-82.905734698
 20
-1.2185536929
 30
0.0
 11
-143.7169115941
 21
-43.9093225309
 31
0.0
  0
ARC
  5
1D4
330
1F
100
AcDbEntity
  8
0
  6
Continuous
 62
     7
370
    15
100
AcDbCircle
 10
346.2082176773
 20
-172.4093615643
 30
0.0
 40
400.9606111509576
100
AcDbArc
 50
175.1317508696
 51
184.8624246016
  0
LINE
  5
1D5
330
1F
100
AcDbEntity
  8
0
  6
Continuous
 62
     7
370
    15
100
AcDbLine
 10
-57.8034471671
 20
-347.409319193
 30
0.0
 11
-65.2280699413
 21
-347.409319193
 31
0.0
  0
LINE
  5
1D6
330
1F
100
AcDbEntity
  8
0
  6
Continuous
 62
     7
370
    15
100
AcDbLine
 10
-57.8034471671
 20
2.5906748465
 30
0.0
 11
-65.2280699413
 21
2.5906748465
 31
0.0
  0
LWPOLYLINE
  5
1D7
330
1F
100
AcDbEntity
  8
0
  6
Continuous
 62
     7
370
    15
100
AcDbPolyline
 90
       50
 70
   128
 43
0.0
 10
-9.6089791457
 20
-347.409319193
 10
-7.6582681339
 20
-350.8890532562
 10
-5.6353162925
 20
-354.3832116433
 10
-3.5734128158
 20
-357.8315191575
 10
-1.4730643432
 20
-361.2330966302
 10
0.6652224858
 20
-364.5871095964
 10
2.8408516248
 20
-367.8926937887
 10
5.0533164342
 20
-371.1490296432
 10
7.3020506699
 20
-374.3552975961
 10
9.5864880879
 20
-377.5106780835
 10
11.906062444
 20
-380.6143664428
 10
14.2601776917
 20
-383.6656176158
 10
16.6482377847
 20
-386.6636269399
 10
19.0696466763
 20
-389.607649357
 10
21.523778518
 20
-392.4969547101
 10
24.0100372632
 20
-395.3308128425
 10
26.5277970631
 20
-398.1084935972
 10
29.0764320691
 20
-400.8293115207
 10
31.6552568276
 20
-403.4925662586
 10
34.2636752923
 20
-406.0976021596
 10
36.9009722073
 20
-408.6437635728
 10
39.566521724
 20
-411.1304097482
 10
42.2596681912
 20
-413.5568850347
 10
44.9796963532
 20
-415.9226231881
 10
47.7259207566
 20
-418.2269983598
 10
50.497655948
 20
-420.4694294044
 10
53.2942462762
 20
-422.6493798801
 10
56.1149168809
 20
-424.7662388393
 10
58.959012111
 20
-426.8195592471
 10
61.8257869084
 20
-428.8087450572
 10
64.7145260175
 20
-430.7333492347
 10
67.6245141824
 20
-432.5928651401
 10
70.5550063451
 20
-434.3868159362
 10
73.5052574475
 20
-436.1147545882
 10
76.4745224316
 20
-437.7762638637
 10
79.4620562394
 20
-439.3708967277
 10
82.467143615
 20
-440.8982657501
 10
85.4889500935
 20
-442.3580133029
 10
88.5267902215
 20
-443.7497221538
 10
91.5798593362
 20
-445.0730644771
 10
94.6474123795
 20
-446.3277124473
 10
97.7286446889
 20
-447.5133382388
 10
100.8228112061
 20
-448.6296438285
 10
103.9291072686
 20
-449.6763609954
 10
107.0467580159
 20
-450.6532215186
 10
110.1749587853
 20
-451.5599571773
 10
113.3129645188
 20
-452.3963891574
 10
116.4599705537
 20
-453.1622492381
 10
119.6151722272
 20
-453.8573884078
 10
122.7777648766
 20
-454.4815980502
  0
LWPOLYLINE
  5
1D8
330
1F
100
AcDbEntity
  8
0
  6
Continuous
 62
     7
370
    15
100
AcDbPolyline
 90
       50
 70
   128
 43
0.0
 10
122.7777648766
 20
109.6629537038
 10
119.6151722272
 20
109.0387440613
 10
116.4599705537
 20
108.3436048917
 10
113.3129645188
 20
107.5777448109
 10
110.1749587853
 20
106.7413128308
 10
107.0467580159
 20
105.8345771722
 10
103.9291072686
 20
104.8577166489
 10
100.8228112061
 20
103.810999482
 10
97.7286446889
 20
102.6946938924
 10
94.6474123795
 20
101.5090681008
 10
91.5798593362
 20
100.2544201306
 10
88.5267902215
 20
98.9310778073
 10
85.4889500935
 20
97.5393689564
 10
82.467143615
 20
96.0796214036
 10
79.4620562394
 20
94.5522523812
 10
76.4745224316
 20
92.9576195172
 10
73.5052574475
 20
91.2961102418
 10
70.5550063451
 20
89.5681715897
 10
67.6245141824
 20
87.7742207936
 10
64.7145260175
 20
85.9147048882
 10
61.8257869084
 20
83.9901007107
 10
58.959012111
 20
82.0009149007
 10
56.1149168809
 20
79.9475944928
 10
53.2942462762
 20
77.8307355336
 10
50.497655948
 20
75.6507850579
 10
47.7259207566
 20
73.4083540133
 10
44.9796963532
 20
71.1039788417
 10
42.2596681912
 20
68.7382406882
 10
39.566521724
 20
66.3117654017
 10
36.9009722073
 20
63.8251192263
 10
34.2636752923
 20
61.2789578131
 10
31.6552568276
 20
58.6739219121
 10
29.0764320691
 20
56.0106671742
 10
26.5277970631
 20
53.2898492507
 10
24.0100372632
 20
50.512168496
 10
21.523778518
 20
47.6783103636
 10
19.0696466763
 20
44.7890050105
 10
16.6482377847
 20
41.8449825934
 10
14.2601776917
 20
38.8469732693
 10
11.906062444
 20
35.7957220963
 10
9.5864880879
 20
32.6920337371
 10
7.3020506699
 20
29.5366532496
 10
5.0533164342
 20
26.3303852967
 10
2.8408516248
 20
23.0740494422
 10
0.6652224858
 20
19.7684652499
 10
-1.4730643432
 20
16.4144522837
 10
-3.5734128158
 20
13.0128748111
 10
-5.6353162925
 20
9.5645672969
 10
-7.6582681339
 20
6.0704089097
 10
-9.6089791457
 20
2.5906748465
  0
ARC
  5
1D9
330
1F
100
AcDbEntity
  8
0
  6
Continuous
 62
     7
370
    15
100
AcDbCircle
 10
349.9796421574
 20
-172.4092460708
 30
0.0
 40
402.1489751229822
100
AcDbArc
 50
177.7458717718
 51
182.2444997003
  0
LINE
  5
1DA
330
1F
100
AcDbEntity
  8
0
  6
Continuous
 62
     7
370
    15
100
AcDbLine
 10
46.1318243344
 20
-445.1986514636
 30
0.0
 11
123.6540127595
 21
-454.7912143775
 31
0.0
  0
LINE
  5
1DB
330
1F
100
AcDbEntity
  8
0
  6
Continuous
 62
     7
370
    15
100
AcDbLine
 10
46.1318243344
 20
100.3800071171
 30
0.0
 11
123.7406481107
 21
109.9832988671
 31
0.0
  0
LWPOLYLINE
  5
1DC
330
1F
100
AcDbEntity
  8
0
  6
Continuous
 62
     7
370
    15
100
AcDbPolyline
 90
       51
 70
   128
 43
0.0
 10
140.4554296334
 20
109.6629537038
 10
137.2928369839
 20
109.0387440613
 10
134.1376353104
 20
108.3436048917
 10
130.9906292756
 20
107.5777448109
 10
127.8526235421
 20
106.7413128308
 10
124.7244227727
 20
105.8345771722
 10
121.6067720254
 20
104.8577166489
 10
118.5004759629
 20
103.810999482
 10
115.4063094456
 20
102.6946938924
 10
112.3250771363
 20
101.5090681008
 10
109.2575538953
 20
100.2544201306
 10
106.2044549783
 20
98.9310778073
 10
103.1666446526
 20
97.5393689564
 10
100.1448083718
 20
96.0796214036
 10
97.1397209962
 20
94.5522523812
 10
94.1521871884
 20
92.9576195172
 10
91.1829222043
 20
91.2961102418
 10
88.2326711018
 20
89.5681715897
 10
85.3021789391
 20
87.7742207936
 10
82.3921907742
 20
85.9147048882
 10
79.5034516652
 20
83.9901007107
 10
76.6366768678
 20
82.0009149007
 10
73.7925816376
 20
79.9475944928
 10
70.9719110329
 20
77.8307355336
 10
68.175350507
 20
75.6507850579
 10
65.4035855134
 20
73.4083540133
 10
62.65736111
 20
71.1039788417
 10
59.937332948
 20
68.7382406882
 10
57.2441864808
 20
66.3117654017
 10
54.5786369641
 20
63.8251192263
 10
51.9413400491
 20
61.2789578131
 10
49.3329215844
 20
58.6739219121
 10
46.7540968259
 20
56.0106671742
 10
44.2054916222
 20
53.2898492507
 10
41.6877318223
 20
50.512168496
 10
39.2014432748
 20
47.6783103636
 10
36.7473114331
 20
44.7890050105
 10
34.3259025414
 20
41.8449825934
 10
31.9378424485
 20
38.8469732693
 10
29.5837272008
 20
35.7957220963
 10
27.2641528447
 20
32.6920337371
 10
24.9797154267
 20
29.5366532496
 10
22.7309811909
 20
26.3303852967
 10
20.5185163815
 20
23.0740494422
 10
18.3428872426
 20
19.7684652499
 10
16.2046004136
 20
16.4144522837
 10
14.104251941
 20
13.0128748111
 10
12.0423484643
 20
9.5645672969
 10
10.0193966229
 20
6.0704089097
 10
8.0359328587
 20
2.5312937192
 10
7.384513696
 20
1.3433582476
  0
LWPOLYLINE
  5
1DD
330
1F
100
AcDbEntity
  8
0
  6
Continuous
 62
     7
370
    15
100
AcDbPolyline
 90
       15
 70
   128
 43
0.0
 10
144.7599280675
 20
116.6032291344
 10
144.7337616284
 20
115.8844567231
 10
144.6555603345
 20
115.173283904
 10
144.5261288483
 20
114.4772506646
 10
144.3468380769
 20
113.803658574
 10
144.1195953687
 20
113.1596899918
 10
143.8468147118
 20
112.5521100453
 10
143.531327327
 20
111.9873560361
 10
143.176530679
 20
111.4713884286
 10
142.7861202557
 20
111.0096908501
 10
142.3642683823
 20
110.6071210793
 10
141.9154156049
 20
110.2679110459
 10
141.4443004926
 20
109.9956966332
 10
140.9559298356
 20
109.7933388642
 10
140.4554296334
 20
109.6629537038
  0
LINE
  5
1DE
330
1F
100
AcDbEntity
  8
0
  6
Continuous
 62
     7
370
    15
100
AcDbLine
 10
144.7599280675
 20
80.0030268124
 30
0.0
 11
144.7599280675
 21
116.6032291344
 31
0.0
  0
LINE
  5
1DF
330
1F
100
AcDbEntity
  8
0
  6
Continuous
 62
     7
370
    15
100
AcDbLine
 10
166.6802514394
 20
80.0030268124
 30
0.0
 11
144.7599280675
 21
80.0030268124
 31
0.0
  0
LINE
  5
1E0
330
1F
100
AcDbEntity
  8
0
  6
Continuous
 62
     7
370
    15
100
AcDbLine
 10
166.6802514394
 20
-424.8216711589
 30
0.0
 11
144.7599280675
 21
-424.8216711589
 31
0.0
  0
LINE
  5
1E1
330
1F
100
AcDbEntity
  8
0
  6
Continuous
 62
     7
370
    15
100
AcDbLine
 10
144.7599280675
 20
-461.4218734809
 30
0.0
 11
144.7599280675
 21
-424.8216711589
 31
0.0
  0
LWPOLYLINE
  5
1E2
330
1F
100
AcDbEntity
  8
0
  6
Continuous
 62
     7
370
    15
100
AcDbPolyline
 90
       15
 70
   128
 43
0.0
 10
140.4554296334
 20
-454.4815980502
 10
140.9559298356
 20
-454.6119832107
 10
141.4443004926
 20
-454.8143409797
 10
141.9154156049
 20
-455.0865553924
 10
142.3642683823
 20
-455.4257654258
 10
142.7861202557
 20
-455.8283351966
 10
143.176530679
 20
-456.290032775
 10
143.531327327
 20
-456.8060003825
 10
143.8468147118
 20
-457.3707543918
 10
144.1195953687
 20
-457.9783343383
 10
144.3468380769
 20
-458.6223029205
 10
144.5261288483
 20
-459.2958950111
 10
144.6555603345
 20
-459.9919282504
 10
144.7337616284
 20
-460.7031010696
 10
144.7599280675
 20
-461.4218734809
  0
LWPOLYLINE
  5
1E3
330
1F
100
AcDbEntity
  8
0
  6
Continuous
 62
     7
370
    15
100
AcDbPolyline
 90
       51
 70
   128
 43
0.0
 10
7.384513696
 20
-346.1620025941
 10
8.0359328587
 20
-347.3499380657
 10
10.0193966229
 20
-350.8890532562
 10
12.0423484643
 20
-354.3832116433
 10
14.104251941
 20
-357.8315191575
 10
16.2046004136
 20
-361.2330966302
 10
18.3428872426
 20
-364.5871095964
 10
20.5185163815
 20
-367.8926937887
 10
22.7309811909
 20
-371.1490296432
 10
24.9797154267
 20
-374.3552975961
 10
27.2641528447
 20
-377.5106780835
 10
29.5837272008
 20
-380.6143664428
 10
31.9378424485
 20
-383.6656176158
 10
34.3259025414
 20
-386.6636269399
 10
36.7473114331
 20
-389.607649357
 10
39.2014432748
 20
-392.4969547101
 10
41.6877318223
 20
-395.3308128425
 10
44.2054916222
 20
-398.1084935972
 10
46.7540968259
 20
-400.8293115207
 10
49.3329215844
 20
-403.4925662586
 10
51.9413400491
 20
-406.0976021596
 10
54.5786369641
 20
-408.6437635728
 10
57.2441864808
 20
-411.1304097482
 10
59.937332948
 20
-413.5568850347
 10
62.65736111
 20
-415.9226231881
 10
65.4035855134
 20
-418.2269983598
 10
68.175350507
 20
-420.4694294044
 10
70.9719110329
 20
-422.6493798801
 10
73.7925816376
 20
-424.7662388393
 10
76.6366768678
 20
-426.8195592471
 10
79.5034516652
 20
-428.8087450572
 10
82.3921907742
 20
-430.7333492347
 10
85.3021789391
 20
-432.5928651401
 10
88.2326711018
 20
-434.3868159362
 10
91.1829222043
 20
-436.1147545882
 10
94.1521871884
 20
-437.7762638637
 10
97.1397209962
 20
-439.3708967277
 10
100.1448083718
 20
-440.8982657501
 10
103.1666446526
 20
-442.3580133029
 10
106.2044549783
 20
-443.7497221538
 10
109.2575538953
 20
-445.0730644771
 10
112.3250771363
 20
-446.3277124473
 10
115.4063094456
 20
-447.5133382388
 10
118.5004759629
 20
-448.6296438285
 10
121.6067720254
 20
-449.6763609954
 10
124.7244227727
 20
-450.6532215186
 10
127.8526235421
 20
-451.5599571773
 10
130.9906292756
 20
-452.3963891574
 10
134.1376353104
 20
-453.1622492381
 10
137.2928369839
 20
-453.8573884078
 10
140.4554296334
 20
-454.4815980502
  0
LINE
  5
1E4
330
1F
100
AcDbEntity
  8
0
  6
Continuous
 62
     7
370
    15
100
AcDbLine
 10
140.4554296334
 20
109.6629537038
 30
0.0
 11
122.7777648766
 21
109.6629537038
 31
0.0
  0
LINE
  5
1E5
330
1F
100
AcDbEntity
  8
0
  6
Continuous
 62
     7
370
    15
100
AcDbLine
 10
122.7777648766
 20
-454.4815980502
 30
0.0
 11
140.4554296334
 21
-454.4815980502
 31
0.0
  0
LINE
  5
1E6
330
1F
100
AcDbEntity
  8
0
  6
Continuous
 62
     7
370
    15
100
AcDbLine
 10
45.7649875481
 20
-445.1646172115
 30
0.0
 11
46.1318243344
 21
-445.1986514636
 31
0.0
  0
LINE
  5
1E7
330
1F
100
AcDbEntity
  8
0
  6
Continuous
 62
     7
370
    15
100
AcDbLine
 10
45.7649875481
 20
100.345972865
 30
0.0
 11
46.1318243344
 21
100.3800071171
 31
0.0
  0
SPLINE
  5
1E8
330
1F
100
AcDbEntity
  8
0
  6
Continuous
 62
     7
370
    15
100
AcDbSpline
210
0.0
220
0.0
230
1.0
 70
     8
 71
     3
 72
    24
 73
    20
 74
     0
 42
0.00000001
 43
0.00000001
 12
1.0
 22
0.0
 32
0.0
 13
1.0
 23
0.0
 33
0.0
 40
0.0
 40
0.0
 40
0.0
 40
0.0
 40
0.1250000000000002
 40
0.1250000000000002
 40
0.1875000000000002
 40
0.1875000000000002
 40
0.2500000000000002
 40
0.2500000000000002
 40
0.3750000000000002
 40
0.3750000000000002
 40
0.5000000000000001
 40
0.5000000000000001
 40
0.6250000000000001
 40
0.6250000000000001
 40
0.7500000000000001
 40
0.7500000000000001
 40
0.875
 40
0.875
 40
1.0
 40
1.0
 40
1.0
 40
1.0
 10
-376.1846484355141
 20
81.72280288725311
 30
0.0
 10
-376.5099255611111
 20
79.94492085880614
 30
0.0
 10
-376.8612222881822
 20
78.04135820214078
 30
0.0
 10
-377.3981385637266
 20
74.9974765116114
 30
0.0
 10
-377.5788443543983
 20
73.95143911229523
 30
0.0
 10
-377.9389626329181
 20
71.80224118738317
 30
0.0
 10
-378.1184901571307
 20
70.69843748307835
 30
0.0
 10
-378.650814882145
 20
67.30017133591204
 30
0.0
 10
-378.9969570817502
 20
64.9189882641439
 30
0.0
 10
-379.6561645396774
 20
59.92684368243689
 30
0.0
 10
-379.9692279930015
 20
57.31595482693694
 30
0.0
 10
-380.5594524763258
 20
51.86091076494764
 30
0.0
 10
-380.8366888492174
 20
49.01680395098693
 30
0.0
 10
-381.3643278694611
 20
43.08472378135164
 30
0.0
 10
-381.6148863560393
 20
39.9967590092696
 30
0.0
 10
-382.1066128640803
 20
33.55835831135828
 30
0.0
 10
-382.347963605028
 20
30.20790219457939
 30
0.0
 10
-382.8417726165257
 20
23.21815249196585
 30
0.0
 10
-383.094377662679
 20
19.57883983301381
 30
0.0
 10
-383.3617309252224
 20
15.77840030345928
 30
0.0
  0
ELLIPSE
  5
1E9
330
1F
100
AcDbEntity
  8
0
  6
Continuous
 62
     7
370
    15
100
AcDbEllipse
 10
-368.4330674808
 20
-172.4093221732
 30
0.0
 11
0.0
 21
274.5000000000001
 31
0.0
210
0.0
220
0.0
230
1.0
 40
0.0747034486
 41
0.2641466184496207
 42
0.3876496206790164
  0
ELLIPSE
  5
1EA
330
1F
100
AcDbEntity
  8
0
  6
Continuous
 62
     7
370
    15
100
AcDbEllipse
 10
-272.4330674808
 20
-172.4093221732
 30
0.0
 11
388.2016228714142
 21
0.0
 31
0.0
210
0.0
220
0.0
230
1.0
 40
0.7071067812
 41
1.830763682330346
 42
1.834942945244517
  0
ELLIPSE
  5
1EB
330
1F
100
AcDbEntity
  8
0
  6
Continuous
 62
     7
370
    15
100
AcDbEllipse
 10
-272.4330674808
 20
-172.4093221732
 30
0.0
 11
388.2016228714142
 21
0.0
 31
0.0
210
0.0
220
0.0
230
1.0
 40
0.7071067812
 41
1.570796326794897
 42
1.830763682330346
  0
ELLIPSE
  5
1EC
330
1F
100
AcDbEntity
  8
0
  6
Continuous
 62
     7
370
    15
100
AcDbEllipse
 10
-272.4330674808
 20
-172.4093221732
 30
0.0
 11
388.2016228714142
 21
0.0
 31
0.0
210
0.0
220
0.0
230
1.0
 40
0.7071067812
 41
4.452421624849251
 42
4.712388980384699
  0
ELLIPSE
  5
1ED
330
1F
100
AcDbEntity
  8
0
  6
Continuous
 62
     7
370
    15
100
AcDbEllipse
 10
-272.4330674808
 20
-172.4093221732
 30
0.0
 11
388.2016228714142
 21
0.0
 31
0.0
210
0.0
220
0.0
230
1.0
 40
0.7071067812
 41
4.44824236193508
 42
4.452421624849251
  0
ELLIPSE
  5
1EE
330
1F
100
AcDbEntity
  8
0
  6
Continuous
 62
     7
370
    15
100
AcDbEllipse
 10
-368.4330674808
 20
-172.4093221732
 30
0.0
 11
0.0
 21
274.5000000000001
 31
0.0
210
0.0
220
0.0
230
1.0
 40
0.0747034486
 41
2.753943032910779
 42
2.877446035140175
  0
SPLINE
  5
1EF
330
1F
100
AcDbEntity
  8
0
  6
Continuous
 62
     7
370
    15
100
AcDbSpline
210
0.0
220
0.0
230
1.0
 70
     8
 71
     3
 72
    24
 73
    20
 74
     0
 42
0.00000001
 43
0.00000001
 12
1.0
 22
0.0
 32
0.0
 13
1.0
 23
0.0
 33
0.0
 40
0.0
 40
0.0
 40
0.0
 40
0.0
 40
0.1250000000000002
 40
0.1250000000000002
 40
0.1875000000000002
 40
0.1875000000000002
 40
0.2500000000000002
 40
0.2500000000000002
 40
0.3750000000000002
 40
0.3750000000000002
 40
0.5000000000000001
 40
0.5000000000000001
 40
0.6250000000000001
 40
0.6250000000000001
 40
0.7500000000000001
 40
0.7500000000000001
 40
0.875
 40
0.875
 40
1.0
 40
1.0
 40
1.0
 40
1.0
 10
-376.1846484355141
 20
-426.5414472337341
 30
0.0
 10
-376.5099255611111
 20
-424.7635652052871
 30
0.0
 10
-376.8612222881822
 20
-422.8600025486218
 30
0.0
 10
-377.3981385637266
 20
-419.8161208580924
 30
0.0
 10
-377.5788443543983
 20
-418.7700834587762
 30
0.0
 10
-377.9389626329181
 20
-416.6208855338641
 30
0.0
 10
-378.1184901571307
 20
-415.5170818295593
 30
0.0
 10
-378.650814882145
 20
-412.118815682393
 30
0.0
 10
-378.9969570817502
 20
-409.7376326106249
 30
0.0
 10
-379.6561645396774
 20
-404.7454880289179
 30
0.0
 10
-379.9692279930015
 20
-402.1345991734179
 30
0.0
 10
-380.5594524763258
 20
-396.6795551114286
 30
0.0
 10
-380.8366888492174
 20
-393.8354482974678
 30
0.0
 10
-381.3643278694611
 20
-387.9033681278326
 30
0.0
 10
-381.6148863560393
 20
-384.8154033557506
 30
0.0
 10
-382.1066128640803
 20
-378.3770026578392
 30
0.0
 10
-382.347963605028
 20
-375.0265465410604
 30
0.0
 10
-382.8417726165257
 20
-368.0367968384468
 30
0.0
 10
-383.094377662679
 20
-364.3974841794948
 30
0.0
 10
-383.3617309252224
 20
-360.5970446499402
 30
0.0
  0
ELLIPSE
  5
1F0
330
1F
100
AcDbEntity
  8
0
  6
Continuous
 62
     7
370
    15
100
AcDbEllipse
 10
-368.4330674808
 20
-172.4093221732
 30
0.0
 11
0.0
 21
274.5000000000001
 31
0.0
210
0.0
220
0.0
230
1.0
 40
0.0747034486
 41
0.8154161741267467
 42
2.326176479463048
  0
LINE
  5
1F1
330
1F
100
AcDbEntity
  8
0
  6
Continuous
 62
     7
370
    15
100
AcDbLine
 10
149.1267431577
 20
150.590691655
 30
0.0
 11
127.0822633107
 21
150.590691655
 31
0.0
  0
LWPOLYLINE
  5
1F2
330
1F
100
AcDbEntity
  8
0
  6
Continuous
 62
     7
370
    15
100
AcDbPolyline
 90
       16
 70
   128
 43
0.0
 10
127.0822633107
 20
150.590691655
 10
127.1093834241
 20
151.322368472
 10
127.1904159386
 20
152.0460582665
 10
127.3245263894
 20
152.7538038186
 10
127.5101948579
 20
153.437826722
 10
127.7453947861
 20
154.0906763962
 10
128.0275929768
 20
154.7051704816
 10
128.3536303838
 20
155.2746034554
 10
128.7199903329
 20
155.7926870278
 10
129.1226197083
 20
156.2537885598
 10
129.5571375687
 20
156.6528416566
 10
130.0187755425
 20
156.9854951791
 10
130.5024672349
 20
157.2480834416
 10
131.0029078324
 20
157.437715619
 10
131.5146137078
 20
157.5523353509
 10
132.0320118268
 20
157.5906909398
  0
LINE
  5
1F3
330
1F
100
AcDbEntity
  8
0
  6
Continuous
 62
     7
370
    15
100
AcDbLine
 10
132.0320118268
 20
157.5906909398
 30
0.0
 11
154.5095492204
 21
157.5906909398
 31
0.0
  0
ELLIPSE
  5
1F4
330
1F
100
AcDbEntity
  8
0
  6
Continuous
 62
     7
370
    15
100
AcDbEllipse
 10
154.0765023913
 20
150.5906778268
 30
0.0
 11
0.8564379142867437
 21
6.974149874413086
 31
0.0
210
0.0
220
0.0
230
1.0
 40
0.7017754025
 41
0.0859668565494811
 42
1.656763183344376
  0
ELLIPSE
  5
1F5
330
1F
100
AcDbEntity
  8
0
  6
Continuous
 62
     7
370
    15
100
AcDbEllipse
 10
188.0176278883
 20
150.5906778268
 30
0.0
 11
0.8564379142867437
 21
6.974149874413086
 31
0.0
210
0.0
220
0.0
230
1.0
 40
0.7017754025
 41
4.79835583693418
 42
6.369152163729056
  0
LINE
  5
1F6
330
1F
100
AcDbEntity
  8
0
  6
Continuous
 62
     7
370
    15
100
AcDbLine
 10
192.9673899014
 20
150.590691655
 30
0.0
 11
188.6005450089
 21
80.0030268124
 31
0.0
  0
LINE
  5
1F7
330
1F
100
AcDbEntity
  8
0
  6
Continuous
 62
     7
370
    15
100
AcDbLine
 10
188.6005450089
 20
80.0030268124
 30
0.0
 11
166.6802514394
 21
80.0030268124
 31
0.0
  0
LINE
  5
1F8
330
1F
100
AcDbEntity
  8
0
  6
Continuous
 62
     7
370
    15
100
AcDbLine
 10
144.7599280675
 20
80.0030268124
 30
0.0
 11
149.1267431577
 21
150.590691655
 31
0.0
  0
LINE
  5
1F9
330
1F
100
AcDbEntity
  8
0
  6
Continuous
 62
     7
370
    15
100
AcDbLine
 10
188.4506691296
 20
157.5906909398
 30
0.0
 11
154.5095492204
 21
157.5906909398
 31
0.0
  0
LINE
  5
1FA
330
1F
100
AcDbEntity
  8
0
  6
Continuous
 62
     7
370
    15
100
AcDbLine
 10
188.6005450089
 20
-424.8216711589
 30
0.0
 11
166.6802514394
 21
-424.8216711589
 31
0.0
  0
LINE
  5
1FB
330
1F
100
AcDbEntity
  8
0
  6
Continuous
 62
     7
370
    15
100
AcDbLine
 10
192.9673899014
 20
-495.4093360015
 30
0.0
 11
188.6005450089
 21
-424.8216711589
 31
0.0
  0
ELLIPSE
  5
1FC
330
1F
100
AcDbEntity
  8
0
  6
Continuous
 62
     7
370
    15
100
AcDbEllipse
 10
188.0176278883
 20
-495.4093221732
 30
0.0
 11
-0.8564379142866868
 21
6.974149874413001
 31
0.0
210
0.0
220
0.0
230
1.0
 40
0.7017754025
 41
3.055625797040323
 42
4.626422123835223
  0
LINE
  5
1FD
330
1F
100
AcDbEntity
  8
0
  6
Continuous
 62
     7
370
    15
100
AcDbLine
 10
188.4506691296
 20
-502.4093352863
 30
0.0
 11
154.5095492204
 21
-502.4093352863
 31
0.0
  0
ELLIPSE
  5
1FE
330
1F
100
AcDbEntity
  8
0
  6
Continuous
 62
     7
370
    15
100
AcDbEllipse
 10
154.0765023913
 20
-495.4093221732
 30
0.0
 11
-0.8564379142866868
 21
6.974149874413001
 31
0.0
210
0.0
220
0.0
230
1.0
 40
0.7017754025
 41
1.48482947024542
 42
3.055625797040323
  0
LINE
  5
1FF
330
1F
100
AcDbEntity
  8
0
  6
Continuous
 62
     7
370
    15
100
AcDbLine
 10
144.7599280675
 20
-424.8216711589
 30
0.0
 11
149.1267431577
 21
-495.4093360015
 31
0.0
  0
LINE
  5
200
330
1F
100
AcDbEntity
  8
0
  6
Continuous
 62
     7
370
    15
100
AcDbLine
 10
154.5095492204
 20
-502.4093352863
 30
0.0
 11
132.0320118268
 21
-502.4093352863
 31
0.0
  0
LWPOLYLINE
  5
201
330
1F
100
AcDbEntity
  8
0
  6
Continuous
 62
     7
370
    15
100
AcDbPolyline
 90
       16
 70
   128
 43
0.0
 10
132.0320118268
 20
-502.4093352863
 10
131.5146137078
 20
-502.3709796973
 10
131.0029078324
 20
-502.2563599654
 10
130.5024672349
 20
-502.0667277881
 10
130.0187755425
 20
-501.8041395255
 10
129.5571375687
 20
-501.471486003
 10
129.1226197083
 20
-501.0724329063
 10
128.7199903329
 20
-500.6113313743
 10
128.3536303838
 20
-500.0932478019
 10
128.0275929768
 20
-499.523814828
 10
127.7453947861
 20
-498.9093207427
 10
127.5101948579
 20
-498.2564710685
 10
127.3245263894
 20
-497.5724481651
 10
127.1904159386
 20
-496.864702613
 10
127.1093834241
 20
-496.1410128185
 10
127.0822633107
 20
-495.4093360015
  0
LINE
  5
202
330
1F
100
AcDbEntity
  8
0
  6
Continuous
 62
     7
370
    15
100
AcDbLine
 10
127.0822633107
 20
-495.4093360015
 30
0.0
 11
149.1267431577
 21
-495.4093360015
 31
0.0
  0
LINE
  5
203
330
1F
100
AcDbEntity
  8
0
  6
Continuous
 62
     7
370
    15
100
AcDbLine
 10
127.0822633107
 20
116.6032291344
 30
0.0
 11
144.7599280675
 21
116.6032291344
 31
0.0
  0
LINE
  5
204
330
1F
100
AcDbEntity
  8
0
  6
Continuous
 62
     7
370
    15
100
AcDbLine
 10
127.0822633107
 20
150.590691655
 30
0.0
 11
127.0822633107
 21
116.6032291344
 31
0.0
  0
LINE
  5
205
330
1F
100
AcDbEntity
  8
0
  6
Continuous
 62
     7
370
    15
100
AcDbLine
 10
127.0822633107
 20
-495.4093360015
 30
0.0
 11
127.0822633107
 21
-461.4218734809
 31
0.0
  0
LINE
  5
206
330
1F
100
AcDbEntity
  8
0
  6
Continuous
 62
     7
370
    15
100
AcDbLine
 10
144.7599280675
 20
-461.4218734809
 30
0.0
 11
127.0822633107
 21
-461.4218734809
 31
0.0
  0
LWPOLYLINE
  5
207
330
1F
100
AcDbEntity
  8
0
  6
Continuous
 62
     7
370
    15
100
AcDbPolyline
 90
       15
 70
   128
 43
0.0
 10
122.7777648766
 20
109.6629537038
 10
123.2782650788
 20
109.7933388642
 10
123.7666357358
 20
109.9956966332
 10
124.2377508481
 20
110.2679110459
 10
124.6866036256
 20
110.6071210793
 10
125.108455499
 20
111.0096908501
 10
125.4988659222
 20
111.4713884286
 10
125.8536625703
 20
111.9873560361
 10
126.1691201527
 20
112.5521100453
 10
126.4419306119
 20
113.1596899918
 10
126.6691733201
 20
113.803658574
 10
126.8484640916
 20
114.4772506646
 10
126.9778955777
 20
115.173283904
 10
127.0560968716
 20
115.8844567231
 10
127.0822633107
 20
116.6032291344
  0
LWPOLYLINE
  5
208
330
1F
100
AcDbEntity
  8
0
  6
Continuous
 62
     7
370
    15
100
AcDbPolyline
 90
       15
 70
   128
 43
0.0
 10
127.0822633107
 20
-461.4218734809
 10
127.0560968716
 20
-460.7031010696
 10
126.9778955777
 20
-459.9919282504
 10
126.8484640916
 20
-459.2958950111
 10
126.6691733201
 20
-458.6223029205
 10
126.4419306119
 20
-457.9783343383
 10
126.1691201527
 20
-457.3707543918
 10
125.8536625703
 20
-456.8060003825
 10
125.4988659222
 20
-456.290032775
 10
125.108455499
 20
-455.8283351966
 10
124.6866036256
 20
-455.4257654258
 10
124.2377508481
 20
-455.0865553924
 10
123.7666357358
 20
-454.8143409797
 10
123.2782650788
 20
-454.6119832107
 10
122.7777648766
 20
-454.4815980502
  0
LINE
  5
209
330
1F
100
AcDbEntity
  8
0
  6
Continuous
 62
     7
370
    15
100
AcDbLine
 10
132.0320118268
 20
157.5906909398
 30
0.0
 11
124.2538441022
 21
157.5906909398
 31
0.0
  0
LINE
  5
20A
330
1F
100
AcDbEntity
  8
0
  6
Continuous
 62
     7
370
    15
100
AcDbLine
 10
124.2538441022
 20
157.5906909398
 30
0.0
 11
124.2538441022
 21
110.2786696843
 31
0.0
  0
LINE
  5
20B
330
1F
100
AcDbEntity
  8
0
  6
Continuous
 62
     7
370
    15
100
AcDbLine
 10
110.1116884549
 20
157.5906909398
 30
0.0
 11
45.7649875481
 21
112.4178803853
 31
0.0
  0
LINE
  5
20C
330
1F
100
AcDbEntity
  8
0
  6
Continuous
 62
     7
370
    15
100
AcDbLine
 10
45.7649875481
 20
112.4178803853
 30
0.0
 11
45.7649875481
 21
100.345972865
 31
0.0
  0
LINE
  5
20D
330
1F
100
AcDbEntity
  8
0
  6
Continuous
 62
     7
370
    15
100
AcDbLine
 10
110.1116884549
 20
157.5906909398
 30
0.0
 11
124.2538441022
 21
157.5906909398
 31
0.0
  0
LINE
  5
20E
330
1F
100
AcDbEntity
  8
0
  6
Continuous
 62
     7
370
    15
100
AcDbLine
 10
124.2538441022
 20
-502.4093352863
 30
0.0
 11
124.2538441022
 21
-455.0973140308
 31
0.0
  0
LINE
  5
20F
330
1F
100
AcDbEntity
  8
0
  6
Continuous
 62
     7
370
    15
100
AcDbLine
 10
110.1116884549
 20
-502.4093352863
 30
0.0
 11
124.2538441022
 21
-502.4093352863
 31
0.0
  0
LINE
  5
210
330
1F
100
AcDbEntity
  8
0
  6
Continuous
 62
     7
370
    15
100
AcDbLine
 10
110.1116884549
 20
-502.4093352863
 30
0.0
 11
45.7649875481
 21
-457.2365247318
 31
0.0
  0
LINE
  5
211
330
1F
100
AcDbEntity
  8
0
  6
Continuous
 62
     7
370
    15
100
AcDbLine
 10
45.7649875481
 20
-457.2365247318
 30
0.0
 11
45.7649875481
 21
-445.1646172115
 31
0.0
  0
LINE
  5
212
330
1F
100
AcDbEntity
  8
0
  6
Continuous
 62
     7
370
    15
100
AcDbLine
 10
132.0320118268
 20
-502.4093352863
 30
0.0
 11
124.2538441022
 21
-502.4093352863
 31
0.0
  0
ARC
  5
213
330
1F
100
AcDbEntity
  8
0
  6
Continuous
 62
     7
370
    15
100
AcDbCircle
 10
193.8381822589
 20
113.9727756205
 30
0.0
 40
4.409684002723178
100
AcDbArc
 50
221.2386139035
 51
257.7832067038
  0
LWPOLYLINE
  5
214
330
1F
100
AcDbEntity
  8
0
  6
Continuous
 62
     7
370
    15
100
AcDbPolyline
 90
       51
 70
   128
 43
0.0
 10
327.2680390675
 20
-1.0519140073
 10
325.32457002
 20
2.5312937192
 10
323.3411062558
 20
6.0704089097
 10
321.3181246121
 20
9.5645672969
 10
319.2562211354
 20
13.0128748111
 10
317.1558726628
 20
16.4144522837
 10
315.0176156361
 20
19.7684652499
 10
312.8419864972
 20
23.0740494422
 10
310.6295216878
 20
26.3303852967
 10
308.3807576497
 20
29.5366532496
 10
306.096350034
 20
32.6920337371
 10
303.7767756779
 20
35.7957220963
 10
301.4226306279
 20
38.8469732693
 10
299.034570535
 20
41.8449825934
 10
296.6131914456
 20
44.7890050105
 10
294.1590298016
 20
47.6783103636
 10
291.6727412541
 20
50.512168496
 10
289.1549814542
 20
53.2898492507
 10
286.6064060529
 20
56.0106671742
 10
284.027551492
 20
58.6739219121
 10
281.4191330273
 20
61.2789578131
 10
278.7818659146
 20
63.8251192263
 10
276.1162865956
 20
66.3117654017
 10
273.4231699307
 20
68.7382406882
 10
270.7031119664
 20
71.1039788417
 10
267.956887563
 20
73.4083540133
 10
265.1851523717
 20
75.6507850579
 10
262.3885620435
 20
77.8307355336
 10
259.5678914387
 20
79.9475944928
 10
256.7237962086
 20
82.0009149007
 10
253.8570512135
 20
83.9901007107
 10
250.9683121045
 20
85.9147048882
 10
248.0582941373
 20
87.7742207936
 10
245.1278317769
 20
89.5681715897
 10
242.1775806744
 20
91.2961102418
 10
239.2083156903
 20
92.9576195172
 10
236.2207520802
 20
94.5522523812
 10
233.2156647046
 20
96.0796214036
 10
230.1938284238
 20
97.5393689564
 10
227.1560180981
 20
98.9310778073
 10
224.1029489835
 20
100.2544201306
 10
221.0353959401
 20
101.5090681008
 10
217.9541636308
 20
102.6946938924
 10
214.8600269158
 20
103.810999482
 10
211.7537308533
 20
104.8577166489
 10
208.636080106
 20
105.8345771722
 10
205.5078495343
 20
106.7413128308
 10
202.3698438008
 20
107.5777448109
 10
199.222837766
 20
108.3436048917
 10
196.0676658948
 20
109.0387440613
 10
192.905043443
 20
109.6629537038
  0
LWPOLYLINE
  5
215
330
1F
100
AcDbEntity
  8
0
  6
Continuous
 62
     7
370
    15
100
AcDbPolyline
 90
       20
 70
   128
 43
0.0
 10
335.3821981747
 20
-0.6225370475
 10
335.0902546246
 20
-1.1981689044
 10
334.7586739857
 20
-1.7291270801
 10
334.3907941182
 20
-2.2099726506
 10
333.9904893239
 20
-2.6357733318
 10
333.5618127187
 20
-3.0021779844
 10
333.1091154416
 20
-3.3054315158
 10
332.637046655
 20
-3.5424344846
 10
332.1504939397
 20
-3.7107431003
 10
331.6543448766
 20
-3.8086437293
 10
331.1537850697
 20
-3.8351230928
 10
330.6539405186
 20
-3.7899278709
 10
330.1598180135
 20
-3.6735199996
 10
329.6765435536
 20
-3.4870766708
 10
329.2091239293
 20
-3.2325201341
 10
328.7622679074
 20
-2.9124431917
 10
328.3405650456
 20
-2.5301390001
 10
327.9483068784
 20
-2.0895116636
 10
327.5896061261
 20
-1.5950911351
 10
327.2680390675
 20
-1.0519140073
  0
ARC
  5
216
330
1F
100
AcDbEntity
  8
0
  6
Continuous
 62
     7
370
    15
100
AcDbCircle
 10
343.8058043354
 20
-4.3478393236
 30
0.0
 40
9.210592695226289
100
AcDbArc
 50
156.1428031439
 51
180.382479592
  0
LINE
  5
217
330
1F
100
AcDbEntity
  8
0
  6
Continuous
 62
     7
370
    15
100
AcDbLine
 10
334.5954168637
 20
-39.1558372089
 30
0.0
 11
334.5954168637
 21
-4.4093244382
 31
0.0
  0
LINE
  5
218
330
1F
100
AcDbEntity
  8
0
  6
Continuous
 62
     7
370
    15
100
AcDbLine
 10
334.5954168637
 20
-340.4093199083
 30
0.0
 11
334.5954168637
 21
-305.6628071376
 31
0.0
  0
ARC
  5
219
330
1F
100
AcDbEntity
  8
0
  6
Continuous
 62
     7
370
    15
100
AcDbCircle
 10
343.8058043354
 20
-340.4708050229
 30
0.0
 40
9.210592695226287
100
AcDbArc
 50
179.617520408
 51
203.8571968561
  0
LWPOLYLINE
  5
21A
330
1F
100
AcDbEntity
  8
0
  6
Continuous
 62
     7
370
    15
100
AcDbPolyline
 90
       20
 70
   128
 43
0.0
 10
327.2680390675
 20
-343.7667303392
 10
327.5896061261
 20
-343.2235532113
 10
327.9483068784
 20
-342.7291326829
 10
328.3405650456
 20
-342.2885053464
 10
328.7622679074
 20
-341.9062011548
 10
329.2091239293
 20
-341.5861242124
 10
329.6765435536
 20
-341.3315676757
 10
330.1598180135
 20
-341.1451243469
 10
330.6539405186
 20
-341.0287164756
 10
331.1537850697
 20
-340.9835212537
 10
331.6543448766
 20
-341.0100006171
 10
332.1504939397
 20
-341.1079012462
 10
332.637046655
 20
-341.2762098619
 10
333.1091154416
 20
-341.5132128307
 10
333.5618127187
 20
-341.8164663621
 10
333.9904893239
 20
-342.1828710147
 10
334.3907941182
 20
-342.6086716958
 10
334.7586739857
 20
-343.0895172664
 10
335.0902546246
 20
-343.6204754421
 10
335.3821981747
 20
-344.196107299
  0
LWPOLYLINE
  5
21B
330
1F
100
AcDbEntity
  8
0
  6
Continuous
 62
     7
370
    15
100
AcDbPolyline
 90
       51
 70
   128
 43
0.0
 10
192.905043443
 20
-454.4815980502
 10
196.0676658948
 20
-453.8573884078
 10
199.222837766
 20
-453.1622492381
 10
202.3698438008
 20
-452.3963891574
 10
205.5078495343
 20
-451.5599571773
 10
208.636080106
 20
-450.6532215186
 10
211.7537308533
 20
-449.6763609954
 10
214.8600269158
 20
-448.6296438285
 10
217.9541636308
 20
-447.5133382388
 10
221.0353959401
 20
-446.3277124473
 10
224.1029489835
 20
-445.0730644771
 10
227.1560180981
 20
-443.7497221538
 10
230.1938284238
 20
-442.3580133029
 10
233.2156647046
 20
-440.8982657501
 10
236.2207520802
 20
-439.3708967277
 10
239.2083156903
 20
-437.7762638637
 10
242.1775806744
 20
-436.1147545882
 10
245.1278317769
 20
-434.3868159362
 10
248.0582941373
 20
-432.5928651401
 10
250.9683121045
 20
-430.7333492347
 10
253.8570512135
 20
-428.8087450572
 10
256.7237962086
 20
-426.8195592471
 10
259.5678914387
 20
-424.7662388393
 10
262.3885620435
 20
-422.6493798801
 10
265.1851523717
 20
-420.4694294044
 10
267.956887563
 20
-418.2269983598
 10
270.7031119664
 20
-415.9226231881
 10
273.4231699307
 20
-413.5568850347
 10
276.1162865956
 20
-411.1304097482
 10
278.7818659146
 20
-408.6437635728
 10
281.4191330273
 20
-406.0976021596
 10
284.027551492
 20
-403.4925662586
 10
286.6064060529
 20
-400.8293115207
 10
289.1549814542
 20
-398.1084935972
 10
291.6727412541
 20
-395.3308128425
 10
294.1590298016
 20
-392.4969547101
 10
296.6131914456
 20
-389.607649357
 10
299.034570535
 20
-386.6636269399
 10
301.4226306279
 20
-383.6656176158
 10
303.7767756779
 20
-380.6143664428
 10
306.096350034
 20
-377.5106780835
 10
308.3807576497
 20
-374.3552975961
 10
310.6295216878
 20
-371.1490296432
 10
312.8419864972
 20
-367.8926937887
 10
315.0176156361
 20
-364.5871095964
 10
317.1558726628
 20
-361.2330966302
 10
319.2562211354
 20
-357.8315191575
 10
321.3181246121
 20
-354.3832116433
 10
323.3411062558
 20
-350.8890532562
 10
325.32457002
 20
-347.3499380657
 10
327.2680390675
 20
-343.7667303392
  0
ARC
  5
21C
330
1F
100
AcDbEntity
  8
0
  6
Continuous
 62
     7
370
    15
100
AcDbCircle
 10
193.8381822589
 20
-458.791419967
 30
0.0
 40
4.409684002723196
100
AcDbArc
 50
102.2167932962
 51
138.7613860965
  0
LINE
  5
21D
330
1F
100
AcDbEntity
  8
0
  6
Continuous
 62
     7
370
    15
100
AcDbLine
 10
-464.4330691497
 20
-462.3669349262
 30
0.0
 11
-442.9330628316
 21
-462.3669349262
 31
0.0
  0
LINE
  5
21E
330
1F
100
AcDbEntity
  8
0
  6
Continuous
 62
     7
370
    15
100
AcDbLine
 10
-464.4330691497
 20
117.5482905797
 30
0.0
 11
-464.4330691497
 21
-462.3669349262
 31
0.0
  0
LINE
  5
21F
330
1F
100
AcDbEntity
  8
0
  6
Continuous
 62
     7
370
    15
100
AcDbLine
 10
-464.4330691497
 20
117.5482905797
 30
0.0
 11
-442.9330628316
 21
117.5482905797
 31
0.0
  0
LINE
  5
220
330
1F
100
AcDbEntity
  8
0
  6
Continuous
 62
     7
370
    15
100
AcDbLine
 10
-442.9330628316
 20
117.5482905797
 30
0.0
 11
-442.9330628316
 21
-462.3669349262
 31
0.0
  0
LINE
  5
221
330
1F
100
AcDbEntity
  8
0
  6
Continuous
 62
     7
370
    15
100
AcDbLine
 10
408.0669034322
 20
-462.3669349262
 30
0.0
 11
429.5669544537
 21
-462.3669349262
 31
0.0
  0
LINE
  5
222
330
1F
100
AcDbEntity
  8
0
  6
Continuous
 62
     7
370
    15
100
AcDbLine
 10
408.0669034322
 20
117.5482905797
 30
0.0
 11
429.5669544537
 21
117.5482905797
 31
0.0
  0
LINE
  5
223
330
1F
100
AcDbEntity
  8
0
  6
Continuous
 62
     7
370
    15
100
AcDbLine
 10
429.5669544537
 20
117.5482905797
 30
0.0
 11
429.5669544537
 21
-462.3669349262
 31
0.0
  0
LINE
  5
224
330
1F
100
AcDbEntity
  8
0
  6
Continuous
 62
     7
370
    15
100
AcDbLine
 10
408.0669034322
 20
117.5482905797
 30
0.0
 11
408.0669034322
 21
-462.3669349262
 31
0.0
  0
LINE
  5
225
330
1F
100
AcDbEntity
  8
0
  6
Continuous
 62
     7
370
    15
100
AcDbLine
 10
325.2917874654
 20
2.5906748465
 30
0.0
 11
350.3712762196
 21
2.5906748465
 31
0.0
  0
ELLIPSE
  5
226
330
1F
100
AcDbEntity
  8
0
  6
Continuous
 62
     7
370
    15
100
AcDbEllipse
 10
349.9382589323
 20
-4.4093221732
 30
0.0
 11
0.8564379142868006
 21
6.974149874413083
 31
0.0
210
0.0
220
0.0
230
1.0
 40
0.7017754025
 41
0.0859668565494876
 42
1.656763183344382
  0
LINE
  5
227
330
1F
100
AcDbEntity
  8
0
  6
Continuous
 62
     7
370
    15
100
AcDbLine
 10
344.9884999593
 20
-4.4093244382
 30
0.0
 11
334.5954168637
 21
-4.4093244382
 31
0.0
  0
ELLIPSE
  5
228
330
1F
100
AcDbEntity
  8
0
  6
Continuous
 62
     7
370
    15
100
AcDbEllipse
 10
383.8793844293
 20
-4.4093221732
 30
0.0
 11
0.8564379142868006
 21
6.974149874413083
 31
0.0
210
0.0
220
0.0
230
1.0
 40
0.7017754025
 41
4.798355836934185
 42
6.369152163729073
  0
LINE
  5
229
330
1F
100
AcDbEntity
  8
0
  6
Continuous
 62
     7
370
    15
100
AcDbLine
 10
378.4360040028
 20
-172.4093221732
 30
0.0
 11
388.829146703
 21
-4.4093244382
 31
0.0
  0
LINE
  5
22A
330
1F
100
AcDbEntity
  8
0
  6
Continuous
 62
     7
370
    15
100
AcDbLine
 10
378.4360040028
 20
-172.4093221732
 30
0.0
 11
369.9193347295
 21
-172.4093221732
 31
0.0
  0
LINE
  5
22B
330
1F
100
AcDbEntity
  8
0
  6
Continuous
 62
     7
370
    15
100
AcDbLine
 10
341.9804323514
 20
-53.0336909601
 30
0.0
 11
344.9884999593
 21
-4.4093244382
 31
0.0
  0
LINE
  5
22C
330
1F
100
AcDbEntity
  8
0
  6
Continuous
 62
     7
370
    15
100
AcDbLine
 10
350.3712762196
 20
2.5906748465
 30
0.0
 11
384.3124259312
 21
2.5906748465
 31
0.0
  0
LINE
  5
22D
330
1F
100
AcDbEntity
  8
0
  6
Continuous
 62
     7
370
    15
100
AcDbLine
 10
378.4360040028
 20
-172.4093221732
 30
0.0
 11
388.829146703
 21
-340.4093199083
 31
0.0
  0
ELLIPSE
  5
22E
330
1F
100
AcDbEntity
  8
0
  6
Continuous
 62
     7
370
    15
100
AcDbEllipse
 10
383.8793844293
 20
-340.4093221732
 30
0.0
 11
-0.8564379142867438
 21
6.974149874413116
 31
0.0
210
0.0
220
0.0
230
1.0
 40
0.7017754025
 41
3.055625797040317
 42
4.626422123835222
  0
LINE
  5
22F
330
1F
100
AcDbEntity
  8
0
  6
Continuous
 62
     7
370
    15
100
AcDbLine
 10
350.3712762196
 20
-347.409319193
 30
0.0
 11
384.3124259312
 21
-347.409319193
 31
0.0
  0
ELLIPSE
  5
230
330
1F
100
AcDbEntity
  8
0
  6
Continuous
 62
     7
370
    15
100
AcDbEllipse
 10
349.9382589323
 20
-340.4093221732
 30
0.0
 11
-0.8564379142867437
 21
6.974149874413057
 31
0.0
210
0.0
220
0.0
230
1.0
 40
0.7017754025
 41
1.484829470245417
 42
3.055625797040316
  0
LINE
  5
231
330
1F
100
AcDbEntity
  8
0
  6
Continuous
 62
     7
370
    15
100
AcDbLine
 10
341.9804323514
 20
-291.7849533864
 30
0.0
 11
344.9884999593
 21
-340.4093199083
 31
0.0
  0
LINE
  5
232
330
1F
100
AcDbEntity
  8
0
  6
Continuous
 62
     7
370
    15
100
AcDbLine
 10
350.3712762196
 20
-347.409319193
 30
0.0
 11
325.2917874654
 21
-347.409319193
 31
0.0
  0
LINE
  5
233
330
1F
100
AcDbEntity
  8
0
  6
Continuous
 62
     7
370
    15
100
AcDbLine
 10
334.5954168637
 20
-340.4093199083
 30
0.0
 11
344.9884999593
 21
-340.4093199083
 31
0.0
  0
ARC
  5
234
330
1F
100
AcDbEntity
  8
0
  6
Continuous
 62
     7
370
    15
100
AcDbCircle
 10
-373.2493434757
 20
-337.9036782099
 30
0.0
 40
24.84449734114324
100
AcDbArc
 50
202.8199247021
 51
245.9817757049
  0
SPLINE
  5
235
330
1F
100
AcDbEntity
  8
0
  6
Continuous
 62
     7
370
    15
100
AcDbSpline
210
0.0
220
0.0
230
1.0
 70
     8
 71
     3
 72
    16
 73
    12
 74
     0
 42
0.00000001
 43
0.00000001
 12
1.0
 22
0.0
 32
0.0
 13
1.0
 23
0.0
 33
0.0
 40
0.0
 40
0.0
 40
0.0
 40
0.0
 40
0.1249999999999999
 40
0.1249999999999999
 40
0.2499999999999999
 40
0.2499999999999999
 40
0.4999999999999998
 40
0.4999999999999998
 40
0.7499999999999997
 40
0.7499999999999997
 40
1.0
 40
1.0
 40
1.0
 40
1.0
 10
-396.1492205330949
 20
-347.5392728495883
 30
0.0
 10
-396.2343597226002
 20
-345.0169067519499
 30
0.0
 10
-396.320041412265
 20
-342.4304113152455
 30
0.0
 10
-396.4884467339045
 20
-337.1306764061102
 30
0.0
 10
-396.5708381370106
 20
-334.4276038454921
 30
0.0
 10
-396.8073395531945
 20
-326.1602375394422
 30
0.0
 10
-396.9504826507111
 20
-320.4381425139646
 30
0.0
 10
-397.1863282241396
 20
-308.5723495775276
 30
0.0
 10
-397.2789752501757
 20
-302.428690560069
 30
0.0
 10
-397.4023821975799
 20
-289.7076375596823
 30
0.0
 10
-397.4330674807756
 20
-283.1303469875636
 30
0.0
 10
-397.4330674807756
 20
-276.3233184279608
 30
0.0
  0
LINE
  5
236
330
1F
100
AcDbEntity
  8
0
  6
Continuous
 62
     7
370
    15
100
AcDbLine
 10
-397.4330674808
 20
-276.3233148166
 30
0.0
 11
-397.4330674808
 21
-68.4953295299
 31
0.0
  0
SPLINE
  5
237
330
1F
100
AcDbEntity
  8
0
  6
Continuous
 62
     7
370
    15
100
AcDbSpline
210
0.0
220
0.0
230
1.0
 70
     8
 71
     3
 72
    16
 73
    12
 74
     0
 42
0.00000001
 43
0.00000001
 12
1.0
 22
0.0
 32
0.0
 13
1.0
 23
0.0
 33
0.0
 40
0.0
 40
0.0
 40
0.0
 40
0.0
 40
0.1249999999999999
 40
0.1249999999999999
 40
0.2499999999999999
 40
0.2499999999999999
 40
0.4999999999999998
 40
0.4999999999999998
 40
0.7499999999999997
 40
0.7499999999999997
 40
1.0
 40
1.0
 40
1.0
 40
1.0
 10
-396.1492205330949
 20
2.720628503107336
 30
0.0
 10
-396.2343597226002
 20
0.1982624054689686
 30
0.0
 10
-396.320041412265
 20
-2.388233031235476
 30
0.0
 10
-396.4884467339045
 20
-7.687967940370827
 30
0.0
 10
-396.5708381370106
 20
-10.39104050098885
 30
0.0
 10
-396.8073395531945
 20
-18.65840680703876
 30
0.0
 10
-396.9504826507111
 20
-24.38050183251636
 30
0.0
 10
-397.1863282241396
 20
-36.24629476895338
 30
0.0
 10
-397.2789752501757
 20
-42.389953786412
 30
0.0
 10
-397.4023821975799
 20
-55.11100678679866
 30
0.0
 10
-397.4330674807756
 20
-61.68829735891738
 30
0.0
 10
-397.4330674807756
 20
-68.49532591852024
 30
0.0
  0
ARC
  5
238
330
1F
100
AcDbEntity
  8
0
  6
Continuous
 62
     7
370
    15
100
AcDbCircle
 10
-373.2493434757
 20
-6.9149661366
 30
0.0
 40
24.84449734114324
100
AcDbArc
 50
114.0182242951
 51
157.1800752979
  0
LINE
  5
239
330
1F
100
AcDbEntity
  8
0
  6
Continuous
 62
     7
370
    15
100
AcDbLine
 10
-467.4330603282
 20
68.5906744889
 30
0.0
 11
-467.4330603282
 21
-413.4093188354
 31
0.0
  0
LINE
  5
23A
330
1F
100
AcDbEntity
  8
0
  6
Continuous
 62
     7
370
    15
100
AcDbLine
 10
432.5669158299
 20
68.5906744889
 30
0.0
 11
432.5669158299
 21
-413.4093188354
 31
0.0
  0
LWPOLYLINE
  5
23B
330
1F
100
AcDbEntity
  8
0
  6
Continuous
 62
     7
370
    15
100
AcDbPolyline
 90
       21
 70
   128
 43
0.0
 10
-397.4330674808
 20
-276.3233148166
 10
-397.4700521629
 20
-275.9190388628
 10
-397.580812494
 20
-275.517251403
 10
-397.7646332185
 20
-275.1204334804
 10
-398.0203818481
 20
-274.7310288855
 10
-398.346508662
 20
-274.3514441558
 10
-398.7409871022
 20
-273.9840113231
 10
-399.2013882796
 20
-273.631010265
 10
-399.7248660724
 20
-273.2946016499
 10
-400.3082018296
 20
-272.9768716403
 10
-400.9477894704
 20
-272.6797648379
 10
-401.6396950881
 20
-272.4051289865
 10
-402.3796420495
 20
-272.1546479174
 10
-403.1630855005
 20
-271.9298713514
 10
-403.9851825635
 20
-271.7321776458
 10
-404.8408668439
 20
-271.5627886959
 10
-405.7248633306
 20
-271.4227550336
 10
-406.6317181985
 20
-271.312926025
 10
-407.5558584134
 20
-271.2339945742
 10
-408.4915619294
 20
-271.1864449688
 10
-409.4330619971
 20
-271.170560331
  0
LINE
  5
23C
330
1F
100
AcDbEntity
  8
0
  6
Continuous
 62
     7
370
    15
100
AcDbLine
 10
-409.4330619971
 20
-271.170560331
 30
0.0
 11
-409.4330619971
 21
-73.6480840155
 31
0.0
  0
LWPOLYLINE
  5
23D
330
1F
100
AcDbEntity
  8
0
  6
Continuous
 62
     7
370
    15
100
AcDbPolyline
 90
       21
 70
   128
 43
0.0
 10
-397.4330674808
 20
-68.4953295299
 10
-397.4700521629
 20
-68.8996054837
 10
-397.580812494
 20
-69.3013929435
 10
-397.7646332185
 20
-69.6982108661
 10
-398.0203818481
 20
-70.087615461
 10
-398.346508662
 20
-70.4672001907
 10
-398.7409871022
 20
-70.8346330234
 10
-399.2013882796
 20
-71.1876340815
 10
-399.7248660724
 20
-71.5240426966
 10
-400.3082018296
 20
-71.8417727062
 10
-400.9477894704
 20
-72.1388795086
 10
-401.6396950881
 20
-72.41351536
 10
-402.3796420495
 20
-72.6639964291
 10
-403.1630855005
 20
-72.8887729951
 10
-403.9851825635
 20
-73.0864667007
 10
-404.8408668439
 20
-73.2558556505
 10
-405.7248633306
 20
-73.3958893129
 10
-406.6317181985
 20
-73.5057183214
 10
-407.5558584134
 20
-73.5846497723
 10
-408.4915619294
 20
-73.6321993777
 10
-409.4330619971
 20
-73.6480840155
  0
SPLINE
  5
23E
330
1F
100
AcDbEntity
  8
0
  6
Continuous
 62
     7
370
    15
100
AcDbSpline
210
0.0
220
0.0
230
1.0
 70
     8
 71
     3
 72
    22
 73
    18
 74
     0
 42
0.00000001
 43
0.00000001
 12
1.0
 22
0.0
 32
0.0
 13
1.0
 23
0.0
 33
0.0
 40
0.0
 40
0.0
 40
0.0
 40
0.0
 40
0.2500000000000003
 40
0.2500000000000003
 40
0.5000000000000006
 40
0.5000000000000006
 40
0.5625000000000008
 40
0.5625000000000008
 40
0.5937500000000009
 40
0.5937500000000009
 40
0.625000000000001
 40
0.625000000000001
 40
0.750000000000001
 40
0.750000000000001
 40
0.8750000000000006
 40
0.8750000000000006
 40
1.0
 40
1.0
 40
1.0
 40
1.0
 10
-407.6179735202616
 20
-3.279943241709382
 30
0.0
 10
-407.2510069423199
 20
4.367802875690358
 30
0.0
 10
-406.9579362659937
 20
11.31405121700432
 30
0.0
 10
-406.5470058433195
 20
23.86043260996829
 30
0.0
 10
-406.428945758016
 20
29.46042793951439
 30
0.0
 10
-406.4070638258302
 20
35.59950065347758
 30
0.0
 10
-406.4089809022542
 20
36.78405288634473
 30
0.0
 10
-406.4216647893535
 20
38.49494830968461
 30
0.0
 10
-406.4275344061897
 20
39.05448997667987
 30
0.0
 10
-406.4425473544306
 20
40.14753152649547
 30
0.0
 10
-406.4516924973516
 20
40.68152048774609
 30
0.0
 10
-406.5056610245736
 20
43.28917595775378
 30
0.0
 10
-406.5751258331335
 20
45.17622831431375
 30
0.0
 10
-406.7691119852479
 20
48.55751841050996
 30
0.0
 10
-406.8935680423112
 20
50.05175018368382
 30
0.0
 10
-407.2031273856944
 20
52.64637261906857
 30
0.0
 10
-407.3881164811429
 20
53.74677381148307
 30
0.0
 10
-407.6091039392138
 20
54.64655162182625
 30
0.0
  0
SPLINE
  5
23F
330
1F
100
AcDbEntity
  8
0
  6
Continuous
 62
     7
370
    15
100
AcDbSpline
210
0.0
220
0.0
230
1.0
 70
     8
 71
     3
 72
    16
 73
    12
 74
     0
 42
0.00000001
 43
0.00000001
 12
1.0
 22
0.0
 32
0.0
 13
1.0
 23
0.0
 33
0.0
 40
0.0
 40
0.0
 40
0.0
 40
0.0
 40
0.2500000000000002
 40
0.2500000000000002
 40
0.5000000000000003
 40
0.5000000000000003
 40
0.7500000000000004
 40
0.7500000000000004
 40
0.8750000000000002
 40
0.8750000000000002
 40
1.0
 40
1.0
 40
1.0
 40
1.0
 10
-409.4330674807756
 20
-73.64808606338241
 30
0.0
 10
-409.4330674807755
 20
-66.97200884139109
 30
0.0
 10
-409.3891541917376
 20
-60.50365329455045
 30
0.0
 10
-409.2136979179848
 20
-47.96803859723278
 30
0.0
 10
-409.082286584356
 20
-41.90081374216398
 30
0.0
 10
-408.7486839069314
 20
-30.1642649603783
 30
0.0
 10
-408.546568440027
 20
-24.4949259933224
 30
0.0
 10
-408.2128374363274
 20
-16.29497286369516
 30
0.0
 10
-408.0965976211087
 20
-13.61241621489001
 30
0.0
 10
-407.8589610136976
 20
-8.350863733745884
 30
0.0
 10
-407.738089005364
 20
-5.783203184301061
 30
0.0
 10
-407.6179735202616
 20
-3.279943241709382
 30
0.0
  0
SPLINE
  5
240
330
1F
100
AcDbEntity
  8
0
  6
Continuous
 62
     7
370
    15
100
AcDbSpline
210
0.0
220
0.0
230
1.0
 70
     8
 71
     3
 72
    16
 73
    12
 74
     0
 42
0.00000001
 43
0.00000001
 12
1.0
 22
0.0
 32
0.0
 13
1.0
 23
0.0
 33
0.0
 40
0.0
 40
0.0
 40
0.0
 40
0.0
 40
0.2500000000000002
 40
0.2500000000000002
 40
0.5000000000000003
 40
0.5000000000000003
 40
0.7500000000000004
 40
0.7500000000000004
 40
0.8750000000000002
 40
0.8750000000000002
 40
1.0
 40
1.0
 40
1.0
 40
1.0
 10
-409.4330674807756
 20
-271.1705582830986
 30
0.0
 10
-409.4330674807755
 20
-277.8466355050899
 30
0.0
 10
-409.3891541917376
 20
-284.3149910519305
 30
0.0
 10
-409.2136979179848
 20
-296.8506057492482
 30
0.0
 10
-409.082286584356
 20
-302.917830604317
 30
0.0
 10
-408.7486839069314
 20
-314.6543793861026
 30
0.0
 10
-408.546568440027
 20
-320.3237183531585
 30
0.0
 10
-408.2128374363274
 20
-328.5236714827858
 30
0.0
 10
-408.0965976211087
 20
-331.2062281315909
 30
0.0
 10
-407.8589610136976
 20
-336.4677806127351
 30
0.0
 10
-407.738089005364
 20
-339.0354411621799
 30
0.0
 10
-407.6179735202616
 20
-341.5387011047716
 30
0.0
  0
SPLINE
  5
241
330
1F
100
AcDbEntity
  8
0
  6
Continuous
 62
     7
370
    15
100
AcDbSpline
210
0.0
220
0.0
230
1.0
 70
     8
 71
     3
 72
    22
 73
    18
 74
     0
 42
0.00000001
 43
0.00000001
 12
1.0
 22
0.0
 32
0.0
 13
1.0
 23
0.0
 33
0.0
 40
0.0
 40
0.0
 40
0.0
 40
0.0
 40
0.2500000000000003
 40
0.2500000000000003
 40
0.5000000000000006
 40
0.5000000000000006
 40
0.5625000000000008
 40
0.5625000000000008
 40
0.5937500000000009
 40
0.5937500000000009
 40
0.625000000000001
 40
0.625000000000001
 40
0.750000000000001
 40
0.750000000000001
 40
0.8750000000000006
 40
0.8750000000000006
 40
1.0
 40
1.0
 40
1.0
 40
1.0
 10
-407.6179735202616
 20
-341.5387011047716
 30
0.0
 10
-407.2510069423199
 20
-349.1864472221713
 30
0.0
 10
-406.9579362659937
 20
-356.1326955634852
 30
0.0
 10
-406.5470058433195
 20
-368.6790769564493
 30
0.0
 10
-406.428945758016
 20
-374.2790722859953
 30
0.0
 10
-406.4070638258302
 20
-380.4181449999585
 30
0.0
 10
-406.4089809022542
 20
-381.6026972328257
 30
0.0
 10
-406.4216647893535
 20
-383.3135926561656
 30
0.0
 10
-406.4275344061897
 20
-383.8731343231609
 30
0.0
 10
-406.4425473544306
 20
-384.9661758729764
 30
0.0
 10
-406.4516924973516
 20
-385.5001648342271
 30
0.0
 10
-406.5056610245736
 20
-388.1078203042347
 30
0.0
 10
-406.5751258331335
 20
-389.9948726607947
 30
0.0
 10
-406.7691119852479
 20
-393.3761627569909
 30
0.0
 10
-406.8935680423112
 20
-394.8703945301648
 30
0.0
 10
-407.2031273856944
 20
-397.4650169655495
 30
0.0
 10
-407.3881164811429
 20
-398.565418157964
 30
0.0
 10
-407.6091039392138
 20
-399.4651959683072
 30
0.0
  0
LWPOLYLINE
  5
242
330
1F
100
AcDbEntity
  8
0
  6
Continuous
 62
     7
370
    15
100
AcDbPolyline
 90
       17
 70
   128
 43
0.0
 10
-396.1492206852
 20
2.7206278733
 10
-396.4647751252
 20
2.0644552401
 10
-396.8509685199
 20
1.4303214244
 10
-397.3053570788
 20
0.8222497395
 10
-397.8250574271
 20
0.2440846852
 10
-398.4067987601
 20
-0.3005229541
 10
-399.0468632381
 20
-0.8081012079
 10
-399.7412275474
 20
-1.2754463264
 10
-400.4854660432
 20
-1.6996078798
 10
-401.2748848598
 20
-2.0778738567
 10
-402.1044772069
 20
-2.4078749725
 10
-402.9689978759
 20
-2.6875101634
 10
-403.8629632394
 20
-2.9150061914
 10
-404.780695955
 20
-3.0889325448
 10
-405.7164143722
 20
-3.2081716367
 10
-406.6641729276
 20
-3.2719784089
 10
-407.6179664533
 20
-3.2799505302
  0
LWPOLYLINE
  5
243
330
1F
100
AcDbEntity
  8
0
  6
Continuous
 62
     7
370
    15
100
AcDbPolyline
 90
       17
 70
   128
 43
0.0
 10
-396.1492206852
 20
-347.5392722198
 10
-396.4647751252
 20
-346.8830995866
 10
-396.8509685199
 20
-346.2489657708
 10
-397.3053570788
 20
-345.640894086
 10
-397.8250574271
 20
-345.0627290317
 10
-398.4067987601
 20
-344.5181213924
 10
-399.0468632381
 20
-344.0105431386
 10
-399.7412275474
 20
-343.5431980201
 10
-400.4854660432
 20
-343.1190364667
 10
-401.2748848598
 20
-342.7407704898
 10
-402.1044772069
 20
-342.410769374
 10
-402.9689978759
 20
-342.1311341831
 10
-403.8629632394
 20
-341.9036381551
 10
-404.780695955
 20
-341.7297118017
 10
-405.7164143722
 20
-341.6104727098
 10
-406.6641729276
 20
-341.5466659375
 10
-407.6179664533
 20
-341.5386938163
  0
SPLINE
  5
244
330
1F
100
AcDbEntity
  8
0
  6
Continuous
 62
     7
370
    15
100
AcDbSpline
210
0.0
220
0.0
230
1.0
 70
     8
 71
     3
 72
    22
 73
    18
 74
     0
 42
0.00000001
 43
0.00000001
 12
1.0
 22
0.0
 32
0.0
 13
1.0
 23
0.0
 33
0.0
 40
0.0
 40
0.0
 40
0.0
 40
0.0
 40
0.1249999999999994
 40
0.1249999999999994
 40
0.2499999999999987
 40
0.2499999999999987
 40
0.3749999999999981
 40
0.3749999999999981
 40
0.4062499999999981
 40
0.4062499999999981
 40
0.437499999999998
 40
0.437499999999998
 40
0.4999999999999981
 40
0.4999999999999981
 40
0.7499999999999989
 40
0.7499999999999989
 40
1.0
 40
1.0
 40
1.0
 40
1.0
 10
-396.142946926988
 20
63.09245387696991
 30
0.0
 10
-395.9878515319699
 20
61.95692366516828
 30
0.0
 10
-395.865354132149
 20
60.64242820623033
 30
0.0
 10
-395.6672537072658
 20
57.65834697637118
 30
0.0
 10
-395.5917461777342
 20
55.98878660407131
 30
0.0
 10
-395.4767077900995
 20
52.29403193807403
 30
0.0
 10
-395.4372209664027
 20
50.268871658176
 30
0.0
 10
-395.4066981723327
 20
47.51212702889643
 30
0.0
 10
-395.4015464546201
 20
46.94950135596698
 30
0.0
 10
-395.3930986820049
 20
45.8015690514037
 30
0.0
 10
-395.3898040309732
 20
45.21618869716892
 30
0.0
 10
-395.3826626950083
 20
43.4309566710912
 30
0.0
 10
-395.3815375841809
 20
42.20043299489853
 30
0.0
 10
-395.3934012725164
 20
35.84780470447663
 30
0.0
 10
-395.4574102419126
 20
30.12915636582586
 30
0.0
 10
-395.7052518564462
 20
17.41077184261161
 30
0.0
 10
-395.8904331869442
 20
10.41140390862336
 30
0.0
 10
-396.149220533095
 20
2.720628503107308
 30
0.0
  0
ARC
  5
245
330
1F
100
AcDbEntity
  8
0
  6
Continuous
 62
     7
370
    15
100
AcDbCircle
 10
-369.0933074609
 20
54.1203644514
 30
0.0
 40
28.4987981257099
100
AcDbArc
 50
104.4082500576
 51
161.6498344312
  0
SPLINE
  5
246
330
1F
100
AcDbEntity
  8
0
  6
Continuous
 62
     7
370
    15
100
AcDbSpline
210
0.0
220
0.0
230
1.0
 70
     8
 71
     3
 72
    22
 73
    18
 74
     0
 42
0.00000001
 43
0.00000001
 12
1.0
 22
0.0
 32
0.0
 13
1.0
 23
0.0
 33
0.0
 40
0.0
 40
0.0
 40
0.0
 40
0.0
 40
0.1249999999999994
 40
0.1249999999999994
 40
0.2499999999999987
 40
0.2499999999999987
 40
0.3749999999999981
 40
0.3749999999999981
 40
0.4062499999999981
 40
0.4062499999999981
 40
0.437499999999998
 40
0.437499999999998
 40
0.4999999999999981
 40
0.4999999999999981
 40
0.7499999999999989
 40
0.7499999999999989
 40
1.0
 40
1.0
 40
1.0
 40
1.0
 10
-396.142946926988
 20
-407.9110982234508
 30
0.0
 10
-395.9878515319699
 20
-406.7755680116493
 30
0.0
 10
-395.865354132149
 20
-405.4610725527113
 30
0.0
 10
-395.6672537072658
 20
-402.4769913228521
 30
0.0
 10
-395.5917461777342
 20
-400.8074309505523
 30
0.0
 10
-395.4767077900995
 20
-397.112676284555
 30
0.0
 10
-395.4372209664027
 20
-395.0875160046569
 30
0.0
 10
-395.4066981723327
 20
-392.3307713753774
 30
0.0
 10
-395.4015464546201
 20
-391.768145702448
 30
0.0
 10
-395.3930986820049
 20
-390.6202133978846
 30
0.0
 10
-395.3898040309732
 20
-390.0348330436499
 30
0.0
 10
-395.3826626950083
 20
-388.2496010175722
 30
0.0
 10
-395.3815375841809
 20
-387.0190773413795
 30
0.0
 10
-395.3934012725164
 20
-380.6664490509576
 30
0.0
 10
-395.4574102419126
 20
-374.9478007123068
 30
0.0
 10
-395.7052518564462
 20
-362.2294161890925
 30
0.0
 10
-395.8904331869442
 20
-355.2300482551043
 30
0.0
 10
-396.149220533095
 20
-347.5392728495883
 30
0.0
  0
ARC
  5
247
330
1F
100
AcDbEntity
  8
0
  6
Continuous
 62
     7
370
    15
100
AcDbCircle
 10
-369.0933074609
 20
-398.9390087979
 30
0.0
 40
28.49879812570993
100
AcDbArc
 50
198.3501655688
 51
255.5917499424
  0
ARC
  5
248
330
1F
100
AcDbEntity
  8
0
  6
Continuous
 62
     7
370
    15
100
AcDbCircle
 10
-407.6496813138
 20
66.707820579
 30
0.0
 40
12.06133357396782
100
AcDbArc
 50
270.1927753138
 51
342.5575268172
  0
ARC
  5
249
330
1F
100
AcDbEntity
  8
0
  6
Continuous
 62
     7
370
    15
100
AcDbCircle
 10
-407.6496813138
 20
-411.5264649255
 30
0.0
 40
12.06133357396781
100
AcDbArc
 50
17.4424731828
 51
89.8072246862
  0
SPLINE
  5
24A
330
1F
100
AcDbEntity
  8
0
  6
Continuous
 62
     7
370
    15
100
AcDbSpline
210
0.0
220
0.0
230
1.0
 70
     8
 71
     3
 72
    10
 73
     6
 74
     0
 42
0.00000001
 43
0.00000001
 12
1.0
 22
0.0
 32
0.0
 13
1.0
 23
0.0
 33
0.0
 40
0.0
 40
0.0
 40
0.0
 40
0.0
 40
0.5
 40
0.5
 40
1.0
 40
1.0
 40
1.0
 40
1.0
 10
-397.2109170661888
 20
68.09454541061585
 30
0.0
 10
-397.0801648305797
 20
67.80319176477315
 30
0.0
 10
-396.9061401855874
 20
67.2398919106383
 30
0.0
 10
-396.5324197293905
 20
65.57312778022845
 30
0.0
 10
-396.3325751485101
 20
64.46966589000088
 30
0.0
 10
-396.1429469269879
 20
63.09245387696993
 30
0.0
  0
ARC
  5
24B
330
1F
100
AcDbEntity
  8
0
  6
Continuous
 62
     7
370
    15
100
AcDbCircle
 10
-368.759489626
 20
64.3117735464
 30
0.0
 40
28.70179168733272
100
AcDbArc
 50
100.0880067877
 51
172.4266406831
  0
SPLINE
  5
24C
330
1F
100
AcDbEntity
  8
0
  6
Continuous
 62
     7
370
    15
100
AcDbSpline
210
0.0
220
0.0
230
1.0
 70
     8
 71
     3
 72
    10
 73
     6
 74
     0
 42
0.00000001
 43
0.00000001
 12
1.0
 22
0.0
 32
0.0
 13
1.0
 23
0.0
 33
0.0
 40
0.0
 40
0.0
 40
0.0
 40
0.0
 40
0.5
 40
0.5
 40
1.0
 40
1.0
 40
1.0
 40
1.0
 10
-397.2109170661888
 20
-412.9131897570968
 30
0.0
 10
-397.0801648305797
 20
-412.6218361112541
 30
0.0
 10
-396.9061401855874
 20
-412.0585362571193
 30
0.0
 10
-396.5324197293905
 20
-410.3917721267094
 30
0.0
 10
-396.3325751485101
 20
-409.2883102364818
 30
0.0
 10
-396.1429469269879
 20
-407.9110982234509
 30
0.0
  0
ARC
  5
24D
330
1F
100
AcDbEntity
  8
0
  6
Continuous
 62
     7
370
    15
100
AcDbCircle
 10
-368.759489626
 20
-409.1304178929
 30
0.0
 40
28.70179168733271
100
AcDbArc
 50
187.5733593169
 51
259.9119932123
  0
SPLINE
  5
24E
330
1F
100
AcDbEntity
  8
0
  6
Continuous
 62
     7
370
    15
100
AcDbSpline
210
0.0
220
0.0
230
1.0
 70
     8
 71
     3
 72
    15
 73
    11
 74
     0
 42
0.00000001
 43
0.00000001
 12
1.0
 22
0.0
 32
0.0
 13
1.0
 23
0.0
 33
0.0
 40
0.0
 40
0.0
 40
0.0
 40
0.0
 40
0.0959402234564725
 40
0.3087284149800666
 40
0.5172126195366683
 40
0.6215100552467939
 40
0.725955411890997
 40
0.815909456334962
 40
0.9064360311423901
 40
1.0
 40
1.0
 40
1.0
 40
1.0
 10
-272.3779795322084
 20
102.5331355026934
 30
0.0
 10
-272.3653438479462
 20
102.5342720003353
 30
0.0
 10
-272.3246831674315
 20
102.537929164171
 30
0.0
 10
-272.1052772286261
 20
102.4999019598024
 30
0.0
 10
-271.926778656025
 20
102.4349926088534
 30
0.0
 10
-271.8620467899798
 20
102.3604577906844
 30
0.0
 10
-271.8819115011329
 20
102.2970559445193
 30
0.0
 10
-271.9829125637851
 20
102.2291211153349
 30
0.0
 10
-272.1580623214462
 20
102.1598550495135
 30
0.0
 10
-272.3403962904917
 20
102.1139973751006
 30
0.0
 10
-272.4330674807757
 20
102.0906902245256
 30
0.0
  0
SPLINE
  5
24F
330
1F
100
AcDbEntity
  8
0
  6
Continuous
 62
     7
370
    15
100
AcDbSpline
210
0.0
220
0.0
230
1.0
 70
     8
 71
     3
 72
    15
 73
    11
 74
     0
 42
0.00000001
 43
0.00000001
 12
1.0
 22
0.0
 32
0.0
 13
1.0
 23
0.0
 33
0.0
 40
0.0
 40
0.0
 40
0.0
 40
0.0
 40
0.0963072602249243
 40
0.3090090624497044
 40
0.5174086250714484
 40
0.6216637173494757
 40
0.7260666705075629
 40
0.815984194753817
 40
0.90647401692349
 40
1.0
 40
1.0
 40
1.0
 40
1.0
 10
-272.3781768925587
 20
-447.3517798491744
 30
0.0
 10
-272.3654958313612
 20
-447.352922092957
 30
0.0
 10
-272.324807696091
 20
-447.3565870677419
 30
0.0
 10
-272.1052939028858
 20
-447.3185519980996
 30
0.0
 10
-271.926776603687
 20
-447.2536362547617
 30
0.0
 10
-271.8620471790599
 20
-447.1791022699792
 30
0.0
 10
-271.8819114128602
 20
-447.1157002608681
 30
0.0
 10
-271.982912585959
 20
-447.047765469385
 30
0.0
 10
-272.15806231567
 20
-446.9784993940227
 30
0.0
 10
-272.3403962885452
 20
-446.9326417209172
 30
0.0
 10
-272.4330674807757
 20
-446.9093345710066
 30
0.0
  0
LWPOLYLINE
  5
250
330
1F
100
AcDbEntity
  8
0
  6
Continuous
 62
     7
370
    15
100
AcDbPolyline
 90
       30
 70
   128
 43
0.0
 10
-372.21990786
 20
92.8670204571
 10
-373.6421715419
 20
92.7106178693
 10
-375.0515904228
 20
92.5049520425
 10
-376.4446999829
 20
92.2505594186
 10
-377.8180655043
 20
91.9480658463
 10
-379.168296973
 20
91.5982461861
 10
-380.4920788805
 20
91.2018752984
 10
-381.7861329715
 20
90.7600260667
 10
-383.047277848
 20
90.2737415723
 10
-384.2724066179
 20
89.7442139081
 10
-385.458501796
 20
89.1727841786
 10
-386.6026278536
 20
88.5608232907
 10
-387.7019759218
 20
87.9098511628
 10
-388.7538414399
 20
87.221447318
 10
-389.7556167047
 20
86.4973700932
 10
-390.7048430245
 20
85.7393480233
 10
-391.599180917
 20
84.9492884568
 10
-392.4364175598
 20
84.1291285447
 10
-393.2145040433
 20
83.2808650426
 10
-393.9315106671
 20
82.4066139153
 10
-394.5856716435
 20
81.5085209302
 10
-395.1753776471
 20
80.588791459
 10
-395.6991758148
 20
79.6496904782
 10
-396.1557771961
 20
78.6935723714
 10
-396.5440493028
 20
77.7227319173
 10
-396.863045911
 20
76.7396129063
 10
-397.1119698088
 20
75.7466144255
 10
-397.2902100484
 20
74.7461802653
 10
-397.3973344962
 20
73.7407989196
 10
-397.4330674808
 20
72.7329290799
  0
SPLINE
  5
251
330
1F
100
AcDbEntity
  8
0
  6
Continuous
 62
     7
370
    15
100
AcDbSpline
210
0.0
220
0.0
230
1.0
 70
     8
 71
     3
 72
    10
 73
     6
 74
     0
 42
0.00000001
 43
0.00000001
 12
1.0
 22
0.0
 32
0.0
 13
1.0
 23
0.0
 33
0.0
 40
0.0
 40
0.0
 40
0.0
 40
0.0
 40
0.5
 40
0.5
 40
1.0
 40
1.0
 40
1.0
 40
1.0
 10
-397.4330674807755
 20
69.05283047559598
 30
0.0
 10
-397.4330674807755
 20
68.87719167698697
 30
0.0
 10
-397.3897416324387
 20
68.68414978695547
 30
0.0
 10
-397.2950952646208
 20
68.340092332656
 30
0.0
 10
-397.2439361814879
 20
68.19034121417621
 30
0.0
 10
-397.2109170661882
 20
68.09454541062158
 30
0.0
  0
SPLINE
  5
252
330
1F
100
AcDbEntity
  8
0
  6
Continuous
 62
     7
370
    15
100
AcDbSpline
210
0.0
220
0.0
230
1.0
 70
    24
 71
     3
 72
    12
 73
     8
 74
     0
 42
0.00000001
 43
0.00000001
 12
1.0
 22
0.0
 32
0.0
 13
1.0
 23
0.0
 33
0.0
 40
0.0
 40
0.0
 40
0.0
 40
0.0
 40
0.2500000000000003
 40
0.2500000000000003
 40
0.5000000000000007
 40
0.5000000000000007
 40
1.0
 40
1.0
 40
1.0
 40
1.0
 10
-397.4330674807755
 20
69.05283047559598
 30
0.0
 10
-397.4330674807755
 20
69.32042680949391
 30
0.0
 10
-397.4330674807755
 20
69.59829283256121
 30
0.0
 10
-397.4330674807756
 20
70.17487038657657
 30
0.0
 10
-397.4330674807756
 20
70.47407876939091
 30
0.0
 10
-397.4330674807755
 20
71.3970423062408
 30
0.0
 10
-397.4330674807755
 20
72.0474595955625
 30
0.0
 10
-397.4330674807755
 20
72.73292690716832
 30
0.0
  0
SPLINE
  5
253
330
1F
100
AcDbEntity
  8
0
  6
Continuous
 62
     7
370
    15
100
AcDbSpline
210
0.0
220
0.0
230
1.0
 70
     8
 71
     3
 72
    10
 73
     6
 74
     0
 42
0.00000001
 43
0.00000001
 12
1.0
 22
0.0
 32
0.0
 13
1.0
 23
0.0
 33
0.0
 40
0.0
 40
0.0
 40
0.0
 40
0.0
 40
0.5
 40
0.5
 40
1.0
 40
1.0
 40
1.0
 40
1.0
 10
-397.4330674807755
 20
-413.871474822077
 30
0.0
 10
-397.4330674807755
 20
-413.6958360234679
 30
0.0
 10
-397.3897416324387
 20
-413.5027941334365
 30
0.0
 10
-397.2950952646208
 20
-413.158736679137
 30
0.0
 10
-397.2439361814879
 20
-413.0089855606572
 30
0.0
 10
-397.2109170661882
 20
-412.9131897571025
 30
0.0
  0
LWPOLYLINE
  5
254
330
1F
100
AcDbEntity
  8
0
  6
Continuous
 62
     7
370
    15
100
AcDbPolyline
 90
       30
 70
   128
 43
0.0
 10
-372.21990786
 20
-437.6856648036
 10
-373.6421715419
 20
-437.5292622157
 10
-375.0515904228
 20
-437.3235963889
 10
-376.4446999829
 20
-437.069203765
 10
-377.8180655043
 20
-436.7667101928
 10
-379.168296973
 20
-436.4168905326
 10
-380.4920788805
 20
-436.0205196449
 10
-381.7861329715
 20
-435.5786704131
 10
-383.047277848
 20
-435.0923859187
 10
-384.2724066179
 20
-434.5628582546
 10
-385.458501796
 20
-433.9914285251
 10
-386.6026278536
 20
-433.3794676372
 10
-387.7019759218
 20
-432.7284955093
 10
-388.7538414399
 20
-432.0400916644
 10
-389.7556167047
 20
-431.3160144397
 10
-390.7048430245
 20
-430.5579923698
 10
-391.599180917
 20
-429.7679328033
 10
-392.4364175598
 20
-428.9477728912
 10
-393.2145040433
 20
-428.099509389
 10
-393.9315106671
 20
-427.2252582618
 10
-394.5856716435
 20
-426.3271652766
 10
-395.1753776471
 20
-425.4074358054
 10
-395.6991758148
 20
-424.4683348247
 10
-396.1557771961
 20
-423.5122167178
 10
-396.5440493028
 20
-422.5413762637
 10
-396.863045911
 20
-421.5582572528
 10
-397.1119698088
 20
-420.565258772
 10
-397.2902100484
 20
-419.5648246118
 10
-397.3973344962
 20
-418.559443266
 10
-397.4330674808
 20
-417.5515734264
  0
SPLINE
  5
255
330
1F
100
AcDbEntity
  8
0
  6
Continuous
 62
     7
370
    15
100
AcDbSpline
210
0.0
220
0.0
230
1.0
 70
    24
 71
     3
 72
    12
 73
     8
 74
     0
 42
0.00000001
 43
0.00000001
 12
1.0
 22
0.0
 32
0.0
 13
1.0
 23
0.0
 33
0.0
 40
0.0
 40
0.0
 40
0.0
 40
0.0
 40
0.2500000000000003
 40
0.2500000000000003
 40
0.5000000000000007
 40
0.5000000000000007
 40
1.0
 40
1.0
 40
1.0
 40
1.0
 10
-397.4330674807755
 20
-413.871474822077
 30
0.0
 10
-397.4330674807755
 20
-414.1390711559749
 30
0.0
 10
-397.4330674807755
 20
-414.4169371790422
 30
0.0
 10
-397.4330674807756
 20
-414.9935147330576
 30
0.0
 10
-397.4330674807756
 20
-415.2927231158719
 30
0.0
 10
-397.4330674807755
 20
-416.2156866527218
 30
0.0
 10
-397.4330674807755
 20
-416.8661039420435
 30
0.0
 10
-397.4330674807755
 20
-417.5515712536493
 30
0.0
  0
LWPOLYLINE
  5
256
330
1F
100
AcDbEntity
  8
0
  6
Continuous
 62
     8
370
    15
100
AcDbPolyline
 90
       49
 70
   128
 43
0.0
 10
46.1318243344
 20
-445.1986514636
 10
43.0180180867
 20
-444.662150056
 10
39.9107683499
 20
-444.0545701095
 10
36.8108499844
 20
-443.376090438
 10
33.719067653
 20
-442.6268302509
 10
30.6362856229
 20
-441.8070279666
 10
27.5632489522
 20
-440.9168922015
 10
24.5007921059
 20
-439.9566613742
 10
21.4497197469
 20
-438.9265739032
 10
18.410776933
 20
-437.8268980094
 10
15.3848279317
 20
-436.6579317161
 10
12.372617801
 20
-435.4199730464
 10
9.3749512036
 20
-434.113349826
 10
6.392603
 20
-432.7383898803
 10
3.4263480504
 20
-431.2954508373
 10
0.4769612153
 20
-429.7849499294
 10
-2.454782645
 20
-428.2072149822
 10
-5.36810867
 20
-426.5627228328
 10
-8.2622718017
 20
-424.8518609115
 10
-11.1364971797
 20
-423.0751060554
 10
-13.9900695483
 20
-421.2328903981
 10
-16.8222140472
 20
-419.3257205793
 10
-19.6321856181
 20
-417.3540883371
 10
-22.4192690055
 20
-415.3184854099
 10
-25.1827489536
 20
-413.2194780418
 10
-27.921865503
 20
-411.0575877734
 10
-30.6359332006
 20
-408.8333957502
 10
-33.3242367904
 20
-406.5474831172
 10
-35.9860759179
 20
-404.2004310199
 10
-38.6207502286
 20
-401.792865307
 10
-41.2275593679
 20
-399.3254118272
 10
-43.8058476846
 20
-396.7987113305
 10
-46.3549297254
 20
-394.213419468
 10
-48.8741498391
 20
-391.5702365943
 10
-51.3628374736
 20
-388.8698183605
 10
-53.8203518789
 20
-386.1128800222
 10
-56.2460374038
 20
-383.3001666375
 10
-58.6392681997
 20
-380.4323785611
 10
-60.9994333188
 20
-377.5102757522
 10
-63.3258920114
 20
-374.5346330711
 10
-65.618063132
 20
-371.506210477
 10
-67.875320832
 20
-368.4258126327
 10
-70.0970988672
 20
-365.2942442008
 10
-72.2828160922
 20
-362.1123098441
 10
-74.4318764608
 20
-358.8808440276
 10
-76.543743531
 20
-355.6006812164
 10
-78.6178659599
 20
-352.27271548
 10
-80.6536924045
 20
-348.8977663823
 10
-81.5306406419
 20
-347.409319193
  0
LINE
  5
257
330
1F
100
AcDbEntity
  8
0
  6
Continuous
 62
     8
370
    15
100
AcDbLine
 10
-82.905734698
 20
-345.0316303083
 30
0.0
 11
-84.2474948566
 21
-342.658143551
 31
0.0
  0
LWPOLYLINE
  5
258
330
1F
100
AcDbEntity
  8
0
  6
Continuous
 62
     8
370
    15
100
AcDbPolyline
 90
       49
 70
   128
 43
0.0
 10
46.1318243344
 20
100.3800071171
 10
43.0180180867
 20
99.8435057095
 10
39.9107683499
 20
99.235925763
 10
36.8108499844
 20
98.5574460915
 10
33.719067653
 20
97.8081859044
 10
30.6362856229
 20
96.9883836201
 10
27.5632489522
 20
96.0982478551
 10
24.5007921059
 20
95.1380170277
 10
21.4497197469
 20
94.1079295567
 10
18.410776933
 20
93.0082536629
 10
15.3848279317
 20
91.8392873696
 10
12.372617801
 20
90.6013286999
 10
9.3749512036
 20
89.2947054795
 10
6.392603
 20
87.9197455338
 10
3.4263480504
 20
86.4768064908
 10
0.4769612153
 20
84.9663055829
 10
-2.454782645
 20
83.3885706357
 10
-5.36810867
 20
81.7440784863
 10
-8.2622718017
 20
80.033216565
 10
-11.1364971797
 20
78.2564617089
 10
-13.9900695483
 20
76.4142460517
 10
-16.8222140472
 20
74.5070762328
 10
-19.6321856181
 20
72.5354439906
 10
-22.4192690055
 20
70.4998410634
 10
-25.1827489536
 20
68.4008336953
 10
-27.921865503
 20
66.238943427
 10
-30.6359332006
 20
64.0147514037
 10
-33.3242367904
 20
61.7288387707
 10
-35.9860759179
 20
59.3817866734
 10
-38.6207502286
 20
56.9742209605
 10
-41.2275593679
 20
54.5067674807
 10
-43.8058476846
 20
51.9800669841
 10
-46.3549297254
 20
49.3947751216
 10
-48.8741498391
 20
46.7515922478
 10
-51.3628374736
 20
44.051174014
 10
-53.8203518789
 20
41.2942356757
 10
-56.2460374038
 20
38.4815222911
 10
-58.6392681997
 20
35.6137342147
 10
-60.9994333188
 20
32.6916314057
 10
-63.3258920114
 20
29.7159887246
 10
-65.618063132
 20
26.6875661305
 10
-67.875320832
 20
23.6071682862
 10
-70.0970988672
 20
20.4755998543
 10
-72.2828160922
 20
17.2936654977
 10
-74.4318764608
 20
14.0621996812
 10
-76.543743531
 20
10.7820368699
 10
-78.6178659599
 20
7.4540711335
 10
-80.6536924045
 20
4.0791220359
 10
-81.5306406419
 20
2.5906748465
  0
LINE
  5
259
330
1F
100
AcDbEntity
  8
0
  6
Continuous
 62
     8
370
    15
100
AcDbLine
 10
-82.905734698
 20
0.2129859618
 30
0.0
 11
-84.2474948566
 21
-2.1605007955
 31
0.0
  0
LWPOLYLINE
  5
25A
330
1F
100
AcDbEntity
  8
0
  6
Continuous
 62
     8
370
    15
100
AcDbPolyline
 90
       32
 70
   128
 43
0.0
 10
45.7649875481
 20
-445.2119432994
 10
45.3292179902
 20
-445.142384679
 10
40.2736712296
 20
-444.2319833347
 10
35.2367509206
 20
-443.1341849872
 10
30.2219439347
 20
-441.8497644969
 10
25.2327073415
 20
-440.3795861312
 10
20.2724684079
 20
-438.724663169
 10
15.3446842034
 20
-436.8861579009
 10
10.4527223904
 20
-434.8652922221
 10
5.5999506314
 20
-432.6635264465
 10
0.7897663911
 20
-430.2823208877
 10
-3.9745818774
 20
-427.7233444759
 10
-8.6897861163
 20
-424.988355548
 10
-13.3525978725
 20
-422.0792316505
 10
-17.9597686927
 20
-418.9979993411
 10
-22.5081693332
 20
-415.7467596837
 10
-26.9946407478
 20
-412.3277627536
 10
-31.4160834949
 20
-408.7433629342
 10
-35.7694726388
 20
-404.9960338184
 10
-40.051798145
 20
-401.0883682081
 10
-44.2600946824
 20
-397.0230483123
 10
-48.3914714257
 20
-392.8028904506
 10
-52.443067352
 20
-388.430770547
 10
-56.4121257465
 20
-383.9097433397
 10
-60.2958600919
 20
-379.24290827
 10
-64.0916328828
 20
-374.4334690877
 10
-67.7968066137
 20
-369.4847636529
 10
-71.408848087
 20
-364.4002043315
 10
-74.9252390067
 20
-359.1832779952
 10
-78.3435653846
 20
-353.8375758239
 10
-81.6614728372
 20
-348.3668231078
 10
-82.2243194978
 20
-347.409319193
  0
LWPOLYLINE
  5
25B
330
1F
100
AcDbEntity
  8
0
  6
Continuous
 62
     8
370
    15
100
AcDbPolyline
 90
        3
 70
   128
 43
0.0
 10
-82.905734698
 20
-346.2381773301
 10
-84.8766814868
 20
-342.7747451373
 10
-85.38771681
 20
-341.857682974
  0
LWPOLYLINE
  5
25C
330
1F
100
AcDbEntity
  8
0
  6
Continuous
 62
     8
370
    15
100
AcDbPolyline
 90
        3
 70
   128
 43
0.0
 10
-85.38771681
 20
-2.9609613725
 10
-84.8766814868
 20
-2.0438992091
 10
-82.905734698
 20
1.4195329837
  0
LWPOLYLINE
  5
25D
330
1F
100
AcDbEntity
  8
0
  6
Continuous
 62
     8
370
    15
100
AcDbPolyline
 90
       32
 70
   128
 43
0.0
 10
-82.2243194978
 20
2.5906748465
 10
-81.6614728372
 20
3.5481787614
 10
-78.3435653846
 20
9.0189314774
 10
-74.9252390067
 20
14.3646336488
 10
-71.408848087
 20
19.581559985
 10
-67.7968066137
 20
24.6661193064
 10
-64.0916328828
 20
29.6148247412
 10
-60.2958600919
 20
34.4242639235
 10
-56.4121257465
 20
39.0910989932
 10
-52.443067352
 20
43.6121262006
 10
-48.3914714257
 20
47.9842461041
 10
-44.2600946824
 20
52.2044039658
 10
-40.051798145
 20
56.2697238616
 10
-35.7694726388
 20
60.1773894719
 10
-31.4160834949
 20
63.9247185878
 10
-26.9946407478
 20
67.5091184071
 10
-22.5081693332
 20
70.9281153372
 10
-17.9597686927
 20
74.1793549947
 10
-13.3525978725
 20
77.260587304
 10
-8.6897861163
 20
80.1697112015
 10
-3.9745818774
 20
82.9047001294
 10
0.7897663911
 20
85.4636765412
 10
5.5999506314
 20
87.8448821
 10
10.4527223904
 20
90.0466478757
 10
15.3446842034
 20
92.0675135545
 10
20.2724684079
 20
93.9060188225
 10
25.2327073415
 20
95.5609417847
 10
30.2219439347
 20
97.0311201504
 10
35.2367509206
 20
98.3155406407
 10
40.2736712296
 20
99.4133389882
 10
45.3292179902
 20
100.3237403325
 10
45.7649875481
 20
100.3932989529
  0
LINE
  5
25E
330
1F
100
AcDbEntity
  8
0
  6
Continuous
 62
     8
370
    15
100
AcDbLine
 10
327.0385015805
 20
-0.6225370475
 30
0.0
 11
335.3821981747
 21
-0.6225370475
 31
0.0
  0
LINE
  5
25F
330
1F
100
AcDbEntity
  8
0
  6
Continuous
 62
     8
370
    15
100
AcDbLine
 10
335.3821981747
 20
-344.196107299
 30
0.0
 11
327.0385015805
 21
-344.196107299
 31
0.0
  0
LINE
  5
260
330
1F
100
AcDbEntity
  8
0
  6
Continuous
 62
     8
370
    15
100
AcDbLine
 10
-430.9330683152
 20
57.5906819991
 30
0.0
 11
-430.9330683152
 21
-402.4093263456
 31
0.0
  0
LINE
  5
261
330
1F
100
AcDbEntity
  8
0
  6
Continuous
 62
     8
370
    15
100
AcDbLine
 10
396.0669387181
 20
-392.4093209811
 30
0.0
 11
396.0669387181
 21
47.5906766347
 31
0.0
  0
SPLINE
  5
262
330
1F
100
AcDbEntity
  8
0
  6
Continuous
 62
     8
370
    15
100
AcDbSpline
210
0.0
220
0.0
230
1.0
 70
     8
 71
     3
 72
    13
 73
     9
 74
     0
 42
0.00000001
 43
0.00000001
 12
1.0
 22
0.0
 32
0.0
 13
1.0
 23
0.0
 33
0.0
 40
0.0
 40
0.0
 40
0.0
 40
0.0
 40
0.1848380839009891
 40
0.369716571155825
 40
0.5545546053636977
 40
0.7408731229591532
 40
0.9272333225611661
 40
1.0
 40
1.0
 40
1.0
 40
1.0
 10
-407.6091002623766
 20
54.64655527388784
 30
0.0
 10
-407.6989795980048
 20
54.98941162696691
 30
0.0
 10
-407.8787579157891
 20
55.67519927734785
 30
0.0
 10
-408.1535931211777
 20
56.44978270529325
 30
0.0
 10
-408.4242647996542
 20
57.04330448666315
 30
0.0
 10
-408.6812715665831
 20
57.41827956861617
 30
0.0
 10
-408.8758615946564
 20
57.5944301469393
 30
0.0
 10
-408.9685749440448
 20
57.57241216895007
 30
0.0
 10
-408.9946102301806
 20
57.56622919356555
 30
0.0
  0
SPLINE
  5
263
330
1F
100
AcDbEntity
  8
0
  6
Continuous
 62
     8
370
    15
100
AcDbSpline
210
0.0
220
0.0
230
1.0
 70
     8
 71
     3
 72
    13
 73
     9
 74
     0
 42
0.00000001
 43
0.00000001
 12
1.0
 22
0.0
 32
0.0
 13
1.0
 23
0.0
 33
0.0
 40
0.0
 40
0.0
 40
0.0
 40
0.0
 40
0.1848380839009891
 40
0.369716571155825
 40
0.5545546053636977
 40
0.7408731229591532
 40
0.9272333225611661
 40
1.0
 40
1.0
 40
1.0
 40
1.0
 10
-407.6091002623766
 20
-399.4651996203688
 30
0.0
 10
-407.6989795980048
 20
-399.8080559734479
 30
0.0
 10
-407.8787579157891
 20
-400.4938436238288
 30
0.0
 10
-408.1535931211777
 20
-401.2684270517742
 30
0.0
 10
-408.4242647996542
 20
-401.8619488331441
 30
0.0
 10
-408.6812715665831
 20
-402.2369239150971
 30
0.0
 10
-408.8758615946564
 20
-402.4130744934203
 30
0.0
 10
-408.9685749440448
 20
-402.391056515431
 30
0.0
 10
-408.9946102301806
 20
-402.3848735400465
 30
0.0
  0
ARC
  5
264
330
1F
100
AcDbEntity
  8
0
  6
Continuous
 62
     8
370
    15
100
AcDbCircle
 10
-409.1144205512
 20
69.5432508384
 30
0.0
 40
11.991340284124
100
AcDbArc
 50
305.6655514853
 51
353.0609711167
  0
ARC
  5
265
330
1F
100
AcDbEntity
  8
0
  6
Continuous
 62
     8
370
    15
100
AcDbCircle
 10
-409.1143548529
 20
-414.3618669938
 30
0.0
 40
11.99127166115314
100
AcDbArc
 50
6.9389330945
 51
54.3117230032
  0
LWPOLYLINE
  5
266
330
1F
100
AcDbEntity
  8
0
  6
Continuous
 62
     8
370
    15
100
AcDbPolyline
 90
       18
 70
   128
 43
0.0
 10
-372.21990786
 20
92.8670204571
 10
-372.0631178419
 20
93.8689447335
 10
-371.8975435893
 20
94.8197282246
 10
-371.723579983
 20
95.7170463494
 10
-371.5416591565
 20
96.5587235383
 10
-371.3522132437
 20
97.3427630357
 10
-371.1556967299
 20
98.0672276906
 10
-370.9525939028
 20
98.730359166
 10
-370.7433965008
 20
99.3305779389
 10
-370.5286037128
 20
99.8664236954
 10
-370.3087370794
 20
100.3366149358
 10
-370.0843330424
 20
100.7399893693
 10
-369.8559354942
 20
101.0755635194
 10
-369.6240883271
 20
101.3425625256
 10
-369.389365236
 20
101.5403009347
 10
-369.1523175637
 20
101.6683317116
 10
-368.9135413568
 20
101.726327031
 10
-368.8478123347
 20
101.7299629143
  0
LWPOLYLINE
  5
267
330
1F
100
AcDbEntity
  8
0
  6
Continuous
 62
     8
370
    15
100
AcDbPolyline
 90
       18
 70
   128
 43
0.0
 10
-372.21990786
 20
-437.6856648036
 10
-372.0631178419
 20
-438.68758908
 10
-371.8975435893
 20
-439.6383725711
 10
-371.723579983
 20
-440.5356906959
 10
-371.5416591565
 20
-441.3773678848
 10
-371.3522132437
 20
-442.1614073821
 10
-371.1556967299
 20
-442.8858720371
 10
-370.9525939028
 20
-443.5490035125
 10
-370.7433965008
 20
-444.1492222854
 10
-370.5286037128
 20
-444.6850680419
 10
-370.3087370794
 20
-445.1552592822
 10
-370.0843330424
 20
-445.5586337158
 10
-369.8559354942
 20
-445.8942078658
 10
-369.6240883271
 20
-446.1612068721
 10
-369.389365236
 20
-446.3589452812
 10
-369.1523175637
 20
-446.4869760581
 10
-368.9135413568
 20
-446.5449713775
 10
-368.8475217621
 20
-446.5486072608
  0
LINE
  5
268
330
1F
100
AcDbEntity
  8
FORMAT
100
AcDbLine
 10
472.7822811014
 20
-172.4093221732
 30
0.0
 11
-527.3345273699
 21
-172.4093221732
 31
0.0
  0
LINE
  5
269
330
1F
100
AcDbEntity
  8
0
  6
Continuous
 62
     7
370
    15
100
AcDbLine
 10
587.5889956514
 20
876.0206142715
 30
0.0
 11
587.5889956514
 21
629.8105681589
 31
0.0
  0
LINE
  5
26A
330
1F
100
AcDbEntity
  8
0
  6
Continuous
 62
     7
370
    15
100
AcDbLine
 10
1136.5890204469
 20
629.8105681589
 30
0.0
 11
1136.5890204469
 21
876.0206142715
 31
0.0
  0
CIRCLE
  5
26B
330
1F
100
AcDbEntity
  8
0
  6
Continuous
 62
     7
370
    15
100
AcDbCircle
 10
862.0890080492
 20
536.2704733661
 30
0.0
 40
244.0
  0
CIRCLE
  5
26C
330
1F
100
AcDbEntity
  8
0
  6
Continuous
 62
     7
370
    15
100
AcDbCircle
 10
862.0890080492
 20
536.2704733661
 30
0.0
 40
241.0
  0
CIRCLE
  5
26D
330
1F
100
AcDbEntity
  8
0
  6
Continuous
 62
     7
370
    15
100
AcDbCircle
 10
862.0890080492
 20
536.2704733661
 30
0.0
 40
191.9999999999999
  0
LINE
  5
26E
330
1F
100
AcDbEntity
  8
0
  6
Continuous
 62
     7
370
    15
100
AcDbLine
 10
1147.0890044729
 20
536.2704733661
 30
0.0
 11
1152.0466208021
 21
541.2280943519
 31
0.0
  0
LINE
  5
26F
330
1F
100
AcDbEntity
  8
0
  6
Continuous
 62
     7
370
    15
100
AcDbLine
 10
1152.0466208021
 20
531.3128523803
 30
0.0
 11
1147.0890044729
 21
536.2704733661
 31
0.0
  0
ARC
  5
270
330
1F
100
AcDbEntity
  8
0
  6
Continuous
 62
     7
370
    15
100
AcDbCircle
 10
862.0890080492
 20
536.2704733661
 30
0.0
 40
290.0000000000001
100
AcDbArc
 50
180.9795330994
 51
359.0204669006
  0
LINE
  5
271
330
1F
100
AcDbEntity
  8
0
  6
Continuous
 62
     7
370
    15
100
AcDbLine
 10
572.1313952963
 20
531.3128523803
 30
0.0
 11
577.0890116255
 21
536.2704733661
 31
0.0
  0
LINE
  5
272
330
1F
100
AcDbEntity
  8
0
  6
Continuous
 62
     7
370
    15
100
AcDbLine
 10
577.0890116255
 20
536.2704733661
 30
0.0
 11
572.1313952963
 21
541.2280943519
 31
0.0
  0
ARC
  5
273
330
1F
100
AcDbEntity
  8
0
  6
Continuous
 62
     7
370
    15
100
AcDbCircle
 10
862.0890080492
 20
536.2704733661
 30
0.0
 40
290.0000000000001
100
AcDbArc
 50
0.9795330994
 51
179.0204669006
  0
LINE
  5
274
330
1F
100
AcDbEntity
  8
0
  6
Continuous
 62
     7
370
    15
100
AcDbLine
 10
1136.5890204469
 20
876.0206142715
 30
0.0
 11
1136.5847587148
 21
877.1020809463
 31
0.0
  0
LINE
  5
275
330
1F
100
AcDbEntity
  8
0
  6
Continuous
 62
     7
370
    15
100
AcDbLine
 10
587.5930189649
 20
877.0681062987
 30
0.0
 11
587.5889956514
 21
876.0206142715
 31
0.0
  0
LINE
  5
276
330
1F
100
AcDbEntity
  8
0
  6
Continuous
 62
     7
370
    15
100
AcDbLine
 10
733.5890084068
 20
1077.1844724467
 30
0.0
 11
733.5890084068
 21
1087.7910593799
 31
0.0
  0
LINE
  5
277
330
1F
100
AcDbEntity
  8
0
  6
Continuous
 62
     7
370
    15
100
AcDbLine
 10
690.8982395689
 20
1137.9956344417
 30
0.0
 11
733.5890084068
 21
1077.1844724467
 31
0.0
  0
LINE
  5
278
330
1F
100
AcDbEntity
  8
0
  6
Continuous
 62
     7
370
    15
100
AcDbLine
 10
690.8982395689
 20
1137.9956344417
 30
0.0
 11
690.8982395689
 21
1148.6022213748
 31
0.0
  0
LINE
  5
279
330
1F
100
AcDbEntity
  8
0
  6
Continuous
 62
     7
370
    15
100
AcDbLine
 10
690.8982395689
 20
1148.6022213748
 30
0.0
 11
733.5890084068
 21
1087.7910593799
 31
0.0
  0
LINE
  5
27A
330
1F
100
AcDbEntity
  8
0
  6
Continuous
 62
     7
370
    15
100
AcDbLine
 10
687.0890110294
 20
1148.6022213748
 30
0.0
 11
690.8982395689
 21
1148.6022213748
 31
0.0
  0
LINE
  5
27B
330
1F
100
AcDbEntity
  8
0
  6
Continuous
 62
     7
370
    15
100
AcDbLine
 10
687.0890110294
 20
1148.6022213748
 30
0.0
 11
687.0890110294
 21
1166.2798861316
 31
0.0
  0
LINE
  5
27C
330
1F
100
AcDbEntity
  8
0
  6
Continuous
 62
     7
370
    15
100
AcDbLine
 10
687.0890110294
 20
1166.2798861316
 30
0.0
 11
1037.089005069
 21
1166.2798861316
 31
0.0
  0
LINE
  5
27D
330
1F
100
AcDbEntity
  8
0
  6
Continuous
 62
     7
370
    15
100
AcDbLine
 10
1037.089005069
 20
1148.6022213748
 30
0.0
 11
1037.089005069
 21
1166.2798861316
 31
0.0
  0
LINE
  5
27E
330
1F
100
AcDbEntity
  8
0
  6
Continuous
 62
     7
370
    15
100
AcDbLine
 10
1037.089005069
 20
1148.6022213748
 30
0.0
 11
1033.2797765295
 21
1148.6022213748
 31
0.0
  0
LINE
  5
27F
330
1F
100
AcDbEntity
  8
0
  6
Continuous
 62
     7
370
    15
100
AcDbLine
 10
1033.2797765295
 20
1148.6022213748
 30
0.0
 11
990.5890076916
 21
1087.7910593799
 31
0.0
  0
LINE
  5
280
330
1F
100
AcDbEntity
  8
0
  6
Continuous
 62
     7
370
    15
100
AcDbLine
 10
733.5890084068
 20
1087.7910593799
 30
0.0
 11
990.5890076916
 21
1087.7910593799
 31
0.0
  0
LINE
  5
281
330
1F
100
AcDbEntity
  8
0
  6
Continuous
 62
     7
370
    15
100
AcDbLine
 10
733.5890084068
 20
1077.1844724467
 30
0.0
 11
733.5890084068
 21
1055.2641490748
 31
0.0
  0
LINE
  5
282
330
1F
100
AcDbEntity
  8
0
  6
Continuous
 62
     7
370
    15
100
AcDbLine
 10
990.5890076916
 20
1077.1844724467
 30
0.0
 11
990.5890076916
 21
1087.7910593799
 31
0.0
  0
LINE
  5
283
330
1F
100
AcDbEntity
  8
0
  6
Continuous
 62
     7
370
    15
100
AcDbLine
 10
990.5890076916
 20
1055.2641490748
 30
0.0
 11
990.5890076916
 21
1077.1844724467
 31
0.0
  0
LINE
  5
284
330
1F
100
AcDbEntity
  8
0
  6
Continuous
 62
     7
370
    15
100
AcDbLine
 10
990.5890076916
 20
1055.2641490748
 30
0.0
 11
990.5890076916
 21
1047.9175785831
 31
0.0
  0
LWPOLYLINE
  5
285
330
1F
100
AcDbEntity
  8
0
  6
Continuous
 62
     7
370
    15
100
AcDbPolyline
 90
       62
 70
   128
 43
0.0
 10
733.5890084068
 20
1047.9175785831
 10
737.4796792428
 20
1049.3468979648
 10
741.4021417062
 20
1050.7321099093
 10
745.3553899686
 20
1052.0727971843
 10
749.3384182016
 20
1053.368721371
 10
753.3502131264
 20
1054.619465237
 10
757.3897391121
 20
1055.8247903636
 10
761.4559754292
 20
1056.9842795184
 10
765.5478864471
 20
1058.0977538875
 10
769.6644216339
 20
1059.1648558429
 10
773.8045304577
 20
1060.1853469661
 10
777.9671698372
 20
1061.1589292338
 10
782.1512594382
 20
1062.0853642276
 10
786.3557487289
 20
1062.9644731334
 10
790.5795499245
 20
1063.795957928
 10
794.821597592
 20
1064.5796397975
 10
799.0808039467
 20
1065.3152803233
 10
803.3560849289
 20
1066.0027602962
 10
807.6463490288
 20
1066.6419009021
 10
811.9505010108
 20
1067.2324637225
 10
816.2674419145
 20
1067.7743891528
 10
820.5960727791
 20
1068.2674387744
 10
824.9352871935
 20
1068.7115529826
 10
829.2839787463
 20
1069.1066125682
 10
833.6410410265
 20
1069.4524983218
 10
838.0053583096
 20
1069.7491506389
 10
842.3758204589
 20
1069.9965099147
 10
846.7513117502
 20
1070.1943973353
 10
851.1307155276
 20
1070.3429321101
 10
855.5129137385
 20
1070.4419354251
 10
859.8967901925
 20
1070.4914668849
 10
864.2812259058
 20
1070.4914668849
 10
868.6651023599
 20
1070.4419354251
 10
873.0473005707
 20
1070.3429321101
 10
877.4267043481
 20
1070.1943973353
 10
881.8021956394
 20
1069.9965099147
 10
886.1726577888
 20
1069.7491506389
 10
890.5369750718
 20
1069.4524983218
 10
894.894037352
 20
1069.1066125682
 10
899.2427289049
 20
1068.7115529826
 10
903.5819433193
 20
1068.2674387744
 10
907.9105741839
 20
1067.7743891528
 10
912.2275150875
 20
1067.2324637225
 10
916.5316670696
 20
1066.6419009021
 10
920.8219311694
 20
1066.0027602962
 10
925.0972121517
 20
1065.3152803233
 10
929.3564185063
 20
1064.5796397975
 10
933.5984661738
 20
1063.795957928
 10
937.8222673694
 20
1062.9644731334
 10
942.0267566602
 20
1062.0853642276
 10
946.2108462612
 20
1061.1589292338
 10
950.3734856407
 20
1060.1853469661
 10
954.5135944645
 20
1059.1648558429
 10
958.6301296512
 20
1058.0977538875
 10
962.7220406691
 20
1056.9842795184
 10
966.7882769863
 20
1055.8247903636
 10
970.827802972
 20
1054.619465237
 10
974.8395978967
 20
1053.368721371
 10
978.8226261298
 20
1052.0727971843
 10
982.7758743922
 20
1050.7321099093
 10
986.6983368556
 20
1049.3468979648
 10
990.5890076916
 20
1047.9175785831
  0
LINE
  5
286
330
1F
100
AcDbEntity
  8
0
  6
Continuous
 62
     7
370
    15
100
AcDbLine
 10
733.5890084068
 20
1055.2641490748
 30
0.0
 11
733.5890084068
 21
1047.9175785831
 31
0.0
  0
LINE
  5
287
330
1F
100
AcDbEntity
  8
0
  6
Continuous
 62
     7
370
    15
100
AcDbLine
 10
1033.2797765295
 20
1137.9956344417
 30
0.0
 11
1033.2797765295
 21
1148.6022213748
 31
0.0
  0
LINE
  5
288
330
1F
100
AcDbEntity
  8
0
  6
Continuous
 62
     7
370
    15
100
AcDbLine
 10
1033.2797765295
 20
1137.9956344417
 30
0.0
 11
990.5890076916
 21
1077.1844724467
 31
0.0
  0
LWPOLYLINE
  5
289
330
1F
100
AcDbEntity
  8
0
  6
Continuous
 62
     7
370
    15
100
AcDbPolyline
 90
       61
 70
   128
 43
0.0
 10
1134.8783373396
 20
898.6759821227
 10
1134.3418359319
 20
901.7897883704
 10
1133.7342559854
 20
904.8970679095
 10
1133.055776314
 20
907.996986275
 10
1132.3065161268
 20
911.0887388042
 10
1131.4867138426
 20
914.1715506366
 10
1130.5965780775
 20
917.2445575049
 10
1129.6363472502
 20
920.3070143512
 10
1128.6062597791
 20
923.3581165126
 10
1127.5065838854
 20
926.3970295241
 10
1126.337617592
 20
929.4230083278
 10
1125.0996589224
 20
932.4352184585
 10
1123.7930357019
 20
935.4328850558
 10
1122.4180757562
 20
938.4152332595
 10
1120.9751367132
 20
941.3814882091
 10
1119.4646358053
 20
944.3308750442
 10
1117.8869008581
 20
947.2625891021
 10
1116.2424087087
 20
950.1759449294
 10
1114.5315467874
 20
953.0700782588
 10
1112.7547919313
 20
955.9443334392
 10
1110.9125762741
 20
958.7978760055
 10
1109.0054064552
 20
961.6300205043
 10
1107.033774213
 20
964.4400218776
 10
1104.9981712858
 20
967.227105265
 10
1102.8991639177
 20
969.9905554107
 10
1100.7372736494
 20
972.7296868613
 10
1098.5130816261
 20
975.4437545589
 10
1096.2271689932
 20
978.1320730498
 10
1093.8801168958
 20
980.7938972762
 10
1091.4725511829
 20
983.4285715869
 10
1089.0050977032
 20
986.0353807261
 10
1086.4783972065
 20
988.6136690429
 10
1083.893105344
 20
991.1627510837
 10
1081.2499224703
 20
993.6819711974
 10
1078.5495042364
 20
996.1706439307
 10
1075.7925658981
 20
998.6281732371
 10
1072.9798525135
 20
1001.0538438609
 10
1070.1120644371
 20
1003.4470895579
 10
1067.1899616281
 20
1005.8072546771
 10
1064.214318947
 20
1008.1337133697
 10
1061.1858963529
 20
1010.4258695891
 10
1058.1054985086
 20
1012.6831570914
 10
1054.9739300768
 20
1014.9049202254
 10
1051.7919957201
 20
1017.0906225493
 10
1048.5605299036
 20
1019.239697819
 10
1045.2803670923
 20
1021.3515797904
 10
1041.9524013559
 20
1023.425672417
 10
1038.5774522583
 20
1025.4614988616
 10
1035.1564436714
 20
1027.4584928802
 10
1031.6902398626
 20
1029.4161478332
 10
1028.1797498028
 20
1031.3339570811
 10
1024.625912265
 20
1033.2113841823
 10
1021.029621319
 20
1035.0479821017
 10
1017.3918455402
 20
1036.8432143977
 10
1013.7135088007
 20
1038.5967234424
 10
1009.995594577
 20
1040.3079131892
 10
1006.2390714447
 20
1041.9764260104
 10
1002.4449079792
 20
1043.6017850688
 10
998.6140876571
 20
1045.1835731318
 10
994.7476386587
 20
1046.7214325717
 10
990.8465444605
 20
1048.2148865512
  0
LINE
  5
28A
330
1F
100
AcDbEntity
  8
0
  6
Continuous
 62
     7
370
    15
100
AcDbLine
 10
1134.8443030874
 20
898.3091453364
 30
0.0
 11
1134.8783373396
 21
898.6759821227
 31
0.0
  0
ARC
  5
28B
330
1F
100
AcDbEntity
  8
0
  6
Continuous
 62
     7
370
    15
100
AcDbCircle
 10
997.8007694187
 20
876.2684588266
 30
0.0
 40
138.8046180147749
100
AcDbArc
 50
4.725122594
 51
9.1366291791
  0
ARC
  5
28C
330
1F
100
AcDbEntity
  8
0
  6
Continuous
 62
     7
370
    15
100
AcDbCircle
 10
726.3772466797
 20
876.2684588266
 30
0.0
 40
138.8046180147749
100
AcDbArc
 50
170.8633708209
 51
175.274877406
  0
LINE
  5
28D
330
1F
100
AcDbEntity
  8
0
  6
Continuous
 62
     7
370
    15
100
AcDbLine
 10
589.333713011
 20
898.3091453364
 30
0.0
 11
589.2996787588
 21
898.6759821227
 31
0.0
  0
LWPOLYLINE
  5
28E
330
1F
100
AcDbEntity
  8
0
  6
Continuous
 62
     7
370
    15
100
AcDbPolyline
 90
       61
 70
   128
 43
0.0
 10
589.2996787588
 20
898.6759821227
 10
589.8361801664
 20
901.7897883704
 10
590.4437601129
 20
904.8970679095
 10
591.1222397844
 20
907.996986275
 10
591.8714999716
 20
911.0887388042
 10
592.6913022558
 20
914.1715506366
 10
593.5814380209
 20
917.2445575049
 10
594.5416688482
 20
920.3070143512
 10
595.5717563192
 20
923.3581165126
 10
596.671432213
 20
926.3970295241
 10
597.8403985063
 20
929.4230083278
 10
599.078357176
 20
932.4352184585
 10
600.3849803964
 20
935.4328850558
 10
601.7599403421
 20
938.4152332595
 10
603.2028793852
 20
941.3814882091
 10
604.7133802931
 20
944.3308750442
 10
606.2911152403
 20
947.2625891021
 10
607.9356073896
 20
950.1759449294
 10
609.6464693109
 20
953.0700782588
 10
611.423224167
 20
955.9443334392
 10
613.2654398243
 20
958.7978760055
 10
615.1726096432
 20
961.6300205043
 10
617.1442418854
 20
964.4400218776
 10
619.1798448126
 20
967.227105265
 10
621.2788521807
 20
969.9905554107
 10
623.440742449
 20
972.7296868613
 10
625.6649344723
 20
975.4437545589
 10
627.9508471052
 20
978.1320730498
 10
630.2978992025
 20
980.7938972762
 10
632.7054649154
 20
983.4285715869
 10
635.1729183952
 20
986.0353807261
 10
637.6996188919
 20
988.6136690429
 10
640.2849107544
 20
991.1627510837
 10
642.9280936281
 20
993.6819711974
 10
645.628511862
 20
996.1706439307
 10
648.3854502003
 20
998.6281732371
 10
651.1981635849
 20
1001.0538438609
 10
654.0659516613
 20
1003.4470895579
 10
656.9880544702
 20
1005.8072546771
 10
659.9636971514
 20
1008.1337133697
 10
662.9921197454
 20
1010.4258695891
 10
666.0725175897
 20
1012.6831570914
 10
669.2040860216
 20
1014.9049202254
 10
672.3860203783
 20
1017.0906225493
 10
675.6174861948
 20
1019.239697819
 10
678.8976490061
 20
1021.3515797904
 10
682.2256147425
 20
1023.425672417
 10
685.6005638401
 20
1025.4614988616
 10
689.021572427
 20
1027.4584928802
 10
692.4877762358
 20
1029.4161478332
 10
695.9982662956
 20
1031.3339570811
 10
699.5521038334
 20
1033.2113841823
 10
703.1483947794
 20
1035.0479821017
 10
706.7861705581
 20
1036.8432143977
 10
710.4645072977
 20
1038.5967234424
 10
714.1824215214
 20
1040.3079131892
 10
717.9389446537
 20
1041.9764260104
 10
721.7331081192
 20
1043.6017850688
 10
725.5639284412
 20
1045.1835731318
 10
729.4303774397
 20
1046.7214325717
 10
733.3314716379
 20
1048.2148865512
  0
LINE
  5
28F
330
1F
100
AcDbEntity
  8
0
  6
Continuous
 62
     7
370
    15
100
AcDbLine
 10
733.3314716379
 20
1048.2148865512
 30
0.0
 11
733.5890084068
 21
1047.9175785831
 31
0.0
  0
LINE
  5
290
330
1F
100
AcDbEntity
  8
0
  6
Continuous
 62
     7
370
    15
100
AcDbLine
 10
990.8465444605
 20
1048.2148865512
 30
0.0
 11
990.5890076916
 21
1047.9175785831
 31
0.0
  0
LINE
  5
291
330
1F
100
AcDbEntity
  8
0
  6
Continuous
 62
     7
370
    15
100
AcDbLine
 10
690.8982395689
 20
1116.0753110698
 30
0.0
 11
733.5890084068
 21
1055.2641490748
 31
0.0
  0
LINE
  5
292
330
1F
100
AcDbEntity
  8
0
  6
Continuous
 62
     7
370
    15
100
AcDbLine
 10
706.2867730419
 20
1116.0753110698
 30
0.0
 11
690.8982395689
 21
1116.0753110698
 31
0.0
  0
LINE
  5
293
330
1F
100
AcDbEntity
  8
0
  6
Continuous
 62
     7
370
    15
100
AcDbLine
 10
690.8982395689
 20
1105.4687241366
 30
0.0
 11
720.8329140703
 21
1062.8280381015
 31
0.0
  0
LINE
  5
294
330
1F
100
AcDbEntity
  8
0
  6
Continuous
 62
     7
370
    15
100
AcDbLine
 10
690.8982395689
 20
1116.0753110698
 30
0.0
 11
690.8982395689
 21
1105.4687241366
 31
0.0
  0
ELLIPSE
  5
295
330
1F
100
AcDbEntity
  8
0
  6
Continuous
 62
     7
370
    15
100
AcDbEllipse
 10
816.5497734447
 20
758.2147611106
 30
0.0
 11
-245.8514518505294
 21
409.0312742023258
 31
0.0
210
0.0
220
0.0
230
1.0
 40
0.2065846793
 41
5.369287950095798
 42
5.420501087527399
  0
LINE
  5
296
330
1F
100
AcDbEntity
  8
0
  6
Continuous
 62
     7
370
    15
100
AcDbLine
 10
1033.2797765295
 20
1116.0753110698
 30
0.0
 11
990.5890076916
 21
1055.2641490748
 31
0.0
  0
LINE
  5
297
330
1F
100
AcDbEntity
  8
0
  6
Continuous
 62
     7
370
    15
100
AcDbLine
 10
1033.2797765295
 20
1116.0753110698
 30
0.0
 11
1033.2797765295
 21
1105.4687241366
 31
0.0
  0
LINE
  5
298
330
1F
100
AcDbEntity
  8
0
  6
Continuous
 62
     7
370
    15
100
AcDbLine
 10
1033.2797765295
 20
1105.4687241366
 30
0.0
 11
1003.3451020281
 21
1062.8280381015
 31
0.0
  0
ELLIPSE
  5
299
330
1F
100
AcDbEntity
  8
0
  6
Continuous
 62
     7
370
    15
100
AcDbEllipse
 10
907.6282426536
 20
758.2147611106
 30
0.0
 11
245.8514518505294
 21
409.0312742023258
 31
0.0
210
0.0
220
0.0
230
1.0
 40
0.2065846793
 41
0.8626842196522182
 42
0.9138973570838164
  0
LINE
  5
29A
330
1F
100
AcDbEntity
  8
0
  6
Continuous
 62
     7
370
    15
100
AcDbLine
 10
1017.8912430565
 20
1116.0753110698
 30
0.0
 11
1033.2797765295
 21
1116.0753110698
 31
0.0
  0
LWPOLYLINE
  5
29B
330
1F
100
AcDbEntity
  8
0
  6
Continuous
 62
     7
370
    15
100
AcDbPolyline
 90
       50
 70
   128
 43
0.0
 10
1037.089005069
 20
1116.3176635554
 10
1040.5687391321
 20
1114.3669227412
 10
1044.0628975193
 20
1112.3440007022
 10
1047.5112050335
 20
1110.2820972255
 10
1050.9127825062
 20
1108.1817487529
 10
1054.2667954723
 20
1106.0434917262
 10
1057.5723796646
 20
1103.8678625873
 10
1060.8287155191
 20
1101.6553977778
 10
1064.034983472
 20
1099.4066337398
 10
1067.1903639595
 20
1097.1221665195
 10
1070.2940523187
 20
1094.802651768
 10
1073.3453034918
 20
1092.448506718
 10
1076.3433128158
 20
1090.060446625
 10
1079.2873352329
 20
1087.6390675357
 10
1082.1766405861
 20
1085.1849058917
 10
1085.0104987184
 20
1082.6986173442
 10
1087.7881794731
 20
1080.1808575442
 10
1090.5089973966
 20
1077.6322821429
 10
1093.1722521345
 20
1075.0534275821
 10
1095.7772880356
 20
1072.4450091174
 10
1098.3234494488
 20
1069.8077420047
 10
1100.8100956241
 20
1067.1421626857
 10
1103.2365709106
 20
1064.4490460208
 10
1105.6023090641
 20
1061.7289880565
 10
1107.9066842357
 20
1058.9827636531
 10
1110.1491152803
 20
1056.2110284617
 10
1112.329065756
 20
1053.4144381335
 10
1114.4459247152
 20
1050.5937675288
 10
1116.4992451231
 20
1047.7496722987
 10
1118.4884309332
 20
1044.882867699
 10
1120.4130351106
 20
1041.9941285899
 10
1122.272551016
 20
1039.0841702273
 10
1124.0665018122
 20
1036.1536780646
 10
1125.7944404642
 20
1033.2034567645
 10
1127.4559497396
 20
1030.2341619781
 10
1129.0505826036
 20
1027.2466281703
 10
1130.577951626
 20
1024.241570597
 10
1132.0376991789
 20
1021.2197343162
 10
1133.4294080297
 20
1018.1818941882
 10
1134.752750353
 20
1015.1288250735
 10
1136.0073983232
 20
1012.0612720302
 10
1137.1930241148
 20
1008.9800397208
 10
1138.3093297045
 20
1005.8859030059
 10
1139.3560468714
 20
1002.7796069434
 10
1140.3329073946
 20
999.6619561961
 10
1141.2396430532
 20
996.5337256244
 10
1142.0760750334
 20
993.3957198909
 10
1142.8419351141
 20
990.248713856
 10
1143.5370742838
 20
987.0935121825
 10
1144.1612839262
 20
983.9309195331
  0
ARC
  5
29C
330
1F
100
AcDbEntity
  8
0
  6
Continuous
 62
     7
370
    15
100
AcDbCircle
 10
1001.7909918591
 20
957.4462791237
 30
0.0
 40
144.8127627002997
100
AcDbArc
 50
7.6795639042
 51
10.5380728851
  0
ARC
  5
29D
330
1F
100
AcDbEntity
  8
0
  6
Continuous
 62
     7
370
    15
100
AcDbCircle
 10
722.3870242393
 20
957.4462791237
 30
0.0
 40
144.8127627002997
100
AcDbArc
 50
169.4619271149
 51
172.3204360958
  0
LWPOLYLINE
  5
29E
330
1F
100
AcDbEntity
  8
0
  6
Continuous
 62
     7
370
    15
100
AcDbPolyline
 90
       50
 70
   128
 43
0.0
 10
580.0167321722
 20
983.9309195331
 10
580.6409418146
 20
987.0935121825
 10
581.3360809843
 20
990.248713856
 10
582.101941065
 20
993.3957198909
 10
582.9383730451
 20
996.5337256244
 10
583.8451087038
 20
999.6619561961
 10
584.821969227
 20
1002.7796069434
 10
585.8686863939
 20
1005.8859030059
 10
586.9849919836
 20
1008.9800397208
 10
588.1706177751
 20
1012.0612720302
 10
589.4252657453
 20
1015.1288250735
 10
590.7486080686
 20
1018.1818941882
 10
592.1403169195
 20
1021.2197343162
 10
593.6000644724
 20
1024.241570597
 10
595.1274334947
 20
1027.2466281703
 10
596.7220663587
 20
1030.2341619781
 10
598.3835756342
 20
1033.2034567645
 10
600.1115142862
 20
1036.1536780646
 10
601.9054650823
 20
1039.0841702273
 10
603.7649809877
 20
1041.9941285899
 10
605.6895851652
 20
1044.882867699
 10
607.6787709753
 20
1047.7496722987
 10
609.7320913832
 20
1050.5937675288
 10
611.8489503424
 20
1053.4144381335
 10
614.028900818
 20
1056.2110284617
 10
616.2713318626
 20
1058.9827636531
 10
618.5757070343
 20
1061.7289880565
 10
620.9414451877
 20
1064.4490460208
 10
623.3679204742
 20
1067.1421626857
 10
625.8545666496
 20
1069.8077420047
 10
628.4007280628
 20
1072.4450091174
 10
631.0057639639
 20
1075.0534275821
 10
633.6690187017
 20
1077.6322821429
 10
636.3898366253
 20
1080.1808575442
 10
639.1675173799
 20
1082.6986173442
 10
642.0013755123
 20
1085.1849058917
 10
644.8906808655
 20
1087.6390675357
 10
647.8347032825
 20
1090.060446625
 10
650.8327126066
 20
1092.448506718
 10
653.8839637796
 20
1094.802651768
 10
656.9876521389
 20
1097.1221665195
 10
660.1430326263
 20
1099.4066337398
 10
663.3493005792
 20
1101.6553977778
 10
666.6056364338
 20
1103.8678625873
 10
669.911220626
 20
1106.0434917262
 10
673.2652335922
 20
1108.1817487529
 10
676.6668110649
 20
1110.2820972255
 10
680.1151185791
 20
1112.3440007022
 10
683.6092769663
 20
1114.3669227412
 10
687.0890110294
 20
1116.3176635554
  0
LINE
  5
29F
330
1F
100
AcDbEntity
  8
0
  6
Continuous
 62
     7
370
    15
100
AcDbLine
 10
1134.8783373396
 20
898.6759821227
 30
0.0
 11
1144.5451378385
 21
976.7980018905
 31
0.0
  0
LINE
  5
2A0
330
1F
100
AcDbEntity
  8
0
  6
Continuous
 62
     7
370
    15
100
AcDbLine
 10
589.2996787588
 20
898.6759821227
 30
0.0
 11
579.6328782598
 21
976.7980018905
 31
0.0
  0
LINE
  5
2A1
330
1F
100
AcDbEntity
  8
0
  6
Continuous
 62
     7
370
    15
100
AcDbLine
 10
687.0890110294
 20
1105.4687241366
 30
0.0
 11
690.8982395689
 21
1105.4687241366
 31
0.0
  0
LINE
  5
2A2
330
1F
100
AcDbEntity
  8
0
  6
Continuous
 62
     7
370
    15
100
AcDbLine
 10
687.0890110294
 20
1118.9037302783
 30
0.0
 11
687.0890110294
 21
1105.4687241366
 31
0.0
  0
LINE
  5
2A3
330
1F
100
AcDbEntity
  8
0
  6
Continuous
 62
     7
370
    15
100
AcDbLine
 10
704.3011486093
 20
1118.9037302783
 30
0.0
 11
687.0890110294
 21
1118.9037302783
 31
0.0
  0
LINE
  5
2A4
330
1F
100
AcDbEntity
  8
0
  6
Continuous
 62
     7
370
    15
100
AcDbLine
 10
692.8838491003
 20
1135.1672152331
 30
0.0
 11
687.0890110294
 21
1135.1672152331
 31
0.0
  0
LINE
  5
2A5
330
1F
100
AcDbEntity
  8
0
  6
Continuous
 62
     7
370
    15
100
AcDbLine
 10
687.0890110294
 20
1135.1672152331
 30
0.0
 11
687.0890110294
 21
1148.6022213748
 31
0.0
  0
LINE
  5
2A6
330
1F
100
AcDbEntity
  8
0
  6
Continuous
 62
     7
370
    15
100
AcDbLine
 10
1037.089005069
 20
1135.1672152331
 30
0.0
 11
1037.089005069
 21
1148.6022213748
 31
0.0
  0
LINE
  5
2A7
330
1F
100
AcDbEntity
  8
0
  6
Continuous
 62
     7
370
    15
100
AcDbLine
 10
1031.2941669981
 20
1135.1672152331
 30
0.0
 11
1037.089005069
 21
1135.1672152331
 31
0.0
  0
LINE
  5
2A8
330
1F
100
AcDbEntity
  8
0
  6
Continuous
 62
     7
370
    15
100
AcDbLine
 10
1019.876867489
 20
1118.9037302783
 30
0.0
 11
1037.089005069
 21
1118.9037302783
 31
0.0
  0
LINE
  5
2A9
330
1F
100
AcDbEntity
  8
0
  6
Continuous
 62
     7
370
    15
100
AcDbLine
 10
1037.089005069
 20
1118.9037302783
 30
0.0
 11
1037.089005069
 21
1105.4687241366
 31
0.0
  0
LINE
  5
2AA
330
1F
100
AcDbEntity
  8
0
  6
Continuous
 62
     7
370
    15
100
AcDbLine
 10
1037.089005069
 20
1105.4687241366
 30
0.0
 11
1033.2797765295
 21
1105.4687241366
 31
0.0
  0
LINE
  5
2AB
330
1F
100
AcDbEntity
  8
0
  6
Continuous
 62
     7
370
    15
100
AcDbLine
 10
694.0890103142
 20
1197.5326875499
 30
0.0
 11
694.0890103142
 21
1169.4618800929
 31
0.0
  0
LINE
  5
2AC
330
1F
100
AcDbEntity
  8
0
  6
Continuous
 62
     7
370
    15
100
AcDbLine
 10
862.0890080492
 20
1187.1395448497
 30
0.0
 11
694.0890103142
 21
1197.5326875499
 31
0.0
  0
LINE
  5
2AD
330
1F
100
AcDbEntity
  8
0
  6
Continuous
 62
     7
370
    15
100
AcDbLine
 10
862.0890080492
 20
1187.1395448497
 30
0.0
 11
1030.0890057842
 21
1197.5326875499
 31
0.0
  0
LINE
  5
2AE
330
1F
100
AcDbEntity
  8
0
  6
Continuous
 62
     7
370
    15
100
AcDbLine
 10
1030.0890057842
 20
1169.4618800929
 30
0.0
 11
1030.0890057842
 21
1197.5326875499
 31
0.0
  0
LINE
  5
2AF
330
1F
100
AcDbEntity
  8
0
  6
Continuous
 62
     7
370
    15
100
AcDbLine
 10
947.6927443902
 20
1169.4618800929
 30
0.0
 11
1030.0890057842
 21
1169.4618800929
 31
0.0
  0
SPLINE
  5
2B0
330
1F
100
AcDbEntity
  8
0
  6
Continuous
 62
     7
370
    15
100
AcDbSpline
210
0.0
220
0.0
230
1.0
 70
     8
 71
     3
 72
    28
 73
    24
 74
     0
 42
0.00000001
 43
0.00000001
 12
1.0
 22
0.0
 32
0.0
 13
1.0
 23
0.0
 33
0.0
 40
0.0
 40
0.0
 40
0.0
 40
0.0
 40
0.2499999999999999
 40
0.2499999999999999
 40
0.3749999999999998
 40
0.3749999999999998
 40
0.4062499999999999
 40
0.4062499999999999
 40
0.4374999999999999
 40
0.4374999999999999
 40
0.5
 40
0.5
 40
0.625
 40
0.625
 40
0.7500000000000001
 40
0.7500000000000001
 40
0.8750000000000001
 40
0.8750000000000001
 40
0.9375000000000001
 40
0.9375000000000001
 40
0.96875
 40
0.96875
 40
1.0
 40
1.0
 40
1.0
 40
1.0
 10
947.6927462853131
 20
1169.461880235733
 30
0.0
 10
934.005622156322
 20
1172.957640104694
 30
0.0
 10
920.065004363332
 20
1175.791608080101
 30
0.0
 10
898.6508857604499
 20
1178.728884884893
 30
0.0
 10
891.4287969816959
 20
1179.488551121888
 30
0.0
 10
882.2830917984501
 20
1180.129827235077
 30
0.0
 10
880.4480487228125
 20
1180.242674098009
 30
0.0
 10
876.7658473332939
 20
1180.436738763283
 30
0.0
 10
874.9154462840446
 20
1180.518052477431
 30
0.0
 10
869.3740574900609
 20
1180.712477008472
 30
0.0
 10
865.6939998715757
 20
1180.77629987023
 30
0.0
 10
854.6956200314623
 20
1180.774148526238
 30
0.0
 10
847.4191676631726
 20
1180.51419841386
 30
0.0
 10
832.9714345993148
 20
1179.507055723669
 30
0.0
 10
825.8001232426341
 20
1178.760005193575
 30
0.0
 10
811.554106883697
 20
1176.818343330293
 30
0.0
 10
804.4793715560942
 20
1175.623872489276
 30
0.0
 10
793.9324402278601
 20
1173.530237000823
 30
0.0
 10
790.4276523707746
 20
1172.782064879044
 30
0.0
 10
785.1858201772557
 20
1171.588694647769
 30
0.0
 10
783.4411009711725
 20
1171.17905290353
 30
0.0
 10
779.9566232025702
 20
1170.336787597441
 30
0.0
 10
778.216115284728
 20
1169.903946814675
 30
0.0
 10
776.4852698130517
 20
1169.461880235733
 30
0.0
  0
LINE
  5
2B1
330
1F
100
AcDbEntity
  8
0
  6
Continuous
 62
     7
370
    15
100
AcDbLine
 10
694.0890103142
 20
1169.4618800929
 30
0.0
 11
776.4852717082
 21
1169.4618800929
 31
0.0
  0
ARC
  5
2B2
330
1F
100
AcDbEntity
  8
0
  6
Continuous
 62
     7
370
    15
100
AcDbCircle
 10
866.3904272672
 20
1466.4599624681
 30
0.0
 40
307.9251982285188
100
AcDbArc
 50
282.8778592527
 51
285.309482762
  0
ARC
  5
2B3
330
1F
100
AcDbEntity
  8
0
  6
Continuous
 62
     7
370
    15
100
AcDbCircle
 10
857.7875888311
 20
1466.4599624681
 30
0.0
 40
307.9251982285188
100
AcDbArc
 50
254.690517238
 51
257.1221407473
  0
ARC
  5
2B4
330
1F
100
AcDbEntity
  8
0
  6
Continuous
 62
     7
370
    15
100
AcDbCircle
 10
693.5914857068
 20
1162.1757124498
 30
0.0
 40
7.303134235273126
100
AcDbArc
 50
86.0937106108
 51
145.8075566437
  0
LINE
  5
2B5
330
1F
100
AcDbEntity
  8
0
  6
Continuous
 62
     7
370
    15
100
AcDbLine
 10
687.0890110294
 20
1166.2798861316
 30
0.0
 11
687.0890110294
 21
1193.0159667781
 31
0.0
  0
ELLIPSE
  5
2B6
330
1F
100
AcDbEntity
  8
0
  6
Continuous
 62
     7
370
    15
100
AcDbEllipse
 10
694.0890080492
 20
1192.5829252761
 30
0.0
 11
6.974149874413116
 21
-0.8564379142869712
 31
0.0
210
0.0
220
0.0
230
1.0
 40
0.7017754025
 41
1.656763183344401
 42
3.227559510139354
  0
ARC
  5
2B7
330
1F
100
AcDbEntity
  8
0
  6
Continuous
 62
     7
370
    15
100
AcDbCircle
 10
1030.5865303916
 20
1162.1757124498
 30
0.0
 40
7.303134235273048
100
AcDbArc
 50
34.1924433563
 51
93.9062893892
  0
LINE
  5
2B8
330
1F
100
AcDbEntity
  8
0
  6
Continuous
 62
     7
370
    15
100
AcDbLine
 10
1037.089005069
 20
1193.0159667781
 30
0.0
 11
1037.089005069
 21
1166.2798861316
 31
0.0
  0
ELLIPSE
  5
2B9
330
1F
100
AcDbEntity
  8
0
  6
Continuous
 62
     7
370
    15
100
AcDbEllipse
 10
1030.0890080492
 20
1192.5829252761
 30
0.0
 11
6.974149874413116
 21
0.8564379142867438
 31
0.0
210
0.0
220
0.0
230
1.0
 40
0.7017754025
 41
6.197218450630154
 42
7.768014777425004
  0
LINE
  5
2BA
330
1F
100
AcDbEntity
  8
0
  6
Continuous
 62
     7
370
    15
100
AcDbLine
 10
687.0890110294
 20
1118.9037302783
 30
0.0
 11
687.0890110294
 21
1135.1672152331
 31
0.0
  0
LINE
  5
2BB
330
1F
100
AcDbEntity
  8
0
  6
Continuous
 62
     7
370
    15
100
AcDbLine
 10
1037.089005069
 20
1118.9037302783
 30
0.0
 11
1037.089005069
 21
1135.1672152331
 31
0.0
  0
LINE
  5
2BC
330
1F
100
AcDbEntity
  8
0
  6
Continuous
 62
     7
370
    15
100
AcDbLine
 10
580.0167321722
 20
1001.6085842898
 30
0.0
 11
580.0167321722
 21
983.9309195331
 31
0.0
  0
LWPOLYLINE
  5
2BD
330
1F
100
AcDbEntity
  8
0
  6
Continuous
 62
     7
370
    15
100
AcDbPolyline
 90
       50
 70
   128
 43
0.0
 10
580.0167321722
 20
1001.6085842898
 10
580.6409418146
 20
1004.7712067416
 10
581.3360809843
 20
1007.9263786128
 10
582.101941065
 20
1011.0733846477
 10
582.9383730451
 20
1014.2113903811
 10
583.8451087038
 20
1017.3396209529
 10
584.821969227
 20
1020.4572717002
 10
585.8686863939
 20
1023.5635677627
 10
586.9849919836
 20
1026.6577044776
 10
588.1706177751
 20
1029.7389367869
 10
589.4252657453
 20
1032.8064898303
 10
590.7486080686
 20
1035.859558945
 10
592.1403169195
 20
1038.8973692706
 10
593.6000644724
 20
1041.9192055514
 10
595.1274334947
 20
1044.9242929271
 10
596.7220663587
 20
1047.9118565372
 10
598.3835756342
 20
1050.8811215213
 10
600.1115142862
 20
1053.8313726237
 10
601.9054650823
 20
1056.7618349841
 10
603.7649809877
 20
1059.6718529513
 10
605.6895851652
 20
1062.5605920604
 10
607.6787709753
 20
1065.4273370555
 10
609.7320913832
 20
1068.2714322856
 10
611.8489503424
 20
1071.0921028903
 10
614.028900818
 20
1073.8886932185
 10
616.2713318626
 20
1076.6604284099
 10
618.5757070343
 20
1079.4066528132
 10
620.9414451877
 20
1082.1267107776
 10
623.3679204742
 20
1084.8198274425
 10
625.8545666496
 20
1087.4854067615
 10
628.4007280628
 20
1090.1226738742
 10
631.0057639639
 20
1092.7310923388
 10
633.6690187017
 20
1095.3099468997
 10
636.3898366253
 20
1097.858522301
 10
639.1675173799
 20
1100.376282101
 10
642.0013755123
 20
1102.8625706485
 10
644.8906808655
 20
1105.3167322925
 10
647.8347032825
 20
1107.7381113818
 10
650.8327126066
 20
1110.1261714747
 10
653.8839637796
 20
1112.4803165248
 10
656.9876521389
 20
1114.7998908809
 10
660.1430326263
 20
1117.0842984965
 10
663.3493005792
 20
1119.3330625346
 10
666.6056364338
 20
1121.545527344
 10
669.911220626
 20
1123.721156483
 10
673.2652335922
 20
1125.8594135097
 10
676.6668110649
 20
1127.9597619823
 10
680.1151185791
 20
1130.021665459
 10
683.6092769663
 20
1132.0446471026
 10
687.0890110294
 20
1133.9953283122
  0
LINE
  5
2BE
330
1F
100
AcDbEntity
  8
0
  6
Continuous
 62
     7
370
    15
100
AcDbLine
 10
1144.1612839262
 20
983.9309195331
 30
0.0
 11
1144.1612839262
 21
1001.6085842898
 31
0.0
  0
LWPOLYLINE
  5
2BF
330
1F
100
AcDbEntity
  8
0
  6
Continuous
 62
     7
370
    15
100
AcDbPolyline
 90
       50
 70
   128
 43
0.0
 10
1037.089005069
 20
1133.9953283122
 10
1040.5687391321
 20
1132.0446471026
 10
1044.0628975193
 20
1130.021665459
 10
1047.5112050335
 20
1127.9597619823
 10
1050.9127825062
 20
1125.8594135097
 10
1054.2667954723
 20
1123.721156483
 10
1057.5723796646
 20
1121.545527344
 10
1060.8287155191
 20
1119.3330625346
 10
1064.034983472
 20
1117.0842984965
 10
1067.1903639595
 20
1114.7998908809
 10
1070.2940523187
 20
1112.4803165248
 10
1073.3453034918
 20
1110.1261714747
 10
1076.3433128158
 20
1107.7381113818
 10
1079.2873352329
 20
1105.3167322925
 10
1082.1766405861
 20
1102.8625706485
 10
1085.0104987184
 20
1100.376282101
 10
1087.7881794731
 20
1097.858522301
 10
1090.5089973966
 20
1095.3099468997
 10
1093.1722521345
 20
1092.7310923388
 10
1095.7772880356
 20
1090.1226738742
 10
1098.3234494488
 20
1087.4854067615
 10
1100.8100956241
 20
1084.8198274425
 10
1103.2365709106
 20
1082.1267107776
 10
1105.6023090641
 20
1079.4066528132
 10
1107.9066842357
 20
1076.6604284099
 10
1110.1491152803
 20
1073.8886932185
 10
1112.329065756
 20
1071.0921028903
 10
1114.4459247152
 20
1068.2714322856
 10
1116.4992451231
 20
1065.4273370555
 10
1118.4884309332
 20
1062.5605920604
 10
1120.4130351106
 20
1059.6718529513
 10
1122.272551016
 20
1056.7618349841
 10
1124.0665018122
 20
1053.8313726237
 10
1125.7944404642
 20
1050.8811215213
 10
1127.4559497396
 20
1047.9118565372
 10
1129.0505826036
 20
1044.9242929271
 10
1130.577951626
 20
1041.9192055514
 10
1132.0376991789
 20
1038.8973692706
 10
1133.4294080297
 20
1035.859558945
 10
1134.752750353
 20
1032.8064898303
 10
1136.0073983232
 20
1029.7389367869
 10
1137.1930241148
 20
1026.6577044776
 10
1138.3093297045
 20
1023.5635677627
 10
1139.3560468714
 20
1020.4572717002
 10
1140.3329073946
 20
1017.3396209529
 10
1141.2396430532
 20
1014.2113903811
 10
1142.0760750334
 20
1011.0733846477
 10
1142.8419351141
 20
1007.9263786128
 10
1143.5370742838
 20
1004.7712067416
 10
1144.1612839262
 20
1001.6085842898
  0
LINE
  5
2C0
330
1F
100
AcDbEntity
  8
0
  6
Continuous
 62
     7
370
    15
100
AcDbLine
 10
577.2618054907
 20
887.7025584033
 30
0.0
 11
577.2618054907
 21
898.3091453364
 31
0.0
  0
LINE
  5
2C1
330
1F
100
AcDbEntity
  8
0
  6
Continuous
 62
     7
370
    15
100
AcDbLine
 10
532.0889949362
 20
952.0492593101
 30
0.0
 11
577.2618054907
 21
887.7025584033
 31
0.0
  0
LINE
  5
2C2
330
1F
100
AcDbEntity
  8
0
  6
Continuous
 62
     7
370
    15
100
AcDbLine
 10
532.0889949362
 20
952.0492593101
 30
0.0
 11
532.0889949362
 21
962.6558760455
 31
0.0
  0
LINE
  5
2C3
330
1F
100
AcDbEntity
  8
0
  6
Continuous
 62
     7
370
    15
100
AcDbLine
 10
532.0889949362
 20
962.6558760455
 30
0.0
 11
577.2618054907
 21
898.3091453364
 31
0.0
  0
LINE
  5
2C4
330
1F
100
AcDbEntity
  8
0
  6
Continuous
 62
     7
370
    15
100
AcDbLine
 10
532.0889949362
 20
962.6558760455
 30
0.0
 11
532.0889949362
 21
976.7980018905
 31
0.0
  0
LINE
  5
2C5
330
1F
100
AcDbEntity
  8
0
  6
Continuous
 62
     7
370
    15
100
AcDbLine
 10
532.0889949362
 20
976.7980018905
 30
0.0
 11
579.6328782598
 21
976.7980018905
 31
0.0
  0
LINE
  5
2C6
330
1F
100
AcDbEntity
  8
0
  6
Continuous
 62
     7
370
    15
100
AcDbLine
 10
577.2618054907
 20
898.3091453364
 30
0.0
 11
589.333713011
 21
898.3091453364
 31
0.0
  0
LINE
  5
2C7
330
1F
100
AcDbEntity
  8
0
  6
Continuous
 62
     7
370
    15
100
AcDbLine
 10
577.2618054907
 20
887.7025584033
 30
0.0
 11
588.0443751375
 21
887.7025584033
 31
0.0
  0
LINE
  5
2C8
330
1F
100
AcDbEntity
  8
0
  6
Continuous
 62
     7
370
    15
100
AcDbLine
 10
1192.0890211622
 20
976.7980018905
 30
0.0
 11
1144.5451378385
 21
976.7980018905
 31
0.0
  0
LINE
  5
2C9
330
1F
100
AcDbEntity
  8
0
  6
Continuous
 62
     7
370
    15
100
AcDbLine
 10
1192.0890211622
 20
962.6558760455
 30
0.0
 11
1192.0890211622
 21
976.7980018905
 31
0.0
  0
LINE
  5
2CA
330
1F
100
AcDbEntity
  8
0
  6
Continuous
 62
     7
370
    15
100
AcDbLine
 10
1192.0890211622
 20
962.6558760455
 30
0.0
 11
1146.9162106077
 21
898.3091453364
 31
0.0
  0
LINE
  5
2CB
330
1F
100
AcDbEntity
  8
0
  6
Continuous
 62
     7
370
    15
100
AcDbLine
 10
1146.9162106077
 20
898.3091453364
 30
0.0
 11
1134.8443030874
 21
898.3091453364
 31
0.0
  0
LINE
  5
2CC
330
1F
100
AcDbEntity
  8
0
  6
Continuous
 62
     7
370
    15
100
AcDbLine
 10
1146.9162106077
 20
887.7025584033
 30
0.0
 11
1146.9162106077
 21
898.3091453364
 31
0.0
  0
LINE
  5
2CD
330
1F
100
AcDbEntity
  8
0
  6
Continuous
 62
     7
370
    15
100
AcDbLine
 10
1146.9162106077
 20
887.7025584033
 30
0.0
 11
1136.1336409609
 21
887.7025584033
 31
0.0
  0
LINE
  5
2CE
330
1F
100
AcDbEntity
  8
0
  6
Continuous
 62
     7
370
    15
100
AcDbLine
 10
1192.0890211622
 20
952.0492593101
 30
0.0
 11
1192.0890211622
 21
962.6558760455
 31
0.0
  0
LINE
  5
2CF
330
1F
100
AcDbEntity
  8
0
  6
Continuous
 62
     7
370
    15
100
AcDbLine
 10
1192.0890211622
 20
952.0492593101
 30
0.0
 11
1146.9162106077
 21
887.7025584033
 31
0.0
  0
LINE
  5
2D0
330
1F
100
AcDbEntity
  8
0
  6
Continuous
 62
     7
370
    15
100
AcDbLine
 10
587.5889956514
 20
868.8639143756
 30
0.0
 11
585.2684974233
 21
887.7025584033
 31
0.0
  0
LINE
  5
2D1
330
1F
100
AcDbEntity
  8
0
  6
Continuous
 62
     7
370
    15
100
AcDbLine
 10
1136.5890204469
 20
868.8639143756
 30
0.0
 11
1138.909518675
 21
887.7025584033
 31
0.0
  0
LINE
  5
2D2
330
1F
100
AcDbEntity
  8
0
  6
Continuous
 62
     7
370
    15
100
AcDbLine
 10
532.0889949362
 20
918.8152293017
 30
0.0
 11
532.0889949362
 21
929.4218460372
 31
0.0
  0
LINE
  5
2D3
330
1F
100
AcDbEntity
  8
0
  6
Continuous
 62
     7
370
    15
100
AcDbLine
 10
532.0889949362
 20
929.4218460372
 30
0.0
 11
577.2618054907
 21
865.0751153281
 31
0.0
  0
LINE
  5
2D4
330
1F
100
AcDbEntity
  8
0
  6
Continuous
 62
     7
370
    15
100
AcDbLine
 10
577.2618054907
 20
865.0751153281
 30
0.0
 11
577.2618054907
 21
854.468528395
 31
0.0
  0
LINE
  5
2D5
330
1F
100
AcDbEntity
  8
0
  6
Continuous
 62
     7
370
    15
100
AcDbLine
 10
532.0889949362
 20
918.8152293017
 30
0.0
 11
577.2618054907
 21
854.468528395
 31
0.0
  0
LINE
  5
2D6
330
1F
100
AcDbEntity
  8
0
  6
Continuous
 62
     7
370
    15
100
AcDbLine
 10
547.9739605943
 20
929.4218460372
 30
0.0
 11
532.0889949362
 21
929.4218460372
 31
0.0
  0
LINE
  5
2D7
330
1F
100
AcDbEntity
  8
0
  6
Continuous
 62
     7
370
    15
100
AcDbLine
 10
577.2618054907
 20
865.0751153281
 30
0.0
 11
587.5889956514
 21
865.0751153281
 31
0.0
  0
LINE
  5
2D8
330
1F
100
AcDbEntity
  8
0
  6
Continuous
 62
     7
370
    15
100
AcDbLine
 10
577.2618054907
 20
854.468528395
 30
0.0
 11
587.5889956514
 21
854.468528395
 31
0.0
  0
LINE
  5
2D9
330
1F
100
AcDbEntity
  8
0
  6
Continuous
 62
     7
370
    15
100
AcDbLine
 10
1176.204055504
 20
929.4218460372
 30
0.0
 11
1192.0890211622
 21
929.4218460372
 31
0.0
  0
LINE
  5
2DA
330
1F
100
AcDbEntity
  8
0
  6
Continuous
 62
     7
370
    15
100
AcDbLine
 10
1192.0890211622
 20
929.4218460372
 30
0.0
 11
1146.9162106077
 21
865.0751153281
 31
0.0
  0
LINE
  5
2DB
330
1F
100
AcDbEntity
  8
0
  6
Continuous
 62
     7
370
    15
100
AcDbLine
 10
1146.9162106077
 20
865.0751153281
 30
0.0
 11
1136.5890204469
 21
865.0751153281
 31
0.0
  0
LINE
  5
2DC
330
1F
100
AcDbEntity
  8
0
  6
Continuous
 62
     7
370
    15
100
AcDbLine
 10
1146.9162106077
 20
865.0751153281
 30
0.0
 11
1146.9162106077
 21
854.468528395
 31
0.0
  0
LINE
  5
2DD
330
1F
100
AcDbEntity
  8
0
  6
Continuous
 62
     7
370
    15
100
AcDbLine
 10
1146.9162106077
 20
854.468528395
 30
0.0
 11
1136.5890204469
 21
854.468528395
 31
0.0
  0
LINE
  5
2DE
330
1F
100
AcDbEntity
  8
0
  6
Continuous
 62
     7
370
    15
100
AcDbLine
 10
1192.0890211622
 20
918.8152293017
 30
0.0
 11
1192.0890211622
 21
929.4218460372
 31
0.0
  0
LINE
  5
2DF
330
1F
100
AcDbEntity
  8
0
  6
Continuous
 62
     7
370
    15
100
AcDbLine
 10
1192.0890211622
 20
918.8152293017
 30
0.0
 11
1146.9162106077
 21
854.468528395
 31
0.0
  0
LINE
  5
2E0
330
1F
100
AcDbEntity
  8
0
  6
Continuous
 62
     7
370
    15
100
AcDbLine
 10
532.0889949362
 20
929.4218460372
 30
0.0
 11
532.0889949362
 21
932.6038101962
 31
0.0
  0
LINE
  5
2E1
330
1F
100
AcDbEntity
  8
0
  6
Continuous
 62
     7
370
    15
100
AcDbLine
 10
532.0889949362
 20
932.6038101962
 30
0.0
 11
545.7401275198
 21
932.6038101962
 31
0.0
  0
LINE
  5
2E2
330
1F
100
AcDbEntity
  8
0
  6
Continuous
 62
     7
370
    15
100
AcDbLine
 10
534.3228280107
 20
948.8672653487
 30
0.0
 11
532.0889949362
 21
948.8672653487
 31
0.0
  0
LINE
  5
2E3
330
1F
100
AcDbEntity
  8
0
  6
Continuous
 62
     7
370
    15
100
AcDbLine
 10
532.0889949362
 20
948.8672653487
 30
0.0
 11
532.0889949362
 21
952.0492593101
 31
0.0
  0
LINE
  5
2E4
330
1F
100
AcDbEntity
  8
0
  6
Continuous
 62
     7
370
    15
100
AcDbLine
 10
1189.8551880876
 20
948.8672653487
 30
0.0
 11
1192.0890211622
 21
948.8672653487
 31
0.0
  0
LINE
  5
2E5
330
1F
100
AcDbEntity
  8
0
  6
Continuous
 62
     7
370
    15
100
AcDbLine
 10
1192.0890211622
 20
932.6038101962
 30
0.0
 11
1178.4378885786
 21
932.6038101962
 31
0.0
  0
LINE
  5
2E6
330
1F
100
AcDbEntity
  8
0
  6
Continuous
 62
     7
370
    15
100
AcDbLine
 10
1192.0890211622
 20
929.4218460372
 30
0.0
 11
1192.0890211622
 21
932.6038101962
 31
0.0
  0
LINE
  5
2E7
330
1F
100
AcDbEntity
  8
0
  6
Continuous
 62
     7
370
    15
100
AcDbLine
 10
1192.0890211622
 20
948.8672653487
 30
0.0
 11
1192.0890211622
 21
952.0492593101
 31
0.0
  0
LINE
  5
2E8
330
1F
100
AcDbEntity
  8
0
  6
Continuous
 62
     7
370
    15
100
AcDbLine
 10
532.0889949362
 20
946.7459658435
 30
0.0
 11
532.0889949362
 21
948.8672653487
 31
0.0
  0
ARC
  5
2E9
330
1F
100
AcDbEntity
  8
0
  6
Continuous
 62
     7
370
    15
100
AcDbCircle
 10
538.6328358621
 20
972.1611811109
 30
0.0
 40
7.479163624869758
100
AcDbArc
 50
86.5033283305
 51
141.6864105991
  0
LINE
  5
2EA
330
1F
100
AcDbEntity
  8
0
  6
Continuous
 62
     7
370
    15
100
AcDbLine
 10
539.0889942209
 20
979.626421099
 30
0.0
 11
573.0764567415
 21
979.626421099
 31
0.0
  0
LWPOLYLINE
  5
2EB
330
1F
100
AcDbEntity
  8
0
  6
Continuous
 62
     7
370
    15
100
AcDbPolyline
 90
       15
 70
   128
 43
0.0
 10
580.0167321722
 20
983.9309195331
 10
579.8863470117
 20
983.4304193309
 10
579.6839892427
 20
982.9420486739
 10
579.41177483
 20
982.4709335616
 10
579.0725647966
 20
982.0220807841
 10
578.6699950258
 20
981.6002289107
 10
578.2082974474
 20
981.2098482898
 10
577.6923298399
 20
980.8550218394
 10
577.1275758306
 20
980.539564257
 10
576.5199958841
 20
980.2667537978
 10
575.876027302
 20
980.0395110896
 10
575.2024352114
 20
979.8602203181
 10
574.506401972
 20
979.730788832
 10
573.7952291529
 20
979.6525875381
 10
573.0764567415
 20
979.626421099
  0
LINE
  5
2EC
330
1F
100
AcDbEntity
  8
0
  6
Continuous
 62
     7
370
    15
100
AcDbLine
 10
573.0764567415
 20
979.626421099
 30
0.0
 11
573.0764567415
 21
997.3040858558
 31
0.0
  0
LWPOLYLINE
  5
2ED
330
1F
100
AcDbEntity
  8
0
  6
Continuous
 62
     7
370
    15
100
AcDbPolyline
 90
       15
 70
   128
 43
0.0
 10
573.0764567415
 20
997.3040858558
 10
573.7952291529
 20
997.3302522948
 10
574.506401972
 20
997.4084535888
 10
575.2024352114
 20
997.5378850749
 10
575.876027302
 20
997.7171758464
 10
576.5199958841
 20
997.9444185546
 10
577.1275758306
 20
998.2172290137
 10
577.6923298399
 20
998.5326865962
 10
578.2082974474
 20
998.8875130466
 10
578.6699950258
 20
999.2778936675
 10
579.0725647966
 20
999.6997455409
 10
579.41177483
 20
1000.1485983184
 10
579.6839892427
 20
1000.6197134307
 10
579.8863470117
 20
1001.1080840877
 10
580.0167321722
 20
1001.6085842898
  0
LINE
  5
2EE
330
1F
100
AcDbEntity
  8
0
  6
Continuous
 62
     7
370
    15
100
AcDbLine
 10
1151.1015593569
 20
997.3040858558
 30
0.0
 11
1151.1015593569
 21
979.626421099
 31
0.0
  0
LWPOLYLINE
  5
2EF
330
1F
100
AcDbEntity
  8
0
  6
Continuous
 62
     7
370
    15
100
AcDbPolyline
 90
       15
 70
   128
 43
0.0
 10
1151.1015593569
 20
979.626421099
 10
1150.3827869455
 20
979.6525875381
 10
1149.6716141264
 20
979.730788832
 10
1148.975580887
 20
979.8602203181
 10
1148.3019887964
 20
980.0395110896
 10
1147.6580202143
 20
980.2667537978
 10
1147.0504402677
 20
980.539564257
 10
1146.4856862585
 20
980.8550218394
 10
1145.969718651
 20
981.2098482898
 10
1145.5080210726
 20
981.6002289107
 10
1145.1054513017
 20
982.0220807841
 10
1144.7662412683
 20
982.4709335616
 10
1144.4940268556
 20
982.9420486739
 10
1144.2916690866
 20
983.4304193309
 10
1144.1612839262
 20
983.9309195331
  0
LWPOLYLINE
  5
2F0
330
1F
100
AcDbEntity
  8
0
  6
Continuous
 62
     7
370
    15
100
AcDbPolyline
 90
       15
 70
   128
 43
0.0
 10
1144.1612839262
 20
1001.6085842898
 10
1144.2916690866
 20
1001.1080840877
 10
1144.4940268556
 20
1000.6197134307
 10
1144.7662412683
 20
1000.1485983184
 10
1145.1054513017
 20
999.6997455409
 10
1145.5080210726
 20
999.2778936675
 10
1145.969718651
 20
998.8875130466
 10
1146.4856862585
 20
998.5326865962
 10
1147.0504402677
 20
998.2172290137
 10
1147.6580202143
 20
997.9444185546
 10
1148.3019887964
 20
997.7171758464
 10
1148.975580887
 20
997.5378850749
 10
1149.6716141264
 20
997.4084535888
 10
1150.3827869455
 20
997.3302522948
 10
1151.1015593569
 20
997.3040858558
  0
LINE
  5
2F1
330
1F
100
AcDbEntity
  8
0
  6
Continuous
 62
     7
370
    15
100
AcDbLine
 10
1185.0890218775
 20
979.626421099
 30
0.0
 11
1151.1015593569
 21
979.626421099
 31
0.0
  0
ARC
  5
2F2
330
1F
100
AcDbEntity
  8
0
  6
Continuous
 62
     7
370
    15
100
AcDbCircle
 10
1185.4591355214
 20
971.9687795219
 30
0.0
 40
7.6665806350149
100
AcDbArc
 50
39.0431610454
 51
92.7671000249
  0
LINE
  5
2F3
330
1F
100
AcDbEntity
  8
0
  6
Continuous
 62
     7
370
    15
100
AcDbLine
 10
1192.0890211622
 20
946.7459658435
 30
0.0
 11
1192.0890211622
 21
948.8672653487
 31
0.0
  0
LINE
  5
2F4
330
1F
100
AcDbEntity
  8
0
  6
Continuous
 62
     7
370
    15
100
AcDbLine
 10
539.0889942209
 20
1001.6709307483
 30
0.0
 11
539.0889942209
 21
979.626421099
 31
0.0
  0
LINE
  5
2F5
330
1F
100
AcDbEntity
  8
0
  6
Continuous
 62
     7
370
    15
100
AcDbLine
 10
532.0889949362
 20
976.7980018905
 30
0.0
 11
532.0889949362
 21
997.1542099765
 31
0.0
  0
ELLIPSE
  5
2F6
330
1F
100
AcDbEntity
  8
0
  6
Continuous
 62
     7
370
    15
100
AcDbEllipse
 10
539.0890080492
 20
996.7211687351
 30
0.0
 11
6.974149874413229
 21
-0.8564379142867437
 31
0.0
210
0.0
220
0.0
230
1.0
 40
0.7017754025
 41
1.656763183344372
 42
3.227559510139288
  0
LINE
  5
2F7
330
1F
100
AcDbEntity
  8
0
  6
Continuous
 62
     7
370
    15
100
AcDbLine
 10
578.6137580435
 20
999.2257694057
 30
0.0
 11
539.0889942209
 21
1001.6709307483
 31
0.0
  0
LINE
  5
2F8
330
1F
100
AcDbEntity
  8
0
  6
Continuous
 62
     7
370
    15
100
AcDbLine
 10
1145.5642580549
 20
999.2257694057
 30
0.0
 11
1185.0890218775
 21
1001.6709307483
 31
0.0
  0
LINE
  5
2F9
330
1F
100
AcDbEntity
  8
0
  6
Continuous
 62
     7
370
    15
100
AcDbLine
 10
1185.0890218775
 20
979.626421099
 30
0.0
 11
1185.0890218775
 21
1001.6709307483
 31
0.0
  0
LINE
  5
2FA
330
1F
100
AcDbEntity
  8
0
  6
Continuous
 62
     7
370
    15
100
AcDbLine
 10
1192.0890211622
 20
997.1542099765
 30
0.0
 11
1192.0890211622
 21
976.7980018905
 31
0.0
  0
ELLIPSE
  5
2FB
330
1F
100
AcDbEntity
  8
0
  6
Continuous
 62
     7
370
    15
100
AcDbEllipse
 10
1185.0890080492
 20
996.7211687351
 30
0.0
 11
6.974149874413116
 21
0.8564379142867438
 31
0.0
210
0.0
220
0.0
230
1.0
 40
0.7017754025
 41
6.197218450630127
 42
7.768014777425007
  0
LINE
  5
2FC
330
1F
100
AcDbEntity
  8
0
  6
Continuous
 62
     7
370
    15
100
AcDbLine
 10
532.0889949362
 20
932.6038101962
 30
0.0
 11
532.0889949362
 21
946.7459658435
 31
0.0
  0
LINE
  5
2FD
330
1F
100
AcDbEntity
  8
0
  6
Continuous
 62
     7
370
    15
100
AcDbLine
 10
532.0889949362
 20
946.7459658435
 30
0.0
 11
535.8120500604
 21
946.7459658435
 31
0.0
  0
LINE
  5
2FE
330
1F
100
AcDbEntity
  8
0
  6
Continuous
 62
     7
370
    15
100
AcDbLine
 10
1192.0890211622
 20
932.6038101962
 30
0.0
 11
1192.0890211622
 21
946.7459658435
 31
0.0
  0
LINE
  5
2FF
330
1F
100
AcDbEntity
  8
0
  6
Continuous
 62
     7
370
    15
100
AcDbLine
 10
1192.0890211622
 20
946.7459658435
 30
0.0
 11
1188.3659660379
 21
946.7459658435
 31
0.0
  0
LWPOLYLINE
  5
300
330
1F
100
AcDbEntity
  8
0
  6
Continuous
 62
     8
370
    15
100
AcDbPolyline
 90
      122
 70
   128
 43
0.0
 10
1136.5847587148
 20
877.1020809463
 10
1136.5790962736
 20
877.6695767692
 10
1136.4232599298
 20
882.7647606185
 10
1136.0782980482
 20
887.8553251079
 10
1135.5444490473
 20
892.9377237609
 10
1134.8220705549
 20
898.0084399035
 10
1133.9116692106
 20
903.0640164664
 10
1132.8138708631
 20
908.1009367755
 10
1131.5294503729
 20
913.1157437613
 10
1130.0592720072
 20
918.1049803546
 10
1128.404349045
 20
923.0651894858
 10
1126.5658437769
 20
927.9929736903
 10
1124.5449780981
 20
932.8849355033
 10
1122.3432123224
 20
937.7377072623
 10
1119.9620067636
 20
942.547921305
 10
1117.4030303518
 20
947.3122695735
 10
1114.668041424
 20
952.0274440101
 10
1111.7589175264
 20
956.6902557662
 10
1108.6776852171
 20
961.2974265864
 10
1105.4264455597
 20
965.8458272269
 10
1102.0074486296
 20
970.3322986415
 10
1098.4230488102
 20
974.7537711909
 10
1094.6757196943
 20
979.1071454337
 10
1090.768054084
 20
983.3894709399
 10
1086.7027341883
 20
987.5977674773
 10
1082.4825763265
 20
991.7291442206
 10
1078.110456423
 20
995.7807401469
 10
1073.5894292156
 20
999.7497836402
 10
1068.9225941459
 20
1003.6335328868
 10
1064.1131549637
 20
1007.4293056777
 10
1059.1644495289
 20
1011.1344794086
 10
1054.0798902075
 20
1014.7465208819
 10
1048.8629638712
 20
1018.2628969005
 10
1043.5172616998
 20
1021.6812232783
 10
1038.0465089838
 20
1024.9991456321
 10
1032.4544310133
 20
1028.2143393806
 10
1026.7449169914
 20
1031.3246289542
 10
1020.9218710224
 20
1034.3278387836
 10
1014.9893462221
 20
1037.2219423106
 10
1008.9513957063
 20
1040.0048831752
 10
1002.8122067015
 20
1042.6747540286
 10
996.5760111372
 20
1045.2297667315
 10
990.2470856468
 20
1047.6681331447
 10
983.8298186223
 20
1049.9881843379
 10
977.3286208073
 20
1052.1882513812
 10
970.7479774515
 20
1054.2669037631
 10
964.0924259583
 20
1056.2226513675
 10
957.3665484349
 20
1058.0541828921
 10
950.5749940435
 20
1059.7601870349
 10
943.7224268476
 20
1061.3395909122
 10
936.8135928671
 20
1062.7911428264
 10
929.8532381217
 20
1064.1140083125
 10
922.8461645107
 20
1065.3071740916
 10
915.7972074608
 20
1066.3698653033
 10
908.7112247507
 20
1067.3013070872
 10
901.5931002359
 20
1068.1009033969
 10
894.447743849
 20
1068.7680581859
 10
887.2800766985
 20
1069.3023542216
 10
880.0950441073
 20
1069.7033742717
 10
872.8975969861
 20
1069.9708799174
 10
865.6926992844
 20
1070.104692345
 10
858.485316814
 20
1070.104692345
 10
851.2804191123
 20
1069.9708799174
 10
844.0829719911
 20
1069.7033742717
 10
836.8979393999
 20
1069.3023542216
 10
829.7302722494
 20
1068.7680581859
 10
822.5849158625
 20
1068.1009033969
 10
815.4667913477
 20
1067.3013070872
 10
808.3808086376
 20
1066.3698653033
 10
801.3318515877
 20
1065.3071740916
 10
794.3247779767
 20
1064.1140083125
 10
787.3644232313
 20
1062.7911428264
 10
780.4555892507
 20
1061.3395909122
 10
773.6030220548
 20
1059.7601870349
 10
766.8114676635
 20
1058.0541828921
 10
760.08559014
 20
1056.2226513675
 10
753.4300386469
 20
1054.2669037631
 10
746.849395291
 20
1052.1882513812
 10
740.3481974761
 20
1049.9881843379
 10
733.9309304516
 20
1047.6681331447
 10
727.6020049612
 20
1045.2297667315
 10
721.3658093969
 20
1042.6747540286
 10
715.226620392
 20
1040.0048831752
 10
709.1886698763
 20
1037.2219423106
 10
703.256145076
 20
1034.3278387836
 10
697.433099107
 20
1031.3246289542
 10
691.7235850851
 20
1028.2143393806
 10
686.1315071146
 20
1024.9991456321
 10
680.6607543985
 20
1021.6812232783
 10
675.3150522272
 20
1018.2628969005
 10
670.0981258909
 20
1014.7465208819
 10
665.0135665695
 20
1011.1344794086
 10
660.0648611347
 20
1007.4293056777
 10
655.2554219524
 20
1003.6335328868
 10
650.5885868828
 20
999.7497836402
 10
646.0675596754
 20
995.7807401469
 10
641.6954397718
 20
991.7291442206
 10
637.4752819101
 20
987.5977674773
 10
633.4099620144
 20
983.3894709399
 10
629.5022964041
 20
979.1071454337
 10
625.7549672882
 20
974.7537711909
 10
622.1705674688
 20
970.3322986415
 10
618.7515705387
 20
965.8458272269
 10
615.5003308813
 20
961.2974265864
 10
612.4190985719
 20
956.6902557662
 10
609.5099746744
 20
952.0274440101
 10
606.7749857466
 20
947.3122695735
 10
604.2160093347
 20
942.547921305
 10
601.834803776
 20
937.7377072623
 10
599.6330380003
 20
932.8849355033
 10
597.6121723215
 20
927.9929736903
 10
595.7736670534
 20
923.0651894858
 10
594.1187440912
 20
918.1049803546
 10
592.6485657255
 20
913.1157437613
 10
591.3641452352
 20
908.1009367755
 10
590.2663468878
 20
903.0640164664
 10
589.3559455435
 20
898.0084399035
 10
588.6335670511
 20
892.9377237609
 10
588.0997180502
 20
887.8553251079
 10
587.7547561685
 20
882.7647606185
 10
587.5989198248
 20
877.6695767692
 10
587.5930189649
 20
877.0681062987
  0
ARC
  5
301
330
1F
100
AcDbEntity
  8
0
  6
Continuous
 62
     8
370
    15
100
AcDbCircle
 10
999.184646989
 20
876.7541068868
 30
0.0
 40
137.4493918697553
100
AcDbArc
 50
358.5335300835
 51
4.5687020394
  0
ARC
  5
302
330
1F
100
AcDbEntity
  8
0
  6
Continuous
 62
     8
370
    15
100
AcDbCircle
 10
724.9933691093
 20
876.7541068868
 30
0.0
 40
137.4493918697555
100
AcDbArc
 50
175.4312979606
 51
181.4664699165
  0
INSERT
  5
30E
330
1F
100
AcDbEntity
  8
FORMAT
100
AcDbBlockReference
  2
SW_CENTERMARKSYMBOL_0
 10
862.0890080492
 20
536.2704733661
 30
0.0
  0
ENDSEC
  0
SECTION
  2
OBJECTS
  0
DICTIONARY
  5
C
330
0
100
AcDbDictionary
281
     1
  3
ACAD_GROUP
350
D
  3
ACAD_LAYOUT
350
1A
  3
ACAD_MLINESTYLE
350
17
  3
ACAD_PLOTSETTINGS
350
19
  3
ACAD_PLOTSTYLENAME
350
E
  0
DICTIONARY
  5
D
102
{ACAD_REACTORS
330
C
102
}
330
C
100
AcDbDictionary
281
     1
  0
DICTIONARY
  5
1A
102
{ACAD_REACTORS
330
C
102
}
330
C
100
AcDbDictionary
281
     1
  3
Layout1
350
1E
  3
Layout2
350
26
  3
Model
350
22
  0
DICTIONARY
  5
17
102
{ACAD_REACTORS
330
C
102
}
330
C
100
AcDbDictionary
281
     1
  3
Standard
350
18
  0
DICTIONARY
  5
19
102
{ACAD_REACTORS
330
C
102
}
330
C
100
AcDbDictionary
281
     1
  0
ACDBDICTIONARYWDFLT
  5
E
102
{ACAD_REACTORS
330
C
102
}
330
C
100
AcDbDictionary
281
     1
  3
Normal
350
F
100
AcDbDictionaryWithDefault
340
F
  0
LAYOUT
  5
1E
102
{ACAD_REACTORS
330
1A
102
}
330
1A
100
AcDbPlotSettings
  1

  2
none_device
  4

  6

 40
0.0
 41
0.0
 42
0.0
 43
0.0
 44
0.0
 45
0.0
 46
0.0
 47
0.0
 48
0.0
 49
0.0
140
0.0
141
0.0
142
1.0
143
1.0
 70
   688
 72
     0
 73
     0
 74
     5
  7

 75
    16
147
1.0
148
0.0
149
0.0
100
AcDbLayout
  1
Layout1
 70
     1
 71
     1
 10
0.0
 20
0.0
 11
420.0
 21
297.0
 12
0.0
 22
0.0
 32
0.0
 14
1.0000000000E+20
 24
1.0000000000E+20
 34
1.0000000000E+20
 15
-1.0000000000E+20
 25
-1.0000000000E+20
 35
-1.0000000000E+20
146
0.0
 13
0.0
 23
0.0
 33
0.0
 16
1.0
 26
0.0
 36
0.0
 17
0.0
 27
1.0
 37
0.0
 76
     0
330
1B
  0
LAYOUT
  5
26
102
{ACAD_REACTORS
330
1A
102
}
330
1A
100
AcDbPlotSettings
  1

  2
none_device
  4

  6

 40
0.0
 41
0.0
 42
0.0
 43
0.0
 44
0.0
 45
0.0
 46
0.0
 47
0.0
 48
0.0
 49
0.0
140
0.0
141
0.0
142
1.0
143
1.0
 70
   688
 72
     0
 73
     0
 74
     5
  7

 75
    16
147
1.0
148
0.0
149
0.0
100
AcDbLayout
  1
Layout2
 70
     1
 71
     2
 10
0.0
 20
0.0
 11
0.0
 21
0.0
 12
0.0
 22
0.0
 32
0.0
 14
0.0
 24
0.0
 34
0.0
 15
0.0
 25
0.0
 35
0.0
146
0.0
 13
0.0
 23
0.0
 33
0.0
 16
1.0
 26
0.0
 36
0.0
 17
0.0
 27
1.0
 37
0.0
 76
     0
330
23
  0
LAYOUT
  5
22
102
{ACAD_REACTORS
330
1A
102
}
330
1A
100
AcDbPlotSettings
  1

  2
none_device
  4

  6

 40
0.0
 41
0.0
 42
0.0
 43
0.0
 44
0.0
 45
0.0
 46
0.0
 47
0.0
 48
0.0
 49
0.0
140
0.0
141
0.0
142
1.0
143
1.0
 70
  1712
 72
     0
 73
     0
 74
     0
  7

 75
     0
147
1.0
148
0.0
149
0.0
100
AcDbLayout
  1
Model
 70
     1
 71
     0
 10
0.0
 20
0.0
 11
841.0
 21
594.0
 12
0.0
 22
0.0
 32
0.0
 14
0.0
 24
0.0
 34
0.0
 15
841.0
 25
594.0
 35
0.0
146
0.0
 13
0.0
 23
0.0
 33
0.0
 16
1.0
 26
0.0
 36
0.0
 17
0.0
 27
1.0
 37
0.0
 76
     0
330
1F
331
29
  0
MLINESTYLE
  5
18
102
{ACAD_REACTORS
330
17
102
}
330
17
100
AcDbMlineStyle
  2
Standard
 70
     0
  3

 62
   256
 51
90.0
 52
90.0
 71
     2
 49
0.5
 62
   256
  6
BYLAYER
 49
-0.5
 62
   256
  6
BYLAYER
  0
ACDBPLACEHOLDER
  5
F
102
{ACAD_REACTORS
330
E
102
}
330
E
  0
ENDSEC
  0
EOF
