  0
SECTION
  2
HEADER
  9
$ACADVER
  1
AC1015
  9
$ACADMAINTVER
 70
     6
  9
$DWGCODEPAGE
  3
ANSI_936
  9
$INSBASE
 10
0.0
 20
0.0
 30
0.0
  9
$EXTMIN
 10
0.0
 20
0.0
 30
0.0
  9
$EXTMAX
 10
431.8
 20
279.4
 30
0.0
  9
$LIMMIN
 10
0.0
 20
0.0
  9
$LIMMAX
 10
431.8
 20
279.4
  9
$ORTHOMODE
 70
     0
  9
$REGENMODE
 70
     1
  9
$FILLMODE
 70
     1
  9
$QTEXTMODE
 70
     0
  9
$MIRRTEXT
 70
     1
  9
$LTSCALE
 40
1.0
  9
$ATTMODE
 70
     1
  9
$TEXTSIZE
 40
2.5
  9
$TRACEWID
 40
1.0
  9
$TEXTSTYLE
  7
Standard
  9
$CLAYER
  8
0
  9
$CELTYPE
  6
ByLayer
  9
$CECOLOR
 62
   256
  9
$CELTSCALE
 40
1.0
  9
$DISPSILH
 70
     0
  9
$DIMSCALE
 40
1.0
  9
$DIMASZ
 40
2.5
  9
$DIMEXO
 40
1.0
  9
$DIMDLI
 40
3.75
  9
$DIMRND
 40
0.0
  9
$DIMDLE
 40
0.0
  9
$DIMEXE
 40
1.0
  9
$DIMTP
 40
0.0
  9
$DIMTM
 40
0.0
  9
$DIMTXT
 40
2.5
  9
$DIMCEN
 40
2.5
  9
$DIMTSZ
 40
0.0
  9
$DIMTOL
 70
     0
  9
$DIMLIM
 70
     0
  9
$DIMTIH
 70
     1
  9
$DIMTOH
 70
     1
  9
$DIMSE1
 70
     0
  9
$DIMSE2
 70
     0
  9
$DIMTAD
 70
     1
  9
$DIMZIN
 70
     0
  9
$DIMBLK
  1

  9
$DIMASO
 70
     1
  9
$DIMSHO
 70
     1
  9
$DIMPOST
  1

  9
$DIMAPOST
  1

  9
$DIMALT
 70
     0
  9
$DIMALTD
 70
     3
  9
$DIMALTF
 40
0.0393700787
  9
$DIMLFAC
 40
1.0
  9
$DIMTOFL
 70
     1
  9
$DIMTVP
 40
0.0
  9
$DIMTIX
 70
     0
  9
$DIMSOXD
 70
     0
  9
$DIMSAH
 70
     0
  9
$DIMBLK1
  1

  9
$DIMBLK2
  1

  9
$DIMSTYLE
  2
ISO-25
  9
$DIMCLRD
 70
     0
  9
$DIMCLRE
 70
     0
  9
$DIMCLRT
 70
     0
  9
$DIMTFAC
 40
1.0
  9
$DIMGAP
 40
1.524
  9
$DIMJUST
 70
     0
  9
$DIMSD1
 70
     0
  9
$DIMSD2
 70
     0
  9
$DIMTOLJ
 70
     0
  9
$DIMTZIN
 70
     0
  9
$DIMALTZ
 70
     0
  9
$DIMALTTZ
 70
     0
  9
$DIMUPT
 70
     0
  9
$DIMDEC
 70
     2
  9
$DIMTDEC
 70
     2
  9
$DIMALTU
 70
     2
  9
$DIMALTTD
 70
     3
  9
$DIMTXSTY
  7
Standard
  9
$DIMAUNIT
 70
     0
  9
$DIMADEC
 70
     2
  9
$DIMALTRND
 40
0.0
  9
$DIMAZIN
 70
     0
  9
$DIMDSEP
 70
    44
  9
$DIMATFIT
 70
     3
  9
$DIMFRAC
 70
     0
  9
$DIMLDRBLK
  1

  9
$DIMLUNIT
 70
     2
  9
$DIMLWD
 70
    -2
  9
$DIMLWE
 70
    -2
  9
$DIMTMOVE
 70
     0
  9
$LUNITS
 70
     2
  9
$LUPREC
 70
     2
  9
$SKETCHINC
 40
1.0
  9
$FILLETRAD
 40
10.0
  9
$AUNITS
 70
     0
  9
$AUPREC
 70
     2
  9
$MENU
  1
.
  9
$ELEVATION
 40
0.0
  9
$PELEVATION
 40
0.0
  9
$THICKNESS
 40
0.0
  9
$LIMCHECK
 70
     0
  9
$CHAMFERA
 40
10.0
  9
$CHAMFERB
 40
10.0
  9
$CHAMFERC
 40
20.0
  9
$CHAMFERD
 40
0.0
  9
$SKPOLY
 70
     0
  9
$TDCREATE
 40
2457193.376819421
  9
$TDUCREATE
 40
2457193.043486088
  9
$TDUPDATE
 40
2457193.37682
  9
$TDUUPDATE
 40
2457193.043486667
  9
$TDINDWG
 40
0.0000000116
  9
$TDUSRTIMER
 40
0.0000000116
  9
$USRTIMER
 70
     1
  9
$ANGBASE
 50
0.0
  9
$ANGDIR
 70
     0
  9
$PDMODE
 70
     0
  9
$PDSIZE
 40
-1.0
  9
$PLINEWID
 40
0.0
  9
$SPLFRAME
 70
     0
  9
$SPLINETYPE
 70
     6
  9
$SPLINESEGS
 70
     8
  9
$HANDSEED
  5
3DE
  9
$SURFTAB1
 70
     6
  9
$SURFTAB2
 70
     6
  9
$SURFTYPE
 70
     6
  9
$SURFU
 70
     6
  9
$SURFV
 70
     6
  9
$UCSBASE
  2

  9
$UCSNAME
  2

  9
$UCSORG
 10
0.0
 20
0.0
 30
0.0
  9
$UCSXDIR
 10
1.0
 20
0.0
 30
0.0
  9
$UCSYDIR
 10
0.0
 20
1.0
 30
0.0
  9
$UCSORTHOREF
  2

  9
$UCSORTHOVIEW
 70
     0
  9
$UCSORGTOP
 10
0.0
 20
0.0
 30
0.0
  9
$UCSORGBOTTOM
 10
0.0
 20
0.0
 30
0.0
  9
$UCSORGLEFT
 10
0.0
 20
0.0
 30
0.0
  9
$UCSORGRIGHT
 10
0.0
 20
0.0
 30
0.0
  9
$UCSORGFRONT
 10
0.0
 20
0.0
 30
0.0
  9
$UCSORGBACK
 10
0.0
 20
0.0
 30
0.0
  9
$PUCSBASE
  2

  9
$PUCSNAME
  2

  9
$PUCSORG
 10
0.0
 20
0.0
 30
0.0
  9
$PUCSXDIR
 10
1.0
 20
0.0
 30
0.0
  9
$PUCSYDIR
 10
0.0
 20
1.0
 30
0.0
  9
$PUCSORTHOREF
  2

  9
$PUCSORTHOVIEW
 70
     0
  9
$PUCSORGTOP
 10
0.0
 20
0.0
 30
0.0
  9
$PUCSORGBOTTOM
 10
0.0
 20
0.0
 30
0.0
  9
$PUCSORGLEFT
 10
0.0
 20
0.0
 30
0.0
  9
$PUCSORGRIGHT
 10
0.0
 20
0.0
 30
0.0
  9
$PUCSORGFRONT
 10
0.0
 20
0.0
 30
0.0
  9
$PUCSORGBACK
 10
0.0
 20
0.0
 30
0.0
  9
$USERI1
 70
     0
  9
$USERI2
 70
     0
  9
$USERI3
 70
     0
  9
$USERI4
 70
     0
  9
$USERI5
 70
     0
  9
$USERR1
 40
0.0
  9
$USERR2
 40
0.0
  9
$USERR3
 40
0.0
  9
$USERR4
 40
0.0
  9
$USERR5
 40
0.0
  9
$WORLDVIEW
 70
     1
  9
$SHADEDGE
 70
     3
  9
$SHADEDIF
 70
    70
  9
$TILEMODE
 70
     1
  9
$MAXACTVP
 70
    64
  9
$PINSBASE
 10
0.0
 20
0.0
 30
0.0
  9
$PLIMCHECK
 70
     0
  9
$PEXTMIN
 10
1.0000000000E+20
 20
1.0000000000E+20
 30
1.0000000000E+20
  9
$PEXTMAX
 10
-1.0000000000E+20
 20
-1.0000000000E+20
 30
-1.0000000000E+20
  9
$PLIMMIN
 10
0.0
 20
0.0
  9
$PLIMMAX
 10
420.0
 20
297.0
  9
$UNITMODE
 70
     0
  9
$VISRETAIN
 70
     1
  9
$PLINEGEN
 70
     0
  9
$PSLTSCALE
 70
     1
  9
$TREEDEPTH
 70
  3020
  9
$CMLSTYLE
  2
Standard
  9
$CMLJUST
 70
     0
  9
$CMLSCALE
 40
20.0
  9
$PROXYGRAPHICS
 70
     1
  9
$MEASUREMENT
 70
     1
  9
$CELWEIGHT
370
    -1
  9
$ENDCAPS
280
     0
  9
$JOINSTYLE
280
     0
  9
$LWDISPLAY
290
     1
  9
$INSUNITS
 70
     4
  9
$HYPERLINKBASE
  1

  9
$STYLESHEET
  1

  9
$XEDIT
290
     1
  9
$CEPSNTYPE
380
     0
  9
$PSTYLEMODE
290
     1
  9
$FINGERPRINTGUID
  2
{159AF7B3-C7B0-4A00-BDD3-9469FC052720}
  9
$VERSIONGUID
  2
{FAEB1C32-E019-11D5-929B-00C0DF256EC4}
  9
$EXTNAMES
290
     1
  9
$PSVPSCALE
 40
0.0
  9
$OLESTARTUP
290
     0
  0
ENDSEC
  0
SECTION
  2
CLASSES
  0
CLASS
  1
ACDBDICTIONARYWDFLT
  2
AcDbDictionaryWithDefault
  3
ObjectDBX Classes
 90
        0
280
     0
281
     0
  0
CLASS
  1
VISUALSTYLE
  2
AcDbVisualStyle
  3
ObjectDBX Classes
 90
     4095
280
     0
281
     0
  0
CLASS
  1
MATERIAL
  2
AcDbMaterial
  3
ObjectDBX Classes
 90
     1153
280
     0
281
     0
  0
CLASS
  1
ACDBPLACEHOLDER
  2
AcDbPlaceHolder
  3
ObjectDBX Classes
 90
        0
280
     0
281
     0
  0
CLASS
  1
LAYOUT
  2
AcDbLayout
  3
ObjectDBX Classes
 90
        0
280
     0
281
     0
  0
ENDSEC
  0
SECTION
  2
TABLES
  0
TABLE
  2
VPORT
  5
8
330
0
100
AcDbSymbolTable
 70
     1
  0
VPORT
  5
29
330
8
100
AcDbSymbolTableRecord
100
AcDbViewportTableRecord
  2
*Active
 70
     0
 10
0.0
 20
0.0
 11
1.0
 21
1.0
 12
215.9
 22
139.7
 13
0.0
 23
0.0
 14
10.0
 24
10.0
 15
10.0
 25
10.0
 16
0.0
 26
0.0
 36
1.0
 17
0.0
 27
0.0
 37
0.0
 40
279.4
 41
1.5454545455
 42
50.0
 43
0.0
 44
0.0
 50
0.0
 51
0.0
 71
     0
 72
  2000
 73
     1
 74
     3
 75
     0
 76
     0
 77
     0
 78
     0
281
     0
 65
     1
110
0.0
120
0.0
130
0.0
111
1.0
121
0.0
131
0.0
112
0.0
122
1.0
132
0.0
 79
     0
146
0.0
  0
ENDTAB
  0
TABLE
  2
LTYPE
  5
5
330
0
100
AcDbSymbolTable
 70
     6
  0
LTYPE
  5
14
330
5
100
AcDbSymbolTableRecord
100
AcDbLinetypeTableRecord
  2
ByBlock
 70
     0
  3

 72
    65
 73
     0
 40
0.0
  0
LTYPE
  5
15
330
5
100
AcDbSymbolTableRecord
100
AcDbLinetypeTableRecord
  2
ByLayer
 70
     0
  3

 72
    65
 73
     0
 40
0.0
  0
LTYPE
  5
16
330
5
100
AcDbSymbolTableRecord
100
AcDbLinetypeTableRecord
  2
Continuous
 70
     0
  3
Solid line
 72
    65
 73
     0
 40
0.0
  0
LTYPE
  5
3F
330
5
100
AcDbSymbolTableRecord
100
AcDbLinetypeTableRecord
  2
HIDDEN
 70
     0
  3
Hidden __ __ __ __ __ __ __ __ __ __ __ __ __ __
 72
    65
 73
     2
 40
1.905
 49
1.27
 74
     0
 49
-0.635
 74
     0
  0
LTYPE
  5
40
330
5
100
AcDbSymbolTableRecord
100
AcDbLinetypeTableRecord
  2
PHANTOM
 70
     0
  3
Phantom ______  __  __  ______  __  __  ______
 72
    65
 73
     6
 40
12.7
 49
6.35
 74
     0
 49
-1.27
 74
     0
 49
1.27
 74
     0
 49
-1.27
 74
     0
 49
1.27
 74
     0
 49
-1.27
 74
     0
  0
LTYPE
  5
41
330
5
100
AcDbSymbolTableRecord
100
AcDbLinetypeTableRecord
  2
CENTER
 70
     0
  3
Center ____ _ ____ _ ____ _ ____ _ ____ _ ____
 72
    65
 73
     4
 40
10.16
 49
6.35
 74
     0
 49
-1.27
 74
     0
 49
1.27
 74
     0
 49
-1.27
 74
     0
  0
LTYPE
  5
42
330
5
100
AcDbSymbolTableRecord
100
AcDbLinetypeTableRecord
  2
CENTERX2
 70
     0
  3
Center (2x) ________  __  ________  __  _____
 72
    65
 73
     4
 40
20.32
 49
12.7
 74
     0
 49
-2.54
 74
     0
 49
2.54
 74
     0
 49
-2.54
 74
     0
  0
LTYPE
  5
43
330
5
100
AcDbSymbolTableRecord
100
AcDbLinetypeTableRecord
  2
DOT2
 70
     0
  3
Dot (.5x) ........................................
 72
    65
 73
     2
 40
0.635
 49
0.0
 74
     0
 49
-0.635
 74
     0
  0
ENDTAB
  0
TABLE
  2
LAYER
  5
2
330
0
100
AcDbSymbolTable
 70
     3
  0
LAYER
  5
10
330
2
100
AcDbSymbolTableRecord
100
AcDbLayerTableRecord
  2
0
 70
     0
 62
     7
  6
Continuous
370
    -3
390
F
  0
LAYER
  5
44
330
2
100
AcDbSymbolTableRecord
100
AcDbLayerTableRecord
  2
FORMAT
 70
     0
 62
     7
  6
Continuous
370
    -3
390
F
  0
LAYER
  5
45
330
2
100
AcDbSymbolTableRecord
100
AcDbLayerTableRecord
  2
PROTOTYPE
 70
     0
 62
    -7
  6
Continuous
370
    -3
390
F
  0
ENDTAB
  0
TABLE
  2
STYLE
  5
3
330
0
100
AcDbSymbolTable
 70
     2
  0
STYLE
  5
11
330
3
100
AcDbSymbolTableRecord
100
AcDbTextStyleTableRecord
  2
Standard
 70
     0
 40
0.0
 41
1.0
 50
0.0
 71
     0
 42
2.5
  3
txt
  4

  0
STYLE
  5
46
330
3
100
AcDbSymbolTableRecord
100
AcDbTextStyleTableRecord
  2
SLDTEXTSTYLE0
 70
     0
 40
0.0
 41
0.75
 50
0.0
 71
     0
 42
0.2
  3
TXT
  4

  0
ENDTAB
  0
TABLE
  2
VIEW
  5
6
330
0
100
AcDbSymbolTable
 70
     0
  0
ENDTAB
  0
TABLE
  2
UCS
  5
7
330
0
100
AcDbSymbolTable
 70
     0
  0
ENDTAB
  0
TABLE
  2
APPID
  5
9
330
0
100
AcDbSymbolTable
 70
     1
  0
APPID
  5
12
330
9
100
AcDbSymbolTableRecord
100
AcDbRegAppTableRecord
  2
ACAD
 70
     0
  0
ENDTAB
  0
TABLE
  2
DIMSTYLE
  5
A
330
0
100
AcDbSymbolTable
 70
     1
100
AcDbDimStyleTable
  0
DIMSTYLE
105
27
330
A
100
AcDbSymbolTableRecord
100
AcDbDimStyleTableRecord
  2
ISO-25
 70
     0
 41
2.5
 42
0.625
 43
3.75
 44
1.25
 73
     0
 74
     0
 77
     1
 78
     8
140
2.5
141
2.5
143
0.0393700787
147
0.625
171
     3
172
     1
178
     0
271
     2
272
     2
274
     3
278
    44
283
     0
284
     8
340
11
  0
ENDTAB
  0
TABLE
  2
BLOCK_RECORD
  5
1
330
0
100
AcDbSymbolTable
 70
     2
  0
BLOCK_RECORD
  5
1F
330
1
100
AcDbSymbolTableRecord
100
AcDbBlockTableRecord
  2
*Model_Space
340
22
  0
BLOCK_RECORD
  5
1B
330
1
100
AcDbSymbolTableRecord
100
AcDbBlockTableRecord
  2
*Paper_Space
340
1E
  0
BLOCK_RECORD
  5
23
330
1
100
AcDbSymbolTableRecord
100
AcDbBlockTableRecord
  2
*Paper_Space0
340
26
  0
BLOCK_RECORD
  5
29B
330
1
100
AcDbSymbolTableRecord
100
AcDbBlockTableRecord
  2
SW_CENTERMARKSYMBOL_0
340
0
102
{BLKREFS
331
2A6
102
}
  0
ENDTAB
  0
ENDSEC
  0
SECTION
  2
BLOCKS
  0
BLOCK
  5
20
330
1F
100
AcDbEntity
  8
0
100
AcDbBlockBegin
  2
*Model_Space
 70
     0
 10
0.0
 20
0.0
 30
0.0
  3
*Model_Space
  1

  0
ENDBLK
  5
21
330
1F
100
AcDbEntity
  8
0
100
AcDbBlockEnd
  0
BLOCK
  5
1C
330
1B
100
AcDbEntity
 67
     1
  8
0
100
AcDbBlockBegin
  2
*Paper_Space
 70
     0
 10
0.0
 20
0.0
 30
0.0
  3
*Paper_Space
  1

  0
ENDBLK
  5
1D
330
1B
100
AcDbEntity
 67
     1
  8
0
100
AcDbBlockEnd
  0
BLOCK
  5
24
330
23
100
AcDbEntity
  8
0
100
AcDbBlockBegin
  2
*Paper_Space0
 70
     0
 10
0.0
 20
0.0
 30
0.0
  3
*Paper_Space0
  1

  0
ENDBLK
  5
25
330
23
100
AcDbEntity
  8
0
100
AcDbBlockEnd
  0
BLOCK
  5
29C
330
29B
100
AcDbEntity
  8
0
100
AcDbBlockBegin
  2
SW_CENTERMARKSYMBOL_0
 70
     0
 10
0.0
 20
0.0
 30
0.0
  3
SW_CENTERMARKSYMBOL_0
  1

  0
LINE
  5
29E
330
29B
100
AcDbEntity
  8
0
  6
Continuous
 62
     0
370
     0
100
AcDbLine
 10
0.0
 20
0.0
 30
0.0
 11
0.0
 21
2.5
 31
0.0
  0
LINE
  5
29F
330
29B
100
AcDbEntity
  8
0
  6
Continuous
 62
     0
370
     0
100
AcDbLine
 10
0.0
 20
0.0
 30
0.0
 11
-2.5
 21
0.0
 31
0.0
  0
LINE
  5
2A0
330
29B
100
AcDbEntity
  8
0
  6
Continuous
 62
     0
370
     0
100
AcDbLine
 10
0.0
 20
0.0
 30
0.0
 11
0.0
 21
-2.5
 31
0.0
  0
LINE
  5
2A1
330
29B
100
AcDbEntity
  8
0
  6
Continuous
 62
     0
370
     0
100
AcDbLine
 10
0.0
 20
0.0
 30
0.0
 11
2.5
 21
0.0
 31
0.0
  0
LINE
  5
2A2
330
29B
100
AcDbEntity
  8
0
  6
Continuous
 62
     0
370
     0
100
AcDbLine
 10
0.0
 20
5.0
 30
0.0
 11
0.0
 21
96.6694950898
 31
0.0
  0
LINE
  5
2A3
330
29B
100
AcDbEntity
  8
0
  6
Continuous
 62
     0
370
     0
100
AcDbLine
 10
-5.0
 20
0.0
 30
0.0
 11
-95.2594792652
 21
0.0
 31
0.0
  0
LINE
  5
2A4
330
29B
100
AcDbEntity
  8
0
  6
Continuous
 62
     0
370
     0
100
AcDbLine
 10
0.0
 20
-5.0
 30
0.0
 11
0.0
 21
-98.3323792418
 31
0.0
  0
LINE
  5
2A5
330
29B
100
AcDbEntity
  8
0
  6
Continuous
 62
     0
370
     0
100
AcDbLine
 10
5.0
 20
0.0
 30
0.0
 11
95.1720386368
 21
0.0
 31
0.0
  0
ENDBLK
  5
29D
330
29B
100
AcDbEntity
  8
0
100
AcDbBlockEnd
  0
ENDSEC
  0
SECTION
  2
ENTITIES
  0
MTEXT
  5
47
330
1F
100
AcDbEntity
  8
PROTOTYPE
100
AcDbMText
 10
21.9960649267
 20
83.9475080305
 30
0.0
 40
3.5
 41
0.0
 71
     1
 72
     1
  1
Prototype:
  7
SLDTEXTSTYLE0
 11
0.7071067811865464
 21
0.7071067811865488
 31
0.0
 73
     1
 44
1.0
  0
LINE
  5
48
330
1F
100
AcDbEntity
  8
0
  6
Continuous
 62
     7
370
    15
100
AcDbLine
 10
48.2628322581
 20
137.1085041453
 30
0.0
 11
53.2628312151
 21
137.1085041453
 31
0.0
  0
LINE
  5
49
330
1F
100
AcDbEntity
  8
0
  6
Continuous
 62
     7
370
    15
100
AcDbLine
 10
53.2628312151
 20
322.1085065295
 30
0.0
 11
48.2628322581
 21
322.1085065295
 31
0.0
  0
LINE
  5
4A
330
1F
100
AcDbEntity
  8
0
  6
Continuous
 62
     7
370
    15
100
AcDbLine
 10
54.6581889878
 20
163.7335040857
 30
0.0
 11
55.284604002
 21
175.6862023164
 31
0.0
  0
LINE
  5
4B
330
1F
100
AcDbEntity
  8
0
  6
Continuous
 62
     7
370
    15
100
AcDbLine
 10
53.2628312151
 20
137.1085041453
 30
0.0
 11
53.9637818376
 21
150.4834362556
 31
0.0
  0
LINE
  5
4C
330
1F
100
AcDbEntity
  8
0
  6
Continuous
 62
     7
370
    15
100
AcDbLine
 10
53.9637818376
 20
308.7335744192
 30
0.0
 11
53.2628312151
 21
322.1085065295
 31
0.0
  0
LINE
  5
4D
330
1F
100
AcDbEntity
  8
0
  6
Continuous
 62
     7
370
    15
100
AcDbLine
 10
55.284604002
 20
283.5308083583
 30
0.0
 11
54.6581889878
 21
295.4835065891
 31
0.0
  0
LINE
  5
4E
330
1F
100
AcDbEntity
  8
0
  6
Continuous
 62
     7
370
    15
100
AcDbLine
 10
37.2628318521
 20
235.6085053895
 30
0.0
 11
48.2628322581
 21
235.0320199755
 31
0.0
  0
LINE
  5
4F
330
1F
100
AcDbEntity
  8
0
  6
Continuous
 62
     7
370
    15
100
AcDbLine
 10
48.2628322581
 20
224.1849906993
 30
0.0
 11
37.2628318521
 21
223.6085052852
 31
0.0
  0
ARC
  5
50
330
1F
100
AcDbEntity
  8
0
  6
Continuous
 62
     7
370
    15
100
AcDbCircle
 10
64.1355033453
 20
229.6085053374
 30
0.0
 40
22.67267151925522
100
AcDbArc
 50
165.3318943599
 51
194.6681056401
  0
LINE
  5
51
330
1F
100
AcDbEntity
  8
0
  6
Continuous
 62
     7
370
    15
100
AcDbLine
 10
161.8528324554
 20
217.6085052331
 30
0.0
 11
164.3528300713
 21
217.6085052331
 31
0.0
  0
LINE
  5
52
330
1F
100
AcDbEntity
  8
0
  6
Continuous
 62
     7
370
    15
100
AcDbLine
 10
164.3528300713
 20
241.6085054417
 30
0.0
 11
161.8528324554
 21
241.6085054417
 31
0.0
  0
LINE
  5
53
330
1F
100
AcDbEntity
  8
0
  6
Continuous
 62
     7
370
    15
100
AcDbLine
 10
181.2628317068
 20
221.6085049574
 30
0.0
 11
181.7628252695
 21
221.6085049574
 31
0.0
  0
LINE
  5
54
330
1F
100
AcDbEntity
  8
0
  6
Continuous
 62
     7
370
    15
100
AcDbLine
 10
181.7628252695
 20
237.6085057174
 30
0.0
 11
181.2628317068
 21
237.6085057174
 31
0.0
  0
LINE
  5
55
330
1F
100
AcDbEntity
  8
0
  6
Continuous
 62
     7
370
    15
100
AcDbLine
 10
181.7628252695
 20
223.1085052033
 30
0.0
 11
193.2628262232
 21
223.1085052033
 31
0.0
  0
LINE
  5
56
330
1F
100
AcDbEntity
  8
0
  6
Continuous
 62
     7
370
    15
100
AcDbLine
 10
193.2628262232
 20
236.1085054715
 30
0.0
 11
181.7628252695
 21
236.1085054715
 31
0.0
  0
LINE
  5
57
330
1F
100
AcDbEntity
  8
0
  6
Continuous
 62
     7
370
    15
100
AcDbLine
 10
174.3528354357
 20
223.6085052852
 30
0.0
 11
181.2628317068
 21
223.6085052852
 31
0.0
  0
LINE
  5
58
330
1F
100
AcDbEntity
  8
0
  6
Continuous
 62
     7
370
    15
100
AcDbLine
 10
181.2628317068
 20
235.6085053895
 30
0.0
 11
174.3528354357
 21
235.6085053895
 31
0.0
  0
LINE
  5
59
330
1F
100
AcDbEntity
  8
0
  6
Continuous
 62
     7
370
    15
100
AcDbLine
 10
57.0628322105
 20
223.6085052852
 30
0.0
 11
156.6286418031
 21
223.6085052852
 31
0.0
  0
LINE
  5
5A
330
1F
100
AcDbEntity
  8
0
  6
Continuous
 62
     7
370
    15
100
AcDbLine
 10
161.6286444853
 20
223.6085052852
 30
0.0
 11
161.8528324554
 21
223.6085052852
 31
0.0
  0
LINE
  5
5B
330
1F
100
AcDbEntity
  8
0
  6
Continuous
 62
     7
370
    15
100
AcDbLine
 10
161.8528324554
 20
235.6085053895
 30
0.0
 11
161.6286444853
 21
235.6085053895
 31
0.0
  0
LINE
  5
5C
330
1F
100
AcDbEntity
  8
0
  6
Continuous
 62
     7
370
    15
100
AcDbLine
 10
156.6286418031
 20
235.6085053895
 30
0.0
 11
57.0628322105
 21
235.6085053895
 31
0.0
  0
ARC
  5
5D
330
1F
100
AcDbEntity
  8
0
  6
Continuous
 62
     7
370
    15
100
AcDbCircle
 10
130.0237321948
 20
177.1085053374
 30
0.0
 40
3.000000000000041
100
AcDbArc
 50
220.0
 51
270.0
  0
ARC
  5
5E
330
1F
100
AcDbEntity
  8
0
  6
Continuous
 62
     7
370
    15
100
AcDbCircle
 10
130.0237321948
 20
282.1085053374
 30
0.0
 40
3.000000000000023
100
AcDbArc
 50
90.0
 51
140.0
  0
LINE
  5
5F
330
1F
100
AcDbEntity
  8
0
  6
Continuous
 62
     7
370
    15
100
AcDbLine
 10
130.023728628
 20
174.1085046221
 30
0.0
 11
130.8628353665
 21
174.1085046221
 31
0.0
  0
LINE
  5
60
330
1F
100
AcDbEntity
  8
0
  6
Continuous
 62
     7
370
    15
100
AcDbLine
 10
130.8628353665
 20
285.1085060526
 30
0.0
 11
130.023728628
 21
285.1085060526
 31
0.0
  0
ARC
  5
61
330
1F
100
AcDbEntity
  8
0
  6
Continuous
 62
     7
370
    15
100
AcDbCircle
 10
130.862831826
 20
176.1085053374
 30
0.0
 40
2.000000000000006
100
AcDbArc
 50
270.0
 51
314.4270040008
  0
ARC
  5
62
330
1F
100
AcDbEntity
  8
0
  6
Continuous
 62
     7
370
    15
100
AcDbCircle
 10
130.862831826
 20
283.1085053374
 30
0.0
 40
2.0
100
AcDbArc
 50
45.5729959992
 51
90.0
  0
LINE
  5
63
330
1F
100
AcDbEntity
  8
0
  6
Continuous
 62
     7
370
    15
100
AcDbLine
 10
127.7255970428
 20
284.0368666936
 30
0.0
 11
124.9471414278
 21
280.7256349613
 31
0.0
  0
LINE
  5
64
330
1F
100
AcDbEntity
  8
0
  6
Continuous
 62
     7
370
    15
100
AcDbLine
 10
124.9471414278
 20
178.4913757135
 30
0.0
 11
127.7255970428
 21
175.1801439811
 31
0.0
  0
LINE
  5
65
330
1F
100
AcDbEntity
  8
0
  6
Continuous
 62
     7
370
    15
100
AcDbLine
 10
55.284604002
 20
175.6862023164
 30
0.0
 11
120.7681405733
 21
180.2652583708
 31
0.0
  0
LINE
  5
66
330
1F
100
AcDbEntity
  8
0
  6
Continuous
 62
     7
370
    15
100
AcDbLine
 10
120.7681405733
 20
278.951752304
 30
0.0
 11
55.284604002
 21
283.5308083583
 31
0.0
  0
ARC
  5
67
330
1F
100
AcDbEntity
  8
0
  6
Continuous
 62
     7
370
    15
100
AcDbCircle
 10
121.1169219349
 20
175.2774378484
 30
0.0
 40
5.000000000000009
100
AcDbArc
 50
40.0
 51
94.0
  0
ARC
  5
68
330
1F
100
AcDbEntity
  8
0
  6
Continuous
 62
     7
370
    15
100
AcDbCircle
 10
121.1169219349
 20
283.9395728264
 30
0.0
 40
5.000000000000009
100
AcDbArc
 50
266.0
 51
320.0
  0
LINE
  5
69
330
1F
100
AcDbEntity
  8
0
  6
Continuous
 62
     7
370
    15
100
AcDbLine
 10
162.6286316107
 20
278.6085040559
 30
0.0
 11
161.6286444853
 21
278.6085040559
 31
0.0
  0
LINE
  5
6A
330
1F
100
AcDbEntity
  8
0
  6
Continuous
 62
     7
370
    15
100
AcDbLine
 10
161.6286444853
 20
180.6085066189
 30
0.0
 11
162.6286316107
 21
180.6085066189
 31
0.0
  0
ARC
  5
6B
330
1F
100
AcDbEntity
  8
0
  6
Continuous
 62
     7
370
    15
100
AcDbCircle
 10
162.6286383487
 20
276.6085053374
 30
0.0
 40
2.0
100
AcDbArc
 50
0.0
 51
90.0
  0
ARC
  5
6C
330
1F
100
AcDbEntity
  8
0
  6
Continuous
 62
     7
370
    15
100
AcDbCircle
 10
162.6286383487
 20
182.6085053374
 30
0.0
 40
2.0
100
AcDbArc
 50
270.0
 51
0.0
  0
LINE
  5
6D
330
1F
100
AcDbEntity
  8
0
  6
Continuous
 62
     7
370
    15
100
AcDbLine
 10
161.8528324554
 20
290.1085050095
 30
0.0
 11
164.3528300713
 21
290.1085050095
 31
0.0
  0
LINE
  5
6E
330
1F
100
AcDbEntity
  8
0
  6
Continuous
 62
     7
370
    15
100
AcDbLine
 10
164.3528300713
 20
314.1085052182
 30
0.0
 11
161.8528324554
 21
314.1085052182
 31
0.0
  0
LINE
  5
6F
330
1F
100
AcDbEntity
  8
0
  6
Continuous
 62
     7
370
    15
100
AcDbLine
 10
161.8528324554
 20
145.1085054566
 30
0.0
 11
164.3528300713
 21
145.1085054566
 31
0.0
  0
LINE
  5
70
330
1F
100
AcDbEntity
  8
0
  6
Continuous
 62
     7
370
    15
100
AcDbLine
 10
164.3528300713
 20
169.1085056652
 30
0.0
 11
161.8528324554
 21
169.1085056652
 31
0.0
  0
LINE
  5
71
330
1F
100
AcDbEntity
  8
0
  6
Continuous
 62
     7
370
    15
100
AcDbLine
 10
181.2628317068
 20
294.1085019399
 30
0.0
 11
181.7628252695
 21
294.1085019399
 31
0.0
  0
LINE
  5
72
330
1F
100
AcDbEntity
  8
0
  6
Continuous
 62
     7
370
    15
100
AcDbLine
 10
181.7628252695
 20
310.1085045625
 30
0.0
 11
181.2628317068
 21
310.1085045625
 31
0.0
  0
LINE
  5
73
330
1F
100
AcDbEntity
  8
0
  6
Continuous
 62
     7
370
    15
100
AcDbLine
 10
181.2628317068
 20
149.1085061122
 30
0.0
 11
181.7628252695
 21
149.1085061122
 31
0.0
  0
LINE
  5
74
330
1F
100
AcDbEntity
  8
0
  6
Continuous
 62
     7
370
    15
100
AcDbLine
 10
181.7628252695
 20
165.1085087348
 30
0.0
 11
181.2628317068
 21
165.1085087348
 31
0.0
  0
LINE
  5
75
330
1F
100
AcDbEntity
  8
0
  6
Continuous
 62
     7
370
    15
100
AcDbLine
 10
181.7628252695
 20
295.6085049797
 30
0.0
 11
193.2628262232
 21
295.6085049797
 31
0.0
  0
LINE
  5
76
330
1F
100
AcDbEntity
  8
0
  6
Continuous
 62
     7
370
    15
100
AcDbLine
 10
193.2628262232
 20
308.6085089733
 30
0.0
 11
181.7628252695
 21
308.6085089733
 31
0.0
  0
LINE
  5
77
330
1F
100
AcDbEntity
  8
0
  6
Continuous
 62
     7
370
    15
100
AcDbLine
 10
181.7628252695
 20
150.6085017015
 30
0.0
 11
193.2628262232
 21
150.6085017015
 31
0.0
  0
LINE
  5
78
330
1F
100
AcDbEntity
  8
0
  6
Continuous
 62
     7
370
    15
100
AcDbLine
 10
193.2628262232
 20
163.608505695
 30
0.0
 11
181.7628252695
 21
163.608505695
 31
0.0
  0
LINE
  5
79
330
1F
100
AcDbEntity
  8
0
  6
Continuous
 62
     7
370
    15
100
AcDbLine
 10
174.3528354357
 20
296.108505993
 30
0.0
 11
181.2628317068
 21
296.108505993
 31
0.0
  0
LINE
  5
7A
330
1F
100
AcDbEntity
  8
0
  6
Continuous
 62
     7
370
    15
100
AcDbLine
 10
181.2628317068
 20
308.10850796
 30
0.0
 11
174.3528354357
 21
308.10850796
 31
0.0
  0
LINE
  5
7B
330
1F
100
AcDbEntity
  8
0
  6
Continuous
 62
     7
370
    15
100
AcDbLine
 10
57.0628322105
 20
296.108505993
 30
0.0
 11
135.1469415615
 21
296.108505993
 31
0.0
  0
LINE
  5
7C
330
1F
100
AcDbEntity
  8
0
  6
Continuous
 62
     7
370
    15
100
AcDbLine
 10
161.6286444853
 20
296.108505993
 30
0.0
 11
161.8528324554
 21
296.108505993
 31
0.0
  0
LINE
  5
7D
330
1F
100
AcDbEntity
  8
0
  6
Continuous
 62
     7
370
    15
100
AcDbLine
 10
161.8528324554
 20
308.10850796
 30
0.0
 11
161.6286444853
 21
308.10850796
 31
0.0
  0
LINE
  5
7E
330
1F
100
AcDbEntity
  8
0
  6
Continuous
 62
     7
370
    15
100
AcDbLine
 10
149.2625805924
 20
308.10850796
 30
0.0
 11
57.0628322105
 21
308.10850796
 31
0.0
  0
LINE
  5
7F
330
1F
100
AcDbEntity
  8
0
  6
Continuous
 62
     7
370
    15
100
AcDbLine
 10
57.0628322105
 20
151.1085027148
 30
0.0
 11
149.2625805924
 21
151.1085027148
 31
0.0
  0
LINE
  5
80
330
1F
100
AcDbEntity
  8
0
  6
Continuous
 62
     7
370
    15
100
AcDbLine
 10
161.6286444853
 20
151.1085027148
 30
0.0
 11
161.8528324554
 21
151.1085027148
 31
0.0
  0
LINE
  5
81
330
1F
100
AcDbEntity
  8
0
  6
Continuous
 62
     7
370
    15
100
AcDbLine
 10
161.8528324554
 20
163.1085046817
 30
0.0
 11
161.6286444853
 21
163.1085046817
 31
0.0
  0
LINE
  5
82
330
1F
100
AcDbEntity
  8
0
  6
Continuous
 62
     7
370
    15
100
AcDbLine
 10
135.1469415615
 20
163.1085046817
 30
0.0
 11
57.0628322105
 21
163.1085046817
 31
0.0
  0
LINE
  5
83
330
1F
100
AcDbEntity
  8
0
  6
Continuous
 62
     7
370
    15
100
AcDbLine
 10
174.3528354357
 20
151.1085027148
 30
0.0
 11
181.2628317068
 21
151.1085027148
 31
0.0
  0
LINE
  5
84
330
1F
100
AcDbEntity
  8
0
  6
Continuous
 62
     7
370
    15
100
AcDbLine
 10
181.2628317068
 20
163.1085046817
 30
0.0
 11
174.3528354357
 21
163.1085046817
 31
0.0
  0
LINE
  5
85
330
1F
100
AcDbEntity
  8
0
  6
Continuous
 62
     7
370
    15
100
AcDbLine
 10
161.6286444853
 20
245.4775751819
 30
0.0
 11
156.6286418031
 21
245.6085060973
 31
0.0
  0
LINE
  5
86
330
1F
100
AcDbEntity
  8
0
  6
Continuous
 62
     7
370
    15
100
AcDbLine
 10
156.6286418031
 20
213.6085045774
 30
0.0
 11
156.6286418031
 21
245.6085060973
 31
0.0
  0
LINE
  5
87
330
1F
100
AcDbEntity
  8
0
  6
Continuous
 62
     7
370
    15
100
AcDbLine
 10
161.6286444853
 20
213.7394354929
 30
0.0
 11
156.6286418031
 21
213.6085045774
 31
0.0
  0
LINE
  5
88
330
1F
100
AcDbEntity
  8
0
  6
Continuous
 62
     7
370
    15
100
AcDbLine
 10
161.6286444853
 20
213.7394354929
 30
0.0
 11
161.6286444853
 21
245.4775751819
 31
0.0
  0
LINE
  5
89
330
1F
100
AcDbEntity
  8
0
  6
Continuous
 62
     7
370
    15
100
AcDbLine
 10
53.2628312151
 20
137.1085041453
 30
0.0
 11
53.2628312151
 21
322.1085065295
 31
0.0
  0
SPLINE
  5
8A
330
1F
100
AcDbEntity
  8
0
  6
Continuous
 62
     7
370
    15
100
AcDbSpline
210
0.0
220
0.0
230
1.0
 70
     8
 71
     3
 72
     8
 73
     4
 74
     0
 42
0.00000001
 43
0.00000001
 12
1.0
 22
0.0
 32
0.0
 13
1.0
 23
0.0
 33
0.0
 40
0.0
 40
0.0
 40
0.0
 40
0.0
 40
1.0
 40
1.0
 40
1.0
 40
1.0
 10
37.26283182601088
 20
236.5553866833166
 30
0.0
 10
40.92848266160756
 20
236.2955300051146
 30
0.0
 10
44.59541778597628
 20
236.0541224230999
 30
0.0
 10
48.26283182601087
 20
235.8202338461992
 30
0.0
  0
LINE
  5
8B
330
1F
100
AcDbEntity
  8
0
  6
Continuous
 62
     7
370
    15
100
AcDbLine
 10
37.2628318521
 20
236.5553866391
 30
0.0
 11
37.2628318521
 21
321.8472742726
 31
0.0
  0
SPLINE
  5
8C
330
1F
100
AcDbEntity
  8
0
  6
Continuous
 62
     7
370
    15
100
AcDbSpline
210
0.0
220
0.0
230
1.0
 70
     8
 71
     3
 72
     8
 73
     4
 74
     0
 42
0.00000001
 43
0.00000001
 12
1.0
 22
0.0
 32
0.0
 13
1.0
 23
0.0
 33
0.0
 40
0.0
 40
0.0
 40
0.0
 40
0.0
 40
1.0
 40
1.0
 40
1.0
 40
1.0
 10
48.26283182601087
 20
321.8996990068242
 30
0.0
 10
44.59541828543888
 20
321.8839569616149
 30
0.0
 10
40.92848179435899
 20
321.8668470130749
 30
0.0
 10
37.26283182601088
 20
321.8472761420887
 30
0.0
  0
LINE
  5
8D
330
1F
100
AcDbEntity
  8
0
  6
Continuous
 62
     7
370
    15
100
AcDbLine
 10
48.2628322581
 20
321.8996965577
 30
0.0
 11
48.2628322581
 21
322.1085065295
 31
0.0
  0
LINE
  5
8E
330
1F
100
AcDbEntity
  8
0
  6
Continuous
 62
     7
370
    15
100
AcDbLine
 10
48.2628322581
 20
137.1085041453
 30
0.0
 11
48.2628322581
 21
137.3173141171
 31
0.0
  0
SPLINE
  5
8F
330
1F
100
AcDbEntity
  8
0
  6
Continuous
 62
     7
370
    15
100
AcDbSpline
210
0.0
220
0.0
230
1.0
 70
     8
 71
     3
 72
     8
 73
     4
 74
     0
 42
0.00000001
 43
0.00000001
 12
1.0
 22
0.0
 32
0.0
 13
1.0
 23
0.0
 33
0.0
 40
0.0
 40
0.0
 40
0.0
 40
0.0
 40
1.0
 40
1.0
 40
1.0
 40
1.0
 10
37.26283182601088
 20
137.3697345326521
 30
0.0
 10
40.92848266160756
 20
137.3501636570358
 30
0.0
 10
44.59541778597628
 20
137.3330537152698
 30
0.0
 10
48.26283182601087
 20
137.3173116679167
 30
0.0
  0
LINE
  5
90
330
1F
100
AcDbEntity
  8
0
  6
Continuous
 62
     7
370
    15
100
AcDbLine
 10
37.2628318521
 20
137.3697364022
 30
0.0
 11
37.2628318521
 21
222.6616240357
 31
0.0
  0
SPLINE
  5
91
330
1F
100
AcDbEntity
  8
0
  6
Continuous
 62
     7
370
    15
100
AcDbSpline
210
0.0
220
0.0
230
1.0
 70
     8
 71
     3
 72
     8
 73
     4
 74
     0
 42
0.00000001
 43
0.00000001
 12
1.0
 22
0.0
 32
0.0
 13
1.0
 23
0.0
 33
0.0
 40
0.0
 40
0.0
 40
0.0
 40
0.0
 40
1.0
 40
1.0
 40
1.0
 40
1.0
 10
48.26283182601087
 20
223.3967768285436
 30
0.0
 10
44.59541828543888
 20
223.162888283496
 30
0.0
 10
40.92848179435899
 20
222.9214806081492
 30
0.0
 10
37.26283182601088
 20
222.6616239914262
 30
0.0
  0
LINE
  5
92
330
1F
100
AcDbEntity
  8
0
  6
Continuous
 62
     7
370
    15
100
AcDbLine
 10
48.2628322581
 20
223.3967770141
 30
0.0
 11
48.2628322581
 21
235.8202336606
 31
0.0
  0
LWPOLYLINE
  5
93
330
1F
100
AcDbEntity
  8
0
  6
Continuous
 62
     7
370
    15
100
AcDbPolyline
 90
        3
 70
   128
 43
0.0
 10
53.9492755572
 20
308.7335073639
 10
54.5542794655
 20
297.1420356323
 10
54.6407732556
 20
295.4835065891
  0
LINE
  5
94
330
1F
100
AcDbEntity
  8
0
  6
Continuous
 62
     7
370
    15
100
AcDbLine
 10
55.284604002
 20
175.6862023164
 30
0.0
 11
55.284604002
 21
178.1332486559
 31
0.0
  0
LINE
  5
95
330
1F
100
AcDbEntity
  8
0
  6
Continuous
 62
     7
370
    15
100
AcDbLine
 10
55.284604002
 20
281.0837620188
 30
0.0
 11
55.284604002
 21
283.5308083583
 31
0.0
  0
LINE
  5
96
330
1F
100
AcDbEntity
  8
0
  6
Continuous
 62
     7
370
    15
100
AcDbLine
 10
55.284604002
 20
272.7193565358
 30
0.0
 11
55.284604002
 21
281.0837620188
 31
0.0
  0
SPLINE
  5
97
330
1F
100
AcDbEntity
  8
0
  6
Continuous
 62
     7
370
    15
100
AcDbSpline
210
0.0
220
0.0
230
1.0
 70
     8
 71
     3
 72
    10
 73
     6
 74
     0
 42
0.00000001
 43
0.00000001
 12
1.0
 22
0.0
 32
0.0
 13
1.0
 23
0.0
 33
0.0
 40
0.0
 40
0.0
 40
0.0
 40
0.0
 40
0.5
 40
0.5
 40
1.0
 40
1.0
 40
1.0
 40
1.0
 10
55.28460329946826
 20
272.7193554340749
 30
0.0
 10
55.25321448061234
 20
273.3119848741479
 30
0.0
 10
55.22127471129243
 20
273.8703703371771
 30
0.0
 10
55.15647422858472
 20
274.9212582804113
 30
0.0
 10
55.12331787555463
 20
275.4172002144507
 30
0.0
 10
55.09098002002044
 20
275.8592589341725
 30
0.0
  0
LINE
  5
98
330
1F
100
AcDbEntity
  8
0
  6
Continuous
 62
     7
370
    15
100
AcDbLine
 10
55.0909801761
 20
275.8592584421
 30
0.0
 11
54.2852632145
 21
286.8492708792
 31
0.0
  0
SPLINE
  5
99
330
1F
100
AcDbEntity
  8
0
  6
Continuous
 62
     7
370
    15
100
AcDbSpline
210
0.0
220
0.0
230
1.0
 70
     8
 71
     3
 72
    49
 73
    45
 74
     0
 42
0.00000001
 43
0.00000001
 12
1.0
 22
0.0
 32
0.0
 13
1.0
 23
0.0
 33
0.0
 40
0.0
 40
0.0
 40
0.0
 40
0.0
 40
0.062499999999999
 40
0.062499999999999
 40
0.124999999999998
 40
0.124999999999998
 40
0.156249999999998
 40
0.156249999999998
 40
0.187499999999998
 40
0.187499999999998
 40
0.2499999999999979
 40
0.2499999999999979
 40
0.3124999999999978
 40
0.3124999999999978
 40
0.3749999999999977
 40
0.3749999999999977
 40
0.4062499999999977
 40
0.4062499999999977
 40
0.4374999999999977
 40
0.4687499999999976
 40
0.4687499999999976
 40
0.4999999999999976
 40
0.4999999999999976
 40
0.562499999999998
 40
0.562499999999998
 40
0.5937499999999982
 40
0.5937499999999982
 40
0.6249999999999983
 40
0.6249999999999983
 40
0.687499999999998
 40
0.687499999999998
 40
0.7187499999999979
 40
0.7187499999999979
 40
0.7499999999999977
 40
0.7499999999999977
 40
0.8124999999999982
 40
0.8124999999999982
 40
0.8749999999999987
 40
0.8749999999999987
 40
0.9062499999999989
 40
0.9062499999999989
 40
0.9374999999999992
 40
0.9374999999999992
 40
1.0
 40
1.0
 40
1.0
 40
1.0
 10
54.28526318961008
 20
286.8492722131659
 30
0.0
 10
54.25655103255543
 20
287.2402309339406
 30
0.0
 10
54.22825043963317
 20
287.5921876637084
 30
0.0
 10
54.17242657513442
 20
288.2151001197803
 30
0.0
 10
54.14570456934168
 20
288.476930446656
 30
0.0
 10
54.10752715326124
 20
288.7952521107161
 30
0.0
 10
54.09510449653265
 20
288.8890490805125
 30
0.0
 10
54.07085881326557
 20
289.0515059278147
 30
0.0
 10
54.05898860323152
 20
289.1203031622333
 30
0.0
 10
54.02499216663287
 20
289.2842252082947
 30
0.0
 10
54.00425373803268
 20
289.3390630276166
 30
0.0
 10
53.96641485153501
 20
289.3412056304342
 30
0.0
 10
53.94923987622438
 20
289.2867143527004
 30
0.0
 10
53.91990015697957
 20
289.0721201299161
 30
0.0
 10
53.90752516280724
 20
288.9127981467458
 30
0.0
 10
53.89238195706056
 20
288.5941752291209
 30
0.0
 10
53.88791143050625
 20
288.4742578453169
 30
0.0
 10
53.8803115693543
 20
288.2128251114263
 30
0.0
 10
53.87399079441
 20
287.928717974587
 30
0.0
 10
53.870168772161
 20
287.6000216625853
 30
0.0
 10
53.86760607904385
 20
287.2487614532014
 30
0.0
 10
53.8669551088848
 20
287.0609046788771
 30
0.0
 10
53.86696295700339
 20
286.4689299737589
 30
0.0
 10
53.86953444289699
 20
286.0414100138343
 30
0.0
 10
53.87714710715309
 20
285.3522894123744
 30
0.0
 10
53.88031550546938
 20
285.1145510566915
 30
0.0
 10
53.88795920880922
 20
284.6225451496943
 30
0.0
 10
53.89242603311354
 20
284.3692266299216
 30
0.0
 10
53.90750844855691
 20
283.6009607513752
 30
0.0
 10
53.91986194468667
 20
283.0728484222141
 30
0.0
 10
53.94194323214271
 20
282.2567070936304
 30
0.0
 10
53.94995015063314
 20
281.9790607935105
 30
0.0
 10
53.96692531180545
 20
281.4250751857876
 30
0.0
 10
53.97588965395168
 20
281.1486204215803
 30
0.0
 10
54.00420666586115
 20
280.3208307472765
 30
0.0
 10
54.02496854478274
 20
279.7710550665942
 30
0.0
 10
54.07057030121722
 20
278.6758321588965
 30
0.0
 10
54.09477408909888
 20
278.1459537371882
 30
0.0
 10
54.13295186303423
 20
277.3826238459303
 30
0.0
 10
54.14600611473497
 20
277.1331229020945
 30
0.0
 10
54.17280207699993
 20
276.6442076270662
 30
0.0
 10
54.18660678491824
 20
276.4038356951178
 30
0.0
 10
54.22823556649348
 20
275.7128846778372
 30
0.0
 10
54.25648530612994
 20
275.2879425218011
 30
0.0
 10
54.28526318961008
 20
274.8982217336242
 30
0.0
  0
LINE
  5
9A
330
1F
100
AcDbEntity
  8
0
  6
Continuous
 62
     7
370
    15
100
AcDbLine
 10
54.2852632145
 20
274.898222952
 30
0.0
 11
55.0909801761
 21
263.9679231931
 31
0.0
  0
SPLINE
  5
9B
330
1F
100
AcDbEntity
  8
0
  6
Continuous
 62
     7
370
    15
100
AcDbSpline
210
0.0
220
0.0
230
1.0
 70
     8
 71
     3
 72
    12
 73
     8
 74
     0
 42
0.00000001
 43
0.00000001
 12
1.0
 22
0.0
 32
0.0
 13
1.0
 23
0.0
 33
0.0
 40
0.0
 40
0.0
 40
0.0
 40
0.0
 40
0.25
 40
0.25
 40
0.5
 40
0.5
 40
1.0
 40
1.0
 40
1.0
 40
1.0
 10
55.09098002002044
 20
263.9679247958346
 30
0.0
 10
55.10703009307544
 20
263.74970974463
 30
0.0
 10
55.12317965840001
 20
263.5439287275104
 30
0.0
 10
55.15568714739914
 20
263.1574484962028
 30
0.0
 10
55.17212334989568
 20
262.9759695093584
 30
0.0
 10
55.22117674052321
 20
262.4766872833384
 30
0.0
 10
55.25324537046902
 20
262.2059534511828
 30
0.0
 10
55.28460329946826
 20
261.9978442402125
 30
0.0
  0
LINE
  5
9C
330
1F
100
AcDbEntity
  8
0
  6
Continuous
 62
     7
370
    15
100
AcDbLine
 10
55.284604002
 20
245.6681591709
 30
0.0
 11
55.284604002
 21
261.997844397
 31
0.0
  0
LINE
  5
9D
330
1F
100
AcDbEntity
  8
0
  6
Continuous
 62
     7
370
    15
100
AcDbLine
 10
55.284604002
 20
213.5488515039
 30
0.0
 11
55.284604002
 21
222.9835054156
 31
0.0
  0
LINE
  5
9E
330
1F
100
AcDbEntity
  8
0
  6
Continuous
 62
     7
370
    15
100
AcDbLine
 10
55.284604002
 20
236.2335052591
 30
0.0
 11
55.284604002
 21
245.6681591709
 31
0.0
  0
LINE
  5
9F
330
1F
100
AcDbEntity
  8
0
  6
Continuous
 62
     7
370
    15
100
AcDbLine
 10
55.284604002
 20
197.2191662778
 30
0.0
 11
55.284604002
 21
213.5488515039
 31
0.0
  0
SPLINE
  5
A0
330
1F
100
AcDbEntity
  8
0
  6
Continuous
 62
     7
370
    15
100
AcDbSpline
210
0.0
220
0.0
230
1.0
 70
     8
 71
     3
 72
    10
 73
     6
 74
     0
 42
0.00000001
 43
0.00000001
 12
1.0
 22
0.0
 32
0.0
 13
1.0
 23
0.0
 33
0.0
 40
0.0
 40
0.0
 40
0.0
 40
0.0
 40
0.5
 40
0.5
 40
1.0
 40
1.0
 40
1.0
 40
1.0
 10
55.28460329946826
 20
197.2191664345287
 30
0.0
 10
55.25321448061234
 20
197.0108522207439
 30
0.0
 10
55.22127471129243
 20
196.740862943942
 30
0.0
 10
55.15647422858472
 20
196.0822110567715
 30
0.0
 10
55.12331787555463
 20
195.6887478528463
 30
0.0
 10
55.09098002002044
 20
195.2490858789066
 30
0.0
  0
LINE
  5
A1
330
1F
100
AcDbEntity
  8
0
  6
Continuous
 62
     7
370
    15
100
AcDbLine
 10
55.0909801761
 20
195.2490874816
 30
0.0
 11
54.2852632145
 21
184.3187877227
 31
0.0
  0
SPLINE
  5
A2
330
1F
100
AcDbEntity
  8
0
  6
Continuous
 62
     7
370
    15
100
AcDbSpline
210
0.0
220
0.0
230
1.0
 70
     8
 71
     3
 72
    49
 73
    45
 74
     0
 42
0.00000001
 43
0.00000001
 12
1.0
 22
0.0
 32
0.0
 13
1.0
 23
0.0
 33
0.0
 40
0.0
 40
0.0
 40
0.0
 40
0.0
 40
0.0625000000000013
 40
0.0625000000000013
 40
0.1250000000000027
 40
0.1250000000000027
 40
0.156250000000003
 40
0.156250000000003
 40
0.1875000000000033
 40
0.1875000000000033
 40
0.2500000000000041
 40
0.2500000000000041
 40
0.3125000000000048
 40
0.3125000000000048
 40
0.3750000000000056
 40
0.3750000000000056
 40
0.4062500000000056
 40
0.4062500000000056
 40
0.4375000000000054
 40
0.4687500000000053
 40
0.4687500000000053
 40
0.5000000000000052
 40
0.5000000000000052
 40
0.5625000000000044
 40
0.5625000000000044
 40
0.5937500000000042
 40
0.5937500000000042
 40
0.625000000000004
 40
0.625000000000004
 40
0.687500000000004
 40
0.687500000000004
 40
0.718750000000004
 40
0.718750000000004
 40
0.750000000000004
 40
0.750000000000004
 40
0.8125000000000034
 40
0.8125000000000034
 40
0.8750000000000028
 40
0.8750000000000028
 40
0.9062500000000021
 40
0.9062500000000021
 40
0.9375000000000014
 40
0.9375000000000014
 40
1.0
 40
1.0
 40
1.0
 40
1.0
 10
54.28526318961008
 20
184.3187889411171
 30
0.0
 10
54.25655103255541
 20
183.9299582446093
 30
0.0
 10
54.22825043963317
 20
183.5045272760551
 30
0.0
 10
54.17242657513441
 20
182.5776578319272
 30
0.0
 10
54.14570456934168
 20
182.0893329322335
 30
0.0
 10
54.10752715326124
 20
181.3260591729526
 30
0.0
 10
54.09510449653265
 20
181.0661888156145
 30
0.0
 10
54.07085881326557
 20
180.5353290208952
 30
0.0
 10
54.05898860323152
 20
180.2631038661112
 30
0.0
 10
54.02499216663287
 20
179.4463528816869
 30
0.0
 10
54.00425373803268
 20
178.8975444638772
 30
0.0
 10
53.96641485153501
 20
177.7914253860633
 30
0.0
 10
53.94923987622439
 20
177.230034832583
 30
0.0
 10
53.91990015697959
 20
176.1455328847564
 30
0.0
 10
53.90752516280724
 20
175.6170632480256
 30
0.0
 10
53.89238195706056
 20
174.8454576501931
 30
0.0
 10
53.88791143050625
 20
174.5915417971044
 30
0.0
 10
53.8803115693543
 20
174.102053584319
 30
0.0
 10
53.87399082404245
 20
173.6279758184769
 30
0.0
 10
53.87016877216099
 20
173.1842021327779
 30
0.0
 10
53.86760607904385
 20
172.7557639347693
 30
0.0
 10
53.8669551088848
 20
172.548289303852
 30
0.0
 10
53.86696295700339
 20
171.9565510599937
 30
0.0
 10
53.86953444289698
 20
171.6065770189719
 30
0.0
 10
53.87714710715308
 20
171.1464098159614
 30
0.0
 10
53.88031550546936
 20
171.003898343392
 30
0.0
 10
53.88795920880924
 20
170.7412621213256
 30
0.0
 10
53.89242603311354
 20
170.6218283577337
 30
0.0
 10
53.9075084485569
 20
170.304724172423
 30
0.0
 10
53.91986194468667
 20
170.1451295382512
 30
0.0
 10
53.94194323214271
 20
169.9836851256481
 30
0.0
 10
53.94995015063314
 20
169.9428563723891
 30
0.0
 10
53.96692531180545
 20
169.889298199019
 30
0.0
 10
53.97588965395169
 20
169.876346920122
 30
0.0
 10
54.00420666586115
 20
169.8779342441622
 30
0.0
 10
54.02496854478274
 20
169.9325195833126
 30
0.0
 10
54.07057030121722
 20
170.1527042116992
 30
0.0
 10
54.09477408909888
 20
170.3154518421493
 30
0.0
 10
54.13295186303423
 20
170.633734838788
 30
0.0
 10
54.14600611473497
 20
170.7523507067371
 30
0.0
 10
54.17280207699992
 20
171.0151348751781
 30
0.0
 10
54.18660678491824
 20
171.1600785038473
 30
0.0
 10
54.22823556649347
 20
171.6247828196335
 30
0.0
 10
54.25648530612993
 20
171.9758847777653
 30
0.0
 10
54.28526318961008
 20
172.3677384615753
 30
0.0
  0
LINE
  5
A3
330
1F
100
AcDbEntity
  8
0
  6
Continuous
 62
     7
370
    15
100
AcDbLine
 10
54.2852632145
 20
172.3677397956
 30
0.0
 11
55.0909801761
 21
183.3577522327
 31
0.0
  0
SPLINE
  5
A4
330
1F
100
AcDbEntity
  8
0
  6
Continuous
 62
     7
370
    15
100
AcDbSpline
210
0.0
220
0.0
230
1.0
 70
     8
 71
     3
 72
    12
 73
     8
 74
     0
 42
0.00000001
 43
0.00000001
 12
1.0
 22
0.0
 32
0.0
 13
1.0
 23
0.0
 33
0.0
 40
0.0
 40
0.0
 40
0.0
 40
0.0
 40
0.2500000000000004
 40
0.2500000000000004
 40
0.5000000000000009
 40
0.5000000000000009
 40
1.0
 40
1.0
 40
1.0
 40
1.0
 10
55.09098002002044
 20
183.3577517405686
 30
0.0
 10
55.10703009307545
 20
183.577156355653
 30
0.0
 10
55.12317965840001
 20
183.8082180490763
 30
0.0
 10
55.15568714739914
 20
184.2938554247098
 30
0.0
 10
55.17212334989568
 20
184.5497112005715
 30
0.0
 10
55.2211767405232
 20
185.3447127031497
 30
0.0
 10
55.25324537046902
 20
185.9056090094917
 30
0.0
 10
55.28460329946826
 20
186.4976552406661
 30
0.0
  0
LINE
  5
A5
330
1F
100
AcDbEntity
  8
0
  6
Continuous
 62
     7
370
    15
100
AcDbLine
 10
55.284604002
 20
178.1332486559
 30
0.0
 11
55.284604002
 21
186.4976541389
 31
0.0
  0
SPLINE
  5
A6
330
1F
100
AcDbEntity
  8
0
  6
Continuous
 62
     7
370
    15
100
AcDbSpline
210
0.0
220
0.0
230
1.0
 70
     8
 71
     3
 72
     8
 73
     4
 74
     0
 42
0.00000001
 43
0.00000001
 12
1.0
 22
0.0
 32
0.0
 13
1.0
 23
0.0
 33
0.0
 40
0.0
 40
0.0
 40
0.0
 40
0.0
 40
1.0
 40
1.0
 40
1.0
 40
1.0
 10
53.94927596621681
 20
236.2335053373701
 30
0.0
 10
53.96858838702168
 20
231.8169285854731
 30
0.0
 10
53.96858887751043
 20
227.4001942596281
 30
0.0
 10
53.94927596621681
 20
222.9835053373702
 30
0.0
  0
LWPOLYLINE
  5
A7
330
1F
100
AcDbEntity
  8
0
  6
Continuous
 62
     7
370
    15
100
AcDbPolyline
 90
        3
 70
   128
 43
0.0
 10
54.6407732556
 20
163.7335040857
 10
54.0370582978
 20
152.1644809533
 10
53.9492755572
 20
150.4835033108
  0
LINE
  5
A8
330
1F
100
AcDbEntity
  8
0
  6
Continuous
 62
     7
370
    15
100
AcDbLine
 10
37.2628318521
 20
236.5553866391
 30
0.0
 11
37.2628318521
 21
235.6085053895
 31
0.0
  0
LINE
  5
A9
330
1F
100
AcDbEntity
  8
0
  6
Continuous
 62
     7
370
    15
100
AcDbLine
 10
37.2628318521
 20
223.6085052852
 30
0.0
 11
37.2628318521
 21
222.6616240357
 31
0.0
  0
LINE
  5
AA
330
1F
100
AcDbEntity
  8
0
  6
Continuous
 62
     7
370
    15
100
AcDbLine
 10
47.1340320448
 20
229.6085053374
 30
0.0
 11
47.1340320448
 21
235.0911775854
 31
0.0
  0
LINE
  5
AB
330
1F
100
AcDbEntity
  8
0
  6
Continuous
 62
     7
370
    15
100
AcDbLine
 10
47.1340320448
 20
224.1258330893
 30
0.0
 11
47.1340320448
 21
229.6085053374
 31
0.0
  0
LINE
  5
AC
330
1F
100
AcDbEntity
  8
0
  6
Continuous
 62
     7
370
    15
100
AcDbLine
 10
156.6286418031
 20
213.6085045774
 30
0.0
 11
132.262829263
 21
214.8854633112
 31
0.0
  0
LINE
  5
AD
330
1F
100
AcDbEntity
  8
0
  6
Continuous
 62
     7
370
    15
100
AcDbLine
 10
132.262829263
 20
214.8854633112
 30
0.0
 11
132.262829263
 21
219.8050481517
 31
0.0
  0
LINE
  5
AE
330
1F
100
AcDbEntity
  8
0
  6
Continuous
 62
     7
370
    15
100
AcDbLine
 10
156.6286418031
 20
221.508871137
 30
0.0
 11
132.262829263
 21
219.8050481517
 31
0.0
  0
LINE
  5
AF
330
1F
100
AcDbEntity
  8
0
  6
Continuous
 62
     7
370
    15
100
AcDbLine
 10
132.262829263
 20
244.3315473635
 30
0.0
 11
156.6286418031
 21
245.6085060973
 31
0.0
  0
LINE
  5
B0
330
1F
100
AcDbEntity
  8
0
  6
Continuous
 62
     7
370
    15
100
AcDbLine
 10
132.262829263
 20
239.411962523
 30
0.0
 11
132.262829263
 21
244.3315473635
 31
0.0
  0
LINE
  5
B1
330
1F
100
AcDbEntity
  8
0
  6
Continuous
 62
     7
370
    15
100
AcDbLine
 10
132.262829263
 20
239.411962523
 30
0.0
 11
156.6286418031
 21
237.7081395377
 31
0.0
  0
LINE
  5
B2
330
1F
100
AcDbEntity
  8
0
  6
Continuous
 62
     7
370
    15
100
AcDbLine
 10
161.8528324554
 20
229.6085053374
 30
0.0
 11
161.8528324554
 21
241.6085054417
 31
0.0
  0
LINE
  5
B3
330
1F
100
AcDbEntity
  8
0
  6
Continuous
 62
     7
370
    15
100
AcDbLine
 10
161.8528324554
 20
217.6085052331
 30
0.0
 11
161.8528324554
 21
229.6085053374
 31
0.0
  0
LINE
  5
B4
330
1F
100
AcDbEntity
  8
0
  6
Continuous
 62
     7
370
    15
100
AcDbLine
 10
164.3528300713
 20
229.6085053374
 30
0.0
 11
164.3528300713
 21
241.6085054417
 31
0.0
  0
LINE
  5
B5
330
1F
100
AcDbEntity
  8
0
  6
Continuous
 62
     7
370
    15
100
AcDbLine
 10
164.3528300713
 20
217.6085052331
 30
0.0
 11
164.3528300713
 21
229.6085053374
 31
0.0
  0
LINE
  5
B6
330
1F
100
AcDbEntity
  8
0
  6
Continuous
 62
     7
370
    15
100
AcDbLine
 10
174.3528354357
 20
229.6085053374
 30
0.0
 11
164.3528300713
 21
229.6085053374
 31
0.0
  0
LINE
  5
B7
330
1F
100
AcDbEntity
  8
0
  6
Continuous
 62
     7
370
    15
100
AcDbLine
 10
174.3528354357
 20
229.6085053374
 30
0.0
 11
174.3528354357
 21
220.1085056428
 31
0.0
  0
LINE
  5
B8
330
1F
100
AcDbEntity
  8
0
  6
Continuous
 62
     7
370
    15
100
AcDbLine
 10
174.3528354357
 20
220.1085056428
 30
0.0
 11
164.3528300713
 21
220.1085056428
 31
0.0
  0
LINE
  5
B9
330
1F
100
AcDbEntity
  8
0
  6
Continuous
 62
     7
370
    15
100
AcDbLine
 10
174.3528354357
 20
239.1085050319
 30
0.0
 11
164.3528300713
 21
239.1085050319
 31
0.0
  0
LINE
  5
BA
330
1F
100
AcDbEntity
  8
0
  6
Continuous
 62
     7
370
    15
100
AcDbLine
 10
174.3528354357
 20
239.1085050319
 30
0.0
 11
174.3528354357
 21
229.6085053374
 31
0.0
  0
LINE
  5
BB
330
1F
100
AcDbEntity
  8
0
  6
Continuous
 62
     7
370
    15
100
AcDbLine
 10
181.7628252695
 20
229.6085053374
 30
0.0
 11
181.7628252695
 21
237.6085057174
 31
0.0
  0
LINE
  5
BC
330
1F
100
AcDbEntity
  8
0
  6
Continuous
 62
     7
370
    15
100
AcDbLine
 10
181.7628252695
 20
221.6085049574
 30
0.0
 11
181.7628252695
 21
229.6085053374
 31
0.0
  0
LINE
  5
BD
330
1F
100
AcDbEntity
  8
0
  6
Continuous
 62
     7
370
    15
100
AcDbLine
 10
181.2628317068
 20
229.6085053374
 30
0.0
 11
181.2628317068
 21
237.6085057174
 31
0.0
  0
LINE
  5
BE
330
1F
100
AcDbEntity
  8
0
  6
Continuous
 62
     7
370
    15
100
AcDbLine
 10
181.2628317068
 20
221.6085049574
 30
0.0
 11
181.2628317068
 21
229.6085053374
 31
0.0
  0
LINE
  5
BF
330
1F
100
AcDbEntity
  8
0
  6
Continuous
 62
     7
370
    15
100
AcDbLine
 10
57.0628322105
 20
222.9835054156
 30
0.0
 11
53.9492755572
 21
222.9835054156
 31
0.0
  0
LINE
  5
C0
330
1F
100
AcDbEntity
  8
0
  6
Continuous
 62
     7
370
    15
100
AcDbLine
 10
57.0628322105
 20
236.2335052591
 30
0.0
 11
53.9492755572
 21
236.2335052591
 31
0.0
  0
LINE
  5
C1
330
1F
100
AcDbEntity
  8
0
  6
Continuous
 62
     7
370
    15
100
AcDbLine
 10
57.0628322105
 20
236.2335052591
 30
0.0
 11
57.0628322105
 21
222.9835054156
 31
0.0
  0
LINE
  5
C2
330
1F
100
AcDbEntity
  8
0
  6
Continuous
 62
     7
370
    15
100
AcDbLine
 10
193.2628262232
 20
229.6085053374
 30
0.0
 11
193.2628262232
 21
236.1085054715
 31
0.0
  0
LINE
  5
C3
330
1F
100
AcDbEntity
  8
0
  6
Continuous
 62
     7
370
    15
100
AcDbLine
 10
193.2628262232
 20
223.1085052033
 30
0.0
 11
193.2628262232
 21
229.6085053374
 31
0.0
  0
LINE
  5
C4
330
1F
100
AcDbEntity
  8
0
  6
Continuous
 62
     7
370
    15
100
AcDbLine
 10
132.262829263
 20
239.411962523
 30
0.0
 11
132.262829263
 21
235.6085053895
 31
0.0
  0
LINE
  5
C5
330
1F
100
AcDbEntity
  8
0
  6
Continuous
 62
     7
370
    15
100
AcDbLine
 10
132.262829263
 20
223.6085052852
 30
0.0
 11
132.262829263
 21
219.8050481517
 31
0.0
  0
LINE
  5
C6
330
1F
100
AcDbEntity
  8
0
  6
Continuous
 62
     7
370
    15
100
AcDbLine
 10
155.0407591651
 20
213.6917219747
 30
0.0
 11
155.0407591651
 21
166.6011282493
 31
0.0
  0
LINE
  5
C7
330
1F
100
AcDbEntity
  8
0
  6
Continuous
 62
     7
370
    15
100
AcDbLine
 10
160.8594465444
 20
213.7192928482
 30
0.0
 11
160.8594465444
 21
183.2562343468
 31
0.0
  0
SPLINE
  5
C8
330
1F
100
AcDbEntity
  8
0
  6
Continuous
 62
     7
370
    15
100
AcDbSpline
210
0.0
220
0.0
230
1.0
 70
     8
 71
     3
 72
     8
 73
     4
 74
     0
 42
0.00000001
 43
0.00000001
 12
1.0
 22
0.0
 32
0.0
 13
1.0
 23
0.0
 33
0.0
 40
0.0
 40
0.0
 40
0.0
 40
0.0
 40
1.0
 40
1.0
 40
1.0
 40
1.0
 10
156.6286383487413
 20
171.1339166748473
 30
0.0
 10
158.0494904604811
 20
175.1709942791483
 30
0.0
 10
159.4623063562984
 20
179.2108785287448
 30
0.0
 10
160.8594527967864
 20
183.2562353295406
 30
0.0
  0
SPLINE
  5
C9
330
1F
100
AcDbEntity
  8
0
  6
Continuous
 62
     7
370
    15
100
AcDbSpline
210
0.0
220
0.0
230
1.0
 70
     8
 71
     3
 72
     8
 73
     4
 74
     0
 42
0.00000001
 43
0.00000001
 12
1.0
 22
0.0
 32
0.0
 13
1.0
 23
0.0
 33
0.0
 40
0.0000006065786241
 40
0.0000006065786241
 40
0.0000006065786241
 40
0.0000006065786241
 40
0.0048041941467469
 40
0.0048041941467469
 40
0.0048041941467469
 40
0.0048041941467469
 10
156.6286383487413
 20
171.1339166748473
 30
0.0
 10
156.1006949933972
 20
169.6225138675268
 30
0.0
 10
155.5713119510053
 20
168.1116148361658
 30
0.0
 10
155.0407628638357
 20
166.6011272582386
 30
0.0
  0
SPLINE
  5
CA
330
1F
100
AcDbEntity
  8
0
  6
Continuous
 62
     7
370
    15
100
AcDbSpline
210
0.0
220
0.0
230
1.0
 70
     8
 71
     3
 72
     8
 73
     4
 74
     0
 42
0.00000001
 43
0.00000001
 12
1.0
 22
0.0
 32
0.0
 13
1.0
 23
0.0
 33
0.0
 40
0.0000002004407508
 40
0.0000002004407508
 40
0.0000002004407508
 40
0.0000002004407508
 40
0.0204541760627481
 40
0.0204541760627481
 40
0.0204541760627481
 40
0.0204541760627481
 10
155.0407628638357
 20
166.6011272582386
 30
0.0
 10
148.2377633828871
 20
166.8787917091598
 30
0.0
 10
141.4348382031074
 20
167.1582881538041
 30
0.0
 10
134.6319919354036
 20
167.4396915450038
 30
0.0
  0
LINE
  5
CB
330
1F
100
AcDbEntity
  8
0
  6
Continuous
 62
     7
370
    15
100
AcDbLine
 10
155.0407591651
 20
292.6158824254
 30
0.0
 11
155.0407591651
 21
245.5252887
 31
0.0
  0
SPLINE
  5
CC
330
1F
100
AcDbEntity
  8
0
  6
Continuous
 62
     7
370
    15
100
AcDbSpline
210
0.0
220
0.0
230
1.0
 70
     8
 71
     3
 72
     8
 73
     4
 74
     0
 42
0.00000001
 43
0.00000001
 12
1.0
 22
0.0
 32
0.0
 13
1.0
 23
0.0
 33
0.0
 40
0.000000200445265
 40
0.000000200445265
 40
0.000000200445265
 40
0.000000200445265
 40
0.0204541760672623
 40
0.0204541760672623
 40
0.0204541760672623
 40
0.0204541760672623
 10
134.6319919354035
 20
291.7773191297372
 30
0.0
 10
141.4348382031074
 20
292.0587225209369
 30
0.0
 10
148.2377633828871
 20
292.3382189655812
 30
0.0
 10
155.0407628638357
 20
292.6158834165024
 30
0.0
  0
SPLINE
  5
CD
330
1F
100
AcDbEntity
  8
0
  6
Continuous
 62
     7
370
    15
100
AcDbSpline
210
0.0
220
0.0
230
1.0
 70
     8
 71
     3
 72
     8
 73
     4
 74
     0
 42
0.00000001
 43
0.00000001
 12
1.0
 22
0.0
 32
0.0
 13
1.0
 23
0.0
 33
0.0
 40
0.0000006035991369
 40
0.0000006035991369
 40
0.0000006035991369
 40
0.0000006035991369
 40
0.0048041911672596
 40
0.0048041911672596
 40
0.0048041911672596
 40
0.0048041911672596
 10
155.0407628638357
 20
292.6158834165024
 30
0.0
 10
155.5713119510053
 20
291.1053958385752
 30
0.0
 10
156.1006949933972
 20
289.5944968072142
 30
0.0
 10
156.6286383487413
 20
288.0830939998936
 30
0.0
  0
SPLINE
  5
CE
330
1F
100
AcDbEntity
  8
0
  6
Continuous
 62
     7
370
    15
100
AcDbSpline
210
0.0
220
0.0
230
1.0
 70
     8
 71
     3
 72
     8
 73
     4
 74
     0
 42
0.00000001
 43
0.00000001
 12
1.0
 22
0.0
 32
0.0
 13
1.0
 23
0.0
 33
0.0
 40
0.0
 40
0.0
 40
0.0
 40
0.0
 40
1.0
 40
1.0
 40
1.0
 40
1.0
 10
160.8594527967864
 20
275.9607753452004
 30
0.0
 10
159.4623063562984
 20
280.0061321459962
 30
0.0
 10
158.0494904604811
 20
284.0460163955927
 30
0.0
 10
156.6286383487413
 20
288.0830939998936
 30
0.0
  0
LINE
  5
CF
330
1F
100
AcDbEntity
  8
0
  6
Continuous
 62
     7
370
    15
100
AcDbLine
 10
160.8594465444
 20
275.960776328
 30
0.0
 11
160.8594465444
 21
245.4977178265
 31
0.0
  0
SPLINE
  5
D0
330
1F
100
AcDbEntity
  8
0
  6
Continuous
 62
     7
370
    15
100
AcDbSpline
210
0.0
220
0.0
230
1.0
 70
     8
 71
     3
 72
    18
 73
    14
 74
     0
 42
0.00000001
 43
0.00000001
 12
1.0
 22
0.0
 32
0.0
 13
1.0
 23
0.0
 33
0.0
 40
0.0
 40
0.0
 40
0.0
 40
0.0
 40
0.1250000000000028
 40
0.1250000000000028
 40
0.2500000000000057
 40
0.2500000000000057
 40
0.3750000000000085
 40
0.3750000000000085
 40
0.5000000000000113
 40
0.5000000000000113
 40
0.7500000000000057
 40
0.7500000000000057
 40
1.0
 40
1.0
 40
1.0
 40
1.0
 10
134.6319919354035
 20
167.4396915450038
 30
0.0
 10
134.4708015686535
 20
167.4463592711359
 30
0.0
 10
134.3129783017705
 20
167.4688313069063
 30
0.0
 10
134.0038059972338
 20
167.5441637623547
 30
0.0
 10
133.8508614409807
 20
167.5978604513526
 30
0.0
 10
133.5607966244651
 20
167.7333679089748
 30
0.0
 10
133.4239495722422
 20
167.8145755853933
 30
0.0
 10
133.1663464826503
 20
168.0034391061375
 30
0.0
 10
133.0452476329844
 20
168.1119530738647
 30
0.0
 10
132.7213371132532
 20
168.463937127896
 30
0.0
 10
132.5497182051337
 20
168.7428935879268
 30
0.0
 10
132.3216953415193
 20
169.3378048723896
 30
0.0
 10
132.2628318260109
 20
169.6599754558752
 30
0.0
 10
132.2628318260109
 20
169.978663147554
 30
0.0
  0
LINE
  5
D1
330
1F
100
AcDbEntity
  8
0
  6
Continuous
 62
     7
370
    15
100
AcDbLine
 10
132.262829263
 20
214.8854633112
 30
0.0
 11
132.262829263
 21
169.9786626984
 31
0.0
  0
SPLINE
  5
D2
330
1F
100
AcDbEntity
  8
0
  6
Continuous
 62
     7
370
    15
100
AcDbSpline
210
0.0
220
0.0
230
1.0
 70
     8
 71
     3
 72
    20
 73
    16
 74
     0
 42
0.00000001
 43
0.00000001
 12
1.0
 22
0.0
 32
0.0
 13
1.0
 23
0.0
 33
0.0
 40
0.0
 40
0.0
 40
0.0
 40
0.0
 40
0.2499999999999962
 40
0.2499999999999962
 40
0.3749999999999968
 40
0.3749999999999968
 40
0.4999999999999974
 40
0.4999999999999974
 40
0.6249999999999981
 40
0.6249999999999981
 40
0.7499999999999987
 40
0.7499999999999987
 40
0.8749999999999993
 40
0.8749999999999993
 40
1.0
 40
1.0
 40
1.0
 40
1.0
 10
132.2628318260109
 20
289.2383475271862
 30
0.0
 10
132.2628318260108
 20
289.5567021539394
 30
0.0
 10
132.3217112213947
 20
289.8791548848433
 30
0.0
 10
132.4925606238497
 20
290.3250391648901
 30
0.0
 10
132.5641765136611
 20
290.470228771242
 30
0.0
 10
132.732836442008
 20
290.743101968526
 30
0.0
 10
132.8289464958137
 20
290.8699435465678
 30
0.0
 10
133.0446633400388
 20
291.1044883362308
 30
0.0
 10
133.1657975983149
 20
291.2131130731019
 30
0.0
 10
133.423378346586
 20
291.4020721250122
 30
0.0
 10
133.5601330211833
 20
291.4832627441645
 30
0.0
 10
133.8497813048749
 20
291.6187152148441
 30
0.0
 10
134.003065291389
 20
291.6726321628563
 30
0.0
 10
134.3127372034222
 20
291.748154783964
 30
0.0
 10
134.470729175919
 20
291.7706484090406
 30
0.0
 10
134.6319919354035
 20
291.7773191297372
 30
0.0
  0
LINE
  5
D3
330
1F
100
AcDbEntity
  8
0
  6
Continuous
 62
     7
370
    15
100
AcDbLine
 10
132.262829263
 20
289.2383479763
 30
0.0
 11
132.262829263
 21
244.3315473635
 31
0.0
  0
SPLINE
  5
D4
330
1F
100
AcDbEntity
  8
0
  6
Continuous
 62
     7
370
    15
100
AcDbSpline
210
0.0
220
0.0
230
1.0
 70
     8
 71
     3
 72
     8
 73
     4
 74
     0
 42
0.00000001
 43
0.00000001
 12
1.0
 22
0.0
 32
0.0
 13
1.0
 23
0.0
 33
0.0
 40
0.0
 40
0.0
 40
0.0
 40
0.0
 40
1.0
 40
1.0
 40
1.0
 40
1.0
 10
37.26283182601087
 20
217.3063764505251
 30
0.0
 10
36.1951479946399
 20
218.1771720228546
 30
0.0
 10
35.18539678255802
 20
219.1667568658792
 30
0.0
 10
34.26283182601088
 20
220.3170892344021
 30
0.0
  0
LINE
  5
D5
330
1F
100
AcDbEntity
  8
0
  6
Continuous
 62
     7
370
    15
100
AcDbLine
 10
34.262831826
 20
238.8999213715
 30
0.0
 11
34.262831826
 21
220.3170893033
 31
0.0
  0
SPLINE
  5
D6
330
1F
100
AcDbEntity
  8
0
  6
Continuous
 62
     7
370
    15
100
AcDbSpline
210
0.0
220
0.0
230
1.0
 70
     8
 71
     3
 72
     8
 73
     4
 74
     0
 42
0.00000001
 43
0.00000001
 12
1.0
 22
0.0
 32
0.0
 13
1.0
 23
0.0
 33
0.0
 40
0.0
 40
0.0
 40
0.0
 40
0.0
 40
1.0
 40
1.0
 40
1.0
 40
1.0
 10
34.26283182601088
 20
238.8999214403419
 30
0.0
 10
35.18539678255802
 20
240.0502538088649
 30
0.0
 10
36.19514799463991
 20
241.0398386518895
 30
0.0
 10
37.26283182601088
 20
241.9106342242191
 30
0.0
  0
SPLINE
  5
D7
330
1F
100
AcDbEntity
  8
0
  6
Continuous
 62
     7
370
    15
100
AcDbSpline
210
0.0
220
0.0
230
1.0
 70
     8
 71
     3
 72
     8
 73
     4
 74
     0
 42
0.00000001
 43
0.00000001
 12
1.0
 22
0.0
 32
0.0
 13
1.0
 23
0.0
 33
0.0
 40
0.000000285811573
 40
0.000000285811573
 40
0.000000285811573
 40
0.000000285811573
 40
0.0042897877489765
 40
0.0042897877489765
 40
0.0042897877489765
 40
0.0042897877489765
 10
37.26283182601088
 20
192.8748384316121
 30
0.0
 10
36.26228890757646
 20
193.6332310518033
 30
0.0
 10
35.26226068977179
 20
194.3919627950563
 30
0.0
 10
34.26283182601088
 20
195.1510880647106
 30
0.0
  0
LINE
  5
D8
330
1F
100
AcDbEntity
  8
0
  6
Continuous
 62
     7
370
    15
100
AcDbLine
 10
34.262831826
 20
195.1510862697
 30
0.0
 11
34.262831826
 21
220.3170893033
 31
0.0
  0
SPLINE
  5
D9
330
1F
100
AcDbEntity
  8
0
  6
Continuous
 62
     7
370
    15
100
AcDbSpline
210
0.0
220
0.0
230
1.0
 70
     8
 71
     3
 72
     8
 73
     4
 74
     0
 42
0.00000001
 43
0.00000001
 12
1.0
 22
0.0
 32
0.0
 13
1.0
 23
0.0
 33
0.0
 40
0.0000002861301817
 40
0.0000002861301817
 40
0.0000002861301817
 40
0.0000002861301817
 40
0.0042897880675852
 40
0.0042897880675852
 40
0.0042897880675852
 40
0.0042897880675852
 10
34.26283182601088
 20
264.0659226100306
 30
0.0
 10
35.26226068977179
 20
264.8250478796849
 30
0.0
 10
36.26228890757646
 20
265.5837796229379
 30
0.0
 10
37.26283182601088
 20
266.3421722431291
 30
0.0
  0
LINE
  5
DA
330
1F
100
AcDbEntity
  8
0
  6
Continuous
 62
     7
370
    15
100
AcDbLine
 10
34.262831826
 20
238.8999213715
 30
0.0
 11
34.262831826
 21
264.065924405
 31
0.0
  0
SPLINE
  5
DB
330
1F
100
AcDbEntity
  8
0
  6
Continuous
 62
     7
370
    15
100
AcDbSpline
210
0.0
220
0.0
230
1.0
 70
     8
 71
     3
 72
     8
 73
     4
 74
     0
 42
0.00000001
 43
0.00000001
 12
1.0
 22
0.0
 32
0.0
 13
1.0
 23
0.0
 33
0.0
 40
0.0
 40
0.0
 40
0.0
 40
0.0
 40
1.0
 40
1.0
 40
1.0
 40
1.0
 10
55.28460329946825
 20
178.1332471927025
 30
0.0
 10
61.01361902116659
 20
178.7002264787687
 30
0.0
 10
66.74726155122072
 20
179.2613444870439
 30
0.0
 10
72.48460329946832
 20
179.8164828722651
 30
0.0
  0
LINE
  5
DC
330
1F
100
AcDbEntity
  8
0
  6
Continuous
 62
     7
370
    15
100
AcDbLine
 10
72.4846045862
 20
212.2849201102
 30
0.0
 11
72.4846045862
 21
179.8164838244
 31
0.0
  0
SPLINE
  5
DD
330
1F
100
AcDbEntity
  8
0
  6
Continuous
 62
     7
370
    15
100
AcDbSpline
210
0.0
220
0.0
230
1.0
 70
     8
 71
     3
 72
     8
 73
     4
 74
     0
 42
0.00000001
 43
0.00000001
 12
1.0
 22
0.0
 32
0.0
 13
1.0
 23
0.0
 33
0.0
 40
0.0
 40
0.0
 40
0.0
 40
0.0
 40
1.0
 40
1.0
 40
1.0
 40
1.0
 10
72.48460329946832
 20
212.2849199499452
 30
0.0
 10
66.7472615512207
 20
212.6595935712591
 30
0.0
 10
61.01361902116659
 20
213.0766440254235
 30
0.0
 10
55.28460329946826
 20
213.5488518677766
 30
0.0
  0
SPLINE
  5
DE
330
1F
100
AcDbEntity
  8
0
  6
Continuous
 62
     7
370
    15
100
AcDbSpline
210
0.0
220
0.0
230
1.0
 70
     8
 71
     3
 72
     8
 73
     4
 74
     0
 42
0.00000001
 43
0.00000001
 12
1.0
 22
0.0
 32
0.0
 13
1.0
 23
0.0
 33
0.0
 40
0.0
 40
0.0
 40
0.0
 40
0.0
 40
1.0
 40
1.0
 40
1.0
 40
1.0
 10
55.28460329946826
 20
245.6681588069665
 30
0.0
 10
61.01361902116659
 20
246.1403666493195
 30
0.0
 10
66.74726155122072
 20
246.5574171034839
 30
0.0
 10
72.48460329946832
 20
246.9320907247979
 30
0.0
  0
LINE
  5
DF
330
1F
100
AcDbEntity
  8
0
  6
Continuous
 62
     7
370
    15
100
AcDbLine
 10
72.4846045862
 20
279.4005268504
 30
0.0
 11
72.4846045862
 21
246.9320905645
 31
0.0
  0
SPLINE
  5
E0
330
1F
100
AcDbEntity
  8
0
  6
Continuous
 62
     7
370
    15
100
AcDbSpline
210
0.0
220
0.0
230
1.0
 70
     8
 71
     3
 72
     8
 73
     4
 74
     0
 42
0.00000001
 43
0.00000001
 12
1.0
 22
0.0
 32
0.0
 13
1.0
 23
0.0
 33
0.0
 40
0.0
 40
0.0
 40
0.0
 40
0.0
 40
1.0
 40
1.0
 40
1.0
 40
1.0
 10
72.48460329946832
 20
279.4005278024763
 30
0.0
 10
66.74726155122072
 20
279.9556661876974
 30
0.0
 10
61.01361902116659
 20
280.5167841959727
 30
0.0
 10
55.28460329946826
 20
281.0837634820388
 30
0.0
  0
LINE
  5
E1
330
1F
100
AcDbEntity
  8
0
  6
Continuous
 62
     7
370
    15
100
AcDbLine
 10
81.635351796
 20
249.2978100915
 30
0.0
 11
78.2628315876
 21
249.2978100915
 31
0.0
  0
LINE
  5
E2
330
1F
100
AcDbEntity
  8
0
  6
Continuous
 62
     7
370
    15
100
AcDbLine
 10
78.2628315876
 20
249.2978100915
 30
0.0
 11
78.2628315876
 21
252.7263810177
 31
0.0
  0
LINE
  5
E3
330
1F
100
AcDbEntity
  8
0
  6
Continuous
 62
     7
370
    15
100
AcDbLine
 10
78.2628315876
 20
252.7263810177
 30
0.0
 11
88.0160699973
 21
252.7263810177
 31
0.0
  0
LWPOLYLINE
  5
E4
330
1F
100
AcDbEntity
  8
0
  6
Continuous
 62
     7
370
    15
100
AcDbPolyline
 90
       10
 70
   128
 43
0.0
 10
88.0160699973
 20
252.7263810177
 10
88.5480116496
 20
251.4198509295
 10
89.0860478769
 20
250.0983638008
 10
89.6297763477
 20
248.7628919323
 10
90.1787947307
 20
247.4144206633
 10
90.7327044199
 20
246.053940921
 10
91.2910956333
 20
244.6824566711
 10
91.8535548637
 20
243.3009746735
 10
92.4196723292
 20
241.9105128635
 10
92.989027072
 20
240.5120956962
  0
LINE
  5
E5
330
1F
100
AcDbEntity
  8
0
  6
Continuous
 62
     7
370
    15
100
AcDbLine
 10
92.989027072
 20
240.5120956962
 30
0.0
 11
89.1483570824
 21
240.5120956962
 31
0.0
  0
LWPOLYLINE
  5
E6
330
1F
100
AcDbEntity
  8
0
  6
Continuous
 62
     7
370
    15
100
AcDbPolyline
 90
        3
 70
   128
 43
0.0
 10
89.1483570824
 20
240.5120956962
 10
88.763784189
 20
241.4566691284
 10
88.3806045542
 20
242.3978106369
  0
LINE
  5
E7
330
1F
100
AcDbEntity
  8
0
  6
Continuous
 62
     7
370
    15
100
AcDbLine
 10
88.3806045542
 20
242.3978106369
 30
0.0
 11
82.7969047616
 21
242.3978106369
 31
0.0
  0
LWPOLYLINE
  5
E8
330
1F
100
AcDbEntity
  8
0
  6
Continuous
 62
     7
370
    15
100
AcDbPolyline
 90
        3
 70
   128
 43
0.0
 10
82.7969047616
 20
242.3978106369
 10
82.4358086477
 20
241.4571208198
 10
82.073047329
 20
240.5120956962
  0
LINE
  5
E9
330
1F
100
AcDbEntity
  8
0
  6
Continuous
 62
     7
370
    15
100
AcDbLine
 10
82.073047329
 20
240.5120956962
 30
0.0
 11
78.2628315876
 21
240.5120956962
 31
0.0
  0
LWPOLYLINE
  5
EA
330
1F
100
AcDbEntity
  8
0
  6
Continuous
 62
     7
370
    15
100
AcDbPolyline
 90
        7
 70
   128
 43
0.0
 10
78.2628315876
 20
240.5120956962
 10
78.8372340987
 20
242.0084628527
 10
79.4073227237
 20
243.493592671
 10
79.9726318012
 20
244.9662818824
 10
80.5327105711
 20
246.4253337373
 10
81.0871008227
 20
247.8695673187
 10
81.635351796
 20
249.2978100915
  0
LWPOLYLINE
  5
EB
330
1F
100
AcDbEntity
  8
0
  6
Continuous
 62
     7
370
    15
100
AcDbPolyline
 90
        4
 70
   128
 43
0.0
 10
83.6799550245
 20
245.6549530168
 10
84.2318046282
 20
247.09256862
 10
84.7778204272
 20
248.5149869014
 10
85.3175628374
 20
249.9210660596
  0
LINE
  5
EC
330
1F
100
AcDbEntity
  8
0
  6
Continuous
 62
     7
370
    15
100
AcDbLine
 10
87.0544794391
 20
245.6549530168
 30
0.0
 11
83.6799550245
 21
245.6549530168
 31
0.0
  0
LWPOLYLINE
  5
ED
330
1F
100
AcDbEntity
  8
0
  6
Continuous
 62
     7
370
    15
100
AcDbPolyline
 90
        4
 70
   128
 43
0.0
 10
85.3175628374
 20
249.9210660596
 10
85.8909781466
 20
248.5126828094
 10
86.4701043258
 20
247.0902626653
 10
87.0544794391
 20
245.6549530168
  0
SPLINE
  5
EE
330
1F
100
AcDbEntity
  8
0
  6
Continuous
 62
     7
370
    15
100
AcDbSpline
210
0.0
220
0.0
230
1.0
 70
    24
 71
     3
 72
     8
 73
     4
 74
     0
 42
0.00000001
 43
0.00000001
 12
1.0
 22
0.0
 32
0.0
 13
1.0
 23
0.0
 33
0.0
 40
0.0
 40
0.0
 40
0.0
 40
0.0
 40
1.0
 40
1.0
 40
1.0
 40
1.0
 10
78.26283182601077
 20
257.6549530463183
 30
0.0
 10
82.63435482477036
 20
257.6549530463184
 30
0.0
 10
87.00578834494722
 20
257.6549530463184
 30
0.0
 10
91.3771175402965
 20
257.6549530463185
 30
0.0
  0
LWPOLYLINE
  5
EF
330
1F
100
AcDbEntity
  8
0
  6
Continuous
 62
     7
370
    15
100
AcDbPolyline
 90
       10
 70
   128
 43
0.0
 10
91.3771163116
 20
257.6549531211
 10
91.8917055617
 20
256.3910552551
 10
92.4143302629
 20
255.1074114878
 10
92.944588084
 20
253.8050257851
 10
93.4820617924
 20
252.4849132885
 10
94.0263341556
 20
251.1481040408
 10
94.5769804905
 20
249.7956429858
 10
95.1335686634
 20
248.4285843809
 10
95.6956665407
 20
247.0479955216
 10
96.2628308127
 20
245.6549530168
  0
LWPOLYLINE
  5
F0
330
1F
100
AcDbEntity
  8
0
  6
Continuous
 62
     7
370
    15
100
AcDbPolyline
 90
       10
 70
   128
 43
0.0
 10
96.2628308127
 20
245.6549530168
 10
96.8343126963
 20
247.0585865219
 10
97.399662752
 20
248.4471698542
 10
97.9584413956
 20
249.8196003277
 10
98.5101941417
 20
251.1747864325
 10
99.0544888566
 20
252.5116552849
 10
99.5908934067
 20
253.8291433145
 10
100.1189831088
 20
255.1262055774
 10
100.6383407305
 20
256.4018138935
 10
101.1485490392
 20
257.6549531211
  0
SPLINE
  5
F1
330
1F
100
AcDbEntity
  8
0
  6
Continuous
 62
     7
370
    15
100
AcDbSpline
210
0.0
220
0.0
230
1.0
 70
    24
 71
     3
 72
     8
 73
     4
 74
     0
 42
0.00000001
 43
0.00000001
 12
1.0
 22
0.0
 32
0.0
 13
1.0
 23
0.0
 33
0.0
 40
0.0
 40
0.0
 40
0.0
 40
0.0
 40
1.0
 40
1.0
 40
1.0
 40
1.0
 10
101.1485461117251
 20
257.6549530463186
 30
0.0
 10
105.520083213823
 20
257.6549530463186
 30
0.0
 10
109.8915180063713
 20
257.6549530463187
 30
0.0
 10
114.2628318260108
 20
257.6549530463187
 30
0.0
  0
LINE
  5
F2
330
1F
100
AcDbEntity
  8
0
  6
Continuous
 62
     7
370
    15
100
AcDbLine
 10
114.2628300379
 20
257.6549531211
 30
0.0
 11
114.2628300379
 21
254.0978093882
 31
0.0
  0
SPLINE
  5
F3
330
1F
100
AcDbEntity
  8
0
  6
Continuous
 62
     7
370
    15
100
AcDbSpline
210
0.0
220
0.0
230
1.0
 70
    24
 71
     3
 72
     8
 73
     4
 74
     0
 42
0.00000001
 43
0.00000001
 12
1.0
 22
0.0
 32
0.0
 13
1.0
 23
0.0
 33
0.0
 40
0.0
 40
0.0
 40
0.0
 40
0.0
 40
1.0
 40
1.0
 40
1.0
 40
1.0
 10
114.2628318260108
 20
254.0978101891759
 30
0.0
 10
110.7043425670928
 20
254.0978101891759
 30
0.0
 10
107.1458048724158
 20
254.0978101891758
 30
0.0
 10
103.5872228385312
 20
254.0978101891758
 30
0.0
  0
LWPOLYLINE
  5
F4
330
1F
100
AcDbEntity
  8
0
  6
Continuous
 62
     7
370
    15
100
AcDbPolyline
 90
       11
 70
   128
 43
0.0
 10
103.5872209261
 20
254.0978093882
 10
103.063944299
 20
252.8125711967
 10
102.5329190681
 20
251.5082967718
 10
101.9945550154
 20
250.1859900792
 10
101.4492619226
 20
248.8466718484
 10
100.8974570225
 20
247.4913721223
 10
100.3395798991
 20
246.1211358447
 10
99.7760403345
 20
244.7370182042
 10
99.2072928141
 20
243.3400874276
 10
98.6337620209
 20
241.9314182614
 10
98.0558949898
 20
240.5120956962
  0
SPLINE
  5
F5
330
1F
100
AcDbEntity
  8
0
  6
Continuous
 62
     7
370
    15
100
AcDbSpline
210
0.0
220
0.0
230
1.0
 70
    24
 71
     3
 72
     8
 73
     4
 74
     0
 42
0.00000001
 43
0.00000001
 12
1.0
 22
0.0
 32
0.0
 13
1.0
 23
0.0
 33
0.0
 40
0.0
 40
0.0
 40
0.0
 40
0.0
 40
1.0
 40
1.0
 40
1.0
 40
1.0
 10
88.93844081349042
 20
254.0978101891756
 30
0.0
 10
85.37994542525237
 20
254.0978101891756
 30
0.0
 10
81.82140800350338
 20
254.0978101891755
 30
0.0
 10
78.2628318260108
 20
254.0978101891755
 30
0.0
  0
LINE
  5
F6
330
1F
100
AcDbEntity
  8
0
  6
Continuous
 62
     7
370
    15
100
AcDbLine
 10
78.2628315876
 20
254.0978093882
 30
0.0
 11
78.2628315876
 21
257.6549531211
 31
0.0
  0
LINE
  5
F7
330
1F
100
AcDbEntity
  8
0
  6
Continuous
 62
     7
370
    15
100
AcDbLine
 10
98.0558949898
 20
240.5120956962
 30
0.0
 11
94.4697666357
 21
240.5120956962
 31
0.0
  0
LWPOLYLINE
  5
F8
330
1F
100
AcDbEntity
  8
0
  6
Continuous
 62
     7
370
    15
100
AcDbPolyline
 90
       11
 70
   128
 43
0.0
 10
94.4697666357
 20
240.5120956962
 10
93.8967387567
 20
241.9195345853
 10
93.3270077596
 20
243.3188709681
 10
92.7610020528
 20
244.7090589692
 10
92.1991463194
 20
246.08905737
 10
91.6418615172
 20
247.4578314711
 10
91.0895611535
 20
248.8143568177
 10
90.5426624606
 20
250.1576182683
 10
90.0015714953
 20
251.4866081317
 10
89.4666980396
 20
252.8003336181
 10
88.9384406994
 20
254.0978093882
  0
LINE
  5
F9
330
1F
100
AcDbEntity
  8
0
  6
Continuous
 62
     7
370
    15
100
AcDbLine
 10
114.2628300379
 20
252.7263810177
 30
0.0
 11
114.2628300379
 21
249.2978100915
 31
0.0
  0
LINE
  5
FA
330
1F
100
AcDbEntity
  8
0
  6
Continuous
 62
     7
370
    15
100
AcDbLine
 10
114.2628300379
 20
249.2978100915
 30
0.0
 11
113.2342624853
 21
249.2978100915
 31
0.0
  0
SPLINE
  5
FB
330
1F
100
AcDbEntity
  8
0
  6
Continuous
 62
     7
370
    15
100
AcDbSpline
210
0.0
220
0.0
230
1.0
 70
     8
 71
     3
 72
    16
 73
    12
 74
     0
 42
0.00000001
 43
0.00000001
 12
1.0
 22
0.0
 32
0.0
 13
1.0
 23
0.0
 33
0.0
 40
0.0
 40
0.0
 40
0.0
 40
0.0
 40
0.2500000000000011
 40
0.2500000000000011
 40
0.5000000000000022
 40
0.5000000000000022
 40
0.6250000000000017
 40
0.6250000000000017
 40
0.7500000000000011
 40
0.7500000000000011
 40
1.0
 40
1.0
 40
1.0
 40
1.0
 10
113.2342603974394
 20
249.2978101891759
 30
0.0
 10
113.0786455102212
 20
248.8908244486789
 30
0.0
 10
112.8760337345947
 20
248.506594298356
 30
0.0
 10
112.3755311971883
 20
247.7858741249021
 30
0.0
 10
112.0740142118326
 20
247.4479630779967
 30
0.0
 10
111.5695381500905
 20
247.0084305153644
 30
0.0
 10
111.3919247488457
 20
246.871938607227
 30
0.0
 10
111.0172137640167
 20
246.6198574537895
 30
0.0
 10
110.8186542306361
 20
246.5035732983587
 30
0.0
 10
110.2032910710417
 20
246.1945860247133
 30
0.0
 10
109.7698864916335
 20
246.0414004125768
 30
0.0
 10
109.3122968030874
 20
245.9442107799223
 30
0.0
  0
LWPOLYLINE
  5
FC
330
1F
100
AcDbEntity
  8
0
  6
Continuous
 62
     7
370
    15
100
AcDbPolyline
 90
        5
 70
   128
 43
0.0
 10
109.3122992108
 20
245.9442106326
 10
110.3260252068
 20
244.5989449759
 10
111.3466802428
 20
243.2444955472
 10
112.3734894584
 20
241.881873763
 10
113.4056854437
 20
240.5120956962
  0
LINE
  5
FD
330
1F
100
AcDbEntity
  8
0
  6
Continuous
 62
     7
370
    15
100
AcDbLine
 10
113.4056854437
 20
240.5120956962
 30
0.0
 11
108.9516613076
 21
240.5120956962
 31
0.0
  0
LWPOLYLINE
  5
FE
330
1F
100
AcDbEntity
  8
0
  6
Continuous
 62
     7
370
    15
100
AcDbPolyline
 90
        4
 70
   128
 43
0.0
 10
108.9516613076
 20
240.5120956962
 10
107.7373656819
 20
242.1235221688
 10
106.5306174944
 20
243.7249322672
 10
105.3326460908
 20
245.3146924515
  0
LWPOLYLINE
  5
FF
330
1F
100
AcDbEntity
  8
0
  6
Continuous
 62
     7
370
    15
100
AcDbPolyline
 90
        4
 70
   128
 43
0.0
 10
105.3326460908
 20
245.3146924515
 10
104.6870979855
 20
243.7291241501
 10
104.0350902269
 20
242.1277168457
 10
103.3773082683
 20
240.5120956962
  0
LINE
  5
100
330
1F
100
AcDbEntity
  8
0
  6
Continuous
 62
     7
370
    15
100
AcDbLine
 10
104.5095953534
 20
252.7263810177
 30
0.0
 11
108.350265343
 21
252.7263810177
 31
0.0
  0
LWPOLYLINE
  5
101
330
1F
100
AcDbEntity
  8
0
  6
Continuous
 62
     7
370
    15
100
AcDbPolyline
 90
        4
 70
   128
 43
0.0
 10
108.350265343
 20
252.7263810177
 10
107.7548149417
 20
251.26387675
 10
107.1501109193
 20
249.7786277224
 10
106.5367344211
 20
248.272097974
  0
SPLINE
  5
102
330
1F
100
AcDbEntity
  8
0
  6
Continuous
 62
     7
370
    15
100
AcDbSpline
210
0.0
220
0.0
230
1.0
 70
     8
 71
     3
 72
    22
 73
    18
 74
     0
 42
0.00000001
 43
0.00000001
 12
1.0
 22
0.0
 32
0.0
 13
1.0
 23
0.0
 33
0.0
 40
0.0
 40
0.0
 40
0.0
 40
0.0
 40
0.125
 40
0.125
 40
0.25
 40
0.25
 40
0.375
 40
0.375
 40
0.5
 40
0.5
 40
0.625
 40
0.625
 40
0.75
 40
0.75
 40
0.875
 40
0.875
 40
1.0
 40
1.0
 40
1.0
 40
1.0
 10
106.5367343600666
 20
248.2720977336839
 30
0.0
 10
106.84081836057
 20
248.2829944170491
 30
0.0
 10
107.1370359350888
 20
248.3244538889363
 30
0.0
 10
107.7147253657996
 20
248.4643106420863
 30
0.0
 10
107.9991458172869
 20
248.5644431936217
 30
0.0
 10
108.5322114600873
 20
248.813802241626
 30
0.0
 10
108.7821914297115
 20
248.9626075260366
 30
0.0
 10
109.2500267743812
 20
249.3063277644155
 30
0.0
 10
109.4657404684419
 20
249.5004243489282
 30
0.0
 10
109.8493476569928
 20
249.9174654728226
 30
0.0
 10
110.020137350481
 20
250.1430638154682
 30
0.0
 10
110.3158010665283
 20
250.6211746718252
 30
0.0
 10
110.438104892227
 20
250.8690542299731
 30
0.0
 10
110.6351161339754
 20
251.3807474645897
 30
0.0
 10
110.7100810048749
 20
251.6465147461246
 30
0.0
 10
110.8094958688883
 20
252.183512206167
 30
0.0
 10
110.8342603974394
 20
252.4539963248852
 30
0.0
 10
110.8342603974394
 20
252.7263816177473
 30
0.0
  0
LINE
  5
103
330
1F
100
AcDbEntity
  8
0
  6
Continuous
 62
     7
370
    15
100
AcDbLine
 10
110.8342591117
 20
252.7263810177
 30
0.0
 11
114.2628300379
 21
252.7263810177
 31
0.0
  0
LINE
  5
104
330
1F
100
AcDbEntity
  8
0
  6
Continuous
 62
     7
370
    15
100
AcDbLine
 10
103.3773082683
 20
240.5120956962
 30
0.0
 11
99.5366382788
 21
240.5120956962
 31
0.0
  0
LWPOLYLINE
  5
105
330
1F
100
AcDbEntity
  8
0
  6
Continuous
 62
     7
370
    15
100
AcDbPolyline
 90
       10
 70
   128
 43
0.0
 10
99.5366382788
 20
240.5120956962
 10
100.1103404353
 20
241.9211886142
 10
100.6797510574
 20
243.3197482739
 10
101.244445462
 20
244.7067092423
 10
101.8039840649
 20
246.0810126056
 10
102.3579421828
 20
247.4416115571
 10
102.9058951328
 20
248.7874676724
 10
103.4474331329
 20
250.1175564964
 10
103.9821315
 20
251.430861025
 10
104.5095953534
 20
252.7263810177
  0
ELLIPSE
  5
106
330
1F
100
AcDbEntity
  8
0
  6
Continuous
 62
     7
370
    15
100
AcDbEllipse
 10
767.6439871012
 20
229.6085053374
 30
0.0
 11
1871.234505554251
 21
-3.126388037344440E-13
 31
0.0
210
0.0
220
0.0
230
1.0
 40
0.0261859216
 41
4.382149437044669
 42
4.382583942911618
  0
ELLIPSE
  5
107
330
1F
100
AcDbEntity
  8
0
  6
Continuous
 62
     7
370
    15
100
AcDbEllipse
 10
767.6439871012
 20
229.6085053374
 30
0.0
 11
1871.234505554251
 21
0.0
 31
0.0
210
0.0
220
0.0
230
1.0
 40
0.0261859216
 41
1.900601364268025
 42
1.901035870134974
  0
LINE
  5
108
330
1F
100
AcDbEntity
  8
0
  6
Continuous
 62
     7
370
    15
100
AcDbLine
 10
164.6286356638
 20
276.608503728
 30
0.0
 11
164.6286356638
 21
239.1085050319
 31
0.0
  0
LINE
  5
109
330
1F
100
AcDbEntity
  8
0
  6
Continuous
 62
     7
370
    15
100
AcDbLine
 10
164.6286356638
 20
220.1085056428
 30
0.0
 11
164.6286356638
 21
182.6085069467
 31
0.0
  0
LINE
  5
10A
330
1F
100
AcDbEntity
  8
0
  6
Continuous
 62
     7
370
    15
100
AcDbLine
 10
55.284604002
 20
197.2191662778
 30
0.0
 11
55.284604002
 21
186.4976541389
 31
0.0
  0
LINE
  5
10B
330
1F
100
AcDbEntity
  8
0
  6
Continuous
 62
     7
370
    15
100
AcDbLine
 10
34.262831826
 20
195.1555379917
 30
0.0
 11
34.262831826
 21
182.5859056105
 31
0.0
  0
LINE
  5
10C
330
1F
100
AcDbEntity
  8
0
  6
Continuous
 62
     7
370
    15
100
AcDbLine
 10
55.284604002
 20
272.7193565358
 30
0.0
 11
55.284604002
 21
261.997844397
 31
0.0
  0
LINE
  5
10D
330
1F
100
AcDbEntity
  8
0
  6
Continuous
 62
     7
370
    15
100
AcDbLine
 10
34.262831826
 20
276.6311050643
 30
0.0
 11
34.262831826
 21
264.0614317049
 31
0.0
  0
SPLINE
  5
10E
330
1F
100
AcDbEntity
  8
0
  6
Continuous
 62
     7
370
    15
100
AcDbSpline
210
0.0
220
0.0
230
1.0
 70
     8
 71
     3
 72
     8
 73
     4
 74
     0
 42
0.00000001
 43
0.00000001
 12
1.0
 22
0.0
 32
0.0
 13
1.0
 23
0.0
 33
0.0
 40
0.0000002861301817
 40
0.0000002861301817
 40
0.0000002861301817
 40
0.0000002861301817
 40
0.0042897880675852
 40
0.0042897880675852
 40
0.0042897880675852
 40
0.0042897880675852
 10
34.26283182601088
 20
181.7160592221661
 30
0.0
 10
35.26226068977179
 20
181.031007414533
 30
0.0
 10
36.26228890757645
 20
180.3463935549007
 30
0.0
 10
37.26283182601088
 20
179.6621569657754
 30
0.0
  0
LINE
  5
10F
330
1F
100
AcDbEntity
  8
0
  6
Continuous
 62
     7
370
    15
100
AcDbLine
 10
34.262831826
 20
182.5859056105
 30
0.0
 11
34.262831826
 21
181.7160577763
 31
0.0
  0
SPLINE
  5
110
330
1F
100
AcDbEntity
  8
0
  6
Continuous
 62
     7
370
    15
100
AcDbSpline
210
0.0
220
0.0
230
1.0
 70
     8
 71
     3
 72
     8
 73
     4
 74
     0
 42
0.00000001
 43
0.00000001
 12
1.0
 22
0.0
 32
0.0
 13
1.0
 23
0.0
 33
0.0
 40
0.000000285811573
 40
0.000000285811573
 40
0.000000285811573
 40
0.000000285811573
 40
0.0042897877489765
 40
0.0042897877489765
 40
0.0042897877489765
 40
0.0042897877489765
 10
37.26283182601088
 20
279.5548537089657
 30
0.0
 10
36.26228890757646
 20
278.8706171198404
 30
0.0
 10
35.26226068977179
 20
278.1860032602082
 30
0.0
 10
34.26283182601088
 20
277.500951452575
 30
0.0
  0
LINE
  5
111
330
1F
100
AcDbEntity
  8
0
  6
Continuous
 62
     7
370
    15
100
AcDbLine
 10
34.262831826
 20
277.5009528984
 30
0.0
 11
34.262831826
 21
276.6311050643
 31
0.0
  0
LINE
  5
112
330
1F
100
AcDbEntity
  8
0
  6
Continuous
 62
     7
370
    15
100
AcDbLine
 10
55.284604002
 20
208.2711340178
 30
0.0
 11
72.4846045862
 21
208.2711340178
 31
0.0
  0
LINE
  5
113
330
1F
100
AcDbEntity
  8
0
  6
Continuous
 62
     7
370
    15
100
AcDbLine
 10
72.4846045862
 20
250.9458766569
 30
0.0
 11
55.284604002
 21
250.9458766569
 31
0.0
  0
SPLINE
  5
114
330
1F
100
AcDbEntity
  8
0
  6
Continuous
 62
     7
370
    15
100
AcDbSpline
210
0.0
220
0.0
230
1.0
 70
     8
 71
     3
 72
     8
 73
     4
 74
     0
 42
0.00000001
 43
0.00000001
 12
1.0
 22
0.0
 32
0.0
 13
1.0
 23
0.0
 33
0.0
 40
0.0
 40
0.0
 40
0.0
 40
0.0
 40
1.0
 40
1.0
 40
1.0
 40
1.0
 10
34.26283182601088
 20
171.3447122339227
 30
0.0
 10
35.18539678255807
 20
170.5939352348015
 30
0.0
 10
36.19514799463995
 20
169.754317717302
 30
0.0
 10
37.26283182601088
 20
168.8412639580607
 30
0.0
  0
LINE
  5
115
330
1F
100
AcDbEntity
  8
0
  6
Continuous
 62
     7
370
    15
100
AcDbLine
 10
34.262831826
 20
171.3447117497
 30
0.0
 11
34.262831826
 21
181.7160577763
 31
0.0
  0
SPLINE
  5
116
330
1F
100
AcDbEntity
  8
0
  6
Continuous
 62
     7
370
    15
100
AcDbSpline
210
0.0
220
0.0
230
1.0
 70
     8
 71
     3
 72
     8
 73
     4
 74
     0
 42
0.00000001
 43
0.00000001
 12
1.0
 22
0.0
 32
0.0
 13
1.0
 23
0.0
 33
0.0
 40
0.0
 40
0.0
 40
0.0
 40
0.0
 40
1.0
 40
1.0
 40
1.0
 40
1.0
 10
37.26283182601088
 20
290.3757467166808
 30
0.0
 10
36.19514799463995
 20
289.4626929574394
 30
0.0
 10
35.18539678255807
 20
288.6230754399399
 30
0.0
 10
34.26283182601088
 20
287.8722984408187
 30
0.0
  0
LINE
  5
117
330
1F
100
AcDbEntity
  8
0
  6
Continuous
 62
     7
370
    15
100
AcDbLine
 10
34.262831826
 20
277.5009528984
 30
0.0
 11
34.262831826
 21
287.8722989251
 31
0.0
  0
LINE
  5
118
330
1F
100
AcDbEntity
  8
0
  6
Continuous
 62
     7
370
    15
100
AcDbLine
 10
72.4846045862
 20
193.3604472567
 30
0.0
 11
55.284604002
 21
193.3604472567
 31
0.0
  0
LINE
  5
119
330
1F
100
AcDbEntity
  8
0
  6
Continuous
 62
     7
370
    15
100
AcDbLine
 10
55.284604002
 20
265.856563418
 30
0.0
 11
72.4846045862
 21
265.856563418
 31
0.0
  0
LINE
  5
11A
330
1F
100
AcDbEntity
  8
0
  6
Continuous
 62
     7
370
    15
100
AcDbLine
 10
161.6286444853
 20
136.3585063506
 30
0.0
 11
161.6286444853
 21
183.2493351091
 31
0.0
  0
LINE
  5
11B
330
1F
100
AcDbEntity
  8
0
  6
Continuous
 62
     7
370
    15
100
AcDbLine
 10
156.6286418031
 20
136.3585063506
 30
0.0
 11
156.6286418031
 21
144.846468537
 31
0.0
  0
LINE
  5
11C
330
1F
100
AcDbEntity
  8
0
  6
Continuous
 62
     7
370
    15
100
AcDbLine
 10
156.6286418031
 20
144.846468537
 30
0.0
 11
156.6286418031
 21
171.1339161981
 31
0.0
  0
LINE
  5
11D
330
1F
100
AcDbEntity
  8
0
  6
Continuous
 62
     7
370
    15
100
AcDbLine
 10
161.6286444853
 20
136.3585063506
 30
0.0
 11
156.6286418031
 21
136.3585063506
 31
0.0
  0
LINE
  5
11E
330
1F
100
AcDbEntity
  8
0
  6
Continuous
 62
     7
370
    15
100
AcDbLine
 10
132.262829263
 20
165.5603491951
 30
0.0
 11
156.6286418031
 21
144.846468537
 31
0.0
  0
LINE
  5
11F
330
1F
100
AcDbEntity
  8
0
  6
Continuous
 62
     7
370
    15
100
AcDbLine
 10
132.262829263
 20
165.5603491951
 30
0.0
 11
132.262829263
 21
169.9786626984
 31
0.0
  0
LINE
  5
120
330
1F
100
AcDbEntity
  8
0
  6
Continuous
 62
     7
370
    15
100
AcDbLine
 10
156.6286418031
 20
314.3705421378
 30
0.0
 11
132.262829263
 21
293.6566614796
 31
0.0
  0
LINE
  5
121
330
1F
100
AcDbEntity
  8
0
  6
Continuous
 62
     7
370
    15
100
AcDbLine
 10
156.6286418031
 20
288.0830944766
 30
0.0
 11
156.6286418031
 21
314.3705421378
 31
0.0
  0
LINE
  5
122
330
1F
100
AcDbEntity
  8
0
  6
Continuous
 62
     7
370
    15
100
AcDbLine
 10
132.262829263
 20
289.2383479763
 30
0.0
 11
132.262829263
 21
293.6566614796
 31
0.0
  0
LINE
  5
123
330
1F
100
AcDbEntity
  8
0
  6
Continuous
 62
     7
370
    15
100
AcDbLine
 10
156.6286418031
 20
322.8585043241
 30
0.0
 11
156.6286418031
 21
314.3705421378
 31
0.0
  0
LINE
  5
124
330
1F
100
AcDbEntity
  8
0
  6
Continuous
 62
     7
370
    15
100
AcDbLine
 10
161.6286444853
 20
322.8585043241
 30
0.0
 11
156.6286418031
 21
322.8585043241
 31
0.0
  0
LINE
  5
125
330
1F
100
AcDbEntity
  8
0
  6
Continuous
 62
     7
370
    15
100
AcDbLine
 10
161.6286444853
 20
275.9676755656
 30
0.0
 11
161.6286444853
 21
322.8585043241
 31
0.0
  0
LINE
  5
126
330
1F
100
AcDbEntity
  8
0
  6
Continuous
 62
     7
370
    15
100
AcDbLine
 10
161.8528324554
 20
290.1085050095
 30
0.0
 11
161.8528324554
 21
314.1085052182
 31
0.0
  0
LINE
  5
127
330
1F
100
AcDbEntity
  8
0
  6
Continuous
 62
     7
370
    15
100
AcDbLine
 10
164.3528300713
 20
290.1085050095
 30
0.0
 11
164.3528300713
 21
314.1085052182
 31
0.0
  0
LINE
  5
128
330
1F
100
AcDbEntity
  8
0
  6
Continuous
 62
     7
370
    15
100
AcDbLine
 10
164.3528300713
 20
145.1085054566
 30
0.0
 11
164.3528300713
 21
169.1085056652
 31
0.0
  0
LINE
  5
129
330
1F
100
AcDbEntity
  8
0
  6
Continuous
 62
     7
370
    15
100
AcDbLine
 10
161.8528324554
 20
145.1085054566
 30
0.0
 11
161.8528324554
 21
169.1085056652
 31
0.0
  0
LINE
  5
12A
330
1F
100
AcDbEntity
  8
0
  6
Continuous
 62
     7
370
    15
100
AcDbLine
 10
174.3528354357
 20
307.593330114
 30
0.0
 11
164.3528300713
 21
307.593330114
 31
0.0
  0
LINE
  5
12B
330
1F
100
AcDbEntity
  8
0
  6
Continuous
 62
     7
370
    15
100
AcDbLine
 10
174.3528354357
 20
307.593330114
 30
0.0
 11
174.3528354357
 21
296.6236763884
 31
0.0
  0
LINE
  5
12C
330
1F
100
AcDbEntity
  8
0
  6
Continuous
 62
     7
370
    15
100
AcDbLine
 10
174.3528354357
 20
296.6236763884
 30
0.0
 11
164.3528300713
 21
296.6236763884
 31
0.0
  0
LINE
  5
12D
330
1F
100
AcDbEntity
  8
0
  6
Continuous
 62
     7
370
    15
100
AcDbLine
 10
174.3528354357
 20
296.6236763884
 30
0.0
 11
174.3528354357
 21
291.1388495256
 31
0.0
  0
LINE
  5
12E
330
1F
100
AcDbEntity
  8
0
  6
Continuous
 62
     7
370
    15
100
AcDbLine
 10
174.3528354357
 20
291.1388495256
 30
0.0
 11
164.3528300713
 21
291.1388495256
 31
0.0
  0
LINE
  5
12F
330
1F
100
AcDbEntity
  8
0
  6
Continuous
 62
     7
370
    15
100
AcDbLine
 10
174.3528354357
 20
313.0781569768
 30
0.0
 11
164.3528300713
 21
313.0781569768
 31
0.0
  0
LINE
  5
130
330
1F
100
AcDbEntity
  8
0
  6
Continuous
 62
     7
370
    15
100
AcDbLine
 10
174.3528354357
 20
313.0781569768
 30
0.0
 11
174.3528354357
 21
307.593330114
 31
0.0
  0
LINE
  5
131
330
1F
100
AcDbEntity
  8
0
  6
Continuous
 62
     7
370
    15
100
AcDbLine
 10
174.3528354357
 20
162.5933342863
 30
0.0
 11
164.3528300713
 21
162.5933342863
 31
0.0
  0
LINE
  5
132
330
1F
100
AcDbEntity
  8
0
  6
Continuous
 62
     7
370
    15
100
AcDbLine
 10
174.3528354357
 20
162.5933342863
 30
0.0
 11
174.3528354357
 21
151.6236805607
 31
0.0
  0
LINE
  5
133
330
1F
100
AcDbEntity
  8
0
  6
Continuous
 62
     7
370
    15
100
AcDbLine
 10
174.3528354357
 20
151.6236805607
 30
0.0
 11
164.3528300713
 21
151.6236805607
 31
0.0
  0
LINE
  5
134
330
1F
100
AcDbEntity
  8
0
  6
Continuous
 62
     7
370
    15
100
AcDbLine
 10
174.3528354357
 20
168.0781611492
 30
0.0
 11
164.3528300713
 21
168.0781611492
 31
0.0
  0
LINE
  5
135
330
1F
100
AcDbEntity
  8
0
  6
Continuous
 62
     7
370
    15
100
AcDbLine
 10
174.3528354357
 20
168.0781611492
 30
0.0
 11
174.3528354357
 21
162.5933342863
 31
0.0
  0
LINE
  5
136
330
1F
100
AcDbEntity
  8
0
  6
Continuous
 62
     7
370
    15
100
AcDbLine
 10
174.3528354357
 20
146.1388536979
 30
0.0
 11
164.3528300713
 21
146.1388536979
 31
0.0
  0
LINE
  5
137
330
1F
100
AcDbEntity
  8
0
  6
Continuous
 62
     7
370
    15
100
AcDbLine
 10
174.3528354357
 20
151.6236805607
 30
0.0
 11
174.3528354357
 21
146.1388536979
 31
0.0
  0
LINE
  5
138
330
1F
100
AcDbEntity
  8
0
  6
Continuous
 62
     7
370
    15
100
AcDbLine
 10
181.7628252695
 20
294.1085019399
 30
0.0
 11
181.7628252695
 21
310.1085045625
 31
0.0
  0
LINE
  5
139
330
1F
100
AcDbEntity
  8
0
  6
Continuous
 62
     7
370
    15
100
AcDbLine
 10
181.2628317068
 20
294.1085019399
 30
0.0
 11
181.2628317068
 21
310.1085045625
 31
0.0
  0
LINE
  5
13A
330
1F
100
AcDbEntity
  8
0
  6
Continuous
 62
     7
370
    15
100
AcDbLine
 10
181.7628252695
 20
149.1085061122
 30
0.0
 11
181.7628252695
 21
165.1085087348
 31
0.0
  0
LINE
  5
13B
330
1F
100
AcDbEntity
  8
0
  6
Continuous
 62
     7
370
    15
100
AcDbLine
 10
181.2628317068
 20
149.1085061122
 30
0.0
 11
181.2628317068
 21
165.1085087348
 31
0.0
  0
LINE
  5
13C
330
1F
100
AcDbEntity
  8
0
  6
Continuous
 62
     7
370
    15
100
AcDbLine
 10
57.0628322105
 20
308.7335073639
 30
0.0
 11
57.0628322105
 21
295.4835065891
 31
0.0
  0
LINE
  5
13D
330
1F
100
AcDbEntity
  8
0
  6
Continuous
 62
     7
370
    15
100
AcDbLine
 10
57.0628322105
 20
295.4835065891
 30
0.0
 11
54.6407732556
 21
295.4835065891
 31
0.0
  0
LINE
  5
13E
330
1F
100
AcDbEntity
  8
0
  6
Continuous
 62
     7
370
    15
100
AcDbLine
 10
57.0628322105
 20
308.7335073639
 30
0.0
 11
53.9492755572
 21
308.7335073639
 31
0.0
  0
LINE
  5
13F
330
1F
100
AcDbEntity
  8
0
  6
Continuous
 62
     7
370
    15
100
AcDbLine
 10
57.0628322105
 20
163.7335040857
 30
0.0
 11
57.0628322105
 21
150.4835033108
 31
0.0
  0
LINE
  5
140
330
1F
100
AcDbEntity
  8
0
  6
Continuous
 62
     7
370
    15
100
AcDbLine
 10
57.0628322105
 20
150.4835033108
 30
0.0
 11
53.9492755572
 21
150.4835033108
 31
0.0
  0
LINE
  5
141
330
1F
100
AcDbEntity
  8
0
  6
Continuous
 62
     7
370
    15
100
AcDbLine
 10
57.0628322105
 20
163.7335040857
 30
0.0
 11
54.6407732556
 21
163.7335040857
 31
0.0
  0
LINE
  5
142
330
1F
100
AcDbEntity
  8
0
  6
Continuous
 62
     7
370
    15
100
AcDbLine
 10
193.2628262232
 20
295.6085049797
 30
0.0
 11
193.2628262232
 21
308.6085089733
 31
0.0
  0
LINE
  5
143
330
1F
100
AcDbEntity
  8
0
  6
Continuous
 62
     7
370
    15
100
AcDbLine
 10
193.2628262232
 20
150.6085017015
 30
0.0
 11
193.2628262232
 21
163.608505695
 31
0.0
  0
LINE
  5
144
330
1F
100
AcDbEntity
  8
0
  6
Continuous
 62
     7
370
     0
100
AcDbLine
 10
134.6319946835
 20
214.7613003169
 30
0.0
 11
134.6319946835
 21
167.4396910955
 31
0.0
  0
LINE
  5
145
330
1F
100
AcDbEntity
  8
0
  6
Continuous
 62
     7
370
     0
100
AcDbLine
 10
134.6319946835
 20
291.7773195793
 30
0.0
 11
134.6319946835
 21
244.4557103579
 31
0.0
  0
LINE
  5
146
330
1F
100
AcDbEntity
  8
0
  6
Continuous
 62
     7
370
     0
100
AcDbLine
 10
54.2852632145
 20
172.3677397956
 30
0.0
 11
53.8671496699
 21
172.3522425879
 31
0.0
  0
LINE
  5
147
330
1F
100
AcDbEntity
  8
0
  6
Continuous
 62
     7
370
     0
100
AcDbLine
 10
54.2852632145
 20
286.8492708792
 30
0.0
 11
53.867144082
 21
286.8647680868
 31
0.0
  0
LINE
  5
148
330
1F
100
AcDbEntity
  8
0
  6
Continuous
 62
     7
370
     0
100
AcDbLine
 10
130.023728628
 20
174.1085046221
 30
0.0
 11
130.023728628
 21
223.6085052852
 31
0.0
  0
LINE
  5
149
330
1F
100
AcDbEntity
  8
0
  6
Continuous
 62
     7
370
     0
100
AcDbLine
 10
130.023728628
 20
235.6085053895
 30
0.0
 11
130.023728628
 21
285.1085060526
 31
0.0
  0
LINE
  5
14A
330
1F
100
AcDbEntity
  8
0
  6
Continuous
 62
     7
370
     0
100
AcDbLine
 10
127.7255970428
 20
175.1801439811
 30
0.0
 11
127.7255970428
 21
223.6085052852
 31
0.0
  0
LINE
  5
14B
330
1F
100
AcDbEntity
  8
0
  6
Continuous
 62
     7
370
     0
100
AcDbLine
 10
127.7255970428
 20
235.6085053895
 30
0.0
 11
127.7255970428
 21
284.0368666936
 31
0.0
  0
LINE
  5
14C
330
1F
100
AcDbEntity
  8
0
  6
Continuous
 62
     7
370
     0
100
AcDbLine
 10
130.8628353665
 20
174.1085046221
 30
0.0
 11
130.8628353665
 21
223.6085052852
 31
0.0
  0
LINE
  5
14D
330
1F
100
AcDbEntity
  8
0
  6
Continuous
 62
     7
370
     0
100
AcDbLine
 10
130.8628353665
 20
235.6085053895
 30
0.0
 11
130.8628353665
 21
285.1085060526
 31
0.0
  0
LINE
  5
14E
330
1F
100
AcDbEntity
  8
0
  6
Continuous
 62
     7
370
     0
100
AcDbLine
 10
124.9471414278
 20
178.4913757135
 30
0.0
 11
124.9471414278
 21
223.6085052852
 31
0.0
  0
LINE
  5
14F
330
1F
100
AcDbEntity
  8
0
  6
Continuous
 62
     7
370
     0
100
AcDbLine
 10
124.9471414278
 20
235.6085053895
 30
0.0
 11
124.9471414278
 21
280.7256349613
 31
0.0
  0
LINE
  5
150
330
1F
100
AcDbEntity
  8
0
  6
Continuous
 62
     7
370
     0
100
AcDbLine
 10
120.7681405733
 20
180.2652583708
 30
0.0
 11
120.7681405733
 21
223.6085052852
 31
0.0
  0
LINE
  5
151
330
1F
100
AcDbEntity
  8
0
  6
Continuous
 62
     7
370
     0
100
AcDbLine
 10
120.7681405733
 20
235.6085053895
 30
0.0
 11
120.7681405733
 21
278.951752304
 31
0.0
  0
LINE
  5
152
330
1F
100
AcDbEntity
  8
0
  6
Continuous
 62
     7
370
     0
100
AcDbLine
 10
72.4846045862
 20
208.75443828
 30
0.0
 11
55.284604002
 21
208.75443828
 31
0.0
  0
LINE
  5
153
330
1F
100
AcDbEntity
  8
0
  6
Continuous
 62
     7
370
     0
100
AcDbLine
 10
72.4846045862
 20
250.4625723947
 30
0.0
 11
55.284604002
 21
250.4625723947
 31
0.0
  0
LINE
  5
154
330
1F
100
AcDbEntity
  8
0
  6
Continuous
 62
     7
370
     0
100
AcDbLine
 10
162.6286316107
 20
278.6085040559
 30
0.0
 11
162.6286316107
 21
241.6085054417
 31
0.0
  0
LINE
  5
155
330
1F
100
AcDbEntity
  8
0
  6
Continuous
 62
     7
370
     0
100
AcDbLine
 10
162.6286316107
 20
217.6085052331
 30
0.0
 11
162.6286316107
 21
180.6085066189
 31
0.0
  0
LINE
  5
156
330
1F
100
AcDbEntity
  8
0
  6
Continuous
 62
     7
370
     0
100
AcDbLine
 10
55.0909801761
 20
183.3577522327
 30
0.0
 11
54.2180124114
 21
183.3254018117
 31
0.0
  0
LINE
  5
157
330
1F
100
AcDbEntity
  8
0
  6
Continuous
 62
     7
370
     0
100
AcDbLine
 10
37.2628318521
 20
182.6970794488
 30
0.0
 11
34.262831826
 21
182.5859056105
 31
0.0
  0
LINE
  5
158
330
1F
100
AcDbEntity
  8
0
  6
Continuous
 62
     7
370
     0
100
AcDbLine
 10
55.0909801761
 20
275.8592584421
 30
0.0
 11
54.2179490815
 21
275.8916125883
 31
0.0
  0
LINE
  5
159
330
1F
100
AcDbEntity
  8
0
  6
Continuous
 62
     7
370
     0
100
AcDbLine
 10
37.2628318521
 20
276.5199312259
 30
0.0
 11
34.262831826
 21
276.6311050643
 31
0.0
  0
LINE
  5
15A
330
1F
100
AcDbEntity
  8
0
  6
Continuous
 62
     7
370
     0
100
AcDbLine
 10
72.4846045862
 20
190.1236319233
 30
0.0
 11
55.284604002
 21
190.1236319233
 31
0.0
  0
LINE
  5
15B
330
1F
100
AcDbEntity
  8
0
  6
Continuous
 62
     7
370
     0
100
AcDbLine
 10
72.4846045862
 20
269.0933787514
 30
0.0
 11
55.284604002
 21
269.0933787514
 31
0.0
  0
LINE
  5
15C
330
1F
100
AcDbEntity
  8
0
  6
CENTERX2
 62
     7
370
     0
100
AcDbLine
 10
196.0530659887
 20
229.6085053374
 30
0.0
 11
30.7788460093
 21
229.6085053374
 31
0.0
  0
LINE
  5
15D
330
1F
100
AcDbEntity
  8
0
  6
Continuous
 62
     7
370
    15
100
AcDbLine
 10
278.4926710541
 20
264.065924405
 30
0.0
 11
279.3625188882
 21
263.1960765709
 31
0.0
  0
ARC
  5
15E
330
1F
100
AcDbEntity
  8
0
  6
Continuous
 62
     7
370
    15
100
AcDbCircle
 10
286.0800320875
 20
269.913591865
 30
0.0
 40
9.499999999999996
100
AcDbArc
 50
225.0
 51
45.0
  0
LINE
  5
15F
330
1F
100
AcDbEntity
  8
0
  6
Continuous
 62
     7
370
    15
100
AcDbLine
 10
292.7975473816
 20
276.6311050643
 30
0.0
 11
291.9276995475
 21
277.5009528984
 31
0.0
  0
ARC
  5
160
330
1F
100
AcDbEntity
  8
0
  6
Continuous
 62
     7
370
    15
100
AcDbCircle
 10
326.3851186152
 20
229.6085053374
 30
0.0
 40
58.99999999999997
100
AcDbArc
 50
99.0607510635
 51
125.7340714962
  0
ARC
  5
161
330
1F
100
AcDbEntity
  8
0
  6
Continuous
 62
     7
370
    15
100
AcDbCircle
 10
326.3851186152
 20
302.1085053374
 30
0.0
 40
17.00000000000006
100
AcDbArc
 50
236.869084983
 51
303.130915017
  0
ARC
  5
162
330
1F
100
AcDbEntity
  8
0
  6
Continuous
 62
     7
370
    15
100
AcDbCircle
 10
326.3851186152
 20
229.6085053374
 30
0.0
 40
58.99999999999998
100
AcDbArc
 50
54.2659285038
 51
80.9392489365
  0
LINE
  5
163
330
1F
100
AcDbEntity
  8
0
  6
Continuous
 62
     7
370
    15
100
AcDbLine
 10
360.8425376828
 20
277.5009528984
 30
0.0
 11
359.9726898487
 21
276.6311050643
 31
0.0
  0
ARC
  5
164
330
1F
100
AcDbEntity
  8
0
  6
Continuous
 62
     7
370
    15
100
AcDbCircle
 10
366.6902051428
 20
269.913591865
 30
0.0
 40
9.499999999999996
100
AcDbArc
 50
135.0
 51
315.0
  0
LINE
  5
165
330
1F
100
AcDbEntity
  8
0
  6
Continuous
 62
     7
370
    15
100
AcDbLine
 10
373.4077183421
 20
263.1960765709
 30
0.0
 11
374.2775661762
 21
264.065924405
 31
0.0
  0
ARC
  5
166
330
1F
100
AcDbEntity
  8
0
  6
Continuous
 62
     7
370
    15
100
AcDbCircle
 10
326.3851186152
 20
229.6085053374
 30
0.0
 40
59.00000000000004
100
AcDbArc
 50
9.0607510635
 51
35.7340714962
  0
ARC
  5
167
330
1F
100
AcDbEntity
  8
0
  6
Continuous
 62
     7
370
    15
100
AcDbCircle
 10
398.8851186152
 20
229.6085053374
 30
0.0
 40
17.0
100
AcDbArc
 50
146.869084983
 51
213.130915017
  0
ARC
  5
168
330
1F
100
AcDbEntity
  8
0
  6
Continuous
 62
     7
370
    15
100
AcDbCircle
 10
326.3851186152
 20
229.6085053374
 30
0.0
 40
59.00000000000005
100
AcDbArc
 50
324.2659285038
 51
350.9392489365
  0
LINE
  5
169
330
1F
100
AcDbEntity
  8
0
  6
Continuous
 62
     7
370
    15
100
AcDbLine
 10
374.2775661762
 20
195.1510862697
 30
0.0
 11
373.4077183421
 21
196.0209341039
 31
0.0
  0
ARC
  5
16A
330
1F
100
AcDbEntity
  8
0
  6
Continuous
 62
     7
370
    15
100
AcDbCircle
 10
366.6902051428
 20
189.3034188097
 30
0.0
 40
9.500000000000016
100
AcDbArc
 50
45.0
 51
225.0
  0
LINE
  5
16B
330
1F
100
AcDbEntity
  8
0
  6
Continuous
 62
     7
370
    15
100
AcDbLine
 10
359.9726898487
 20
182.5859056105
 30
0.0
 11
360.8425376828
 21
181.7160577763
 31
0.0
  0
ARC
  5
16C
330
1F
100
AcDbEntity
  8
0
  6
Continuous
 62
     7
370
    15
100
AcDbCircle
 10
326.3851186152
 20
229.6085053374
 30
0.0
 40
58.99999999999999
100
AcDbArc
 50
279.0607510635
 51
305.7340714962
  0
ARC
  5
16D
330
1F
100
AcDbEntity
  8
0
  6
Continuous
 62
     7
370
    15
100
AcDbCircle
 10
326.3851186152
 20
157.1085053374
 30
0.0
 40
17.00000000000003
100
AcDbArc
 50
56.869084983
 51
123.130915017
  0
ARC
  5
16E
330
1F
100
AcDbEntity
  8
0
  6
Continuous
 62
     7
370
    15
100
AcDbCircle
 10
326.3851186152
 20
229.6085053374
 30
0.0
 40
58.99999999999996
100
AcDbArc
 50
234.2659285038
 51
260.9392489365
  0
LINE
  5
16F
330
1F
100
AcDbEntity
  8
0
  6
Continuous
 62
     7
370
    15
100
AcDbLine
 10
291.9276995475
 20
181.7160577763
 30
0.0
 11
292.7975473816
 21
182.5859056105
 31
0.0
  0
ARC
  5
170
330
1F
100
AcDbEntity
  8
0
  6
Continuous
 62
     7
370
    15
100
AcDbCircle
 10
286.0800320875
 20
189.3034188097
 30
0.0
 40
9.500000000000016
100
AcDbArc
 50
315.0
 51
135.0
  0
LINE
  5
171
330
1F
100
AcDbEntity
  8
0
  6
Continuous
 62
     7
370
    15
100
AcDbLine
 10
279.3625188882
 20
196.0209341039
 30
0.0
 11
278.4926710541
 21
195.1510862697
 31
0.0
  0
ARC
  5
172
330
1F
100
AcDbEntity
  8
0
  6
Continuous
 62
     7
370
    15
100
AcDbCircle
 10
326.3851186152
 20
229.6085053374
 30
0.0
 40
58.99999999999996
100
AcDbArc
 50
189.0607510635
 51
215.7340714962
  0
ARC
  5
173
330
1F
100
AcDbEntity
  8
0
  6
Continuous
 62
     7
370
    15
100
AcDbCircle
 10
253.8851186152
 20
229.6085053374
 30
0.0
 40
17.00000000000003
100
AcDbArc
 50
326.869084983
 51
33.130915017
  0
ARC
  5
174
330
1F
100
AcDbEntity
  8
0
  6
Continuous
 62
     7
370
    15
100
AcDbCircle
 10
326.3851186152
 20
229.6085053374
 30
0.0
 40
59.00000000000004
100
AcDbArc
 50
144.2659285038
 51
170.9392489365
  0
CIRCLE
  5
175
330
1F
100
AcDbEntity
  8
0
  6
Continuous
 62
     7
370
    15
100
AcDbCircle
 10
326.3851186152
 20
229.6085053374
 30
0.0
 40
32.5
  0
SPLINE
  5
176
330
1F
100
AcDbEntity
  8
0
  6
Continuous
 62
     7
370
    15
100
AcDbSpline
210
0.0
220
0.0
230
1.0
 70
     8
 71
     3
 72
     8
 73
     4
 74
     0
 42
0.00000001
 43
0.00000001
 12
1.0
 22
0.0
 32
0.0
 13
1.0
 23
0.0
 33
0.0
 40
0.0000002861301817
 40
0.0000002861301817
 40
0.0000002861301817
 40
0.0000002861301817
 40
0.0042897880675852
 40
0.0042897880675852
 40
0.0042897880675852
 40
0.0042897880675852
 10
278.4926724999513
 20
195.1510880647103
 30
0.0
 10
277.8076206923181
 20
194.391962795056
 30
0.0
 10
277.1230068326859
 20
193.6332310518029
 30
0.0
 10
276.4387702435605
 20
192.8748384316117
 30
0.0
  0
LINE
  5
177
330
1F
100
AcDbEntity
  8
0
  6
Continuous
 62
     7
370
    15
100
AcDbLine
 10
269.1443530734
 20
184.3187877227
 30
0.0
 11
280.1343655105
 21
195.2490874816
 31
0.0
  0
LINE
  5
178
330
1F
100
AcDbEntity
  8
0
  6
Continuous
 62
     7
370
    15
100
AcDbLine
 10
276.438769501
 20
192.8748370398
 30
0.0
 11
268.513534766
 21
184.9496060301
 31
0.0
  0
LINE
  5
179
330
1F
100
AcDbEntity
  8
0
  6
Continuous
 62
     7
370
    15
100
AcDbLine
 10
292.0257007594
 20
183.3577522327
 30
0.0
 11
281.0954010005
 21
172.3677397956
 31
0.0
  0
SPLINE
  5
17A
330
1F
100
AcDbEntity
  8
0
  6
Continuous
 62
     7
370
    15
100
AcDbSpline
210
0.0
220
0.0
230
1.0
 70
     8
 71
     3
 72
     8
 73
     4
 74
     0
 42
0.00000001
 43
0.00000001
 12
1.0
 22
0.0
 32
0.0
 13
1.0
 23
0.0
 33
0.0
 40
0.000000285811573
 40
0.000000285811573
 40
0.000000285811573
 40
0.000000285811573
 40
0.0042897877489765
 40
0.0042897877489765
 40
0.0042897877489765
 40
0.0042897877489765
 10
289.6514517093971
 20
179.6621569657751
 30
0.0
 10
290.4098443295883
 20
180.3463935549005
 30
0.0
 10
291.1685760728413
 20
181.0310074145327
 30
0.0
 10
291.9277013424957
 20
181.7160592221659
 30
0.0
  0
LINE
  5
17B
330
1F
100
AcDbEntity
  8
0
  6
Continuous
 62
     7
370
    15
100
AcDbLine
 10
281.7262193079
 20
171.7369214882
 30
0.0
 11
289.6514503176
 21
179.6621562232
 31
0.0
  0
ARC
  5
17C
330
1F
100
AcDbEntity
  8
0
  6
Continuous
 62
     7
370
    15
100
AcDbCircle
 10
326.3851186152
 20
229.6085053374
 30
0.0
 40
62.00000000000003
100
AcDbArc
 50
197.4370674909
 51
216.3330879459
  0
ARC
  5
17D
330
1F
100
AcDbEntity
  8
0
  6
Continuous
 62
     7
370
    15
100
AcDbCircle
 10
326.3851186152
 20
229.6085053374
 30
0.0
 40
62.00000000000003
100
AcDbArc
 50
191.4446639324
 51
197.4370674909
  0
SPLINE
  5
17E
330
1F
100
AcDbEntity
  8
0
  6
Continuous
 62
     7
370
    15
100
AcDbSpline
210
0.0
220
0.0
230
1.0
 70
     8
 71
     3
 72
     8
 73
     4
 74
     0
 42
0.00000001
 43
0.00000001
 12
1.0
 22
0.0
 32
0.0
 13
1.0
 23
0.0
 33
0.0
 40
0.0
 40
0.0
 40
0.0
 40
0.0
 40
1.0
 40
1.0
 40
1.0
 40
1.0
 10
268.1213255117083
 20
220.3170892343941
 30
0.0
 10
267.3705485125871
 20
219.1667568658718
 30
0.0
 10
266.5309309950875
 20
218.1771720228477
 30
0.0
 10
265.6178772358462
 20
217.3063764505187
 30
0.0
  0
ARC
  5
17F
330
1F
100
AcDbEntity
  8
0
  6
Continuous
 62
     7
370
    15
100
AcDbCircle
 10
326.3851186152
 20
229.6085053374
 30
0.0
 40
62.00000000000003
100
AcDbArc
 50
233.6669120541
 51
252.5629325092
  0
SPLINE
  5
180
330
1F
100
AcDbEntity
  8
0
  6
Continuous
 62
     7
370
    15
100
AcDbSpline
210
0.0
220
0.0
230
1.0
 70
     8
 71
     3
 72
     8
 73
     4
 74
     0
 42
0.00000001
 43
0.00000001
 12
1.0
 22
0.0
 32
0.0
 13
1.0
 23
0.0
 33
0.0
 40
0.0
 40
0.0
 40
0.0
 40
0.0
 40
1.0
 40
1.0
 40
1.0
 40
1.0
 10
314.0829897283107
 20
168.8412639580594
 30
0.0
 10
314.9537853006399
 20
169.7543177173008
 30
0.0
 10
315.9433701436642
 20
170.5939352348004
 30
0.0
 10
317.0937025121868
 20
171.3447122339217
 30
0.0
  0
ARC
  5
181
330
1F
100
AcDbEntity
  8
0
  6
Continuous
 62
     7
370
    15
100
AcDbCircle
 10
326.3851186152
 20
229.6085053374
 30
0.0
 40
62.00000000000003
100
AcDbArc
 50
252.5629325092
 51
258.5553360676
  0
ARC
  5
182
330
1F
100
AcDbEntity
  8
0
  6
Continuous
 62
     7
370
    15
100
AcDbCircle
 10
286.0800320875
 20
189.3034188097
 30
0.0
 40
8.398295640480509
100
AcDbArc
 50
340.482955813
 51
109.517044187
  0
SPLINE
  5
183
330
1F
100
AcDbEntity
  8
0
  6
Continuous
 62
     7
370
    15
100
AcDbSpline
210
0.0
220
0.0
230
1.0
 70
     8
 71
     3
 72
    12
 73
     8
 74
     0
 42
0.00000001
 43
0.00000001
 12
1.0
 22
0.0
 32
0.0
 13
1.0
 23
0.0
 33
0.0
 40
0.0
 40
0.0
 40
0.0
 40
0.0
 40
0.25
 40
0.25
 40
0.5
 40
0.5
 40
1.0
 40
1.0
 40
1.0
 40
1.0
 10
280.1343650183537
 20
195.2490858789063
 30
0.0
 10
280.3537696334382
 20
195.4673009301109
 30
0.0
 10
280.5848313268615
 20
195.6730819472305
 30
0.0
 10
281.070468702495
 20
196.059562178538
 30
0.0
 10
281.3263244783566
 20
196.2410411653824
 30
0.0
 10
282.1213259809348
 20
196.7403233914024
 30
0.0
 10
282.6822222872768
 20
197.011057223558
 30
0.0
 10
283.2742685184513
 20
197.2191664345284
 30
0.0
  0
SPLINE
  5
184
330
1F
100
AcDbEntity
  8
0
  6
Continuous
 62
     7
370
    15
100
AcDbSpline
210
0.0
220
0.0
230
1.0
 70
     8
 71
     3
 72
    10
 73
     6
 74
     0
 42
0.00000001
 43
0.00000001
 12
1.0
 22
0.0
 32
0.0
 13
1.0
 23
0.0
 33
0.0
 40
0.0
 40
0.0
 40
0.0
 40
0.0
 40
0.5
 40
0.5
 40
1.0
 40
1.0
 40
1.0
 40
1.0
 10
293.9957797123138
 20
186.4976552406659
 30
0.0
 10
293.7874654985289
 20
185.905025800593
 30
0.0
 10
293.5174762217271
 20
185.3466403375638
 30
0.0
 10
292.8588243345565
 20
184.2957523943295
 30
0.0
 10
292.4653611306314
 20
183.7998104602902
 30
0.0
 10
292.0256991566916
 20
183.3577517405683
 30
0.0
  0
ARC
  5
185
330
1F
100
AcDbEntity
  8
0
  6
Continuous
 62
     7
370
    15
100
AcDbCircle
 10
326.3851186152
 20
229.6085053374
 30
0.0
 40
62.00000000000006
100
AcDbArc
 50
143.6669120541
 51
162.5629325092
  0
SPLINE
  5
186
330
1F
100
AcDbEntity
  8
0
  6
Continuous
 62
     7
370
    15
100
AcDbSpline
210
0.0
220
0.0
230
1.0
 70
     8
 71
     3
 72
     8
 73
     4
 74
     0
 42
0.00000001
 43
0.00000001
 12
1.0
 22
0.0
 32
0.0
 13
1.0
 23
0.0
 33
0.0
 40
0.000000285811573
 40
0.000000285811573
 40
0.000000285811573
 40
0.000000285811573
 40
0.0042897877489765
 40
0.0042897877489765
 40
0.0042897877489765
 40
0.0042897877489765
 10
276.4387702435605
 20
266.3421722431291
 30
0.0
 10
277.1230068326859
 20
265.5837796229379
 30
0.0
 10
277.8076206923181
 20
264.8250478796849
 30
0.0
 10
278.4926724999513
 20
264.0659226100306
 30
0.0
  0
ARC
  5
187
330
1F
100
AcDbEntity
  8
0
  6
Continuous
 62
     7
370
    15
100
AcDbCircle
 10
326.3851186152
 20
229.6085053374
 30
0.0
 40
62.00000000000005
100
AcDbArc
 50
162.5629325092
 51
168.5553360676
  0
SPLINE
  5
188
330
1F
100
AcDbEntity
  8
0
  6
Continuous
 62
     7
370
    15
100
AcDbSpline
210
0.0
220
0.0
230
1.0
 70
     8
 71
     3
 72
     8
 73
     4
 74
     0
 42
0.00000001
 43
0.00000001
 12
1.0
 22
0.0
 32
0.0
 13
1.0
 23
0.0
 33
0.0
 40
0.0
 40
0.0
 40
0.0
 40
0.0
 40
1.0
 40
1.0
 40
1.0
 40
1.0
 10
265.6178772358456
 20
241.9106342242189
 30
0.0
 10
266.5309309950869
 20
241.0398386518899
 30
0.0
 10
267.3705485125865
 20
240.0502538088658
 30
0.0
 10
268.1213255117078
 20
238.8999214403435
 30
0.0
  0
SPLINE
  5
189
330
1F
100
AcDbEntity
  8
0
  6
Continuous
 62
     7
370
    15
100
AcDbSpline
210
0.0
220
0.0
230
1.0
 70
     8
 71
     3
 72
     8
 73
     4
 74
     0
 42
0.00000001
 43
0.00000001
 12
1.0
 22
0.0
 32
0.0
 13
1.0
 23
0.0
 33
0.0
 40
0.0000002861301817
 40
0.0000002861301817
 40
0.0000002861301817
 40
0.0000002861301817
 40
0.0042897880675852
 40
0.0042897880675852
 40
0.0042897880675852
 40
0.0042897880675852
 10
360.8425358878166
 20
181.7160592221661
 30
0.0
 10
361.6016611574709
 20
181.031007414533
 30
0.0
 10
362.360392900724
 20
180.3463935549007
 30
0.0
 10
363.1187855209151
 20
179.6621569657754
 30
0.0
  0
ARC
  5
18A
330
1F
100
AcDbEntity
  8
0
  6
Continuous
 62
     7
370
    15
100
AcDbCircle
 10
326.3851186152
 20
229.6085053374
 30
0.0
 40
62.00000000000003
100
AcDbArc
 50
287.4370674909
 51
306.3330879459
  0
ARC
  5
18B
330
1F
100
AcDbEntity
  8
0
  6
Continuous
 62
     7
370
    15
100
AcDbCircle
 10
326.3851186152
 20
229.6085053374
 30
0.0
 40
62.00000000000006
100
AcDbArc
 50
281.4446639324
 51
287.4370674909
  0
SPLINE
  5
18C
330
1F
100
AcDbEntity
  8
0
  6
Continuous
 62
     7
370
    15
100
AcDbSpline
210
0.0
220
0.0
230
1.0
 70
     8
 71
     3
 72
     8
 73
     4
 74
     0
 42
0.00000001
 43
0.00000001
 12
1.0
 22
0.0
 32
0.0
 13
1.0
 23
0.0
 33
0.0
 40
0.0
 40
0.0
 40
0.0
 40
0.0
 40
1.0
 40
1.0
 40
1.0
 40
1.0
 10
335.6765347181314
 20
171.3447122339227
 30
0.0
 10
336.826867086654
 20
170.5939352348015
 30
0.0
 10
337.8164519296784
 20
169.754317717302
 30
0.0
 10
338.6872475020078
 20
168.8412639580607
 30
0.0
  0
LINE
  5
18D
330
1F
100
AcDbEntity
  8
0
  6
Continuous
 62
     7
370
    15
100
AcDbLine
 10
280.1343655105
 20
263.9679231931
 30
0.0
 11
269.1443530734
 21
274.898222952
 31
0.0
  0
LINE
  5
18E
330
1F
100
AcDbEntity
  8
0
  6
Continuous
 62
     7
370
    15
100
AcDbLine
 10
268.513534766
 20
274.2674046446
 30
0.0
 11
276.438769501
 21
266.3421736349
 31
0.0
  0
LINE
  5
18F
330
1F
100
AcDbEntity
  8
0
  6
Continuous
 62
     7
370
    15
100
AcDbLine
 10
371.6748362298
 20
172.3677397956
 30
0.0
 11
360.7445364709
 21
183.3577522327
 31
0.0
  0
LINE
  5
190
330
1F
100
AcDbEntity
  8
0
  6
Continuous
 62
     7
370
    15
100
AcDbLine
 10
363.1187869127
 20
179.6621562232
 30
0.0
 11
371.0440179224
 21
171.7369214882
 31
0.0
  0
SPLINE
  5
191
330
1F
100
AcDbEntity
  8
0
  6
Continuous
 62
     7
370
    15
100
AcDbSpline
210
0.0
220
0.0
230
1.0
 70
     8
 71
     3
 72
    10
 73
     6
 74
     0
 42
0.00000001
 43
0.00000001
 12
1.0
 22
0.0
 32
0.0
 13
1.0
 23
0.0
 33
0.0
 40
0.0
 40
0.0
 40
0.0
 40
0.0
 40
0.5
 40
0.5
 40
1.0
 40
1.0
 40
1.0
 40
1.0
 10
283.2742685184513
 20
261.9978442402124
 30
0.0
 10
282.6816390783784
 20
262.2061584539973
 30
0.0
 10
282.1232536153492
 20
262.4761477307991
 30
0.0
 10
281.0723656721149
 20
263.1347996179697
 30
0.0
 10
280.5764237380756
 20
263.5282628218948
 30
0.0
 10
280.1343650183537
 20
263.9679247958346
 30
0.0
  0
ARC
  5
192
330
1F
100
AcDbEntity
  8
0
  6
Continuous
 62
     7
370
    15
100
AcDbCircle
 10
286.0800320875
 20
269.913591865
 30
0.0
 40
8.398295640480562
100
AcDbArc
 50
250.482955813
 51
19.517044187
  0
SPLINE
  5
193
330
1F
100
AcDbEntity
  8
0
  6
Continuous
 62
     7
370
    15
100
AcDbSpline
210
0.0
220
0.0
230
1.0
 70
     8
 71
     3
 72
    12
 73
     8
 74
     0
 42
0.00000001
 43
0.00000001
 12
1.0
 22
0.0
 32
0.0
 13
1.0
 23
0.0
 33
0.0
 40
0.0
 40
0.0
 40
0.0
 40
0.0
 40
0.2499999999999988
 40
0.2499999999999988
 40
0.4999999999999977
 40
0.4999999999999977
 40
1.0
 40
1.0
 40
1.0
 40
1.0
 10
292.0256991566916
 20
275.8592589341725
 30
0.0
 10
292.2439142078962
 20
275.639854319088
 30
0.0
 10
292.4496952250158
 20
275.4087926256648
 30
0.0
 10
292.8361754563234
 20
274.9231552500314
 30
0.0
 10
293.0176544431678
 20
274.6672994741697
 30
0.0
 10
293.5169366691878
 20
273.8722979715915
 30
0.0
 10
293.7876705013434
 20
273.3114016652494
 30
0.0
 10
293.9957797123138
 20
272.7193554340749
 30
0.0
  0
SPLINE
  5
194
330
1F
100
AcDbEntity
  8
0
  6
Continuous
 62
     7
370
    15
100
AcDbSpline
210
0.0
220
0.0
230
1.0
 70
     8
 71
     3
 72
    10
 73
     6
 74
     0
 42
0.00000001
 43
0.00000001
 12
1.0
 22
0.0
 32
0.0
 13
1.0
 23
0.0
 33
0.0
 40
0.0
 40
0.0
 40
0.0
 40
0.0
 40
0.5
 40
0.5
 40
1.0
 40
1.0
 40
1.0
 40
1.0
 10
369.4959687118608
 20
197.2191664345287
 30
0.0
 10
370.0885981519338
 20
197.0108522207439
 30
0.0
 10
370.6469836149629
 20
196.740862943942
 30
0.0
 10
371.6978715581972
 20
196.0822110567715
 30
0.0
 10
372.1938134922366
 20
195.6887478528463
 30
0.0
 10
372.6358722119584
 20
195.2490858789066
 30
0.0
  0
ARC
  5
195
330
1F
100
AcDbEntity
  8
0
  6
Continuous
 62
     7
370
    15
100
AcDbCircle
 10
366.6902051428
 20
189.3034188097
 30
0.0
 40
8.398295640480509
100
AcDbArc
 50
70.482955813
 51
199.517044187
  0
SPLINE
  5
196
330
1F
100
AcDbEntity
  8
0
  6
Continuous
 62
     7
370
    15
100
AcDbSpline
210
0.0
220
0.0
230
1.0
 70
     8
 71
     3
 72
    12
 73
     8
 74
     0
 42
0.00000001
 43
0.00000001
 12
1.0
 22
0.0
 32
0.0
 13
1.0
 23
0.0
 33
0.0
 40
0.0
 40
0.0
 40
0.0
 40
0.0
 40
0.2500000000000004
 40
0.2500000000000004
 40
0.5000000000000009
 40
0.5000000000000009
 40
1.0
 40
1.0
 40
1.0
 40
1.0
 10
360.7445380736206
 20
183.3577517405686
 30
0.0
 10
360.526323022416
 20
183.577156355653
 30
0.0
 10
360.3205420052963
 20
183.8082180490763
 30
0.0
 10
359.9340617739888
 20
184.2938554247098
 30
0.0
 10
359.7525827871444
 20
184.5497112005715
 30
0.0
 10
359.2533005611244
 20
185.3447127031497
 30
0.0
 10
358.9825667289689
 20
185.9056090094917
 30
0.0
 10
358.7744575179985
 20
186.4976552406661
 30
0.0
  0
SPLINE
  5
197
330
1F
100
AcDbEntity
  8
0
  6
Continuous
 62
     7
370
    15
100
AcDbSpline
210
0.0
220
0.0
230
1.0
 70
     8
 71
     3
 72
     8
 73
     4
 74
     0
 42
0.00000001
 43
0.00000001
 12
1.0
 22
0.0
 32
0.0
 13
1.0
 23
0.0
 33
0.0
 40
0.0000002861301817
 40
0.0000002861301817
 40
0.0000002861301817
 40
0.0000002861301817
 40
0.0042897880675852
 40
0.0042897880675852
 40
0.0042897880675852
 40
0.0042897880675852
 10
291.9277013424957
 20
277.500951452575
 30
0.0
 10
291.1685760728413
 20
278.1860032602082
 30
0.0
 10
290.4098443295883
 20
278.8706171198404
 30
0.0
 10
289.6514517093971
 20
279.5548537089657
 30
0.0
  0
LINE
  5
198
330
1F
100
AcDbEntity
  8
0
  6
Continuous
 62
     7
370
    15
100
AcDbLine
 10
281.0954010005
 20
286.8492708792
 30
0.0
 11
292.0257007594
 21
275.8592584421
 31
0.0
  0
LINE
  5
199
330
1F
100
AcDbEntity
  8
0
  6
Continuous
 62
     7
370
    15
100
AcDbLine
 10
289.6514503176
 20
279.5548544516
 30
0.0
 11
281.7262193079
 21
287.4800891866
 31
0.0
  0
LINE
  5
19A
330
1F
100
AcDbEntity
  8
0
  6
Continuous
 62
     7
370
    15
100
AcDbLine
 10
372.6358717198
 20
195.2490874816
 30
0.0
 11
383.6258841569
 21
184.3187877227
 31
0.0
  0
SPLINE
  5
19B
330
1F
100
AcDbEntity
  8
0
  6
Continuous
 62
     7
370
    15
100
AcDbSpline
210
0.0
220
0.0
230
1.0
 70
     8
 71
     3
 72
     8
 73
     4
 74
     0
 42
0.00000001
 43
0.00000001
 12
1.0
 22
0.0
 32
0.0
 13
1.0
 23
0.0
 33
0.0
 40
0.000000285811573
 40
0.000000285811573
 40
0.000000285811573
 40
0.000000285811573
 40
0.0042897877489765
 40
0.0042897877489765
 40
0.0042897877489765
 40
0.0042897877489765
 10
376.3314669867516
 20
192.8748384316121
 30
0.0
 10
375.6472303976263
 20
193.6332310518033
 30
0.0
 10
374.9626165379941
 20
194.3919627950563
 30
0.0
 10
374.2775647303609
 20
195.1510880647106
 30
0.0
  0
LINE
  5
19C
330
1F
100
AcDbEntity
  8
0
  6
Continuous
 62
     7
370
    15
100
AcDbLine
 10
384.2567024643
 20
184.9496060301
 30
0.0
 11
376.3314677293
 21
192.8748370398
 31
0.0
  0
ARC
  5
19D
330
1F
100
AcDbEntity
  8
0
  6
Continuous
 62
     7
370
    15
100
AcDbCircle
 10
326.3851186152
 20
229.6085053374
 30
0.0
 40
62.0000000000001
100
AcDbArc
 50
323.6669120541
 51
342.5629325092
  0
SPLINE
  5
19E
330
1F
100
AcDbEntity
  8
0
  6
Continuous
 62
     7
370
    15
100
AcDbSpline
210
0.0
220
0.0
230
1.0
 70
     8
 71
     3
 72
     8
 73
     4
 74
     0
 42
0.00000001
 43
0.00000001
 12
1.0
 22
0.0
 32
0.0
 13
1.0
 23
0.0
 33
0.0
 40
0.0
 40
0.0
 40
0.0
 40
0.0
 40
1.0
 40
1.0
 40
1.0
 40
1.0
 10
387.152359994467
 20
217.3063764505251
 30
0.0
 10
386.2393062352256
 20
218.1771720228546
 30
0.0
 10
385.399688717726
 20
219.1667568658792
 30
0.0
 10
384.6489117186049
 20
220.3170892344021
 30
0.0
  0
ARC
  5
19F
330
1F
100
AcDbEntity
  8
0
  6
Continuous
 62
     7
370
    15
100
AcDbCircle
 10
326.3851186152
 20
229.6085053374
 30
0.0
 40
62.00000000000004
100
AcDbArc
 50
342.5629325092
 51
348.5553360676
  0
ARC
  5
1A0
330
1F
100
AcDbEntity
  8
0
  6
Continuous
 62
     7
370
    15
100
AcDbCircle
 10
326.3851186152
 20
229.6085053374
 30
0.0
 40
62.00000000000006
100
AcDbArc
 50
107.4370674908
 51
126.3330879459
  0
ARC
  5
1A1
330
1F
100
AcDbEntity
  8
0
  6
Continuous
 62
     7
370
    15
100
AcDbCircle
 10
326.3851186152
 20
229.6085053374
 30
0.0
 40
62.00000000000006
100
AcDbArc
 50
101.4446639324
 51
107.4370674908
  0
SPLINE
  5
1A2
330
1F
100
AcDbEntity
  8
0
  6
Continuous
 62
     7
370
    15
100
AcDbSpline
210
0.0
220
0.0
230
1.0
 70
     8
 71
     3
 72
     8
 73
     4
 74
     0
 42
0.00000001
 43
0.00000001
 12
1.0
 22
0.0
 32
0.0
 13
1.0
 23
0.0
 33
0.0
 40
0.0
 40
0.0
 40
0.0
 40
0.0
 40
1.0
 40
1.0
 40
1.0
 40
1.0
 10
317.0937025121837
 20
287.8722984408187
 30
0.0
 10
315.943370143661
 20
288.6230754399399
 30
0.0
 10
314.9537853006367
 20
289.4626929574394
 30
0.0
 10
314.0829897283074
 20
290.3757467166808
 30
0.0
  0
SPLINE
  5
1A3
330
1F
100
AcDbEntity
  8
0
  6
Continuous
 62
     7
370
    15
100
AcDbSpline
210
0.0
220
0.0
230
1.0
 70
     8
 71
     3
 72
     8
 73
     4
 74
     0
 42
0.00000001
 43
0.00000001
 12
1.0
 22
0.0
 32
0.0
 13
1.0
 23
0.0
 33
0.0
 40
0.0000002861301817
 40
0.0000002861301817
 40
0.0000002861301817
 40
0.0000002861301817
 40
0.0042897880675852
 40
0.0042897880675852
 40
0.0042897880675852
 40
0.0042897880675852
 10
374.2775647303606
 20
264.0659226100306
 30
0.0
 10
374.9626165379938
 20
264.8250478796849
 30
0.0
 10
375.6472303976261
 20
265.5837796229379
 30
0.0
 10
376.3314669867514
 20
266.3421722431291
 30
0.0
  0
ARC
  5
1A4
330
1F
100
AcDbEntity
  8
0
  6
Continuous
 62
     7
370
    15
100
AcDbCircle
 10
326.3851186152
 20
229.6085053374
 30
0.0
 40
62.00000000000011
100
AcDbArc
 50
17.4370674909
 51
36.3330879459
  0
ARC
  5
1A5
330
1F
100
AcDbEntity
  8
0
  6
Continuous
 62
     7
370
    15
100
AcDbCircle
 10
326.3851186152
 20
229.6085053374
 30
0.0
 40
62.00000000000003
100
AcDbArc
 50
11.4446639324
 51
17.4370674909
  0
SPLINE
  5
1A6
330
1F
100
AcDbEntity
  8
0
  6
Continuous
 62
     7
370
    15
100
AcDbSpline
210
0.0
220
0.0
230
1.0
 70
     8
 71
     3
 72
     8
 73
     4
 74
     0
 42
0.00000001
 43
0.00000001
 12
1.0
 22
0.0
 32
0.0
 13
1.0
 23
0.0
 33
0.0
 40
0.0
 40
0.0
 40
0.0
 40
0.0
 40
1.0
 40
1.0
 40
1.0
 40
1.0
 10
384.6489117186044
 20
238.8999214403419
 30
0.0
 10
385.3996887177254
 20
240.0502538088649
 30
0.0
 10
386.2393062352249
 20
241.0398386518895
 30
0.0
 10
387.1523599944663
 20
241.9106342242191
 30
0.0
  0
ARC
  5
1A7
330
1F
100
AcDbEntity
  8
0
  6
Continuous
 62
     7
370
    15
100
AcDbCircle
 10
326.3851186152
 20
229.6085053374
 30
0.0
 40
62.0000000000001
100
AcDbArc
 50
53.6669120541
 51
72.5629325092
  0
SPLINE
  5
1A8
330
1F
100
AcDbEntity
  8
0
  6
Continuous
 62
     7
370
    15
100
AcDbSpline
210
0.0
220
0.0
230
1.0
 70
     8
 71
     3
 72
     8
 73
     4
 74
     0
 42
0.00000001
 43
0.00000001
 12
1.0
 22
0.0
 32
0.0
 13
1.0
 23
0.0
 33
0.0
 40
0.000000285811573
 40
0.000000285811573
 40
0.000000285811573
 40
0.000000285811573
 40
0.0042897877489765
 40
0.0042897877489765
 40
0.0042897877489765
 40
0.0042897877489765
 10
363.1187855209148
 20
279.5548537089657
 30
0.0
 10
362.3603929007236
 20
278.8706171198404
 30
0.0
 10
361.6016611574706
 20
278.1860032602082
 30
0.0
 10
360.8425358878162
 20
277.500951452575
 30
0.0
  0
ARC
  5
1A9
330
1F
100
AcDbEntity
  8
0
  6
Continuous
 62
     7
370
    15
100
AcDbCircle
 10
326.3851186152
 20
229.6085053374
 30
0.0
 40
62.0000000000001
100
AcDbArc
 50
72.5629325092
 51
78.5553360676
  0
SPLINE
  5
1AA
330
1F
100
AcDbEntity
  8
0
  6
Continuous
 62
     7
370
    15
100
AcDbSpline
210
0.0
220
0.0
230
1.0
 70
     8
 71
     3
 72
     8
 73
     4
 74
     0
 42
0.00000001
 43
0.00000001
 12
1.0
 22
0.0
 32
0.0
 13
1.0
 23
0.0
 33
0.0
 40
0.0
 40
0.0
 40
0.0
 40
0.0
 40
1.0
 40
1.0
 40
1.0
 40
1.0
 10
338.6872475020045
 20
290.3757467166808
 30
0.0
 10
337.8164519296752
 20
289.4626929574394
 30
0.0
 10
336.8268670866509
 20
288.6230754399399
 30
0.0
 10
335.6765347181283
 20
287.8722984408187
 30
0.0
  0
ARC
  5
1AB
330
1F
100
AcDbEntity
  8
0
  6
Continuous
 62
     7
370
    15
100
AcDbCircle
 10
366.6902051428
 20
269.913591865
 30
0.0
 40
8.398295640480509
100
AcDbArc
 50
160.482955813
 51
289.517044187
  0
SPLINE
  5
1AC
330
1F
100
AcDbEntity
  8
0
  6
Continuous
 62
     7
370
    15
100
AcDbSpline
210
0.0
220
0.0
230
1.0
 70
     8
 71
     3
 72
    12
 73
     8
 74
     0
 42
0.00000001
 43
0.00000001
 12
1.0
 22
0.0
 32
0.0
 13
1.0
 23
0.0
 33
0.0
 40
0.0
 40
0.0
 40
0.0
 40
0.0
 40
0.25
 40
0.25
 40
0.5
 40
0.5
 40
1.0
 40
1.0
 40
1.0
 40
1.0
 10
372.6358722119582
 20
263.9679247958346
 30
0.0
 10
372.4164675968737
 20
263.74970974463
 30
0.0
 10
372.1854059034504
 20
263.5439287275104
 30
0.0
 10
371.699768527817
 20
263.1574484962028
 30
0.0
 10
371.4439127519553
 20
262.9759695093584
 30
0.0
 10
370.648911249377
 20
262.4766872833384
 30
0.0
 10
370.088014943035
 20
262.2059534511828
 30
0.0
 10
369.4959687118606
 20
261.9978442402125
 30
0.0
  0
SPLINE
  5
1AD
330
1F
100
AcDbEntity
  8
0
  6
Continuous
 62
     7
370
    15
100
AcDbSpline
210
0.0
220
0.0
230
1.0
 70
     8
 71
     3
 72
    10
 73
     6
 74
     0
 42
0.00000001
 43
0.00000001
 12
1.0
 22
0.0
 32
0.0
 13
1.0
 23
0.0
 33
0.0
 40
0.0
 40
0.0
 40
0.0
 40
0.0
 40
0.5
 40
0.5
 40
1.0
 40
1.0
 40
1.0
 40
1.0
 10
358.7744575179981
 20
272.7193554340749
 30
0.0
 10
358.982771731783
 20
273.3119848741479
 30
0.0
 10
359.2527610085849
 20
273.8703703371771
 30
0.0
 10
359.9114128957555
 20
274.9212582804113
 30
0.0
 10
360.3048760996805
 20
275.4172002144507
 30
0.0
 10
360.7445380736203
 20
275.8592589341725
 30
0.0
  0
LINE
  5
1AE
330
1F
100
AcDbEntity
  8
0
  6
Continuous
 62
     7
370
    15
100
AcDbLine
 10
371.0440179224
 20
287.4800891866
 30
0.0
 11
363.1187869127
 21
279.5548544516
 31
0.0
  0
LINE
  5
1AF
330
1F
100
AcDbEntity
  8
0
  6
Continuous
 62
     7
370
    15
100
AcDbLine
 10
360.7445364709
 20
275.8592584421
 30
0.0
 11
371.6748362298
 21
286.8492708792
 31
0.0
  0
LINE
  5
1B0
330
1F
100
AcDbEntity
  8
0
  6
Continuous
 62
     7
370
    15
100
AcDbLine
 10
383.6258841569
 20
274.898222952
 30
0.0
 11
372.6358717198
 21
263.9679231931
 31
0.0
  0
LINE
  5
1B1
330
1F
100
AcDbEntity
  8
0
  6
Continuous
 62
     7
370
    15
100
AcDbLine
 10
376.3314677293
 20
266.3421736349
 30
0.0
 11
384.2567024643
 21
274.2674046446
 31
0.0
  0
ARC
  5
1B2
330
1F
100
AcDbEntity
  8
0
  6
Continuous
 62
     7
370
    15
100
AcDbCircle
 10
251.9152182221
 20
191.8396830702
 30
0.0
 40
4.000000000000002
100
AcDbArc
 50
206.8927091341
 51
331.9227493032
  0
ARC
  5
1B3
330
1F
100
AcDbEntity
  8
0
  6
Continuous
 62
     7
370
    15
100
AcDbCircle
 10
272.9325116964
 20
180.6282152852
 30
0.0
 40
19.8206556349407
100
AcDbArc
 50
122.6059988602
 51
151.9227493032
  0
ARC
  5
1B4
330
1F
100
AcDbEntity
  8
0
  6
Continuous
 62
     7
370
    15
100
AcDbCircle
 10
255.7856654447
 20
207.4338077737
 30
0.0
 40
12.0
100
AcDbArc
 50
302.6059988602
 51
17.4370674908
  0
ARC
  5
1B5
330
1F
100
AcDbEntity
  8
0
  6
Continuous
 62
     7
370
    15
100
AcDbCircle
 10
275.1198769791
 20
178.3432637013
 30
0.0
 40
9.34277666215091
100
AcDbArc
 50
135.0
 51
315.0
  0
ARC
  5
1B6
330
1F
100
AcDbEntity
  8
0
  6
Continuous
 62
     7
370
    15
100
AcDbCircle
 10
304.2104210515
 20
159.009052167
 30
0.0
 40
12.0
100
AcDbArc
 50
72.5629325092
 51
147.3940011398
  0
ARC
  5
1B7
330
1F
100
AcDbEntity
  8
0
  6
Continuous
 62
     7
370
    15
100
AcDbCircle
 10
277.404828563
 20
176.1558984186
 30
0.0
 40
19.82065563494067
100
AcDbArc
 50
298.0772506968
 51
327.3940011398
  0
ARC
  5
1B8
330
1F
100
AcDbEntity
  8
0
  6
Continuous
 62
     7
370
    15
100
AcDbCircle
 10
288.616296348
 20
155.1386049443
 30
0.0
 40
4.00000000000004
100
AcDbArc
 50
118.0772506968
 51
243.1072908659
  0
ARC
  5
1B9
330
1F
100
AcDbEntity
  8
0
  6
Continuous
 62
     7
370
    15
100
AcDbCircle
 10
326.3851186152
 20
229.6085053374
 30
0.0
 40
87.50000000000006
100
AcDbArc
 50
243.1072908659
 51
264.2426541439
  0
ARC
  5
1BA
330
1F
100
AcDbEntity
  8
0
  6
Continuous
 62
     7
370
    15
100
AcDbCircle
 10
326.3851186152
 20
157.1085053374
 30
0.0
 40
17.00000000000009
100
AcDbArc
 50
238.9135761461
 51
246.7831987228
  0
ARC
  5
1BB
330
1F
100
AcDbEntity
  8
0
  6
Continuous
 62
     7
370
    15
100
AcDbCircle
 10
317.3851186152
 20
139.5571311113
 30
0.0
 40
3.000000000000033
100
AcDbArc
 50
313.1863080224
 51
39.9919006864
  0
ARC
  5
1BC
330
1F
100
AcDbEntity
  8
0
  6
Continuous
 62
     7
370
    15
100
AcDbCircle
 10
326.3851186152
 20
229.6085053374
 30
0.0
 40
92.49999999999983
100
AcDbArc
 50
184.3070496749
 51
265.6929503251
  0
ARC
  5
1BD
330
1F
100
AcDbEntity
  8
0
  6
Continuous
 62
     7
370
    15
100
AcDbCircle
 10
236.3337443891
 20
220.6085053374
 30
0.0
 40
3.000000000000007
100
AcDbArc
 50
50.0080993136
 51
136.8136919776
  0
ARC
  5
1BE
330
1F
100
AcDbEntity
  8
0
  6
Continuous
 62
     7
370
    15
100
AcDbCircle
 10
253.8851186152
 20
229.6085053374
 30
0.0
 40
17.00000000000005
100
AcDbArc
 50
203.2168012772
 51
211.0864238539
  0
ARC
  5
1BF
330
1F
100
AcDbEntity
  8
0
  6
Continuous
 62
     7
370
    15
100
AcDbCircle
 10
326.3851186152
 20
229.6085053374
 30
0.0
 40
87.50000000000001
100
AcDbArc
 50
185.7573458561
 51
206.8927091341
  0
SPLINE
  5
1C0
330
1F
100
AcDbEntity
  8
0
  6
Continuous
 62
     7
370
    15
100
AcDbSpline
210
0.0
220
0.0
230
1.0
 70
     8
 71
     3
 72
     8
 73
     4
 74
     0
 42
0.00000001
 43
0.00000001
 12
1.0
 22
0.0
 32
0.0
 13
1.0
 23
0.0
 33
0.0
 40
0.0
 40
0.0
 40
0.0
 40
0.0
 40
1.0
 40
1.0
 40
1.0
 40
1.0
 10
240.0199644048455
 20
219.771966376725
 30
0.0
 10
239.7894012970727
 20
220.0969580284908
 30
0.0
 10
239.558224131666
 20
220.4465453462554
 30
0.0
 10
239.3264979255006
 20
220.8308881427829
 30
0.0
  0
ARC
  5
1C1
330
1F
100
AcDbEntity
  8
0
  6
Continuous
 62
     7
370
    15
100
AcDbCircle
 10
326.3851186152
 20
229.6085053374
 30
0.0
 40
86.92351442788653
100
AcDbArc
 50
186.4976898411
 51
206.8927091341
  0
ARC
  5
1C2
330
1F
100
AcDbEntity
  8
0
  6
Continuous
 62
     7
370
    15
100
AcDbCircle
 10
326.3851186152
 20
229.6085053374
 30
0.0
 40
86.92351442788654
100
AcDbArc
 50
243.1072908659
 51
263.5023101589
  0
SPLINE
  5
1C3
330
1F
100
AcDbEntity
  8
0
  6
Continuous
 62
     7
370
    15
100
AcDbSpline
210
0.0
220
0.0
230
1.0
 70
     8
 71
     3
 72
     8
 73
     4
 74
     0
 42
0.00000001
 43
0.00000001
 12
1.0
 22
0.0
 32
0.0
 13
1.0
 23
0.0
 33
0.0
 40
0.0
 40
0.0
 40
0.0
 40
0.0
 40
1.0
 40
1.0
 40
1.0
 40
1.0
 10
317.6075014205716
 20
142.5498846477147
 30
0.0
 10
317.2231586240443
 20
142.7816108538801
 30
0.0
 10
316.87357130628
 20
143.0127880192867
 30
0.0
 10
316.5485796545143
 20
143.2433511270595
 30
0.0
  0
SPLINE
  5
1C4
330
1F
100
AcDbEntity
  8
0
  6
Continuous
 62
     7
370
    15
100
AcDbSpline
210
0.0
220
0.0
230
1.0
 70
     8
 71
     3
 72
    49
 73
    45
 74
     0
 42
0.00000001
 43
0.00000001
 12
1.0
 22
0.0
 32
0.0
 13
1.0
 23
0.0
 33
0.0
 40
0.0
 40
0.0
 40
0.0
 40
0.0
 40
0.062499999999999
 40
0.062499999999999
 40
0.124999999999998
 40
0.124999999999998
 40
0.156249999999998
 40
0.156249999999998
 40
0.187499999999998
 40
0.187499999999998
 40
0.2499999999999979
 40
0.2499999999999979
 40
0.3124999999999978
 40
0.3124999999999978
 40
0.3749999999999977
 40
0.3749999999999977
 40
0.4062499999999977
 40
0.4062499999999977
 40
0.4374999999999977
 40
0.4687499999999976
 40
0.4687499999999976
 40
0.4999999999999976
 40
0.4999999999999976
 40
0.562499999999998
 40
0.562499999999998
 40
0.5937499999999982
 40
0.5937499999999982
 40
0.6249999999999983
 40
0.6249999999999983
 40
0.687499999999998
 40
0.687499999999998
 40
0.7187499999999979
 40
0.7187499999999979
 40
0.7499999999999977
 40
0.7499999999999977
 40
0.8124999999999982
 40
0.8124999999999982
 40
0.8749999999999987
 40
0.8749999999999987
 40
0.9062499999999989
 40
0.9062499999999989
 40
0.9374999999999992
 40
0.9374999999999992
 40
1.0
 40
1.0
 40
1.0
 40
1.0
 10
281.095402218902
 20
172.367738461575
 30
0.0
 10
280.7065715223942
 20
171.9767797408003
 30
0.0
 10
280.2811405538401
 20
171.6248230110324
 30
0.0
 10
279.3542711097122
 20
171.0019105549605
 30
0.0
 10
278.8659462100184
 20
170.7400802280848
 30
0.0
 10
278.1026724507375
 20
170.4217585640247
 30
0.0
 10
277.8428020933994
 20
170.3279615942284
 30
0.0
 10
277.3119422986801
 20
170.1655047469262
 30
0.0
 10
277.0397171438962
 20
170.0967075125075
 30
0.0
 10
276.2229661594718
 20
169.9327854664462
 30
0.0
 10
275.6741577416622
 20
169.8779476471242
 30
0.0
 10
274.5680386638482
 20
169.8758050443067
 30
0.0
 10
274.0066481103679
 20
169.9302963220405
 30
0.0
 10
272.9221461625413
 20
170.1448905448248
 30
0.0
 10
272.3936765258105
 20
170.304212527995
 30
0.0
 10
271.622070927978
 20
170.6228354456199
 30
0.0
 10
271.3681550748893
 20
170.7427528294239
 30
0.0
 10
270.878666862104
 20
171.0041855633146
 30
0.0
 10
270.4045889162178
 20
171.2882927001538
 30
0.0
 10
269.9608154105628
 20
171.6169890121556
 30
0.0
 10
269.5323772125542
 20
171.9682492215394
 30
0.0
 10
269.324902581637
 20
172.1561059958637
 30
0.0
 10
268.7331643377786
 20
172.7480807009821
 30
0.0
 10
268.3831902967568
 20
173.1756006609065
 30
0.0
 10
267.9230230937463
 20
173.8647212623665
 30
0.0
 10
267.780511621177
 20
174.1024596180494
 30
0.0
 10
267.5178753991106
 20
174.5944655250466
 30
0.0
 10
267.3984416355187
 20
174.8477840448193
 30
0.0
 10
267.081337450208
 20
175.6160499233656
 30
0.0
 10
266.9217428160361
 20
176.1441622525267
 30
0.0
 10
266.7602984034331
 20
176.9603035811104
 30
0.0
 10
266.7194696501741
 20
177.2379498812304
 30
0.0
 10
266.6659114768041
 20
177.7919354889532
 30
0.0
 10
266.652960197907
 20
178.0683902531605
 30
0.0
 10
266.6545475219473
 20
178.8961799274643
 30
0.0
 10
266.7091328610976
 20
179.4459556081467
 30
0.0
 10
266.9293174894842
 20
180.5411785158443
 30
0.0
 10
267.0920651199344
 20
181.0710569375527
 30
0.0
 10
267.4103481165731
 20
181.8343868288105
 30
0.0
 10
267.5289639845221
 20
182.0838877726463
 30
0.0
 10
267.7917481529631
 20
182.5728030476747
 30
0.0
 10
267.9366917816323
 20
182.813174979623
 30
0.0
 10
268.4013960974185
 20
183.5041259969037
 30
0.0
 10
268.7524980555503
 20
183.9290681529397
 30
0.0
 10
269.1443517393603
 20
184.3187889411167
 30
0.0
  0
ARC
  5
1C5
330
1F
100
AcDbEntity
  8
0
  6
Continuous
 62
     7
370
    15
100
AcDbCircle
 10
251.9152182221
 20
191.8396830702
 30
0.0
 40
3.423514427886574
100
AcDbArc
 50
206.8927091341
 51
331.9227493032
  0
ARC
  5
1C6
330
1F
100
AcDbEntity
  8
0
  6
Continuous
 62
     7
370
    15
100
AcDbCircle
 10
288.616296348
 20
155.1386049443
 30
0.0
 40
3.4235144278866
100
AcDbArc
 50
118.0772506968
 51
243.1072908659
  0
ARC
  5
1C7
330
1F
100
AcDbEntity
  8
0
  6
Continuous
 62
     7
370
    15
100
AcDbCircle
 10
272.9325116964
 20
180.6282152852
 30
0.0
 40
20.39714120705415
100
AcDbArc
 50
122.6059988602
 51
151.9227493032
  0
ARC
  5
1C8
330
1F
100
AcDbEntity
  8
0
  6
Continuous
 62
     7
370
    15
100
AcDbCircle
 10
277.404828563
 20
176.1558984186
 30
0.0
 40
20.39714120705412
100
AcDbArc
 50
298.0772506968
 51
327.3940011398
  0
ARC
  5
1C9
330
1F
100
AcDbEntity
  8
0
  6
Continuous
 62
     7
370
    15
100
AcDbCircle
 10
236.3337443891
 20
220.6085053374
 30
0.0
 40
3.576485572113483
100
AcDbArc
 50
64.0368999566
 51
128.7749250181
  0
SPLINE
  5
1CA
330
1F
100
AcDbEntity
  8
0
  6
Continuous
 62
     7
370
    15
100
AcDbSpline
210
0.0
220
0.0
230
1.0
 70
     8
 71
     3
 72
    10
 73
     6
 74
     0
 42
0.00000001
 43
0.00000001
 12
1.0
 22
0.0
 32
0.0
 13
1.0
 23
0.0
 33
0.0
 40
0.0
 40
0.0
 40
0.0
 40
0.0
 40
0.4999999999999999
 40
0.4999999999999999
 40
1.0
 40
1.0
 40
1.0
 40
1.0
 10
238.261782335485
 20
222.9069112365392
 30
0.0
 10
238.1779646905571
 20
223.1023141859235
 30
0.0
 10
238.1137883367405
 20
223.2610172889147
 30
0.0
 10
237.9974151206223
 20
223.5581879121496
 30
0.0
 10
237.9465021574852
 20
223.6941511789835
 30
0.0
 10
237.8995019096835
 20
223.824038331182
 30
0.0
  0
SPLINE
  5
1CB
330
1F
100
AcDbEntity
  8
0
  6
Continuous
 62
     7
370
    15
100
AcDbSpline
210
0.0
220
0.0
230
1.0
 70
     8
 71
     3
 72
     8
 73
     4
 74
     0
 42
0.00000001
 43
0.00000001
 12
1.0
 22
0.0
 32
0.0
 13
1.0
 23
0.0
 33
0.0
 40
0.0
 40
0.0
 40
0.0
 40
0.0
 40
1.0
 40
1.0
 40
1.0
 40
1.0
 10
234.1463478104376
 20
222.6616239914249
 30
0.0
 10
234.1267769348213
 20
222.9214806696269
 30
0.0
 10
234.1096669930554
 20
223.1628882516416
 30
0.0
 10
234.0939249457022
 20
223.3967768285423
 30
0.0
  0
SPLINE
  5
1CC
330
1F
100
AcDbEntity
  8
0
  6
Continuous
 62
     7
370
    15
100
AcDbSpline
210
0.0
220
0.0
230
1.0
 70
     8
 71
     3
 72
    10
 73
     6
 74
     0
 42
0.00000001
 43
0.00000001
 12
1.0
 22
0.0
 32
0.0
 13
1.0
 23
0.0
 33
0.0
 40
0.0
 40
0.0
 40
0.0
 40
0.0
 40
0.5
 40
0.5
 40
1.0
 40
1.0
 40
1.0
 40
1.0
 10
320.600651608968
 20
141.122888631898
 30
0.0
 10
320.4707653252813
 20
141.1698885654248
 30
0.0
 10
320.3348052099919
 20
141.2208003468184
 30
0.0
 10
320.0376410027978
 20
141.3371708938895
 30
0.0
 10
319.8789213821536
 20
141.4013540214414
 30
0.0
 10
319.683524514323
 20
141.4851690577009
 30
0.0
  0
ARC
  5
1CD
330
1F
100
AcDbEntity
  8
0
  6
Continuous
 62
     7
370
    15
100
AcDbCircle
 10
317.3851186152
 20
139.5571311113
 30
0.0
 40
3.576485572113482
100
AcDbArc
 50
321.2250749819
 51
25.9631000434
  0
SPLINE
  5
1CE
330
1F
100
AcDbEntity
  8
0
  6
Continuous
 62
     7
370
    15
100
AcDbSpline
210
0.0
220
0.0
230
1.0
 70
     8
 71
     3
 72
     8
 73
     4
 74
     0
 42
0.00000001
 43
0.00000001
 12
1.0
 22
0.0
 32
0.0
 13
1.0
 23
0.0
 33
0.0
 40
0.0
 40
0.0
 40
0.0
 40
0.0
 40
1.0
 40
1.0
 40
1.0
 40
1.0
 10
320.1733901063282
 20
137.3173116679167
 30
0.0
 10
319.9395015612806
 20
137.3330537131259
 30
0.0
 10
319.6980938859338
 20
137.350163661666
 30
0.0
 10
319.4382372692107
 20
137.3697345326521
 30
0.0
  0
ARC
  5
1CF
330
1F
100
AcDbEntity
  8
0
  6
Continuous
 62
     7
370
    15
100
AcDbCircle
 10
255.7856654447
 20
207.4338077737
 30
0.0
 40
11.42351442788653
100
AcDbArc
 50
302.6059988602
 51
17.4370674908
  0
ARC
  5
1D0
330
1F
100
AcDbEntity
  8
0
  6
Continuous
 62
     7
370
    15
100
AcDbCircle
 10
304.2104210515
 20
159.009052167
 30
0.0
 40
11.42351442788657
100
AcDbArc
 50
72.5629325092
 51
147.3940011398
  0
ARC
  5
1D1
330
1F
100
AcDbEntity
  8
0
  6
Continuous
 62
     7
370
    15
100
AcDbCircle
 10
364.1539408823
 20
155.1386049443
 30
0.0
 40
4.000000000000015
100
AcDbArc
 50
296.8927091341
 51
61.9227493032
  0
ARC
  5
1D2
330
1F
100
AcDbEntity
  8
0
  6
Continuous
 62
     7
370
    15
100
AcDbCircle
 10
375.3654086673
 20
176.1558984186
 30
0.0
 40
19.82065563494072
100
AcDbArc
 50
212.6059988602
 51
241.9227493032
  0
ARC
  5
1D3
330
1F
100
AcDbEntity
  8
0
  6
Continuous
 62
     7
370
    15
100
AcDbCircle
 10
348.5598161788
 20
159.009052167
 30
0.0
 40
12.00000000000003
100
AcDbArc
 50
32.6059988602
 51
107.4370674908
  0
ARC
  5
1D4
330
1F
100
AcDbEntity
  8
0
  6
Continuous
 62
     7
370
    15
100
AcDbCircle
 10
377.6503602512
 20
178.3432637013
 30
0.0
 40
9.34277666215087
100
AcDbArc
 50
225.0
 51
45.0
  0
ARC
  5
1D5
330
1F
100
AcDbEntity
  8
0
  6
Continuous
 62
     7
370
    15
100
AcDbCircle
 10
396.9845717856
 20
207.4338077737
 30
0.0
 40
12.00000000000001
100
AcDbArc
 50
162.5629325092
 51
237.3940011398
  0
ARC
  5
1D6
330
1F
100
AcDbEntity
  8
0
  6
Continuous
 62
     7
370
    15
100
AcDbCircle
 10
379.8377255339
 20
180.6282152852
 30
0.0
 40
19.8206556349407
100
AcDbArc
 50
28.0772506968
 51
57.3940011398
  0
ARC
  5
1D7
330
1F
100
AcDbEntity
  8
0
  6
Continuous
 62
     7
370
    15
100
AcDbCircle
 10
400.8550190082
 20
191.8396830702
 30
0.0
 40
4.000000000000052
100
AcDbArc
 50
208.0772506968
 51
333.1072908659
  0
ARC
  5
1D8
330
1F
100
AcDbEntity
  8
0
  6
Continuous
 62
     7
370
    15
100
AcDbCircle
 10
326.3851186152
 20
229.6085053374
 30
0.0
 40
87.50000000000007
100
AcDbArc
 50
333.1072908659
 51
354.2426541439
  0
ARC
  5
1D9
330
1F
100
AcDbEntity
  8
0
  6
Continuous
 62
     7
370
    15
100
AcDbCircle
 10
398.8851186152
 20
229.6085053374
 30
0.0
 40
17.00000000000005
100
AcDbArc
 50
328.913576146
 51
336.7831987228
  0
ARC
  5
1DA
330
1F
100
AcDbEntity
  8
0
  6
Continuous
 62
     7
370
    15
100
AcDbCircle
 10
416.4364928412
 20
220.6085053374
 30
0.0
 40
3.000000000000012
100
AcDbArc
 50
43.1863080224
 51
129.9919006863
  0
ARC
  5
1DB
330
1F
100
AcDbEntity
  8
0
  6
Continuous
 62
     7
370
    15
100
AcDbCircle
 10
335.3851186152
 20
139.5571311113
 30
0.0
 40
3.000000000000033
100
AcDbArc
 50
140.0080993137
 51
226.8136919776
  0
ARC
  5
1DC
330
1F
100
AcDbEntity
  8
0
  6
Continuous
 62
     7
370
    15
100
AcDbCircle
 10
326.3851186152
 20
157.1085053374
 30
0.0
 40
17.00000000000002
100
AcDbArc
 50
293.2168012772
 51
301.0864238539
  0
ARC
  5
1DD
330
1F
100
AcDbEntity
  8
0
  6
Continuous
 62
     7
370
    15
100
AcDbCircle
 10
326.3851186152
 20
229.6085053374
 30
0.0
 40
87.5
100
AcDbArc
 50
275.7573458561
 51
296.8927091341
  0
ARC
  5
1DE
330
1F
100
AcDbEntity
  8
0
  6
Continuous
 62
     7
370
    15
100
AcDbCircle
 10
326.3851186152
 20
229.6085053374
 30
0.0
 40
92.49999999999987
100
AcDbArc
 50
274.3070496749
 51
355.6929503251
  0
ARC
  5
1DF
330
1F
100
AcDbEntity
  8
0
  6
Continuous
 62
     7
370
    15
100
AcDbCircle
 10
236.3337443891
 20
238.6085053374
 30
0.0
 40
2.999999999999992
100
AcDbArc
 50
223.1863080224
 51
309.9919006865
  0
SPLINE
  5
1E0
330
1F
100
AcDbEntity
  8
0
  6
Continuous
 62
     7
370
    15
100
AcDbSpline
210
0.0
220
0.0
230
1.0
 70
     8
 71
     3
 72
    10
 73
     6
 74
     0
 42
0.00000001
 43
0.00000001
 12
1.0
 22
0.0
 32
0.0
 13
1.0
 23
0.0
 33
0.0
 40
0.0
 40
0.0
 40
0.0
 40
0.0
 40
0.5
 40
0.5
 40
1.0
 40
1.0
 40
1.0
 40
1.0
 10
237.8995019096849
 20
235.3929723435588
 30
0.0
 10
237.9465018432117
 20
235.5228586272455
 30
0.0
 10
237.9974136246053
 20
235.6588187425349
 30
0.0
 10
238.1137841716765
 20
235.9559829497292
 30
0.0
 10
238.1779672992284
 20
236.1147025703736
 30
0.0
 10
238.261782335488
 20
236.3100994382044
 30
0.0
  0
ARC
  5
1E1
330
1F
100
AcDbEntity
  8
0
  6
Continuous
 62
     7
370
    15
100
AcDbCircle
 10
236.3337443891
 20
238.6085053374
 30
0.0
 40
3.576485572113449
100
AcDbArc
 50
231.2250749819
 51
295.9631000435
  0
SPLINE
  5
1E2
330
1F
100
AcDbEntity
  8
0
  6
Continuous
 62
     7
370
    15
100
AcDbSpline
210
0.0
220
0.0
230
1.0
 70
     8
 71
     3
 72
     8
 73
     4
 74
     0
 42
0.00000001
 43
0.00000001
 12
1.0
 22
0.0
 32
0.0
 13
1.0
 23
0.0
 33
0.0
 40
0.0
 40
0.0
 40
0.0
 40
0.0
 40
1.0
 40
1.0
 40
1.0
 40
1.0
 10
234.0939249457022
 20
235.8202338461979
 30
0.0
 10
234.1096669909114
 20
236.0541223912455
 30
0.0
 10
234.1267769394515
 20
236.2955300665922
 30
0.0
 10
234.1463478104376
 20
236.5553866833154
 30
0.0
  0
ARC
  5
1E3
330
1F
100
AcDbEntity
  8
0
  6
Continuous
 62
     7
370
    15
100
AcDbCircle
 10
335.3851186152
 20
139.5571311113
 30
0.0
 40
3.576485572113468
100
AcDbArc
 50
154.0368999566
 51
218.7749250181
  0
SPLINE
  5
1E4
330
1F
100
AcDbEntity
  8
0
  6
Continuous
 62
     7
370
    15
100
AcDbSpline
210
0.0
220
0.0
230
1.0
 70
     8
 71
     3
 72
    10
 73
     6
 74
     0
 42
0.00000001
 43
0.00000001
 12
1.0
 22
0.0
 32
0.0
 13
1.0
 23
0.0
 33
0.0
 40
0.0
 40
0.0
 40
0.0
 40
0.0
 40
0.5
 40
0.5
 40
1.0
 40
1.0
 40
1.0
 40
1.0
 10
333.0867127159831
 20
141.4851690576949
 30
0.0
 10
332.8913097665996
 20
141.4013514127676
 30
0.0
 10
332.7326066636087
 20
141.3371750589511
 30
0.0
 10
332.4354360403744
 20
141.2208018428332
 30
0.0
 10
332.2994727735408
 20
141.1698888796962
 30
0.0
 10
332.1695856213424
 20
141.1228886318947
 30
0.0
  0
SPLINE
  5
1E5
330
1F
100
AcDbEntity
  8
0
  6
Continuous
 62
     7
370
    15
100
AcDbSpline
210
0.0
220
0.0
230
1.0
 70
     8
 71
     3
 72
     8
 73
     4
 74
     0
 42
0.00000001
 43
0.00000001
 12
1.0
 22
0.0
 32
0.0
 13
1.0
 23
0.0
 33
0.0
 40
0.0
 40
0.0
 40
0.0
 40
0.0
 40
1.0
 40
1.0
 40
1.0
 40
1.0
 10
333.3319999611012
 20
137.3697345326521
 30
0.0
 10
333.0721432828992
 20
137.3501636570358
 30
0.0
 10
332.8307357008845
 20
137.3330537152698
 30
0.0
 10
332.5968471239838
 20
137.3173116679167
 30
0.0
  0
ARC
  5
1E6
330
1F
100
AcDbEntity
  8
0
  6
Continuous
 62
     7
370
    15
100
AcDbCircle
 10
317.3851186152
 20
319.6598795634
 30
0.0
 40
3.000000000000036
100
AcDbArc
 50
320.0080993136
 51
46.8136919776
  0
ARC
  5
1E7
330
1F
100
AcDbEntity
  8
0
  6
Continuous
 62
     7
370
    15
100
AcDbCircle
 10
326.3851186152
 20
302.1085053374
 30
0.0
 40
17.00000000000003
100
AcDbArc
 50
113.2168012772
 51
121.0864238539
  0
ARC
  5
1E8
330
1F
100
AcDbEntity
  8
0
  6
Continuous
 62
     7
370
    15
100
AcDbCircle
 10
326.3851186152
 20
229.6085053374
 30
0.0
 40
87.50000000000004
100
AcDbArc
 50
95.7573458561
 51
116.8927091341
  0
ARC
  5
1E9
330
1F
100
AcDbEntity
  8
0
  6
Continuous
 62
     7
370
    15
100
AcDbCircle
 10
288.616296348
 20
304.0784057304
 30
0.0
 40
4.000000000000034
100
AcDbArc
 50
116.8927091341
 51
241.9227493032
  0
ARC
  5
1EA
330
1F
100
AcDbEntity
  8
0
  6
Continuous
 62
     7
370
    15
100
AcDbCircle
 10
277.404828563
 20
283.0611122561
 30
0.0
 40
19.82065563494069
100
AcDbArc
 50
32.6059988602
 51
61.9227493032
  0
ARC
  5
1EB
330
1F
100
AcDbEntity
  8
0
  6
Continuous
 62
     7
370
    15
100
AcDbCircle
 10
304.2104210515
 20
300.2079585078
 30
0.0
 40
12.00000000000002
100
AcDbArc
 50
212.6059988602
 51
287.4370674909
  0
ARC
  5
1EC
330
1F
100
AcDbEntity
  8
0
  6
Continuous
 62
     7
370
    15
100
AcDbCircle
 10
275.1198769791
 20
280.8737469734
 30
0.0
 40
9.34277666215093
100
AcDbArc
 50
45.0
 51
225.0
  0
ARC
  5
1ED
330
1F
100
AcDbEntity
  8
0
  6
Continuous
 62
     7
370
    15
100
AcDbCircle
 10
255.7856654447
 20
251.783202901
 30
0.0
 40
12.00000000000005
100
AcDbArc
 50
342.5629325092
 51
57.3940011398
  0
ARC
  5
1EE
330
1F
100
AcDbEntity
  8
0
  6
Continuous
 62
     7
370
    15
100
AcDbCircle
 10
272.9325116964
 20
278.5887953895
 30
0.0
 40
19.82065563494064
100
AcDbArc
 50
208.0772506968
 51
237.3940011398
  0
ARC
  5
1EF
330
1F
100
AcDbEntity
  8
0
  6
Continuous
 62
     7
370
    15
100
AcDbCircle
 10
251.9152182221
 20
267.3773276046
 30
0.0
 40
4.000000000000014
100
AcDbArc
 50
28.0772506968
 51
153.1072908659
  0
ARC
  5
1F0
330
1F
100
AcDbEntity
  8
0
  6
Continuous
 62
     7
370
    15
100
AcDbCircle
 10
326.3851186152
 20
229.6085053374
 30
0.0
 40
87.50000000000001
100
AcDbArc
 50
153.1072908659
 51
174.2426541439
  0
ARC
  5
1F1
330
1F
100
AcDbEntity
  8
0
  6
Continuous
 62
     7
370
    15
100
AcDbCircle
 10
253.8851186152
 20
229.6085053374
 30
0.0
 40
17.00000000000006
100
AcDbArc
 50
148.9135761461
 51
156.7831987228
  0
ARC
  5
1F2
330
1F
100
AcDbEntity
  8
0
  6
Continuous
 62
     7
370
    15
100
AcDbCircle
 10
326.3851186152
 20
229.6085053374
 30
0.0
 40
92.49999999999986
100
AcDbArc
 50
94.3070496749
 51
175.6929503251
  0
ARC
  5
1F3
330
1F
100
AcDbEntity
  8
0
  6
Continuous
 62
     7
370
    15
100
AcDbCircle
 10
326.3851186152
 20
229.6085053374
 30
0.0
 40
62.57648557211347
100
AcDbArc
 50
252.5629325092
 51
258.2378800463
  0
SPLINE
  5
1F4
330
1F
100
AcDbEntity
  8
0
  6
Continuous
 62
     7
370
    15
100
AcDbSpline
210
0.0
220
0.0
230
1.0
 70
     8
 71
     3
 72
     8
 73
     4
 74
     0
 42
0.00000001
 43
0.00000001
 12
1.0
 22
0.0
 32
0.0
 13
1.0
 23
0.0
 33
0.0
 40
0.0
 40
0.0
 40
0.0
 40
0.0
 40
1.0
 40
1.0
 40
1.0
 40
1.0
 10
313.6289741754963
 20
168.3459774300806
 30
0.0
 10
313.7750946045979
 20
168.5118450988791
 30
0.0
 10
313.9262718459528
 20
168.6769408308248
 30
0.0
 10
314.0829897283107
 20
168.8412639580594
 30
0.0
  0
ARC
  5
1F5
330
1F
100
AcDbEntity
  8
0
  6
Continuous
 62
     7
370
    15
100
AcDbCircle
 10
326.3851186152
 20
229.6085053374
 30
0.0
 40
62.57648557211346
100
AcDbArc
 50
191.7621199537
 51
197.4370674909
  0
SPLINE
  5
1F6
330
1F
100
AcDbEntity
  8
0
  6
Continuous
 62
     7
370
    15
100
AcDbSpline
210
0.0
220
0.0
230
1.0
 70
     8
 71
     3
 72
     8
 73
     4
 74
     0
 42
0.00000001
 43
0.00000001
 12
1.0
 22
0.0
 32
0.0
 13
1.0
 23
0.0
 33
0.0
 40
0.0
 40
0.0
 40
0.0
 40
0.0
 40
1.0
 40
1.0
 40
1.0
 40
1.0
 10
265.6178772358462
 20
217.3063764505187
 30
0.0
 10
265.4535541086117
 20
217.1496585681609
 30
0.0
 10
265.2884583766659
 20
216.9984813268059
 30
0.0
 10
265.1225907078674
 20
216.8523608977043
 30
0.0
  0
ARC
  5
1F7
330
1F
100
AcDbEntity
  8
0
  6
Continuous
 62
     7
370
    15
100
AcDbCircle
 10
326.3851186152
 20
229.6085053374
 30
0.0
 40
86.92351442788656
100
AcDbArc
 50
276.4976898411
 51
296.8927091341
  0
SPLINE
  5
1F8
330
1F
100
AcDbEntity
  8
0
  6
Continuous
 62
     7
370
    15
100
AcDbSpline
210
0.0
220
0.0
230
1.0
 70
     8
 71
     3
 72
     8
 73
     4
 74
     0
 42
0.00000001
 43
0.00000001
 12
1.0
 22
0.0
 32
0.0
 13
1.0
 23
0.0
 33
0.0
 40
0.0
 40
0.0
 40
0.0
 40
0.0
 40
1.0
 40
1.0
 40
1.0
 40
1.0
 10
336.2216575758069
 20
143.2433511270606
 30
0.0
 10
335.8966659240413
 20
143.0127880192878
 30
0.0
 10
335.547078606277
 20
142.7816108538811
 30
0.0
 10
335.1627358097497
 20
142.5498846477157
 30
0.0
  0
ARC
  5
1F9
330
1F
100
AcDbEntity
  8
0
  6
Continuous
 62
     7
370
    15
100
AcDbCircle
 10
326.3851186152
 20
229.6085053374
 30
0.0
 40
86.92351442788653
100
AcDbArc
 50
153.1072908659
 51
173.5023101589
  0
SPLINE
  5
1FA
330
1F
100
AcDbEntity
  8
0
  6
Continuous
 62
     7
370
    15
100
AcDbSpline
210
0.0
220
0.0
230
1.0
 70
     8
 71
     3
 72
     8
 73
     4
 74
     0
 42
0.00000001
 43
0.00000001
 12
1.0
 22
0.0
 32
0.0
 13
1.0
 23
0.0
 33
0.0
 40
0.0
 40
0.0
 40
0.0
 40
0.0
 40
1.0
 40
1.0
 40
1.0
 40
1.0
 10
239.3264979255001
 20
238.3861225319532
 30
0.0
 10
239.5582241316655
 20
238.7704653284808
 30
0.0
 10
239.7894012970721
 20
239.1200526462453
 30
0.0
 10
240.0199644048449
 20
239.4450442980112
 30
0.0
  0
ARC
  5
1FB
330
1F
100
AcDbEntity
  8
0
  6
Continuous
 62
     7
370
    15
100
AcDbCircle
 10
326.3851186152
 20
229.6085053374
 30
0.0
 40
62.57648557211349
100
AcDbArc
 50
281.7621199537
 51
287.4370674909
  0
SPLINE
  5
1FC
330
1F
100
AcDbEntity
  8
0
  6
Continuous
 62
     7
370
    15
100
AcDbSpline
210
0.0
220
0.0
230
1.0
 70
     8
 71
     3
 72
     8
 73
     4
 74
     0
 42
0.00000001
 43
0.00000001
 12
1.0
 22
0.0
 32
0.0
 13
1.0
 23
0.0
 33
0.0
 40
0.0
 40
0.0
 40
0.0
 40
0.0
 40
1.0
 40
1.0
 40
1.0
 40
1.0
 10
338.6872475020077
 20
168.8412639580607
 30
0.0
 10
338.8439653843656
 20
168.6769408308262
 30
0.0
 10
338.9951426257206
 20
168.5118450988804
 30
0.0
 10
339.1412630548222
 20
168.3459774300819
 30
0.0
  0
ARC
  5
1FD
330
1F
100
AcDbEntity
  8
0
  6
Continuous
 62
     7
370
    15
100
AcDbCircle
 10
326.3851186152
 20
229.6085053374
 30
0.0
 40
62.57648557211345
100
AcDbArc
 50
162.5629325092
 51
168.2378800463
  0
SPLINE
  5
1FE
330
1F
100
AcDbEntity
  8
0
  6
Continuous
 62
     7
370
    15
100
AcDbSpline
210
0.0
220
0.0
230
1.0
 70
     8
 71
     3
 72
     8
 73
     4
 74
     0
 42
0.00000001
 43
0.00000001
 12
1.0
 22
0.0
 32
0.0
 13
1.0
 23
0.0
 33
0.0
 40
0.0
 40
0.0
 40
0.0
 40
0.0
 40
1.0
 40
1.0
 40
1.0
 40
1.0
 10
265.1225907078668
 20
242.3646497770332
 30
0.0
 10
265.2884583766652
 20
242.2185293479316
 30
0.0
 10
265.453554108611
 20
242.0673521065767
 30
0.0
 10
265.6178772358456
 20
241.9106342242189
 30
0.0
  0
ARC
  5
1FF
330
1F
100
AcDbEntity
  8
0
  6
Continuous
 62
     7
370
    15
100
AcDbCircle
 10
255.7856654447
 20
251.783202901
 30
0.0
 40
11.42351442788661
100
AcDbArc
 50
342.5629325092
 51
57.3940011398
  0
ARC
  5
200
330
1F
100
AcDbEntity
  8
0
  6
Continuous
 62
     7
370
    15
100
AcDbCircle
 10
348.5598161788
 20
159.009052167
 30
0.0
 40
11.42351442788655
100
AcDbArc
 50
32.6059988602
 51
107.4370674908
  0
ARC
  5
201
330
1F
100
AcDbEntity
  8
0
  6
Continuous
 62
     7
370
    15
100
AcDbCircle
 10
272.9325116964
 20
278.5887953895
 30
0.0
 40
20.39714120705412
100
AcDbArc
 50
208.0772506968
 51
237.3940011398
  0
ARC
  5
202
330
1F
100
AcDbEntity
  8
0
  6
Continuous
 62
     7
370
    15
100
AcDbCircle
 10
375.3654086673
 20
176.1558984186
 30
0.0
 40
20.39714120705413
100
AcDbArc
 50
212.6059988602
 51
241.9227493032
  0
ARC
  5
203
330
1F
100
AcDbEntity
  8
0
  6
Continuous
 62
     7
370
    15
100
AcDbCircle
 10
251.9152182221
 20
267.3773276046
 30
0.0
 40
3.42351442788653
100
AcDbArc
 50
28.0772506968
 51
153.1072908659
  0
ARC
  5
204
330
1F
100
AcDbEntity
  8
0
  6
Continuous
 62
     7
370
    15
100
AcDbCircle
 10
364.1539408823
 20
155.1386049443
 30
0.0
 40
3.423514427886574
100
AcDbArc
 50
296.8927091341
 51
61.9227493032
  0
SPLINE
  5
205
330
1F
100
AcDbEntity
  8
0
  6
Continuous
 62
     7
370
    15
100
AcDbSpline
210
0.0
220
0.0
230
1.0
 70
     8
 71
     3
 72
    49
 73
    45
 74
     0
 42
0.00000001
 43
0.00000001
 12
1.0
 22
0.0
 32
0.0
 13
1.0
 23
0.0
 33
0.0
 40
0.0
 40
0.0
 40
0.0
 40
0.0
 40
0.0624999999999991
 40
0.0624999999999991
 40
0.1249999999999983
 40
0.1249999999999983
 40
0.1562499999999983
 40
0.1562499999999983
 40
0.1874999999999984
 40
0.1874999999999984
 40
0.2499999999999984
 40
0.2499999999999984
 40
0.3124999999999984
 40
0.3124999999999984
 40
0.3749999999999984
 40
0.3749999999999984
 40
0.4062499999999988
 40
0.4062499999999988
 40
0.4374999999999991
 40
0.4687499999999994
 40
0.4687499999999994
 40
0.4999999999999998
 40
0.4999999999999998
 40
0.5624999999999994
 40
0.5624999999999994
 40
0.5937499999999994
 40
0.5937499999999994
 40
0.6249999999999994
 40
0.6249999999999994
 40
0.6874999999999992
 40
0.6874999999999992
 40
0.7187499999999991
 40
0.7187499999999991
 40
0.749999999999999
 40
0.749999999999999
 40
0.8124999999999997
 40
0.8124999999999997
 40
0.8750000000000002
 40
0.8750000000000002
 40
0.90625
 40
0.90625
 40
0.9374999999999998
 40
0.9374999999999998
 40
1.0
 40
1.0
 40
1.0
 40
1.0
 10
269.1443517393603
 20
274.8982217336242
 30
0.0
 10
268.7533930185857
 20
275.287052430132
 30
0.0
 10
268.4014362888178
 20
275.7124833986862
 30
0.0
 10
267.7785238327459
 20
276.639352842814
 30
0.0
 10
267.5166935058701
 20
277.1276777425077
 30
0.0
 10
267.1983718418101
 20
277.8909515017887
 30
0.0
 10
267.1045748720137
 20
278.1508218591268
 30
0.0
 10
266.9421180247115
 20
278.6816816538461
 30
0.0
 10
266.8733207902929
 20
278.9539068086301
 30
0.0
 10
266.7093987442316
 20
279.7706577930544
 30
0.0
 10
266.6545609249096
 20
280.3194662108641
 30
0.0
 10
266.652418322092
 20
281.425585288678
 30
0.0
 10
266.7069095998258
 20
281.9869758421583
 30
0.0
 10
266.9215038226101
 20
283.0714777899849
 30
0.0
 10
267.0808258057804
 20
283.5999474267157
 30
0.0
 10
267.3994487234053
 20
284.3715530245482
 30
0.0
 10
267.5193661072093
 20
284.6254688776368
 30
0.0
 10
267.7807988410999
 20
285.1149570904222
 30
0.0
 10
268.0649062430826
 20
285.5890348562644
 30
0.0
 10
268.3936022899409
 20
286.0328085419633
 30
0.0
 10
268.7448624993247
 20
286.461246739972
 30
0.0
 10
268.932719273649
 20
286.6687213708892
 30
0.0
 10
269.5246939787674
 20
287.2604596147476
 30
0.0
 10
269.9522139386919
 20
287.6104336557693
 30
0.0
 10
270.6413345401518
 20
288.0706008587798
 30
0.0
 10
270.8790728958347
 20
288.2131123313492
 30
0.0
 10
271.3710788028318
 20
288.4757485534156
 30
0.0
 10
271.6243973226046
 20
288.5951823170075
 30
0.0
 10
272.3926632011509
 20
288.9122865023182
 30
0.0
 10
272.920775530312
 20
289.0718811364901
 30
0.0
 10
273.7369168588957
 20
289.2333255490931
 30
0.0
 10
274.0145631590157
 20
289.2741543023521
 30
0.0
 10
274.5685487667385
 20
289.3277124757222
 30
0.0
 10
274.8450035309457
 20
289.3406637546192
 30
0.0
 10
275.6727932052496
 20
289.3390764305789
 30
0.0
 10
276.222568885932
 20
289.2844910914286
 30
0.0
 10
277.3177917936297
 20
289.0643064630419
 30
0.0
 10
277.847670215338
 20
288.9015588325918
 30
0.0
 10
278.6110001065958
 20
288.5832758359531
 30
0.0
 10
278.8605010504317
 20
288.4646599680041
 30
0.0
 10
279.34941632546
 20
288.2018757995631
 30
0.0
 10
279.5897882574084
 20
288.0569321708939
 30
0.0
 10
280.280739274689
 20
287.5922278551077
 30
0.0
 10
280.7056814307251
 20
287.2411258969758
 30
0.0
 10
281.095402218902
 20
286.8492722131659
 30
0.0
  0
SPLINE
  5
206
330
1F
100
AcDbEntity
  8
0
  6
Continuous
 62
     7
370
    15
100
AcDbSpline
210
0.0
220
0.0
230
1.0
 70
     8
 71
     3
 72
    49
 73
    45
 74
     0
 42
0.00000001
 43
0.00000001
 12
1.0
 22
0.0
 32
0.0
 13
1.0
 23
0.0
 33
0.0
 40
0.0
 40
0.0
 40
0.0
 40
0.0
 40
0.0625000000000013
 40
0.0625000000000013
 40
0.1250000000000027
 40
0.1250000000000027
 40
0.156250000000003
 40
0.156250000000003
 40
0.1875000000000033
 40
0.1875000000000033
 40
0.2500000000000041
 40
0.2500000000000041
 40
0.3125000000000048
 40
0.3125000000000048
 40
0.3750000000000056
 40
0.3750000000000056
 40
0.4062500000000056
 40
0.4062500000000056
 40
0.4375000000000054
 40
0.4687500000000053
 40
0.4687500000000053
 40
0.5000000000000052
 40
0.5000000000000052
 40
0.5625000000000044
 40
0.5625000000000044
 40
0.5937500000000042
 40
0.5937500000000042
 40
0.625000000000004
 40
0.625000000000004
 40
0.687500000000004
 40
0.687500000000004
 40
0.718750000000004
 40
0.718750000000004
 40
0.750000000000004
 40
0.750000000000004
 40
0.8125000000000034
 40
0.8125000000000034
 40
0.8750000000000028
 40
0.8750000000000028
 40
0.9062500000000021
 40
0.9062500000000021
 40
0.9375000000000014
 40
0.9375000000000014
 40
1.0
 40
1.0
 40
1.0
 40
1.0
 10
383.6258854909519
 20
184.3187889411171
 30
0.0
 10
384.0168442117265
 20
183.9299582446093
 30
0.0
 10
384.3688009414944
 20
183.5045272760551
 30
0.0
 10
384.9917133975663
 20
182.5776578319272
 30
0.0
 10
385.253543724442
 20
182.0893329322335
 30
0.0
 10
385.5718653885022
 20
181.3260591729526
 30
0.0
 10
385.6656623582985
 20
181.0661888156145
 30
0.0
 10
385.8281192056007
 20
180.5353290208952
 30
0.0
 10
385.8969164400194
 20
180.2631038661112
 30
0.0
 10
386.0608384860807
 20
179.4463528816869
 30
0.0
 10
386.1156763054026
 20
178.8975444638772
 30
0.0
 10
386.1178189082202
 20
177.7914253860633
 30
0.0
 10
386.0633276304864
 20
177.230034832583
 30
0.0
 10
385.8487334077021
 20
176.1455328847564
 30
0.0
 10
385.689411424532
 20
175.6170632480256
 30
0.0
 10
385.370788506907
 20
174.8454576501931
 30
0.0
 10
385.250871123103
 20
174.5915417971044
 30
0.0
 10
384.9894383892124
 20
174.102053584319
 30
0.0
 10
384.7053309872296
 20
173.6279758184769
 30
0.0
 10
384.3766349403714
 20
173.1842021327779
 30
0.0
 10
384.0253747309876
 20
172.7557639347693
 30
0.0
 10
383.8375179566632
 20
172.548289303852
 30
0.0
 10
383.2455432515449
 20
171.9565510599937
 30
0.0
 10
382.8180232916204
 20
171.6065770189719
 30
0.0
 10
382.1289026901605
 20
171.1464098159614
 30
0.0
 10
381.8911643344776
 20
171.003898343392
 30
0.0
 10
381.3991584274805
 20
170.7412621213256
 30
0.0
 10
381.1458399077077
 20
170.6218283577337
 30
0.0
 10
380.3775740291614
 20
170.304724172423
 30
0.0
 10
379.8494617000003
 20
170.1451295382512
 30
0.0
 10
379.0333203714166
 20
169.9836851256481
 30
0.0
 10
378.7556740712966
 20
169.9428563723891
 30
0.0
 10
378.2016884635738
 20
169.889298199019
 30
0.0
 10
377.9252336993665
 20
169.876346920122
 30
0.0
 10
377.0974440250627
 20
169.8779342441622
 30
0.0
 10
376.5476683443803
 20
169.9325195833126
 30
0.0
 10
375.4524454366826
 20
170.1527042116992
 30
0.0
 10
374.9225670149743
 20
170.3154518421493
 30
0.0
 10
374.1592371237165
 20
170.633734838788
 30
0.0
 10
373.9097361798807
 20
170.7523507067371
 30
0.0
 10
373.4208209048523
 20
171.0151348751781
 30
0.0
 10
373.180448972904
 20
171.1600785038473
 30
0.0
 10
372.4894979556233
 20
171.6247828196335
 30
0.0
 10
372.0645557995873
 20
171.9758847777653
 30
0.0
 10
371.6748350114103
 20
172.3677384615753
 30
0.0
  0
ARC
  5
207
330
1F
100
AcDbEntity
  8
0
  6
Continuous
 62
     7
370
    15
100
AcDbCircle
 10
400.8550190082
 20
267.3773276046
 30
0.0
 40
4.000000000000066
100
AcDbArc
 50
26.8927091341
 51
151.9227493032
  0
ARC
  5
208
330
1F
100
AcDbEntity
  8
0
  6
Continuous
 62
     7
370
    15
100
AcDbCircle
 10
379.8377255339
 20
278.5887953895
 30
0.0
 40
19.82065563494073
100
AcDbArc
 50
302.6059988602
 51
331.9227493032
  0
ARC
  5
209
330
1F
100
AcDbEntity
  8
0
  6
Continuous
 62
     7
370
    15
100
AcDbCircle
 10
396.9845717856
 20
251.783202901
 30
0.0
 40
12.00000000000003
100
AcDbArc
 50
122.6059988602
 51
197.4370674909
  0
ARC
  5
20A
330
1F
100
AcDbEntity
  8
0
  6
Continuous
 62
     7
370
    15
100
AcDbCircle
 10
377.6503602512
 20
280.8737469734
 30
0.0
 40
9.34277666215089
100
AcDbArc
 50
315.0
 51
135.0
  0
ARC
  5
20B
330
1F
100
AcDbEntity
  8
0
  6
Continuous
 62
     7
370
    15
100
AcDbCircle
 10
348.5598161788
 20
300.2079585078
 30
0.0
 40
12.00000000000004
100
AcDbArc
 50
252.5629325092
 51
327.3940011398
  0
ARC
  5
20C
330
1F
100
AcDbEntity
  8
0
  6
Continuous
 62
     7
370
    15
100
AcDbCircle
 10
375.3654086673
 20
283.0611122561
 30
0.0
 40
19.82065563494067
100
AcDbArc
 50
118.0772506968
 51
147.3940011398
  0
ARC
  5
20D
330
1F
100
AcDbEntity
  8
0
  6
Continuous
 62
     7
370
    15
100
AcDbCircle
 10
364.1539408823
 20
304.0784057304
 30
0.0
 40
4.00000000000006
100
AcDbArc
 50
298.0772506968
 51
63.1072908659
  0
ARC
  5
20E
330
1F
100
AcDbEntity
  8
0
  6
Continuous
 62
     7
370
    15
100
AcDbCircle
 10
326.3851186152
 20
229.6085053374
 30
0.0
 40
87.50000000000004
100
AcDbArc
 50
63.1072908659
 51
84.2426541439
  0
ARC
  5
20F
330
1F
100
AcDbEntity
  8
0
  6
Continuous
 62
     7
370
    15
100
AcDbCircle
 10
326.3851186152
 20
302.1085053374
 30
0.0
 40
17.00000000000003
100
AcDbArc
 50
58.9135761461
 51
66.7831987228
  0
ARC
  5
210
330
1F
100
AcDbEntity
  8
0
  6
Continuous
 62
     7
370
    15
100
AcDbCircle
 10
335.3851186152
 20
319.6598795634
 30
0.0
 40
3.000000000000036
100
AcDbArc
 50
133.1863080224
 51
219.9919006864
  0
ARC
  5
211
330
1F
100
AcDbEntity
  8
0
  6
Continuous
 62
     7
370
    15
100
AcDbCircle
 10
416.4364928412
 20
238.6085053374
 30
0.0
 40
3.000000000000056
100
AcDbArc
 50
230.0080993137
 51
316.8136919776
  0
ARC
  5
212
330
1F
100
AcDbEntity
  8
0
  6
Continuous
 62
     7
370
    15
100
AcDbCircle
 10
398.8851186152
 20
229.6085053374
 30
0.0
 40
17.00000000000007
100
AcDbArc
 50
23.2168012772
 51
31.086423854
  0
ARC
  5
213
330
1F
100
AcDbEntity
  8
0
  6
Continuous
 62
     7
370
    15
100
AcDbCircle
 10
326.3851186152
 20
229.6085053374
 30
0.0
 40
87.50000000000009
100
AcDbArc
 50
5.7573458561
 51
26.8927091341
  0
ARC
  5
214
330
1F
100
AcDbEntity
  8
0
  6
Continuous
 62
     7
370
    15
100
AcDbCircle
 10
326.3851186152
 20
229.6085053374
 30
0.0
 40
92.49999999999986
100
AcDbArc
 50
4.3070496749
 51
85.6929503251
  0
ARC
  5
215
330
1F
100
AcDbEntity
  8
0
  6
Continuous
 62
     7
370
    15
100
AcDbCircle
 10
379.8377255339
 20
180.6282152852
 30
0.0
 40
20.39714120705419
100
AcDbArc
 50
28.0772506968
 51
57.3940011398
  0
ARC
  5
216
330
1F
100
AcDbEntity
  8
0
  6
Continuous
 62
     7
370
    15
100
AcDbCircle
 10
277.404828563
 20
283.0611122561
 30
0.0
 40
20.39714120705415
100
AcDbArc
 50
32.6059988602
 51
61.9227493032
  0
ARC
  5
217
330
1F
100
AcDbEntity
  8
0
  6
Continuous
 62
     7
370
    15
100
AcDbCircle
 10
304.2104210515
 20
300.2079585078
 30
0.0
 40
11.42351442788657
100
AcDbArc
 50
212.6059988602
 51
287.4370674909
  0
ARC
  5
218
330
1F
100
AcDbEntity
  8
0
  6
Continuous
 62
     7
370
    15
100
AcDbCircle
 10
396.9845717856
 20
207.4338077737
 30
0.0
 40
11.42351442788656
100
AcDbArc
 50
162.5629325092
 51
237.3940011398
  0
ARC
  5
219
330
1F
100
AcDbEntity
  8
0
  6
Continuous
 62
     7
370
    15
100
AcDbCircle
 10
400.8550190082
 20
191.8396830702
 30
0.0
 40
3.423514427886523
100
AcDbArc
 50
208.0772506968
 51
333.1072908659
  0
ARC
  5
21A
330
1F
100
AcDbEntity
  8
0
  6
Continuous
 62
     7
370
    15
100
AcDbCircle
 10
288.616296348
 20
304.0784057304
 30
0.0
 40
3.423514427886632
100
AcDbArc
 50
116.8927091341
 51
241.9227493032
  0
ARC
  5
21B
330
1F
100
AcDbEntity
  8
0
  6
Continuous
 62
     7
370
    15
100
AcDbCircle
 10
326.3851186152
 20
229.6085053374
 30
0.0
 40
86.92351442788656
100
AcDbArc
 50
333.1072908659
 51
353.5023101589
  0
SPLINE
  5
21C
330
1F
100
AcDbEntity
  8
0
  6
Continuous
 62
     7
370
    15
100
AcDbSpline
210
0.0
220
0.0
230
1.0
 70
     8
 71
     3
 72
     8
 73
     4
 74
     0
 42
0.00000001
 43
0.00000001
 12
1.0
 22
0.0
 32
0.0
 13
1.0
 23
0.0
 33
0.0
 40
0.0
 40
0.0
 40
0.0
 40
0.0
 40
1.0
 40
1.0
 40
1.0
 40
1.0
 10
413.443739304811
 20
220.8308881427798
 30
0.0
 10
413.2120130986456
 20
220.4465453462528
 30
0.0
 10
412.980835933239
 20
220.0969580284886
 30
0.0
 10
412.7502728254662
 20
219.7719663767231
 30
0.0
  0
SPLINE
  5
21D
330
1F
100
AcDbEntity
  8
0
  6
Continuous
 62
     7
370
    15
100
AcDbSpline
210
0.0
220
0.0
230
1.0
 70
     8
 71
     3
 72
     8
 73
     4
 74
     0
 42
0.00000001
 43
0.00000001
 12
1.0
 22
0.0
 32
0.0
 13
1.0
 23
0.0
 33
0.0
 40
0.0
 40
0.0
 40
0.0
 40
0.0
 40
1.0
 40
1.0
 40
1.0
 40
1.0
 10
316.5485796545096
 20
315.9736595476808
 30
0.0
 10
316.8735713062753
 20
316.2042226554536
 30
0.0
 10
317.2231586240396
 20
316.4353998208603
 30
0.0
 10
317.6075014205668
 20
316.6671260270256
 30
0.0
  0
ARC
  5
21E
330
1F
100
AcDbEntity
  8
0
  6
Continuous
 62
     7
370
    15
100
AcDbCircle
 10
326.3851186152
 20
229.6085053374
 30
0.0
 40
86.9235144278866
100
AcDbArc
 50
96.4976898411
 51
116.8927091341
  0
ARC
  5
21F
330
1F
100
AcDbEntity
  8
0
  6
Continuous
 62
     7
370
    15
100
AcDbCircle
 10
326.3851186152
 20
229.6085053374
 30
0.0
 40
62.57648557211351
100
AcDbArc
 50
101.7621199537
 51
107.4370674908
  0
SPLINE
  5
220
330
1F
100
AcDbEntity
  8
0
  6
Continuous
 62
     7
370
    15
100
AcDbSpline
210
0.0
220
0.0
230
1.0
 70
     8
 71
     3
 72
     8
 73
     4
 74
     0
 42
0.00000001
 43
0.00000001
 12
1.0
 22
0.0
 32
0.0
 13
1.0
 23
0.0
 33
0.0
 40
0.0
 40
0.0
 40
0.0
 40
0.0
 40
1.0
 40
1.0
 40
1.0
 40
1.0
 10
314.0829897283074
 20
290.3757467166808
 30
0.0
 10
313.9262718459495
 20
290.5400698439154
 30
0.0
 10
313.7750946045946
 20
290.7051655758611
 30
0.0
 10
313.6289741754929
 20
290.8710332446595
 30
0.0
  0
ARC
  5
221
330
1F
100
AcDbEntity
  8
0
  6
Continuous
 62
     7
370
    15
100
AcDbCircle
 10
326.3851186152
 20
229.6085053374
 30
0.0
 40
62.57648557211352
100
AcDbArc
 50
342.5629325092
 51
348.2378800463
  0
SPLINE
  5
222
330
1F
100
AcDbEntity
  8
0
  6
Continuous
 62
     7
370
    15
100
AcDbSpline
210
0.0
220
0.0
230
1.0
 70
     8
 71
     3
 72
     8
 73
     4
 74
     0
 42
0.00000001
 43
0.00000001
 12
1.0
 22
0.0
 32
0.0
 13
1.0
 23
0.0
 33
0.0
 40
0.0
 40
0.0
 40
0.0
 40
0.0
 40
1.0
 40
1.0
 40
1.0
 40
1.0
 10
387.6476465224458
 20
216.8523608977105
 30
0.0
 10
387.4817788536473
 20
216.9984813268122
 30
0.0
 10
387.3166831217015
 20
217.1496585681672
 30
0.0
 10
387.152359994467
 20
217.3063764505251
 30
0.0
  0
ARC
  5
223
330
1F
100
AcDbEntity
  8
0
  6
Continuous
 62
     7
370
    15
100
AcDbCircle
 10
326.3851186152
 20
229.6085053374
 30
0.0
 40
62.57648557211351
100
AcDbArc
 50
11.7621199537
 51
17.4370674909
  0
SPLINE
  5
224
330
1F
100
AcDbEntity
  8
0
  6
Continuous
 62
     7
370
    15
100
AcDbSpline
210
0.0
220
0.0
230
1.0
 70
     8
 71
     3
 72
     8
 73
     4
 74
     0
 42
0.00000001
 43
0.00000001
 12
1.0
 22
0.0
 32
0.0
 13
1.0
 23
0.0
 33
0.0
 40
0.0
 40
0.0
 40
0.0
 40
0.0
 40
1.0
 40
1.0
 40
1.0
 40
1.0
 10
387.1523599944663
 20
241.9106342242191
 30
0.0
 10
387.3166831217009
 20
242.0673521065769
 30
0.0
 10
387.4817788536466
 20
242.218529347932
 30
0.0
 10
387.647646522445
 20
242.3646497770336
 30
0.0
  0
ARC
  5
225
330
1F
100
AcDbEntity
  8
0
  6
Continuous
 62
     7
370
    15
100
AcDbCircle
 10
326.3851186152
 20
229.6085053374
 30
0.0
 40
62.57648557211347
100
AcDbArc
 50
72.5629325092
 51
78.2378800463
  0
SPLINE
  5
226
330
1F
100
AcDbEntity
  8
0
  6
Continuous
 62
     7
370
    15
100
AcDbSpline
210
0.0
220
0.0
230
1.0
 70
     8
 71
     3
 72
     8
 73
     4
 74
     0
 42
0.00000001
 43
0.00000001
 12
1.0
 22
0.0
 32
0.0
 13
1.0
 23
0.0
 33
0.0
 40
0.0
 40
0.0
 40
0.0
 40
0.0
 40
1.0
 40
1.0
 40
1.0
 40
1.0
 10
339.141263054819
 20
290.8710332446595
 30
0.0
 10
338.9951426257173
 20
290.7051655758611
 30
0.0
 10
338.8439653843623
 20
290.5400698439154
 30
0.0
 10
338.6872475020045
 20
290.3757467166808
 30
0.0
  0
ARC
  5
227
330
1F
100
AcDbEntity
  8
0
  6
Continuous
 62
     7
370
    15
100
AcDbCircle
 10
348.5598161788
 20
300.2079585078
 30
0.0
 40
11.42351442788661
100
AcDbArc
 50
252.5629325092
 51
327.3940011398
  0
ARC
  5
228
330
1F
100
AcDbEntity
  8
0
  6
Continuous
 62
     7
370
    15
100
AcDbCircle
 10
396.9845717856
 20
251.783202901
 30
0.0
 40
11.42351442788659
100
AcDbArc
 50
122.6059988602
 51
197.4370674909
  0
ARC
  5
229
330
1F
100
AcDbEntity
  8
0
  6
Continuous
 62
     7
370
    15
100
AcDbCircle
 10
317.3851186152
 20
319.6598795634
 30
0.0
 40
3.576485572113514
100
AcDbArc
 50
334.0368999566
 51
38.7749250181
  0
SPLINE
  5
22A
330
1F
100
AcDbEntity
  8
0
  6
Continuous
 62
     7
370
    15
100
AcDbSpline
210
0.0
220
0.0
230
1.0
 70
     8
 71
     3
 72
    10
 73
     6
 74
     0
 42
0.00000001
 43
0.00000001
 12
1.0
 22
0.0
 32
0.0
 13
1.0
 23
0.0
 33
0.0
 40
0.0
 40
0.0
 40
0.0
 40
0.0
 40
0.5
 40
0.5
 40
1.0
 40
1.0
 40
1.0
 40
1.0
 10
319.6835245143266
 20
317.7318416170432
 30
0.0
 10
319.8789274637107
 20
317.815659261971
 30
0.0
 10
320.0376305667017
 20
317.8798356157876
 30
0.0
 10
320.3348011899364
 20
317.9962088319058
 30
0.0
 10
320.4707644567702
 20
318.0471217950428
 30
0.0
 10
320.6006516089687
 20
318.0941220428445
 30
0.0
  0
SPLINE
  5
22B
330
1F
100
AcDbEntity
  8
0
  6
Continuous
 62
     7
370
    15
100
AcDbSpline
210
0.0
220
0.0
230
1.0
 70
     8
 71
     3
 72
     8
 73
     4
 74
     0
 42
0.00000001
 43
0.00000001
 12
1.0
 22
0.0
 32
0.0
 13
1.0
 23
0.0
 33
0.0
 40
0.0
 40
0.0
 40
0.0
 40
0.0
 40
1.0
 40
1.0
 40
1.0
 40
1.0
 10
319.4382372692107
 20
321.8472761420887
 30
0.0
 10
319.6980939474127
 20
321.8668470177051
 30
0.0
 10
319.9395015294274
 20
321.883956959471
 30
0.0
 10
320.1733901063282
 20
321.8996990068241
 30
0.0
  0
ARC
  5
22C
330
1F
100
AcDbEntity
  8
0
  6
Continuous
 62
     7
370
    15
100
AcDbCircle
 10
416.4364928412
 20
220.6085053374
 30
0.0
 40
3.57648557211346
100
AcDbArc
 50
51.2250749819
 51
115.9631000434
  0
SPLINE
  5
22D
330
1F
100
AcDbEntity
  8
0
  6
Continuous
 62
     7
370
    15
100
AcDbSpline
210
0.0
220
0.0
230
1.0
 70
     8
 71
     3
 72
    10
 73
     6
 74
     0
 42
0.00000001
 43
0.00000001
 12
1.0
 22
0.0
 32
0.0
 13
1.0
 23
0.0
 33
0.0
 40
0.0
 40
0.0
 40
0.0
 40
0.0
 40
0.5000000000000001
 40
0.5000000000000001
 40
1.0
 40
1.0
 40
1.0
 40
1.0
 10
414.870735320632
 20
223.8240383311851
 30
0.0
 10
414.8237353871053
 20
223.6941520474986
 30
0.0
 10
414.7728236057118
 20
223.5581919322095
 30
0.0
 10
414.6564530586412
 20
223.261027725016
 30
0.0
 10
414.5922699310894
 20
223.1023081043721
 30
0.0
 10
414.5084548948303
 20
222.9069112365425
 30
0.0
  0
SPLINE
  5
22E
330
1F
100
AcDbEntity
  8
0
  6
Continuous
 62
     7
370
    15
100
AcDbSpline
210
0.0
220
0.0
230
1.0
 70
     8
 71
     3
 72
     8
 73
     4
 74
     0
 42
0.00000001
 43
0.00000001
 12
1.0
 22
0.0
 32
0.0
 13
1.0
 23
0.0
 33
0.0
 40
0.0
 40
0.0
 40
0.0
 40
0.0
 40
1.0
 40
1.0
 40
1.0
 40
1.0
 10
418.6763122846098
 20
223.3967768285436
 30
0.0
 10
418.6605702394005
 20
223.162888283496
 30
0.0
 10
418.6434602908604
 20
222.9214806081492
 30
0.0
 10
418.6238894198744
 20
222.6616239914262
 30
0.0
  0
SPLINE
  5
22F
330
1F
100
AcDbEntity
  8
0
  6
Continuous
 62
     7
370
    15
100
AcDbSpline
210
0.0
220
0.0
230
1.0
 70
     8
 71
     3
 72
     8
 73
     4
 74
     0
 42
0.00000001
 43
0.00000001
 12
1.0
 22
0.0
 32
0.0
 13
1.0
 23
0.0
 33
0.0
 40
0.0
 40
0.0
 40
0.0
 40
0.0
 40
1.0
 40
1.0
 40
1.0
 40
1.0
 10
412.7502728254657
 20
239.4450442980224
 30
0.0
 10
412.9808359332385
 20
239.1200526462569
 30
0.0
 10
413.2120130986452
 20
238.7704653284927
 30
0.0
 10
413.4437393048105
 20
238.3861225319657
 30
0.0
  0
ARC
  5
230
330
1F
100
AcDbEntity
  8
0
  6
Continuous
 62
     7
370
    15
100
AcDbCircle
 10
326.3851186152
 20
229.6085053374
 30
0.0
 40
86.92351442788657
100
AcDbArc
 50
6.4976898411
 51
26.8927091341
  0
ARC
  5
231
330
1F
100
AcDbEntity
  8
0
  6
Continuous
 62
     7
370
    15
100
AcDbCircle
 10
326.3851186152
 20
229.6085053374
 30
0.0
 40
86.9235144278866
100
AcDbArc
 50
63.1072908659
 51
83.5023101589
  0
SPLINE
  5
232
330
1F
100
AcDbEntity
  8
0
  6
Continuous
 62
     7
370
    15
100
AcDbSpline
210
0.0
220
0.0
230
1.0
 70
     8
 71
     3
 72
     8
 73
     4
 74
     0
 42
0.00000001
 43
0.00000001
 12
1.0
 22
0.0
 32
0.0
 13
1.0
 23
0.0
 33
0.0
 40
0.0
 40
0.0
 40
0.0
 40
0.0
 40
1.0
 40
1.0
 40
1.0
 40
1.0
 10
335.162735809745
 20
316.6671260270256
 30
0.0
 10
335.5470786062723
 20
316.4353998208603
 30
0.0
 10
335.8966659240366
 20
316.2042226554536
 30
0.0
 10
336.2216575758023
 20
315.9736595476808
 30
0.0
  0
SPLINE
  5
233
330
1F
100
AcDbEntity
  8
0
  6
Continuous
 62
     7
370
    15
100
AcDbSpline
210
0.0
220
0.0
230
1.0
 70
     8
 71
     3
 72
    49
 73
    45
 74
     0
 42
0.00000001
 43
0.00000001
 12
1.0
 22
0.0
 32
0.0
 13
1.0
 23
0.0
 33
0.0
 40
0.0
 40
0.0
 40
0.0
 40
0.0
 40
0.062499999999999
 40
0.062499999999999
 40
0.124999999999998
 40
0.124999999999998
 40
0.156249999999998
 40
0.156249999999998
 40
0.187499999999998
 40
0.187499999999998
 40
0.2499999999999979
 40
0.2499999999999979
 40
0.3124999999999978
 40
0.3124999999999978
 40
0.3749999999999977
 40
0.3749999999999977
 40
0.4062499999999977
 40
0.4062499999999977
 40
0.4374999999999977
 40
0.4687499999999976
 40
0.4687499999999976
 40
0.4999999999999976
 40
0.4999999999999976
 40
0.562499999999998
 40
0.562499999999998
 40
0.5937499999999982
 40
0.5937499999999982
 40
0.6249999999999983
 40
0.6249999999999983
 40
0.687499999999998
 40
0.687499999999998
 40
0.7187499999999979
 40
0.7187499999999979
 40
0.7499999999999977
 40
0.7499999999999977
 40
0.8124999999999982
 40
0.8124999999999982
 40
0.8749999999999987
 40
0.8749999999999987
 40
0.9062499999999989
 40
0.9062499999999989
 40
0.9374999999999992
 40
0.9374999999999992
 40
1.0
 40
1.0
 40
1.0
 40
1.0
 10
371.6748350114099
 20
286.8492722131659
 30
0.0
 10
372.0636657079177
 20
287.2402309339406
 30
0.0
 10
372.4890966764718
 20
287.5921876637084
 30
0.0
 10
373.4159661205998
 20
288.2151001197803
 30
0.0
 10
373.9042910202935
 20
288.476930446656
 30
0.0
 10
374.6675647795744
 20
288.7952521107161
 30
0.0
 10
374.9274351369125
 20
288.8890490805125
 30
0.0
 10
375.4582949316318
 20
289.0515059278147
 30
0.0
 10
375.7305200864158
 20
289.1203031622333
 30
0.0
 10
376.5472710708401
 20
289.2842252082947
 30
0.0
 10
377.0960794886498
 20
289.3390630276166
 30
0.0
 10
378.2021985664637
 20
289.3412056304342
 30
0.0
 10
378.763589119944
 20
289.2867143527004
 30
0.0
 10
379.8480910677706
 20
289.0721201299161
 30
0.0
 10
380.3765607045015
 20
288.9127981467458
 30
0.0
 10
381.1481663023339
 20
288.5941752291209
 30
0.0
 10
381.4020821554226
 20
288.4742578453169
 30
0.0
 10
381.8915703682079
 20
288.2128251114263
 30
0.0
 10
382.3656483140941
 20
287.928717974587
 30
0.0
 10
382.8094218197491
 20
287.6000216625853
 30
0.0
 10
383.2378600177577
 20
287.2487614532014
 30
0.0
 10
383.4453346486749
 20
287.0609046788771
 30
0.0
 10
384.0370728925333
 20
286.4689299737589
 30
0.0
 10
384.3870469335551
 20
286.0414100138343
 30
0.0
 10
384.8472141365656
 20
285.3522894123744
 30
0.0
 10
384.989725609135
 20
285.1145510566915
 30
0.0
 10
385.2523618312013
 20
284.6225451496943
 30
0.0
 10
385.3717955947932
 20
284.3692266299216
 30
0.0
 10
385.688899780104
 20
283.6009607513752
 30
0.0
 10
385.8484944142758
 20
283.0728484222141
 30
0.0
 10
386.0099388268789
 20
282.2567070936304
 30
0.0
 10
386.0507675801379
 20
281.9790607935105
 30
0.0
 10
386.1043257535079
 20
281.4250751857876
 30
0.0
 10
386.117277032405
 20
281.1486204215803
 30
0.0
 10
386.1156897083646
 20
280.3208307472765
 30
0.0
 10
386.0611043692143
 20
279.7710550665942
 30
0.0
 10
385.8409197408277
 20
278.6758321588965
 30
0.0
 10
385.6781721103775
 20
278.1459537371882
 30
0.0
 10
385.3598891137389
 20
277.3826238459303
 30
0.0
 10
385.2412732457898
 20
277.1331229020945
 30
0.0
 10
384.9784890773489
 20
276.6442076270662
 30
0.0
 10
384.8335454486796
 20
276.4038356951178
 30
0.0
 10
384.3688411328934
 20
275.7128846778372
 30
0.0
 10
384.0177391747616
 20
275.2879425218011
 30
0.0
 10
383.6258854909515
 20
274.8982217336242
 30
0.0
  0
ARC
  5
234
330
1F
100
AcDbEntity
  8
0
  6
Continuous
 62
     7
370
    15
100
AcDbCircle
 10
335.3851186152
 20
319.6598795634
 30
0.0
 40
3.576485572113514
100
AcDbArc
 50
141.2250749819
 51
205.9631000434
  0
SPLINE
  5
235
330
1F
100
AcDbEntity
  8
0
  6
Continuous
 62
     7
370
    15
100
AcDbSpline
210
0.0
220
0.0
230
1.0
 70
     8
 71
     3
 72
    10
 73
     6
 74
     0
 42
0.00000001
 43
0.00000001
 12
1.0
 22
0.0
 32
0.0
 13
1.0
 23
0.0
 33
0.0
 40
0.0
 40
0.0
 40
0.0
 40
0.0
 40
0.5
 40
0.5
 40
1.0
 40
1.0
 40
1.0
 40
1.0
 10
332.1695856213431
 20
318.0941220428446
 30
0.0
 10
332.2994719050296
 20
318.0471221093179
 30
0.0
 10
332.4354320203189
 20
317.9962103279244
 30
0.0
 10
332.7325962275126
 20
317.8798397808535
 30
0.0
 10
332.8913158481567
 20
317.8156566533017
 30
0.0
 10
333.0867127159867
 20
317.7318416170426
 30
0.0
  0
SPLINE
  5
236
330
1F
100
AcDbEntity
  8
0
  6
Continuous
 62
     7
370
    15
100
AcDbSpline
210
0.0
220
0.0
230
1.0
 70
     8
 71
     3
 72
     8
 73
     4
 74
     0
 42
0.00000001
 43
0.00000001
 12
1.0
 22
0.0
 32
0.0
 13
1.0
 23
0.0
 33
0.0
 40
0.0
 40
0.0
 40
0.0
 40
0.0
 40
1.0
 40
1.0
 40
1.0
 40
1.0
 10
332.5968471239838
 20
321.8996990068242
 30
0.0
 10
332.8307356690314
 20
321.8839569616149
 30
0.0
 10
333.0721433443781
 20
321.8668470130749
 30
0.0
 10
333.3319999611012
 20
321.8472761420887
 30
0.0
  0
ARC
  5
237
330
1F
100
AcDbEntity
  8
0
  6
Continuous
 62
     7
370
    15
100
AcDbCircle
 10
416.4364928412
 20
238.6085053374
 30
0.0
 40
3.576485572113472
100
AcDbArc
 50
244.0368999566
 51
308.7749250181
  0
SPLINE
  5
238
330
1F
100
AcDbEntity
  8
0
  6
Continuous
 62
     7
370
    15
100
AcDbSpline
210
0.0
220
0.0
230
1.0
 70
     8
 71
     3
 72
    10
 73
     6
 74
     0
 42
0.00000001
 43
0.00000001
 12
1.0
 22
0.0
 32
0.0
 13
1.0
 23
0.0
 33
0.0
 40
0.0
 40
0.0
 40
0.0
 40
0.0
 40
0.5
 40
0.5
 40
1.0
 40
1.0
 40
1.0
 40
1.0
 10
414.5084548948325
 20
236.3100994381974
 30
0.0
 10
414.59227253976
 20
236.1146964888142
 30
0.0
 10
414.6564488935763
 20
235.9559933858234
 30
0.0
 10
414.7728221096943
 20
235.6588227625892
 30
0.0
 10
414.8237350728312
 20
235.5228594957556
 30
0.0
 10
414.8707353206328
 20
235.3929723435572
 30
0.0
  0
SPLINE
  5
239
330
1F
100
AcDbEntity
  8
0
  6
Continuous
 62
     7
370
    15
100
AcDbSpline
210
0.0
220
0.0
230
1.0
 70
     8
 71
     3
 72
     8
 73
     4
 74
     0
 42
0.00000001
 43
0.00000001
 12
1.0
 22
0.0
 32
0.0
 13
1.0
 23
0.0
 33
0.0
 40
0.0
 40
0.0
 40
0.0
 40
0.0
 40
1.0
 40
1.0
 40
1.0
 40
1.0
 10
418.6238894198742
 20
236.5553866833166
 30
0.0
 10
418.6434602954906
 20
236.2955300051146
 30
0.0
 10
418.6605702372565
 20
236.0541224230999
 30
0.0
 10
418.6763122846097
 20
235.8202338461992
 30
0.0
  0
ARC
  5
23A
330
1F
100
AcDbEntity
  8
0
  6
Continuous
 62
     7
370
    15
100
AcDbCircle
 10
379.8377255339
 20
278.5887953895
 30
0.0
 40
20.39714120705414
100
AcDbArc
 50
302.6059988602
 51
331.9227493032
  0
ARC
  5
23B
330
1F
100
AcDbEntity
  8
0
  6
Continuous
 62
     7
370
    15
100
AcDbCircle
 10
375.3654086673
 20
283.0611122561
 30
0.0
 40
20.3971412070541
100
AcDbArc
 50
118.0772506968
 51
147.3940011398
  0
ARC
  5
23C
330
1F
100
AcDbEntity
  8
0
  6
Continuous
 62
     7
370
    15
100
AcDbCircle
 10
364.1539408823
 20
304.0784057304
 30
0.0
 40
3.423514427886632
100
AcDbArc
 50
298.0772506968
 51
63.1072908659
  0
ARC
  5
23D
330
1F
100
AcDbEntity
  8
0
  6
Continuous
 62
     7
370
    15
100
AcDbCircle
 10
400.8550190082
 20
267.3773276046
 30
0.0
 40
3.423514427886582
100
AcDbArc
 50
26.8927091341
 51
151.9227493032
  0
CIRCLE
  5
23E
330
1F
100
AcDbEntity
  8
0
  6
Continuous
 62
     7
370
    15
100
AcDbCircle
 10
326.3851186152
 20
157.1085053374
 30
0.0
 40
14.99999999999997
  0
CIRCLE
  5
23F
330
1F
100
AcDbEntity
  8
0
  6
Continuous
 62
     7
370
    15
100
AcDbCircle
 10
253.8851186152
 20
229.6085053374
 30
0.0
 40
14.99999999999997
  0
CIRCLE
  5
240
330
1F
100
AcDbEntity
  8
0
  6
Continuous
 62
     7
370
    15
100
AcDbCircle
 10
326.3851186152
 20
302.1085053374
 30
0.0
 40
14.99999999999994
  0
CIRCLE
  5
241
330
1F
100
AcDbEntity
  8
0
  6
Continuous
 62
     7
370
    15
100
AcDbCircle
 10
398.8851186152
 20
229.6085053374
 30
0.0
 40
14.99999999999994
  0
ARC
  5
242
330
1F
100
AcDbEntity
  8
0
  6
Continuous
 62
     7
370
    15
100
AcDbCircle
 10
326.3851186152
 20
229.6085053374
 30
0.0
 40
92.5
100
AcDbArc
 50
176.1494716509
 51
183.8505283491
  0
ARC
  5
243
330
1F
100
AcDbEntity
  8
0
  6
Continuous
 62
     7
370
    15
100
AcDbCircle
 10
326.3851186152
 20
229.6085053374
 30
0.0
 40
92.50000000000001
100
AcDbArc
 50
266.1494716509
 51
273.8505283491
  0
ARC
  5
244
330
1F
100
AcDbEntity
  8
0
  6
Continuous
 62
     7
370
    15
100
AcDbCircle
 10
326.3851186152
 20
229.6085053374
 30
0.0
 40
92.50000000000006
100
AcDbArc
 50
356.1494716509
 51
3.8505283491
  0
ARC
  5
245
330
1F
100
AcDbEntity
  8
0
  6
Continuous
 62
     7
370
    15
100
AcDbCircle
 10
326.3851186152
 20
229.6085053374
 30
0.0
 40
92.50000000000001
100
AcDbArc
 50
86.1494716509
 51
93.8505283491
  0
ARC
  5
246
330
1F
100
AcDbEntity
  8
0
  6
Continuous
 62
     7
370
    15
100
AcDbCircle
 10
326.3851186152
 20
229.6085053374
 30
0.0
 40
52.71956099818191
100
AcDbArc
 50
217.4423326077
 51
232.5576673923
  0
ARC
  5
247
330
1F
100
AcDbEntity
  8
0
  6
Continuous
 62
     7
370
    15
100
AcDbCircle
 10
326.3851186152
 20
229.6085053374
 30
0.0
 40
52.71956099818195
100
AcDbArc
 50
307.4423326077
 51
322.5576673923
  0
ARC
  5
248
330
1F
100
AcDbEntity
  8
0
  6
Continuous
 62
     7
370
    15
100
AcDbCircle
 10
326.3851186152
 20
229.6085053374
 30
0.0
 40
52.71956099818196
100
AcDbArc
 50
127.4423326077
 51
142.5576673923
  0
ARC
  5
249
330
1F
100
AcDbEntity
  8
0
  6
Continuous
 62
     7
370
    15
100
AcDbCircle
 10
326.3851186152
 20
229.6085053374
 30
0.0
 40
52.71956099818197
100
AcDbArc
 50
37.4423326077
 51
52.5576673923
  0
ARC
  5
24A
330
1F
100
AcDbEntity
  8
0
  6
Continuous
 62
     7
370
    15
100
AcDbCircle
 10
326.3851186152
 20
229.6085053374
 30
0.0
 40
55.50000000000005
100
AcDbArc
 50
306.5724420277
 51
323.4255049027
  0
ARC
  5
24B
330
1F
100
AcDbEntity
  8
0
  6
Continuous
 62
     7
370
    15
100
AcDbCircle
 10
326.3851186152
 20
229.6085053374
 30
0.0
 40
55.50000000000002
100
AcDbArc
 50
36.5719843588
 51
53.4259350847
  0
ARC
  5
24C
330
1F
100
AcDbEntity
  8
0
  6
Continuous
 62
     7
370
    15
100
AcDbCircle
 10
326.3851186152
 20
229.6085053374
 30
0.0
 40
55.50000000000004
100
AcDbArc
 50
126.5725228079
 51
143.4253914506
  0
ARC
  5
24D
330
1F
100
AcDbEntity
  8
0
  6
Continuous
 62
     7
370
    15
100
AcDbCircle
 10
326.3851186152
 20
229.6085053374
 30
0.0
 40
55.50000000000001
100
AcDbArc
 50
216.5722883725
 51
233.4257348172
  0
ARC
  5
24E
330
1F
100
AcDbEntity
  8
0
  6
Continuous
 62
     7
370
    15
100
AcDbCircle
 10
326.3851186152
 20
229.6085053374
 30
0.0
 40
64.98671920158975
100
AcDbArc
 50
217.547143967
 51
232.4530016201
  0
ARC
  5
24F
330
1F
100
AcDbEntity
  8
0
  6
Continuous
 62
     7
370
    15
100
AcDbCircle
 10
326.3851186152
 20
229.6085053374
 30
0.0
 40
64.98671920158978
100
AcDbArc
 50
127.547143967
 51
142.4530016201
  0
ARC
  5
250
330
1F
100
AcDbEntity
  8
0
  6
Continuous
 62
     7
370
    15
100
AcDbCircle
 10
326.3851186152
 20
229.6085053374
 30
0.0
 40
64.98671920158975
100
AcDbArc
 50
307.547143967
 51
322.4530016201
  0
ARC
  5
251
330
1F
100
AcDbEntity
  8
0
  6
Continuous
 62
     7
370
    15
100
AcDbCircle
 10
326.3851186152
 20
229.6085053374
 30
0.0
 40
64.9867192015898
100
AcDbArc
 50
37.547143967
 51
52.4530016201
  0
LINE
  5
252
330
1F
100
AcDbEntity
  8
0
  6
Continuous
 62
     7
370
    15
100
AcDbLine
 10
233.1351196284
 20
245.6085060973
 30
0.0
 11
235.2794116254
 21
245.6085060973
 31
0.0
  0
LINE
  5
253
330
1F
100
AcDbEntity
  8
0
  6
Continuous
 62
     7
370
    15
100
AcDbLine
 10
233.1351196284
 20
213.6085045774
 30
0.0
 11
235.2794116254
 21
213.6085045774
 31
0.0
  0
LINE
  5
254
330
1F
100
AcDbEntity
  8
0
  6
Continuous
 62
     7
370
    15
100
AcDbLine
 10
233.1351196284
 20
245.6085060973
 30
0.0
 11
233.1351196284
 21
213.6085045774
 31
0.0
  0
LINE
  5
255
330
1F
100
AcDbEntity
  8
0
  6
Continuous
 62
     7
370
    15
100
AcDbLine
 10
342.3851193751
 20
136.3585063506
 30
0.0
 11
342.3851193751
 21
138.5027983476
 31
0.0
  0
LINE
  5
256
330
1F
100
AcDbEntity
  8
0
  6
Continuous
 62
     7
370
    15
100
AcDbLine
 10
310.3851178552
 20
136.3585063506
 30
0.0
 11
310.3851178552
 21
138.5027983476
 31
0.0
  0
LINE
  5
257
330
1F
100
AcDbEntity
  8
0
  6
Continuous
 62
     7
370
    15
100
AcDbLine
 10
310.3851178552
 20
136.3585063506
 30
0.0
 11
342.3851193751
 21
136.3585063506
 31
0.0
  0
LINE
  5
258
330
1F
100
AcDbEntity
  8
0
  6
Continuous
 62
     7
370
    15
100
AcDbLine
 10
419.6351176019
 20
213.6085045774
 30
0.0
 11
419.6351176019
 21
245.6085060973
 31
0.0
  0
LINE
  5
259
330
1F
100
AcDbEntity
  8
0
  6
Continuous
 62
     7
370
    15
100
AcDbLine
 10
419.6351176019
 20
245.6085060973
 30
0.0
 11
417.4908256049
 21
245.6085060973
 31
0.0
  0
LINE
  5
25A
330
1F
100
AcDbEntity
  8
0
  6
Continuous
 62
     7
370
    15
100
AcDbLine
 10
419.6351176019
 20
213.6085045774
 30
0.0
 11
417.4908256049
 21
213.6085045774
 31
0.0
  0
LINE
  5
25B
330
1F
100
AcDbEntity
  8
0
  6
Continuous
 62
     7
370
    15
100
AcDbLine
 10
342.3851193751
 20
322.8585043241
 30
0.0
 11
310.3851178552
 21
322.8585043241
 31
0.0
  0
LINE
  5
25C
330
1F
100
AcDbEntity
  8
0
  6
Continuous
 62
     7
370
    15
100
AcDbLine
 10
342.3851193751
 20
322.8585043241
 30
0.0
 11
342.3851193751
 21
320.7142123271
 31
0.0
  0
LINE
  5
25D
330
1F
100
AcDbEntity
  8
0
  6
Continuous
 62
     7
370
    15
100
AcDbLine
 10
310.3851178552
 20
322.8585043241
 30
0.0
 11
310.3851178552
 21
320.7142123271
 31
0.0
  0
LINE
  5
25E
330
1F
100
AcDbEntity
  8
0
  6
Continuous
 62
     7
370
     0
100
AcDbLine
 10
280.1343655105
 20
195.2490874816
 30
0.0
 11
279.3625188882
 21
196.0209341039
 31
0.0
  0
LINE
  5
25F
330
1F
100
AcDbEntity
  8
0
  6
Continuous
 62
     7
370
     0
100
AcDbLine
 10
269.1443530734
 20
184.3187877227
 30
0.0
 11
268.513534766
 21
184.9496060301
 31
0.0
  0
LINE
  5
260
330
1F
100
AcDbEntity
  8
0
  6
Continuous
 62
     7
370
     0
100
AcDbLine
 10
281.0954010005
 20
172.3677397956
 30
0.0
 11
281.7262193079
 21
171.7369214882
 31
0.0
  0
LINE
  5
261
330
1F
100
AcDbEntity
  8
0
  6
Continuous
 62
     7
370
     0
100
AcDbLine
 10
292.0257007594
 20
183.3577522327
 30
0.0
 11
292.7975473816
 21
182.5859056105
 31
0.0
  0
LINE
  5
262
330
1F
100
AcDbEntity
  8
0
  6
Continuous
 62
     7
370
     0
100
AcDbLine
 10
269.1443530734
 20
274.898222952
 30
0.0
 11
268.513534766
 21
274.2674046446
 31
0.0
  0
LINE
  5
263
330
1F
100
AcDbEntity
  8
0
  6
Continuous
 62
     7
370
     0
100
AcDbLine
 10
280.1343655105
 20
263.9679231931
 30
0.0
 11
279.3625188882
 21
263.1960765709
 31
0.0
  0
LINE
  5
264
330
1F
100
AcDbEntity
  8
0
  6
Continuous
 62
     7
370
     0
100
AcDbLine
 10
360.7445364709
 20
183.3577522327
 30
0.0
 11
359.9726898487
 21
182.5859056105
 31
0.0
  0
LINE
  5
265
330
1F
100
AcDbEntity
  8
0
  6
Continuous
 62
     7
370
     0
100
AcDbLine
 10
371.6748362298
 20
172.3677397956
 30
0.0
 11
371.0440179224
 21
171.7369214882
 31
0.0
  0
LINE
  5
266
330
1F
100
AcDbEntity
  8
0
  6
Continuous
 62
     7
370
     0
100
AcDbLine
 10
292.0257007594
 20
275.8592584421
 30
0.0
 11
292.7975473816
 21
276.6311050643
 31
0.0
  0
LINE
  5
267
330
1F
100
AcDbEntity
  8
0
  6
Continuous
 62
     7
370
     0
100
AcDbLine
 10
372.6358717198
 20
195.2490874816
 30
0.0
 11
373.4077183421
 21
196.0209341039
 31
0.0
  0
LINE
  5
268
330
1F
100
AcDbEntity
  8
0
  6
Continuous
 62
     7
370
     0
100
AcDbLine
 10
281.0954010005
 20
286.8492708792
 30
0.0
 11
281.7262193079
 21
287.4800891866
 31
0.0
  0
LINE
  5
269
330
1F
100
AcDbEntity
  8
0
  6
Continuous
 62
     7
370
     0
100
AcDbLine
 10
383.6258841569
 20
184.3187877227
 30
0.0
 11
384.2567024643
 21
184.9496060301
 31
0.0
  0
LINE
  5
26A
330
1F
100
AcDbEntity
  8
0
  6
Continuous
 62
     7
370
     0
100
AcDbLine
 10
372.6358717198
 20
263.9679231931
 30
0.0
 11
373.4077183421
 21
263.1960765709
 31
0.0
  0
LINE
  5
26B
330
1F
100
AcDbEntity
  8
0
  6
Continuous
 62
     7
370
     0
100
AcDbLine
 10
360.7445364709
 20
275.8592584421
 30
0.0
 11
359.9726898487
 21
276.6311050643
 31
0.0
  0
LINE
  5
26C
330
1F
100
AcDbEntity
  8
0
  6
Continuous
 62
     7
370
     0
100
AcDbLine
 10
371.6748362298
 20
286.8492708792
 30
0.0
 11
371.0440179224
 21
287.4800891866
 31
0.0
  0
LINE
  5
26D
330
1F
100
AcDbEntity
  8
0
  6
Continuous
 62
     7
370
     0
100
AcDbLine
 10
383.6258841569
 20
274.898222952
 30
0.0
 11
384.2567024643
 21
274.2674046446
 31
0.0
  0
LINE
  5
26E
330
1F
100
AcDbEntity
  8
0
  6
Continuous
 62
     7
370
     0
100
AcDbLine
 10
248.8619392629
 20
190.2911545028
 30
0.0
 11
248.3477970476
 21
190.030399083
 31
0.0
  0
LINE
  5
26F
330
1F
100
AcDbEntity
  8
0
  6
Continuous
 62
     7
370
     0
100
AcDbLine
 10
287.0677677805
 20
152.0853259851
 30
0.0
 11
286.8070123608
 21
151.5711837698
 31
0.0
  0
LINE
  5
270
330
1F
100
AcDbEntity
  8
0
  6
Continuous
 62
     7
370
     0
100
AcDbLine
 10
254.9358313794
 20
190.2283647348
 30
0.0
 11
255.4444750662
 21
189.9570369412
 31
0.0
  0
LINE
  5
271
330
1F
100
AcDbEntity
  8
0
  6
Continuous
 62
     7
370
     0
100
AcDbLine
 10
287.0049780126
 20
158.1592181016
 30
0.0
 11
286.733650219
 21
158.6678617884
 31
0.0
  0
LINE
  5
272
330
1F
100
AcDbEntity
  8
0
  6
Continuous
 62
     7
370
     0
100
AcDbLine
 10
261.9413291926
 20
197.8106864978
 30
0.0
 11
262.2519737001
 21
197.3250576545
 31
0.0
  0
LINE
  5
273
330
1F
100
AcDbEntity
  8
0
  6
Continuous
 62
     7
370
     0
100
AcDbLine
 10
294.5872997756
 20
165.1647159149
 30
0.0
 11
294.1016709323
 21
165.4753604223
 31
0.0
  0
LINE
  5
274
330
1F
100
AcDbEntity
  8
0
  6
Continuous
 62
     7
370
     0
100
AcDbLine
 10
266.6842309649
 20
210.8569567342
 30
0.0
 11
267.234225374
 21
211.0297040333
 31
0.0
  0
LINE
  5
275
330
1F
100
AcDbEntity
  8
0
  6
Continuous
 62
     7
370
     0
100
AcDbLine
 10
307.633570012
 20
169.9076176871
 30
0.0
 11
307.8063173111
 21
170.4576120962
 31
0.0
  0
LINE
  5
276
330
1F
100
AcDbEntity
  8
0
  6
Continuous
 62
     7
370
     0
100
AcDbLine
 10
365.7024694498
 20
152.0853259851
 30
0.0
 11
365.9632248695
 21
151.5711837698
 31
0.0
  0
LINE
  5
277
330
1F
100
AcDbEntity
  8
0
  6
Continuous
 62
     7
370
     0
100
AcDbLine
 10
248.8619392629
 20
268.925856172
 30
0.0
 11
248.3477970476
 21
269.1866115917
 31
0.0
  0
LINE
  5
278
330
1F
100
AcDbEntity
  8
0
  6
Continuous
 62
     7
370
     0
100
AcDbLine
 10
345.1366672183
 20
169.9076176871
 30
0.0
 11
344.9639199193
 21
170.4576120962
 31
0.0
  0
LINE
  5
279
330
1F
100
AcDbEntity
  8
0
  6
Continuous
 62
     7
370
     0
100
AcDbLine
 10
266.6842309649
 20
248.3600539405
 30
0.0
 11
267.234225374
 21
248.1873066415
 31
0.0
  0
LINE
  5
27A
330
1F
100
AcDbEntity
  8
0
  6
Continuous
 62
     7
370
     0
100
AcDbLine
 10
261.9413291926
 20
261.4063241769
 30
0.0
 11
262.2519737001
 21
261.8919530202
 31
0.0
  0
LINE
  5
27B
330
1F
100
AcDbEntity
  8
0
  6
Continuous
 62
     7
370
     0
100
AcDbLine
 10
358.1829374547
 20
165.1647159149
 30
0.0
 11
358.668566298
 21
165.4753604223
 31
0.0
  0
LINE
  5
27C
330
1F
100
AcDbEntity
  8
0
  6
Continuous
 62
     7
370
     0
100
AcDbLine
 10
254.9358313794
 20
268.98864594
 30
0.0
 11
255.4444750662
 21
269.2599737336
 31
0.0
  0
LINE
  5
27D
330
1F
100
AcDbEntity
  8
0
  6
Continuous
 62
     7
370
     0
100
AcDbLine
 10
365.7652592177
 20
158.1592181016
 30
0.0
 11
366.0365870113
 21
158.6678617884
 31
0.0
  0
LINE
  5
27E
330
1F
100
AcDbEntity
  8
0
  6
Continuous
 62
     7
370
     0
100
AcDbLine
 10
390.8289080377
 20
197.8106864978
 30
0.0
 11
390.5182635303
 21
197.3250576545
 31
0.0
  0
LINE
  5
27F
330
1F
100
AcDbEntity
  8
0
  6
Continuous
 62
     7
370
     0
100
AcDbLine
 10
397.8344058509
 20
190.2283647348
 30
0.0
 11
397.3257621641
 21
189.9570369412
 31
0.0
  0
LINE
  5
280
330
1F
100
AcDbEntity
  8
0
  6
Continuous
 62
     7
370
     0
100
AcDbLine
 10
287.0049780126
 20
301.0577925731
 30
0.0
 11
286.733650219
 21
300.5491488863
 31
0.0
  0
LINE
  5
281
330
1F
100
AcDbEntity
  8
0
  6
Continuous
 62
     7
370
     0
100
AcDbLine
 10
294.5872997756
 20
294.0522947599
 30
0.0
 11
294.1016709323
 21
293.7416502525
 31
0.0
  0
LINE
  5
282
330
1F
100
AcDbEntity
  8
0
  6
Continuous
 62
     7
370
     0
100
AcDbLine
 10
307.633570012
 20
289.3093929876
 30
0.0
 11
307.8063173111
 21
288.7593985785
 31
0.0
  0
LINE
  5
283
330
1F
100
AcDbEntity
  8
0
  6
Continuous
 62
     7
370
     0
100
AcDbLine
 10
386.0860062654
 20
210.8569567342
 30
0.0
 11
385.5360118563
 21
211.0297040333
 31
0.0
  0
LINE
  5
284
330
1F
100
AcDbEntity
  8
0
  6
Continuous
 62
     7
370
     0
100
AcDbLine
 10
403.9082979674
 20
190.2911545028
 30
0.0
 11
404.4224401827
 21
190.030399083
 31
0.0
  0
LINE
  5
285
330
1F
100
AcDbEntity
  8
0
  6
Continuous
 62
     7
370
     0
100
AcDbLine
 10
287.0677677805
 20
307.1316846897
 30
0.0
 11
286.8070123608
 21
307.6458269049
 31
0.0
  0
LINE
  5
286
330
1F
100
AcDbEntity
  8
0
  6
Continuous
 62
     7
370
     0
100
AcDbLine
 10
386.0860062654
 20
248.3600539405
 30
0.0
 11
385.5360118563
 21
248.1873066415
 31
0.0
  0
LINE
  5
287
330
1F
100
AcDbEntity
  8
0
  6
Continuous
 62
     7
370
     0
100
AcDbLine
 10
345.1366672183
 20
289.3093929876
 30
0.0
 11
344.9639199193
 21
288.7593985785
 31
0.0
  0
LINE
  5
288
330
1F
100
AcDbEntity
  8
0
  6
Continuous
 62
     7
370
     0
100
AcDbLine
 10
358.1829374547
 20
294.0522947599
 30
0.0
 11
358.668566298
 21
293.7416502525
 31
0.0
  0
LINE
  5
289
330
1F
100
AcDbEntity
  8
0
  6
Continuous
 62
     7
370
     0
100
AcDbLine
 10
390.8289080377
 20
261.4063241769
 30
0.0
 11
390.5182635303
 21
261.8919530202
 31
0.0
  0
LINE
  5
28A
330
1F
100
AcDbEntity
  8
0
  6
Continuous
 62
     7
370
     0
100
AcDbLine
 10
403.9082979674
 20
268.925856172
 30
0.0
 11
404.4224401827
 21
269.1866115917
 31
0.0
  0
LINE
  5
28B
330
1F
100
AcDbEntity
  8
0
  6
Continuous
 62
     7
370
     0
100
AcDbLine
 10
365.7024694498
 20
307.1316846897
 30
0.0
 11
365.9632248695
 21
307.6458269049
 31
0.0
  0
LINE
  5
28C
330
1F
100
AcDbEntity
  8
0
  6
Continuous
 62
     7
370
     0
100
AcDbLine
 10
397.8344058509
 20
268.98864594
 30
0.0
 11
397.3257621641
 21
269.2599737336
 31
0.0
  0
LINE
  5
28D
330
1F
100
AcDbEntity
  8
0
  6
Continuous
 62
     7
370
     0
100
AcDbLine
 10
365.7652592177
 20
301.0577925731
 30
0.0
 11
366.0365870113
 21
300.5491488863
 31
0.0
  0
ARC
  5
28E
330
1F
100
AcDbEntity
  8
0
  6
Continuous
 62
     7
370
     0
100
AcDbCircle
 10
326.3851186152
 20
229.6085053374
 30
0.0
 40
54.42836282905963
100
AcDbArc
 50
306.7693814904
 51
323.2248612458
  0
ARC
  5
28F
330
1F
100
AcDbEntity
  8
0
  6
Continuous
 62
     7
370
     0
100
AcDbCircle
 10
326.3851186152
 20
229.6085053374
 30
0.0
 40
54.42836282905966
100
AcDbArc
 50
36.7694380755
 51
53.2251990697
  0
ARC
  5
290
330
1F
100
AcDbEntity
  8
0
  6
Continuous
 62
     7
370
     0
100
AcDbCircle
 10
326.3851186152
 20
229.6085053374
 30
0.0
 40
54.42836282905964
100
AcDbArc
 50
126.7693440646
 51
143.2256705136
  0
ARC
  5
291
330
1F
100
AcDbEntity
  8
0
  6
Continuous
 62
     7
370
     0
100
AcDbCircle
 10
326.3851186152
 20
229.6085053374
 30
0.0
 40
54.4283628290596
100
AcDbArc
 50
216.7690957857
 51
233.2262719989
  0
ARC
  5
292
330
1F
100
AcDbEntity
  8
0
  6
Continuous
 62
     7
370
     0
100
AcDbCircle
 10
326.3851186152
 20
229.6085053374
 30
0.0
 40
61.42056700244801
100
AcDbArc
 50
217.1214593133
 51
232.8787665149
  0
ARC
  5
293
330
1F
100
AcDbEntity
  8
0
  6
Continuous
 62
     7
370
     0
100
AcDbCircle
 10
326.3851186152
 20
229.6085053374
 30
0.0
 40
63.91714083933445
100
AcDbArc
 50
217.4242123533
 51
232.575449283
  0
ARC
  5
294
330
1F
100
AcDbEntity
  8
0
  6
Continuous
 62
     7
370
     0
100
AcDbCircle
 10
326.3851186152
 20
229.6085053374
 30
0.0
 40
61.42056700244805
100
AcDbArc
 50
307.1214593133
 51
322.8787665149
  0
ARC
  5
295
330
1F
100
AcDbEntity
  8
0
  6
Continuous
 62
     7
370
     0
100
AcDbCircle
 10
326.3851186152
 20
229.6085053374
 30
0.0
 40
63.91714083933447
100
AcDbArc
 50
307.4242123533
 51
322.575449283
  0
ARC
  5
296
330
1F
100
AcDbEntity
  8
0
  6
Continuous
 62
     7
370
     0
100
AcDbCircle
 10
326.3851186152
 20
229.6085053374
 30
0.0
 40
61.42056700244804
100
AcDbArc
 50
127.1214593133
 51
142.8787665149
  0
ARC
  5
297
330
1F
100
AcDbEntity
  8
0
  6
Continuous
 62
     7
370
     0
100
AcDbCircle
 10
326.3851186152
 20
229.6085053374
 30
0.0
 40
63.91714083933444
100
AcDbArc
 50
127.4242123533
 51
142.575449283
  0
ARC
  5
298
330
1F
100
AcDbEntity
  8
0
  6
Continuous
 62
     7
370
     0
100
AcDbCircle
 10
326.3851186152
 20
229.6085053374
 30
0.0
 40
63.91714083933449
100
AcDbArc
 50
37.4242123533
 51
52.575449283
  0
ARC
  5
299
330
1F
100
AcDbEntity
  8
0
  6
Continuous
 62
     7
370
     0
100
AcDbCircle
 10
326.3851186152
 20
229.6085053374
 30
0.0
 40
61.42056700244807
100
AcDbArc
 50
37.1214593133
 51
52.8787665149
  0
CIRCLE
  5
29A
330
1F
100
AcDbEntity
  8
0
  6
CENTERX2
 62
     7
370
     0
100
AcDbCircle
 10
326.3851186152
 20
229.6085053374
 30
0.0
 40
72.50000000000202
  0
INSERT
  5
2A6
330
1F
100
AcDbEntity
  8
0
  6
Continuous
 62
     7
370
     0
100
AcDbBlockReference
  2
SW_CENTERMARKSYMBOL_0
 10
326.3851186152
 20
229.6085053374
 30
0.0
  0
LINE
  5
2A7
330
1F
100
AcDbEntity
  8
0
  6
Continuous
 62
     7
370
    15
100
AcDbLine
 10
48.2628322581
 20
-65.4420503128
 30
0.0
 11
53.2628312151
 21
-65.4420503128
 31
0.0
  0
LINE
  5
2A8
330
1F
100
AcDbEntity
  8
0
  6
Continuous
 62
     7
370
    15
100
AcDbLine
 10
53.2628312151
 20
119.5579520714
 30
0.0
 11
48.2628322581
 21
119.5579520714
 31
0.0
  0
LINE
  5
2A9
330
1F
100
AcDbEntity
  8
0
  6
Continuous
 62
     7
370
    15
100
AcDbLine
 10
54.6581889878
 20
-38.8170503724
 30
0.0
 11
55.284604002
 21
-26.8643521416
 31
0.0
  0
LINE
  5
2AA
330
1F
100
AcDbEntity
  8
0
  6
Continuous
 62
     7
370
    15
100
AcDbLine
 10
53.2628312151
 20
-65.4420503128
 30
0.0
 11
53.9637818376
 21
-52.0671182024
 31
0.0
  0
LINE
  5
2AB
330
1F
100
AcDbEntity
  8
0
  6
Continuous
 62
     7
370
    15
100
AcDbLine
 10
53.9637818376
 20
106.1830199611
 30
0.0
 11
53.2628312151
 21
119.5579520714
 31
0.0
  0
LINE
  5
2AC
330
1F
100
AcDbEntity
  8
0
  6
Continuous
 62
     7
370
    15
100
AcDbLine
 10
55.284604002
 20
80.9802539003
 30
0.0
 11
54.6581889878
 21
92.932952131
 31
0.0
  0
LINE
  5
2AD
330
1F
100
AcDbEntity
  8
0
  6
Continuous
 62
     7
370
    15
100
AcDbLine
 10
37.2628318521
 20
33.0579509315
 30
0.0
 11
48.2628322581
 21
32.4814655174
 31
0.0
  0
LINE
  5
2AE
330
1F
100
AcDbEntity
  8
0
  6
Continuous
 62
     7
370
    15
100
AcDbLine
 10
48.2628322581
 20
21.6344362412
 30
0.0
 11
37.2628318521
 21
21.0579508272
 31
0.0
  0
ARC
  5
2AF
330
1F
100
AcDbEntity
  8
0
  6
Continuous
 62
     7
370
    15
100
AcDbCircle
 10
64.1355033453
 20
27.0579508793
 30
0.0
 40
22.67267151925522
100
AcDbArc
 50
165.3318943599
 51
194.6681056401
  0
LINE
  5
2B0
330
1F
100
AcDbEntity
  8
0
  6
Continuous
 62
     7
370
    15
100
AcDbLine
 10
161.8528324554
 20
15.057950775
 30
0.0
 11
164.3528300713
 21
15.057950775
 31
0.0
  0
LINE
  5
2B1
330
1F
100
AcDbEntity
  8
0
  6
Continuous
 62
     7
370
    15
100
AcDbLine
 10
164.3528300713
 20
39.0579509836
 30
0.0
 11
161.8528324554
 21
39.0579509836
 31
0.0
  0
LINE
  5
2B2
330
1F
100
AcDbEntity
  8
0
  6
Continuous
 62
     7
370
    15
100
AcDbLine
 10
181.2628317068
 20
19.0579504994
 30
0.0
 11
181.7628252695
 21
19.0579504994
 31
0.0
  0
LINE
  5
2B3
330
1F
100
AcDbEntity
  8
0
  6
Continuous
 62
     7
370
    15
100
AcDbLine
 10
181.7628252695
 20
35.0579512593
 30
0.0
 11
181.2628317068
 21
35.0579512593
 31
0.0
  0
LINE
  5
2B4
330
1F
100
AcDbEntity
  8
0
  6
Continuous
 62
     7
370
    15
100
AcDbLine
 10
181.7628252695
 20
20.5579507452
 30
0.0
 11
193.2628262232
 21
20.5579507452
 31
0.0
  0
LINE
  5
2B5
330
1F
100
AcDbEntity
  8
0
  6
Continuous
 62
     7
370
    15
100
AcDbLine
 10
193.2628262232
 20
33.5579510135
 30
0.0
 11
181.7628252695
 21
33.5579510135
 31
0.0
  0
LINE
  5
2B6
330
1F
100
AcDbEntity
  8
0
  6
Continuous
 62
     7
370
    15
100
AcDbLine
 10
57.0628322105
 20
21.0579508272
 30
0.0
 11
156.6286418031
 21
21.0579508272
 31
0.0
  0
LINE
  5
2B7
330
1F
100
AcDbEntity
  8
0
  6
Continuous
 62
     7
370
    15
100
AcDbLine
 10
161.6286444853
 20
21.0579508272
 30
0.0
 11
161.8528324554
 21
21.0579508272
 31
0.0
  0
LINE
  5
2B8
330
1F
100
AcDbEntity
  8
0
  6
Continuous
 62
     7
370
    15
100
AcDbLine
 10
161.8528324554
 20
33.0579509315
 30
0.0
 11
161.6286444853
 21
33.0579509315
 31
0.0
  0
LINE
  5
2B9
330
1F
100
AcDbEntity
  8
0
  6
Continuous
 62
     7
370
    15
100
AcDbLine
 10
156.6286418031
 20
33.0579509315
 30
0.0
 11
57.0628322105
 21
33.0579509315
 31
0.0
  0
LINE
  5
2BA
330
1F
100
AcDbEntity
  8
0
  6
Continuous
 62
     7
370
    15
100
AcDbLine
 10
174.3528354357
 20
21.0579508272
 30
0.0
 11
181.2628317068
 21
21.0579508272
 31
0.0
  0
LINE
  5
2BB
330
1F
100
AcDbEntity
  8
0
  6
Continuous
 62
     7
370
    15
100
AcDbLine
 10
181.2628317068
 20
33.0579509315
 30
0.0
 11
174.3528354357
 21
33.0579509315
 31
0.0
  0
ARC
  5
2BC
330
1F
100
AcDbEntity
  8
0
  6
Continuous
 62
     7
370
    15
100
AcDbCircle
 10
130.0237321948
 20
-25.4420491207
 30
0.0
 40
3.000000000000032
100
AcDbArc
 50
220.0
 51
270.0
  0
ARC
  5
2BD
330
1F
100
AcDbEntity
  8
0
  6
Continuous
 62
     7
370
    15
100
AcDbCircle
 10
130.0237321948
 20
79.5579508793
 30
0.0
 40
3.000000000000041
100
AcDbArc
 50
90.0
 51
140.0
  0
LINE
  5
2BE
330
1F
100
AcDbEntity
  8
0
  6
Continuous
 62
     7
370
    15
100
AcDbLine
 10
130.023728628
 20
-28.4420498359
 30
0.0
 11
130.8628353665
 21
-28.4420498359
 31
0.0
  0
LINE
  5
2BF
330
1F
100
AcDbEntity
  8
0
  6
Continuous
 62
     7
370
    15
100
AcDbLine
 10
130.8628353665
 20
82.5579515946
 30
0.0
 11
130.023728628
 21
82.5579515946
 31
0.0
  0
ARC
  5
2C0
330
1F
100
AcDbEntity
  8
0
  6
Continuous
 62
     7
370
    15
100
AcDbCircle
 10
130.862831826
 20
-26.4420491207
 30
0.0
 40
2.000000000000003
100
AcDbArc
 50
270.0
 51
314.4270040008
  0
ARC
  5
2C1
330
1F
100
AcDbEntity
  8
0
  6
Continuous
 62
     7
370
    15
100
AcDbCircle
 10
130.862831826
 20
80.5579508793
 30
0.0
 40
2.000000000000006
100
AcDbArc
 50
45.5729959992
 51
90.0
  0
LINE
  5
2C2
330
1F
100
AcDbEntity
  8
0
  6
Continuous
 62
     7
370
    15
100
AcDbLine
 10
127.7255970428
 20
81.4863122356
 30
0.0
 11
124.9471414278
 21
78.1750805032
 31
0.0
  0
LINE
  5
2C3
330
1F
100
AcDbEntity
  8
0
  6
Continuous
 62
     7
370
    15
100
AcDbLine
 10
124.9471414278
 20
-24.0591787445
 30
0.0
 11
127.7255970428
 21
-27.3704104769
 31
0.0
  0
LINE
  5
2C4
330
1F
100
AcDbEntity
  8
0
  6
Continuous
 62
     7
370
    15
100
AcDbLine
 10
55.284604002
 20
-26.8643521416
 30
0.0
 11
78.2628315876
 21
-25.2575562048
 31
0.0
  0
LINE
  5
2C5
330
1F
100
AcDbEntity
  8
0
  6
Continuous
 62
     7
370
    15
100
AcDbLine
 10
82.7226075719
 20
-24.945700978
 30
0.0
 11
88.4790118227
 21
-24.5431721854
 31
0.0
  0
LINE
  5
2C6
330
1F
100
AcDbEntity
  8
0
  6
Continuous
 62
     7
370
    15
100
AcDbLine
 10
92.989027072
 20
-24.2278002846
 30
0.0
 11
93.8186678479
 21
-24.1697863388
 31
0.0
  0
LINE
  5
2C7
330
1F
100
AcDbEntity
  8
0
  6
Continuous
 62
     7
370
    15
100
AcDbLine
 10
98.6902895759
 20
-23.8291308927
 30
0.0
 11
99.5366382788
 21
-23.7699472058
 31
0.0
  0
LINE
  5
2C8
330
1F
100
AcDbEntity
  8
0
  6
Continuous
 62
     7
370
    15
100
AcDbLine
 10
103.9934414814
 20
-23.45829687
 30
0.0
 11
107.8358400057
 21
-23.1896103072
 31
0.0
  0
LINE
  5
2C9
330
1F
100
AcDbEntity
  8
0
  6
Continuous
 62
     7
370
    15
100
AcDbLine
 10
113.4056854437
 20
-22.8001274812
 30
0.0
 11
120.7681405733
 21
-22.2852960873
 31
0.0
  0
LINE
  5
2CA
330
1F
100
AcDbEntity
  8
0
  6
Continuous
 62
     7
370
    15
100
AcDbLine
 10
120.7681405733
 20
76.4011978459
 30
0.0
 11
55.284604002
 21
80.9802539003
 31
0.0
  0
ARC
  5
2CB
330
1F
100
AcDbEntity
  8
0
  6
Continuous
 62
     7
370
    15
100
AcDbCircle
 10
121.1169219349
 20
-27.2731166097
 30
0.0
 40
5.000000000000004
100
AcDbArc
 50
40.0
 51
94.0
  0
ARC
  5
2CC
330
1F
100
AcDbEntity
  8
0
  6
Continuous
 62
     7
370
    15
100
AcDbCircle
 10
121.1169219349
 20
81.3890183683
 30
0.0
 40
5.0
100
AcDbArc
 50
266.0
 51
320.0
  0
LINE
  5
2CD
330
1F
100
AcDbEntity
  8
0
  6
Continuous
 62
     7
370
    15
100
AcDbLine
 10
162.6286316107
 20
76.0579495978
 30
0.0
 11
161.6286444853
 21
76.0579495978
 31
0.0
  0
LINE
  5
2CE
330
1F
100
AcDbEntity
  8
0
  6
Continuous
 62
     7
370
    15
100
AcDbLine
 10
161.6286444853
 20
-21.9420478392
 30
0.0
 11
162.6286316107
 21
-21.9420478392
 31
0.0
  0
ARC
  5
2CF
330
1F
100
AcDbEntity
  8
0
  6
Continuous
 62
     7
370
    15
100
AcDbCircle
 10
162.6286383487
 20
74.0579508793
 30
0.0
 40
2.000000000000014
100
AcDbArc
 50
0.0
 51
90.0
  0
ARC
  5
2D0
330
1F
100
AcDbEntity
  8
0
  6
Continuous
 62
     7
370
    15
100
AcDbCircle
 10
162.6286383487
 20
-19.9420491207
 30
0.0
 40
2.000000000000011
100
AcDbArc
 50
270.0
 51
0.0
  0
LINE
  5
2D1
330
1F
100
AcDbEntity
  8
0
  6
Continuous
 62
     7
370
    15
100
AcDbLine
 10
161.8528324554
 20
87.5579505515
 30
0.0
 11
164.3528300713
 21
87.5579505515
 31
0.0
  0
LINE
  5
2D2
330
1F
100
AcDbEntity
  8
0
  6
Continuous
 62
     7
370
    15
100
AcDbLine
 10
164.3528300713
 20
111.5579507601
 30
0.0
 11
161.8528324554
 21
111.5579507601
 31
0.0
  0
LINE
  5
2D3
330
1F
100
AcDbEntity
  8
0
  6
Continuous
 62
     7
370
    15
100
AcDbLine
 10
161.8528324554
 20
-57.4420490014
 30
0.0
 11
164.3528300713
 21
-57.4420490014
 31
0.0
  0
LINE
  5
2D4
330
1F
100
AcDbEntity
  8
0
  6
Continuous
 62
     7
370
    15
100
AcDbLine
 10
164.3528300713
 20
-33.4420487928
 30
0.0
 11
161.8528324554
 21
-33.4420487928
 31
0.0
  0
LINE
  5
2D5
330
1F
100
AcDbEntity
  8
0
  6
Continuous
 62
     7
370
    15
100
AcDbLine
 10
181.2628317068
 20
91.5579474819
 30
0.0
 11
181.7628252695
 21
91.5579474819
 31
0.0
  0
LINE
  5
2D6
330
1F
100
AcDbEntity
  8
0
  6
Continuous
 62
     7
370
    15
100
AcDbLine
 10
181.7628252695
 20
107.5579501045
 30
0.0
 11
181.2628317068
 21
107.5579501045
 31
0.0
  0
LINE
  5
2D7
330
1F
100
AcDbEntity
  8
0
  6
Continuous
 62
     7
370
    15
100
AcDbLine
 10
181.2628317068
 20
-53.4420483458
 30
0.0
 11
181.7628252695
 21
-53.4420483458
 31
0.0
  0
LINE
  5
2D8
330
1F
100
AcDbEntity
  8
0
  6
Continuous
 62
     7
370
    15
100
AcDbLine
 10
181.7628252695
 20
-37.4420457232
 30
0.0
 11
181.2628317068
 21
-37.4420457232
 31
0.0
  0
LINE
  5
2D9
330
1F
100
AcDbEntity
  8
0
  6
Continuous
 62
     7
370
    15
100
AcDbLine
 10
181.7628252695
 20
93.0579505217
 30
0.0
 11
193.2628262232
 21
93.0579505217
 31
0.0
  0
LINE
  5
2DA
330
1F
100
AcDbEntity
  8
0
  6
Continuous
 62
     7
370
    15
100
AcDbLine
 10
193.2628262232
 20
106.0579545152
 30
0.0
 11
181.7628252695
 21
106.0579545152
 31
0.0
  0
LINE
  5
2DB
330
1F
100
AcDbEntity
  8
0
  6
Continuous
 62
     7
370
    15
100
AcDbLine
 10
181.7628252695
 20
-51.9420527565
 30
0.0
 11
193.2628262232
 21
-51.9420527565
 31
0.0
  0
LINE
  5
2DC
330
1F
100
AcDbEntity
  8
0
  6
Continuous
 62
     7
370
    15
100
AcDbLine
 10
193.2628262232
 20
-38.942048763
 30
0.0
 11
181.7628252695
 21
-38.942048763
 31
0.0
  0
LINE
  5
2DD
330
1F
100
AcDbEntity
  8
0
  6
Continuous
 62
     7
370
    15
100
AcDbLine
 10
57.0628322105
 20
93.557951535
 30
0.0
 11
135.1469415615
 21
93.557951535
 31
0.0
  0
LINE
  5
2DE
330
1F
100
AcDbEntity
  8
0
  6
Continuous
 62
     7
370
    15
100
AcDbLine
 10
161.6286444853
 20
93.557951535
 30
0.0
 11
161.8528324554
 21
93.557951535
 31
0.0
  0
LINE
  5
2DF
330
1F
100
AcDbEntity
  8
0
  6
Continuous
 62
     7
370
    15
100
AcDbLine
 10
161.8528324554
 20
105.5579535019
 30
0.0
 11
161.6286444853
 21
105.5579535019
 31
0.0
  0
LINE
  5
2E0
330
1F
100
AcDbEntity
  8
0
  6
Continuous
 62
     7
370
    15
100
AcDbLine
 10
149.2625805924
 20
105.5579535019
 30
0.0
 11
57.0628322105
 21
105.5579535019
 31
0.0
  0
LINE
  5
2E1
330
1F
100
AcDbEntity
  8
0
  6
Continuous
 62
     7
370
    15
100
AcDbLine
 10
174.3528354357
 20
93.557951535
 30
0.0
 11
181.2628317068
 21
93.557951535
 31
0.0
  0
LINE
  5
2E2
330
1F
100
AcDbEntity
  8
0
  6
Continuous
 62
     7
370
    15
100
AcDbLine
 10
181.2628317068
 20
105.5579535019
 30
0.0
 11
174.3528354357
 21
105.5579535019
 31
0.0
  0
LINE
  5
2E3
330
1F
100
AcDbEntity
  8
0
  6
Continuous
 62
     7
370
    15
100
AcDbLine
 10
57.0628322105
 20
-51.4420517433
 30
0.0
 11
149.2625805924
 21
-51.4420517433
 31
0.0
  0
LINE
  5
2E4
330
1F
100
AcDbEntity
  8
0
  6
Continuous
 62
     7
370
    15
100
AcDbLine
 10
161.6286444853
 20
-51.4420517433
 30
0.0
 11
161.8528324554
 21
-51.4420517433
 31
0.0
  0
LINE
  5
2E5
330
1F
100
AcDbEntity
  8
0
  6
Continuous
 62
     7
370
    15
100
AcDbLine
 10
161.8528324554
 20
-39.4420497763
 30
0.0
 11
161.6286444853
 21
-39.4420497763
 31
0.0
  0
LINE
  5
2E6
330
1F
100
AcDbEntity
  8
0
  6
Continuous
 62
     7
370
    15
100
AcDbLine
 10
135.1469415615
 20
-39.4420497763
 30
0.0
 11
57.0628322105
 21
-39.4420497763
 31
0.0
  0
LINE
  5
2E7
330
1F
100
AcDbEntity
  8
0
  6
Continuous
 62
     7
370
    15
100
AcDbLine
 10
174.3528354357
 20
-51.4420517433
 30
0.0
 11
181.2628317068
 21
-51.4420517433
 31
0.0
  0
LINE
  5
2E8
330
1F
100
AcDbEntity
  8
0
  6
Continuous
 62
     7
370
    15
100
AcDbLine
 10
181.2628317068
 20
-39.4420497763
 30
0.0
 11
174.3528354357
 21
-39.4420497763
 31
0.0
  0
LINE
  5
2E9
330
1F
100
AcDbEntity
  8
0
  6
Continuous
 62
     7
370
    15
100
AcDbLine
 10
161.6286444853
 20
11.1888810349
 30
0.0
 11
161.6286444853
 21
42.9270207238
 31
0.0
  0
LINE
  5
2EA
330
1F
100
AcDbEntity
  8
0
  6
Continuous
 62
     7
370
    15
100
AcDbLine
 10
161.6286444853
 20
11.1888810349
 30
0.0
 11
156.6286418031
 21
11.0579501194
 31
0.0
  0
LINE
  5
2EB
330
1F
100
AcDbEntity
  8
0
  6
Continuous
 62
     7
370
    15
100
AcDbLine
 10
156.6286418031
 20
11.0579501194
 30
0.0
 11
156.6286418031
 21
43.0579516393
 31
0.0
  0
LINE
  5
2EC
330
1F
100
AcDbEntity
  8
0
  6
Continuous
 62
     7
370
    15
100
AcDbLine
 10
161.6286444853
 20
42.9270207238
 30
0.0
 11
156.6286418031
 21
43.0579516393
 31
0.0
  0
LINE
  5
2ED
330
1F
100
AcDbEntity
  8
0
  6
Continuous
 62
     7
370
    15
100
AcDbLine
 10
53.2628312151
 20
-65.4420503128
 30
0.0
 11
53.2628312151
 21
119.5579520714
 31
0.0
  0
SPLINE
  5
2EE
330
1F
100
AcDbEntity
  8
0
  6
Continuous
 62
     7
370
    15
100
AcDbSpline
210
0.0
220
0.0
230
1.0
 70
     8
 71
     3
 72
     8
 73
     4
 74
     0
 42
0.00000001
 43
0.00000001
 12
1.0
 22
0.0
 32
0.0
 13
1.0
 23
0.0
 33
0.0
 40
0.0
 40
0.0
 40
0.0
 40
0.0
 40
1.0
 40
1.0
 40
1.0
 40
1.0
 10
37.26283182601088
 20
-65.18081992537749
 30
0.0
 10
40.92848266160756
 20
-65.20039080099382
 30
0.0
 10
44.59541778597628
 20
-65.21750074275977
 30
0.0
 10
48.26283182601087
 20
-65.23324279011291
 30
0.0
  0
LINE
  5
2EF
330
1F
100
AcDbEntity
  8
0
  6
Continuous
 62
     7
370
    15
100
AcDbLine
 10
37.2628318521
 20
-65.1808180559
 30
0.0
 11
37.2628318521
 21
20.1110695776
 31
0.0
  0
SPLINE
  5
2F0
330
1F
100
AcDbEntity
  8
0
  6
Continuous
 62
     7
370
    15
100
AcDbSpline
210
0.0
220
0.0
230
1.0
 70
     8
 71
     3
 72
     8
 73
     4
 74
     0
 42
0.00000001
 43
0.00000001
 12
1.0
 22
0.0
 32
0.0
 13
1.0
 23
0.0
 33
0.0
 40
0.0
 40
0.0
 40
0.0
 40
0.0
 40
1.0
 40
1.0
 40
1.0
 40
1.0
 10
48.26283182601087
 20
20.84622237051299
 30
0.0
 10
44.59541828543888
 20
20.61233382546537
 30
0.0
 10
40.92848179435899
 20
20.37092615011861
 30
0.0
 10
37.26283182601088
 20
20.11106953339554
 30
0.0
  0
LINE
  5
2F1
330
1F
100
AcDbEntity
  8
0
  6
Continuous
 62
     7
370
    15
100
AcDbLine
 10
48.2628322581
 20
20.8462225561
 30
0.0
 11
48.2628322581
 21
33.2696792026
 31
0.0
  0
SPLINE
  5
2F2
330
1F
100
AcDbEntity
  8
0
  6
Continuous
 62
     7
370
    15
100
AcDbSpline
210
0.0
220
0.0
230
1.0
 70
     8
 71
     3
 72
     8
 73
     4
 74
     0
 42
0.00000001
 43
0.00000001
 12
1.0
 22
0.0
 32
0.0
 13
1.0
 23
0.0
 33
0.0
 40
0.0
 40
0.0
 40
0.0
 40
0.0
 40
1.0
 40
1.0
 40
1.0
 40
1.0
 10
37.26283182601088
 20
34.00483222528598
 30
0.0
 10
40.92848266160756
 20
33.74497554708397
 30
0.0
 10
44.59541778597628
 20
33.50356796506928
 30
0.0
 10
48.26283182601087
 20
33.26967938816853
 30
0.0
  0
LINE
  5
2F3
330
1F
100
AcDbEntity
  8
0
  6
Continuous
 62
     7
370
    15
100
AcDbLine
 10
37.2628318521
 20
34.004832181
 30
0.0
 11
37.2628318521
 21
119.2967198145
 31
0.0
  0
SPLINE
  5
2F4
330
1F
100
AcDbEntity
  8
0
  6
Continuous
 62
     7
370
    15
100
AcDbSpline
210
0.0
220
0.0
230
1.0
 70
     8
 71
     3
 72
     8
 73
     4
 74
     0
 42
0.00000001
 43
0.00000001
 12
1.0
 22
0.0
 32
0.0
 13
1.0
 23
0.0
 33
0.0
 40
0.0
 40
0.0
 40
0.0
 40
0.0
 40
1.0
 40
1.0
 40
1.0
 40
1.0
 10
48.26283182601087
 20
119.3491445487945
 30
0.0
 10
44.59541828543888
 20
119.3334025035853
 30
0.0
 10
40.92848179435899
 20
119.3162925550452
 30
0.0
 10
37.26283182601088
 20
119.2967216840591
 30
0.0
  0
LINE
  5
2F5
330
1F
100
AcDbEntity
  8
0
  6
Continuous
 62
     7
370
    15
100
AcDbLine
 10
48.2628322581
 20
119.3491420996
 30
0.0
 11
48.2628322581
 21
119.5579520714
 31
0.0
  0
LINE
  5
2F6
330
1F
100
AcDbEntity
  8
0
  6
Continuous
 62
     7
370
    15
100
AcDbLine
 10
48.2628322581
 20
-65.4420503128
 30
0.0
 11
48.2628322581
 21
-65.2332403409
 31
0.0
  0
LWPOLYLINE
  5
2F7
330
1F
100
AcDbEntity
  8
0
  6
Continuous
 62
     7
370
    15
100
AcDbPolyline
 90
        3
 70
   128
 43
0.0
 10
54.6407732556
 20
92.932952131
 10
54.0370582978
 20
104.5019752634
 10
53.9492755572
 20
106.1829529059
  0
SPLINE
  5
2F8
330
1F
100
AcDbEntity
  8
0
  6
Continuous
 62
     7
370
    15
100
AcDbSpline
210
0.0
220
0.0
230
1.0
 70
     8
 71
     3
 72
     8
 73
     4
 74
     0
 42
0.00000001
 43
0.00000001
 12
1.0
 22
0.0
 32
0.0
 13
1.0
 23
0.0
 33
0.0
 40
0.0
 40
0.0
 40
0.0
 40
0.0
 40
1.0
 40
1.0
 40
1.0
 40
1.0
 10
53.94927596621681
 20
33.68295087934077
 30
0.0
 10
53.96858887751043
 20
29.26626195708289
 30
0.0
 10
53.96858838702168
 20
24.84952763123785
 30
0.0
 10
53.9492759662168
 20
20.43295087934077
 30
0.0
  0
LINE
  5
2F9
330
1F
100
AcDbEntity
  8
0
  6
Continuous
 62
     7
370
    15
100
AcDbLine
 10
55.284604002
 20
78.5332075608
 30
0.0
 11
55.284604002
 21
80.9802539003
 31
0.0
  0
LINE
  5
2FA
330
1F
100
AcDbEntity
  8
0
  6
Continuous
 62
     7
370
    15
100
AcDbLine
 10
55.284604002
 20
70.1688020778
 30
0.0
 11
55.284604002
 21
78.5332075608
 31
0.0
  0
SPLINE
  5
2FB
330
1F
100
AcDbEntity
  8
0
  6
Continuous
 62
     7
370
    15
100
AcDbSpline
210
0.0
220
0.0
230
1.0
 70
     8
 71
     3
 72
    10
 73
     6
 74
     0
 42
0.00000001
 43
0.00000001
 12
1.0
 22
0.0
 32
0.0
 13
1.0
 23
0.0
 33
0.0
 40
0.0
 40
0.0
 40
0.0
 40
0.0
 40
0.5
 40
0.5
 40
1.0
 40
1.0
 40
1.0
 40
1.0
 10
55.28460329946826
 20
70.16880097604539
 30
0.0
 10
55.25321448061234
 20
70.76143041611834
 30
0.0
 10
55.22127471129243
 20
71.31981587914751
 30
0.0
 10
55.15647422858472
 20
72.37070382238181
 30
0.0
 10
55.12331787555463
 20
72.86664575642115
 30
0.0
 10
55.09098002002044
 20
73.30870447614302
 30
0.0
  0
LINE
  5
2FC
330
1F
100
AcDbEntity
  8
0
  6
Continuous
 62
     7
370
    15
100
AcDbLine
 10
55.0909801761
 20
73.308703984
 30
0.0
 11
54.2852632145
 21
84.2987164211
 31
0.0
  0
SPLINE
  5
2FD
330
1F
100
AcDbEntity
  8
0
  6
Continuous
 62
     7
370
    15
100
AcDbSpline
210
0.0
220
0.0
230
1.0
 70
     8
 71
     3
 72
    49
 73
    45
 74
     0
 42
0.00000001
 43
0.00000001
 12
1.0
 22
0.0
 32
0.0
 13
1.0
 23
0.0
 33
0.0
 40
0.0
 40
0.0
 40
0.0
 40
0.0
 40
0.0624999999999991
 40
0.0624999999999991
 40
0.1249999999999983
 40
0.1249999999999983
 40
0.1562499999999983
 40
0.1562499999999983
 40
0.1874999999999984
 40
0.1874999999999984
 40
0.2499999999999984
 40
0.2499999999999984
 40
0.3124999999999984
 40
0.3124999999999984
 40
0.3749999999999984
 40
0.3749999999999984
 40
0.4062499999999988
 40
0.4062499999999988
 40
0.4374999999999991
 40
0.4687499999999994
 40
0.4687499999999994
 40
0.4999999999999998
 40
0.4999999999999998
 40
0.5624999999999994
 40
0.5624999999999994
 40
0.5937499999999994
 40
0.5937499999999994
 40
0.6249999999999994
 40
0.6249999999999994
 40
0.6874999999999992
 40
0.6874999999999992
 40
0.7187499999999991
 40
0.7187499999999991
 40
0.749999999999999
 40
0.749999999999999
 40
0.8124999999999997
 40
0.8124999999999997
 40
0.8750000000000002
 40
0.8750000000000002
 40
0.90625
 40
0.90625
 40
0.9374999999999998
 40
0.9374999999999998
 40
1.0
 40
1.0
 40
1.0
 40
1.0
 10
54.28526318961008
 20
84.29871775513637
 30
0.0
 10
54.25655103255541
 20
84.68967647591106
 30
0.0
 10
54.22825043963316
 20
85.04163320567895
 30
0.0
 10
54.17242657513441
 20
85.66454566175084
 30
0.0
 10
54.14570456934168
 20
85.92637598862655
 30
0.0
 10
54.10752715326124
 20
86.2446976526867
 30
0.0
 10
54.09510449653265
 20
86.33849462248297
 30
0.0
 10
54.07085881326557
 20
86.5009514697852
 30
0.0
 10
54.05898860323152
 20
86.56974870420383
 30
0.0
 10
54.02499216663287
 20
86.73367075026515
 30
0.0
 10
54.00425373803268
 20
86.78850856958715
 30
0.0
 10
53.96641485153501
 20
86.79065117240467
 30
0.0
 10
53.94923987622438
 20
86.73615989467085
 30
0.0
 10
53.91990015697957
 20
86.52156567188659
 30
0.0
 10
53.90752516280724
 20
86.36224368871636
 30
0.0
 10
53.89238195706056
 20
86.04362077109145
 30
0.0
 10
53.88791143050625
 20
85.92370338728745
 30
0.0
 10
53.8803115693543
 20
85.66227065339682
 30
0.0
 10
53.87399082404245
 20
85.37816325141408
 30
0.0
 10
53.87016877216099
 20
85.04946720455581
 30
0.0
 10
53.86760607904384
 20
84.69820699517203
 30
0.0
 10
53.8669551088848
 20
84.51035022084771
 30
0.0
 10
53.86696295700339
 20
83.91837551572937
 30
0.0
 10
53.86953444289698
 20
83.49085555580483
 30
0.0
 10
53.87714710715308
 20
82.80173495434492
 30
0.0
 10
53.88031550546937
 20
82.56399659866202
 30
0.0
 10
53.88795920880924
 20
82.07199069166485
 30
0.0
 10
53.89242603311354
 20
81.81867217189209
 30
0.0
 10
53.90750844855692
 20
81.05040629334582
 30
0.0
 10
53.91986194468667
 20
80.52229396418468
 30
0.0
 10
53.94194323214271
 20
79.70615263560099
 30
0.0
 10
53.94995015063314
 20
79.42850633548103
 30
0.0
 10
53.96692531180547
 20
78.87452072775822
 30
0.0
 10
53.9758896539517
 20
78.59806596355092
 30
0.0
 10
54.00420666586115
 20
77.7702762892471
 30
0.0
 10
54.02496854478274
 20
77.22050060856469
 30
0.0
 10
54.07057030121722
 20
76.12527770086703
 30
0.0
 10
54.09477408909888
 20
75.59539927915874
 30
0.0
 10
54.13295186303422
 20
74.83206938790086
 30
0.0
 10
54.14600611473497
 20
74.58256844406502
 30
0.0
 10
54.17280207699993
 20
74.09365316903676
 30
0.0
 10
54.18660678491824
 20
73.85328123708837
 30
0.0
 10
54.22823556649347
 20
73.16233021980769
 30
0.0
 10
54.25648530612993
 20
72.73738806377169
 30
0.0
 10
54.28526318961008
 20
72.34766727559472
 30
0.0
  0
LINE
  5
2FE
330
1F
100
AcDbEntity
  8
0
  6
Continuous
 62
     7
370
    15
100
AcDbLine
 10
54.2852632145
 20
72.347668494
 30
0.0
 11
55.0909801761
 21
61.4173687351
 31
0.0
  0
SPLINE
  5
2FF
330
1F
100
AcDbEntity
  8
0
  6
Continuous
 62
     7
370
    15
100
AcDbSpline
210
0.0
220
0.0
230
1.0
 70
     8
 71
     3
 72
    12
 73
     8
 74
     0
 42
0.00000001
 43
0.00000001
 12
1.0
 22
0.0
 32
0.0
 13
1.0
 23
0.0
 33
0.0
 40
0.0
 40
0.0
 40
0.0
 40
0.0
 40
0.2499999999999988
 40
0.2499999999999988
 40
0.4999999999999977
 40
0.4999999999999977
 40
1.0
 40
1.0
 40
1.0
 40
1.0
 10
55.09098002002044
 20
61.41737033780507
 30
0.0
 10
55.10703009307544
 20
61.19915528660047
 30
0.0
 10
55.12317965840001
 20
60.99337426948087
 30
0.0
 10
55.15568714739914
 20
60.60689403817334
 30
0.0
 10
55.17212334989568
 20
60.42541505132891
 30
0.0
 10
55.22117674052321
 20
59.92613282530895
 30
0.0
 10
55.25324537046902
 20
59.65539899315336
 30
0.0
 10
55.28460329946826
 20
59.44728978218296
 30
0.0
  0
LINE
  5
300
330
1F
100
AcDbEntity
  8
0
  6
Continuous
 62
     7
370
    15
100
AcDbLine
 10
55.284604002
 20
43.1176047128
 30
0.0
 11
55.284604002
 21
59.4472899389
 31
0.0
  0
LINE
  5
301
330
1F
100
AcDbEntity
  8
0
  6
Continuous
 62
     7
370
    15
100
AcDbLine
 10
55.284604002
 20
10.9982970458
 30
0.0
 11
55.284604002
 21
20.4329509576
 31
0.0
  0
LINE
  5
302
330
1F
100
AcDbEntity
  8
0
  6
Continuous
 62
     7
370
    15
100
AcDbLine
 10
55.284604002
 20
33.6829508011
 30
0.0
 11
55.284604002
 21
43.1176047128
 31
0.0
  0
LINE
  5
303
330
1F
100
AcDbEntity
  8
0
  6
Continuous
 62
     7
370
    15
100
AcDbLine
 10
55.284604002
 20
-5.3313881803
 30
0.0
 11
55.284604002
 21
10.9982970458
 31
0.0
  0
SPLINE
  5
304
330
1F
100
AcDbEntity
  8
0
  6
Continuous
 62
     7
370
    15
100
AcDbSpline
210
0.0
220
0.0
230
1.0
 70
     8
 71
     3
 72
    10
 73
     6
 74
     0
 42
0.00000001
 43
0.00000001
 12
1.0
 22
0.0
 32
0.0
 13
1.0
 23
0.0
 33
0.0
 40
0.0
 40
0.0
 40
0.0
 40
0.0
 40
0.5
 40
0.5
 40
1.0
 40
1.0
 40
1.0
 40
1.0
 10
55.28460329946826
 20
-5.331388023501415
 30
0.0
 10
55.25321448061234
 20
-5.539702237286281
 30
0.0
 10
55.22127471129243
 20
-5.809691514088118
 30
0.0
 10
55.15647422858472
 20
-6.468343401258708
 30
0.0
 10
55.12331787555463
 20
-6.86180660518379
 30
0.0
 10
55.09098002002044
 20
-7.301468579123539
 30
0.0
  0
LINE
  5
305
330
1F
100
AcDbEntity
  8
0
  6
Continuous
 62
     7
370
    15
100
AcDbLine
 10
55.0909801761
 20
-7.3014669764
 30
0.0
 11
54.2852632145
 21
-18.2317667353
 31
0.0
  0
SPLINE
  5
306
330
1F
100
AcDbEntity
  8
0
  6
Continuous
 62
     7
370
    15
100
AcDbSpline
210
0.0
220
0.0
230
1.0
 70
     8
 71
     3
 72
    49
 73
    45
 74
     0
 42
0.00000001
 43
0.00000001
 12
1.0
 22
0.0
 32
0.0
 13
1.0
 23
0.0
 33
0.0
 40
0.0
 40
0.0
 40
0.0
 40
0.0
 40
0.062499999999999
 40
0.062499999999999
 40
0.124999999999998
 40
0.124999999999998
 40
0.156249999999998
 40
0.156249999999998
 40
0.187499999999998
 40
0.187499999999998
 40
0.2499999999999979
 40
0.2499999999999979
 40
0.3124999999999978
 40
0.3124999999999978
 40
0.3749999999999977
 40
0.3749999999999977
 40
0.4062499999999977
 40
0.4062499999999977
 40
0.4374999999999977
 40
0.4687499999999976
 40
0.4687499999999976
 40
0.4999999999999976
 40
0.4999999999999976
 40
0.562499999999998
 40
0.562499999999998
 40
0.5937499999999982
 40
0.5937499999999982
 40
0.6249999999999983
 40
0.6249999999999983
 40
0.687499999999998
 40
0.687499999999998
 40
0.7187499999999979
 40
0.7187499999999979
 40
0.7499999999999977
 40
0.7499999999999977
 40
0.8124999999999982
 40
0.8124999999999982
 40
0.8749999999999987
 40
0.8749999999999987
 40
0.9062499999999989
 40
0.9062499999999989
 40
0.9374999999999992
 40
0.9374999999999992
 40
1.0
 40
1.0
 40
1.0
 40
1.0
 10
54.28526318961008
 20
-18.23176551691318
 30
0.0
 10
54.25655103255543
 20
-18.62059621342098
 30
0.0
 10
54.22825043963317
 20
-19.04602718197512
 30
0.0
 10
54.17242657513442
 20
-19.97289662610303
 30
0.0
 10
54.14570456934168
 20
-20.46122152579675
 30
0.0
 10
54.10752715326124
 20
-21.22449528507769
 30
0.0
 10
54.09510449653265
 20
-21.48436564241583
 30
0.0
 10
54.07085881326557
 20
-22.01522543713509
 30
0.0
 10
54.05898860323152
 20
-22.28745059191905
 30
0.0
 10
54.02499216663287
 20
-23.10420157634342
 30
0.0
 10
54.00425373803268
 20
-23.65300999415306
 30
0.0
 10
53.96641485153501
 20
-24.75912907196696
 30
0.0
 10
53.94923987622438
 20
-25.32051962544731
 30
0.0
 10
53.91990015697957
 20
-26.4050215732739
 30
0.0
 10
53.90752516280724
 20
-26.93349121000471
 30
0.0
 10
53.89238195706056
 20
-27.70509680783722
 30
0.0
 10
53.88791143050625
 20
-27.95901266092587
 30
0.0
 10
53.8803115693543
 20
-28.4485008737112
 30
0.0
 10
53.87399079441
 20
-28.92257881959739
 30
0.0
 10
53.870168772161
 20
-29.36635232525236
 30
0.0
 10
53.86760607904385
 20
-29.79479052326098
 30
0.0
 10
53.8669551088848
 20
-30.0022651541782
 30
0.0
 10
53.86696295700339
 20
-30.5940033980366
 30
0.0
 10
53.86953444289699
 20
-30.94397743905837
 30
0.0
 10
53.87714710715309
 20
-31.40414464206886
 30
0.0
 10
53.88031550546938
 20
-31.54665611463824
 30
0.0
 10
53.88795920880922
 20
-31.80929233670462
 30
0.0
 10
53.89242603311354
 20
-31.92872610029649
 30
0.0
 10
53.90750844855691
 20
-32.24583028560722
 30
0.0
 10
53.91986194468667
 20
-32.40542491977909
 30
0.0
 10
53.94194323214271
 20
-32.5668693323821
 30
0.0
 10
53.94995015063314
 20
-32.60769808564111
 30
0.0
 10
53.96692531180545
 20
-32.66125625901112
 30
0.0
 10
53.97588965395168
 20
-32.67420753790822
 30
0.0
 10
54.00420666586115
 20
-32.67262021386794
 30
0.0
 10
54.02496854478274
 20
-32.61803487471762
 30
0.0
 10
54.07057030121722
 20
-32.39785024633093
 30
0.0
 10
54.09477408909888
 20
-32.23510261588083
 30
0.0
 10
54.13295186303423
 20
-31.91681961924216
 30
0.0
 10
54.14600611473497
 20
-31.79820375129304
 30
0.0
 10
54.17280207699993
 20
-31.5354195828521
 30
0.0
 10
54.18660678491824
 20
-31.39047595418285
 30
0.0
 10
54.22823556649348
 20
-30.92577163839669
 30
0.0
 10
54.25648530612994
 20
-30.57466968026482
 30
0.0
 10
54.28526318961008
 20
-30.18281599645483
 30
0.0
  0
LINE
  5
307
330
1F
100
AcDbEntity
  8
0
  6
Continuous
 62
     7
370
    15
100
AcDbLine
 10
54.2852632145
 20
-30.1828146625
 30
0.0
 11
55.0909801761
 21
-19.1928022253
 31
0.0
  0
SPLINE
  5
308
330
1F
100
AcDbEntity
  8
0
  6
Continuous
 62
     7
370
    15
100
AcDbSpline
210
0.0
220
0.0
230
1.0
 70
     8
 71
     3
 72
    12
 73
     8
 74
     0
 42
0.00000001
 43
0.00000001
 12
1.0
 22
0.0
 32
0.0
 13
1.0
 23
0.0
 33
0.0
 40
0.0
 40
0.0
 40
0.0
 40
0.0
 40
0.25
 40
0.25
 40
0.5
 40
0.5
 40
1.0
 40
1.0
 40
1.0
 40
1.0
 10
55.09098002002044
 20
-19.19280271746148
 30
0.0
 10
55.10703009307544
 20
-18.97339810237697
 30
0.0
 10
55.12317965840001
 20
-18.74233640895369
 30
0.0
 10
55.15568714739914
 20
-18.25669903332025
 30
0.0
 10
55.17212334989568
 20
-18.00084325745858
 30
0.0
 10
55.22117674052321
 20
-17.20584175488035
 30
0.0
 10
55.25324537046902
 20
-16.64494544853835
 30
0.0
 10
55.28460329946826
 20
-16.05289921736384
 30
0.0
  0
LINE
  5
309
330
1F
100
AcDbEntity
  8
0
  6
Continuous
 62
     7
370
    15
100
AcDbLine
 10
55.284604002
 20
-24.4173058021
 30
0.0
 11
55.284604002
 21
-16.0529003191
 31
0.0
  0
LINE
  5
30A
330
1F
100
AcDbEntity
  8
0
  6
Continuous
 62
     7
370
    15
100
AcDbLine
 10
55.284604002
 20
-26.8643521416
 30
0.0
 11
55.284604002
 21
-24.4173058021
 31
0.0
  0
LWPOLYLINE
  5
30B
330
1F
100
AcDbEntity
  8
0
  6
Continuous
 62
     7
370
    15
100
AcDbPolyline
 90
        3
 70
   128
 43
0.0
 10
54.6407732556
 20
-38.8170503724
 10
54.5542794655
 20
-40.4755794156
 10
53.9492755572
 20
-52.0670511472
  0
LINE
  5
30C
330
1F
100
AcDbEntity
  8
0
  6
Continuous
 62
     7
370
    15
100
AcDbLine
 10
37.2628318521
 20
34.004832181
 30
0.0
 11
37.2628318521
 21
33.0579509315
 31
0.0
  0
LINE
  5
30D
330
1F
100
AcDbEntity
  8
0
  6
Continuous
 62
     7
370
    15
100
AcDbLine
 10
37.2628318521
 20
21.0579508272
 30
0.0
 11
37.2628318521
 21
20.1110695776
 31
0.0
  0
LINE
  5
30E
330
1F
100
AcDbEntity
  8
0
  6
Continuous
 62
     7
370
    15
100
AcDbLine
 10
47.1340320448
 20
27.0579508793
 30
0.0
 11
47.1340320448
 21
32.5406231274
 31
0.0
  0
LINE
  5
30F
330
1F
100
AcDbEntity
  8
0
  6
Continuous
 62
     7
370
    15
100
AcDbLine
 10
47.1340320448
 20
21.5752786313
 30
0.0
 11
47.1340320448
 21
27.0579508793
 31
0.0
  0
LINE
  5
310
330
1F
100
AcDbEntity
  8
0
  6
Continuous
 62
     7
370
    15
100
AcDbLine
 10
132.262829263
 20
36.861408065
 30
0.0
 11
132.262829263
 21
41.7809929055
 31
0.0
  0
LINE
  5
311
330
1F
100
AcDbEntity
  8
0
  6
Continuous
 62
     7
370
    15
100
AcDbLine
 10
132.262829263
 20
41.7809929055
 30
0.0
 11
156.6286418031
 21
43.0579516393
 31
0.0
  0
LINE
  5
312
330
1F
100
AcDbEntity
  8
0
  6
Continuous
 62
     7
370
    15
100
AcDbLine
 10
132.262829263
 20
36.861408065
 30
0.0
 11
156.6286418031
 21
35.1575850797
 31
0.0
  0
LINE
  5
313
330
1F
100
AcDbEntity
  8
0
  6
Continuous
 62
     7
370
    15
100
AcDbLine
 10
156.6286418031
 20
11.0579501194
 30
0.0
 11
132.262829263
 21
12.3349088532
 31
0.0
  0
LINE
  5
314
330
1F
100
AcDbEntity
  8
0
  6
Continuous
 62
     7
370
    15
100
AcDbLine
 10
132.262829263
 20
12.3349088532
 30
0.0
 11
132.262829263
 21
17.2544936937
 31
0.0
  0
LINE
  5
315
330
1F
100
AcDbEntity
  8
0
  6
Continuous
 62
     7
370
    15
100
AcDbLine
 10
156.6286418031
 20
18.958316679
 30
0.0
 11
132.262829263
 21
17.2544936937
 31
0.0
  0
LINE
  5
316
330
1F
100
AcDbEntity
  8
0
  6
Continuous
 62
     7
370
    15
100
AcDbLine
 10
164.3528300713
 20
27.0579508793
 30
0.0
 11
164.3528300713
 21
39.0579509836
 31
0.0
  0
LINE
  5
317
330
1F
100
AcDbEntity
  8
0
  6
Continuous
 62
     7
370
    15
100
AcDbLine
 10
164.3528300713
 20
15.057950775
 30
0.0
 11
164.3528300713
 21
27.0579508793
 31
0.0
  0
LINE
  5
318
330
1F
100
AcDbEntity
  8
0
  6
Continuous
 62
     7
370
    15
100
AcDbLine
 10
161.8528324554
 20
27.0579508793
 30
0.0
 11
161.8528324554
 21
39.0579509836
 31
0.0
  0
LINE
  5
319
330
1F
100
AcDbEntity
  8
0
  6
Continuous
 62
     7
370
    15
100
AcDbLine
 10
161.8528324554
 20
15.057950775
 30
0.0
 11
161.8528324554
 21
27.0579508793
 31
0.0
  0
LINE
  5
31A
330
1F
100
AcDbEntity
  8
0
  6
Continuous
 62
     7
370
    15
100
AcDbLine
 10
174.3528354357
 20
36.5579505739
 30
0.0
 11
164.3528300713
 21
36.5579505739
 31
0.0
  0
LINE
  5
31B
330
1F
100
AcDbEntity
  8
0
  6
Continuous
 62
     7
370
    15
100
AcDbLine
 10
174.3528354357
 20
36.5579505739
 30
0.0
 11
174.3528354357
 21
27.0579508793
 31
0.0
  0
LINE
  5
31C
330
1F
100
AcDbEntity
  8
0
  6
Continuous
 62
     7
370
    15
100
AcDbLine
 10
174.3528354357
 20
27.0579508793
 30
0.0
 11
164.3528300713
 21
27.0579508793
 31
0.0
  0
LINE
  5
31D
330
1F
100
AcDbEntity
  8
0
  6
Continuous
 62
     7
370
    15
100
AcDbLine
 10
174.3528354357
 20
27.0579508793
 30
0.0
 11
174.3528354357
 21
17.5579511848
 31
0.0
  0
LINE
  5
31E
330
1F
100
AcDbEntity
  8
0
  6
Continuous
 62
     7
370
    15
100
AcDbLine
 10
174.3528354357
 20
17.5579511848
 30
0.0
 11
164.3528300713
 21
17.5579511848
 31
0.0
  0
LINE
  5
31F
330
1F
100
AcDbEntity
  8
0
  6
Continuous
 62
     7
370
    15
100
AcDbLine
 10
181.7628252695
 20
27.0579508793
 30
0.0
 11
181.7628252695
 21
35.0579512593
 31
0.0
  0
LINE
  5
320
330
1F
100
AcDbEntity
  8
0
  6
Continuous
 62
     7
370
    15
100
AcDbLine
 10
181.7628252695
 20
19.0579504994
 30
0.0
 11
181.7628252695
 21
27.0579508793
 31
0.0
  0
LINE
  5
321
330
1F
100
AcDbEntity
  8
0
  6
Continuous
 62
     7
370
    15
100
AcDbLine
 10
181.2628317068
 20
27.0579508793
 30
0.0
 11
181.2628317068
 21
35.0579512593
 31
0.0
  0
LINE
  5
322
330
1F
100
AcDbEntity
  8
0
  6
Continuous
 62
     7
370
    15
100
AcDbLine
 10
181.2628317068
 20
19.0579504994
 30
0.0
 11
181.2628317068
 21
27.0579508793
 31
0.0
  0
LINE
  5
323
330
1F
100
AcDbEntity
  8
0
  6
Continuous
 62
     7
370
    15
100
AcDbLine
 10
57.0628322105
 20
33.6829508011
 30
0.0
 11
57.0628322105
 21
20.4329509576
 31
0.0
  0
LINE
  5
324
330
1F
100
AcDbEntity
  8
0
  6
Continuous
 62
     7
370
    15
100
AcDbLine
 10
57.0628322105
 20
20.4329509576
 30
0.0
 11
53.9492755572
 21
20.4329509576
 31
0.0
  0
LINE
  5
325
330
1F
100
AcDbEntity
  8
0
  6
Continuous
 62
     7
370
    15
100
AcDbLine
 10
57.0628322105
 20
33.6829508011
 30
0.0
 11
53.9492755572
 21
33.6829508011
 31
0.0
  0
LINE
  5
326
330
1F
100
AcDbEntity
  8
0
  6
Continuous
 62
     7
370
    15
100
AcDbLine
 10
193.2628262232
 20
27.0579508793
 30
0.0
 11
193.2628262232
 21
33.5579510135
 31
0.0
  0
LINE
  5
327
330
1F
100
AcDbEntity
  8
0
  6
Continuous
 62
     7
370
    15
100
AcDbLine
 10
193.2628262232
 20
20.5579507452
 30
0.0
 11
193.2628262232
 21
27.0579508793
 31
0.0
  0
LINE
  5
328
330
1F
100
AcDbEntity
  8
0
  6
Continuous
 62
     7
370
    15
100
AcDbLine
 10
132.262829263
 20
36.861408065
 30
0.0
 11
132.262829263
 21
33.0579509315
 31
0.0
  0
LINE
  5
329
330
1F
100
AcDbEntity
  8
0
  6
Continuous
 62
     7
370
    15
100
AcDbLine
 10
132.262829263
 20
21.0579508272
 30
0.0
 11
132.262829263
 21
17.2544936937
 31
0.0
  0
SPLINE
  5
32A
330
1F
100
AcDbEntity
  8
0
  6
Continuous
 62
     7
370
    15
100
AcDbSpline
210
0.0
220
0.0
230
1.0
 70
     8
 71
     3
 72
     8
 73
     4
 74
     0
 42
0.00000001
 43
0.00000001
 12
1.0
 22
0.0
 32
0.0
 13
1.0
 23
0.0
 33
0.0
 40
0.000000200445265
 40
0.000000200445265
 40
0.000000200445265
 40
0.000000200445265
 40
0.0204541760672623
 40
0.0204541760672623
 40
0.0204541760672623
 40
0.0204541760672623
 10
134.6319919354035
 20
89.22676467170757
 30
0.0
 10
141.4348382031074
 20
89.50816806290729
 30
0.0
 10
148.2377633828871
 20
89.78766450755157
 30
0.0
 10
155.0407628638357
 20
90.06532895847273
 30
0.0
  0
LINE
  5
32B
330
1F
100
AcDbEntity
  8
0
  6
Continuous
 62
     7
370
    15
100
AcDbLine
 10
155.0407591651
 20
90.0653279674
 30
0.0
 11
155.0407591651
 21
42.974734242
 31
0.0
  0
SPLINE
  5
32C
330
1F
100
AcDbEntity
  8
0
  6
Continuous
 62
     7
370
    15
100
AcDbSpline
210
0.0
220
0.0
230
1.0
 70
     8
 71
     3
 72
     8
 73
     4
 74
     0
 42
0.00000001
 43
0.00000001
 12
1.0
 22
0.0
 32
0.0
 13
1.0
 23
0.0
 33
0.0
 40
0.0000006035991369
 40
0.0000006035991369
 40
0.0000006035991369
 40
0.0000006035991369
 40
0.0048041911672596
 40
0.0048041911672596
 40
0.0048041911672596
 40
0.0048041911672596
 10
155.0407628638357
 20
90.06532895847272
 30
0.0
 10
155.5713119510053
 20
88.5548413805456
 30
0.0
 10
156.1006949933972
 20
87.04394234918459
 30
0.0
 10
156.6286383487413
 20
85.53253954186404
 30
0.0
  0
SPLINE
  5
32D
330
1F
100
AcDbEntity
  8
0
  6
Continuous
 62
     7
370
    15
100
AcDbSpline
210
0.0
220
0.0
230
1.0
 70
     8
 71
     3
 72
     8
 73
     4
 74
     0
 42
0.00000001
 43
0.00000001
 12
1.0
 22
0.0
 32
0.0
 13
1.0
 23
0.0
 33
0.0
 40
0.0
 40
0.0
 40
0.0
 40
0.0
 40
1.0
 40
1.0
 40
1.0
 40
1.0
 10
160.8594527967864
 20
73.41022088717078
 30
0.0
 10
159.4623063562984
 20
77.45557768796657
 30
0.0
 10
158.0494904604811
 20
81.49546193756308
 30
0.0
 10
156.6286383487413
 20
85.53253954186404
 30
0.0
  0
LINE
  5
32E
330
1F
100
AcDbEntity
  8
0
  6
Continuous
 62
     7
370
    15
100
AcDbLine
 10
160.8594465444
 20
73.41022187
 30
0.0
 11
160.8594465444
 21
42.9471633685
 31
0.0
  0
LINE
  5
32F
330
1F
100
AcDbEntity
  8
0
  6
Continuous
 62
     7
370
    15
100
AcDbLine
 10
155.0407591651
 20
11.1411675167
 30
0.0
 11
155.0407591651
 21
-35.9494262087
 31
0.0
  0
SPLINE
  5
330
330
1F
100
AcDbEntity
  8
0
  6
Continuous
 62
     7
370
    15
100
AcDbSpline
210
0.0
220
0.0
230
1.0
 70
     8
 71
     3
 72
     8
 73
     4
 74
     0
 42
0.00000001
 43
0.00000001
 12
1.0
 22
0.0
 32
0.0
 13
1.0
 23
0.0
 33
0.0
 40
0.0000002004407508
 40
0.0000002004407508
 40
0.0000002004407508
 40
0.0000002004407508
 40
0.0204541760627481
 40
0.0204541760627481
 40
0.0204541760627481
 40
0.0204541760627481
 10
155.0407628638357
 20
-35.949427199791
 30
0.0
 10
148.2377633828871
 20
-35.67176274886985
 30
0.0
 10
141.4348382031074
 20
-35.39226630422555
 30
0.0
 10
134.6319919354036
 20
-35.11086291302583
 30
0.0
  0
SPLINE
  5
331
330
1F
100
AcDbEntity
  8
0
  6
Continuous
 62
     7
370
    15
100
AcDbSpline
210
0.0
220
0.0
230
1.0
 70
     8
 71
     3
 72
     8
 73
     4
 74
     0
 42
0.00000001
 43
0.00000001
 12
1.0
 22
0.0
 32
0.0
 13
1.0
 23
0.0
 33
0.0
 40
0.0
 40
0.0
 40
0.0
 40
0.0
 40
1.0
 40
1.0
 40
1.0
 40
1.0
 10
156.6286383487413
 20
-31.41663778318229
 30
0.0
 10
158.0494904604811
 20
-27.37956017888132
 30
0.0
 10
159.4623063562984
 20
-23.33967592928481
 30
0.0
 10
160.8594527967864
 20
-19.29431912848903
 30
0.0
  0
SPLINE
  5
332
330
1F
100
AcDbEntity
  8
0
  6
Continuous
 62
     7
370
    15
100
AcDbSpline
210
0.0
220
0.0
230
1.0
 70
     8
 71
     3
 72
     8
 73
     4
 74
     0
 42
0.00000001
 43
0.00000001
 12
1.0
 22
0.0
 32
0.0
 13
1.0
 23
0.0
 33
0.0
 40
0.0000006065786241
 40
0.0000006065786241
 40
0.0000006065786241
 40
0.0000006065786241
 40
0.0048041941467469
 40
0.0048041941467469
 40
0.0048041941467469
 40
0.0048041941467469
 10
156.6286383487413
 20
-31.4166377831823
 30
0.0
 10
156.1006949933972
 20
-32.92804059050283
 30
0.0
 10
155.5713119510053
 20
-34.43893962186383
 30
0.0
 10
155.0407628638357
 20
-35.94942719979097
 30
0.0
  0
LINE
  5
333
330
1F
100
AcDbEntity
  8
0
  6
Continuous
 62
     7
370
    15
100
AcDbLine
 10
160.8594465444
 20
11.1687383902
 30
0.0
 11
160.8594465444
 21
-19.2943201113
 31
0.0
  0
SPLINE
  5
334
330
1F
100
AcDbEntity
  8
0
  6
Continuous
 62
     7
370
    15
100
AcDbSpline
210
0.0
220
0.0
230
1.0
 70
     8
 71
     3
 72
    18
 73
    14
 74
     0
 42
0.00000001
 43
0.00000001
 12
1.0
 22
0.0
 32
0.0
 13
1.0
 23
0.0
 33
0.0
 40
0.0
 40
0.0
 40
0.0
 40
0.0
 40
0.1250000000000018
 40
0.1250000000000018
 40
0.2500000000000037
 40
0.2500000000000037
 40
0.3750000000000055
 40
0.3750000000000055
 40
0.5000000000000073
 40
0.5000000000000073
 40
0.7500000000000037
 40
0.7500000000000037
 40
1.0
 40
1.0
 40
1.0
 40
1.0
 10
134.6319919354035
 20
-35.11086291302584
 30
0.0
 10
134.4708015686535
 20
-35.10419518689367
 30
0.0
 10
134.3129783017705
 20
-35.08172315112329
 30
0.0
 10
134.0038059972339
 20
-35.00639069567497
 30
0.0
 10
133.8508614409807
 20
-34.95269400667696
 30
0.0
 10
133.5607966244651
 20
-34.81718654905478
 30
0.0
 10
133.4239495722422
 20
-34.73597887263634
 30
0.0
 10
133.1663464826503
 20
-34.54711535189216
 30
0.0
 10
133.0452476329844
 20
-34.43860138416495
 30
0.0
 10
132.7213371132532
 20
-34.08661733013356
 30
0.0
 10
132.5497182051337
 20
-33.80766087010282
 30
0.0
 10
132.3216953415193
 20
-33.21274958564002
 30
0.0
 10
132.2628318260109
 20
-32.89057900215444
 30
0.0
 10
132.2628318260109
 20
-32.57189131047555
 30
0.0
  0
LINE
  5
335
330
1F
100
AcDbEntity
  8
0
  6
Continuous
 62
     7
370
    15
100
AcDbLine
 10
132.262829263
 20
12.3349088532
 30
0.0
 11
132.262829263
 21
-32.5718917596
 31
0.0
  0
SPLINE
  5
336
330
1F
100
AcDbEntity
  8
0
  6
Continuous
 62
     7
370
    15
100
AcDbSpline
210
0.0
220
0.0
230
1.0
 70
     8
 71
     3
 72
    20
 73
    16
 74
     0
 42
0.00000001
 43
0.00000001
 12
1.0
 22
0.0
 32
0.0
 13
1.0
 23
0.0
 33
0.0
 40
0.0
 40
0.0
 40
0.0
 40
0.0
 40
0.2500000000000038
 40
0.2500000000000038
 40
0.3750000000000032
 40
0.3750000000000032
 40
0.5000000000000026
 40
0.5000000000000026
 40
0.6250000000000019
 40
0.6250000000000019
 40
0.7500000000000012
 40
0.7500000000000012
 40
0.8750000000000007
 40
0.8750000000000007
 40
1.0
 40
1.0
 40
1.0
 40
1.0
 10
132.2628318260109
 20
86.68779306915663
 30
0.0
 10
132.2628318260108
 20
87.0061476959098
 30
0.0
 10
132.3217112213947
 20
87.32860042681371
 30
0.0
 10
132.4925606238498
 20
87.77448470686059
 30
0.0
 10
132.5641765136611
 20
87.91967431321241
 30
0.0
 10
132.732836442008
 20
88.19254751049647
 30
0.0
 10
132.8289464958138
 20
88.31938908853813
 30
0.0
 10
133.0446633400388
 20
88.55393387820114
 30
0.0
 10
133.1657975983149
 20
88.66255861507219
 30
0.0
 10
133.4233783465859
 20
88.85151766698266
 30
0.0
 10
133.5601330211832
 20
88.93270828613491
 30
0.0
 10
133.8497813048749
 20
89.06816075681455
 30
0.0
 10
134.0030652913889
 20
89.1220777048267
 30
0.0
 10
134.3127372034221
 20
89.19760032593437
 30
0.0
 10
134.470729175919
 20
89.22009395101108
 30
0.0
 10
134.6319919354035
 20
89.22676467170757
 30
0.0
  0
LINE
  5
337
330
1F
100
AcDbEntity
  8
0
  6
Continuous
 62
     7
370
    15
100
AcDbLine
 10
132.262829263
 20
86.6877935183
 30
0.0
 11
132.262829263
 21
41.7809929055
 31
0.0
  0
SPLINE
  5
338
330
1F
100
AcDbEntity
  8
0
  6
Continuous
 62
     7
370
    15
100
AcDbSpline
210
0.0
220
0.0
230
1.0
 70
     8
 71
     3
 72
     8
 73
     4
 74
     0
 42
0.00000001
 43
0.00000001
 12
1.0
 22
0.0
 32
0.0
 13
1.0
 23
0.0
 33
0.0
 40
0.0
 40
0.0
 40
0.0
 40
0.0
 40
1.0
 40
1.0
 40
1.0
 40
1.0
 10
37.26283182601088
 20
14.75582199249222
 30
0.0
 10
36.19514799463995
 20
15.62661756482152
 30
0.0
 10
35.18539678255807
 20
16.61620240784584
 30
0.0
 10
34.26283182601088
 20
17.76653477636845
 30
0.0
  0
LINE
  5
339
330
1F
100
AcDbEntity
  8
0
  6
Continuous
 62
     7
370
    15
100
AcDbLine
 10
34.262831826
 20
36.3493669134
 30
0.0
 11
34.262831826
 21
17.7665348452
 31
0.0
  0
SPLINE
  5
33A
330
1F
100
AcDbEntity
  8
0
  6
Continuous
 62
     7
370
    15
100
AcDbSpline
210
0.0
220
0.0
230
1.0
 70
     8
 71
     3
 72
     8
 73
     4
 74
     0
 42
0.00000001
 43
0.00000001
 12
1.0
 22
0.0
 32
0.0
 13
1.0
 23
0.0
 33
0.0
 40
0.0
 40
0.0
 40
0.0
 40
0.0
 40
1.0
 40
1.0
 40
1.0
 40
1.0
 10
34.26283182601088
 20
36.34936698231308
 30
0.0
 10
35.18539678255807
 20
37.49969935083568
 30
0.0
 10
36.19514799463995
 20
38.48928419386001
 30
0.0
 10
37.26283182601088
 20
39.36007976618931
 30
0.0
  0
SPLINE
  5
33B
330
1F
100
AcDbEntity
  8
0
  6
Continuous
 62
     7
370
    15
100
AcDbSpline
210
0.0
220
0.0
230
1.0
 70
     8
 71
     3
 72
     8
 73
     4
 74
     0
 42
0.00000001
 43
0.00000001
 12
1.0
 22
0.0
 32
0.0
 13
1.0
 23
0.0
 33
0.0
 40
0.0000002861301817
 40
0.0000002861301817
 40
0.0000002861301817
 40
0.0000002861301817
 40
0.0042897880675852
 40
0.0042897880675852
 40
0.0042897880675852
 40
0.0042897880675852
 10
34.26283182601088
 20
61.51536815200107
 30
0.0
 10
35.26226068977179
 20
62.27449342165536
 30
0.0
 10
36.26228890757646
 20
63.03322516490844
 30
0.0
 10
37.26283182601088
 20
63.79161778509962
 30
0.0
  0
LINE
  5
33C
330
1F
100
AcDbEntity
  8
0
  6
Continuous
 62
     7
370
    15
100
AcDbLine
 10
34.262831826
 20
36.3493669134
 30
0.0
 11
34.262831826
 21
61.515369947
 31
0.0
  0
SPLINE
  5
33D
330
1F
100
AcDbEntity
  8
0
  6
Continuous
 62
     7
370
    15
100
AcDbSpline
210
0.0
220
0.0
230
1.0
 70
     8
 71
     3
 72
     8
 73
     4
 74
     0
 42
0.00000001
 43
0.00000001
 12
1.0
 22
0.0
 32
0.0
 13
1.0
 23
0.0
 33
0.0
 40
0.000000285811573
 40
0.000000285811573
 40
0.000000285811573
 40
0.000000285811573
 40
0.0042897877489765
 40
0.0042897877489765
 40
0.0042897877489765
 40
0.0042897877489765
 10
37.26283182601088
 20
-9.67571602641809
 30
0.0
 10
36.26228890757646
 20
-8.917323406226918
 30
0.0
 10
35.26226068977179
 20
-8.158591662973821
 30
0.0
 10
34.26283182601088
 20
-7.399466393319537
 30
0.0
  0
LINE
  5
33E
330
1F
100
AcDbEntity
  8
0
  6
Continuous
 62
     7
370
    15
100
AcDbLine
 10
34.262831826
 20
-7.3994681883
 30
0.0
 11
34.262831826
 21
17.7665348452
 31
0.0
  0
SPLINE
  5
33F
330
1F
100
AcDbEntity
  8
0
  6
Continuous
 62
     7
370
    15
100
AcDbSpline
210
0.0
220
0.0
230
1.0
 70
     8
 71
     3
 72
    16
 73
    12
 74
     0
 42
0.00000001
 43
0.00000001
 12
1.0
 22
0.0
 32
0.0
 13
1.0
 23
0.0
 33
0.0
 40
0.0
 40
0.0
 40
0.0
 40
0.0
 40
0.0082641206677396
 40
0.1500795401272016
 40
0.2918432883386297
 40
0.4330128001537305
 40
0.5647418717073018
 40
0.6970369600017616
 40
0.8292863120546662
 40
0.9609549322567961
 40
1.0
 40
1.0
 40
1.0
 40
1.0
 10
110.369566399852
 20
-18.33089298486173
 30
0.0
 10
110.3662468056923
 20
-18.33467789598934
 30
0.0
 10
110.3059617269855
 20
-18.40341330587635
 30
0.0
 10
110.153588714448
 20
-18.52987705018461
 30
0.0
 10
109.9115066305456
 20
-18.70812282499697
 30
0.0
 10
109.636471348883
 20
-18.87130989121226
 30
0.0
 10
109.3365364562246
 20
-19.01993222440797
 30
0.0
 10
109.0156533071872
 20
-19.15459487429531
 30
0.0
 10
108.668408942553
 20
-19.27667723070273
 30
0.0
 10
108.3888155189325
 20
-19.36300948382718
 30
0.0
 10
108.2206075168372
 20
-19.40416793143934
 30
0.0
 10
108.1821355412399
 20
-19.41358155488432
 30
0.0
  0
ELLIPSE
  5
340
330
1F
100
AcDbEntity
  8
0
  6
Continuous
 62
     7
370
    15
100
AcDbEllipse
 10
94.5040694491
 20
27.0579508793
 30
0.0
 11
0.0
 21
51.15906376588203
 31
0.0
210
0.0
220
0.0
230
1.0
 40
0.4073079628
 41
3.561482958736491
 42
3.597885456208779
  0
ELLIPSE
  5
341
330
1F
100
AcDbEntity
  8
0
  6
Continuous
 62
     7
370
    15
100
AcDbEllipse
 10
119.6597592576
 20
27.0579508793
 30
0.0
 11
0.0
 21
49.35209374818261
 31
0.0
210
0.0
220
0.0
230
1.0
 40
0.7546024
 41
2.934160209344361
 42
2.972858982139245
  0
ELLIPSE
  5
342
330
1F
100
AcDbEntity
  8
0
  6
Continuous
 62
     7
370
    15
100
AcDbEllipse
 10
96.8369898278
 20
27.0579508793
 30
0.0
 11
0.0
 21
50.99599620888743
 31
0.0
210
0.0
220
0.0
230
1.0
 40
0.4073079628
 41
2.747957887207924
 42
2.773691630974283
  0
ELLIPSE
  5
343
330
1F
100
AcDbEntity
  8
0
  6
Continuous
 62
     7
370
    15
100
AcDbEllipse
 10
73.5348790338
 20
27.0579508793
 30
0.0
 11
0.0
 21
52.62714901927617
 31
0.0
210
0.0
220
0.0
230
1.0
 40
0.3840023995
 41
3.37773460128826
 42
3.460749201083771
  0
SPLINE
  5
344
330
1F
100
AcDbEntity
  8
0
  6
Continuous
 62
     7
370
    15
100
AcDbSpline
210
0.0
220
0.0
230
1.0
 70
     8
 71
     3
 72
     8
 73
     4
 74
     0
 42
0.00000001
 43
0.00000001
 12
1.0
 22
0.0
 32
0.0
 13
1.0
 23
0.0
 33
0.0
 40
0.0
 40
0.0
 40
0.0
 40
0.0
 40
1.0
 40
1.0
 40
1.0
 40
1.0
 10
72.48460329946832
 20
76.84997334444668
 30
0.0
 10
66.7472615512207
 20
77.40511172966782
 30
0.0
 10
61.01361902116659
 20
77.96622973794308
 30
0.0
 10
55.28460329946826
 20
78.53320902400925
 30
0.0
  0
SPLINE
  5
345
330
1F
100
AcDbEntity
  8
0
  6
Continuous
 62
     7
370
    15
100
AcDbSpline
210
0.0
220
0.0
230
1.0
 70
     8
 71
     3
 72
     8
 73
     4
 74
     0
 42
0.00000001
 43
0.00000001
 12
1.0
 22
0.0
 32
0.0
 13
1.0
 23
0.0
 33
0.0
 40
0.0
 40
0.0
 40
0.0
 40
0.0
 40
1.0
 40
1.0
 40
1.0
 40
1.0
 10
55.28460329946826
 20
-24.41730726532702
 30
0.0
 10
61.01361902116659
 20
-23.85032797926083
 30
0.0
 10
66.74726155122072
 20
-23.28920997098555
 30
0.0
 10
72.48460329946832
 20
-22.73407158576441
 30
0.0
  0
LINE
  5
346
330
1F
100
AcDbEntity
  8
0
  6
Continuous
 62
     7
370
    15
100
AcDbLine
 10
72.4846045862
 20
9.7343656522
 30
0.0
 11
72.4846045862
 21
-22.7340706336
 31
0.0
  0
SPLINE
  5
347
330
1F
100
AcDbEntity
  8
0
  6
Continuous
 62
     7
370
    15
100
AcDbSpline
210
0.0
220
0.0
230
1.0
 70
     8
 71
     3
 72
     8
 73
     4
 74
     0
 42
0.00000001
 43
0.00000001
 12
1.0
 22
0.0
 32
0.0
 13
1.0
 23
0.0
 33
0.0
 40
0.0
 40
0.0
 40
0.0
 40
0.0
 40
1.0
 40
1.0
 40
1.0
 40
1.0
 10
72.48460329946832
 20
9.73436549191533
 30
0.0
 10
66.74726155122072
 20
10.10903911322926
 30
0.0
 10
61.01361902116659
 20
10.5260895673937
 30
0.0
 10
55.28460329946826
 20
10.99829740974674
 30
0.0
  0
SPLINE
  5
348
330
1F
100
AcDbEntity
  8
0
  6
Continuous
 62
     7
370
    15
100
AcDbSpline
210
0.0
220
0.0
230
1.0
 70
     8
 71
     3
 72
     8
 73
     4
 74
     0
 42
0.00000001
 43
0.00000001
 12
1.0
 22
0.0
 32
0.0
 13
1.0
 23
0.0
 33
0.0
 40
0.0
 40
0.0
 40
0.0
 40
0.0
 40
1.0
 40
1.0
 40
1.0
 40
1.0
 10
55.28460329946825
 20
43.11760434893667
 30
0.0
 10
61.01361902116658
 20
43.58981219128968
 30
0.0
 10
66.7472615512207
 20
44.0068626454541
 30
0.0
 10
72.48460329946832
 20
44.38153626676801
 30
0.0
  0
LINE
  5
349
330
1F
100
AcDbEntity
  8
0
  6
Continuous
 62
     7
370
    15
100
AcDbLine
 10
72.4846045862
 20
76.8499723923
 30
0.0
 11
72.4846045862
 21
44.3815361065
 31
0.0
  0
SPLINE
  5
34A
330
1F
100
AcDbEntity
  8
0
  6
Continuous
 62
     7
370
    15
100
AcDbSpline
210
0.0
220
0.0
230
1.0
 70
     8
 71
     3
 72
     8
 73
     4
 74
     0
 42
0.00000001
 43
0.00000001
 12
1.0
 22
0.0
 32
0.0
 13
1.0
 23
0.0
 33
0.0
 40
0.0
 40
0.0
 40
0.0
 40
0.0
 40
1.0
 40
1.0
 40
1.0
 40
1.0
 10
114.2628318260108
 20
-14.09118986695885
 30
0.0
 10
109.8915346021503
 20
-14.46110869787856
 30
0.0
 10
105.5200990161255
 20
-14.8294581563829
 30
0.0
 10
101.1485461117251
 20
-15.19635710683807
 30
0.0
  0
ELLIPSE
  5
34B
330
1F
100
AcDbEntity
  8
0
  6
Continuous
 62
     7
370
    15
100
AcDbEllipse
 10
89.1320332773
 20
27.0579508793
 30
0.0
 11
0.0
 21
51.53456085641334
 31
0.0
210
0.0
220
0.0
230
1.0
 40
0.4073079628
 41
3.488208146645607
 42
3.751114639565893
  0
ELLIPSE
  5
34C
330
1F
100
AcDbEntity
  8
0
  6
Continuous
 62
     7
370
    15
100
AcDbEllipse
 10
102.2090259996
 20
27.0579508793
 30
0.0
 11
0.0
 21
50.62049911835614
 31
0.0
210
0.0
220
0.0
230
1.0
 40
0.4073079628
 41
2.588456417569724
 42
2.849041047398412
  0
SPLINE
  5
34D
330
1F
100
AcDbEntity
  8
0
  6
Continuous
 62
     7
370
    15
100
AcDbSpline
210
0.0
220
0.0
230
1.0
 70
     8
 71
     3
 72
     8
 73
     4
 74
     0
 42
0.00000001
 43
0.00000001
 12
1.0
 22
0.0
 32
0.0
 13
1.0
 23
0.0
 33
0.0
 40
0.0
 40
0.0
 40
0.0
 40
0.0
 40
1.0
 40
1.0
 40
1.0
 40
1.0
 10
91.37711754029648
 20
-16.01407314567031
 30
0.0
 10
87.00580194946455
 20
-16.37883614830162
 30
0.0
 10
82.63436776276468
 20
-16.74223028235392
 30
0.0
 10
78.26283182601077
 20
-17.10435360765234
 30
0.0
  0
ELLIPSE
  5
34E
330
1F
100
AcDbEntity
  8
0
  6
Continuous
 62
     7
370
    15
100
AcDbEllipse
 10
767.6439871012
 20
27.0579508793
 30
0.0
 11
1871.234505554251
 21
-1.776356839400250E-13
 31
0.0
210
0.0
220
0.0
230
1.0
 40
0.0261859216
 41
1.900601364268026
 42
1.901035870134974
  0
ELLIPSE
  5
34F
330
1F
100
AcDbEntity
  8
0
  6
Continuous
 62
     7
370
    15
100
AcDbEllipse
 10
767.6439871012
 20
27.0579508793
 30
0.0
 11
1871.234505554251
 21
-5.115907697472720E-13
 31
0.0
210
0.0
220
0.0
230
1.0
 40
0.0261859216
 41
4.382149437044669
 42
4.382583942911617
  0
LINE
  5
350
330
1F
100
AcDbEntity
  8
0
  6
Continuous
 62
     7
370
    15
100
AcDbLine
 10
164.6286356638
 20
74.05794927
 30
0.0
 11
164.6286356638
 21
36.5579505739
 31
0.0
  0
LINE
  5
351
330
1F
100
AcDbEntity
  8
0
  6
Continuous
 62
     7
370
    15
100
AcDbLine
 10
164.6286356638
 20
17.5579511848
 30
0.0
 11
164.6286356638
 21
-19.9420475113
 31
0.0
  0
LINE
  5
352
330
1F
100
AcDbEntity
  8
0
  6
Continuous
 62
     7
370
    15
100
AcDbLine
 10
55.284604002
 20
70.1688020778
 30
0.0
 11
55.284604002
 21
59.4472899389
 31
0.0
  0
LINE
  5
353
330
1F
100
AcDbEntity
  8
0
  6
Continuous
 62
     7
370
    15
100
AcDbLine
 10
34.262831826
 20
74.0805506063
 30
0.0
 11
34.262831826
 21
61.5108772469
 31
0.0
  0
LINE
  5
354
330
1F
100
AcDbEntity
  8
0
  6
Continuous
 62
     7
370
    15
100
AcDbLine
 10
55.284604002
 20
-5.3313881803
 30
0.0
 11
55.284604002
 21
-16.0529003191
 31
0.0
  0
LINE
  5
355
330
1F
100
AcDbEntity
  8
0
  6
Continuous
 62
     7
370
    15
100
AcDbLine
 10
34.262831826
 20
-7.3950164664
 30
0.0
 11
34.262831826
 21
-19.9646488476
 31
0.0
  0
SPLINE
  5
356
330
1F
100
AcDbEntity
  8
0
  6
Continuous
 62
     7
370
    15
100
AcDbSpline
210
0.0
220
0.0
230
1.0
 70
     8
 71
     3
 72
     8
 73
     4
 74
     0
 42
0.00000001
 43
0.00000001
 12
1.0
 22
0.0
 32
0.0
 13
1.0
 23
0.0
 33
0.0
 40
0.000000285811573
 40
0.000000285811573
 40
0.000000285811573
 40
0.000000285811573
 40
0.0042897877489765
 40
0.0042897877489765
 40
0.0042897877489765
 40
0.0042897877489765
 10
37.26283182601088
 20
77.0042992509362
 30
0.0
 10
36.26228890757646
 20
76.32006266181085
 30
0.0
 10
35.26226068977179
 20
75.63544880217863
 30
0.0
 10
34.26283182601088
 20
74.95039699454544
 30
0.0
  0
LINE
  5
357
330
1F
100
AcDbEntity
  8
0
  6
Continuous
 62
     7
370
    15
100
AcDbLine
 10
34.262831826
 20
74.9503984404
 30
0.0
 11
34.262831826
 21
74.0805506063
 31
0.0
  0
SPLINE
  5
358
330
1F
100
AcDbEntity
  8
0
  6
Continuous
 62
     7
370
    15
100
AcDbSpline
210
0.0
220
0.0
230
1.0
 70
     8
 71
     3
 72
     8
 73
     4
 74
     0
 42
0.00000001
 43
0.00000001
 12
1.0
 22
0.0
 32
0.0
 13
1.0
 23
0.0
 33
0.0
 40
0.0000002861301817
 40
0.0000002861301817
 40
0.0000002861301817
 40
0.0000002861301817
 40
0.0042897880675852
 40
0.0042897880675852
 40
0.0042897880675852
 40
0.0042897880675852
 10
34.26283182601088
 20
-20.8344952358639
 30
0.0
 10
35.26226068977179
 20
-21.51954704349709
 30
0.0
 10
36.26228890757646
 20
-22.20416090312931
 30
0.0
 10
37.26283182601088
 20
-22.88839749225466
 30
0.0
  0
LINE
  5
359
330
1F
100
AcDbEntity
  8
0
  6
Continuous
 62
     7
370
    15
100
AcDbLine
 10
34.262831826
 20
-19.9646488476
 30
0.0
 11
34.262831826
 21
-20.8344966817
 31
0.0
  0
LINE
  5
35A
330
1F
100
AcDbEntity
  8
0
  6
Continuous
 62
     7
370
    15
100
AcDbLine
 10
55.284604002
 20
5.7205795598
 30
0.0
 11
72.4846045862
 21
5.7205795598
 31
0.0
  0
LINE
  5
35B
330
1F
100
AcDbEntity
  8
0
  6
Continuous
 62
     7
370
    15
100
AcDbLine
 10
72.4846045862
 20
48.3953221989
 30
0.0
 11
55.284604002
 21
48.3953221989
 31
0.0
  0
SPLINE
  5
35C
330
1F
100
AcDbEntity
  8
0
  6
Continuous
 62
     7
370
    15
100
AcDbSpline
210
0.0
220
0.0
230
1.0
 70
     8
 71
     3
 72
     8
 73
     4
 74
     0
 42
0.00000001
 43
0.00000001
 12
1.0
 22
0.0
 32
0.0
 13
1.0
 23
0.0
 33
0.0
 40
0.0
 40
0.0
 40
0.0
 40
0.0
 40
1.0
 40
1.0
 40
1.0
 40
1.0
 10
37.26283182601088
 20
87.82519225865116
 30
0.0
 10
36.19514799464
 20
86.91213849940979
 30
0.0
 10
35.18539678255812
 20
86.07252098191017
 30
0.0
 10
34.26283182601088
 20
85.32174398278892
 30
0.0
  0
LINE
  5
35D
330
1F
100
AcDbEntity
  8
0
  6
Continuous
 62
     7
370
    15
100
AcDbLine
 10
34.262831826
 20
74.9503984404
 30
0.0
 11
34.262831826
 21
85.321744467
 31
0.0
  0
SPLINE
  5
35E
330
1F
100
AcDbEntity
  8
0
  6
Continuous
 62
     7
370
    15
100
AcDbSpline
210
0.0
220
0.0
230
1.0
 70
     8
 71
     3
 72
     8
 73
     4
 74
     0
 42
0.00000001
 43
0.00000001
 12
1.0
 22
0.0
 32
0.0
 13
1.0
 23
0.0
 33
0.0
 40
0.0
 40
0.0
 40
0.0
 40
0.0
 40
1.0
 40
1.0
 40
1.0
 40
1.0
 10
34.26283182601088
 20
-31.20584222410764
 30
0.0
 10
35.18539678255802
 20
-31.95661922322872
 30
0.0
 10
36.19514799463991
 20
-32.79623674072825
 30
0.0
 10
37.26283182601088
 20
-33.70929049996959
 30
0.0
  0
LINE
  5
35F
330
1F
100
AcDbEntity
  8
0
  6
Continuous
 62
     7
370
    15
100
AcDbLine
 10
34.262831826
 20
-31.2058427083
 30
0.0
 11
34.262831826
 21
-20.8344966817
 31
0.0
  0
LINE
  5
360
330
1F
100
AcDbEntity
  8
0
  6
Continuous
 62
     7
370
    15
100
AcDbLine
 10
72.4846045862
 20
-9.1901072013
 30
0.0
 11
55.284604002
 21
-9.1901072013
 31
0.0
  0
LINE
  5
361
330
1F
100
AcDbEntity
  8
0
  6
Continuous
 62
     7
370
    15
100
AcDbLine
 10
55.284604002
 20
63.30600896
 30
0.0
 11
72.4846045862
 21
63.30600896
 31
0.0
  0
SPLINE
  5
362
330
1F
100
AcDbEntity
  8
0
  6
Continuous
 62
     7
370
    15
100
AcDbSpline
210
0.0
220
0.0
230
1.0
 70
     8
 71
     3
 72
     8
 73
     4
 74
     0
 42
0.00000001
 43
0.00000001
 12
1.0
 22
0.0
 32
0.0
 13
1.0
 23
0.0
 33
0.0
 40
0.0
 40
0.0
 40
0.0
 40
0.0
 40
1.0
 40
1.0
 40
1.0
 40
1.0
 10
78.26283182601077
 20
-18.87569594595153
 30
0.0
 10
82.63435482477036
 20
-18.5175314185577
 30
0.0
 10
87.00578834494722
 20
-18.15823727295574
 30
0.0
 10
91.3771175402965
 20
-17.79773090291652
 30
0.0
  0
ELLIPSE
  5
363
330
1F
100
AcDbEntity
  8
0
  6
Continuous
 62
     7
370
    15
100
AcDbEllipse
 10
102.1915822437
 20
27.0579508793
 30
0.0
 11
0.0
 21
52.12477173495696
 31
0.0
210
0.0
220
0.0
230
1.0
 40
0.4073079628
 41
2.607133847563296
 42
2.85857775028253
  0
ELLIPSE
  5
364
330
1F
100
AcDbEntity
  8
0
  6
Continuous
 62
     7
370
    15
100
AcDbEllipse
 10
89.1145895215
 20
27.0579508793
 30
0.0
 11
0.0
 21
53.03883347301418
 31
0.0
210
0.0
220
0.0
230
1.0
 40
0.4073079628
 41
3.47883819783578
 42
3.732418017936827
  0
SPLINE
  5
365
330
1F
100
AcDbEntity
  8
0
  6
Continuous
 62
     7
370
    15
100
AcDbSpline
210
0.0
220
0.0
230
1.0
 70
     8
 71
     3
 72
     8
 73
     4
 74
     0
 42
0.00000001
 43
0.00000001
 12
1.0
 22
0.0
 32
0.0
 13
1.0
 23
0.0
 33
0.0
 40
0.0
 40
0.0
 40
0.0
 40
0.0
 40
1.0
 40
1.0
 40
1.0
 40
1.0
 10
101.1485461117251
 20
-16.98980295499877
 30
0.0
 10
105.520083213823
 20
-16.62740862183335
 30
0.0
 10
109.8915180063713
 20
-16.2637335315285
 30
0.0
 10
114.2628318260108
 20
-15.8986786449794
 30
0.0
  0
LINE
  5
366
330
1F
100
AcDbEntity
  8
0
  6
Continuous
 62
     7
370
    15
100
AcDbLine
 10
114.2628300379
 20
-15.898677026
 30
0.0
 11
114.2628300379
 21
-18.0214144933
 31
0.0
  0
SPLINE
  5
367
330
1F
100
AcDbEntity
  8
0
  6
Continuous
 62
     7
370
    15
100
AcDbSpline
210
0.0
220
0.0
230
1.0
 70
     8
 71
     3
 72
     8
 73
     4
 74
     0
 42
0.00000001
 43
0.00000001
 12
1.0
 22
0.0
 32
0.0
 13
1.0
 23
0.0
 33
0.0
 40
0.0
 40
0.0
 40
0.0
 40
0.0
 40
1.0
 40
1.0
 40
1.0
 40
1.0
 10
114.2628318260108
 20
-18.02141465585511
 30
0.0
 10
110.7043425670928
 20
-18.30459574179896
 30
0.0
 10
107.1458048724158
 20
-18.58717286396637
 30
0.0
 10
103.5872228385312
 20
-18.86917870052866
 30
0.0
  0
ELLIPSE
  5
368
330
1F
100
AcDbEntity
  8
0
  6
Continuous
 62
     7
370
    15
100
AcDbEllipse
 10
93.0046846804
 20
27.0579508793
 30
0.0
 11
0.0
 21
52.76692178676737
 31
0.0
210
0.0
220
0.0
230
1.0
 40
0.4073079628
 41
3.378835184050158
 42
3.656420959657558
  0
LWPOLYLINE
  5
369
330
1F
100
AcDbEntity
  8
0
  6
Continuous
 62
     7
370
    15
100
AcDbPolyline
 90
        3
 70
   128
 43
0.0
 10
98.0558949898
 20
-24.2309556055
 10
96.47145452
 20
-24.344223057
 10
94.4697666357
 20
-24.4873002815
  0
ELLIPSE
  5
36A
330
1F
100
AcDbEntity
  8
0
  6
Continuous
 62
     7
370
    15
100
AcDbEllipse
 10
98.3014870848
 20
27.0579508793
 30
0.0
 11
0.0
 21
52.39668342120376
 31
0.0
210
0.0
220
0.0
230
1.0
 40
0.4073079628
 41
2.687415461544667
 42
2.961071375983565
  0
SPLINE
  5
36B
330
1F
100
AcDbEntity
  8
0
  6
Continuous
 62
     7
370
    15
100
AcDbSpline
210
0.0
220
0.0
230
1.0
 70
     8
 71
     3
 72
     8
 73
     4
 74
     0
 42
0.00000001
 43
0.00000001
 12
1.0
 22
0.0
 32
0.0
 13
1.0
 23
0.0
 33
0.0
 40
0.0
 40
0.0
 40
0.0
 40
0.0
 40
1.0
 40
1.0
 40
1.0
 40
1.0
 10
88.93844081349042
 20
-20.02687818803017
 30
0.0
 10
85.37994542525237
 20
-20.30735695418656
 30
0.0
 10
81.82140800350338
 20
-20.58730559848277
 30
0.0
 10
78.2628318260108
 20
-20.86675139033211
 30
0.0
  0
LINE
  5
36C
330
1F
100
AcDbEntity
  8
0
  6
Continuous
 62
     7
370
    15
100
AcDbLine
 10
78.2628315876
 20
-20.8667502451
 30
0.0
 11
78.2628315876
 21
-18.8756943393
 31
0.0
  0
LINE
  5
36D
330
1F
100
AcDbEntity
  8
0
  6
Continuous
 62
     7
370
    15
100
AcDbLine
 10
101.1485490392
 20
-16.9898033786
 30
0.0
 11
101.1485490392
 21
-15.1963554966
 31
0.0
  0
LINE
  5
36E
330
1F
100
AcDbEntity
  8
0
  6
Continuous
 62
     7
370
    15
100
AcDbLine
 10
114.2628300379
 20
-15.898677026
 30
0.0
 11
114.2628300379
 21
-14.091188525
 31
0.0
  0
LINE
  5
36F
330
1F
100
AcDbEntity
  8
0
  6
Continuous
 62
     7
370
    15
100
AcDbLine
 10
96.2628308127
 20
-22.9931869256
 30
0.0
 11
96.2628308127
 21
-21.4117415893
 31
0.0
  0
LINE
  5
370
330
1F
100
AcDbEntity
  8
0
  6
Continuous
 62
     7
370
    15
100
AcDbLine
 10
78.2628315876
 20
-18.8756943393
 30
0.0
 11
78.2628315876
 21
-17.10435233
 31
0.0
  0
LINE
  5
371
330
1F
100
AcDbEntity
  8
0
  6
Continuous
 62
     7
370
    15
100
AcDbLine
 10
91.3771163116
 20
-17.7977294373
 30
0.0
 11
91.3771163116
 21
-16.0140716183
 31
0.0
  0
SPLINE
  5
372
330
1F
100
AcDbEntity
  8
0
  6
Continuous
 62
     7
370
    15
100
AcDbSpline
210
0.0
220
0.0
230
1.0
 70
     8
 71
     3
 72
    22
 73
    18
 74
     0
 42
0.00000001
 43
0.00000001
 12
1.0
 22
0.0
 32
0.0
 13
1.0
 23
0.0
 33
0.0
 40
0.0
 40
0.0
 40
0.0
 40
0.0
 40
0.125
 40
0.125
 40
0.25
 40
0.25
 40
0.375
 40
0.375
 40
0.5
 40
0.5
 40
0.625
 40
0.625
 40
0.75
 40
0.75
 40
0.875
 40
0.875
 40
1.0
 40
1.0
 40
1.0
 40
1.0
 10
106.5367343600666
 20
-21.30805182184707
 30
0.0
 10
106.84081836057
 20
-21.28105514156261
 30
0.0
 10
107.1370359350888
 20
-21.24287143751157
 30
0.0
 10
107.7147253657996
 20
-21.14507157797465
 30
0.0
 10
107.9991458172869
 20
-21.08454475595947
 30
0.0
 10
108.5322114600873
 20
-20.94546737087466
 30
0.0
 10
108.7821914297115
 20
-20.86699066517941
 30
0.0
 10
109.2500267743812
 20
-20.69135782583387
 30
0.0
 10
109.4657404684419
 20
-20.59465744610094
 30
0.0
 10
109.8493476569928
 20
-20.38924187787943
 30
0.0
 10
110.020137350481
 20
-20.27920179221091
 30
0.0
 10
110.3158010665283
 20
-20.04628131901709
 30
0.0
 10
110.438104892227
 20
-19.92564545047141
 30
0.0
 10
110.6351161339754
 20
-19.67552803807673
 30
0.0
 10
110.7100810048749
 20
-19.54508425783042
 30
0.0
 10
110.8094958688883
 20
-19.27960544021277
 30
0.0
 10
110.8342603974394
 20
-19.14495237985557
 30
0.0
 10
110.8342603974394
 20
-19.008258486704
 30
0.0
  0
LINE
  5
373
330
1F
100
AcDbEntity
  8
0
  6
Continuous
 62
     7
370
    15
100
AcDbLine
 10
110.8342591117
 20
-19.0082587945
 30
0.0
 11
110.8342591117
 21
-18.2939530063
 31
0.0
  0
LINE
  5
374
330
1F
100
AcDbEntity
  8
0
  6
Continuous
 62
     7
370
    15
100
AcDbLine
 10
114.2628300379
 20
-18.7398553538
 30
0.0
 11
114.2628300379
 21
-20.3151055324
 31
0.0
  0
LWPOLYLINE
  5
375
330
1F
100
AcDbEntity
  8
0
  6
Continuous
 62
     7
370
    15
100
AcDbPolyline
 90
        3
 70
   128
 43
0.0
 10
114.2628300379
 20
-20.3151055324
 10
113.6675509999
 20
-20.360181545
 10
113.2342624853
 20
-20.3929864514
  0
SPLINE
  5
376
330
1F
100
AcDbEntity
  8
0
  6
Continuous
 62
     7
370
    15
100
AcDbSpline
210
0.0
220
0.0
230
1.0
 70
     8
 71
     3
 72
    16
 73
    12
 74
     0
 42
0.00000001
 43
0.00000001
 12
1.0
 22
0.0
 32
0.0
 13
1.0
 23
0.0
 33
0.0
 40
0.0
 40
0.0
 40
0.0
 40
0.0
 40
0.2500000000000011
 40
0.2500000000000011
 40
0.5000000000000022
 40
0.5000000000000022
 40
0.6250000000000017
 40
0.6250000000000017
 40
0.7500000000000011
 40
0.7500000000000011
 40
1.0
 40
1.0
 40
1.0
 40
1.0
 10
113.2342603974394
 20
-20.39298623343806
 30
0.0
 10
113.0786455102212
 20
-20.57364225289671
 30
0.0
 10
112.8760337345947
 20
-20.74216775750151
 30
0.0
 10
112.3755311971883
 20
-21.05827675896741
 30
0.0
 10
112.0740142118326
 20
-21.20652015460388
 30
0.0
 10
111.5695381500905
 20
-21.40340122307224
 30
0.0
 10
111.3919247488457
 20
-21.46530709282307
 30
0.0
 10
111.0172137640167
 20
-21.58201472322479
 30
0.0
 10
110.8186542306361
 20
-21.63716171193002
 30
0.0
 10
110.2032910710417
 20
-21.78911447912042
 30
0.0
 10
109.7698864916335
 20
-21.87243274375736
 30
0.0
 10
109.3122968030874
 20
-21.93856565647582
 30
0.0
  0
ELLIPSE
  5
377
330
1F
100
AcDbEntity
  8
0
  6
Continuous
 62
     7
370
    15
100
AcDbEllipse
 10
119.5998863207
 20
27.0579508793
 30
0.0
 11
0.0
 21
50.85784850196742
 31
0.0
210
0.0
220
0.0
230
1.0
 40
0.7546024
 41
2.870210394254664
 42
2.979481553887626
  0
LWPOLYLINE
  5
378
330
1F
100
AcDbEntity
  8
0
  6
Continuous
 62
     7
370
    15
100
AcDbPolyline
 90
        3
 70
   128
 43
0.0
 10
113.4056854437
 20
-23.1330864775
 10
111.3112378309
 20
-23.2829511809
 10
108.9516613076
 20
-23.4517627108
  0
ELLIPSE
  5
379
330
1F
100
AcDbEntity
  8
0
  6
Continuous
 62
     7
370
    15
100
AcDbEllipse
 10
115.1334593426
 20
27.0579508793
 30
0.0
 11
0.0
 21
51.16973759895002
 31
0.0
210
0.0
220
0.0
230
1.0
 40
0.7546024
 41
2.884962180390782
 42
2.980803700932321
  0
ELLIPSE
  5
37A
330
1F
100
AcDbEntity
  8
0
  6
Continuous
 62
     7
370
    15
100
AcDbEllipse
 10
98.3304101955
 20
27.0579508793
 30
0.0
 11
0.0
 21
52.39466174011997
 31
0.0
210
0.0
220
0.0
230
1.0
 40
0.4073079628
 41
3.380345295019556
 42
3.475900713367862
  0
LWPOLYLINE
  5
37B
330
1F
100
AcDbEntity
  8
0
  6
Continuous
 62
     7
370
    15
100
AcDbPolyline
 90
        3
 70
   128
 43
0.0
 10
103.3773082683
 20
-23.8504693556
 10
101.6391176174
 20
-23.9747636664
 10
99.5366382788
 20
-24.1250940311
  0
ELLIPSE
  5
37C
330
1F
100
AcDbEntity
  8
0
  6
Continuous
 62
     7
370
    15
100
AcDbEllipse
 10
94.4866256933
 20
27.0579508793
 30
0.0
 11
0.0
 21
52.66333638248287
 31
0.0
210
0.0
220
0.0
230
1.0
 40
0.4073079628
 41
3.379253189718596
 42
3.627789715318911
  0
LWPOLYLINE
  5
37D
330
1F
100
AcDbEntity
  8
0
  6
Continuous
 62
     7
370
    15
100
AcDbPolyline
 90
        3
 70
   128
 43
0.0
 10
104.5095953534
 20
-19.5025601137
 10
106.269713063
 20
-19.3651043522
 10
108.350265343
 20
-19.2025215077
  0
ELLIPSE
  5
37E
330
1F
100
AcDbEntity
  8
0
  6
Continuous
 62
     7
370
    15
100
AcDbEllipse
 10
98.3304101955
 20
27.0579508793
 30
0.0
 11
0.0
 21
52.39466174011997
 31
0.0
210
0.0
220
0.0
230
1.0
 40
0.4073079628
 41
3.536299427022999
 42
3.630336467016802
  0
LWPOLYLINE
  5
37F
330
1F
100
AcDbEntity
  8
0
  6
Continuous
 62
     7
370
    15
100
AcDbPolyline
 90
        3
 70
   128
 43
0.0
 10
110.8342591117
 20
-19.0082587945
 10
112.3514953444
 20
-18.8895226169
 10
114.2628300379
 20
-18.7398553538
  0
LINE
  5
380
330
1F
100
AcDbEntity
  8
0
  6
Continuous
 62
     7
370
    15
100
AcDbLine
 10
114.2628300379
 20
-18.7398553538
 30
0.0
 11
114.2628300379
 21
-18.0214144933
 31
0.0
  0
LINE
  5
381
330
1F
100
AcDbEntity
  8
0
  6
Continuous
 62
     7
370
    15
100
AcDbLine
 10
104.5095953534
 20
-19.5025601137
 30
0.0
 11
104.5095953534
 21
-18.7960103798
 31
0.0
  0
LINE
  5
382
330
1F
100
AcDbEntity
  8
0
  6
Continuous
 62
     7
370
    15
100
AcDbLine
 10
108.350265343
 20
-19.2025215077
 30
0.0
 11
108.350265343
 21
-18.4913524139
 31
0.0
  0
LINE
  5
383
330
1F
100
AcDbEntity
  8
0
  6
Continuous
 62
     7
370
    15
100
AcDbLine
 10
99.5366382788
 20
-24.1250940311
 30
0.0
 11
99.5366382788
 21
-23.2129790533
 31
0.0
  0
LWPOLYLINE
  5
384
330
1F
100
AcDbEntity
  8
0
  6
Continuous
 62
     7
370
    15
100
AcDbPolyline
 90
        3
 70
   128
 43
0.0
 10
78.2628315876
 20
-21.5431474793
 10
83.118803371
 20
-21.1668596315
 10
88.0160699973
 20
-20.7868129659
  0
LINE
  5
385
330
1F
100
AcDbEntity
  8
0
  6
Continuous
 62
     7
370
    15
100
AcDbLine
 10
78.2628315876
 20
-21.5431474793
 30
0.0
 11
78.2628315876
 21
-20.8667502451
 31
0.0
  0
LINE
  5
386
330
1F
100
AcDbEntity
  8
0
  6
Continuous
 62
     7
370
    15
100
AcDbLine
 10
88.0160699973
 20
-20.7868129659
 30
0.0
 11
88.0160699973
 21
-20.0995080817
 31
0.0
  0
LWPOLYLINE
  5
387
330
1F
100
AcDbEntity
  8
0
  6
Continuous
 62
     7
370
    15
100
AcDbPolyline
 90
        3
 70
   128
 43
0.0
 10
81.635351796
 20
-22.776833241
 10
80.0594236145
 20
-22.8953049231
 10
78.2628315876
 20
-23.030316894
  0
LINE
  5
388
330
1F
100
AcDbEntity
  8
0
  6
Continuous
 62
     7
370
    15
100
AcDbLine
 10
78.2628315876
 20
-23.030316894
 30
0.0
 11
78.2628315876
 21
-21.5431474793
 31
0.0
  0
ELLIPSE
  5
389
330
1F
100
AcDbEntity
  8
0
  6
Continuous
 62
     7
370
    15
100
AcDbEllipse
 10
96.8195460719
 20
27.0579508793
 30
0.0
 11
0.0
 21
52.50026882548828
 31
0.0
210
0.0
220
0.0
230
1.0
 40
0.4073079628
 41
2.717285416467737
 42
2.961488557756206
  0
LWPOLYLINE
  5
38A
330
1F
100
AcDbEntity
  8
0
  6
Continuous
 62
     7
370
    15
100
AcDbPolyline
 90
        3
 70
   128
 43
0.0
 10
92.989027072
 20
-24.5931283283
 10
91.3037839721
 20
-24.7135632384
 10
89.1483570824
 20
-24.8675816405
  0
ELLIPSE
  5
38B
330
1F
100
AcDbEntity
  8
0
  6
Continuous
 62
     7
370
    15
100
AcDbEllipse
 10
92.9757615697
 20
27.0579508793
 30
0.0
 11
0.0
 21
52.76894346785119
 31
0.0
210
0.0
220
0.0
230
1.0
 40
0.4073079628
 41
2.926133699522544
 42
2.962562843820663
  0
LWPOLYLINE
  5
38C
330
1F
100
AcDbEntity
  8
0
  6
Continuous
 62
     7
370
    15
100
AcDbPolyline
 90
        3
 70
   128
 43
0.0
 10
88.3806045542
 20
-24.4908877361
 10
85.8231815885
 20
-24.6751256931
 10
82.7969047616
 20
-24.8930849779
  0
ELLIPSE
  5
38D
330
1F
100
AcDbEntity
  8
0
  6
Continuous
 62
     7
370
    15
100
AcDbEllipse
 10
77.3323374356
 20
27.0579508793
 30
0.0
 11
0.0
 21
53.86482158569774
 31
0.0
210
0.0
220
0.0
230
1.0
 40
0.3840023995
 41
3.372842753473649
 42
3.4089568293268
  0
LWPOLYLINE
  5
38E
330
1F
100
AcDbEntity
  8
0
  6
Continuous
 62
     7
370
    15
100
AcDbPolyline
 90
        3
 70
   128
 43
0.0
 10
82.073047329
 20
-25.3730253029
 10
80.4585549424
 20
-25.4883304882
 10
78.2628315876
 20
-25.6451316822
  0
ELLIPSE
  5
38F
330
1F
100
AcDbEntity
  8
0
  6
Continuous
 62
     7
370
    15
100
AcDbEllipse
 10
73.51937438
 20
27.0579508793
 30
0.0
 11
0.0
 21
54.13135386422194
 31
0.0
210
0.0
220
0.0
230
1.0
 40
0.3840023995
 41
3.371819286663726
 42
3.542705731737399
  0
ELLIPSE
  5
390
330
1F
100
AcDbEntity
  8
0
  6
Continuous
 62
     7
370
    15
100
AcDbEllipse
 10
76.9648229242
 20
27.0579508793
 30
0.0
 11
0.0
 21
53.89051144386875
 31
0.0
210
0.0
220
0.0
230
1.0
 40
0.3840023995
 41
3.472070723903986
 42
3.557072887543265
  0
LWPOLYLINE
  5
391
330
1F
100
AcDbEntity
  8
0
  6
Continuous
 62
     7
370
    15
100
AcDbPolyline
 90
        3
 70
   128
 43
0.0
 10
87.0544794391
 20
-23.6689620364
 10
85.5400558005
 20
-23.7800203907
 10
83.6799550245
 20
-23.9163995433
  0
ELLIPSE
  5
392
330
1F
100
AcDbEntity
  8
0
  6
Continuous
 62
     7
370
    15
100
AcDbEllipse
 10
92.9757615697
 20
27.0579508793
 30
0.0
 11
0.0
 21
52.76894346785119
 31
0.0
210
0.0
220
0.0
230
1.0
 40
0.4073079628
 41
2.777279321027245
 42
2.862487656974894
  0
LINE
  5
393
330
1F
100
AcDbEntity
  8
0
  6
Continuous
 62
     7
370
    15
100
AcDbLine
 10
92.989027072
 20
-24.5931283283
 30
0.0
 11
92.989027072
 21
-23.689425056
 31
0.0
  0
LINE
  5
394
330
1F
100
AcDbEntity
  8
0
  6
Continuous
 62
     7
370
    15
100
AcDbLine
 10
78.2628315876
 20
-25.6451316822
 30
0.0
 11
78.2628315876
 21
-24.108680402
 31
0.0
  0
LINE
  5
395
330
1F
100
AcDbEntity
  8
0
  6
Continuous
 62
     7
370
    15
100
AcDbLine
 10
113.4056854437
 20
-23.1330864775
 30
0.0
 11
113.4056854437
 21
-21.5932563591
 31
0.0
  0
LINE
  5
396
330
1F
100
AcDbEntity
  8
0
  6
Continuous
 62
     7
370
    15
100
AcDbLine
 10
161.6286444853
 20
-66.1920481074
 30
0.0
 11
161.6286444853
 21
-19.3012193489
 31
0.0
  0
LINE
  5
397
330
1F
100
AcDbEntity
  8
0
  6
Continuous
 62
     7
370
    15
100
AcDbLine
 10
161.6286444853
 20
-66.1920481074
 30
0.0
 11
156.6286418031
 21
-66.1920481074
 31
0.0
  0
LINE
  5
398
330
1F
100
AcDbEntity
  8
0
  6
Continuous
 62
     7
370
    15
100
AcDbLine
 10
156.6286418031
 20
-66.1920481074
 30
0.0
 11
156.6286418031
 21
-57.704085921
 31
0.0
  0
LINE
  5
399
330
1F
100
AcDbEntity
  8
0
  6
Continuous
 62
     7
370
    15
100
AcDbLine
 10
156.6286418031
 20
-57.704085921
 30
0.0
 11
156.6286418031
 21
-31.4166382599
 31
0.0
  0
LINE
  5
39A
330
1F
100
AcDbEntity
  8
0
  6
Continuous
 62
     7
370
    15
100
AcDbLine
 10
132.262829263
 20
-36.9902052629
 30
0.0
 11
156.6286418031
 21
-57.704085921
 31
0.0
  0
LINE
  5
39B
330
1F
100
AcDbEntity
  8
0
  6
Continuous
 62
     7
370
    15
100
AcDbLine
 10
132.262829263
 20
-36.9902052629
 30
0.0
 11
132.262829263
 21
-32.5718917596
 31
0.0
  0
LINE
  5
39C
330
1F
100
AcDbEntity
  8
0
  6
Continuous
 62
     7
370
    15
100
AcDbLine
 10
156.6286418031
 20
111.8199876797
 30
0.0
 11
132.262829263
 21
91.1061070216
 31
0.0
  0
LINE
  5
39D
330
1F
100
AcDbEntity
  8
0
  6
Continuous
 62
     7
370
    15
100
AcDbLine
 10
156.6286418031
 20
85.5325400186
 30
0.0
 11
156.6286418031
 21
111.8199876797
 31
0.0
  0
LINE
  5
39E
330
1F
100
AcDbEntity
  8
0
  6
Continuous
 62
     7
370
    15
100
AcDbLine
 10
132.262829263
 20
86.6877935183
 30
0.0
 11
132.262829263
 21
91.1061070216
 31
0.0
  0
LINE
  5
39F
330
1F
100
AcDbEntity
  8
0
  6
Continuous
 62
     7
370
    15
100
AcDbLine
 10
156.6286418031
 20
120.3079498661
 30
0.0
 11
156.6286418031
 21
111.8199876797
 31
0.0
  0
LINE
  5
3A0
330
1F
100
AcDbEntity
  8
0
  6
Continuous
 62
     7
370
    15
100
AcDbLine
 10
161.6286444853
 20
120.3079498661
 30
0.0
 11
156.6286418031
 21
120.3079498661
 31
0.0
  0
LINE
  5
3A1
330
1F
100
AcDbEntity
  8
0
  6
Continuous
 62
     7
370
    15
100
AcDbLine
 10
161.6286444853
 20
73.4171211076
 30
0.0
 11
161.6286444853
 21
120.3079498661
 31
0.0
  0
LINE
  5
3A2
330
1F
100
AcDbEntity
  8
0
  6
Continuous
 62
     7
370
    15
100
AcDbLine
 10
164.3528300713
 20
87.5579505515
 30
0.0
 11
164.3528300713
 21
111.5579507601
 31
0.0
  0
LINE
  5
3A3
330
1F
100
AcDbEntity
  8
0
  6
Continuous
 62
     7
370
    15
100
AcDbLine
 10
161.8528324554
 20
87.5579505515
 30
0.0
 11
161.8528324554
 21
111.5579507601
 31
0.0
  0
LINE
  5
3A4
330
1F
100
AcDbEntity
  8
0
  6
Continuous
 62
     7
370
    15
100
AcDbLine
 10
164.3528300713
 20
-57.4420490014
 30
0.0
 11
164.3528300713
 21
-33.4420487928
 31
0.0
  0
LINE
  5
3A5
330
1F
100
AcDbEntity
  8
0
  6
Continuous
 62
     7
370
    15
100
AcDbLine
 10
161.8528324554
 20
-57.4420490014
 30
0.0
 11
161.8528324554
 21
-33.4420487928
 31
0.0
  0
LINE
  5
3A6
330
1F
100
AcDbEntity
  8
0
  6
Continuous
 62
     7
370
    15
100
AcDbLine
 10
174.3528354357
 20
110.5276025188
 30
0.0
 11
164.3528300713
 21
110.5276025188
 31
0.0
  0
LINE
  5
3A7
330
1F
100
AcDbEntity
  8
0
  6
Continuous
 62
     7
370
    15
100
AcDbLine
 10
174.3528354357
 20
110.5276025188
 30
0.0
 11
174.3528354357
 21
105.042775656
 31
0.0
  0
LINE
  5
3A8
330
1F
100
AcDbEntity
  8
0
  6
Continuous
 62
     7
370
    15
100
AcDbLine
 10
174.3528354357
 20
105.042775656
 30
0.0
 11
164.3528300713
 21
105.042775656
 31
0.0
  0
LINE
  5
3A9
330
1F
100
AcDbEntity
  8
0
  6
Continuous
 62
     7
370
    15
100
AcDbLine
 10
174.3528354357
 20
105.042775656
 30
0.0
 11
174.3528354357
 21
94.0731219304
 31
0.0
  0
LINE
  5
3AA
330
1F
100
AcDbEntity
  8
0
  6
Continuous
 62
     7
370
    15
100
AcDbLine
 10
174.3528354357
 20
94.0731219304
 30
0.0
 11
164.3528300713
 21
94.0731219304
 31
0.0
  0
LINE
  5
3AB
330
1F
100
AcDbEntity
  8
0
  6
Continuous
 62
     7
370
    15
100
AcDbLine
 10
174.3528354357
 20
88.5882950676
 30
0.0
 11
164.3528300713
 21
88.5882950676
 31
0.0
  0
LINE
  5
3AC
330
1F
100
AcDbEntity
  8
0
  6
Continuous
 62
     7
370
    15
100
AcDbLine
 10
174.3528354357
 20
94.0731219304
 30
0.0
 11
174.3528354357
 21
88.5882950676
 31
0.0
  0
LINE
  5
3AD
330
1F
100
AcDbEntity
  8
0
  6
Continuous
 62
     7
370
    15
100
AcDbLine
 10
174.3528354357
 20
-34.4723933089
 30
0.0
 11
164.3528300713
 21
-34.4723933089
 31
0.0
  0
LINE
  5
3AE
330
1F
100
AcDbEntity
  8
0
  6
Continuous
 62
     7
370
    15
100
AcDbLine
 10
174.3528354357
 20
-34.4723933089
 30
0.0
 11
174.3528354357
 21
-39.9572201717
 31
0.0
  0
LINE
  5
3AF
330
1F
100
AcDbEntity
  8
0
  6
Continuous
 62
     7
370
    15
100
AcDbLine
 10
174.3528354357
 20
-39.9572201717
 30
0.0
 11
164.3528300713
 21
-39.9572201717
 31
0.0
  0
LINE
  5
3B0
330
1F
100
AcDbEntity
  8
0
  6
Continuous
 62
     7
370
    15
100
AcDbLine
 10
174.3528354357
 20
-39.9572201717
 30
0.0
 11
174.3528354357
 21
-50.9268738973
 31
0.0
  0
LINE
  5
3B1
330
1F
100
AcDbEntity
  8
0
  6
Continuous
 62
     7
370
    15
100
AcDbLine
 10
174.3528354357
 20
-50.9268738973
 30
0.0
 11
164.3528300713
 21
-50.9268738973
 31
0.0
  0
LINE
  5
3B2
330
1F
100
AcDbEntity
  8
0
  6
Continuous
 62
     7
370
    15
100
AcDbLine
 10
174.3528354357
 20
-56.4117007601
 30
0.0
 11
164.3528300713
 21
-56.4117007601
 31
0.0
  0
LINE
  5
3B3
330
1F
100
AcDbEntity
  8
0
  6
Continuous
 62
     7
370
    15
100
AcDbLine
 10
174.3528354357
 20
-50.9268738973
 30
0.0
 11
174.3528354357
 21
-56.4117007601
 31
0.0
  0
LINE
  5
3B4
330
1F
100
AcDbEntity
  8
0
  6
Continuous
 62
     7
370
    15
100
AcDbLine
 10
181.7628252695
 20
91.5579474819
 30
0.0
 11
181.7628252695
 21
107.5579501045
 31
0.0
  0
LINE
  5
3B5
330
1F
100
AcDbEntity
  8
0
  6
Continuous
 62
     7
370
    15
100
AcDbLine
 10
181.2628317068
 20
91.5579474819
 30
0.0
 11
181.2628317068
 21
107.5579501045
 31
0.0
  0
LINE
  5
3B6
330
1F
100
AcDbEntity
  8
0
  6
Continuous
 62
     7
370
    15
100
AcDbLine
 10
181.7628252695
 20
-53.4420483458
 30
0.0
 11
181.7628252695
 21
-37.4420457232
 31
0.0
  0
LINE
  5
3B7
330
1F
100
AcDbEntity
  8
0
  6
Continuous
 62
     7
370
    15
100
AcDbLine
 10
181.2628317068
 20
-53.4420483458
 30
0.0
 11
181.2628317068
 21
-37.4420457232
 31
0.0
  0
LINE
  5
3B8
330
1F
100
AcDbEntity
  8
0
  6
Continuous
 62
     7
370
    15
100
AcDbLine
 10
57.0628322105
 20
106.1829529059
 30
0.0
 11
53.9492755572
 21
106.1829529059
 31
0.0
  0
LINE
  5
3B9
330
1F
100
AcDbEntity
  8
0
  6
Continuous
 62
     7
370
    15
100
AcDbLine
 10
57.0628322105
 20
106.1829529059
 30
0.0
 11
57.0628322105
 21
92.932952131
 31
0.0
  0
LINE
  5
3BA
330
1F
100
AcDbEntity
  8
0
  6
Continuous
 62
     7
370
    15
100
AcDbLine
 10
57.0628322105
 20
92.932952131
 30
0.0
 11
54.6407732556
 21
92.932952131
 31
0.0
  0
LINE
  5
3BB
330
1F
100
AcDbEntity
  8
0
  6
Continuous
 62
     7
370
    15
100
AcDbLine
 10
57.0628322105
 20
-38.8170503724
 30
0.0
 11
57.0628322105
 21
-52.0670511472
 31
0.0
  0
LINE
  5
3BC
330
1F
100
AcDbEntity
  8
0
  6
Continuous
 62
     7
370
    15
100
AcDbLine
 10
57.0628322105
 20
-52.0670511472
 30
0.0
 11
53.9492755572
 21
-52.0670511472
 31
0.0
  0
LINE
  5
3BD
330
1F
100
AcDbEntity
  8
0
  6
Continuous
 62
     7
370
    15
100
AcDbLine
 10
57.0628322105
 20
-38.8170503724
 30
0.0
 11
54.6407732556
 21
-38.8170503724
 31
0.0
  0
LINE
  5
3BE
330
1F
100
AcDbEntity
  8
0
  6
Continuous
 62
     7
370
    15
100
AcDbLine
 10
193.2628262232
 20
93.0579505217
 30
0.0
 11
193.2628262232
 21
106.0579545152
 31
0.0
  0
LINE
  5
3BF
330
1F
100
AcDbEntity
  8
0
  6
Continuous
 62
     7
370
    15
100
AcDbLine
 10
193.2628262232
 20
-51.9420527565
 30
0.0
 11
193.2628262232
 21
-38.942048763
 31
0.0
  0
LINE
  5
3C0
330
1F
100
AcDbEntity
  8
0
  6
Continuous
 62
     7
370
     0
100
AcDbLine
 10
134.6319946835
 20
89.2267651212
 30
0.0
 11
134.6319946835
 21
41.9051558998
 31
0.0
  0
LINE
  5
3C1
330
1F
100
AcDbEntity
  8
0
  6
Continuous
 62
     7
370
     0
100
AcDbLine
 10
134.6319946835
 20
12.2107458589
 30
0.0
 11
134.6319946835
 21
-35.1108633625
 31
0.0
  0
LINE
  5
3C2
330
1F
100
AcDbEntity
  8
0
  6
Continuous
 62
     7
370
     0
100
AcDbLine
 10
54.2852632145
 20
84.2987164211
 30
0.0
 11
53.867144082
 21
84.3142136288
 31
0.0
  0
LINE
  5
3C3
330
1F
100
AcDbEntity
  8
0
  6
Continuous
 62
     7
370
     0
100
AcDbLine
 10
54.2852632145
 20
-30.1828146625
 30
0.0
 11
53.8671496699
 21
-30.1983118701
 31
0.0
  0
LINE
  5
3C4
330
1F
100
AcDbEntity
  8
0
  6
Continuous
 62
     7
370
     0
100
AcDbLine
 10
130.023728628
 20
-28.4420498359
 30
0.0
 11
130.023728628
 21
21.0579508272
 31
0.0
  0
LINE
  5
3C5
330
1F
100
AcDbEntity
  8
0
  6
Continuous
 62
     7
370
     0
100
AcDbLine
 10
130.023728628
 20
33.0579509315
 30
0.0
 11
130.023728628
 21
82.5579515946
 31
0.0
  0
LINE
  5
3C6
330
1F
100
AcDbEntity
  8
0
  6
Continuous
 62
     7
370
     0
100
AcDbLine
 10
127.7255970428
 20
-27.3704104769
 30
0.0
 11
127.7255970428
 21
21.0579508272
 31
0.0
  0
LINE
  5
3C7
330
1F
100
AcDbEntity
  8
0
  6
Continuous
 62
     7
370
     0
100
AcDbLine
 10
127.7255970428
 20
33.0579509315
 30
0.0
 11
127.7255970428
 21
81.4863122356
 31
0.0
  0
LINE
  5
3C8
330
1F
100
AcDbEntity
  8
0
  6
Continuous
 62
     7
370
     0
100
AcDbLine
 10
130.8628353665
 20
-28.4420498359
 30
0.0
 11
130.8628353665
 21
21.0579508272
 31
0.0
  0
LINE
  5
3C9
330
1F
100
AcDbEntity
  8
0
  6
Continuous
 62
     7
370
     0
100
AcDbLine
 10
130.8628353665
 20
33.0579509315
 30
0.0
 11
130.8628353665
 21
82.5579515946
 31
0.0
  0
LINE
  5
3CA
330
1F
100
AcDbEntity
  8
0
  6
Continuous
 62
     7
370
     0
100
AcDbLine
 10
124.9471414278
 20
-24.0591787445
 30
0.0
 11
124.9471414278
 21
21.0579508272
 31
0.0
  0
LINE
  5
3CB
330
1F
100
AcDbEntity
  8
0
  6
Continuous
 62
     7
370
     0
100
AcDbLine
 10
124.9471414278
 20
33.0579509315
 30
0.0
 11
124.9471414278
 21
78.1750805032
 31
0.0
  0
LINE
  5
3CC
330
1F
100
AcDbEntity
  8
0
  6
Continuous
 62
     7
370
     0
100
AcDbLine
 10
120.7681405733
 20
-22.2852960873
 30
0.0
 11
120.7681405733
 21
21.0579508272
 31
0.0
  0
LINE
  5
3CD
330
1F
100
AcDbEntity
  8
0
  6
Continuous
 62
     7
370
     0
100
AcDbLine
 10
120.7681405733
 20
33.0579509315
 30
0.0
 11
120.7681405733
 21
76.4011978459
 31
0.0
  0
LINE
  5
3CE
330
1F
100
AcDbEntity
  8
0
  6
Continuous
 62
     7
370
     0
100
AcDbLine
 10
72.4846045862
 20
6.203883822
 30
0.0
 11
55.284604002
 21
6.203883822
 31
0.0
  0
LINE
  5
3CF
330
1F
100
AcDbEntity
  8
0
  6
Continuous
 62
     7
370
     0
100
AcDbLine
 10
72.4846045862
 20
47.9120179367
 30
0.0
 11
55.284604002
 21
47.9120179367
 31
0.0
  0
LINE
  5
3D0
330
1F
100
AcDbEntity
  8
0
  6
Continuous
 62
     7
370
     0
100
AcDbLine
 10
162.6286316107
 20
76.0579495978
 30
0.0
 11
162.6286316107
 21
39.0579509836
 31
0.0
  0
LINE
  5
3D1
330
1F
100
AcDbEntity
  8
0
  6
Continuous
 62
     7
370
     0
100
AcDbLine
 10
162.6286316107
 20
15.057950775
 30
0.0
 11
162.6286316107
 21
-21.9420478392
 31
0.0
  0
LINE
  5
3D2
330
1F
100
AcDbEntity
  8
0
  6
Continuous
 62
     7
370
     0
100
AcDbLine
 10
55.0909801761
 20
73.308703984
 30
0.0
 11
54.2179490815
 21
73.3410581303
 31
0.0
  0
LINE
  5
3D3
330
1F
100
AcDbEntity
  8
0
  6
Continuous
 62
     7
370
     0
100
AcDbLine
 10
37.2628318521
 20
73.9693767679
 30
0.0
 11
34.262831826
 21
74.0805506063
 31
0.0
  0
LINE
  5
3D4
330
1F
100
AcDbEntity
  8
0
  6
Continuous
 62
     7
370
     0
100
AcDbLine
 10
55.0909801761
 20
-19.1928022253
 30
0.0
 11
54.2180124114
 21
-19.2251526463
 31
0.0
  0
LINE
  5
3D5
330
1F
100
AcDbEntity
  8
0
  6
Continuous
 62
     7
370
     0
100
AcDbLine
 10
37.2628318521
 20
-19.8534750092
 30
0.0
 11
34.262831826
 21
-19.9646488476
 31
0.0
  0
LINE
  5
3D6
330
1F
100
AcDbEntity
  8
0
  6
Continuous
 62
     7
370
     0
100
AcDbLine
 10
72.4846045862
 20
-12.4269225347
 30
0.0
 11
55.284604002
 21
-12.4269225347
 31
0.0
  0
LINE
  5
3D7
330
1F
100
AcDbEntity
  8
0
  6
Continuous
 62
     7
370
     0
100
AcDbLine
 10
72.4846045862
 20
66.5428242934
 30
0.0
 11
55.284604002
 21
66.5428242934
 31
0.0
  0
LINE
  5
3D8
330
1F
100
AcDbEntity
  8
0
  6
CENTERX2
 62
     7
370
     0
100
AcDbLine
 10
181.262831826
 20
27.0579508793
 30
0.0
 11
172.352831826
 21
27.0579508793
 31
0.0
  0
LINE
  5
3D9
330
1F
100
AcDbEntity
  8
0
  6
CENTERX2
 62
     7
370
     0
100
AcDbLine
 10
181.762831826
 20
27.0579508793
 30
0.0
 11
181.262831826
 21
27.0579508793
 31
0.0
  0
LINE
  5
3DA
330
1F
100
AcDbEntity
  8
0
  6
CENTERX2
 62
     7
370
     0
100
AcDbLine
 10
195.262831826
 20
27.0579508793
 30
0.0
 11
181.762831826
 21
27.0579508793
 31
0.0
  0
LINE
  5
3DB
330
1F
100
AcDbEntity
  8
0
  6
CENTERX2
 62
     7
370
     0
100
AcDbLine
 10
166.352831826
 20
27.0579508793
 30
0.0
 11
161.852831826
 21
27.0579508793
 31
0.0
  0
LINE
  5
3DC
330
1F
100
AcDbEntity
  8
0
  6
CENTERX2
 62
     7
370
     0
100
AcDbLine
 10
161.852831826
 20
27.0579508793
 30
0.0
 11
51.262831826
 21
27.0579508793
 31
0.0
  0
LINE
  5
3DD
330
1F
100
AcDbEntity
  8
0
  6
CENTERX2
 62
     7
370
     0
100
AcDbLine
 10
50.262831826
 20
27.0579508793
 30
0.0
 11
32.262831826
 21
27.0579508793
 31
0.0
  0
ENDSEC
  0
SECTION
  2
OBJECTS
  0
DICTIONARY
  5
C
330
0
100
AcDbDictionary
281
     1
  3
ACAD_GROUP
350
D
  3
ACAD_LAYOUT
350
1A
  3
ACAD_MLINESTYLE
350
17
  3
ACAD_PLOTSETTINGS
350
19
  3
ACAD_PLOTSTYLENAME
350
E
  0
DICTIONARY
  5
D
102
{ACAD_REACTORS
330
C
102
}
330
C
100
AcDbDictionary
281
     1
  0
DICTIONARY
  5
1A
102
{ACAD_REACTORS
330
C
102
}
330
C
100
AcDbDictionary
281
     1
  3
Layout1
350
1E
  3
Layout2
350
26
  3
Model
350
22
  0
DICTIONARY
  5
17
102
{ACAD_REACTORS
330
C
102
}
330
C
100
AcDbDictionary
281
     1
  3
Standard
350
18
  0
DICTIONARY
  5
19
102
{ACAD_REACTORS
330
C
102
}
330
C
100
AcDbDictionary
281
     1
  0
ACDBDICTIONARYWDFLT
  5
E
102
{ACAD_REACTORS
330
C
102
}
330
C
100
AcDbDictionary
281
     1
  3
Normal
350
F
100
AcDbDictionaryWithDefault
340
F
  0
LAYOUT
  5
1E
102
{ACAD_REACTORS
330
1A
102
}
330
1A
100
AcDbPlotSettings
  1

  2
none_device
  4

  6

 40
0.0
 41
0.0
 42
0.0
 43
0.0
 44
0.0
 45
0.0
 46
0.0
 47
0.0
 48
0.0
 49
0.0
140
0.0
141
0.0
142
1.0
143
1.0
 70
   688
 72
     0
 73
     0
 74
     5
  7

 75
    16
147
1.0
148
0.0
149
0.0
100
AcDbLayout
  1
Layout1
 70
     1
 71
     1
 10
0.0
 20
0.0
 11
420.0
 21
297.0
 12
0.0
 22
0.0
 32
0.0
 14
1.0000000000E+20
 24
1.0000000000E+20
 34
1.0000000000E+20
 15
-1.0000000000E+20
 25
-1.0000000000E+20
 35
-1.0000000000E+20
146
0.0
 13
0.0
 23
0.0
 33
0.0
 16
1.0
 26
0.0
 36
0.0
 17
0.0
 27
1.0
 37
0.0
 76
     0
330
1B
  0
LAYOUT
  5
26
102
{ACAD_REACTORS
330
1A
102
}
330
1A
100
AcDbPlotSettings
  1

  2
none_device
  4

  6

 40
0.0
 41
0.0
 42
0.0
 43
0.0
 44
0.0
 45
0.0
 46
0.0
 47
0.0
 48
0.0
 49
0.0
140
0.0
141
0.0
142
1.0
143
1.0
 70
   688
 72
     0
 73
     0
 74
     5
  7

 75
    16
147
1.0
148
0.0
149
0.0
100
AcDbLayout
  1
Layout2
 70
     1
 71
     2
 10
0.0
 20
0.0
 11
0.0
 21
0.0
 12
0.0
 22
0.0
 32
0.0
 14
0.0
 24
0.0
 34
0.0
 15
0.0
 25
0.0
 35
0.0
146
0.0
 13
0.0
 23
0.0
 33
0.0
 16
1.0
 26
0.0
 36
0.0
 17
0.0
 27
1.0
 37
0.0
 76
     0
330
23
  0
LAYOUT
  5
22
102
{ACAD_REACTORS
330
1A
102
}
330
1A
100
AcDbPlotSettings
  1

  2
none_device
  4

  6

 40
0.0
 41
0.0
 42
0.0
 43
0.0
 44
0.0
 45
0.0
 46
0.0
 47
0.0
 48
0.0
 49
0.0
140
0.0
141
0.0
142
1.0
143
1.0
 70
  1712
 72
     0
 73
     0
 74
     0
  7

 75
     0
147
1.0
148
0.0
149
0.0
100
AcDbLayout
  1
Model
 70
     1
 71
     0
 10
0.0
 20
0.0
 11
431.8
 21
279.4
 12
0.0
 22
0.0
 32
0.0
 14
0.0
 24
0.0
 34
0.0
 15
431.8
 25
279.4
 35
0.0
146
0.0
 13
0.0
 23
0.0
 33
0.0
 16
1.0
 26
0.0
 36
0.0
 17
0.0
 27
1.0
 37
0.0
 76
     0
330
1F
331
29
  0
MLINESTYLE
  5
18
102
{ACAD_REACTORS
330
17
102
}
330
17
100
AcDbMlineStyle
  2
Standard
 70
     0
  3

 62
   256
 51
90.0
 52
90.0
 71
     2
 49
0.5
 62
   256
  6
BYLAYER
 49
-0.5
 62
   256
  6
BYLAYER
  0
ACDBPLACEHOLDER
  5
F
102
{ACAD_REACTORS
330
E
102
}
330
E
  0
ENDSEC
  0
EOF
