  0
SECTION
  2
HEADER
  9
$ACADVER
  1
AC1015
  9
$ACADMAINTVER
 70
     6
  9
$DWGCODEPAGE
  3
ANSI_1252
  9
$INSBASE
 10
0.0
 20
0.0
 30
0.0
  9
$EXTMIN
 10
0.0
 20
0.0
 30
0.0
  9
$EXTMAX
 10
431.8
 20
279.4
 30
0.0
  9
$LIMMIN
 10
0.0
 20
0.0
  9
$LIMMAX
 10
431.8
 20
279.4
  9
$ORTHOMODE
 70
     0
  9
$REGENMODE
 70
     1
  9
$FILLMODE
 70
     1
  9
$QTEXTMODE
 70
     0
  9
$MIRRTEXT
 70
     1
  9
$LTSCALE
 40
1.0
  9
$ATTMODE
 70
     1
  9
$TEXTSIZE
 40
2.5
  9
$TRACEWID
 40
1.0
  9
$TEXTSTYLE
  7
Standard
  9
$CLAYER
  8
0
  9
$CELTYPE
  6
ByLayer
  9
$CECOLOR
 62
   256
  9
$CELTSCALE
 40
1.0
  9
$DISPSILH
 70
     0
  9
$DIMSCALE
 40
1.0
  9
$DIMASZ
 40
2.5
  9
$DIMEXO
 40
1.0
  9
$DIMDLI
 40
3.75
  9
$DIMRND
 40
0.0
  9
$DIMDLE
 40
0.0
  9
$DIMEXE
 40
1.0
  9
$DIMTP
 40
0.0
  9
$DIMTM
 40
0.0
  9
$DIMTXT
 40
2.5
  9
$DIMCEN
 40
2.5
  9
$DIMTSZ
 40
0.0
  9
$DIMTOL
 70
     0
  9
$DIMLIM
 70
     0
  9
$DIMTIH
 70
     1
  9
$DIMTOH
 70
     1
  9
$DIMSE1
 70
     0
  9
$DIMSE2
 70
     0
  9
$DIMTAD
 70
     1
  9
$DIMZIN
 70
     0
  9
$DIMBLK
  1

  9
$DIMASO
 70
     1
  9
$DIMSHO
 70
     1
  9
$DIMPOST
  1

  9
$DIMAPOST
  1

  9
$DIMALT
 70
     0
  9
$DIMALTD
 70
     3
  9
$DIMALTF
 40
0.0393700787
  9
$DIMLFAC
 40
1.0
  9
$DIMTOFL
 70
     1
  9
$DIMTVP
 40
0.0
  9
$DIMTIX
 70
     0
  9
$DIMSOXD
 70
     0
  9
$DIMSAH
 70
     0
  9
$DIMBLK1
  1

  9
$DIMBLK2
  1

  9
$DIMSTYLE
  2
ISO-25
  9
$DIMCLRD
 70
     0
  9
$DIMCLRE
 70
     0
  9
$DIMCLRT
 70
     0
  9
$DIMTFAC
 40
1.0
  9
$DIMGAP
 40
1.524
  9
$DIMJUST
 70
     0
  9
$DIMSD1
 70
     0
  9
$DIMSD2
 70
     0
  9
$DIMTOLJ
 70
     0
  9
$DIMTZIN
 70
     0
  9
$DIMALTZ
 70
     0
  9
$DIMALTTZ
 70
     0
  9
$DIMUPT
 70
     0
  9
$DIMDEC
 70
     2
  9
$DIMTDEC
 70
     2
  9
$DIMALTU
 70
     2
  9
$DIMALTTD
 70
     3
  9
$DIMTXSTY
  7
Standard
  9
$DIMAUNIT
 70
     0
  9
$DIMADEC
 70
     2
  9
$DIMALTRND
 40
0.0
  9
$DIMAZIN
 70
     0
  9
$DIMDSEP
 70
    44
  9
$DIMATFIT
 70
     3
  9
$DIMFRAC
 70
     0
  9
$DIMLDRBLK
  1

  9
$DIMLUNIT
 70
     2
  9
$DIMLWD
 70
    -2
  9
$DIMLWE
 70
    -2
  9
$DIMTMOVE
 70
     0
  9
$LUNITS
 70
     2
  9
$LUPREC
 70
     2
  9
$SKETCHINC
 40
1.0
  9
$FILLETRAD
 40
10.0
  9
$AUNITS
 70
     0
  9
$AUPREC
 70
     2
  9
$MENU
  1
.
  9
$ELEVATION
 40
0.0
  9
$PELEVATION
 40
0.0
  9
$THICKNESS
 40
0.0
  9
$LIMCHECK
 70
     0
  9
$CHAMFERA
 40
10.0
  9
$CHAMFERB
 40
10.0
  9
$CHAMFERC
 40
20.0
  9
$CHAMFERD
 40
0.0
  9
$SKPOLY
 70
     0
  9
$TDCREATE
 40
2457199.447086516
  9
$TDUCREATE
 40
2457199.113753183
  9
$TDUPDATE
 40
2457199.447087234
  9
$TDUUPDATE
 40
2457199.1137539
  9
$TDINDWG
 40
0.0000000116
  9
$TDUSRTIMER
 40
0.0000000116
  9
$USRTIMER
 70
     1
  9
$ANGBASE
 50
0.0
  9
$ANGDIR
 70
     0
  9
$PDMODE
 70
     0
  9
$PDSIZE
 40
-1.0
  9
$PLINEWID
 40
0.0
  9
$SPLFRAME
 70
     0
  9
$SPLINETYPE
 70
     6
  9
$SPLINESEGS
 70
     8
  9
$HANDSEED
  5
4F4
  9
$SURFTAB1
 70
     6
  9
$SURFTAB2
 70
     6
  9
$SURFTYPE
 70
     6
  9
$SURFU
 70
     6
  9
$SURFV
 70
     6
  9
$UCSBASE
  2

  9
$UCSNAME
  2

  9
$UCSORG
 10
0.0
 20
0.0
 30
0.0
  9
$UCSXDIR
 10
1.0
 20
0.0
 30
0.0
  9
$UCSYDIR
 10
0.0
 20
1.0
 30
0.0
  9
$UCSORTHOREF
  2

  9
$UCSORTHOVIEW
 70
     0
  9
$UCSORGTOP
 10
0.0
 20
0.0
 30
0.0
  9
$UCSORGBOTTOM
 10
0.0
 20
0.0
 30
0.0
  9
$UCSORGLEFT
 10
0.0
 20
0.0
 30
0.0
  9
$UCSORGRIGHT
 10
0.0
 20
0.0
 30
0.0
  9
$UCSORGFRONT
 10
0.0
 20
0.0
 30
0.0
  9
$UCSORGBACK
 10
0.0
 20
0.0
 30
0.0
  9
$PUCSBASE
  2

  9
$PUCSNAME
  2

  9
$PUCSORG
 10
0.0
 20
0.0
 30
0.0
  9
$PUCSXDIR
 10
1.0
 20
0.0
 30
0.0
  9
$PUCSYDIR
 10
0.0
 20
1.0
 30
0.0
  9
$PUCSORTHOREF
  2

  9
$PUCSORTHOVIEW
 70
     0
  9
$PUCSORGTOP
 10
0.0
 20
0.0
 30
0.0
  9
$PUCSORGBOTTOM
 10
0.0
 20
0.0
 30
0.0
  9
$PUCSORGLEFT
 10
0.0
 20
0.0
 30
0.0
  9
$PUCSORGRIGHT
 10
0.0
 20
0.0
 30
0.0
  9
$PUCSORGFRONT
 10
0.0
 20
0.0
 30
0.0
  9
$PUCSORGBACK
 10
0.0
 20
0.0
 30
0.0
  9
$USERI1
 70
     0
  9
$USERI2
 70
     0
  9
$USERI3
 70
     0
  9
$USERI4
 70
     0
  9
$USERI5
 70
     0
  9
$USERR1
 40
0.0
  9
$USERR2
 40
0.0
  9
$USERR3
 40
0.0
  9
$USERR4
 40
0.0
  9
$USERR5
 40
0.0
  9
$WORLDVIEW
 70
     1
  9
$SHADEDGE
 70
     3
  9
$SHADEDIF
 70
    70
  9
$TILEMODE
 70
     1
  9
$MAXACTVP
 70
    64
  9
$PINSBASE
 10
0.0
 20
0.0
 30
0.0
  9
$PLIMCHECK
 70
     0
  9
$PEXTMIN
 10
1.0000000000E+20
 20
1.0000000000E+20
 30
1.0000000000E+20
  9
$PEXTMAX
 10
-1.0000000000E+20
 20
-1.0000000000E+20
 30
-1.0000000000E+20
  9
$PLIMMIN
 10
0.0
 20
0.0
  9
$PLIMMAX
 10
420.0
 20
297.0
  9
$UNITMODE
 70
     0
  9
$VISRETAIN
 70
     1
  9
$PLINEGEN
 70
     0
  9
$PSLTSCALE
 70
     1
  9
$TREEDEPTH
 70
  3020
  9
$CMLSTYLE
  2
Standard
  9
$CMLJUST
 70
     0
  9
$CMLSCALE
 40
20.0
  9
$PROXYGRAPHICS
 70
     1
  9
$MEASUREMENT
 70
     1
  9
$CELWEIGHT
370
    -1
  9
$ENDCAPS
280
     0
  9
$JOINSTYLE
280
     0
  9
$LWDISPLAY
290
     1
  9
$INSUNITS
 70
     4
  9
$HYPERLINKBASE
  1

  9
$STYLESHEET
  1

  9
$XEDIT
290
     1
  9
$CEPSNTYPE
380
     0
  9
$PSTYLEMODE
290
     1
  9
$FINGERPRINTGUID
  2
{BF4B4950-1450-4FA6-AEAD-42787490B813}
  9
$VERSIONGUID
  2
{FAEB1C32-E019-11D5-929B-00C0DF256EC4}
  9
$EXTNAMES
290
     1
  9
$PSVPSCALE
 40
0.0
  9
$OLESTARTUP
290
     0
  0
ENDSEC
  0
SECTION
  2
CLASSES
  0
CLASS
  1
ACDBDICTIONARYWDFLT
  2
AcDbDictionaryWithDefault
  3
ObjectDBX Classes
 90
        0
280
     0
281
     0
  0
CLASS
  1
VISUALSTYLE
  2
AcDbVisualStyle
  3
ObjectDBX Classes
 90
     4095
280
     0
281
     0
  0
CLASS
  1
MATERIAL
  2
AcDbMaterial
  3
ObjectDBX Classes
 90
     1153
280
     0
281
     0
  0
CLASS
  1
ACDBPLACEHOLDER
  2
AcDbPlaceHolder
  3
ObjectDBX Classes
 90
        0
280
     0
281
     0
  0
CLASS
  1
LAYOUT
  2
AcDbLayout
  3
ObjectDBX Classes
 90
        0
280
     0
281
     0
  0
ENDSEC
  0
SECTION
  2
TABLES
  0
TABLE
  2
VPORT
  5
8
330
0
100
AcDbSymbolTable
 70
     1
  0
VPORT
  5
29
330
8
100
AcDbSymbolTableRecord
100
AcDbViewportTableRecord
  2
*Active
 70
     0
 10
0.0
 20
0.0
 11
1.0
 21
1.0
 12
215.9
 22
139.7
 13
0.0
 23
0.0
 14
10.0
 24
10.0
 15
10.0
 25
10.0
 16
0.0
 26
0.0
 36
1.0
 17
0.0
 27
0.0
 37
0.0
 40
279.4
 41
1.5454545455
 42
50.0
 43
0.0
 44
0.0
 50
0.0
 51
0.0
 71
     0
 72
  2000
 73
     1
 74
     3
 75
     0
 76
     0
 77
     0
 78
     0
281
     0
 65
     1
110
0.0
120
0.0
130
0.0
111
1.0
121
0.0
131
0.0
112
0.0
122
1.0
132
0.0
 79
     0
146
0.0
  0
ENDTAB
  0
TABLE
  2
LTYPE
  5
5
330
0
100
AcDbSymbolTable
 70
     6
  0
LTYPE
  5
14
330
5
100
AcDbSymbolTableRecord
100
AcDbLinetypeTableRecord
  2
ByBlock
 70
     0
  3

 72
    65
 73
     0
 40
0.0
  0
LTYPE
  5
15
330
5
100
AcDbSymbolTableRecord
100
AcDbLinetypeTableRecord
  2
ByLayer
 70
     0
  3

 72
    65
 73
     0
 40
0.0
  0
LTYPE
  5
16
330
5
100
AcDbSymbolTableRecord
100
AcDbLinetypeTableRecord
  2
Continuous
 70
     0
  3
Solid line
 72
    65
 73
     0
 40
0.0
  0
LTYPE
  5
3F
330
5
100
AcDbSymbolTableRecord
100
AcDbLinetypeTableRecord
  2
HIDDEN
 70
     0
  3
Hidden __ __ __ __ __ __ __ __ __ __ __ __ __ __
 72
    65
 73
     2
 40
1.905
 49
1.27
 74
     0
 49
-0.635
 74
     0
  0
LTYPE
  5
40
330
5
100
AcDbSymbolTableRecord
100
AcDbLinetypeTableRecord
  2
PHANTOM
 70
     0
  3
Phantom ______  __  __  ______  __  __  ______
 72
    65
 73
     6
 40
12.7
 49
6.35
 74
     0
 49
-1.27
 74
     0
 49
1.27
 74
     0
 49
-1.27
 74
     0
 49
1.27
 74
     0
 49
-1.27
 74
     0
  0
LTYPE
  5
41
330
5
100
AcDbSymbolTableRecord
100
AcDbLinetypeTableRecord
  2
CENTER
 70
     0
  3
Center ____ _ ____ _ ____ _ ____ _ ____ _ ____
 72
    65
 73
     4
 40
10.16
 49
6.35
 74
     0
 49
-1.27
 74
     0
 49
1.27
 74
     0
 49
-1.27
 74
     0
  0
LTYPE
  5
42
330
5
100
AcDbSymbolTableRecord
100
AcDbLinetypeTableRecord
  2
CENTERX2
 70
     0
  3
Center (2x) ________  __  ________  __  _____
 72
    65
 73
     4
 40
20.32
 49
12.7
 74
     0
 49
-2.54
 74
     0
 49
2.54
 74
     0
 49
-2.54
 74
     0
  0
LTYPE
  5
43
330
5
100
AcDbSymbolTableRecord
100
AcDbLinetypeTableRecord
  2
DOT2
 70
     0
  3
Dot (.5x) ........................................
 72
    65
 73
     2
 40
0.635
 49
0.0
 74
     0
 49
-0.635
 74
     0
  0
ENDTAB
  0
TABLE
  2
LAYER
  5
2
330
0
100
AcDbSymbolTable
 70
     3
  0
LAYER
  5
10
330
2
100
AcDbSymbolTableRecord
100
AcDbLayerTableRecord
  2
0
 70
     0
 62
     7
  6
Continuous
370
    -3
390
F
  0
LAYER
  5
44
330
2
100
AcDbSymbolTableRecord
100
AcDbLayerTableRecord
  2
FORMAT
 70
     0
 62
     7
  6
Continuous
370
    -3
390
F
  0
LAYER
  5
45
330
2
100
AcDbSymbolTableRecord
100
AcDbLayerTableRecord
  2
PROTOTYPE
 70
     0
 62
     7
  6
Continuous
370
    -3
390
F
  0
ENDTAB
  0
TABLE
  2
STYLE
  5
3
330
0
100
AcDbSymbolTable
 70
     1
  0
STYLE
  5
11
330
3
100
AcDbSymbolTableRecord
100
AcDbTextStyleTableRecord
  2
Standard
 70
     0
 40
0.0
 41
1.0
 50
0.0
 71
     0
 42
2.5
  3
txt
  4

  0
ENDTAB
  0
TABLE
  2
VIEW
  5
6
330
0
100
AcDbSymbolTable
 70
     0
  0
ENDTAB
  0
TABLE
  2
UCS
  5
7
330
0
100
AcDbSymbolTable
 70
     0
  0
ENDTAB
  0
TABLE
  2
APPID
  5
9
330
0
100
AcDbSymbolTable
 70
     1
  0
APPID
  5
12
330
9
100
AcDbSymbolTableRecord
100
AcDbRegAppTableRecord
  2
ACAD
 70
     0
  0
ENDTAB
  0
TABLE
  2
DIMSTYLE
  5
A
330
0
100
AcDbSymbolTable
 70
     1
100
AcDbDimStyleTable
  0
DIMSTYLE
105
27
330
A
100
AcDbSymbolTableRecord
100
AcDbDimStyleTableRecord
  2
ISO-25
 70
     0
 41
2.5
 42
0.625
 43
3.75
 44
1.25
 73
     0
 74
     0
 77
     1
 78
     8
140
2.5
141
2.5
143
0.0393700787
147
0.625
171
     3
172
     1
178
     0
271
     2
272
     2
274
     3
278
    44
283
     0
284
     8
340
11
  0
ENDTAB
  0
TABLE
  2
BLOCK_RECORD
  5
1
330
0
100
AcDbSymbolTable
 70
     2
  0
BLOCK_RECORD
  5
1F
330
1
100
AcDbSymbolTableRecord
100
AcDbBlockTableRecord
  2
*Model_Space
340
22
  0
BLOCK_RECORD
  5
1B
330
1
100
AcDbSymbolTableRecord
100
AcDbBlockTableRecord
  2
*Paper_Space
340
1E
  0
BLOCK_RECORD
  5
23
330
1
100
AcDbSymbolTableRecord
100
AcDbBlockTableRecord
  2
*Paper_Space0
340
26
  0
BLOCK_RECORD
  5
4E8
330
1
100
AcDbSymbolTableRecord
100
AcDbBlockTableRecord
  2
SW_CENTERMARKSYMBOL_0
340
0
102
{BLKREFS
331
4F3
102
}
  0
ENDTAB
  0
ENDSEC
  0
SECTION
  2
BLOCKS
  0
BLOCK
  5
20
330
1F
100
AcDbEntity
  8
0
100
AcDbBlockBegin
  2
*Model_Space
 70
     0
 10
0.0
 20
0.0
 30
0.0
  3
*Model_Space
  1

  0
ENDBLK
  5
21
330
1F
100
AcDbEntity
  8
0
100
AcDbBlockEnd
  0
BLOCK
  5
1C
330
1B
100
AcDbEntity
 67
     1
  8
0
100
AcDbBlockBegin
  2
*Paper_Space
 70
     0
 10
0.0
 20
0.0
 30
0.0
  3
*Paper_Space
  1

  0
ENDBLK
  5
1D
330
1B
100
AcDbEntity
 67
     1
  8
0
100
AcDbBlockEnd
  0
BLOCK
  5
24
330
23
100
AcDbEntity
  8
0
100
AcDbBlockBegin
  2
*Paper_Space0
 70
     0
 10
0.0
 20
0.0
 30
0.0
  3
*Paper_Space0
  1

  0
ENDBLK
  5
25
330
23
100
AcDbEntity
  8
0
100
AcDbBlockEnd
  0
BLOCK
  5
4E9
330
4E8
100
AcDbEntity
  8
0
100
AcDbBlockBegin
  2
SW_CENTERMARKSYMBOL_0
 70
     0
 10
0.0
 20
0.0
 30
0.0
  3
SW_CENTERMARKSYMBOL_0
  1

  0
LINE
  5
4EB
330
4E8
100
AcDbEntity
  8
0
  6
Continuous
 62
     0
370
     0
100
AcDbLine
 10
0.0
 20
0.0
 30
0.0
 11
0.0
 21
2.5
 31
0.0
  0
LINE
  5
4EC
330
4E8
100
AcDbEntity
  8
0
  6
Continuous
 62
     0
370
     0
100
AcDbLine
 10
0.0
 20
0.0
 30
0.0
 11
-2.5
 21
0.0
 31
0.0
  0
LINE
  5
4ED
330
4E8
100
AcDbEntity
  8
0
  6
Continuous
 62
     0
370
     0
100
AcDbLine
 10
0.0
 20
0.0
 30
0.0
 11
0.0
 21
-2.5
 31
0.0
  0
LINE
  5
4EE
330
4E8
100
AcDbEntity
  8
0
  6
Continuous
 62
     0
370
     0
100
AcDbLine
 10
0.0
 20
0.0
 30
0.0
 11
2.5
 21
0.0
 31
0.0
  0
LINE
  5
4EF
330
4E8
100
AcDbEntity
  8
0
  6
Continuous
 62
     0
370
     0
100
AcDbLine
 10
0.0
 20
5.0
 30
0.0
 11
0.0
 21
317.3167149357
 31
0.0
  0
LINE
  5
4F0
330
4E8
100
AcDbEntity
  8
0
  6
Continuous
 62
     0
370
     0
100
AcDbLine
 10
-5.0
 20
0.0
 30
0.0
 11
-318.4998962817
 21
0.0
 31
0.0
  0
LINE
  5
4F1
330
4E8
100
AcDbEntity
  8
0
  6
Continuous
 62
     0
370
     0
100
AcDbLine
 10
0.0
 20
-5.0
 30
0.0
 11
0.0
 21
-320.652590171
 31
0.0
  0
LINE
  5
4F2
330
4E8
100
AcDbEntity
  8
0
  6
Continuous
 62
     0
370
     0
100
AcDbLine
 10
5.0
 20
0.0
 30
0.0
 11
312.2650842482
 21
0.0
 31
0.0
  0
ENDBLK
  5
4EA
330
4E8
100
AcDbEntity
  8
0
100
AcDbBlockEnd
  0
ENDSEC
  0
SECTION
  2
ENTITIES
  0
LINE
  5
46
330
1F
100
AcDbEntity
  8
0
  6
Continuous
 62
     7
370
    15
100
AcDbLine
 10
34.1847620717
 20
243.5835192794
 30
0.0
 11
34.1847620717
 21
265.5835200915
 31
0.0
  0
LINE
  5
47
330
1F
100
AcDbEntity
  8
0
  6
Continuous
 62
     7
370
    15
100
AcDbLine
 10
-562.8152407893
 20
265.5835200915
 30
0.0
 11
-562.8152407893
 21
243.5835192794
 31
0.0
  0
LINE
  5
48
330
1F
100
AcDbEntity
  8
0
  6
Continuous
 62
     7
370
    15
100
AcDbLine
 10
-292.8959980794
 20
243.5835192794
 30
0.0
 11
-292.8959980794
 21
239.5835193223
 31
0.0
  0
LINE
  5
49
330
1F
100
AcDbEntity
  8
0
  6
Continuous
 62
     7
370
    15
100
AcDbLine
 10
-396.1397625693
 20
243.5835192794
 30
0.0
 11
-396.1397625693
 21
239.5835193223
 31
0.0
  0
LINE
  5
4A
330
1F
100
AcDbEntity
  8
0
  6
Continuous
 62
     7
370
    15
100
AcDbLine
 10
-132.4907161483
 20
239.5835193223
 30
0.0
 11
-132.4907161483
 21
243.5835192794
 31
0.0
  0
LINE
  5
4B
330
1F
100
AcDbEntity
  8
0
  6
Continuous
 62
     7
370
    15
100
AcDbLine
 10
-201.5996121058
 20
432.5835120747
 30
0.0
 11
-201.5996121058
 21
435.0835245917
 31
0.0
  0
LINE
  5
4C
330
1F
100
AcDbEntity
  8
0
  6
Continuous
 62
     7
370
    15
100
AcDbLine
 10
-225.5996123144
 20
435.0835245917
 30
0.0
 11
-225.5996123144
 21
432.5835120747
 31
0.0
  0
LINE
  5
4D
330
1F
100
AcDbEntity
  8
0
  6
Continuous
 62
     7
370
    15
100
AcDbLine
 10
-205.5996127614
 20
451.583520777
 30
0.0
 11
-205.5996127614
 21
452.0835143397
 31
0.0
  0
LINE
  5
4E
330
1F
100
AcDbEntity
  8
0
  6
Continuous
 62
     7
370
    15
100
AcDbLine
 10
-221.5996116587
 20
452.0835143397
 30
0.0
 11
-221.5996116587
 21
451.583520777
 31
0.0
  0
LINE
  5
4F
330
1F
100
AcDbEntity
  8
0
  6
Continuous
 62
     7
370
    15
100
AcDbLine
 10
-207.099612076
 20
452.0835143397
 30
0.0
 11
-207.099612076
 21
463.5835152934
 31
0.0
  0
LINE
  5
50
330
1F
100
AcDbEntity
  8
0
  6
Continuous
 62
     7
370
    15
100
AcDbLine
 10
-220.0996123442
 20
463.5835152934
 30
0.0
 11
-220.0996123442
 21
452.0835143397
 31
0.0
  0
LINE
  5
51
330
1F
100
AcDbEntity
  8
0
  6
Continuous
 62
     7
370
    15
100
AcDbLine
 10
-207.5996130892
 20
445.0835150549
 30
0.0
 11
-207.5996130892
 21
451.583520777
 31
0.0
  0
LINE
  5
52
330
1F
100
AcDbEntity
  8
0
  6
Continuous
 62
     7
370
    15
100
AcDbLine
 10
-219.5996113309
 20
451.583520777
 30
0.0
 11
-219.5996113309
 21
445.0835150549
 31
0.0
  0
LINE
  5
53
330
1F
100
AcDbEntity
  8
0
  6
Continuous
 62
     7
370
    15
100
AcDbLine
 10
-207.5996130892
 20
265.5835200915
 30
0.0
 11
-207.5996130892
 21
425.58351279
 31
0.0
  0
LINE
  5
54
330
1F
100
AcDbEntity
  8
0
  6
Continuous
 62
     7
370
    15
100
AcDbLine
 10
-219.5996113309
 20
417.0412582228
 30
0.0
 11
-219.5996113309
 21
265.5835200915
 31
0.0
  0
LINE
  5
55
330
1F
100
AcDbEntity
  8
0
  6
Continuous
 62
     7
370
    15
100
AcDbLine
 10
-507.8213431129
 20
239.0896189375
 30
0.0
 11
-506.3152380475
 21
237.5835192273
 31
0.0
  0
LINE
  5
56
330
1F
100
AcDbEntity
  8
0
  6
Continuous
 62
     7
370
    15
100
AcDbLine
 10
-22.3152406701
 20
237.5835192273
 30
0.0
 11
-20.8091356048
 21
239.0896189375
 31
0.0
  0
LINE
  5
57
330
1F
100
AcDbEntity
  8
0
  6
Continuous
 62
     7
370
    15
100
AcDbLine
 10
-22.3152406701
 20
399.1021674941
 30
0.0
 11
-22.3152406701
 21
400.5835217307
 31
0.0
  0
LINE
  5
58
330
1F
100
AcDbEntity
  8
0
  6
Continuous
 62
     7
370
    15
100
AcDbLine
 10
-506.3152380475
 20
400.5835217307
 30
0.0
 11
-506.3152380475
 21
399.1021674941
 31
0.0
  0
ARC
  5
59
330
1F
100
AcDbEntity
  8
0
  6
Continuous
 62
     7
370
    15
100
AcDbCircle
 10
-24.3152393588
 20
400.5835192273
 30
0.0
 40
2.0
100
AcDbArc
 50
0.0
 51
90.0
  0
ARC
  5
5A
330
1F
100
AcDbEntity
  8
0
  6
Continuous
 62
     7
370
    15
100
AcDbCircle
 10
-504.3152393588
 20
400.5835192273
 30
0.0
 40
2.0
100
AcDbArc
 50
90.0
 51
180.0
  0
ARC
  5
5B
330
1F
100
AcDbEntity
  8
0
  6
Continuous
 62
     7
370
    15
100
AcDbCircle
 10
-25.3152393588
 20
399.1021606861
 30
0.0
 40
3.000000000000004
100
AcDbArc
 50
310.0
 51
0.0
  0
ARC
  5
5C
330
1F
100
AcDbEntity
  8
0
  6
Continuous
 62
     7
370
    15
100
AcDbCircle
 10
-503.3152393588
 20
399.1021606861
 30
0.0
 40
3.000000000000114
100
AcDbArc
 50
180.0
 51
230.0
  0
LINE
  5
5D
330
1F
100
AcDbEntity
  8
0
  6
Continuous
 62
     7
370
    15
100
AcDbLine
 10
-505.2436061391
 20
396.8040210078
 30
0.0
 11
-490.766830016
 21
384.6565795014
 31
0.0
  0
LINE
  5
5E
330
1F
100
AcDbEntity
  8
0
  6
Continuous
 62
     7
370
    15
100
AcDbLine
 10
-37.8636487016
 20
384.6565795014
 30
0.0
 11
-23.3868725785
 21
396.8040210078
 31
0.0
  0
LINE
  5
5F
330
1F
100
AcDbEntity
  8
0
  6
Continuous
 62
     7
370
    15
100
AcDbLine
 10
-33.7011583337
 20
295.5835175583
 30
0.0
 11
-39.6375276336
 21
380.4775786469
 31
0.0
  0
LINE
  5
60
330
1F
100
AcDbEntity
  8
0
  6
Continuous
 62
     7
370
    15
100
AcDbLine
 10
-488.992951084
 20
380.4775786469
 30
0.0
 11
-494.9293203839
 21
295.5835175583
 31
0.0
  0
LINE
  5
61
330
1F
100
AcDbEntity
  8
0
  6
Continuous
 62
     7
370
    15
100
AcDbLine
 10
-396.7773683557
 20
432.5835120747
 30
0.0
 11
-396.7773683557
 21
435.0835245917
 31
0.0
  0
LINE
  5
62
330
1F
100
AcDbEntity
  8
0
  6
Continuous
 62
     7
370
    15
100
AcDbLine
 10
-420.7773722896
 20
435.0835245917
 30
0.0
 11
-420.7773722896
 21
432.5835120747
 31
0.0
  0
ARC
  5
63
330
1F
100
AcDbEntity
  8
0
  6
Continuous
 62
     7
370
    15
100
AcDbCircle
 10
-34.6497056143
 20
380.8263551792
 30
0.0
 40
5.000000000000036
100
AcDbArc
 50
130.0
 51
184.0
  0
ARC
  5
64
330
1F
100
AcDbEntity
  8
0
  6
Continuous
 62
     7
370
    15
100
AcDbCircle
 10
-493.9807731033
 20
380.8263551792
 30
0.0
 40
5.000000000000008
100
AcDbArc
 50
356.0
 51
50.0
  0
LINE
  5
65
330
1F
100
AcDbEntity
  8
0
  6
Continuous
 62
     7
370
    15
100
AcDbLine
 10
-488.8152398356
 20
435.5835181544
 30
0.0
 11
-488.8152398356
 21
432.5835120747
 31
0.0
  0
LINE
  5
66
330
1F
100
AcDbEntity
  8
0
  6
Continuous
 62
     7
370
    15
100
AcDbLine
 10
-400.7773764619
 20
451.583520777
 30
0.0
 11
-400.7773764619
 21
452.0835143397
 31
0.0
  0
LINE
  5
67
330
1F
100
AcDbEntity
  8
0
  6
Continuous
 62
     7
370
    15
100
AcDbLine
 10
-416.7773641833
 20
452.0835143397
 30
0.0
 11
-416.7773641833
 21
451.583520777
 31
0.0
  0
LINE
  5
68
330
1F
100
AcDbEntity
  8
0
  6
Continuous
 62
     7
370
    15
100
AcDbLine
 10
-402.2773720511
 20
452.0835143397
 30
0.0
 11
-402.2773720511
 21
463.5835152934
 31
0.0
  0
LINE
  5
69
330
1F
100
AcDbEntity
  8
0
  6
Continuous
 62
     7
370
    15
100
AcDbLine
 10
-415.2773685941
 20
463.5835152934
 30
0.0
 11
-415.2773685941
 21
452.0835143397
 31
0.0
  0
LINE
  5
6A
330
1F
100
AcDbEntity
  8
0
  6
Continuous
 62
     7
370
    15
100
AcDbLine
 10
-402.7773656138
 20
265.5835200915
 30
0.0
 11
-402.7773656138
 21
412.0654326746
 31
0.0
  0
LINE
  5
6B
330
1F
100
AcDbEntity
  8
0
  6
Continuous
 62
     7
370
    15
100
AcDbLine
 10
-414.7773750314
 20
425.58351279
 30
0.0
 11
-414.7773750314
 21
265.5835200915
 31
0.0
  0
LINE
  5
6C
330
1F
100
AcDbEntity
  8
0
  6
Continuous
 62
     7
370
    15
100
AcDbLine
 10
-402.7773656138
 20
445.0835150549
 30
0.0
 11
-402.7773656138
 21
451.583520777
 31
0.0
  0
LINE
  5
6D
330
1F
100
AcDbEntity
  8
0
  6
Continuous
 62
     7
370
    15
100
AcDbLine
 10
-414.7773750314
 20
451.583520777
 30
0.0
 11
-414.7773750314
 21
445.0835150549
 31
0.0
  0
LINE
  5
6E
330
1F
100
AcDbEntity
  8
0
  6
Continuous
 62
     7
370
    15
100
AcDbLine
 10
-483.7340630778
 20
243.5835192794
 30
0.0
 11
-483.7340630778
 21
239.5835193223
 31
0.0
  0
LINE
  5
6F
330
1F
100
AcDbEntity
  8
0
  6
Continuous
 62
     7
370
    15
100
AcDbLine
 10
-44.8964156398
 20
239.5835193223
 30
0.0
 11
-44.8964156398
 21
243.5835192794
 31
0.0
  0
LINE
  5
70
330
1F
100
AcDbEntity
  8
0
  6
Continuous
 62
     7
370
    15
100
AcDbLine
 10
-36.1303754338
 20
432.5835120747
 30
0.0
 11
-36.1303754338
 21
435.0835245917
 31
0.0
  0
LINE
  5
71
330
1F
100
AcDbEntity
  8
0
  6
Continuous
 62
     7
370
    15
100
AcDbLine
 10
-60.1303793677
 20
435.0835245917
 30
0.0
 11
-60.1303793677
 21
432.5835120747
 31
0.0
  0
LINE
  5
72
330
1F
100
AcDbEntity
  8
0
  6
Continuous
 62
     7
370
    15
100
AcDbLine
 10
-40.1303835401
 20
451.583520777
 30
0.0
 11
-40.1303835401
 21
452.0835143397
 31
0.0
  0
LINE
  5
73
330
1F
100
AcDbEntity
  8
0
  6
Continuous
 62
     7
370
    15
100
AcDbLine
 10
-56.1303861627
 20
452.0835143397
 30
0.0
 11
-56.1303861627
 21
451.583520777
 31
0.0
  0
LINE
  5
74
330
1F
100
AcDbEntity
  8
0
  6
Continuous
 62
     7
370
    15
100
AcDbLine
 10
-41.6303791293
 20
452.0835143397
 30
0.0
 11
-41.6303791293
 21
463.5835152934
 31
0.0
  0
LINE
  5
75
330
1F
100
AcDbEntity
  8
0
  6
Continuous
 62
     7
370
    15
100
AcDbLine
 10
-54.6303756723
 20
463.5835152934
 30
0.0
 11
-54.6303756723
 21
452.0835143397
 31
0.0
  0
LINE
  5
76
330
1F
100
AcDbEntity
  8
0
  6
Continuous
 62
     7
370
    15
100
AcDbLine
 10
-42.1303875932
 20
445.0835150549
 30
0.0
 11
-42.1303875932
 21
451.583520777
 31
0.0
  0
LINE
  5
77
330
1F
100
AcDbEntity
  8
0
  6
Continuous
 62
     7
370
    15
100
AcDbLine
 10
-54.1303821096
 20
451.583520777
 30
0.0
 11
-54.1303821096
 21
445.0835150549
 31
0.0
  0
LINE
  5
78
330
1F
100
AcDbEntity
  8
0
  6
Continuous
 62
     7
370
    15
100
AcDbLine
 10
-42.1303875932
 20
265.5835200915
 30
0.0
 11
-42.1303875932
 21
421.1397779057
 31
0.0
  0
LINE
  5
79
330
1F
100
AcDbEntity
  8
0
  6
Continuous
 62
     7
370
    15
100
AcDbLine
 10
-54.1303821096
 20
410.0232881377
 30
0.0
 11
-54.1303821096
 21
265.5835200915
 31
0.0
  0
LINE
  5
7A
330
1F
100
AcDbEntity
  8
0
  6
Continuous
 62
     7
370
    15
100
AcDbLine
 10
-542.2627248057
 20
243.5835192794
 30
0.0
 11
-542.2627248057
 21
239.5835193223
 31
0.0
  0
LINE
  5
7B
330
1F
100
AcDbEntity
  8
0
  6
Continuous
 62
     7
370
    15
100
AcDbLine
 10
13.6322460881
 20
239.5835193223
 30
0.0
 11
13.6322460881
 21
243.5835192794
 31
0.0
  0
LINE
  5
7C
330
1F
100
AcDbEntity
  8
0
  6
Continuous
 62
     7
370
    15
100
AcDbLine
 10
-15.660292674
 20
402.5835257838
 30
0.0
 11
-14.6091647634
 21
422.6400715182
 31
0.0
  0
LINE
  5
7D
330
1F
100
AcDbEntity
  8
0
  6
Continuous
 62
     7
370
    15
100
AcDbLine
 10
-14.6091647634
 20
422.6400715182
 30
0.0
 11
-24.2775596866
 21
426.1590850422
 31
0.0
  0
LINE
  5
7E
330
1F
100
AcDbEntity
  8
0
  6
Continuous
 62
     7
370
    15
100
AcDbLine
 10
-39.1557283887
 20
265.5835200915
 30
0.0
 11
-39.1557283887
 21
295.5835175583
 31
0.0
  0
LINE
  5
7F
330
1F
100
AcDbEntity
  8
0
  6
Continuous
 62
     7
370
    15
100
AcDbLine
 10
-489.4747503289
 20
295.5835175583
 30
0.0
 11
-489.4747503289
 21
265.5835200915
 31
0.0
  0
LINE
  5
80
330
1F
100
AcDbEntity
  8
0
  6
Continuous
 62
     7
370
    15
100
AcDbLine
 10
-507.3311694154
 20
432.5835120747
 30
0.0
 11
-507.3311694154
 21
435.0835245917
 31
0.0
  0
LINE
  5
81
330
1F
100
AcDbEntity
  8
0
  6
Continuous
 62
     7
370
    15
100
AcDbLine
 10
-531.3311733493
 20
435.0835245917
 30
0.0
 11
-531.3311733493
 21
432.5835120747
 31
0.0
  0
LINE
  5
82
330
1F
100
AcDbEntity
  8
0
  6
Continuous
 62
     7
370
    15
100
AcDbLine
 10
-511.3311775216
 20
451.583520777
 30
0.0
 11
-511.3311775216
 21
452.0835143397
 31
0.0
  0
LINE
  5
83
330
1F
100
AcDbEntity
  8
0
  6
Continuous
 62
     7
370
    15
100
AcDbLine
 10
-527.3311652431
 20
452.0835143397
 30
0.0
 11
-527.3311652431
 21
451.583520777
 31
0.0
  0
LINE
  5
84
330
1F
100
AcDbEntity
  8
0
  6
Continuous
 62
     7
370
    15
100
AcDbLine
 10
-512.8311731109
 20
452.0835143397
 30
0.0
 11
-512.8311731109
 21
463.5835152934
 31
0.0
  0
LINE
  5
85
330
1F
100
AcDbEntity
  8
0
  6
Continuous
 62
     7
370
    15
100
AcDbLine
 10
-525.831184555
 20
463.5835152934
 30
0.0
 11
-525.831184555
 21
452.0835143397
 31
0.0
  0
LINE
  5
86
330
1F
100
AcDbEntity
  8
0
  6
Continuous
 62
     7
370
    15
100
AcDbLine
 10
-513.3311666736
 20
445.0835150549
 30
0.0
 11
-513.3311666736
 21
451.583520777
 31
0.0
  0
LINE
  5
87
330
1F
100
AcDbEntity
  8
0
  6
Continuous
 62
     7
370
    15
100
AcDbLine
 10
-525.3311611899
 20
451.583520777
 30
0.0
 11
-525.3311611899
 21
445.0835150549
 31
0.0
  0
LINE
  5
88
330
1F
100
AcDbEntity
  8
0
  6
Continuous
 62
     7
370
    15
100
AcDbLine
 10
-513.3311666736
 20
265.5835200915
 30
0.0
 11
-513.3311666736
 21
408.1652623484
 31
0.0
  0
LINE
  5
89
330
1F
100
AcDbEntity
  8
0
  6
Continuous
 62
     7
370
    15
100
AcDbLine
 10
-525.3311611899
 20
417.589367635
 30
0.0
 11
-525.3311611899
 21
265.5835200915
 31
0.0
  0
LINE
  5
8A
330
1F
100
AcDbEntity
  8
0
  6
Continuous
 62
     7
370
    15
100
AcDbLine
 10
-513.0629904756
 20
404.3541413615
 30
0.0
 11
-512.9701860436
 21
402.5835257838
 31
0.0
  0
LINE
  5
8B
330
1F
100
AcDbEntity
  8
0
  6
Continuous
 62
     7
370
    15
100
AcDbLine
 10
-562.8152407893
 20
243.5835192794
 30
0.0
 11
-562.8152407893
 21
239.5835193223
 31
0.0
  0
LINE
  5
8C
330
1F
100
AcDbEntity
  8
0
  6
Continuous
 62
     7
370
    15
100
AcDbLine
 10
34.1847620717
 20
239.5835193223
 30
0.0
 11
34.1847620717
 21
243.5835192794
 31
0.0
  0
LINE
  5
8D
330
1F
100
AcDbEntity
  8
0
  6
Continuous
 62
     7
370
    15
100
AcDbLine
 10
2.7006946317
 20
432.5835120747
 30
0.0
 11
2.7006946317
 21
435.0835245917
 31
0.0
  0
LINE
  5
8E
330
1F
100
AcDbEntity
  8
0
  6
Continuous
 62
     7
370
    15
100
AcDbLine
 10
-21.2993093022
 20
435.0835245917
 30
0.0
 11
-21.2993093022
 21
432.5835120747
 31
0.0
  0
LINE
  5
8F
330
1F
100
AcDbEntity
  8
0
  6
Continuous
 62
     7
370
    15
100
AcDbLine
 10
-1.2993134746
 20
451.583520777
 30
0.0
 11
-1.2993134746
 21
452.0835143397
 31
0.0
  0
LINE
  5
90
330
1F
100
AcDbEntity
  8
0
  6
Continuous
 62
     7
370
    15
100
AcDbLine
 10
-17.299301196
 20
452.0835143397
 30
0.0
 11
-17.299301196
 21
451.583520777
 31
0.0
  0
LINE
  5
91
330
1F
100
AcDbEntity
  8
0
  6
Continuous
 62
     7
370
    15
100
AcDbLine
 10
-2.7992941627
 20
452.0835143397
 30
0.0
 11
-2.7992941627
 21
463.5835152934
 31
0.0
  0
LINE
  5
92
330
1F
100
AcDbEntity
  8
0
  6
Continuous
 62
     7
370
    15
100
AcDbLine
 10
-15.7993056068
 20
463.5835152934
 30
0.0
 11
-15.7993056068
 21
452.0835143397
 31
0.0
  0
LINE
  5
93
330
1F
100
AcDbEntity
  8
0
  6
Continuous
 62
     7
370
    15
100
AcDbLine
 10
-3.2993175277
 20
265.5835200915
 30
0.0
 11
-3.2993175277
 21
413.9888596604
 31
0.0
  0
LINE
  5
94
330
1F
100
AcDbEntity
  8
0
  6
Continuous
 62
     7
370
    15
100
AcDbLine
 10
-15.2993120441
 20
404.5647543738
 30
0.0
 11
-15.2993120441
 21
265.5835200915
 31
0.0
  0
LINE
  5
95
330
1F
100
AcDbEntity
  8
0
  6
Continuous
 62
     7
370
    15
100
AcDbLine
 10
-3.2993175277
 20
445.0835150549
 30
0.0
 11
-3.2993175277
 21
451.583520777
 31
0.0
  0
LINE
  5
96
330
1F
100
AcDbEntity
  8
0
  6
Continuous
 62
     7
370
    15
100
AcDbLine
 10
-15.2993120441
 20
451.583520777
 30
0.0
 11
-15.2993120441
 21
445.0835150549
 31
0.0
  0
LINE
  5
97
330
1F
100
AcDbEntity
  8
0
  6
Continuous
 62
     7
370
    15
100
AcDbLine
 10
-492.5001032838
 20
435.0835245917
 30
0.0
 11
-492.5001032838
 21
432.5835120747
 31
0.0
  0
LINE
  5
98
330
1F
100
AcDbEntity
  8
0
  6
Continuous
 62
     7
370
    15
100
AcDbLine
 10
-472.500092555
 20
451.583520777
 30
0.0
 11
-472.500092555
 21
452.0835143397
 31
0.0
  0
LINE
  5
99
330
1F
100
AcDbEntity
  8
0
  6
Continuous
 62
     7
370
    15
100
AcDbLine
 10
-488.5000951776
 20
452.0835143397
 30
0.0
 11
-488.5000951776
 21
451.583520777
 31
0.0
  0
LINE
  5
9A
330
1F
100
AcDbEntity
  8
0
  6
Continuous
 62
     7
370
    15
100
AcDbLine
 10
-474.0001030454
 20
452.0835143397
 30
0.0
 11
-474.0001030454
 21
463.5835152934
 31
0.0
  0
LINE
  5
9B
330
1F
100
AcDbEntity
  8
0
  6
Continuous
 62
     7
370
    15
100
AcDbLine
 10
-487.0000995883
 20
463.5835152934
 30
0.0
 11
-487.0000995883
 21
452.0835143397
 31
0.0
  0
LINE
  5
9C
330
1F
100
AcDbEntity
  8
0
  6
Continuous
 62
     7
370
    15
100
AcDbLine
 10
-474.5000966081
 20
445.0835150549
 30
0.0
 11
-474.5000966081
 21
451.583520777
 31
0.0
  0
LINE
  5
9D
330
1F
100
AcDbEntity
  8
0
  6
Continuous
 62
     7
370
    15
100
AcDbLine
 10
-486.5000911244
 20
451.583520777
 30
0.0
 11
-486.5000911244
 21
445.0835150549
 31
0.0
  0
LINE
  5
9E
330
1F
100
AcDbEntity
  8
0
  6
Continuous
 62
     7
370
    15
100
AcDbLine
 10
-111.8531145343
 20
451.583520777
 30
0.0
 11
-111.8531145343
 21
452.0835143397
 31
0.0
  0
LINE
  5
9F
330
1F
100
AcDbEntity
  8
0
  6
Continuous
 62
     7
370
    15
100
AcDbLine
 10
-127.8531022557
 20
452.0835143397
 30
0.0
 11
-127.8531022557
 21
451.583520777
 31
0.0
  0
LINE
  5
A0
330
1F
100
AcDbEntity
  8
0
  6
Continuous
 62
     7
370
    15
100
AcDbLine
 10
-113.3531101235
 20
452.0835143397
 30
0.0
 11
-113.3531101235
 21
463.5835152934
 31
0.0
  0
LINE
  5
A1
330
1F
100
AcDbEntity
  8
0
  6
Continuous
 62
     7
370
    15
100
AcDbLine
 10
-126.3531066665
 20
463.5835152934
 30
0.0
 11
-126.3531066665
 21
452.0835143397
 31
0.0
  0
LINE
  5
A2
330
1F
100
AcDbEntity
  8
0
  6
Continuous
 62
     7
370
    15
100
AcDbLine
 10
-113.8531036862
 20
445.0835150549
 30
0.0
 11
-113.8531036862
 21
451.583520777
 31
0.0
  0
LINE
  5
A3
330
1F
100
AcDbEntity
  8
0
  6
Continuous
 62
     7
370
    15
100
AcDbLine
 10
-125.8531131038
 20
451.583520777
 30
0.0
 11
-125.8531131038
 21
445.0835150549
 31
0.0
  0
LINE
  5
A4
330
1F
100
AcDbEntity
  8
0
  6
Continuous
 62
     7
370
    15
100
AcDbLine
 10
-307.0308670589
 20
451.583520777
 30
0.0
 11
-307.0308670589
 21
452.0835143397
 31
0.0
  0
LINE
  5
A5
330
1F
100
AcDbEntity
  8
0
  6
Continuous
 62
     7
370
    15
100
AcDbLine
 10
-323.0308659562
 20
452.0835143397
 30
0.0
 11
-323.0308659562
 21
451.583520777
 31
0.0
  0
LINE
  5
A6
330
1F
100
AcDbEntity
  8
0
  6
Continuous
 62
     7
370
    15
100
AcDbLine
 10
-308.5308663734
 20
452.0835143397
 30
0.0
 11
-308.5308663734
 21
463.5835152934
 31
0.0
  0
LINE
  5
A7
330
1F
100
AcDbEntity
  8
0
  6
Continuous
 62
     7
370
    15
100
AcDbLine
 10
-321.5308666417
 20
463.5835152934
 30
0.0
 11
-321.5308666417
 21
452.0835143397
 31
0.0
  0
LINE
  5
A8
330
1F
100
AcDbEntity
  8
0
  6
Continuous
 62
     7
370
    15
100
AcDbLine
 10
-309.0308673867
 20
445.0835150549
 30
0.0
 11
-309.0308673867
 21
451.583520777
 31
0.0
  0
LINE
  5
A9
330
1F
100
AcDbEntity
  8
0
  6
Continuous
 62
     7
370
    15
100
AcDbLine
 10
-321.0308656284
 20
451.583520777
 30
0.0
 11
-321.0308656284
 21
445.0835150549
 31
0.0
  0
LINE
  5
AA
330
1F
100
AcDbEntity
  8
0
  6
Continuous
 62
     7
370
    15
100
AcDbLine
 10
-236.6847668031
 20
239.5835193223
 30
0.0
 11
-291.9457119146
 21
239.5835193223
 31
0.0
  0
LINE
  5
AB
330
1F
100
AcDbEntity
  8
0
  6
Continuous
 62
     7
370
    15
100
AcDbLine
 10
-378.5462446698
 20
243.5835192794
 30
0.0
 11
-475.386611391
 21
243.5835192794
 31
0.0
  0
LINE
  5
AC
330
1F
100
AcDbEntity
  8
0
  6
Continuous
 62
     7
370
    15
100
AcDbLine
 10
-475.386611391
 20
243.5835192794
 30
0.0
 11
-540.0932945499
 21
243.5835192794
 31
0.0
  0
LINE
  5
AD
330
1F
100
AcDbEntity
  8
0
  6
Continuous
 62
     7
370
    15
100
AcDbLine
 10
-540.0932945499
 20
243.5835192794
 30
0.0
 11
-562.8152407893
 21
243.5835192794
 31
0.0
  0
LINE
  5
AE
330
1F
100
AcDbEntity
  8
0
  6
Continuous
 62
     7
370
    15
100
AcDbLine
 10
34.1847620717
 20
243.5835192794
 30
0.0
 11
11.4628158322
 21
243.5835192794
 31
0.0
  0
LINE
  5
AF
330
1F
100
AcDbEntity
  8
0
  6
Continuous
 62
     7
370
    15
100
AcDbLine
 10
11.4628158322
 20
243.5835192794
 30
0.0
 11
-53.2438673266
 21
243.5835192794
 31
0.0
  0
LINE
  5
B0
330
1F
100
AcDbEntity
  8
0
  6
Continuous
 62
     7
370
    15
100
AcDbLine
 10
-53.2438673266
 20
243.5835192794
 30
0.0
 11
-150.0842340478
 21
243.5835192794
 31
0.0
  0
LINE
  5
B1
330
1F
100
AcDbEntity
  8
0
  6
Continuous
 62
     7
370
    15
100
AcDbLine
 10
-264.3152393588
 20
243.5835192794
 30
0.0
 11
-378.5462446698
 21
243.5835192794
 31
0.0
  0
LINE
  5
B2
330
1F
100
AcDbEntity
  8
0
  6
Continuous
 62
     7
370
    15
100
AcDbLine
 10
-150.0842340478
 20
243.5835192794
 30
0.0
 11
-264.3152393588
 21
243.5835192794
 31
0.0
  0
LINE
  5
B3
330
1F
100
AcDbEntity
  8
0
  6
Continuous
 62
     7
370
    15
100
AcDbLine
 10
34.1847620717
 20
265.5835200915
 30
0.0
 11
-562.8152407893
 21
265.5835200915
 31
0.0
  0
LINE
  5
B4
330
1F
100
AcDbEntity
  8
0
  6
Continuous
 62
     7
370
    15
100
AcDbLine
 10
-292.4872443267
 20
243.5835192794
 30
0.0
 11
-292.4872443267
 21
239.5835193223
 31
0.0
  0
LINE
  5
B5
330
1F
100
AcDbEntity
  8
0
  6
Continuous
 62
     7
370
    15
100
AcDbLine
 10
-292.8959980794
 20
239.5835193223
 30
0.0
 11
-292.4872443267
 21
239.5835193223
 31
0.0
  0
LINE
  5
B6
330
1F
100
AcDbEntity
  8
0
  6
Continuous
 62
     7
370
    15
100
AcDbLine
 10
-230.0730899164
 20
239.5835193223
 30
0.0
 11
-236.6847668031
 21
239.5835193223
 31
0.0
  0
LINE
  5
B7
330
1F
100
AcDbEntity
  8
0
  6
Continuous
 62
     7
370
    15
100
AcDbLine
 10
-344.7860397586
 20
239.5835193223
 30
0.0
 11
-396.1397625693
 21
239.5835193223
 31
0.0
  0
LINE
  5
B8
330
1F
100
AcDbEntity
  8
0
  6
Continuous
 62
     7
370
    15
100
AcDbLine
 10
-132.4907161483
 20
239.5835193223
 30
0.0
 11
-183.844438959
 21
239.5835193223
 31
0.0
  0
LINE
  5
B9
330
1F
100
AcDbEntity
  8
0
  6
Continuous
 62
     7
370
    15
100
AcDbLine
 10
-291.9457119146
 20
239.5835193223
 30
0.0
 11
-292.4872443267
 21
239.5835193223
 31
0.0
  0
LWPOLYLINE
  5
BA
330
1F
100
AcDbEntity
  8
0
  6
Continuous
 62
     7
370
    15
100
AcDbPolyline
 90
        3
 70
   128
 43
0.0
 10
-231.3926734218
 20
422.6400715182
 10
-231.5478168615
 20
407.4971538851
 10
-231.5981604346
 20
402.5835257838
  0
LWPOLYLINE
  5
BB
330
1F
100
AcDbEntity
  8
0
  6
Continuous
 62
     7
370
    15
100
AcDbPolyline
 90
        3
 70
   128
 43
0.0
 10
-236.3214001247
 20
431.814329035
 10
-232.1467280575
 20
424.0439397166
 10
-231.3926734218
 20
422.6400715182
  0
LINE
  5
BC
330
1F
100
AcDbEntity
  8
0
  6
Continuous
 62
     7
370
    15
100
AcDbLine
 10
-236.3214001247
 20
432.5835120747
 30
0.0
 11
-236.3214001247
 21
431.814329035
 31
0.0
  0
LINE
  5
BD
330
1F
100
AcDbEntity
  8
0
  6
Continuous
 62
     7
370
    15
100
AcDbLine
 10
-236.3214001247
 20
432.5835120747
 30
0.0
 11
-225.7726930269
 21
432.5835120747
 31
0.0
  0
LINE
  5
BE
330
1F
100
AcDbEntity
  8
0
  6
Continuous
 62
     7
370
    15
100
AcDbLine
 10
-225.7726930269
 20
425.58351279
 30
0.0
 11
-225.7726930269
 21
432.5835120747
 31
0.0
  0
LINE
  5
BF
330
1F
100
AcDbEntity
  8
0
  6
Continuous
 62
     7
370
    15
100
AcDbLine
 10
-225.7726930269
 20
425.58351279
 30
0.0
 11
-231.5981604346
 21
402.5835257838
 31
0.0
  0
LINE
  5
C0
330
1F
100
AcDbEntity
  8
0
  6
Continuous
 62
     7
370
    15
100
AcDbLine
 10
-194.3875618466
 20
432.5835120747
 30
0.0
 11
-225.7726930269
 21
432.5835120747
 31
0.0
  0
LINE
  5
C1
330
1F
100
AcDbEntity
  8
0
  6
Continuous
 62
     7
370
    15
100
AcDbLine
 10
-194.3875618466
 20
425.58351279
 30
0.0
 11
-194.3875618466
 21
432.5835120747
 31
0.0
  0
LINE
  5
C2
330
1F
100
AcDbEntity
  8
0
  6
Continuous
 62
     7
370
    15
100
AcDbLine
 10
-194.3875618466
 20
425.58351279
 30
0.0
 11
-202.724239994
 21
425.58351279
 31
0.0
  0
LINE
  5
C3
330
1F
100
AcDbEntity
  8
0
  6
Continuous
 62
     7
370
    15
100
AcDbLine
 10
-202.724239994
 20
425.58351279
 30
0.0
 11
-217.4360186049
 21
425.58351279
 31
0.0
  0
LINE
  5
C4
330
1F
100
AcDbEntity
  8
0
  6
Continuous
 62
     7
370
    15
100
AcDbLine
 10
-217.4360186049
 20
425.58351279
 30
0.0
 11
-225.7726930269
 21
425.58351279
 31
0.0
  0
LINE
  5
C5
330
1F
100
AcDbEntity
  8
0
  6
Continuous
 62
     7
370
    15
100
AcDbLine
 10
-217.4360186049
 20
425.58351279
 30
0.0
 11
-222.8497743794
 21
404.2090189526
 31
0.0
  0
LINE
  5
C6
330
1F
100
AcDbEntity
  8
0
  6
Continuous
 62
     7
370
    15
100
AcDbLine
 10
-222.8497743794
 20
404.2090189526
 30
0.0
 11
-219.5996113309
 21
404.2090189526
 31
0.0
  0
LINE
  5
C7
330
1F
100
AcDbEntity
  8
0
  6
Continuous
 62
     7
370
    15
100
AcDbLine
 10
-202.724239994
 20
425.58351279
 30
0.0
 11
-207.5996130892
 21
406.3346546957
 31
0.0
  0
LINE
  5
C8
330
1F
100
AcDbEntity
  8
0
  6
Continuous
 62
     7
370
    15
100
AcDbLine
 10
-194.3875618466
 20
425.58351279
 30
0.0
 11
-200.2130292543
 21
402.5835257838
 31
0.0
  0
ELLIPSE
  5
C9
330
1F
100
AcDbEntity
  8
0
  6
Continuous
 62
     7
370
    15
100
AcDbEllipse
 10
-262.4328360233
 20
218.8855085261
 30
0.0
 11
232.3522535370851
 21
76.77154189049008
 31
0.0
210
0.0
220
0.0
230
1.0
 40
0.72020659
 41
1.156863937630882
 42
1.207714788439669
  0
ELLIPSE
  5
CA
330
1F
100
AcDbEntity
  8
0
  6
Continuous
 62
     7
370
    15
100
AcDbEllipse
 10
-262.4328360233
 20
218.8855085261
 30
0.0
 11
232.3522535370851
 21
76.77154189049008
 31
0.0
210
0.0
220
0.0
230
1.0
 40
0.72020659
 41
1.07362948355732
 42
1.105530508645709
  0
LINE
  5
CB
330
1F
100
AcDbEntity
  8
0
  6
Continuous
 62
     7
370
    15
100
AcDbLine
 10
-343.4661098012
 20
239.5835193223
 30
0.0
 11
-343.4661098012
 21
243.5835192794
 31
0.0
  0
LINE
  5
CC
330
1F
100
AcDbEntity
  8
0
  6
Continuous
 62
     7
370
    15
100
AcDbLine
 10
-343.4661098012
 20
239.5835193223
 30
0.0
 11
-340.0168709644
 21
239.5835193223
 31
0.0
  0
LINE
  5
CD
330
1F
100
AcDbEntity
  8
0
  6
Continuous
 62
     7
370
    15
100
AcDbLine
 10
-183.844438959
 20
239.5835193223
 30
0.0
 11
-199.9597095141
 21
239.5835193223
 31
0.0
  0
LINE
  5
CE
330
1F
100
AcDbEntity
  8
0
  6
Continuous
 62
     7
370
    15
100
AcDbLine
 10
-201.5996121058
 20
435.0835245917
 30
0.0
 11
-225.5996123144
 21
435.0835245917
 31
0.0
  0
LINE
  5
CF
330
1F
100
AcDbEntity
  8
0
  6
Continuous
 62
     7
370
    15
100
AcDbLine
 10
-343.4661098012
 20
239.5835193223
 30
0.0
 11
-344.7860397586
 21
239.5835193223
 31
0.0
  0
LINE
  5
D0
330
1F
100
AcDbEntity
  8
0
  6
Continuous
 62
     7
370
    15
100
AcDbLine
 10
-302.8341449985
 20
239.5835193223
 30
0.0
 11
-302.8341449985
 21
243.5835192794
 31
0.0
  0
LINE
  5
D1
330
1F
100
AcDbEntity
  8
0
  6
Continuous
 62
     7
370
    15
100
AcDbLine
 10
-321.7855274865
 20
243.5835192794
 30
0.0
 11
-321.7855274865
 21
239.5835193223
 31
0.0
  0
LINE
  5
D2
330
1F
100
AcDbEntity
  8
0
  6
Continuous
 62
     7
370
    15
100
AcDbLine
 10
-340.0168709644
 20
239.5835193223
 30
0.0
 11
-321.7855274865
 21
239.5835193223
 31
0.0
  0
LINE
  5
D3
330
1F
100
AcDbEntity
  8
0
  6
Continuous
 62
     7
370
    15
100
AcDbLine
 10
-302.8341449985
 20
239.5835193223
 30
0.0
 11
-292.8959980794
 21
239.5835193223
 31
0.0
  0
LINE
  5
D4
330
1F
100
AcDbEntity
  8
0
  6
Continuous
 62
     7
370
    15
100
AcDbLine
 10
-211.4595391044
 20
445.0835150549
 30
0.0
 11
-211.4595391044
 21
435.0835245917
 31
0.0
  0
LINE
  5
D5
330
1F
100
AcDbEntity
  8
0
  6
Continuous
 62
     7
370
    15
100
AcDbLine
 10
-211.4595391044
 20
445.0835150549
 30
0.0
 11
-203.2121151873
 21
445.0835150549
 31
0.0
  0
LINE
  5
D6
330
1F
100
AcDbEntity
  8
0
  6
Continuous
 62
     7
370
    15
100
AcDbLine
 10
-203.2121151873
 20
445.0835150549
 30
0.0
 11
-203.2121151873
 21
435.0835245917
 31
0.0
  0
LINE
  5
D7
330
1F
100
AcDbEntity
  8
0
  6
Continuous
 62
     7
370
    15
100
AcDbLine
 10
-221.8470342645
 20
445.0835150549
 30
0.0
 11
-221.8470342645
 21
435.0835245917
 31
0.0
  0
LINE
  5
D8
330
1F
100
AcDbEntity
  8
0
  6
Continuous
 62
     7
370
    15
100
AcDbLine
 10
-221.8470342645
 20
445.0835150549
 30
0.0
 11
-211.4595391044
 21
445.0835150549
 31
0.0
  0
LINE
  5
D9
330
1F
100
AcDbEntity
  8
0
  6
Continuous
 62
     7
370
    15
100
AcDbLine
 10
-205.5996127614
 20
451.583520777
 30
0.0
 11
-221.5996116587
 21
451.583520777
 31
0.0
  0
LINE
  5
DA
330
1F
100
AcDbEntity
  8
0
  6
Continuous
 62
     7
370
    15
100
AcDbLine
 10
-205.5996127614
 20
452.0835143397
 30
0.0
 11
-221.5996116587
 21
452.0835143397
 31
0.0
  0
LINE
  5
DB
330
1F
100
AcDbEntity
  8
0
  6
Continuous
 62
     7
370
    15
100
AcDbLine
 10
-223.9871092328
 20
445.0835150549
 30
0.0
 11
-223.9871092328
 21
435.0835245917
 31
0.0
  0
LINE
  5
DC
330
1F
100
AcDbEntity
  8
0
  6
Continuous
 62
     7
370
    15
100
AcDbLine
 10
-223.9871092328
 20
445.0835150549
 30
0.0
 11
-221.8470342645
 21
445.0835150549
 31
0.0
  0
LINE
  5
DD
330
1F
100
AcDbEntity
  8
0
  6
Continuous
 62
     7
370
    15
100
AcDbLine
 10
-207.099612076
 20
463.5835152934
 30
0.0
 11
-220.0996123442
 21
463.5835152934
 31
0.0
  0
SPLINE
  5
DE
330
1F
100
AcDbEntity
  8
0
  6
Continuous
 62
     7
370
    15
100
AcDbSpline
210
0.0
220
0.0
230
1.0
 70
     8
 71
     3
 72
    16
 73
    12
 74
     0
 42
0.00000001
 43
0.00000001
 12
1.0
 22
0.0
 32
0.0
 13
1.0
 23
0.0
 33
0.0
 40
0.0
 40
0.0
 40
0.0
 40
0.0
 40
0.25
 40
0.25
 40
0.375
 40
0.375
 40
0.5
 40
0.5
 40
0.75
 40
0.75
 40
1.0
 40
1.0
 40
1.0
 40
1.0
 10
-260.7057500077524
 20
239.5835192272587
 30
0.0
 10
-261.2847451852063
 20
239.4204709211539
 30
0.0
 10
-261.8748302115986
 20
239.2959854848334
 30
0.0
 10
-262.7772765755626
 20
239.169613456579
 30
0.0
 10
-263.0809872535776
 20
239.1375785513018
 30
0.0
 10
-263.6944320887765
 20
239.0945109394493
 30
0.0
 10
-264.0059077513376
 20
239.0835230892528
 30
0.0
 10
-264.9334065821635
 20
239.0835115063699
 30
0.0
 10
-265.543447095106
 20
239.1266310910444
 30
0.0
 10
-266.7478212752127
 20
239.2945013771328
 30
0.0
 10
-267.3455643919111
 20
239.4204232902335
 30
0.0
 10
-267.9247287098717
 20
239.5835192272585
 30
0.0
  0
SPLINE
  5
DF
330
1F
100
AcDbEntity
  8
0
  6
Continuous
 62
     7
370
    15
100
AcDbSpline
210
0.0
220
0.0
230
1.0
 70
     8
 71
     3
 72
    18
 73
    14
 74
     0
 42
0.00000001
 43
0.00000001
 12
1.0
 22
0.0
 32
0.0
 13
1.0
 23
0.0
 33
0.0
 40
0.0
 40
0.0
 40
0.0
 40
0.0
 40
0.2499999999999999
 40
0.2499999999999999
 40
0.3749999999999999
 40
0.3749999999999999
 40
0.5
 40
0.5
 40
0.625
 40
0.625
 40
0.7500000000000001
 40
0.7500000000000001
 40
1.0
 40
1.0
 40
1.0
 40
1.0
 10
-211.267865831594
 20
239.5835192272584
 30
0.0
 10
-212.1763362772035
 20
239.2636455260914
 30
0.0
 10
-213.1024384396753
 20
239.0146210739714
 30
0.0
 10
-214.5208610000087
 20
238.7587829198376
 30
0.0
 10
-215.0010754490852
 20
238.6930137805344
 30
0.0
 10
-215.9605869293938
 20
238.6053377345206
 30
0.0
 10
-216.4353374745354
 20
238.5836146681719
 30
0.0
 10
-217.3750557091994
 20
238.5834244128722
 30
0.0
 10
-217.8400229725993
 20
238.6049590221772
 30
0.0
 10
-218.7601888480114
 20
238.6911902858736
 30
0.0
 10
-219.2181348854512
 20
238.756493164374
 30
0.0
 10
-220.5535325035324
 20
239.0133049813925
 30
0.0
 10
-221.3916124525877
 20
239.2635071587616
 30
0.0
 10
-222.1832972061085
 20
239.5835192272585
 30
0.0
  0
LINE
  5
E0
330
1F
100
AcDbEntity
  8
0
  6
Continuous
 62
     7
370
    15
100
AcDbLine
 10
-199.9597095141
 20
239.5835193223
 30
0.0
 11
-211.2678654679
 21
239.5835193223
 31
0.0
  0
LINE
  5
E1
330
1F
100
AcDbEntity
  8
0
  6
Continuous
 62
     7
370
    15
100
AcDbLine
 10
-222.1832975933
 20
239.5835193223
 30
0.0
 11
-230.0730899164
 21
239.5835193223
 31
0.0
  0
LINE
  5
E2
330
1F
100
AcDbEntity
  8
0
  6
Continuous
 62
     7
370
    15
100
AcDbLine
 10
-231.3926734218
 20
422.6400715182
 30
0.0
 11
-389.4559063205
 21
422.6400715182
 31
0.0
  0
LWPOLYLINE
  5
E3
330
1F
100
AcDbEntity
  8
0
  6
Continuous
 62
     7
370
    15
100
AcDbPolyline
 90
        3
 70
   128
 43
0.0
 10
-375.4200779089
 20
431.814329035
 10
-387.3085297832
 20
424.0439397166
 10
-389.4559063205
 20
422.6400715182
  0
LINE
  5
E4
330
1F
100
AcDbEntity
  8
0
  6
Continuous
 62
     7
370
    15
100
AcDbLine
 10
-236.3214001247
 20
431.814329035
 30
0.0
 11
-375.4200779089
 21
431.814329035
 31
0.0
  0
LINE
  5
E5
330
1F
100
AcDbEntity
  8
0
  6
Continuous
 62
     7
370
    15
100
AcDbLine
 10
-231.5981604346
 20
402.5835257838
 30
0.0
 11
-388.8707302698
 21
402.5835257838
 31
0.0
  0
LWPOLYLINE
  5
E6
330
1F
100
AcDbEntity
  8
0
  6
Continuous
 62
     7
370
    15
100
AcDbPolyline
 90
        3
 70
   128
 43
0.0
 10
-389.4559063205
 20
422.6400715182
 10
-389.0140868911
 20
407.4971538851
 10
-388.8707302698
 20
402.5835257838
  0
LINE
  5
E7
330
1F
100
AcDbEntity
  8
0
  6
Continuous
 62
     7
370
    15
100
AcDbLine
 10
-200.2130292543
 20
402.5835257838
 30
0.0
 11
-207.5996130892
 21
402.5835257838
 31
0.0
  0
LINE
  5
E8
330
1F
100
AcDbEntity
  8
0
  6
Continuous
 62
     7
370
    15
100
AcDbLine
 10
-219.5996113309
 20
402.5835257838
 30
0.0
 11
-231.5981604346
 21
402.5835257838
 31
0.0
  0
LINE
  5
E9
330
1F
100
AcDbEntity
  8
0
  6
Continuous
 62
     7
370
    15
100
AcDbLine
 10
-306.4471811244
 20
239.5835193223
 30
0.0
 11
-317.3626132497
 21
239.5835193223
 31
0.0
  0
SPLINE
  5
EA
330
1F
100
AcDbEntity
  8
0
  6
Continuous
 62
     7
370
    15
100
AcDbSpline
210
0.0
220
0.0
230
1.0
 70
     8
 71
     3
 72
    18
 73
    14
 74
     0
 42
0.00000001
 43
0.00000001
 12
1.0
 22
0.0
 32
0.0
 13
1.0
 23
0.0
 33
0.0
 40
0.0
 40
0.0
 40
0.0
 40
0.0
 40
0.2500000000000034
 40
0.2500000000000034
 40
0.3750000000000024
 40
0.3750000000000024
 40
0.5000000000000013
 40
0.5000000000000013
 40
0.7499999999999992
 40
0.7499999999999992
 40
0.8749999999999996
 40
0.8749999999999996
 40
1.0
 40
1.0
 40
1.0
 40
1.0
 10
-174.2854324720982
 20
239.5835192272586
 30
0.0
 10
-173.8094503710653
 20
239.4204075409754
 30
0.0
 10
-173.3091870857299
 20
239.2958966933462
 30
0.0
 10
-172.5209370209351
 20
239.169529268164
 30
0.0
 10
-172.2518583690967
 20
239.1375030436465
 30
0.0
 10
-171.7005410204264
 20
239.0944648355538
 30
0.0
 10
-171.4166663032825
 20
239.083495327352
 30
0.0
 10
-170.5592983025434
 20
239.0835671460175
 30
0.0
 10
-169.9798614515032
 20
239.1267856435205
 30
0.0
 10
-169.0995341045964
 20
239.2528419487335
 30
0.0
 10
-168.8042226274367
 20
239.3051010269303
 30
0.0
 10
-168.209886052713
 20
239.4299060083006
 30
0.0
 10
-167.9110487458338
 20
239.5025276233009
 30
0.0
 10
-167.6159658035754
 20
239.5835192272587
 30
0.0
  0
LINE
  5
EB
330
1F
100
AcDbEntity
  8
0
  6
Continuous
 62
     7
370
    15
100
AcDbLine
 10
-124.1645284185
 20
239.5835193223
 30
0.0
 11
-132.4907161483
 21
239.5835193223
 31
0.0
  0
SPLINE
  5
EC
330
1F
100
AcDbEntity
  8
0
  6
Continuous
 62
     7
370
    15
100
AcDbSpline
210
0.0
220
0.0
230
1.0
 70
     8
 71
     3
 72
    16
 73
    12
 74
     0
 42
0.00000001
 43
0.00000001
 12
1.0
 22
0.0
 32
0.0
 13
1.0
 23
0.0
 33
0.0
 40
0.0
 40
0.0
 40
0.0
 40
0.0
 40
0.2500000000000147
 40
0.2500000000000147
 40
0.3750000000000175
 40
0.3750000000000175
 40
0.5000000000000204
 40
0.5000000000000204
 40
0.7500000000000102
 40
0.7500000000000102
 40
1.0
 40
1.0
 40
1.0
 40
1.0
 10
-89.24776941708542
 20
239.5835192272587
 30
0.0
 10
-89.76642893178189
 20
239.420470921154
 30
0.0
 10
-90.26698790488393
 20
239.2959854848334
 30
0.0
 10
-90.989658534157
 20
239.169613456579
 30
0.0
 10
-91.22583930738604
 20
239.1375785513018
 30
0.0
 10
-91.68841183842427
 20
239.0945109394494
 30
0.0
 10
-91.9160050802376
 20
239.0835230892529
 30
0.0
 10
-92.5718535380925
 20
239.0835115063699
 30
0.0
 10
-92.97439200894941
 20
239.1266310910444
 30
0.0
 10
-93.71370608787646
 20
239.2945013771328
 30
0.0
 10
-94.0521072067801
 20
239.4204232902336
 30
0.0
 10
-94.35235821059534
 20
239.5835192272586
 30
0.0
  0
SPLINE
  5
ED
330
1F
100
AcDbEntity
  8
0
  6
Continuous
 62
     7
370
    15
100
AcDbSpline
210
0.0
220
0.0
230
1.0
 70
     8
 71
     3
 72
    18
 73
    14
 74
     0
 42
0.00000001
 43
0.00000001
 12
1.0
 22
0.0
 32
0.0
 13
1.0
 23
0.0
 33
0.0
 40
0.0
 40
0.0
 40
0.0
 40
0.0
 40
0.2500000000000059
 40
0.2500000000000059
 40
0.3750000000000038
 40
0.3750000000000038
 40
0.5000000000000018
 40
0.5000000000000018
 40
0.6249999999999997
 40
0.6249999999999997
 40
0.7499999999999977
 40
0.7499999999999977
 40
1.0
 40
1.0
 40
1.0
 40
1.0
 10
-58.39787270146446
 20
239.5835192272584
 30
0.0
 10
-59.12890419856906
 20
239.2636455260915
 30
0.0
 10
-59.82157876168967
 20
239.0146210739715
 30
0.0
 10
-60.79762433561148
 20
238.7587829198376
 30
0.0
 10
-61.11397908811403
 20
238.6930137805345
 30
0.0
 10
-61.7165925294528
 20
238.6053377345206
 30
0.0
 10
-62.0001525460635
 20
238.5836146681719
 30
0.0
 10
-62.53258836418429
 20
238.5834244128722
 30
0.0
 10
-62.78146264823767
 20
238.6049590221772
 30
0.0
 10
-63.24457494836566
 20
238.6911902858736
 30
0.0
 10
-63.45996031908721
 20
238.756493164374
 30
0.0
 10
-64.0431731924799
 20
239.0133049813925
 30
0.0
 10
-64.34903245081824
 20
239.2635071587615
 30
0.0
 10
-64.58096789407925
 20
239.5835192272585
 30
0.0
  0
SPLINE
  5
EE
330
1F
100
AcDbEntity
  8
0
  6
Continuous
 62
     7
370
    15
100
AcDbSpline
210
0.0
220
0.0
230
1.0
 70
     8
 71
     3
 72
    18
 73
    14
 74
     0
 42
0.00000001
 43
0.00000001
 12
1.0
 22
0.0
 32
0.0
 13
1.0
 23
0.0
 33
0.0
 40
0.0
 40
0.0
 40
0.0
 40
0.0
 40
0.2499999999999971
 40
0.2499999999999971
 40
0.374999999999998
 40
0.374999999999998
 40
0.499999999999999
 40
0.499999999999999
 40
0.7500000000000009
 40
0.7500000000000009
 40
0.8750000000000004
 40
0.8750000000000004
 40
1.0
 40
1.0
 40
1.0
 40
1.0
 10
-37.53200833867368
 20
239.5835192272581
 30
0.0
 10
-37.89646133512187
 20
239.4204075409782
 30
0.0
 10
-38.23122220086817
 20
239.2958966933515
 30
0.0
 10
-38.68713671076307
 20
239.169529268172
 30
0.0
 10
-38.83137964499869
 20
239.1375030436552
 30
0.0
 10
-39.10380012758608
 20
239.0944648355634
 30
0.0
 10
-39.23261193491584
 20
239.0834953273618
 30
0.0
 10
-39.58767187922121
 20
239.0835671460273
 30
0.0
 10
-39.7834573696226
 20
239.1267856435296
 30
0.0
 10
-40.0190093050014
 20
239.25284194874
 30
0.0
 10
-40.08780341279389
 20
239.3051010269357
 30
0.0
 10
-40.20609334925688
 20
239.4299060083034
 30
0.0
 10
-40.25543319787631
 20
239.5025276233024
 30
0.0
 10
-40.29459188654327
 20
239.5835192272587
 30
0.0
  0
SPLINE
  5
EF
330
1F
100
AcDbEntity
  8
0
  6
Continuous
 62
     7
370
    15
100
AcDbSpline
210
0.0
220
0.0
230
1.0
 70
     8
 71
     3
 72
    12
 73
     8
 74
     0
 42
0.00000001
 43
0.00000001
 12
1.0
 22
0.0
 32
0.0
 13
1.0
 23
0.0
 33
0.0
 40
0.0
 40
0.0
 40
0.0
 40
0.0
 40
0.1347175603620551
 40
0.3592791435856025
 40
0.5906486406634526
 40
0.8220357691546484
 40
0.9999999999999999
 40
0.9999999999999999
 40
0.9999999999999999
 40
0.9999999999999999
 10
-20.8093144187031
 20
239.0897896023613
 30
0.0
 10
-20.80988816356105
 20
239.0891808444393
 30
0.0
 10
-20.81141828747843
 20
239.087557343952
 30
0.0
 10
-20.75878696396663
 20
239.1432207541959
 30
0.0
 10
-20.65486548465931
 20
239.2530771588748
 30
0.0
 10
-20.51348034844897
 20
239.4024444972427
 30
0.0
 10
-20.39391859741602
 20
239.5286513049605
 30
0.0
 10
-20.34193949785806
 20
239.5835193222535
 30
0.0
  0
SPLINE
  5
F0
330
1F
100
AcDbEntity
  8
0
  6
Continuous
 62
     7
370
    15
100
AcDbSpline
210
0.0
220
0.0
230
1.0
 70
     8
 71
     3
 72
    12
 73
     8
 74
     0
 42
0.00000001
 43
0.00000001
 12
1.0
 22
0.0
 32
0.0
 13
1.0
 23
0.0
 33
0.0
 40
0.0
 40
0.0
 40
0.0
 40
0.0
 40
0.2243657604043341
 40
0.4487136490068382
 40
0.6794423968992865
 40
0.9101607685862584
 40
0.9999999999999999
 40
0.9999999999999999
 40
0.9999999999999999
 40
0.9999999999999999
 10
-508.2885392197667
 20
239.5835193222535
 30
0.0
 10
-508.2238136065976
 20
239.5151930264205
 30
0.0
 10
-508.0943675359632
 20
239.3785458772697
 30
0.0
 10
-507.9529580227916
 20
239.2291082996223
 30
0.0
 10
-507.8586744954786
 20
239.1294598580545
 30
0.0
 10
-507.8144153361796
 20
239.0826570164602
 30
0.0
 10
-507.819686895651
 20
239.0882282208363
 30
0.0
 10
-507.8211642989216
 20
239.0897896023613
 30
0.0
  0
SPLINE
  5
F1
330
1F
100
AcDbEntity
  8
0
  6
Continuous
 62
     7
370
    15
100
AcDbSpline
210
0.0
220
0.0
230
1.0
 70
     8
 71
     3
 72
    18
 73
    14
 74
     0
 42
0.00000001
 43
0.00000001
 12
1.0
 22
0.0
 32
0.0
 13
1.0
 23
0.0
 33
0.0
 40
0.0
 40
0.0
 40
0.0
 40
0.0
 40
0.25
 40
0.25
 40
0.375
 40
0.375
 40
0.5
 40
0.5
 40
0.625
 40
0.625
 40
0.75
 40
0.75
 40
1.0
 40
1.0
 40
1.0
 40
1.0
 10
-502.4789984865676
 20
239.5835192272584
 30
0.0
 10
-502.3536342744498
 20
239.2636455260914
 30
0.0
 10
-502.3001466754458
 20
239.0146210739714
 30
0.0
 10
-502.3382323476449
 20
238.7587829198376
 30
0.0
 10
-502.3710536152109
 20
238.6930137805344
 30
0.0
 10
-502.47834099391
 20
238.6053377345206
 30
0.0
 10
-502.5520771178139
 20
238.5836146681719
 30
0.0
 10
-502.7388173973983
 20
238.5834244128722
 30
0.0
 10
-502.8518232729641
 20
238.6049590221771
 30
0.0
 10
-503.1170494526334
 20
238.6911902858736
 30
0.0
 10
-503.2703945776621
 20
238.756493164374
 30
0.0
 10
-503.7810046404409
 20
239.0133049813925
 30
0.0
 10
-504.1865342781765
 20
239.2635071587615
 30
0.0
 10
-504.6502127822428
 20
239.5835192272585
 30
0.0
  0
SPLINE
  5
F2
330
1F
100
AcDbEntity
  8
0
  6
Continuous
 62
     7
370
    15
100
AcDbSpline
210
0.0
220
0.0
230
1.0
 70
     8
 71
     3
 72
    18
 73
    14
 74
     0
 42
0.00000001
 43
0.00000001
 12
1.0
 22
0.0
 32
0.0
 13
1.0
 23
0.0
 33
0.0
 40
0.0
 40
0.0
 40
0.0
 40
0.0
 40
0.249999999999997
 40
0.249999999999997
 40
0.3749999999999979
 40
0.3749999999999979
 40
0.4999999999999989
 40
0.4999999999999989
 40
0.7500000000000008
 40
0.7500000000000008
 40
0.8750000000000003
 40
0.8750000000000003
 40
1.0
 40
1.0
 40
1.0
 40
1.0
 10
-491.0984703789828
 20
239.5835192272586
 30
0.0
 10
-490.7340173825249
 20
239.4204075409722
 30
0.0
 10
-490.3992565167699
 20
239.2958966933404
 30
0.0
 10
-489.9433420068634
 20
239.1695292681557
 30
0.0
 10
-489.7990990726242
 20
239.1375030436376
 30
0.0
 10
-489.5266785900302
 20
239.0944648355439
 30
0.0
 10
-489.3978667826973
 20
239.0834953273419
 30
0.0
 10
-489.0428068383851
 20
239.0835671460074
 30
0.0
 10
-488.8470213479805
 20
239.1267856435114
 30
0.0
 10
-488.611469412599
 20
239.252841948727
 30
0.0
 10
-488.5426753048062
 20
239.305101026925
 30
0.0
 10
-488.4243853683431
 20
239.429906008298
 30
0.0
 10
-488.3750455197241
 20
239.5025276232998
 30
0.0
 10
-488.3358868310581
 20
239.5835192272591
 30
0.0
  0
SPLINE
  5
F3
330
1F
100
AcDbEntity
  8
0
  6
Continuous
 62
     7
370
    15
100
AcDbSpline
210
0.0
220
0.0
230
1.0
 70
     8
 71
     3
 72
    16
 73
    12
 74
     0
 42
0.00000001
 43
0.00000001
 12
1.0
 22
0.0
 32
0.0
 13
1.0
 23
0.0
 33
0.0
 40
0.0
 40
0.0
 40
0.0
 40
0.0
 40
0.2499999999999961
 40
0.2499999999999961
 40
0.3749999999999941
 40
0.3749999999999941
 40
0.4999999999999921
 40
0.4999999999999921
 40
0.749999999999996
 40
0.749999999999996
 40
1.0
 40
1.0
 40
1.0
 40
1.0
 10
-434.278120507011
 20
239.5835192272589
 30
0.0
 10
-434.5782838248195
 20
239.4204709211517
 30
0.0
 10
-434.9122310989966
 20
239.2959854848292
 30
0.0
 10
-435.4658123569591
 20
239.1696134565728
 30
0.0
 10
-435.6591433436179
 20
239.137578551295
 30
0.0
 10
-436.0641128182888
 20
239.0945109394418
 30
0.0
 10
-436.2770126828203
 20
239.0835230892452
 30
0.0
 10
-436.9328456506094
 20
239.0835115063622
 30
0.0
 10
-437.3930347467566
 20
239.1266310910374
 30
0.0
 10
-438.3569629675168
 20
239.2945013771284
 30
0.0
 10
-438.8638982710682
 20
239.4204232902312
 30
0.0
 10
-439.3827093005598
 20
239.5835192272586
 30
0.0
  0
SPLINE
  5
F4
330
1F
100
AcDbEntity
  8
0
  6
Continuous
 62
     7
370
    15
100
AcDbSpline
210
0.0
220
0.0
230
1.0
 70
     8
 71
     3
 72
    18
 73
    14
 74
     0
 42
0.00000001
 43
0.00000001
 12
1.0
 22
0.0
 32
0.0
 13
1.0
 23
0.0
 33
0.0
 40
0.0
 40
0.0
 40
0.0
 40
0.0
 40
0.2500000000000022
 40
0.2500000000000022
 40
0.3750000000000008
 40
0.3750000000000008
 40
0.4999999999999993
 40
0.4999999999999993
 40
0.6249999999999979
 40
0.6249999999999979
 40
0.7499999999999964
 40
0.7499999999999964
 40
1.0
 40
1.0
 40
1.0
 40
1.0
 10
-395.2122909256935
 20
239.5835192272584
 30
0.0
 10
-395.7660306537849
 20
239.2636455260914
 30
0.0
 10
-396.3830623289752
 20
239.0146210739715
 30
0.0
 10
-397.4129691770528
 20
238.7587829198376
 30
0.0
 10
-397.7757402112818
 20
238.6930137805344
 30
0.0
 10
-398.5300809186483
 20
238.6053377345206
 30
0.0
 10
-398.9179195617207
 20
238.5836146681718
 30
0.0
 10
-399.7144460158711
 20
238.5834244128722
 30
0.0
 10
-400.1231347417774
 20
238.6049590221771
 30
0.0
 10
-400.9613335022902
 20
238.6911902858736
 30
0.0
 10
-401.3935816285511
 20
238.756493164374
 30
0.0
 10
-402.6989061778095
 20
239.0133049813924
 30
0.0
 10
-403.578270949778
 20
239.2635071587615
 30
0.0
 10
-404.4659468220703
 20
239.5835192272585
 30
0.0
  0
SPLINE
  5
F5
330
1F
100
AcDbEntity
  8
0
  6
Continuous
 62
     7
370
    15
100
AcDbSpline
210
0.0
220
0.0
230
1.0
 70
     8
 71
     3
 72
    18
 73
    14
 74
     0
 42
0.00000001
 43
0.00000001
 12
1.0
 22
0.0
 32
0.0
 13
1.0
 23
0.0
 33
0.0
 40
0.0
 40
0.0
 40
0.0
 40
0.0
 40
0.2500000000000019
 40
0.2500000000000019
 40
0.3750000000000029
 40
0.3750000000000029
 40
0.5000000000000039
 40
0.5000000000000039
 40
0.7500000000000007
 40
0.7500000000000007
 40
0.8750000000000003
 40
0.8750000000000003
 40
1.0
 40
1.0
 40
1.0
 40
1.0
 10
-354.3450462455227
 20
239.5835192272587
 30
0.0
 10
-354.8210283465555
 20
239.4204075409755
 30
0.0
 10
-355.321291631891
 20
239.2958966933462
 30
0.0
 10
-356.1095416966858
 20
239.169529268164
 30
0.0
 10
-356.3786203485243
 20
239.1375030436465
 30
0.0
 10
-356.9299376971947
 20
239.0944648355537
 30
0.0
 10
-357.2138124143386
 20
239.0834953273519
 30
0.0
 10
-358.0711804150777
 20
239.0835671460174
 30
0.0
 10
-358.6506172661182
 20
239.1267856435204
 30
0.0
 10
-359.530944613025
 20
239.2528419487334
 30
0.0
 10
-359.8262560901847
 20
239.3051010269302
 30
0.0
 10
-360.4205926649084
 20
239.4299060083005
 30
0.0
 10
-360.7194299717877
 20
239.5025276233009
 30
0.0
 10
-361.0145129140462
 20
239.5835192272587
 30
0.0
  0
LINE
  5
F6
330
1F
100
AcDbEntity
  8
0
  6
Continuous
 62
     7
370
    15
100
AcDbLine
 10
-22.3152406701
 20
237.5835192273
 30
0.0
 11
-506.3152380475
 21
237.5835192273
 31
0.0
  0
LINE
  5
F7
330
1F
100
AcDbEntity
  8
0
  6
Continuous
 62
     7
370
    15
100
AcDbLine
 10
-306.4471811244
 20
239.5835193223
 30
0.0
 11
-306.4471811244
 21
243.5835192794
 31
0.0
  0
LINE
  5
F8
330
1F
100
AcDbEntity
  8
0
  6
Continuous
 62
     7
370
    15
100
AcDbLine
 10
-302.8341449985
 20
239.5835193223
 30
0.0
 11
-306.4471811244
 21
239.5835193223
 31
0.0
  0
LWPOLYLINE
  5
F9
330
1F
100
AcDbEntity
  8
0
  6
Continuous
 62
     7
370
    15
100
AcDbPolyline
 90
        3
 70
   128
 43
0.0
 10
-66.0080082902
 20
422.6400715182
 10
-66.669232417
 20
407.4971538851
 10
-66.883794237
 20
402.5835257838
  0
LINE
  5
FA
330
1F
100
AcDbEntity
  8
0
  6
Continuous
 62
     7
370
    15
100
AcDbLine
 10
-66.0080082902
 20
422.6400715182
 30
0.0
 11
-195.1330818423
 21
422.6400715182
 31
0.0
  0
LINE
  5
FB
330
1F
100
AcDbEntity
  8
0
  6
Continuous
 62
     7
370
    15
100
AcDbLine
 10
-66.883794237
 20
402.5835257838
 30
0.0
 11
-200.2130292543
 21
402.5835257838
 31
0.0
  0
LWPOLYLINE
  5
FC
330
1F
100
AcDbEntity
  8
0
  6
Continuous
 62
     7
370
    15
100
AcDbPolyline
 90
        3
 70
   128
 43
0.0
 10
-87.0141007194
 20
431.814329035
 10
-69.2217715272
 20
424.0439397166
 10
-66.0080082902
 20
422.6400715182
  0
LINE
  5
FD
330
1F
100
AcDbEntity
  8
0
  6
Continuous
 62
     7
370
    15
100
AcDbLine
 10
-87.0141007194
 20
431.814329035
 30
0.0
 11
-194.3875618466
 21
431.814329035
 31
0.0
  0
LINE
  5
FE
330
1F
100
AcDbEntity
  8
0
  6
Continuous
 62
     7
370
    15
100
AcDbLine
 10
-317.3626132497
 20
239.5835193223
 30
0.0
 11
-317.3626132497
 21
243.5835192794
 31
0.0
  0
LINE
  5
FF
330
1F
100
AcDbEntity
  8
0
  6
Continuous
 62
     7
370
    15
100
AcDbLine
 10
-405.460245181
 20
432.5835120747
 30
0.0
 11
-432.0672817716
 21
432.5835120747
 31
0.0
  0
LINE
  5
100
330
1F
100
AcDbEntity
  8
0
  6
Continuous
 62
     7
370
    15
100
AcDbLine
 10
-405.460245181
 20
425.58351279
 30
0.0
 11
-405.460245181
 21
432.5835120747
 31
0.0
  0
LINE
  5
101
330
1F
100
AcDbEntity
  8
0
  6
Continuous
 62
     7
370
    15
100
AcDbLine
 10
-405.460245181
 20
425.58351279
 30
0.0
 11
-412.5277467259
 21
425.58351279
 31
0.0
  0
LINE
  5
102
330
1F
100
AcDbEntity
  8
0
  6
Continuous
 62
     7
370
    15
100
AcDbLine
 10
-412.5277467259
 20
425.58351279
 30
0.0
 11
-424.9997802266
 21
425.58351279
 31
0.0
  0
LINE
  5
103
330
1F
100
AcDbEntity
  8
0
  6
Continuous
 62
     7
370
    15
100
AcDbLine
 10
-424.9997802266
 20
425.58351279
 30
0.0
 11
-432.0672817716
 21
425.58351279
 31
0.0
  0
LINE
  5
104
330
1F
100
AcDbEntity
  8
0
  6
Continuous
 62
     7
370
    15
100
AcDbLine
 10
-432.0672817716
 20
425.58351279
 30
0.0
 11
-432.0672817716
 21
432.5835120747
 31
0.0
  0
LINE
  5
105
330
1F
100
AcDbEntity
  8
0
  6
Continuous
 62
     7
370
    15
100
AcDbLine
 10
-424.9997802266
 20
425.58351279
 30
0.0
 11
-414.7773750314
 21
411.4109885762
 31
0.0
  0
LINE
  5
106
330
1F
100
AcDbEntity
  8
0
  6
Continuous
 62
     7
370
    15
100
AcDbLine
 10
-402.7773656138
 20
404.2090189526
 30
0.0
 11
-397.1106626281
 21
404.2090189526
 31
0.0
  0
LINE
  5
107
330
1F
100
AcDbEntity
  8
0
  6
Continuous
 62
     7
370
    15
100
AcDbLine
 10
-412.5277467259
 20
425.58351279
 30
0.0
 11
-397.1106626281
 21
404.2090189526
 31
0.0
  0
LINE
  5
108
330
1F
100
AcDbEntity
  8
0
  6
Continuous
 62
     7
370
    15
100
AcDbLine
 10
-405.460245181
 20
425.58351279
 30
0.0
 11
-388.8707302698
 21
402.5835257838
 31
0.0
  0
ELLIPSE
  5
109
330
1F
100
AcDbEntity
  8
0
  6
Continuous
 62
     7
370
    15
100
AcDbEllipse
 10
-269.6758705216
 20
218.8855085261
 30
0.0
 11
227.600099474218
 21
-144.0053206201904
 31
0.0
210
0.0
220
0.0
230
1.0
 40
0.504020474
 41
2.532273186962626
 42
2.535968972133841
  0
ELLIPSE
  5
10A
330
1F
100
AcDbEntity
  8
0
  6
Continuous
 62
     7
370
    15
100
AcDbEllipse
 10
-269.6758705216
 20
218.8855085261
 30
0.0
 11
227.600099474218
 21
-144.0053206201904
 31
0.0
210
0.0
220
0.0
230
1.0
 40
0.504020474
 41
2.401883667251495
 42
2.470461988169607
  0
LINE
  5
10B
330
1F
100
AcDbEntity
  8
0
  6
Continuous
 62
     7
370
    15
100
AcDbLine
 10
-432.0672817716
 20
425.58351279
 30
0.0
 11
-415.4777594098
 21
402.5835257838
 31
0.0
  0
LINE
  5
10C
330
1F
100
AcDbEntity
  8
0
  6
Continuous
 62
     7
370
    15
100
AcDbLine
 10
-375.4200779089
 20
432.5835120747
 30
0.0
 11
-375.4200779089
 21
431.814329035
 31
0.0
  0
LINE
  5
10D
330
1F
100
AcDbEntity
  8
0
  6
Continuous
 62
     7
370
    15
100
AcDbLine
 10
-375.4200779089
 20
432.5835120747
 30
0.0
 11
-405.460245181
 21
432.5835120747
 31
0.0
  0
LINE
  5
10E
330
1F
100
AcDbEntity
  8
0
  6
Continuous
 62
     7
370
    15
100
AcDbLine
 10
-317.3626132497
 20
239.5835193223
 30
0.0
 11
-321.7855274865
 21
239.5835193223
 31
0.0
  0
LINE
  5
10F
330
1F
100
AcDbEntity
  8
0
  6
Continuous
 62
     7
370
    15
100
AcDbLine
 10
-119.6050860175
 20
239.5835193223
 30
0.0
 11
-96.1050905475
 21
239.5835193223
 31
0.0
  0
LINE
  5
110
330
1F
100
AcDbEntity
  8
0
  6
Continuous
 62
     7
370
    15
100
AcDbLine
 10
-119.6050860175
 20
239.5835193223
 30
0.0
 11
-119.6050860175
 21
243.5835192794
 31
0.0
  0
LINE
  5
111
330
1F
100
AcDbEntity
  8
0
  6
Continuous
 62
     7
370
    15
100
AcDbLine
 10
-33.7011583337
 20
295.5835175583
 30
0.0
 11
-42.1303875932
 21
295.5835175583
 31
0.0
  0
LINE
  5
112
330
1F
100
AcDbEntity
  8
0
  6
Continuous
 62
     7
370
    15
100
AcDbLine
 10
-54.1303821096
 20
295.5835175583
 30
0.0
 11
-207.5996130892
 21
295.5835175583
 31
0.0
  0
LINE
  5
113
330
1F
100
AcDbEntity
  8
0
  6
Continuous
 62
     7
370
    15
100
AcDbLine
 10
-219.5996113309
 20
295.5835175583
 30
0.0
 11
-402.7773656138
 21
295.5835175583
 31
0.0
  0
LINE
  5
114
330
1F
100
AcDbEntity
  8
0
  6
Continuous
 62
     7
370
    15
100
AcDbLine
 10
-414.7773750314
 20
295.5835175583
 30
0.0
 11
-494.9293203839
 21
295.5835175583
 31
0.0
  0
LINE
  5
115
330
1F
100
AcDbEntity
  8
0
  6
Continuous
 62
     7
370
    15
100
AcDbLine
 10
-396.7773683557
 20
435.0835245917
 30
0.0
 11
-420.7773722896
 21
435.0835245917
 31
0.0
  0
LINE
  5
116
330
1F
100
AcDbEntity
  8
0
  6
Continuous
 62
     7
370
    15
100
AcDbLine
 10
-304.3583363482
 20
325.8719605277
 30
0.0
 11
-304.3583363482
 21
331.455656595
 31
0.0
  0
SPLINE
  5
117
330
1F
100
AcDbEntity
  8
0
  6
Continuous
 62
     7
370
    15
100
AcDbSpline
210
0.0
220
0.0
230
1.0
 70
     8
 71
     3
 72
     9
 73
     5
 74
     0
 42
0.00000001
 43
0.00000001
 12
1.0
 22
0.0
 32
0.0
 13
1.0
 23
0.0
 33
0.0
 40
0.0
 40
0.0
 40
0.0
 40
0.0
 40
0.5015531423941316
 40
1.0
 40
1.0
 40
1.0
 40
1.0
 10
-302.4726221589674
 20
325.1480995762807
 30
0.0
 10
-302.7880580999553
 20
325.269184059957
 30
0.0
 10
-303.4169763826364
 20
325.5106031109839
 30
0.0
 10
-304.0452002380686
 20
325.7517557138278
 30
0.0
 10
-304.3583364446818
 20
325.8719574709189
 30
0.0
  0
LINE
  5
118
330
1F
100
AcDbEntity
  8
0
  6
Continuous
 62
     7
370
    15
100
AcDbLine
 10
-311.2583376655
 20
321.3378873537
 30
0.0
 11
-311.2583376655
 21
324.7104001114
 31
0.0
  0
LINE
  5
119
330
1F
100
AcDbEntity
  8
0
  6
Continuous
 62
     7
370
    15
100
AcDbLine
 10
-314.6869085917
 20
321.3378873537
 30
0.0
 11
-311.2583376655
 21
321.3378873537
 31
0.0
  0
LINE
  5
11A
330
1F
100
AcDbEntity
  8
0
  6
Continuous
 62
     7
370
    15
100
AcDbLine
 10
-314.6869085917
 20
331.0911220381
 30
0.0
 11
-314.6869085917
 21
321.3378873537
 31
0.0
  0
SPLINE
  5
11B
330
1F
100
AcDbEntity
  8
0
  6
Continuous
 62
     7
370
    15
100
AcDbSpline
210
0.0
220
0.0
230
1.0
 70
     8
 71
     3
 72
    15
 73
    11
 74
     0
 42
0.00000001
 43
0.00000001
 12
1.0
 22
0.0
 32
0.0
 13
1.0
 23
0.0
 33
0.0
 40
0.0
 40
0.0
 40
0.0
 40
0.0
 40
0.1029386458605257
 40
0.2044246878978414
 40
0.3044575415920723
 40
0.4030366313577868
 40
0.5001613905598591
 40
0.6700843839710308
 40
0.8366979764979067
 40
1.0
 40
1.0
 40
1.0
 40
1.0
 10
-302.4726221589676
 20
336.0640795092241
 30
0.0
 10
-302.893220443373
 20
335.892836145122
 30
0.0
 10
-303.728481800283
 20
335.5527658929003
 30
0.0
 10
-304.9713659512801
 20
335.0467357184417
 30
0.0
 10
-306.1956294160738
 20
334.5482855579816
 30
0.0
 10
-307.4011941980481
 20
334.0574473538275
 30
0.0
 10
-308.8905568872416
 20
333.451062664283
 30
0.0
 10
-310.655135462859
 20
332.7326292575897
 30
0.0
 10
-312.6863429799915
 20
331.9056373889694
 30
0.0
 10
-314.0245303161011
 20
331.3608030659322
 30
0.0
 10
-314.6869078732532
 20
331.0911203255507
 30
0.0
  0
LINE
  5
11C
330
1F
100
AcDbEntity
  8
0
  6
Continuous
 62
     7
370
    15
100
AcDbLine
 10
-302.4726204762
 20
332.2234091232
 30
0.0
 11
-302.4726204762
 21
336.0640791128
 31
0.0
  0
SPLINE
  5
11D
330
1F
100
AcDbEntity
  8
0
  6
Continuous
 62
     7
370
    15
100
AcDbSpline
210
0.0
220
0.0
230
1.0
 70
     8
 71
     3
 72
     9
 73
     5
 74
     0
 42
0.00000001
 43
0.00000001
 12
1.0
 22
0.0
 32
0.0
 13
1.0
 23
0.0
 33
0.0
 40
0.0
 40
0.0
 40
0.0
 40
0.0
 40
0.49697811438805
 40
1.0
 40
1.0
 40
1.0
 40
1.0
 10
-304.3583364446818
 20
331.4556554936944
 30
0.0
 10
-304.0460731002224
 20
331.5827912993033
 30
0.0
 10
-303.4177489639698
 20
331.8386090142655
 30
0.0
 10
-302.7889312374618
 20
332.0946276292659
 30
0.0
 10
-302.4726221589675
 20
332.2234105957352
 30
0.0
  0
SPLINE
  5
11E
330
1F
100
AcDbEntity
  8
0
  6
Continuous
 62
     7
370
    15
100
AcDbSpline
210
0.0
220
0.0
230
1.0
 70
    24
 71
     3
 72
    10
 73
     6
 74
     0
 42
0.00000001
 43
0.00000001
 12
1.0
 22
0.0
 32
0.0
 13
1.0
 23
0.0
 33
0.0
 40
0.0
 40
0.0
 40
0.0
 40
0.0
 40
0.3333954713467332
 40
0.666724852960342
 40
1.0
 40
1.0
 40
1.0
 40
1.0
 10
-307.6154793018246
 20
326.7550077586444
 30
0.0
 10
-308.0903043276171
 20
326.9372760089808
 30
0.0
 10
-309.0398602535705
 20
327.3017763782091
 30
0.0
 10
-310.4619321553999
 20
327.8476586365559
 30
0.0
 10
-311.4083983426262
 20
328.2109729662092
 30
0.0
 10
-311.8815929342579
 20
328.3926153515099
 30
0.0
  0
LINE
  5
11F
330
1F
100
AcDbEntity
  8
0
  6
Continuous
 62
     7
370
    15
100
AcDbLine
 10
-307.6154805907
 20
326.7550107906
 30
0.0
 11
-307.6154805907
 21
330.1295352051
 31
0.0
  0
SPLINE
  5
120
330
1F
100
AcDbEntity
  8
0
  6
Continuous
 62
     7
370
    15
100
AcDbSpline
210
0.0
220
0.0
230
1.0
 70
    24
 71
     3
 72
    10
 73
     6
 74
     0
 42
0.00000001
 43
0.00000001
 12
1.0
 22
0.0
 32
0.0
 13
1.0
 23
0.0
 33
0.0
 40
0.0
 40
0.0
 40
0.0
 40
0.0
 40
0.3332839245916878
 40
0.6666133831483505
 40
1.0
 40
1.0
 40
1.0
 40
1.0
 10
-311.8815929342578
 20
328.3926153515098
 30
0.0
 10
-311.4081976162373
 20
328.5853548738468
 30
0.0
 10
-310.4613423039121
 20
328.9708602510078
 30
0.0
 10
-309.0392711712279
 20
329.5498463550292
 30
0.0
 10
-308.0901037160122
 20
329.9362931046528
 30
0.0
 10
-307.6154793018246
 20
330.1295330447148
 30
0.0
  0
LINE
  5
121
330
1F
100
AcDbEntity
  8
0
  6
Continuous
 62
     7
370
    15
100
AcDbLine
 10
-302.4726204762
 20
321.3378873537
 30
0.0
 11
-302.4726204762
 21
325.1480993698
 31
0.0
  0
SPLINE
  5
122
330
1F
100
AcDbEntity
  8
0
  6
Continuous
 62
     7
370
    15
100
AcDbSpline
210
0.0
220
0.0
230
1.0
 70
     8
 71
     3
 72
    13
 73
     9
 74
     0
 42
0.00000001
 43
0.00000001
 12
1.0
 22
0.0
 32
0.0
 13
1.0
 23
0.0
 33
0.0
 40
0.0
 40
0.0
 40
0.0
 40
0.0
 40
0.1628907319286032
 40
0.327290867155269
 40
0.4932011295877941
 40
0.6606222485026955
 40
0.8295549585906741
 40
1.0
 40
1.0
 40
1.0
 40
1.0
 10
-311.2583364446818
 20
324.7104035495829
 30
0.0
 10
-310.7829428016607
 20
324.5279166743356
 30
0.0
 10
-309.8277503495042
 20
324.1612519357281
 30
0.0
 10
-308.385974827819
 20
323.6078038839714
 30
0.0
 10
-306.9292582508674
 20
323.048621948024
 30
0.0
 10
-305.4573833468617
 20
322.4836229252132
 30
0.0
 10
-303.9705527072463
 20
321.9128844169873
 30
0.0
 10
-302.9734134885863
 20
321.5301192390904
 30
0.0
 10
-302.4726221589676
 20
321.3378838132004
 30
0.0
  0
LINE
  5
123
330
1F
100
AcDbEntity
  8
0
  6
Continuous
 62
     7
370
    15
100
AcDbLine
 10
-316.0583369621
 20
321.3378873537
 30
0.0
 11
-316.0583369621
 21
332.0134964654
 31
0.0
  0
LINE
  5
124
330
1F
100
AcDbEntity
  8
0
  6
Continuous
 62
     7
370
    15
100
AcDbLine
 10
-319.6154788324
 20
321.3378873537
 30
0.0
 11
-316.0583369621
 21
321.3378873537
 31
0.0
  0
LINE
  5
125
330
1F
100
AcDbEntity
  8
0
  6
Continuous
 62
     7
370
    15
100
AcDbLine
 10
-319.6154788324
 20
334.4521683524
 30
0.0
 11
-319.6154788324
 21
321.3378873537
 31
0.0
  0
SPLINE
  5
126
330
1F
100
AcDbEntity
  8
0
  6
Continuous
 62
     7
370
    15
100
AcDbSpline
210
0.0
220
0.0
230
1.0
 70
     8
 71
     3
 72
    14
 73
    10
 74
     0
 42
0.00000001
 43
0.00000001
 12
1.0
 22
0.0
 32
0.0
 13
1.0
 23
0.0
 33
0.0
 40
0.0
 40
0.0
 40
0.0
 40
0.0
 40
0.1278888158708131
 40
0.2538824235890478
 40
0.3779798939342404
 40
0.5001803131483408
 40
0.6696313387930525
 40
0.8362385089564706
 40
0.9999999999999999
 40
0.9999999999999999
 40
0.9999999999999999
 40
0.9999999999999999
 10
-307.6154793018246
 20
339.3378838132004
 30
0.0
 10
-308.1290723274241
 20
339.128778356019
 30
0.0
 10
-309.148647348037
 20
338.7136662143244
 30
0.0
 10
-310.6646551129755
 20
338.0964354506543
 30
0.0
 10
-312.1563972567836
 20
337.4890824227849
 30
0.0
 10
-313.820479145054
 20
336.811561887522
 30
0.0
 10
-315.6522703978777
 20
336.0657630452226
 30
0.0
 10
-317.6472773324825
 20
335.2535100922469
 30
0.0
 10
-318.9631902486141
 20
334.7177447511821
 30
0.0
 10
-319.6154793018247
 20
334.452169527486
 30
0.0
  0
SPLINE
  5
127
330
1F
100
AcDbEntity
  8
0
  6
Continuous
 62
     7
370
    15
100
AcDbSpline
210
0.0
220
0.0
230
1.0
 70
     8
 71
     3
 72
    14
 73
    10
 74
     0
 42
0.00000001
 43
0.00000001
 12
1.0
 22
0.0
 32
0.0
 13
1.0
 23
0.0
 33
0.0
 40
0.0
 40
0.0
 40
0.0
 40
0.0
 40
0.1234706191228022
 40
0.2479221512587178
 40
0.3733551330369726
 40
0.4997701038662209
 40
0.6645781293651878
 40
0.831320969312263
 40
0.9999999999999999
 40
0.9999999999999999
 40
0.9999999999999999
 40
0.9999999999999999
 10
-319.6154793018247
 20
344.2235980989146
 30
0.0
 10
-319.1243762221951
 20
344.023648798373
 30
0.0
 10
-318.1382684918169
 20
343.6221616989712
 30
0.0
 10
-316.6502505778299
 20
343.0163253480885
 30
0.0
 10
-315.1483355120656
 20
342.4048318438836
 30
0.0
 10
-313.4827733407351
 20
341.726711021051
 30
0.0
 10
-311.6488940612086
 20
340.9800589732561
 30
0.0
 10
-309.642267302427
 20
340.1630751971919
 30
0.0
 10
-308.2936701847494
 20
339.6140040947122
 30
0.0
 10
-307.6154793018246
 20
339.3378838132003
 30
0.0
  0
LINE
  5
128
330
1F
100
AcDbEntity
  8
0
  6
Continuous
 62
     7
370
    15
100
AcDbLine
 10
-319.6154788324
 20
357.3378858039
 30
0.0
 11
-319.6154788324
 21
344.2235973546
 31
0.0
  0
LINE
  5
129
330
1F
100
AcDbEntity
  8
0
  6
Continuous
 62
     7
370
    15
100
AcDbLine
 10
-316.0583369621
 20
357.3378858039
 30
0.0
 11
-319.6154788324
 21
357.3378858039
 31
0.0
  0
LINE
  5
12A
330
1F
100
AcDbEntity
  8
0
  6
Continuous
 62
     7
370
    15
100
AcDbLine
 10
-316.0583369621
 20
346.6622766921
 30
0.0
 11
-316.0583369621
 21
357.3378858039
 31
0.0
  0
SPLINE
  5
12B
330
1F
100
AcDbEntity
  8
0
  6
Continuous
 62
     7
370
    15
100
AcDbSpline
210
0.0
220
0.0
230
1.0
 70
     8
 71
     3
 72
    15
 73
    11
 74
     0
 42
0.00000001
 43
0.00000001
 12
1.0
 22
0.0
 32
0.0
 13
1.0
 23
0.0
 33
0.0
 40
0.0
 40
0.0
 40
0.0
 40
0.0
 40
0.1017520596976088
 40
0.202651802971588
 40
0.302699635534071
 40
0.401895960334327
 40
0.5002411775811939
 40
0.6689190732682907
 40
0.835504782817209
 40
1.0
 40
1.0
 40
1.0
 40
1.0
 10
-302.4726221589676
 20
341.1309482951085
 30
0.0
 10
-302.9359470589502
 20
341.3195875049813
 30
0.0
 10
-303.8587158620796
 20
341.6952858063762
 30
0.0
 10
-305.2351490419253
 20
342.2556897356912
 30
0.0
 10
-306.5985378608005
 20
342.8107838028337
 30
0.0
 10
-307.9487464751037
 20
343.3605125322558
 30
0.0
 10
-309.6084225088755
 20
344.0362389282506
 30
0.0
 10
-311.5702322388535
 20
344.8349738911905
 30
0.0
 10
-313.8268782177508
 20
345.7537512363315
 30
0.0
 10
-315.3176546943984
 20
346.3607111064267
 30
0.0
 10
-316.0583364446819
 20
346.6622748257208
 30
0.0
  0
LINE
  5
12C
330
1F
100
AcDbEntity
  8
0
  6
Continuous
 62
     7
370
    15
100
AcDbLine
 10
-302.4726204762
 20
337.5448224018
 30
0.0
 11
-302.4726204762
 21
341.1309507558
 31
0.0
  0
SPLINE
  5
12D
330
1F
100
AcDbEntity
  8
0
  6
Continuous
 62
     7
370
    15
100
AcDbSpline
210
0.0
220
0.0
230
1.0
 70
     8
 71
     3
 72
    15
 73
    11
 74
     0
 42
0.00000001
 43
0.00000001
 12
1.0
 22
0.0
 32
0.0
 13
1.0
 23
0.0
 33
0.0
 40
0.0
 40
0.0
 40
0.0
 40
0.0
 40
0.0973849640653203
 40
0.1960598193048086
 40
0.2960240110342348
 40
0.3972769763981912
 40
0.4998181443941033
 40
0.6621018973290732
 40
0.8288302710526546
 40
1.0
 40
1.0
 40
1.0
 40
1.0
 10
-316.0583364446818
 20
332.01349280068
 30
0.0
 10
-315.619297916321
 20
332.1922444721932
 30
0.0
 10
-314.7354056711021
 20
332.5521154312646
 30
0.0
 10
-313.3991183989995
 20
333.0961767540457
 30
0.0
 10
-312.0441230481242
 20
333.6478533930721
 30
0.0
 10
-310.6702889285258
 20
334.2071988242305
 30
0.0
 10
-309.0130353614866
 20
334.8819359853757
 30
0.0
 10
-307.0569832475906
 20
335.6783323400212
 30
0.0
 10
-304.7869094030618
 20
336.6025763065811
 30
0.0
 10
-303.2507815626341
 20
337.2279981276627
 30
0.0
 10
-302.4726221589675
 20
337.5448193312922
 30
0.0
  0
LINE
  5
12E
330
1F
100
AcDbEntity
  8
0
  6
Continuous
 62
     7
370
    15
100
AcDbLine
 10
-414.8717887887
 20
445.0835150549
 30
0.0
 11
-414.8717887887
 21
435.0835245917
 31
0.0
  0
LINE
  5
12F
330
1F
100
AcDbEntity
  8
0
  6
Continuous
 62
     7
370
    15
100
AcDbLine
 10
-403.9256192931
 20
445.0835150549
 30
0.0
 11
-403.9256192931
 21
435.0835245917
 31
0.0
  0
LINE
  5
130
330
1F
100
AcDbEntity
  8
0
  6
Continuous
 62
     7
370
    15
100
AcDbLine
 10
-414.8717887887
 20
445.0835150549
 30
0.0
 11
-403.9256192931
 21
445.0835150549
 31
0.0
  0
LINE
  5
131
330
1F
100
AcDbEntity
  8
0
  6
Continuous
 62
     7
370
    15
100
AcDbLine
 10
-397.8312082776
 20
445.0835150549
 30
0.0
 11
-397.8312082776
 21
435.0835245917
 31
0.0
  0
LINE
  5
132
330
1F
100
AcDbEntity
  8
0
  6
Continuous
 62
     7
370
    15
100
AcDbLine
 10
-403.9256192931
 20
445.0835150549
 30
0.0
 11
-397.8312082776
 21
445.0835150549
 31
0.0
  0
SPLINE
  5
133
330
1F
100
AcDbEntity
  8
0
  6
Continuous
 62
     7
370
    15
100
AcDbSpline
210
0.0
220
0.0
230
1.0
 70
     8
 71
     3
 72
    25
 73
    21
 74
     0
 42
0.00000001
 43
0.00000001
 12
1.0
 22
0.0
 32
0.0
 13
1.0
 23
0.0
 33
0.0
 40
0.0
 40
0.0
 40
0.0
 40
0.0
 40
0.0360225674829559
 40
0.0719476814586231
 40
0.1256827561068819
 40
0.1881991578506913
 40
0.2505873724671177
 40
0.312894840564481
 40
0.3751583823958439
 40
0.4374062010639405
 40
0.4996599390617488
 40
0.5619367646706549
 40
0.6242514720398109
 40
0.6866185839274874
 40
0.7490544488845255
 40
0.81157932503277
 40
0.8742194405677748
 40
0.9370090168206525
 40
0.9685121270094342
 40
1.0
 40
1.0
 40
1.0
 40
1.0
 10
-307.9047370354284
 20
352.3873487902769
 30
0.0
 10
-307.9189742898171
 20
352.4509856324726
 30
0.0
 10
-307.9474102818961
 20
352.5780871571904
 30
0.0
 10
-308.0074279603352
 20
352.7973727202664
 30
0.0
 10
-308.0914889524275
 20
353.0592749353775
 30
0.0
 10
-308.2083410650316
 20
353.3599258433233
 30
0.0
 10
-308.3501150986236
 20
353.6662541834344
 30
0.0
 10
-308.5102579879842
 20
353.9623397928617
 30
0.0
 10
-308.6879512706696
 20
354.24738272861
 30
0.0
 10
-308.8824134825102
 20
354.5205762578224
 30
0.0
 10
-309.0928547943735
 20
354.7811149753818
 30
0.0
 10
-309.3184891850885
 20
355.0281922144108
 30
0.0
 10
-309.5585308065106
 20
355.2610011860403
 30
0.0
 10
-309.812196050334
 20
355.4787320949405
 30
0.0
 10
-310.0786985568262
 20
355.6805817674459
 30
0.0
 10
-310.3572667280617
 20
355.8657172503382
 30
0.0
 10
-310.6470779985177
 20
356.033411418668
 30
0.0
 10
-310.8973089104014
 20
356.1576192542502
 30
0.0
 10
-311.1020162108302
 20
356.247857059444
 30
0.0
 10
-311.2062381036465
 20
356.2888305799959
 30
0.0
 10
-311.2583364446819
 20
356.3093123846289
 30
0.0
  0
SPLINE
  5
134
330
1F
100
AcDbEntity
  8
0
  6
Continuous
 62
     7
370
    15
100
AcDbSpline
210
0.0
220
0.0
230
1.0
 70
     8
 71
     3
 72
    11
 73
     7
 74
     0
 42
0.00000001
 43
0.00000001
 12
1.0
 22
0.0
 32
0.0
 13
1.0
 23
0.0
 33
0.0
 40
0.0
 40
0.0
 40
0.0
 40
0.0
 40
0.2599539836152767
 40
0.5132746759148503
 40
0.7599580031371089
 40
1.0
 40
1.0
 40
1.0
 40
1.0
 10
-302.4726221589676
 20
356.4807409560575
 30
0.0
 10
-302.943720461339
 20
356.1257435436679
 30
0.0
 10
-303.8738959682146
 20
355.4248072500176
 30
0.0
 10
-305.2502483262883
 20
354.3876537089276
 30
0.0
 10
-306.5899520381683
 20
353.3781121887322
 30
0.0
 10
-307.4704802835205
 20
352.7145853317791
 30
0.0
 10
-307.9047370354284
 20
352.3873487902769
 30
0.0
  0
LINE
  5
135
330
1F
100
AcDbEntity
  8
0
  6
Continuous
 62
     7
370
    15
100
AcDbLine
 10
-302.4726204762
 20
352.0267170737
 30
0.0
 11
-302.4726204762
 21
356.4807412097
 31
0.0
  0
SPLINE
  5
136
330
1F
100
AcDbEntity
  8
0
  6
Continuous
 62
     7
370
    15
100
AcDbSpline
210
0.0
220
0.0
230
1.0
 70
     8
 71
     3
 72
    11
 73
     7
 74
     0
 42
0.00000001
 43
0.00000001
 12
1.0
 22
0.0
 32
0.0
 13
1.0
 23
0.0
 33
0.0
 40
0.0
 40
0.0
 40
0.0
 40
0.0
 40
0.2410180236787671
 40
0.4880261529232962
 40
0.7410212251716606
 40
1.0
 40
1.0
 40
1.0
 40
1.0
 10
-307.2752183216778
 20
348.4076997540547
 30
0.0
 10
-306.8896803879533
 20
348.6982238063692
 30
0.0
 10
-306.1090226108719
 20
349.2864924072756
 30
0.0
 10
-304.9229789279829
 20
350.1802418972795
 30
0.0
 10
-303.707725716124
 20
351.0959994119745
 30
0.0
 10
-302.8875187387705
 20
351.7140689338114
 30
0.0
 10
-302.4726221589676
 20
352.0267155434732
 30
0.0
  0
SPLINE
  5
137
330
1F
100
AcDbEntity
  8
0
  6
Continuous
 62
     7
370
    15
100
AcDbSpline
210
0.0
220
0.0
230
1.0
 70
     8
 71
     3
 72
    11
 73
     7
 74
     0
 42
0.00000001
 43
0.00000001
 12
1.0
 22
0.0
 32
0.0
 13
1.0
 23
0.0
 33
0.0
 40
0.0
 40
0.0
 40
0.0
 40
0.0
 40
0.2528606295573773
 40
0.5038136435344966
 40
0.7528598369722684
 40
1.0
 40
1.0
 40
1.0
 40
1.0
 10
-302.4726221589675
 20
346.4523570306655
 30
0.0
 10
-302.8780865020299
 20
346.6174388375254
 30
0.0
 10
-303.6859563090424
 20
346.9463570512501
 30
0.0
 10
-304.8916950090493
 20
347.4372646680118
 30
0.0
 10
-306.0872706525832
 20
347.9240350290039
 30
0.0
 10
-306.8802511398147
 20
348.2468915817843
 30
0.0
 10
-307.2752183216779
 20
348.4076997540547
 30
0.0
  0
SPLINE
  5
138
330
1F
100
AcDbEntity
  8
0
  6
Continuous
 62
     7
370
    15
100
AcDbSpline
210
0.0
220
0.0
230
1.0
 70
     8
 71
     3
 72
    14
 73
    10
 74
     0
 42
0.00000001
 43
0.00000001
 12
1.0
 22
0.0
 32
0.0
 13
1.0
 23
0.0
 33
0.0
 40
0.0
 40
0.0
 40
0.0
 40
0.0
 40
0.1233311439114368
 40
0.2477389344225999
 40
0.3732239552708969
 40
0.4997867938762204
 40
0.6643799475103656
 40
0.8311171769142539
 40
1.0
 40
1.0
 40
1.0
 40
1.0
 10
-314.6869078732533
 20
347.58464730085
 30
0.0
 10
-314.1873763299798
 20
347.3812663958298
 30
0.0
 10
-313.1839524719321
 20
346.9727291270293
 30
0.0
 10
-311.6694465061185
 20
346.3561082837267
 30
0.0
 10
-310.1397944667228
 20
345.733321927118
 30
0.0
 10
-308.4444438762284
 20
345.0430730688179
 30
0.0
 10
-306.5782630701891
 20
344.2832694983389
 30
0.0
 10
-304.5363435827437
 20
343.4519165731833
 30
0.0
 10
-303.1634548915113
 20
342.892955401383
 30
0.0
 10
-302.4726221589676
 20
342.6116881171766
 30
0.0
  0
LINE
  5
139
330
1F
100
AcDbEntity
  8
0
  6
Continuous
 62
     7
370
    15
100
AcDbLine
 10
-314.6869085917
 20
351.4253136585
 30
0.0
 11
-314.6869085917
 21
347.5846436689
 31
0.0
  0
SPLINE
  5
13A
330
1F
100
AcDbEntity
  8
0
  6
Continuous
 62
     7
370
    15
100
AcDbSpline
210
0.0
220
0.0
230
1.0
 70
     8
 71
     3
 72
    11
 73
     7
 74
     0
 42
0.00000001
 43
0.00000001
 12
1.0
 22
0.0
 32
0.0
 13
1.0
 23
0.0
 33
0.0
 40
0.0
 40
0.0
 40
0.0
 40
0.0
 40
0.2523394446967346
 40
0.5031188432377616
 40
0.7523388208580689
 40
0.9999999999999999
 40
0.9999999999999999
 40
0.9999999999999999
 40
0.9999999999999999
 10
-310.23262398919
 20
349.611786347256
 30
0.0
 10
-310.60796783372
 20
349.7646048269964
 30
0.0
 10
-311.3563350226203
 20
350.069297011941
 30
0.0
 10
-312.4738965259713
 20
350.5243039949148
 30
0.0
 10
-313.5834900370108
 20
350.9760672633091
 30
0.0
 10
-314.3198719785406
 20
351.2758800848202
 30
0.0
 10
-314.6869078732533
 20
351.4253162143389
 30
0.0
  0
SPLINE
  5
13B
330
1F
100
AcDbEntity
  8
0
  6
Continuous
 62
     7
370
    15
100
AcDbSpline
210
0.0
220
0.0
230
1.0
 70
     8
 71
     3
 72
    27
 73
    23
 74
     0
 42
0.00000001
 43
0.00000001
 12
1.0
 22
0.0
 32
0.0
 13
1.0
 23
0.0
 33
0.0
 40
0.0
 40
0.0
 40
0.0
 40
0.0
 40
0.0314349107928228
 40
0.0629309717760786
 40
0.0942375624557056
 40
0.125622041675115
 40
0.1881320929872769
 40
0.2505305231393248
 40
0.3128577363686746
 40
0.3751533722333386
 40
0.4374675670103454
 40
0.4998721544434815
 40
0.5623103045497495
 40
0.6246995910834251
 40
0.6870768237151833
 40
0.7494664751723208
 40
0.8118944466668321
 40
0.8744018139969347
 40
0.9370584354069021
 40
0.9621951512110231
 40
0.9810616892305002
 40
1.0
 40
1.0
 40
1.0
 40
1.0
 10
-314.6869078732533
 20
353.9093123846289
 30
0.0
 10
-314.6157804850574
 20
353.9083087589803
 30
0.0
 10
-314.4733873448778
 20
353.9062995553346
 30
0.0
 10
-314.260783392232
 20
353.8901689619731
 30
0.0
 10
-314.0493404730934
 20
353.8645881577295
 30
0.0
 10
-313.7703108085082
 20
353.8169260612743
 30
0.0
 10
-313.4266960656515
 20
353.7327726337504
 30
0.0
 10
-313.0263207350233
 20
353.5936269048311
 30
0.0
 10
-312.6408974656414
 20
353.4176606554517
 30
0.0
 10
-312.2734654727664
 20
353.2061387321514
 30
0.0
 10
-311.9270686639825
 20
352.9603068287081
 30
0.0
 10
-311.6049631547257
 20
352.6817231998582
 30
0.0
 10
-311.3110025365343
 20
352.3721230651233
 30
0.0
 10
-311.0479059266556
 20
352.0348084366585
 30
0.0
 10
-310.8176709521111
 20
351.6732406988309
 30
0.0
 10
-310.6221778630713
 20
351.2905487190069
 30
0.0
 10
-310.4632818104995
 20
350.8898627576039
 30
0.0
 10
-310.3429094112138
 20
350.4743425756564
 30
0.0
 10
-310.2789058971553
 20
350.1328392408293
 30
0.0
 10
-310.2505000134768
 20
349.8879929279935
 30
0.0
 10
-310.2384814142135
 20
349.7429374893719
 30
0.0
 10
-310.2345789338259
 20
349.6555586910326
 30
0.0
 10
-310.23262398919
 20
349.611786347256
 30
0.0
  0
LINE
  5
13C
330
1F
100
AcDbEntity
  8
0
  6
Continuous
 62
     7
370
    15
100
AcDbLine
 10
-314.6869085917
 20
357.3378858039
 30
0.0
 11
-314.6869085917
 21
353.9093148777
 31
0.0
  0
LINE
  5
13D
330
1F
100
AcDbEntity
  8
0
  6
Continuous
 62
     7
370
    15
100
AcDbLine
 10
-311.2583376655
 20
357.3378858039
 30
0.0
 11
-314.6869085917
 21
357.3378858039
 31
0.0
  0
LINE
  5
13E
330
1F
100
AcDbEntity
  8
0
  6
Continuous
 62
     7
370
    15
100
AcDbLine
 10
-311.2583376655
 20
356.3093108008
 30
0.0
 11
-311.2583376655
 21
357.3378858039
 31
0.0
  0
LINE
  5
13F
330
1F
100
AcDbEntity
  8
0
  6
Continuous
 62
     7
370
    15
100
AcDbLine
 10
-302.4726204762
 20
342.6116865942
 30
0.0
 11
-302.4726204762
 21
346.4523565838
 31
0.0
  0
LINE
  5
140
330
1F
100
AcDbEntity
  8
0
  6
Continuous
 62
     7
370
    15
100
AcDbLine
 10
-419.7235323676
 20
445.0835150549
 30
0.0
 11
-419.7235323676
 21
435.0835245917
 31
0.0
  0
LINE
  5
141
330
1F
100
AcDbEntity
  8
0
  6
Continuous
 62
     7
370
    15
100
AcDbLine
 10
-419.7235323676
 20
445.0835150549
 30
0.0
 11
-414.8717887887
 21
445.0835150549
 31
0.0
  0
LINE
  5
142
330
1F
100
AcDbEntity
  8
0
  6
Continuous
 62
     7
370
    15
100
AcDbLine
 10
-87.0141007194
 20
432.5835120747
 30
0.0
 11
-87.0141007194
 21
431.814329035
 31
0.0
  0
LINE
  5
143
330
1F
100
AcDbEntity
  8
0
  6
Continuous
 62
     7
370
    15
100
AcDbLine
 10
-432.0672817716
 20
431.814329035
 30
0.0
 11
-480.8201708087
 21
431.814329035
 31
0.0
  0
LINE
  5
144
330
1F
100
AcDbEntity
  8
0
  6
Continuous
 62
     7
370
    15
100
AcDbLine
 10
-480.8201708087
 20
432.5835120747
 30
0.0
 11
-480.8201708087
 21
431.814329035
 31
0.0
  0
LINE
  5
145
330
1F
100
AcDbEntity
  8
0
  6
Continuous
 62
     7
370
    15
100
AcDbLine
 10
-57.9687722215
 20
435.5835181544
 30
0.0
 11
-203.2121151873
 21
435.5835181544
 31
0.0
  0
LINE
  5
146
330
1F
100
AcDbEntity
  8
0
  6
Continuous
 62
     7
370
    15
100
AcDbLine
 10
-223.9871092328
 20
435.5835181544
 30
0.0
 11
-397.8312082776
 21
435.5835181544
 31
0.0
  0
LINE
  5
147
330
1F
100
AcDbEntity
  8
0
  6
Continuous
 62
     7
370
    15
100
AcDbLine
 10
-419.7235323676
 20
435.5835181544
 30
0.0
 11
-488.8152398356
 21
435.5835181544
 31
0.0
  0
LINE
  5
148
330
1F
100
AcDbEntity
  8
0
  6
Continuous
 62
     7
370
    15
100
AcDbLine
 10
-400.7773764619
 20
451.583520777
 30
0.0
 11
-416.7773641833
 21
451.583520777
 31
0.0
  0
LINE
  5
149
330
1F
100
AcDbEntity
  8
0
  6
Continuous
 62
     7
370
    15
100
AcDbLine
 10
-400.7773764619
 20
452.0835143397
 30
0.0
 11
-416.7773641833
 21
452.0835143397
 31
0.0
  0
LINE
  5
14A
330
1F
100
AcDbEntity
  8
0
  6
Continuous
 62
     7
370
    15
100
AcDbLine
 10
-402.2773720511
 20
463.5835152934
 30
0.0
 11
-415.2773685941
 21
463.5835152934
 31
0.0
  0
LINE
  5
14B
330
1F
100
AcDbEntity
  8
0
  6
Continuous
 62
     7
370
    15
100
AcDbLine
 10
-440.6363584289
 20
239.5835193223
 30
0.0
 11
-483.7340630778
 21
239.5835193223
 31
0.0
  0
LINE
  5
14C
330
1F
100
AcDbEntity
  8
0
  6
Continuous
 62
     7
370
    15
100
AcDbLine
 10
-44.8964156398
 20
239.5835193223
 30
0.0
 11
-87.9941202888
 21
239.5835193223
 31
0.0
  0
LINE
  5
14D
330
1F
100
AcDbEntity
  8
0
  6
Continuous
 62
     7
370
    15
100
AcDbLine
 10
-404.4659502992
 20
239.5835193223
 30
0.0
 11
-417.4709089288
 21
239.5835193223
 31
0.0
  0
LINE
  5
14E
330
1F
100
AcDbEntity
  8
0
  6
Continuous
 62
     7
370
    15
100
AcDbLine
 10
-89.8914851436
 20
243.5835192794
 30
0.0
 11
-89.8914851436
 21
239.5835193223
 31
0.0
  0
LINE
  5
14F
330
1F
100
AcDbEntity
  8
0
  6
Continuous
 62
     7
370
    15
100
AcDbLine
 10
-96.1050905475
 20
239.5835193223
 30
0.0
 11
-89.8914851436
 21
239.5835193223
 31
0.0
  0
LINE
  5
150
330
1F
100
AcDbEntity
  8
0
  6
Continuous
 62
     7
370
    15
100
AcDbLine
 10
-417.4709089288
 20
239.5835193223
 30
0.0
 11
-440.6363584289
 21
239.5835193223
 31
0.0
  0
LINE
  5
151
330
1F
100
AcDbEntity
  8
0
  6
Continuous
 62
     7
370
    15
100
AcDbLine
 10
-87.9941202888
 20
239.5835193223
 30
0.0
 11
-89.8914851436
 21
239.5835193223
 31
0.0
  0
LINE
  5
152
330
1F
100
AcDbEntity
  8
0
  6
Continuous
 62
     7
370
    15
100
AcDbLine
 10
-388.8707302698
 20
402.5835257838
 30
0.0
 11
-402.7773656138
 21
402.5835257838
 31
0.0
  0
LINE
  5
153
330
1F
100
AcDbEntity
  8
0
  6
Continuous
 62
     7
370
    15
100
AcDbLine
 10
-414.7773750314
 20
402.5835257838
 30
0.0
 11
-415.4777594098
 21
402.5835257838
 31
0.0
  0
LINE
  5
154
330
1F
100
AcDbEntity
  8
0
  6
Continuous
 62
     7
370
    15
100
AcDbLine
 10
-124.1645284185
 20
239.5835193223
 30
0.0
 11
-124.1645284185
 21
243.5835192794
 31
0.0
  0
LINE
  5
155
330
1F
100
AcDbEntity
  8
0
  6
Continuous
 62
     7
370
    15
100
AcDbLine
 10
-119.6050860175
 20
239.5835193223
 30
0.0
 11
-124.1645284185
 21
239.5835193223
 31
0.0
  0
LWPOLYLINE
  5
156
330
1F
100
AcDbEntity
  8
0
  6
Continuous
 62
     7
370
    15
100
AcDbPolyline
 90
        3
 70
   128
 43
0.0
 10
-505.5985666999
 20
422.6400715182
 10
-504.8185952195
 20
407.4971538851
 10
-504.5655138978
 20
402.5835257838
  0
LINE
  5
157
330
1F
100
AcDbEntity
  8
0
  6
Continuous
 62
     7
370
    15
100
AcDbLine
 10
-429.9442239293
 20
422.6400715182
 30
0.0
 11
-505.5985666999
 21
422.6400715182
 31
0.0
  0
LINE
  5
158
330
1F
100
AcDbEntity
  8
0
  6
Continuous
 62
     7
370
    15
100
AcDbLine
 10
-415.4777594098
 20
402.5835257838
 30
0.0
 11
-504.5655138978
 21
402.5835257838
 31
0.0
  0
LWPOLYLINE
  5
159
330
1F
100
AcDbEntity
  8
0
  6
Continuous
 62
     7
370
    15
100
AcDbPolyline
 90
        3
 70
   128
 43
0.0
 10
-480.8201708087
 20
431.814329035
 10
-501.8076665887
 20
424.0439397166
 10
-505.5985666999
 20
422.6400715182
  0
LINE
  5
15A
330
1F
100
AcDbEntity
  8
0
  6
Continuous
 62
     7
370
    15
100
AcDbLine
 10
-499.4254328498
 20
239.5835193223
 30
0.0
 11
-483.7340630778
 21
239.5835193223
 31
0.0
  0
LINE
  5
15B
330
1F
100
AcDbEntity
  8
0
  6
Continuous
 62
     7
370
    15
100
AcDbLine
 10
-37.3334653863
 20
425.58351279
 30
0.0
 11
-42.0558072814
 21
425.58351279
 31
0.0
  0
LINE
  5
15C
330
1F
100
AcDbEntity
  8
0
  6
Continuous
 62
     7
370
    15
100
AcDbLine
 10
-37.3334653863
 20
425.58351279
 30
0.0
 11
-60.4067512044
 21
404.2090189526
 31
0.0
  0
LINE
  5
15D
330
1F
100
AcDbEntity
  8
0
  6
Continuous
 62
     7
370
    15
100
AcDbLine
 10
-60.4067512044
 20
404.2090189526
 30
0.0
 11
-54.1303821096
 21
404.2090189526
 31
0.0
  0
LINE
  5
15E
330
1F
100
AcDbEntity
  8
0
  6
Continuous
 62
     7
370
    15
100
AcDbLine
 10
-28.9999164828
 20
425.58351279
 30
0.0
 11
-42.1303875932
 21
413.4197843144
 31
0.0
  0
LINE
  5
15F
330
1F
100
AcDbEntity
  8
0
  6
Continuous
 62
     7
370
    15
100
AcDbLine
 10
-24.2775596866
 20
425.58351279
 30
0.0
 11
-28.9999164828
 21
425.58351279
 31
0.0
  0
LINE
  5
160
330
1F
100
AcDbEntity
  8
0
  6
Continuous
 62
     7
370
    15
100
AcDbLine
 10
-24.2775596866
 20
425.58351279
 30
0.0
 11
-42.1303875932
 21
409.0451312134
 31
0.0
  0
ELLIPSE
  5
161
330
1F
100
AcDbEntity
  8
0
  6
Continuous
 62
     7
370
    15
100
AcDbEllipse
 10
-256.2924878691
 20
218.8855085261
 30
0.0
 11
233.717169291828
 21
171.0692508704573
 31
0.0
210
0.0
220
0.0
230
1.0
 40
0.2912141143
 41
0.3523825903487738
 42
0.4457034790778645
  0
LINE
  5
162
330
1F
100
AcDbEntity
  8
0
  6
Continuous
 62
     7
370
    15
100
AcDbLine
 10
-42.0558072814
 20
425.58351279
 30
0.0
 11
-66.883794237
 21
402.5835257838
 31
0.0
  0
LINE
  5
163
330
1F
100
AcDbEntity
  8
0
  6
Continuous
 62
     7
370
    15
100
AcDbLine
 10
-24.2775596866
 20
432.5835120747
 30
0.0
 11
-42.0558072814
 21
432.5835120747
 31
0.0
  0
LINE
  5
164
330
1F
100
AcDbEntity
  8
0
  6
Continuous
 62
     7
370
    15
100
AcDbLine
 10
-24.2775596866
 20
425.58351279
 30
0.0
 11
-24.2775596866
 21
432.5835120747
 31
0.0
  0
LINE
  5
165
330
1F
100
AcDbEntity
  8
0
  6
Continuous
 62
     7
370
    15
100
AcDbLine
 10
-28.9999164828
 20
425.58351279
 30
0.0
 11
-37.3334653863
 21
425.58351279
 31
0.0
  0
LINE
  5
166
330
1F
100
AcDbEntity
  8
0
  6
Continuous
 62
     7
370
    15
100
AcDbLine
 10
-42.0558072814
 20
425.58351279
 30
0.0
 11
-42.0558072814
 21
432.5835120747
 31
0.0
  0
LINE
  5
167
330
1F
100
AcDbEntity
  8
0
  6
Continuous
 62
     7
370
    15
100
AcDbLine
 10
-87.0141007194
 20
432.5835120747
 30
0.0
 11
-42.0558072814
 21
432.5835120747
 31
0.0
  0
LINE
  5
168
330
1F
100
AcDbEntity
  8
0
  6
Continuous
 62
     7
370
    15
100
AcDbLine
 10
-36.1303754338
 20
435.0835245917
 30
0.0
 11
-60.1303793677
 21
435.0835245917
 31
0.0
  0
LINE
  5
169
330
1F
100
AcDbEntity
  8
0
  6
Continuous
 62
     7
370
    15
100
AcDbLine
 10
-48.8478310594
 20
445.0835150549
 30
0.0
 11
-48.8478310594
 21
435.0835245917
 31
0.0
  0
LINE
  5
16A
330
1F
100
AcDbEntity
  8
0
  6
Continuous
 62
     7
370
    15
100
AcDbLine
 10
-48.8478310594
 20
445.0835150549
 30
0.0
 11
-39.0094436893
 21
445.0835150549
 31
0.0
  0
LINE
  5
16B
330
1F
100
AcDbEntity
  8
0
  6
Continuous
 62
     7
370
    15
100
AcDbLine
 10
-39.0094436893
 20
445.0835150549
 30
0.0
 11
-39.0094436893
 21
435.0835245917
 31
0.0
  0
LINE
  5
16C
330
1F
100
AcDbEntity
  8
0
  6
Continuous
 62
     7
370
    15
100
AcDbLine
 10
-57.9687722215
 20
445.0835150549
 30
0.0
 11
-57.9687722215
 21
435.0835245917
 31
0.0
  0
LINE
  5
16D
330
1F
100
AcDbEntity
  8
0
  6
Continuous
 62
     7
370
    15
100
AcDbLine
 10
-57.9687722215
 20
445.0835150549
 30
0.0
 11
-48.8478310594
 21
445.0835150549
 31
0.0
  0
LINE
  5
16E
330
1F
100
AcDbEntity
  8
0
  6
Continuous
 62
     7
370
    15
100
AcDbLine
 10
-40.1303835401
 20
452.0835143397
 30
0.0
 11
-56.1303861627
 21
452.0835143397
 31
0.0
  0
LINE
  5
16F
330
1F
100
AcDbEntity
  8
0
  6
Continuous
 62
     7
370
    15
100
AcDbLine
 10
-40.1303835401
 20
451.583520777
 30
0.0
 11
-56.1303861627
 21
451.583520777
 31
0.0
  0
LINE
  5
170
330
1F
100
AcDbEntity
  8
0
  6
Continuous
 62
     7
370
    15
100
AcDbLine
 10
-54.1303821096
 20
402.5835257838
 30
0.0
 11
-66.883794237
 21
402.5835257838
 31
0.0
  0
LINE
  5
171
330
1F
100
AcDbEntity
  8
0
  6
Continuous
 62
     7
370
    15
100
AcDbLine
 10
-41.6303791293
 20
463.5835152934
 30
0.0
 11
-54.6303756723
 21
463.5835152934
 31
0.0
  0
LINE
  5
172
330
1F
100
AcDbEntity
  8
0
  6
Continuous
 62
     7
370
    15
100
AcDbLine
 10
-38.2919974813
 20
445.0835150549
 30
0.0
 11
-38.2919974813
 21
435.0835245917
 31
0.0
  0
LINE
  5
173
330
1F
100
AcDbEntity
  8
0
  6
Continuous
 62
     7
370
    15
100
AcDbLine
 10
-39.0094436893
 20
445.0835150549
 30
0.0
 11
-38.2919974813
 21
445.0835150549
 31
0.0
  0
LINE
  5
174
330
1F
100
AcDbEntity
  8
0
  6
Continuous
 62
     7
370
    15
100
AcDbLine
 10
-507.4574269542
 20
239.5835193223
 30
0.0
 11
-499.4254328498
 21
239.5835193223
 31
0.0
  0
LINE
  5
175
330
1F
100
AcDbEntity
  8
0
  6
Continuous
 62
     7
370
    15
100
AcDbLine
 10
-507.4574269542
 20
239.5835193223
 30
0.0
 11
-507.4574269542
 21
243.5835192794
 31
0.0
  0
LINE
  5
176
330
1F
100
AcDbEntity
  8
0
  6
Continuous
 62
     7
370
    15
100
AcDbLine
 10
-509.643397499
 20
239.5835193223
 30
0.0
 11
-542.2627248057
 21
239.5835193223
 31
0.0
  0
LINE
  5
177
330
1F
100
AcDbEntity
  8
0
  6
Continuous
 62
     7
370
    15
100
AcDbLine
 10
13.6322460881
 20
239.5835193223
 30
0.0
 11
-18.9870812186
 21
239.5835193223
 31
0.0
  0
LINE
  5
178
330
1F
100
AcDbEntity
  8
0
  6
Continuous
 62
     7
370
    15
100
AcDbLine
 10
-18.9870812186
 20
239.5835193223
 30
0.0
 11
-44.8964156398
 21
239.5835193223
 31
0.0
  0
LINE
  5
179
330
1F
100
AcDbEntity
  8
0
  6
Continuous
 62
     7
370
    15
100
AcDbLine
 10
-507.4574269542
 20
239.5835193223
 30
0.0
 11
-509.643397499
 21
239.5835193223
 31
0.0
  0
LINE
  5
17A
330
1F
100
AcDbEntity
  8
0
  6
Continuous
 62
     7
370
    15
100
AcDbLine
 10
-14.6091647634
 20
422.6400715182
 30
0.0
 11
-27.4549491891
 21
422.6400715182
 31
0.0
  0
LINE
  5
17B
330
1F
100
AcDbEntity
  8
0
  6
Continuous
 62
     7
370
    15
100
AcDbLine
 10
-15.660292674
 20
402.5835257838
 30
0.0
 11
-42.1303875932
 21
402.5835257838
 31
0.0
  0
LINE
  5
17C
330
1F
100
AcDbEntity
  8
0
  6
Continuous
 62
     7
370
    15
100
AcDbLine
 10
-538.4367324599
 20
425.58351279
 30
0.0
 11
-540.0949932822
 21
425.58351279
 31
0.0
  0
LINE
  5
17D
330
1F
100
AcDbEntity
  8
0
  6
Continuous
 62
     7
370
    15
100
AcDbLine
 10
-538.4367324599
 20
425.58351279
 30
0.0
 11
-525.3311611899
 21
415.2911764452
 31
0.0
  0
LINE
  5
17E
330
1F
100
AcDbEntity
  8
0
  6
Continuous
 62
     7
370
    15
100
AcDbLine
 10
-513.3311666736
 20
405.8670711586
 30
0.0
 11
-511.2199403533
 21
404.2090189526
 31
0.0
  0
LINE
  5
17F
330
1F
100
AcDbEntity
  8
0
  6
Continuous
 62
     7
370
    15
100
AcDbLine
 10
-511.2199403533
 20
404.2090189526
 30
0.0
 11
-508.2935758123
 21
404.2090189526
 31
0.0
  0
LINE
  5
180
330
1F
100
AcDbEntity
  8
0
  6
Continuous
 62
     7
370
    15
100
AcDbLine
 10
-535.51038282
 20
425.58351279
 30
0.0
 11
-508.2935758123
 21
404.2090189526
 31
0.0
  0
LINE
  5
181
330
1F
100
AcDbEntity
  8
0
  6
Continuous
 62
     7
370
    15
100
AcDbLine
 10
-533.8520921954
 20
425.58351279
 30
0.0
 11
-535.51038282
 21
425.58351279
 31
0.0
  0
LINE
  5
182
330
1F
100
AcDbEntity
  8
0
  6
Continuous
 62
     7
370
    15
100
AcDbLine
 10
-533.8520921954
 20
425.58351279
 30
0.0
 11
-504.5655138978
 21
402.5835257838
 31
0.0
  0
ELLIPSE
  5
183
330
1F
100
AcDbEntity
  8
0
  6
Continuous
 62
     7
370
    15
100
AcDbEllipse
 10
-273.7787199876
 20
218.8855085261
 30
0.0
 11
238.3880210446258
 21
-182.7107238657697
 31
0.0
210
0.0
220
0.0
230
1.0
 40
0.0950925561
 41
2.951110767055837
 42
3.085196071938181
  0
LINE
  5
184
330
1F
100
AcDbEntity
  8
0
  6
Continuous
 62
     7
370
    15
100
AcDbLine
 10
-540.0949932822
 20
425.58351279
 30
0.0
 11
-525.3311611899
 21
413.9888596604
 31
0.0
  0
LINE
  5
185
330
1F
100
AcDbEntity
  8
0
  6
Continuous
 62
     7
370
    15
100
AcDbLine
 10
-513.3311666736
 20
404.5647543738
 30
0.0
 11
-510.8084000835
 21
402.5835257838
 31
0.0
  0
LINE
  5
186
330
1F
100
AcDbEntity
  8
0
  6
Continuous
 62
     7
370
    15
100
AcDbLine
 10
-533.8520921954
 20
432.5835120747
 30
0.0
 11
-540.0949932822
 21
432.5835120747
 31
0.0
  0
LINE
  5
187
330
1F
100
AcDbEntity
  8
0
  6
Continuous
 62
     7
370
    15
100
AcDbLine
 10
-533.8520921954
 20
425.58351279
 30
0.0
 11
-533.8520921954
 21
432.5835120747
 31
0.0
  0
LINE
  5
188
330
1F
100
AcDbEntity
  8
0
  6
Continuous
 62
     7
370
    15
100
AcDbLine
 10
-535.51038282
 20
425.58351279
 30
0.0
 11
-538.4367324599
 21
425.58351279
 31
0.0
  0
LINE
  5
189
330
1F
100
AcDbEntity
  8
0
  6
Continuous
 62
     7
370
    15
100
AcDbLine
 10
-540.0949932822
 20
425.58351279
 30
0.0
 11
-540.0949932822
 21
432.5835120747
 31
0.0
  0
LINE
  5
18A
330
1F
100
AcDbEntity
  8
0
  6
Continuous
 62
     7
370
    15
100
AcDbLine
 10
-480.8201708087
 20
432.5835120747
 30
0.0
 11
-533.8520921954
 21
432.5835120747
 31
0.0
  0
LINE
  5
18B
330
1F
100
AcDbEntity
  8
0
  6
Continuous
 62
     7
370
    15
100
AcDbLine
 10
-504.5655138978
 20
402.5835257838
 30
0.0
 11
-510.8084000835
 21
402.5835257838
 31
0.0
  0
LINE
  5
18C
330
1F
100
AcDbEntity
  8
0
  6
Continuous
 62
     7
370
    15
100
AcDbLine
 10
-507.3311694154
 20
435.0835245917
 30
0.0
 11
-531.3311733493
 21
435.0835245917
 31
0.0
  0
LINE
  5
18D
330
1F
100
AcDbEntity
  8
0
  6
Continuous
 62
     7
370
    15
100
AcDbLine
 10
-522.8572406062
 20
445.0835150549
 30
0.0
 11
-522.8572406062
 21
435.0835245917
 31
0.0
  0
LINE
  5
18E
330
1F
100
AcDbEntity
  8
0
  6
Continuous
 62
     7
370
    15
100
AcDbLine
 10
-522.8572406062
 20
445.0835150549
 30
0.0
 11
-512.0983787068
 21
445.0835150549
 31
0.0
  0
LINE
  5
18F
330
1F
100
AcDbEntity
  8
0
  6
Continuous
 62
     7
370
    15
100
AcDbLine
 10
-512.0983787068
 20
445.0835150549
 30
0.0
 11
-512.0983787068
 21
435.0835245917
 31
0.0
  0
LINE
  5
190
330
1F
100
AcDbEntity
  8
0
  6
Continuous
 62
     7
370
    15
100
AcDbLine
 10
-530.0900556335
 20
445.0835150549
 30
0.0
 11
-530.0900556335
 21
435.0835245917
 31
0.0
  0
LINE
  5
191
330
1F
100
AcDbEntity
  8
0
  6
Continuous
 62
     7
370
    15
100
AcDbLine
 10
-530.0900556335
 20
445.0835150549
 30
0.0
 11
-522.8572406062
 21
445.0835150549
 31
0.0
  0
LINE
  5
192
330
1F
100
AcDbEntity
  8
0
  6
Continuous
 62
     7
370
    15
100
AcDbLine
 10
-508.5723020324
 20
445.0835150549
 30
0.0
 11
-508.5723020324
 21
435.0835245917
 31
0.0
  0
LINE
  5
193
330
1F
100
AcDbEntity
  8
0
  6
Continuous
 62
     7
370
    15
100
AcDbLine
 10
-512.0983787068
 20
445.0835150549
 30
0.0
 11
-508.5723020324
 21
445.0835150549
 31
0.0
  0
LINE
  5
194
330
1F
100
AcDbEntity
  8
0
  6
Continuous
 62
     7
370
    15
100
AcDbLine
 10
-511.3311775216
 20
452.0835143397
 30
0.0
 11
-527.3311652431
 21
452.0835143397
 31
0.0
  0
LINE
  5
195
330
1F
100
AcDbEntity
  8
0
  6
Continuous
 62
     7
370
    15
100
AcDbLine
 10
-511.3311775216
 20
451.583520777
 30
0.0
 11
-527.3311652431
 21
451.583520777
 31
0.0
  0
LINE
  5
196
330
1F
100
AcDbEntity
  8
0
  6
Continuous
 62
     7
370
    15
100
AcDbLine
 10
-512.8311731109
 20
463.5835152934
 30
0.0
 11
-525.831184555
 21
463.5835152934
 31
0.0
  0
LINE
  5
197
330
1F
100
AcDbEntity
  8
0
  6
Continuous
 62
     7
370
    15
100
AcDbLine
 10
-511.2199403533
 20
404.2090189526
 30
0.0
 11
-511.2199403533
 21
406.5072101424
 31
0.0
  0
LINE
  5
198
330
1F
100
AcDbEntity
  8
0
  6
Continuous
 62
     7
370
    15
100
AcDbLine
 10
-510.8084000835
 20
402.5835257838
 30
0.0
 11
-512.9701860436
 21
402.5835257838
 31
0.0
  0
LINE
  5
199
330
1F
100
AcDbEntity
  8
0
  6
Continuous
 62
     7
370
    15
100
AcDbLine
 10
-542.2627248057
 20
239.5835193223
 30
0.0
 11
-562.8152407893
 21
239.5835193223
 31
0.0
  0
LINE
  5
19A
330
1F
100
AcDbEntity
  8
0
  6
Continuous
 62
     7
370
    15
100
AcDbLine
 10
34.1847620717
 20
239.5835193223
 30
0.0
 11
13.6322460881
 21
239.5835193223
 31
0.0
  0
LINE
  5
19B
330
1F
100
AcDbEntity
  8
0
  6
Continuous
 62
     7
370
    15
100
AcDbLine
 10
11.4645145646
 20
425.58351279
 30
0.0
 11
11.4645145646
 21
432.5835120747
 31
0.0
  0
LINE
  5
19C
330
1F
100
AcDbEntity
  8
0
  6
Continuous
 62
     7
370
    15
100
AcDbLine
 10
11.4645145646
 20
425.58351279
 30
0.0
 11
-15.5674882421
 21
404.3541413615
 31
0.0
  0
LINE
  5
19D
330
1F
100
AcDbEntity
  8
0
  6
Continuous
 62
     7
370
    15
100
AcDbLine
 10
-24.2775596866
 20
432.5835120747
 30
0.0
 11
11.4645145646
 21
432.5835120747
 31
0.0
  0
LINE
  5
19E
330
1F
100
AcDbEntity
  8
0
  6
Continuous
 62
     7
370
    15
100
AcDbLine
 10
-21.0687287339
 20
435.0835245917
 30
0.0
 11
-21.2993093022
 21
435.0835245917
 31
0.0
  0
LINE
  5
19F
330
1F
100
AcDbEntity
  8
0
  6
Continuous
 62
     7
370
    15
100
AcDbLine
 10
2.7006946317
 20
435.0835245917
 30
0.0
 11
-21.0687287339
 21
435.0835245917
 31
0.0
  0
LINE
  5
1A0
330
1F
100
AcDbEntity
  8
0
  6
Continuous
 62
     7
370
    15
100
AcDbLine
 10
-20.0581766852
 20
445.0835150549
 30
0.0
 11
-20.0581766852
 21
435.0835245917
 31
0.0
  0
LINE
  5
1A1
330
1F
100
AcDbEntity
  8
0
  6
Continuous
 62
     7
370
    15
100
AcDbLine
 10
-20.0581766852
 20
445.0835150549
 30
0.0
 11
-12.8253914603
 21
445.0835150549
 31
0.0
  0
LINE
  5
1A2
330
1F
100
AcDbEntity
  8
0
  6
Continuous
 62
     7
370
    15
100
AcDbLine
 10
-12.8253914603
 20
445.0835150549
 30
0.0
 11
-12.8253914603
 21
435.0835245917
 31
0.0
  0
LINE
  5
1A3
330
1F
100
AcDbEntity
  8
0
  6
Continuous
 62
     7
370
    15
100
AcDbLine
 10
-2.0665146598
 20
445.0835150549
 30
0.0
 11
-2.0665146598
 21
435.0835245917
 31
0.0
  0
LINE
  5
1A4
330
1F
100
AcDbEntity
  8
0
  6
Continuous
 62
     7
370
    15
100
AcDbLine
 10
-12.8253914603
 20
445.0835150549
 30
0.0
 11
-2.0665146598
 21
445.0835150549
 31
0.0
  0
LINE
  5
1A5
330
1F
100
AcDbEntity
  8
0
  6
Continuous
 62
     7
370
    15
100
AcDbLine
 10
1.4595769158
 20
445.0835150549
 30
0.0
 11
1.4595769158
 21
435.0835245917
 31
0.0
  0
LINE
  5
1A6
330
1F
100
AcDbEntity
  8
0
  6
Continuous
 62
     7
370
    15
100
AcDbLine
 10
-2.0665146598
 20
445.0835150549
 30
0.0
 11
1.4595769158
 21
445.0835150549
 31
0.0
  0
LINE
  5
1A7
330
1F
100
AcDbEntity
  8
0
  6
Continuous
 62
     7
370
    15
100
AcDbLine
 10
-17.1455957183
 20
452.0835143397
 30
0.0
 11
-17.299301196
 21
452.0835143397
 31
0.0
  0
LINE
  5
1A8
330
1F
100
AcDbEntity
  8
0
  6
Continuous
 62
     7
370
    15
100
AcDbLine
 10
-1.2993134746
 20
452.0835143397
 30
0.0
 11
-17.1455957183
 21
452.0835143397
 31
0.0
  0
LINE
  5
1A9
330
1F
100
AcDbEntity
  8
0
  6
Continuous
 62
     7
370
    15
100
AcDbLine
 10
-17.1455957183
 20
451.583520777
 30
0.0
 11
-17.299301196
 21
451.583520777
 31
0.0
  0
LINE
  5
1AA
330
1F
100
AcDbEntity
  8
0
  6
Continuous
 62
     7
370
    15
100
AcDbLine
 10
-1.2993134746
 20
451.583520777
 30
0.0
 11
-17.1455957183
 21
451.583520777
 31
0.0
  0
LINE
  5
1AB
330
1F
100
AcDbEntity
  8
0
  6
Continuous
 62
     7
370
    15
100
AcDbLine
 10
-15.6744189748
 20
463.5835152934
 30
0.0
 11
-15.7993056068
 21
463.5835152934
 31
0.0
  0
LINE
  5
1AC
330
1F
100
AcDbEntity
  8
0
  6
Continuous
 62
     7
370
    15
100
AcDbLine
 10
-2.7992941627
 20
463.5835152934
 30
0.0
 11
-15.6744189748
 21
463.5835152934
 31
0.0
  0
LINE
  5
1AD
330
1F
100
AcDbEntity
  8
0
  6
Continuous
 62
     7
370
    15
100
AcDbLine
 10
-488.8152398356
 20
435.0835245917
 30
0.0
 11
-492.5001032838
 21
435.0835245917
 31
0.0
  0
LINE
  5
1AE
330
1F
100
AcDbEntity
  8
0
  6
Continuous
 62
     7
370
    15
100
AcDbLine
 10
-481.2175400743
 20
445.0835150549
 30
0.0
 11
-481.2175400743
 21
435.5835181544
 31
0.0
  0
LINE
  5
1AF
330
1F
100
AcDbEntity
  8
0
  6
Continuous
 62
     7
370
    15
100
AcDbLine
 10
-471.3791676053
 20
445.0835150549
 30
0.0
 11
-471.3791676053
 21
435.5835181544
 31
0.0
  0
LINE
  5
1B0
330
1F
100
AcDbEntity
  8
0
  6
Continuous
 62
     7
370
    15
100
AcDbLine
 10
-481.2175400743
 20
445.0835150549
 30
0.0
 11
-471.3791676053
 21
445.0835150549
 31
0.0
  0
LINE
  5
1B1
330
1F
100
AcDbEntity
  8
0
  6
Continuous
 62
     7
370
    15
100
AcDbLine
 10
-490.3384812364
 20
445.0835150549
 30
0.0
 11
-490.3384812364
 21
435.0835245917
 31
0.0
  0
LINE
  5
1B2
330
1F
100
AcDbEntity
  8
0
  6
Continuous
 62
     7
370
    15
100
AcDbLine
 10
-490.3384812364
 20
445.0835150549
 30
0.0
 11
-481.2175400743
 21
445.0835150549
 31
0.0
  0
LINE
  5
1B3
330
1F
100
AcDbEntity
  8
0
  6
Continuous
 62
     7
370
    15
100
AcDbLine
 10
-473.8483347186
 20
451.583520777
 30
0.0
 11
-488.5000951776
 21
451.583520777
 31
0.0
  0
LINE
  5
1B4
330
1F
100
AcDbEntity
  8
0
  6
Continuous
 62
     7
370
    15
100
AcDbLine
 10
-472.500092555
 20
451.583520777
 30
0.0
 11
-473.8483347186
 21
451.583520777
 31
0.0
  0
LINE
  5
1B5
330
1F
100
AcDbEntity
  8
0
  6
Continuous
 62
     7
370
    15
100
AcDbLine
 10
-473.8483347186
 20
452.0835143397
 30
0.0
 11
-488.5000951776
 21
452.0835143397
 31
0.0
  0
LINE
  5
1B6
330
1F
100
AcDbEntity
  8
0
  6
Continuous
 62
     7
370
    15
100
AcDbLine
 10
-472.500092555
 20
452.0835143397
 30
0.0
 11
-473.8483347186
 21
452.0835143397
 31
0.0
  0
LINE
  5
1B7
330
1F
100
AcDbEntity
  8
0
  6
Continuous
 62
     7
370
    15
100
AcDbLine
 10
-475.0955470094
 20
463.5835152934
 30
0.0
 11
-487.0000995883
 21
463.5835152934
 31
0.0
  0
LINE
  5
1B8
330
1F
100
AcDbEntity
  8
0
  6
Continuous
 62
     7
370
    15
100
AcDbLine
 10
-474.0001030454
 20
463.5835152934
 30
0.0
 11
-475.0955470094
 21
463.5835152934
 31
0.0
  0
LINE
  5
1B9
330
1F
100
AcDbEntity
  8
0
  6
Continuous
 62
     7
370
    15
100
AcDbLine
 10
-470.6617064961
 20
445.0835150549
 30
0.0
 11
-470.6617064961
 21
435.5835181544
 31
0.0
  0
LINE
  5
1BA
330
1F
100
AcDbEntity
  8
0
  6
Continuous
 62
     7
370
    15
100
AcDbLine
 10
-471.3791676053
 20
445.0835150549
 30
0.0
 11
-470.6617064961
 21
445.0835150549
 31
0.0
  0
LINE
  5
1BB
330
1F
100
AcDbEntity
  8
0
  6
Continuous
 62
     7
370
    15
100
AcDbLine
 10
-115.0013573655
 20
445.0835150549
 30
0.0
 11
-115.0013573655
 21
435.5835181544
 31
0.0
  0
LINE
  5
1BC
330
1F
100
AcDbEntity
  8
0
  6
Continuous
 62
     7
370
    15
100
AcDbLine
 10
-108.90694635
 20
445.0835150549
 30
0.0
 11
-108.90694635
 21
435.5835181544
 31
0.0
  0
LINE
  5
1BD
330
1F
100
AcDbEntity
  8
0
  6
Continuous
 62
     7
370
    15
100
AcDbLine
 10
-115.0013573655
 20
445.0835150549
 30
0.0
 11
-108.90694635
 21
445.0835150549
 31
0.0
  0
LINE
  5
1BE
330
1F
100
AcDbEntity
  8
0
  6
Continuous
 62
     7
370
    15
100
AcDbLine
 10
-125.9475268611
 20
445.0835150549
 30
0.0
 11
-125.9475268611
 21
435.5835181544
 31
0.0
  0
LINE
  5
1BF
330
1F
100
AcDbEntity
  8
0
  6
Continuous
 62
     7
370
    15
100
AcDbLine
 10
-125.9475268611
 20
445.0835150549
 30
0.0
 11
-115.0013573655
 21
445.0835150549
 31
0.0
  0
LINE
  5
1C0
330
1F
100
AcDbEntity
  8
0
  6
Continuous
 62
     7
370
    15
100
AcDbLine
 10
-130.79927044
 20
445.0835150549
 30
0.0
 11
-130.79927044
 21
435.5835181544
 31
0.0
  0
LINE
  5
1C1
330
1F
100
AcDbEntity
  8
0
  6
Continuous
 62
     7
370
    15
100
AcDbLine
 10
-130.79927044
 20
445.0835150549
 30
0.0
 11
-125.9475268611
 21
445.0835150549
 31
0.0
  0
LINE
  5
1C2
330
1F
100
AcDbEntity
  8
0
  6
Continuous
 62
     7
370
    15
100
AcDbLine
 10
-124.2976702937
 20
451.583520777
 30
0.0
 11
-127.8531022557
 21
451.583520777
 31
0.0
  0
LINE
  5
1C3
330
1F
100
AcDbEntity
  8
0
  6
Continuous
 62
     7
370
    15
100
AcDbLine
 10
-111.8531145343
 20
451.583520777
 30
0.0
 11
-124.2976702937
 21
451.583520777
 31
0.0
  0
LINE
  5
1C4
330
1F
100
AcDbEntity
  8
0
  6
Continuous
 62
     7
370
    15
100
AcDbLine
 10
-124.2976702937
 20
452.0835143397
 30
0.0
 11
-127.8531022557
 21
452.0835143397
 31
0.0
  0
LINE
  5
1C5
330
1F
100
AcDbEntity
  8
0
  6
Continuous
 62
     7
370
    15
100
AcDbLine
 10
-111.8531145343
 20
452.0835143397
 30
0.0
 11
-124.2976702937
 21
452.0835143397
 31
0.0
  0
LINE
  5
1C6
330
1F
100
AcDbEntity
  8
0
  6
Continuous
 62
     7
370
    15
100
AcDbLine
 10
-123.4643079528
 20
463.5835152934
 30
0.0
 11
-126.3531066665
 21
463.5835152934
 31
0.0
  0
LINE
  5
1C7
330
1F
100
AcDbEntity
  8
0
  6
Continuous
 62
     7
370
    15
100
AcDbLine
 10
-113.3531101235
 20
463.5835152934
 30
0.0
 11
-123.4643079528
 21
463.5835152934
 31
0.0
  0
LINE
  5
1C8
330
1F
100
AcDbEntity
  8
0
  6
Continuous
 62
     7
370
    15
100
AcDbLine
 10
-312.8907934019
 20
445.0835150549
 30
0.0
 11
-312.8907934019
 21
435.5835181544
 31
0.0
  0
LINE
  5
1C9
330
1F
100
AcDbEntity
  8
0
  6
Continuous
 62
     7
370
    15
100
AcDbLine
 10
-304.6433694848
 20
445.0835150549
 30
0.0
 11
-304.6433694848
 21
435.5835181544
 31
0.0
  0
LINE
  5
1CA
330
1F
100
AcDbEntity
  8
0
  6
Continuous
 62
     7
370
    15
100
AcDbLine
 10
-312.8907934019
 20
445.0835150549
 30
0.0
 11
-304.6433694848
 21
445.0835150549
 31
0.0
  0
LINE
  5
1CB
330
1F
100
AcDbEntity
  8
0
  6
Continuous
 62
     7
370
    15
100
AcDbLine
 10
-323.278288562
 20
445.0835150549
 30
0.0
 11
-323.278288562
 21
435.5835181544
 31
0.0
  0
LINE
  5
1CC
330
1F
100
AcDbEntity
  8
0
  6
Continuous
 62
     7
370
    15
100
AcDbLine
 10
-323.278288562
 20
445.0835150549
 30
0.0
 11
-312.8907934019
 21
445.0835150549
 31
0.0
  0
LINE
  5
1CD
330
1F
100
AcDbEntity
  8
0
  6
Continuous
 62
     7
370
    15
100
AcDbLine
 10
-313.4701430985
 20
451.583520777
 30
0.0
 11
-323.0308659562
 21
451.583520777
 31
0.0
  0
LINE
  5
1CE
330
1F
100
AcDbEntity
  8
0
  6
Continuous
 62
     7
370
    15
100
AcDbLine
 10
-307.0308670589
 20
451.583520777
 30
0.0
 11
-313.4701430985
 21
451.583520777
 31
0.0
  0
LINE
  5
1CF
330
1F
100
AcDbEntity
  8
0
  6
Continuous
 62
     7
370
    15
100
AcDbLine
 10
-313.4701430985
 20
452.0835143397
 30
0.0
 11
-323.0308659562
 21
452.0835143397
 31
0.0
  0
LINE
  5
1D0
330
1F
100
AcDbEntity
  8
0
  6
Continuous
 62
     7
370
    15
100
AcDbLine
 10
-307.0308670589
 20
452.0835143397
 30
0.0
 11
-313.4701430985
 21
452.0835143397
 31
0.0
  0
LINE
  5
1D1
330
1F
100
AcDbEntity
  8
0
  6
Continuous
 62
     7
370
    15
100
AcDbLine
 10
-325.4183635303
 20
445.0835150549
 30
0.0
 11
-325.4183635303
 21
435.5835181544
 31
0.0
  0
LINE
  5
1D2
330
1F
100
AcDbEntity
  8
0
  6
Continuous
 62
     7
370
    15
100
AcDbLine
 10
-325.4183635303
 20
445.0835150549
 30
0.0
 11
-323.278288562
 21
445.0835150549
 31
0.0
  0
LINE
  5
1D3
330
1F
100
AcDbEntity
  8
0
  6
Continuous
 62
     7
370
    15
100
AcDbLine
 10
-313.7627795526
 20
463.5835152934
 30
0.0
 11
-321.5308666417
 21
463.5835152934
 31
0.0
  0
LINE
  5
1D4
330
1F
100
AcDbEntity
  8
0
  6
Continuous
 62
     7
370
    15
100
AcDbLine
 10
-308.5308663734
 20
463.5835152934
 30
0.0
 11
-313.7627795526
 21
463.5835152934
 31
0.0
  0
LINE
  5
1D5
330
1F
100
AcDbEntity
  8
0
  6
Continuous
 62
     8
370
     0
100
AcDbLine
 10
-236.6847668031
 20
239.5835193223
 30
0.0
 11
-236.6847668031
 21
243.5835192794
 31
0.0
  0
LINE
  5
1D6
330
1F
100
AcDbEntity
  8
0
  6
Continuous
 62
     8
370
     0
100
AcDbLine
 10
-291.9457119146
 20
239.5835193223
 30
0.0
 11
-291.9457119146
 21
243.5835192794
 31
0.0
  0
LINE
  5
1D7
330
1F
100
AcDbEntity
  8
0
  6
Continuous
 62
     8
370
     0
100
AcDbLine
 10
-230.0730899164
 20
239.5835193223
 30
0.0
 11
-230.0730899164
 21
243.5835192794
 31
0.0
  0
LINE
  5
1D8
330
1F
100
AcDbEntity
  8
0
  6
Continuous
 62
     8
370
     0
100
AcDbLine
 10
-344.7860397586
 20
239.5835193223
 30
0.0
 11
-344.7860397586
 21
243.5835192794
 31
0.0
  0
LINE
  5
1D9
330
1F
100
AcDbEntity
  8
0
  6
Continuous
 62
     8
370
     0
100
AcDbLine
 10
-183.844438959
 20
239.5835193223
 30
0.0
 11
-183.844438959
 21
243.5835192794
 31
0.0
  0
LINE
  5
1DA
330
1F
100
AcDbEntity
  8
0
  6
Continuous
 62
     8
370
     0
100
AcDbLine
 10
-340.0168709644
 20
243.5835192794
 30
0.0
 11
-340.0168709644
 21
239.5835193223
 31
0.0
  0
LINE
  5
1DB
330
1F
100
AcDbEntity
  8
0
  6
Continuous
 62
     8
370
     0
100
AcDbLine
 10
-199.9597095141
 20
239.5835193223
 30
0.0
 11
-199.9597095141
 21
243.5835192794
 31
0.0
  0
LINE
  5
1DC
330
1F
100
AcDbEntity
  8
0
  6
Continuous
 62
     8
370
     0
100
AcDbLine
 10
-22.3152406701
 20
400.5835217307
 30
0.0
 11
-42.1303875932
 21
400.5835217307
 31
0.0
  0
LINE
  5
1DD
330
1F
100
AcDbEntity
  8
0
  6
Continuous
 62
     8
370
     0
100
AcDbLine
 10
-54.1303821096
 20
400.5835217307
 30
0.0
 11
-207.5996130892
 21
400.5835217307
 31
0.0
  0
LINE
  5
1DE
330
1F
100
AcDbEntity
  8
0
  6
Continuous
 62
     8
370
     0
100
AcDbLine
 10
-219.5996113309
 20
400.5835217307
 30
0.0
 11
-402.7773656138
 21
400.5835217307
 31
0.0
  0
LINE
  5
1DF
330
1F
100
AcDbEntity
  8
0
  6
Continuous
 62
     8
370
     0
100
AcDbLine
 10
-414.7773750314
 20
400.5835217307
 30
0.0
 11
-506.3152380475
 21
400.5835217307
 31
0.0
  0
LINE
  5
1E0
330
1F
100
AcDbEntity
  8
0
  6
Continuous
 62
     8
370
     0
100
AcDbLine
 10
-22.3152406701
 20
399.1021674941
 30
0.0
 11
-42.1303875932
 21
399.1021674941
 31
0.0
  0
LINE
  5
1E1
330
1F
100
AcDbEntity
  8
0
  6
Continuous
 62
     8
370
     0
100
AcDbLine
 10
-54.1303821096
 20
399.1021674941
 30
0.0
 11
-207.5996130892
 21
399.1021674941
 31
0.0
  0
LINE
  5
1E2
330
1F
100
AcDbEntity
  8
0
  6
Continuous
 62
     8
370
     0
100
AcDbLine
 10
-219.5996113309
 20
399.1021674941
 30
0.0
 11
-402.7773656138
 21
399.1021674941
 31
0.0
  0
LINE
  5
1E3
330
1F
100
AcDbEntity
  8
0
  6
Continuous
 62
     8
370
     0
100
AcDbLine
 10
-414.7773750314
 20
399.1021674941
 30
0.0
 11
-506.3152380475
 21
399.1021674941
 31
0.0
  0
LINE
  5
1E4
330
1F
100
AcDbEntity
  8
0
  6
Continuous
 62
     8
370
     0
100
AcDbLine
 10
-23.3868725785
 20
396.8040210078
 30
0.0
 11
-42.1303875932
 21
396.8040210078
 31
0.0
  0
LINE
  5
1E5
330
1F
100
AcDbEntity
  8
0
  6
Continuous
 62
     8
370
     0
100
AcDbLine
 10
-54.1303821096
 20
396.8040210078
 30
0.0
 11
-207.5996130892
 21
396.8040210078
 31
0.0
  0
LINE
  5
1E6
330
1F
100
AcDbEntity
  8
0
  6
Continuous
 62
     8
370
     0
100
AcDbLine
 10
-219.5996113309
 20
396.8040210078
 30
0.0
 11
-402.7773656138
 21
396.8040210078
 31
0.0
  0
LINE
  5
1E7
330
1F
100
AcDbEntity
  8
0
  6
Continuous
 62
     8
370
     0
100
AcDbLine
 10
-414.7773750314
 20
396.8040210078
 30
0.0
 11
-505.2436061391
 21
396.8040210078
 31
0.0
  0
LINE
  5
1E8
330
1F
100
AcDbEntity
  8
0
  6
Continuous
 62
     8
370
     0
100
AcDbLine
 10
-37.8636487016
 20
384.6565795014
 30
0.0
 11
-42.1303875932
 21
384.6565795014
 31
0.0
  0
LINE
  5
1E9
330
1F
100
AcDbEntity
  8
0
  6
Continuous
 62
     8
370
     0
100
AcDbLine
 10
-54.1303821096
 20
384.6565795014
 30
0.0
 11
-207.5996130892
 21
384.6565795014
 31
0.0
  0
LINE
  5
1EA
330
1F
100
AcDbEntity
  8
0
  6
Continuous
 62
     8
370
     0
100
AcDbLine
 10
-219.5996113309
 20
384.6565795014
 30
0.0
 11
-402.7773656138
 21
384.6565795014
 31
0.0
  0
LINE
  5
1EB
330
1F
100
AcDbEntity
  8
0
  6
Continuous
 62
     8
370
     0
100
AcDbLine
 10
-414.7773750314
 20
384.6565795014
 30
0.0
 11
-490.766830016
 21
384.6565795014
 31
0.0
  0
LINE
  5
1EC
330
1F
100
AcDbEntity
  8
0
  6
Continuous
 62
     8
370
     0
100
AcDbLine
 10
-96.1050905475
 20
243.5835192794
 30
0.0
 11
-96.1050905475
 21
239.5835193223
 31
0.0
  0
LINE
  5
1ED
330
1F
100
AcDbEntity
  8
0
  6
Continuous
 62
     8
370
     0
100
AcDbLine
 10
-39.6375276336
 20
380.4775786469
 30
0.0
 11
-42.1303875932
 21
380.4775786469
 31
0.0
  0
LINE
  5
1EE
330
1F
100
AcDbEntity
  8
0
  6
Continuous
 62
     8
370
     0
100
AcDbLine
 10
-54.1303821096
 20
380.4775786469
 30
0.0
 11
-207.5996130892
 21
380.4775786469
 31
0.0
  0
LINE
  5
1EF
330
1F
100
AcDbEntity
  8
0
  6
Continuous
 62
     8
370
     0
100
AcDbLine
 10
-219.5996113309
 20
380.4775786469
 30
0.0
 11
-402.7773656138
 21
380.4775786469
 31
0.0
  0
LINE
  5
1F0
330
1F
100
AcDbEntity
  8
0
  6
Continuous
 62
     8
370
     0
100
AcDbLine
 10
-414.7773750314
 20
380.4775786469
 30
0.0
 11
-488.992951084
 21
380.4775786469
 31
0.0
  0
LINE
  5
1F1
330
1F
100
AcDbEntity
  8
0
  6
Continuous
 62
     8
370
     0
100
AcDbLine
 10
-343.2086102852
 20
295.5835175583
 30
0.0
 11
-343.2086102852
 21
265.5835200915
 31
0.0
  0
LINE
  5
1F2
330
1F
100
AcDbEntity
  8
0
  6
Continuous
 62
     8
370
     0
100
AcDbLine
 10
-271.3828419523
 20
295.5835175583
 30
0.0
 11
-271.3828419523
 21
265.5835200915
 31
0.0
  0
LINE
  5
1F3
330
1F
100
AcDbEntity
  8
0
  6
Continuous
 62
     8
370
     0
100
AcDbLine
 10
-257.2476367654
 20
295.5835175583
 30
0.0
 11
-257.2476367654
 21
265.5835200915
 31
0.0
  0
LINE
  5
1F4
330
1F
100
AcDbEntity
  8
0
  6
Continuous
 62
     8
370
     0
100
AcDbLine
 10
-185.4218684324
 20
295.5835175583
 30
0.0
 11
-185.4218684324
 21
265.5835200915
 31
0.0
  0
LINE
  5
1F5
330
1F
100
AcDbEntity
  8
0
  6
Continuous
 62
     8
370
     0
100
AcDbLine
 10
-440.6363584289
 20
239.5835193223
 30
0.0
 11
-440.6363584289
 21
243.5835192794
 31
0.0
  0
LINE
  5
1F6
330
1F
100
AcDbEntity
  8
0
  6
Continuous
 62
     8
370
     0
100
AcDbLine
 10
-87.9941202888
 20
239.5835193223
 30
0.0
 11
-87.9941202888
 21
243.5835192794
 31
0.0
  0
LINE
  5
1F7
330
1F
100
AcDbEntity
  8
0
  6
Continuous
 62
     8
370
     0
100
AcDbLine
 10
-417.4709089288
 20
239.5835193223
 30
0.0
 11
-417.4709089288
 21
243.5835192794
 31
0.0
  0
LINE
  5
1F8
330
1F
100
AcDbEntity
  8
0
  6
Continuous
 62
     8
370
     0
100
AcDbLine
 10
-356.2678389439
 20
295.5835175583
 30
0.0
 11
-356.2678389439
 21
265.5835200915
 31
0.0
  0
LINE
  5
1F9
330
1F
100
AcDbEntity
  8
0
  6
Continuous
 62
     8
370
     0
100
AcDbLine
 10
-172.3626397738
 20
295.5835175583
 30
0.0
 11
-172.3626397738
 21
265.5835200915
 31
0.0
  0
LINE
  5
1FA
330
1F
100
AcDbEntity
  8
0
  6
Continuous
 62
     8
370
     0
100
AcDbLine
 10
-417.1587743053
 20
295.5835175583
 30
0.0
 11
-417.1587743053
 21
265.5835200915
 31
0.0
  0
LINE
  5
1FB
330
1F
100
AcDbEntity
  8
0
  6
Continuous
 62
     8
370
     0
100
AcDbLine
 10
-111.4717044124
 20
295.5835175583
 30
0.0
 11
-111.4717044124
 21
265.5835200915
 31
0.0
  0
LINE
  5
1FC
330
1F
100
AcDbEntity
  8
0
  6
Continuous
 62
     8
370
     0
100
AcDbLine
 10
-499.4254328498
 20
243.5835192794
 30
0.0
 11
-499.4254328498
 21
239.5835193223
 31
0.0
  0
LINE
  5
1FD
330
1F
100
AcDbEntity
  8
0
  6
Continuous
 62
     8
370
     0
100
AcDbLine
 10
-427.1538771876
 20
295.5835175583
 30
0.0
 11
-427.1538771876
 21
265.5835200915
 31
0.0
  0
LINE
  5
1FE
330
1F
100
AcDbEntity
  8
0
  6
Continuous
 62
     8
370
     0
100
AcDbLine
 10
-101.47660153
 20
295.5835175583
 30
0.0
 11
-101.47660153
 21
265.5835200915
 31
0.0
  0
LINE
  5
1FF
330
1F
100
AcDbEntity
  8
0
  6
Continuous
 62
     8
370
     0
100
AcDbLine
 10
-467.8399034032
 20
295.5835175583
 30
0.0
 11
-467.8399034032
 21
265.5835200915
 31
0.0
  0
LINE
  5
200
330
1F
100
AcDbEntity
  8
0
  6
Continuous
 62
     8
370
     0
100
AcDbLine
 10
-60.7905753144
 20
295.5835175583
 30
0.0
 11
-60.7905753144
 21
265.5835200915
 31
0.0
  0
LINE
  5
201
330
1F
100
AcDbEntity
  8
0
  6
Continuous
 62
     8
370
     0
100
AcDbLine
 10
-509.643397499
 20
239.5835193223
 30
0.0
 11
-509.643397499
 21
243.5835192794
 31
0.0
  0
LINE
  5
202
330
1F
100
AcDbEntity
  8
0
  6
Continuous
 62
     8
370
     0
100
AcDbLine
 10
-18.9870812186
 20
239.5835193223
 30
0.0
 11
-18.9870812186
 21
243.5835192794
 31
0.0
  0
LINE
  5
203
330
1F
100
AcDbEntity
  8
0
  6
Continuous
 62
     8
370
     0
100
AcDbLine
 10
-473.2492186317
 20
295.5835175583
 30
0.0
 11
-473.2492186317
 21
265.5835200915
 31
0.0
  0
LINE
  5
204
330
1F
100
AcDbEntity
  8
0
  6
Continuous
 62
     8
370
     0
100
AcDbLine
 10
-55.381260086
 20
295.5835175583
 30
0.0
 11
-55.381260086
 21
265.5835200915
 31
0.0
  0
LINE
  5
205
330
1F
100
AcDbEntity
  8
0
  6
CENTERX2
 62
     7
370
     0
100
AcDbLine
 10
-264.3152393588
 20
463.0555669332
 30
0.0
 11
-264.3152393588
 21
217.0577614629
 31
0.0
  0
LINE
  5
206
330
1F
100
AcDbEntity
  8
0
  6
Continuous
 62
     7
370
    15
100
AcDbLine
 10
904.9212042131
 20
243.5835192794
 30
0.0
 11
904.9212042131
 21
265.5835200915
 31
0.0
  0
LINE
  5
207
330
1F
100
AcDbEntity
  8
0
  6
Continuous
 62
     7
370
    15
100
AcDbLine
 10
307.9212013521
 20
265.5835200915
 30
0.0
 11
307.9212013521
 21
243.5835192794
 31
0.0
  0
LINE
  5
208
330
1F
100
AcDbEntity
  8
0
  6
Continuous
 62
     7
370
    15
100
AcDbLine
 10
577.8404440619
 20
243.5835192794
 30
0.0
 11
577.8404440619
 21
239.5835193223
 31
0.0
  0
LINE
  5
209
330
1F
100
AcDbEntity
  8
0
  6
Continuous
 62
     7
370
    15
100
AcDbLine
 10
474.5966795721
 20
243.5835192794
 30
0.0
 11
474.5966795721
 21
239.5835193223
 31
0.0
  0
LINE
  5
20A
330
1F
100
AcDbEntity
  8
0
  6
Continuous
 62
     7
370
    15
100
AcDbLine
 10
738.2457259931
 20
239.5835193223
 30
0.0
 11
738.2457259931
 21
243.5835192794
 31
0.0
  0
LINE
  5
20B
330
1F
100
AcDbEntity
  8
0
  6
Continuous
 62
     7
370
    15
100
AcDbLine
 10
669.1368300356
 20
432.5835120747
 30
0.0
 11
669.1368300356
 21
435.0835245917
 31
0.0
  0
LINE
  5
20C
330
1F
100
AcDbEntity
  8
0
  6
Continuous
 62
     7
370
    15
100
AcDbLine
 10
645.136829827
 20
435.0835245917
 30
0.0
 11
645.136829827
 21
432.5835120747
 31
0.0
  0
LINE
  5
20D
330
1F
100
AcDbEntity
  8
0
  6
Continuous
 62
     7
370
    15
100
AcDbLine
 10
665.13682938
 20
451.583520777
 30
0.0
 11
665.13682938
 21
452.0835143397
 31
0.0
  0
LINE
  5
20E
330
1F
100
AcDbEntity
  8
0
  6
Continuous
 62
     7
370
    15
100
AcDbLine
 10
649.1368304827
 20
452.0835143397
 30
0.0
 11
649.1368304827
 21
451.583520777
 31
0.0
  0
LINE
  5
20F
330
1F
100
AcDbEntity
  8
0
  6
Continuous
 62
     7
370
    15
100
AcDbLine
 10
663.6368300654
 20
452.0835143397
 30
0.0
 11
663.6368300654
 21
463.5835152934
 31
0.0
  0
LINE
  5
210
330
1F
100
AcDbEntity
  8
0
  6
Continuous
 62
     7
370
    15
100
AcDbLine
 10
650.6368297972
 20
463.5835152934
 30
0.0
 11
650.6368297972
 21
452.0835143397
 31
0.0
  0
LINE
  5
211
330
1F
100
AcDbEntity
  8
0
  6
Continuous
 62
     7
370
    15
100
AcDbLine
 10
663.1368290522
 20
445.0835150549
 30
0.0
 11
663.1368290522
 21
451.583520777
 31
0.0
  0
LINE
  5
212
330
1F
100
AcDbEntity
  8
0
  6
Continuous
 62
     7
370
    15
100
AcDbLine
 10
651.1368308105
 20
451.583520777
 30
0.0
 11
651.1368308105
 21
445.0835150549
 31
0.0
  0
LINE
  5
213
330
1F
100
AcDbEntity
  8
0
  6
Continuous
 62
     7
370
    15
100
AcDbLine
 10
663.1368290522
 20
265.5835200915
 30
0.0
 11
663.1368290522
 21
425.58351279
 31
0.0
  0
LINE
  5
214
330
1F
100
AcDbEntity
  8
0
  6
Continuous
 62
     7
370
    15
100
AcDbLine
 10
651.1368308105
 20
417.0412582228
 30
0.0
 11
651.1368308105
 21
265.5835200915
 31
0.0
  0
LINE
  5
215
330
1F
100
AcDbEntity
  8
0
  6
Continuous
 62
     7
370
    15
100
AcDbLine
 10
362.9150990285
 20
239.0896189375
 30
0.0
 11
364.4212040939
 21
237.5835192273
 31
0.0
  0
LINE
  5
216
330
1F
100
AcDbEntity
  8
0
  6
Continuous
 62
     7
370
    15
100
AcDbLine
 10
848.4212014713
 20
237.5835192273
 30
0.0
 11
849.9273065366
 21
239.0896189375
 31
0.0
  0
LINE
  5
217
330
1F
100
AcDbEntity
  8
0
  6
Continuous
 62
     7
370
    15
100
AcDbLine
 10
848.4212014713
 20
399.1021674941
 30
0.0
 11
848.4212014713
 21
400.5835217307
 31
0.0
  0
LINE
  5
218
330
1F
100
AcDbEntity
  8
0
  6
Continuous
 62
     7
370
    15
100
AcDbLine
 10
364.4212040939
 20
400.5835217307
 30
0.0
 11
364.4212040939
 21
399.1021674941
 31
0.0
  0
ARC
  5
219
330
1F
100
AcDbEntity
  8
0
  6
Continuous
 62
     7
370
    15
100
AcDbCircle
 10
846.4212027826
 20
400.5835192273
 30
0.0
 40
2.0
100
AcDbArc
 50
0.0
 51
90.0
  0
ARC
  5
21A
330
1F
100
AcDbEntity
  8
0
  6
Continuous
 62
     7
370
    15
100
AcDbCircle
 10
366.4212027826
 20
400.5835192273
 30
0.0
 40
2.0
100
AcDbArc
 50
90.0
 51
180.0
  0
ARC
  5
21B
330
1F
100
AcDbEntity
  8
0
  6
Continuous
 62
     7
370
    15
100
AcDbCircle
 10
845.4212027826
 20
399.1021606861
 30
0.0
 40
3.000000000000016
100
AcDbArc
 50
310.0
 51
0.0
  0
ARC
  5
21C
330
1F
100
AcDbEntity
  8
0
  6
Continuous
 62
     7
370
    15
100
AcDbCircle
 10
367.4212027826
 20
399.1021606861
 30
0.0
 40
3.0
100
AcDbArc
 50
180.0
 51
230.0
  0
LINE
  5
21D
330
1F
100
AcDbEntity
  8
0
  6
Continuous
 62
     7
370
    15
100
AcDbLine
 10
365.4928360023
 20
396.8040210078
 30
0.0
 11
379.9696121253
 21
384.6565795014
 31
0.0
  0
LINE
  5
21E
330
1F
100
AcDbEntity
  8
0
  6
Continuous
 62
     7
370
    15
100
AcDbLine
 10
832.8727934398
 20
384.6565795014
 30
0.0
 11
847.3495695629
 21
396.8040210078
 31
0.0
  0
LINE
  5
21F
330
1F
100
AcDbEntity
  8
0
  6
Continuous
 62
     7
370
    15
100
AcDbLine
 10
837.0352838077
 20
295.5835175583
 30
0.0
 11
831.0989145078
 21
380.4775786469
 31
0.0
  0
LINE
  5
220
330
1F
100
AcDbEntity
  8
0
  6
Continuous
 62
     7
370
    15
100
AcDbLine
 10
381.7434910573
 20
380.4775786469
 30
0.0
 11
375.8071217575
 21
295.5835175583
 31
0.0
  0
LINE
  5
221
330
1F
100
AcDbEntity
  8
0
  6
Continuous
 62
     7
370
    15
100
AcDbLine
 10
473.9590737857
 20
432.5835120747
 30
0.0
 11
473.9590737857
 21
435.0835245917
 31
0.0
  0
LINE
  5
222
330
1F
100
AcDbEntity
  8
0
  6
Continuous
 62
     7
370
    15
100
AcDbLine
 10
449.9590698518
 20
435.0835245917
 30
0.0
 11
449.9590698518
 21
432.5835120747
 31
0.0
  0
ARC
  5
223
330
1F
100
AcDbEntity
  8
0
  6
Continuous
 62
     7
370
    15
100
AcDbCircle
 10
836.0867365271
 20
380.8263551792
 30
0.0
 40
5.000000000000122
100
AcDbArc
 50
130.0
 51
184.0
  0
ARC
  5
224
330
1F
100
AcDbEntity
  8
0
  6
Continuous
 62
     7
370
    15
100
AcDbCircle
 10
376.7556690381
 20
380.8263551792
 30
0.0
 40
5.000000000000065
100
AcDbArc
 50
356.0
 51
50.0
  0
LINE
  5
225
330
1F
100
AcDbEntity
  8
0
  6
Continuous
 62
     7
370
    15
100
AcDbLine
 10
381.9212023057
 20
435.5835181544
 30
0.0
 11
381.9212023057
 21
432.5835120747
 31
0.0
  0
LINE
  5
226
330
1F
100
AcDbEntity
  8
0
  6
Continuous
 62
     7
370
    15
100
AcDbLine
 10
469.9590656795
 20
451.583520777
 30
0.0
 11
469.9590656795
 21
452.0835143397
 31
0.0
  0
LINE
  5
227
330
1F
100
AcDbEntity
  8
0
  6
Continuous
 62
     7
370
    15
100
AcDbLine
 10
453.9590779581
 20
452.0835143397
 30
0.0
 11
453.9590779581
 21
451.583520777
 31
0.0
  0
LINE
  5
228
330
1F
100
AcDbEntity
  8
0
  6
Continuous
 62
     7
370
    15
100
AcDbLine
 10
468.4590700902
 20
452.0835143397
 30
0.0
 11
468.4590700902
 21
463.5835152934
 31
0.0
  0
LINE
  5
229
330
1F
100
AcDbEntity
  8
0
  6
Continuous
 62
     7
370
    15
100
AcDbLine
 10
455.4590735473
 20
463.5835152934
 30
0.0
 11
455.4590735473
 21
452.0835143397
 31
0.0
  0
LINE
  5
22A
330
1F
100
AcDbEntity
  8
0
  6
Continuous
 62
     7
370
    15
100
AcDbLine
 10
467.9590765275
 20
445.0835150549
 30
0.0
 11
467.9590765275
 21
451.583520777
 31
0.0
  0
LINE
  5
22B
330
1F
100
AcDbEntity
  8
0
  6
Continuous
 62
     7
370
    15
100
AcDbLine
 10
455.95906711
 20
451.583520777
 30
0.0
 11
455.95906711
 21
445.0835150549
 31
0.0
  0
LINE
  5
22C
330
1F
100
AcDbEntity
  8
0
  6
Continuous
 62
     7
370
    15
100
AcDbLine
 10
467.9590765275
 20
265.5835200915
 30
0.0
 11
467.9590765275
 21
412.0654326746
 31
0.0
  0
LINE
  5
22D
330
1F
100
AcDbEntity
  8
0
  6
Continuous
 62
     7
370
    15
100
AcDbLine
 10
455.95906711
 20
425.58351279
 30
0.0
 11
455.95906711
 21
265.5835200915
 31
0.0
  0
LINE
  5
22E
330
1F
100
AcDbEntity
  8
0
  6
Continuous
 62
     7
370
    15
100
AcDbLine
 10
387.0023790636
 20
243.5835192794
 30
0.0
 11
387.0023790636
 21
239.5835193223
 31
0.0
  0
LINE
  5
22F
330
1F
100
AcDbEntity
  8
0
  6
Continuous
 62
     7
370
    15
100
AcDbLine
 10
825.8400265016
 20
239.5835193223
 30
0.0
 11
825.8400265016
 21
243.5835192794
 31
0.0
  0
LINE
  5
230
330
1F
100
AcDbEntity
  8
0
  6
Continuous
 62
     7
370
    15
100
AcDbLine
 10
834.6060667076
 20
432.5835120747
 30
0.0
 11
834.6060667076
 21
435.0835245917
 31
0.0
  0
LINE
  5
231
330
1F
100
AcDbEntity
  8
0
  6
Continuous
 62
     7
370
    15
100
AcDbLine
 10
810.6060627737
 20
435.0835245917
 30
0.0
 11
810.6060627737
 21
432.5835120747
 31
0.0
  0
LINE
  5
232
330
1F
100
AcDbEntity
  8
0
  6
Continuous
 62
     7
370
    15
100
AcDbLine
 10
830.6060586013
 20
451.583520777
 30
0.0
 11
830.6060586013
 21
452.0835143397
 31
0.0
  0
LINE
  5
233
330
1F
100
AcDbEntity
  8
0
  6
Continuous
 62
     7
370
    15
100
AcDbLine
 10
814.6060559787
 20
452.0835143397
 30
0.0
 11
814.6060559787
 21
451.583520777
 31
0.0
  0
LINE
  5
234
330
1F
100
AcDbEntity
  8
0
  6
Continuous
 62
     7
370
    15
100
AcDbLine
 10
829.1060630121
 20
452.0835143397
 30
0.0
 11
829.1060630121
 21
463.5835152934
 31
0.0
  0
LINE
  5
235
330
1F
100
AcDbEntity
  8
0
  6
Continuous
 62
     7
370
    15
100
AcDbLine
 10
816.1060664691
 20
463.5835152934
 30
0.0
 11
816.1060664691
 21
452.0835143397
 31
0.0
  0
LINE
  5
236
330
1F
100
AcDbEntity
  8
0
  6
Continuous
 62
     7
370
    15
100
AcDbLine
 10
828.6060545482
 20
265.5835200915
 30
0.0
 11
828.6060545482
 21
421.1397779057
 31
0.0
  0
LINE
  5
237
330
1F
100
AcDbEntity
  8
0
  6
Continuous
 62
     7
370
    15
100
AcDbLine
 10
816.6060600318
 20
410.0232881377
 30
0.0
 11
816.6060600318
 21
265.5835200915
 31
0.0
  0
LINE
  5
238
330
1F
100
AcDbEntity
  8
0
  6
Continuous
 62
     7
370
    15
100
AcDbLine
 10
828.6060545482
 20
445.0835150549
 30
0.0
 11
828.6060545482
 21
451.583520777
 31
0.0
  0
LINE
  5
239
330
1F
100
AcDbEntity
  8
0
  6
Continuous
 62
     7
370
    15
100
AcDbLine
 10
816.6060600318
 20
451.583520777
 30
0.0
 11
816.6060600318
 21
445.0835150549
 31
0.0
  0
LINE
  5
23A
330
1F
100
AcDbEntity
  8
0
  6
Continuous
 62
     7
370
    15
100
AcDbLine
 10
328.4737173357
 20
243.5835192794
 30
0.0
 11
328.4737173357
 21
239.5835193223
 31
0.0
  0
LINE
  5
23B
330
1F
100
AcDbEntity
  8
0
  6
Continuous
 62
     7
370
    15
100
AcDbLine
 10
884.3686882295
 20
239.5835193223
 30
0.0
 11
884.3686882295
 21
243.5835192794
 31
0.0
  0
LINE
  5
23C
330
1F
100
AcDbEntity
  8
0
  6
Continuous
 62
     7
370
    15
100
AcDbLine
 10
856.127277378
 20
422.6400715182
 30
0.0
 11
846.4588824548
 21
426.1590850422
 31
0.0
  0
LINE
  5
23D
330
1F
100
AcDbEntity
  8
0
  6
Continuous
 62
     7
370
    15
100
AcDbLine
 10
855.0761494674
 20
402.5835257838
 30
0.0
 11
856.127277378
 21
422.6400715182
 31
0.0
  0
LINE
  5
23E
330
1F
100
AcDbEntity
  8
0
  6
Continuous
 62
     7
370
    15
100
AcDbLine
 10
831.5807137527
 20
265.5835200915
 30
0.0
 11
831.5807137527
 21
295.5835175583
 31
0.0
  0
LINE
  5
23F
330
1F
100
AcDbEntity
  8
0
  6
Continuous
 62
     7
370
    15
100
AcDbLine
 10
381.2616918125
 20
295.5835175583
 30
0.0
 11
381.2616918125
 21
265.5835200915
 31
0.0
  0
LINE
  5
240
330
1F
100
AcDbEntity
  8
0
  6
Continuous
 62
     7
370
    15
100
AcDbLine
 10
363.405272726
 20
432.5835120747
 30
0.0
 11
363.405272726
 21
435.0835245917
 31
0.0
  0
LINE
  5
241
330
1F
100
AcDbEntity
  8
0
  6
Continuous
 62
     7
370
    15
100
AcDbLine
 10
339.4052687921
 20
435.0835245917
 30
0.0
 11
339.4052687921
 21
432.5835120747
 31
0.0
  0
LINE
  5
242
330
1F
100
AcDbEntity
  8
0
  6
Continuous
 62
     7
370
    15
100
AcDbLine
 10
359.4052646198
 20
451.583520777
 30
0.0
 11
359.4052646198
 21
452.0835143397
 31
0.0
  0
LINE
  5
243
330
1F
100
AcDbEntity
  8
0
  6
Continuous
 62
     7
370
    15
100
AcDbLine
 10
343.4052768983
 20
452.0835143397
 30
0.0
 11
343.4052768983
 21
451.583520777
 31
0.0
  0
LINE
  5
244
330
1F
100
AcDbEntity
  8
0
  6
Continuous
 62
     7
370
    15
100
AcDbLine
 10
357.9052690305
 20
452.0835143397
 30
0.0
 11
357.9052690305
 21
463.5835152934
 31
0.0
  0
LINE
  5
245
330
1F
100
AcDbEntity
  8
0
  6
Continuous
 62
     7
370
    15
100
AcDbLine
 10
344.9052575864
 20
463.5835152934
 30
0.0
 11
344.9052575864
 21
452.0835143397
 31
0.0
  0
LINE
  5
246
330
1F
100
AcDbEntity
  8
0
  6
Continuous
 62
     7
370
    15
100
AcDbLine
 10
357.4052754678
 20
265.5835200915
 30
0.0
 11
357.4052754678
 21
408.1652623484
 31
0.0
  0
LINE
  5
247
330
1F
100
AcDbEntity
  8
0
  6
Continuous
 62
     7
370
    15
100
AcDbLine
 10
345.4052809515
 20
417.589367635
 30
0.0
 11
345.4052809515
 21
265.5835200915
 31
0.0
  0
LINE
  5
248
330
1F
100
AcDbEntity
  8
0
  6
Continuous
 62
     7
370
    15
100
AcDbLine
 10
357.4052754678
 20
445.0835150549
 30
0.0
 11
357.4052754678
 21
451.583520777
 31
0.0
  0
LINE
  5
249
330
1F
100
AcDbEntity
  8
0
  6
Continuous
 62
     7
370
    15
100
AcDbLine
 10
345.4052809515
 20
451.583520777
 30
0.0
 11
345.4052809515
 21
445.0835150549
 31
0.0
  0
LINE
  5
24A
330
1F
100
AcDbEntity
  8
0
  6
Continuous
 62
     7
370
    15
100
AcDbLine
 10
357.6734516658
 20
404.3541413615
 30
0.0
 11
357.7662560977
 21
402.5835257838
 31
0.0
  0
LINE
  5
24B
330
1F
100
AcDbEntity
  8
0
  6
Continuous
 62
     7
370
    15
100
AcDbLine
 10
307.9212013521
 20
243.5835192794
 30
0.0
 11
307.9212013521
 21
239.5835193223
 31
0.0
  0
LINE
  5
24C
330
1F
100
AcDbEntity
  8
0
  6
Continuous
 62
     7
370
    15
100
AcDbLine
 10
904.9212042131
 20
239.5835193223
 30
0.0
 11
904.9212042131
 21
243.5835192794
 31
0.0
  0
LINE
  5
24D
330
1F
100
AcDbEntity
  8
0
  6
Continuous
 62
     7
370
    15
100
AcDbLine
 10
873.4371367731
 20
432.5835120747
 30
0.0
 11
873.4371367731
 21
435.0835245917
 31
0.0
  0
LINE
  5
24E
330
1F
100
AcDbEntity
  8
0
  6
Continuous
 62
     7
370
    15
100
AcDbLine
 10
849.4371328392
 20
435.0835245917
 30
0.0
 11
849.4371328392
 21
432.5835120747
 31
0.0
  0
LINE
  5
24F
330
1F
100
AcDbEntity
  8
0
  6
Continuous
 62
     7
370
    15
100
AcDbLine
 10
869.4371286668
 20
451.583520777
 30
0.0
 11
869.4371286668
 21
452.0835143397
 31
0.0
  0
LINE
  5
250
330
1F
100
AcDbEntity
  8
0
  6
Continuous
 62
     7
370
    15
100
AcDbLine
 10
853.4371409454
 20
452.0835143397
 30
0.0
 11
853.4371409454
 21
451.583520777
 31
0.0
  0
LINE
  5
251
330
1F
100
AcDbEntity
  8
0
  6
Continuous
 62
     7
370
    15
100
AcDbLine
 10
867.9371479787
 20
452.0835143397
 30
0.0
 11
867.9371479787
 21
463.5835152934
 31
0.0
  0
LINE
  5
252
330
1F
100
AcDbEntity
  8
0
  6
Continuous
 62
     7
370
    15
100
AcDbLine
 10
854.9371365346
 20
463.5835152934
 30
0.0
 11
854.9371365346
 21
452.0835143397
 31
0.0
  0
LINE
  5
253
330
1F
100
AcDbEntity
  8
0
  6
Continuous
 62
     7
370
    15
100
AcDbLine
 10
867.4371246137
 20
445.0835150549
 30
0.0
 11
867.4371246137
 21
451.583520777
 31
0.0
  0
LINE
  5
254
330
1F
100
AcDbEntity
  8
0
  6
Continuous
 62
     7
370
    15
100
AcDbLine
 10
855.4371300973
 20
451.583520777
 30
0.0
 11
855.4371300973
 21
445.0835150549
 31
0.0
  0
LINE
  5
255
330
1F
100
AcDbEntity
  8
0
  6
Continuous
 62
     7
370
    15
100
AcDbLine
 10
867.4371246137
 20
265.5835200915
 30
0.0
 11
867.4371246137
 21
413.9888596604
 31
0.0
  0
LINE
  5
256
330
1F
100
AcDbEntity
  8
0
  6
Continuous
 62
     7
370
    15
100
AcDbLine
 10
855.4371300973
 20
404.5647543738
 30
0.0
 11
855.4371300973
 21
265.5835200915
 31
0.0
  0
LINE
  5
257
330
1F
100
AcDbEntity
  8
0
  6
Continuous
 62
     7
370
    15
100
AcDbLine
 10
378.2363388576
 20
435.0835245917
 30
0.0
 11
378.2363388576
 21
432.5835120747
 31
0.0
  0
LINE
  5
258
330
1F
100
AcDbEntity
  8
0
  6
Continuous
 62
     7
370
    15
100
AcDbLine
 10
398.2363495864
 20
451.583520777
 30
0.0
 11
398.2363495864
 21
452.0835143397
 31
0.0
  0
LINE
  5
259
330
1F
100
AcDbEntity
  8
0
  6
Continuous
 62
     7
370
    15
100
AcDbLine
 10
382.2363469638
 20
452.0835143397
 30
0.0
 11
382.2363469638
 21
451.583520777
 31
0.0
  0
LINE
  5
25A
330
1F
100
AcDbEntity
  8
0
  6
Continuous
 62
     7
370
    15
100
AcDbLine
 10
396.736339096
 20
452.0835143397
 30
0.0
 11
396.736339096
 21
463.5835152934
 31
0.0
  0
LINE
  5
25B
330
1F
100
AcDbEntity
  8
0
  6
Continuous
 62
     7
370
    15
100
AcDbLine
 10
383.7363425531
 20
463.5835152934
 30
0.0
 11
383.7363425531
 21
452.0835143397
 31
0.0
  0
LINE
  5
25C
330
1F
100
AcDbEntity
  8
0
  6
Continuous
 62
     7
370
    15
100
AcDbLine
 10
396.2363455333
 20
445.0835150549
 30
0.0
 11
396.2363455333
 21
451.583520777
 31
0.0
  0
LINE
  5
25D
330
1F
100
AcDbEntity
  8
0
  6
Continuous
 62
     7
370
    15
100
AcDbLine
 10
384.236351017
 20
451.583520777
 30
0.0
 11
384.236351017
 21
445.0835150549
 31
0.0
  0
LINE
  5
25E
330
1F
100
AcDbEntity
  8
0
  6
Continuous
 62
     7
370
    15
100
AcDbLine
 10
758.8833276071
 20
451.583520777
 30
0.0
 11
758.8833276071
 21
452.0835143397
 31
0.0
  0
LINE
  5
25F
330
1F
100
AcDbEntity
  8
0
  6
Continuous
 62
     7
370
    15
100
AcDbLine
 10
742.8833398857
 20
452.0835143397
 30
0.0
 11
742.8833398857
 21
451.583520777
 31
0.0
  0
LINE
  5
260
330
1F
100
AcDbEntity
  8
0
  6
Continuous
 62
     7
370
    15
100
AcDbLine
 10
757.3833320179
 20
452.0835143397
 30
0.0
 11
757.3833320179
 21
463.5835152934
 31
0.0
  0
LINE
  5
261
330
1F
100
AcDbEntity
  8
0
  6
Continuous
 62
     7
370
    15
100
AcDbLine
 10
744.3833354749
 20
463.5835152934
 30
0.0
 11
744.3833354749
 21
452.0835143397
 31
0.0
  0
LINE
  5
262
330
1F
100
AcDbEntity
  8
0
  6
Continuous
 62
     7
370
    15
100
AcDbLine
 10
756.8833384552
 20
445.0835150549
 30
0.0
 11
756.8833384552
 21
451.583520777
 31
0.0
  0
LINE
  5
263
330
1F
100
AcDbEntity
  8
0
  6
Continuous
 62
     7
370
    15
100
AcDbLine
 10
744.8833290376
 20
451.583520777
 30
0.0
 11
744.8833290376
 21
445.0835150549
 31
0.0
  0
LINE
  5
264
330
1F
100
AcDbEntity
  8
0
  6
Continuous
 62
     7
370
    15
100
AcDbLine
 10
563.7055750825
 20
451.583520777
 30
0.0
 11
563.7055750825
 21
452.0835143397
 31
0.0
  0
LINE
  5
265
330
1F
100
AcDbEntity
  8
0
  6
Continuous
 62
     7
370
    15
100
AcDbLine
 10
547.7055761852
 20
452.0835143397
 30
0.0
 11
547.7055761852
 21
451.583520777
 31
0.0
  0
LINE
  5
266
330
1F
100
AcDbEntity
  8
0
  6
Continuous
 62
     7
370
    15
100
AcDbLine
 10
562.2055757679
 20
452.0835143397
 30
0.0
 11
562.2055757679
 21
463.5835152934
 31
0.0
  0
LINE
  5
267
330
1F
100
AcDbEntity
  8
0
  6
Continuous
 62
     7
370
    15
100
AcDbLine
 10
549.2055754997
 20
463.5835152934
 30
0.0
 11
549.2055754997
 21
452.0835143397
 31
0.0
  0
LINE
  5
268
330
1F
100
AcDbEntity
  8
0
  6
Continuous
 62
     7
370
    15
100
AcDbLine
 10
561.7055747547
 20
445.0835150549
 30
0.0
 11
561.7055747547
 21
451.583520777
 31
0.0
  0
LINE
  5
269
330
1F
100
AcDbEntity
  8
0
  6
Continuous
 62
     7
370
    15
100
AcDbLine
 10
549.705576513
 20
451.583520777
 30
0.0
 11
549.705576513
 21
445.0835150549
 31
0.0
  0
LINE
  5
26A
330
1F
100
AcDbEntity
  8
0
  6
Continuous
 62
     7
370
    15
100
AcDbLine
 10
904.9212042131
 20
265.5835200915
 30
0.0
 11
307.9212013521
 21
265.5835200915
 31
0.0
  0
LINE
  5
26B
330
1F
100
AcDbEntity
  8
0
  6
Continuous
 62
     7
370
    15
100
AcDbLine
 10
882.1992579736
 20
243.5835192794
 30
0.0
 11
817.4925748147
 21
243.5835192794
 31
0.0
  0
LINE
  5
26C
330
1F
100
AcDbEntity
  8
0
  6
Continuous
 62
     7
370
    15
100
AcDbLine
 10
817.4925748147
 20
243.5835192794
 30
0.0
 11
720.6522080936
 21
243.5835192794
 31
0.0
  0
LINE
  5
26D
330
1F
100
AcDbEntity
  8
0
  6
Continuous
 62
     7
370
    15
100
AcDbLine
 10
720.6522080936
 20
243.5835192794
 30
0.0
 11
606.4212027826
 21
243.5835192794
 31
0.0
  0
LINE
  5
26E
330
1F
100
AcDbEntity
  8
0
  6
Continuous
 62
     7
370
    15
100
AcDbLine
 10
606.4212027826
 20
243.5835192794
 30
0.0
 11
492.1901974716
 21
243.5835192794
 31
0.0
  0
LINE
  5
26F
330
1F
100
AcDbEntity
  8
0
  6
Continuous
 62
     7
370
    15
100
AcDbLine
 10
492.1901974716
 20
243.5835192794
 30
0.0
 11
395.3498307504
 21
243.5835192794
 31
0.0
  0
LINE
  5
270
330
1F
100
AcDbEntity
  8
0
  6
Continuous
 62
     7
370
    15
100
AcDbLine
 10
395.3498307504
 20
243.5835192794
 30
0.0
 11
330.6431475915
 21
243.5835192794
 31
0.0
  0
LINE
  5
271
330
1F
100
AcDbEntity
  8
0
  6
Continuous
 62
     7
370
    15
100
AcDbLine
 10
330.6431475915
 20
243.5835192794
 30
0.0
 11
307.9212013521
 21
243.5835192794
 31
0.0
  0
LINE
  5
272
330
1F
100
AcDbEntity
  8
0
  6
Continuous
 62
     7
370
    15
100
AcDbLine
 10
904.9212042131
 20
243.5835192794
 30
0.0
 11
882.1992579736
 21
243.5835192794
 31
0.0
  0
LINE
  5
273
330
1F
100
AcDbEntity
  8
0
  6
Continuous
 62
     7
370
    15
100
AcDbLine
 10
634.0516753383
 20
239.5835193223
 30
0.0
 11
578.7907302268
 21
239.5835193223
 31
0.0
  0
LINE
  5
274
330
1F
100
AcDbEntity
  8
0
  6
Continuous
 62
     7
370
    15
100
AcDbLine
 10
578.2491978147
 20
243.5835192794
 30
0.0
 11
578.2491978147
 21
239.5835193223
 31
0.0
  0
LINE
  5
275
330
1F
100
AcDbEntity
  8
0
  6
Continuous
 62
     7
370
    15
100
AcDbLine
 10
577.8404440619
 20
239.5835193223
 30
0.0
 11
578.2491978147
 21
239.5835193223
 31
0.0
  0
LINE
  5
276
330
1F
100
AcDbEntity
  8
0
  6
Continuous
 62
     7
370
    15
100
AcDbLine
 10
640.663352225
 20
239.5835193223
 30
0.0
 11
634.0516753383
 21
239.5835193223
 31
0.0
  0
LINE
  5
277
330
1F
100
AcDbEntity
  8
0
  6
Continuous
 62
     7
370
    15
100
AcDbLine
 10
525.9504023828
 20
239.5835193223
 30
0.0
 11
474.5966795721
 21
239.5835193223
 31
0.0
  0
LINE
  5
278
330
1F
100
AcDbEntity
  8
0
  6
Continuous
 62
     7
370
    15
100
AcDbLine
 10
738.2457259931
 20
239.5835193223
 30
0.0
 11
686.8920031824
 21
239.5835193223
 31
0.0
  0
LINE
  5
279
330
1F
100
AcDbEntity
  8
0
  6
Continuous
 62
     7
370
    15
100
AcDbLine
 10
578.7907302268
 20
239.5835193223
 30
0.0
 11
578.2491978147
 21
239.5835193223
 31
0.0
  0
LWPOLYLINE
  5
27A
330
1F
100
AcDbEntity
  8
0
  6
Continuous
 62
     7
370
    15
100
AcDbPolyline
 90
        3
 70
   128
 43
0.0
 10
639.3437687196
 20
422.6400715182
 10
639.1886252799
 20
407.4971538851
 10
639.1382817068
 20
402.5835257838
  0
LWPOLYLINE
  5
27B
330
1F
100
AcDbEntity
  8
0
  6
Continuous
 62
     7
370
    15
100
AcDbPolyline
 90
        3
 70
   128
 43
0.0
 10
634.4150420167
 20
431.814329035
 10
638.5897140839
 20
424.0439397166
 10
639.3437687196
 20
422.6400715182
  0
LINE
  5
27C
330
1F
100
AcDbEntity
  8
0
  6
Continuous
 62
     7
370
    15
100
AcDbLine
 10
634.4150420167
 20
432.5835120747
 30
0.0
 11
634.4150420167
 21
431.814329035
 31
0.0
  0
LINE
  5
27D
330
1F
100
AcDbEntity
  8
0
  6
Continuous
 62
     7
370
    15
100
AcDbLine
 10
644.9637491145
 20
425.58351279
 30
0.0
 11
644.9637491145
 21
432.5835120747
 31
0.0
  0
LINE
  5
27E
330
1F
100
AcDbEntity
  8
0
  6
Continuous
 62
     7
370
    15
100
AcDbLine
 10
644.9637491145
 20
425.58351279
 30
0.0
 11
639.1382817068
 21
402.5835257838
 31
0.0
  0
LINE
  5
27F
330
1F
100
AcDbEntity
  8
0
  6
Continuous
 62
     7
370
    15
100
AcDbLine
 10
634.4150420167
 20
432.5835120747
 30
0.0
 11
644.9637491145
 21
432.5835120747
 31
0.0
  0
LINE
  5
280
330
1F
100
AcDbEntity
  8
0
  6
Continuous
 62
     7
370
    15
100
AcDbLine
 10
676.3488802948
 20
425.58351279
 30
0.0
 11
676.3488802948
 21
432.5835120747
 31
0.0
  0
LINE
  5
281
330
1F
100
AcDbEntity
  8
0
  6
Continuous
 62
     7
370
    15
100
AcDbLine
 10
676.3488802948
 20
425.58351279
 30
0.0
 11
668.0122021474
 21
425.58351279
 31
0.0
  0
LINE
  5
282
330
1F
100
AcDbEntity
  8
0
  6
Continuous
 62
     7
370
    15
100
AcDbLine
 10
668.0122021474
 20
425.58351279
 30
0.0
 11
653.3004235365
 21
425.58351279
 31
0.0
  0
LINE
  5
283
330
1F
100
AcDbEntity
  8
0
  6
Continuous
 62
     7
370
    15
100
AcDbLine
 10
653.3004235365
 20
425.58351279
 30
0.0
 11
644.9637491145
 21
425.58351279
 31
0.0
  0
LINE
  5
284
330
1F
100
AcDbEntity
  8
0
  6
Continuous
 62
     7
370
    15
100
AcDbLine
 10
676.3488802948
 20
432.5835120747
 30
0.0
 11
644.9637491145
 21
432.5835120747
 31
0.0
  0
LINE
  5
285
330
1F
100
AcDbEntity
  8
0
  6
Continuous
 62
     7
370
    15
100
AcDbLine
 10
653.3004235365
 20
425.58351279
 30
0.0
 11
647.886667762
 21
404.2090189526
 31
0.0
  0
LINE
  5
286
330
1F
100
AcDbEntity
  8
0
  6
Continuous
 62
     7
370
    15
100
AcDbLine
 10
647.886667762
 20
404.2090189526
 30
0.0
 11
651.1368308105
 21
404.2090189526
 31
0.0
  0
LINE
  5
287
330
1F
100
AcDbEntity
  8
0
  6
Continuous
 62
     7
370
    15
100
AcDbLine
 10
668.0122021474
 20
425.58351279
 30
0.0
 11
663.1368290522
 21
406.3346546957
 31
0.0
  0
LINE
  5
288
330
1F
100
AcDbEntity
  8
0
  6
Continuous
 62
     7
370
    15
100
AcDbLine
 10
676.3488802948
 20
425.58351279
 30
0.0
 11
670.523412887
 21
402.5835257838
 31
0.0
  0
ELLIPSE
  5
289
330
1F
100
AcDbEntity
  8
0
  6
Continuous
 62
     7
370
    15
100
AcDbEllipse
 10
608.3036061181
 20
218.8855085261
 30
0.0
 11
232.3522535370852
 21
76.77154189048912
 31
0.0
210
0.0
220
0.0
230
1.0
 40
0.72020659
 41
1.156863937630888
 42
1.207714788439674
  0
ELLIPSE
  5
28A
330
1F
100
AcDbEntity
  8
0
  6
Continuous
 62
     7
370
    15
100
AcDbEllipse
 10
608.3036061181
 20
218.8855085261
 30
0.0
 11
232.3522535370852
 21
76.77154189048912
 31
0.0
210
0.0
220
0.0
230
1.0
 40
0.72020659
 41
1.073629483557327
 42
1.105530508645715
  0
LINE
  5
28B
330
1F
100
AcDbEntity
  8
0
  6
Continuous
 62
     7
370
    15
100
AcDbLine
 10
527.2703323402
 20
239.5835193223
 30
0.0
 11
527.2703323402
 21
243.5835192794
 31
0.0
  0
LINE
  5
28C
330
1F
100
AcDbEntity
  8
0
  6
Continuous
 62
     7
370
    15
100
AcDbLine
 10
527.2703323402
 20
239.5835193223
 30
0.0
 11
530.719571177
 21
239.5835193223
 31
0.0
  0
LINE
  5
28D
330
1F
100
AcDbEntity
  8
0
  6
Continuous
 62
     7
370
    15
100
AcDbLine
 10
686.8920031824
 20
239.5835193223
 30
0.0
 11
670.7767326273
 21
239.5835193223
 31
0.0
  0
LINE
  5
28E
330
1F
100
AcDbEntity
  8
0
  6
Continuous
 62
     7
370
    15
100
AcDbLine
 10
669.1368300356
 20
435.0835245917
 30
0.0
 11
645.136829827
 21
435.0835245917
 31
0.0
  0
LINE
  5
28F
330
1F
100
AcDbEntity
  8
0
  6
Continuous
 62
     7
370
    15
100
AcDbLine
 10
527.2703323402
 20
239.5835193223
 30
0.0
 11
525.9504023828
 21
239.5835193223
 31
0.0
  0
LINE
  5
290
330
1F
100
AcDbEntity
  8
0
  6
Continuous
 62
     7
370
    15
100
AcDbLine
 10
548.9509146549
 20
243.5835192794
 30
0.0
 11
548.9509146549
 21
239.5835193223
 31
0.0
  0
LINE
  5
291
330
1F
100
AcDbEntity
  8
0
  6
Continuous
 62
     7
370
    15
100
AcDbLine
 10
567.9022971429
 20
239.5835193223
 30
0.0
 11
567.9022971429
 21
243.5835192794
 31
0.0
  0
LINE
  5
292
330
1F
100
AcDbEntity
  8
0
  6
Continuous
 62
     7
370
    15
100
AcDbLine
 10
530.719571177
 20
239.5835193223
 30
0.0
 11
548.9509146549
 21
239.5835193223
 31
0.0
  0
LINE
  5
293
330
1F
100
AcDbEntity
  8
0
  6
Continuous
 62
     7
370
    15
100
AcDbLine
 10
567.9022971429
 20
239.5835193223
 30
0.0
 11
577.8404440619
 21
239.5835193223
 31
0.0
  0
LINE
  5
294
330
1F
100
AcDbEntity
  8
0
  6
Continuous
 62
     7
370
    15
100
AcDbLine
 10
648.8894078769
 20
445.0835150549
 30
0.0
 11
648.8894078769
 21
435.0835245917
 31
0.0
  0
LINE
  5
295
330
1F
100
AcDbEntity
  8
0
  6
Continuous
 62
     7
370
    15
100
AcDbLine
 10
648.8894078769
 20
445.0835150549
 30
0.0
 11
659.276903037
 21
445.0835150549
 31
0.0
  0
LINE
  5
296
330
1F
100
AcDbEntity
  8
0
  6
Continuous
 62
     7
370
    15
100
AcDbLine
 10
659.276903037
 20
445.0835150549
 30
0.0
 11
659.276903037
 21
435.0835245917
 31
0.0
  0
LINE
  5
297
330
1F
100
AcDbEntity
  8
0
  6
Continuous
 62
     7
370
    15
100
AcDbLine
 10
659.276903037
 20
445.0835150549
 30
0.0
 11
667.5243269541
 21
445.0835150549
 31
0.0
  0
LINE
  5
298
330
1F
100
AcDbEntity
  8
0
  6
Continuous
 62
     7
370
    15
100
AcDbLine
 10
667.5243269541
 20
445.0835150549
 30
0.0
 11
667.5243269541
 21
435.0835245917
 31
0.0
  0
LINE
  5
299
330
1F
100
AcDbEntity
  8
0
  6
Continuous
 62
     7
370
    15
100
AcDbLine
 10
665.13682938
 20
452.0835143397
 30
0.0
 11
649.1368304827
 21
452.0835143397
 31
0.0
  0
LINE
  5
29A
330
1F
100
AcDbEntity
  8
0
  6
Continuous
 62
     7
370
    15
100
AcDbLine
 10
665.13682938
 20
451.583520777
 30
0.0
 11
649.1368304827
 21
451.583520777
 31
0.0
  0
LINE
  5
29B
330
1F
100
AcDbEntity
  8
0
  6
Continuous
 62
     7
370
    15
100
AcDbLine
 10
646.7493329086
 20
445.0835150549
 30
0.0
 11
646.7493329086
 21
435.0835245917
 31
0.0
  0
LINE
  5
29C
330
1F
100
AcDbEntity
  8
0
  6
Continuous
 62
     7
370
    15
100
AcDbLine
 10
646.7493329086
 20
445.0835150549
 30
0.0
 11
648.8894078769
 21
445.0835150549
 31
0.0
  0
LINE
  5
29D
330
1F
100
AcDbEntity
  8
0
  6
Continuous
 62
     7
370
    15
100
AcDbLine
 10
663.6368300654
 20
463.5835152934
 30
0.0
 11
650.6368297972
 21
463.5835152934
 31
0.0
  0
SPLINE
  5
29E
330
1F
100
AcDbEntity
  8
0
  6
Continuous
 62
     7
370
    15
100
AcDbSpline
210
0.0
220
0.0
230
1.0
 70
     8
 71
     3
 72
    16
 73
    12
 74
     0
 42
0.00000001
 43
0.00000001
 12
1.0
 22
0.0
 32
0.0
 13
1.0
 23
0.0
 33
0.0
 40
0.0
 40
0.0
 40
0.0
 40
0.0
 40
0.2500000000000002
 40
0.2500000000000002
 40
0.3750000000000001
 40
0.3750000000000001
 40
0.5000000000000001
 40
0.5000000000000001
 40
0.75
 40
0.75
 40
1.0
 40
1.0
 40
1.0
 40
1.0
 10
610.0306921336725
 20
239.5835192272588
 30
0.0
 10
609.4516969562129
 20
239.4204709211506
 30
0.0
 10
608.8616119298146
 20
239.2959854848273
 30
0.0
 10
607.9591655658407
 20
239.16961345657
 30
0.0
 10
607.6554548878222
 20
239.1375785512921
 30
0.0
 10
607.0420100526163
 20
239.0945109394386
 30
0.0
 10
606.7305343900515
 20
239.0835230892419
 30
0.0
 10
605.8030355592157
 20
239.0835115063589
 30
0.0
 10
605.1929950462664
 20
239.1266310910343
 30
0.0
 10
603.9886208661462
 20
239.2945013771265
 30
0.0
 10
603.390877749441
 20
239.4204232902301
 30
0.0
 10
602.8117134314748
 20
239.5835192272586
 30
0.0
  0
SPLINE
  5
29F
330
1F
100
AcDbEntity
  8
0
  6
Continuous
 62
     7
370
    15
100
AcDbSpline
210
0.0
220
0.0
230
1.0
 70
     8
 71
     3
 72
    18
 73
    14
 74
     0
 42
0.00000001
 43
0.00000001
 12
1.0
 22
0.0
 32
0.0
 13
1.0
 23
0.0
 33
0.0
 40
0.0
 40
0.0
 40
0.0
 40
0.0
 40
0.25
 40
0.25
 40
0.375
 40
0.375
 40
0.5
 40
0.5
 40
0.625
 40
0.625
 40
0.75
 40
0.75
 40
1.0
 40
1.0
 40
1.0
 40
1.0
 10
659.4685763098041
 20
239.5835192272584
 30
0.0
 10
658.5601058641946
 20
239.2636455260914
 30
0.0
 10
657.6340037017228
 20
239.0146210739714
 30
0.0
 10
656.2155811413894
 20
238.7587829198376
 30
0.0
 10
655.7353666923129
 20
238.6930137805344
 30
0.0
 10
654.7758552120043
 20
238.6053377345206
 30
0.0
 10
654.3011046668628
 20
238.5836146681719
 30
0.0
 10
653.3613864321987
 20
238.5834244128722
 30
0.0
 10
652.8964191687988
 20
238.6049590221771
 30
0.0
 10
651.9762532933867
 20
238.6911902858736
 30
0.0
 10
651.518307255947
 20
238.756493164374
 30
0.0
 10
650.1829096378657
 20
239.0133049813925
 30
0.0
 10
649.3448296888105
 20
239.2635071587615
 30
0.0
 10
648.5531449352895
 20
239.5835192272585
 30
0.0
  0
LINE
  5
2A0
330
1F
100
AcDbEntity
  8
0
  6
Continuous
 62
     7
370
    15
100
AcDbLine
 10
670.7767326273
 20
239.5835193223
 30
0.0
 11
659.4685766735
 21
239.5835193223
 31
0.0
  0
LINE
  5
2A1
330
1F
100
AcDbEntity
  8
0
  6
Continuous
 62
     7
370
    15
100
AcDbLine
 10
648.5531445481
 20
239.5835193223
 30
0.0
 11
640.663352225
 21
239.5835193223
 31
0.0
  0
LINE
  5
2A2
330
1F
100
AcDbEntity
  8
0
  6
Continuous
 62
     7
370
    15
100
AcDbLine
 10
639.3437687196
 20
422.6400715182
 30
0.0
 11
481.2805358209
 21
422.6400715182
 31
0.0
  0
LWPOLYLINE
  5
2A3
330
1F
100
AcDbEntity
  8
0
  6
Continuous
 62
     7
370
    15
100
AcDbPolyline
 90
        3
 70
   128
 43
0.0
 10
495.3163642325
 20
431.814329035
 10
483.4279123582
 20
424.0439397166
 10
481.2805358209
 20
422.6400715182
  0
LINE
  5
2A4
330
1F
100
AcDbEntity
  8
0
  6
Continuous
 62
     7
370
    15
100
AcDbLine
 10
634.4150420167
 20
431.814329035
 30
0.0
 11
495.3163642325
 21
431.814329035
 31
0.0
  0
LINE
  5
2A5
330
1F
100
AcDbEntity
  8
0
  6
Continuous
 62
     7
370
    15
100
AcDbLine
 10
639.1382817068
 20
402.5835257838
 30
0.0
 11
481.8657118716
 21
402.5835257838
 31
0.0
  0
LWPOLYLINE
  5
2A6
330
1F
100
AcDbEntity
  8
0
  6
Continuous
 62
     7
370
    15
100
AcDbPolyline
 90
        3
 70
   128
 43
0.0
 10
481.2805358209
 20
422.6400715182
 10
481.7223552503
 20
407.4971538851
 10
481.8657118716
 20
402.5835257838
  0
LINE
  5
2A7
330
1F
100
AcDbEntity
  8
0
  6
Continuous
 62
     7
370
    15
100
AcDbLine
 10
670.523412887
 20
402.5835257838
 30
0.0
 11
663.1368290522
 21
402.5835257838
 31
0.0
  0
LINE
  5
2A8
330
1F
100
AcDbEntity
  8
0
  6
Continuous
 62
     7
370
    15
100
AcDbLine
 10
651.1368308105
 20
402.5835257838
 30
0.0
 11
639.1382817068
 21
402.5835257838
 31
0.0
  0
SPLINE
  5
2A9
330
1F
100
AcDbEntity
  8
0
  6
Continuous
 62
     7
370
    15
100
AcDbSpline
210
0.0
220
0.0
230
1.0
 70
     8
 71
     3
 72
    12
 73
     8
 74
     0
 42
0.00000001
 43
0.00000001
 12
1.0
 22
0.0
 32
0.0
 13
1.0
 23
0.0
 33
0.0
 40
0.0
 40
0.0
 40
0.0
 40
0.0
 40
0.1347175603618568
 40
0.3592791435854557
 40
0.5906486406633588
 40
0.8220357691546076
 40
0.9999999999999999
 40
0.9999999999999999
 40
0.9999999999999999
 40
0.9999999999999999
 10
849.9271277226925
 20
239.0897896023613
 30
0.0
 10
849.9265539778346
 20
239.0891808444393
 30
0.0
 10
849.9250238539173
 20
239.087557343952
 30
0.0
 10
849.9776551774288
 20
239.1432207541959
 30
0.0
 10
850.0815766567365
 20
239.2530771588748
 30
0.0
 10
850.2229617929465
 20
239.4024444972427
 30
0.0
 10
850.3425235439796
 20
239.5286513049605
 30
0.0
 10
850.3945026435375
 20
239.5835193222535
 30
0.0
  0
SPLINE
  5
2AA
330
1F
100
AcDbEntity
  8
0
  6
Continuous
 62
     7
370
    15
100
AcDbSpline
210
0.0
220
0.0
230
1.0
 70
     8
 71
     3
 72
    12
 73
     8
 74
     0
 42
0.00000001
 43
0.00000001
 12
1.0
 22
0.0
 32
0.0
 13
1.0
 23
0.0
 33
0.0
 40
0.0
 40
0.0
 40
0.0
 40
0.0
 40
0.2243657604042827
 40
0.4487136490067354
 40
0.6794423968991308
 40
0.9101607685860499
 40
0.9999999999999999
 40
0.9999999999999999
 40
0.9999999999999999
 40
0.9999999999999999
 10
362.447902921629
 20
239.5835193222535
 30
0.0
 10
362.512628534798
 20
239.5151930264205
 30
0.0
 10
362.6420746054324
 20
239.3785458772697
 30
0.0
 10
362.783484118604
 20
239.2291082996223
 30
0.0
 10
362.877767645917
 20
239.1294598580545
 30
0.0
 10
362.9220268052158
 20
239.0826570164602
 30
0.0
 10
362.9167552457446
 20
239.0882282208363
 30
0.0
 10
362.915277842474
 20
239.0897896023613
 30
0.0
  0
SPLINE
  5
2AB
330
1F
100
AcDbEntity
  8
0
  6
Continuous
 62
     7
370
    15
100
AcDbSpline
210
0.0
220
0.0
230
1.0
 70
     8
 71
     3
 72
    18
 73
    14
 74
     0
 42
0.00000001
 43
0.00000001
 12
1.0
 22
0.0
 32
0.0
 13
1.0
 23
0.0
 33
0.0
 40
0.0
 40
0.0
 40
0.0
 40
0.0
 40
0.2500000000000003
 40
0.2500000000000003
 40
0.3750000000000006
 40
0.3750000000000006
 40
0.5000000000000008
 40
0.5000000000000008
 40
0.625000000000001
 40
0.625000000000001
 40
0.7500000000000013
 40
0.7500000000000013
 40
1.0
 40
1.0
 40
1.0
 40
1.0
 10
368.2574436548278
 20
239.5835192272584
 30
0.0
 10
368.3828078669455
 20
239.2636455260914
 30
0.0
 10
368.4362954659496
 20
239.0146210739715
 30
0.0
 10
368.3982097937506
 20
238.7587829198376
 30
0.0
 10
368.3653885261845
 20
238.6930137805344
 30
0.0
 10
368.2581011474853
 20
238.6053377345206
 30
0.0
 10
368.1843650235816
 20
238.5836146681719
 30
0.0
 10
367.9976247439971
 20
238.5834244128722
 30
0.0
 10
367.8846188684314
 20
238.6049590221772
 30
0.0
 10
367.619392688762
 20
238.6911902858736
 30
0.0
 10
367.4660475637334
 20
238.756493164374
 30
0.0
 10
366.9554375009547
 20
239.0133049813925
 30
0.0
 10
366.5499078632189
 20
239.2635071587615
 30
0.0
 10
366.0862293591527
 20
239.5835192272585
 30
0.0
  0
SPLINE
  5
2AC
330
1F
100
AcDbEntity
  8
0
  6
Continuous
 62
     7
370
    15
100
AcDbSpline
210
0.0
220
0.0
230
1.0
 70
     8
 71
     3
 72
    18
 73
    14
 74
     0
 42
0.00000001
 43
0.00000001
 12
1.0
 22
0.0
 32
0.0
 13
1.0
 23
0.0
 33
0.0
 40
0.0
 40
0.0
 40
0.0
 40
0.0
 40
0.2500000000000093
 40
0.2500000000000093
 40
0.3750000000000087
 40
0.3750000000000087
 40
0.5000000000000081
 40
0.5000000000000081
 40
0.7500000000000026
 40
0.7500000000000026
 40
0.8750000000000013
 40
0.8750000000000013
 40
1.0
 40
1.0
 40
1.0
 40
1.0
 10
379.6379717624151
 20
239.5835192272585
 30
0.0
 10
380.0024247588702
 20
239.420407540974
 30
0.0
 10
380.3371856246229
 20
239.2958966933436
 30
0.0
 10
380.793100134526
 20
239.1695292681603
 30
0.0
 10
380.9373430687642
 20
239.1375030436426
 30
0.0
 10
381.2097635513563
 20
239.0944648355494
 30
0.0
 10
381.3385753586884
 20
239.0834953273475
 30
0.0
 10
381.6936353029985
 20
239.083567146013
 30
0.0
 10
381.8894207934022
 20
239.1267856435164
 30
0.0
 10
382.124972728783
 20
239.2528419487305
 30
0.0
 10
382.1937668365758
 20
239.3051010269279
 30
0.0
 10
382.3120567730388
 20
239.4299060082994
 30
0.0
 10
382.3613966216578
 20
239.5025276233003
 30
0.0
 10
382.4005553103241
 20
239.5835192272588
 30
0.0
  0
SPLINE
  5
2AD
330
1F
100
AcDbEntity
  8
0
  6
Continuous
 62
     7
370
    15
100
AcDbSpline
210
0.0
220
0.0
230
1.0
 70
     8
 71
     3
 72
    16
 73
    12
 74
     0
 42
0.00000001
 43
0.00000001
 12
1.0
 22
0.0
 32
0.0
 13
1.0
 23
0.0
 33
0.0
 40
0.0
 40
0.0
 40
0.0
 40
0.0
 40
0.250000000000004
 40
0.250000000000004
 40
0.375000000000006
 40
0.375000000000006
 40
0.500000000000008
 40
0.500000000000008
 40
0.750000000000004
 40
0.750000000000004
 40
1.0
 40
1.0
 40
1.0
 40
1.0
 10
436.4583216343744
 20
239.5835192272587
 30
0.0
 10
436.1581583165659
 20
239.4204709211514
 30
0.0
 10
435.8242110423889
 20
239.2959854848289
 30
0.0
 10
435.2706297844263
 20
239.1696134565725
 30
0.0
 10
435.0772987977675
 20
239.1375785512948
 30
0.0
 10
434.6723293230966
 20
239.0945109394416
 30
0.0
 10
434.4594294585652
 20
239.0835230892449
 30
0.0
 10
433.803596490776
 20
239.083511506362
 30
0.0
 10
433.3434073946289
 20
239.1266310910372
 30
0.0
 10
432.3794791738686
 20
239.2945013771283
 30
0.0
 10
431.8725438703172
 20
239.420423290231
 30
0.0
 10
431.3537328408256
 20
239.5835192272585
 30
0.0
  0
SPLINE
  5
2AE
330
1F
100
AcDbEntity
  8
0
  6
Continuous
 62
     7
370
    15
100
AcDbSpline
210
0.0
220
0.0
230
1.0
 70
     8
 71
     3
 72
    18
 73
    14
 74
     0
 42
0.00000001
 43
0.00000001
 12
1.0
 22
0.0
 32
0.0
 13
1.0
 23
0.0
 33
0.0
 40
0.0
 40
0.0
 40
0.0
 40
0.0
 40
0.2500000000000038
 40
0.2500000000000038
 40
0.3750000000000032
 40
0.3750000000000032
 40
0.5000000000000026
 40
0.5000000000000026
 40
0.6250000000000019
 40
0.6250000000000019
 40
0.7500000000000012
 40
0.7500000000000012
 40
1.0
 40
1.0
 40
1.0
 40
1.0
 10
475.5241512157014
 20
239.5835192272584
 30
0.0
 10
474.9704114876099
 20
239.2636455260914
 30
0.0
 10
474.3533798124196
 20
239.0146210739715
 30
0.0
 10
473.323472964342
 20
238.7587829198376
 30
0.0
 10
472.9607019301131
 20
238.6930137805345
 30
0.0
 10
472.2063612227466
 20
238.6053377345206
 30
0.0
 10
471.8185225796741
 20
238.5836146681719
 30
0.0
 10
471.0219961255237
 20
238.5834244128722
 30
0.0
 10
470.6133073996175
 20
238.6049590221772
 30
0.0
 10
469.7751086391048
 20
238.6911902858736
 30
0.0
 10
469.3428605128439
 20
238.756493164374
 30
0.0
 10
468.0375359635854
 20
239.0133049813925
 30
0.0
 10
467.1581711916168
 20
239.2635071587616
 30
0.0
 10
466.2704953193247
 20
239.5835192272585
 30
0.0
  0
SPLINE
  5
2AF
330
1F
100
AcDbEntity
  8
0
  6
Continuous
 62
     7
370
    15
100
AcDbSpline
210
0.0
220
0.0
230
1.0
 70
     8
 71
     3
 72
    18
 73
    14
 74
     0
 42
0.00000001
 43
0.00000001
 12
1.0
 22
0.0
 32
0.0
 13
1.0
 23
0.0
 33
0.0
 40
0.0
 40
0.0
 40
0.0
 40
0.0
 40
0.2500000000000011
 40
0.2500000000000011
 40
0.3750000000000041
 40
0.3750000000000041
 40
0.500000000000007
 40
0.500000000000007
 40
0.7500000000000078
 40
0.7500000000000078
 40
0.8750000000000039
 40
0.8750000000000039
 40
1.0
 40
1.0
 40
1.0
 40
1.0
 10
516.3913958958899
 20
239.5835192272586
 30
0.0
 10
515.9154137948534
 20
239.4204075409722
 30
0.0
 10
515.4151505095138
 20
239.2958966933403
 30
0.0
 10
514.6269004447114
 20
239.1695292681556
 30
0.0
 10
514.3578217928703
 20
239.1375030436375
 30
0.0
 10
513.8065044441942
 20
239.0944648355438
 30
0.0
 10
513.5226297270472
 20
239.0834953273418
 30
0.0
 10
512.6652617262997
 20
239.0835671460072
 30
0.0
 10
512.0858248752534
 20
239.1267856435111
 30
0.0
 10
511.2054975283369
 20
239.2528419487267
 30
0.0
 10
510.910186051174
 20
239.3051010269247
 30
0.0
 10
510.3158494764435
 20
239.4299060082976
 30
0.0
 10
510.0170121695614
 20
239.5025276232993
 30
0.0
 10
509.7219292273002
 20
239.5835192272587
 30
0.0
  0
LINE
  5
2B0
330
1F
100
AcDbEntity
  8
0
  6
Continuous
 62
     7
370
    15
100
AcDbLine
 10
564.289261017
 20
239.5835193223
 30
0.0
 11
553.3738288917
 21
239.5835193223
 31
0.0
  0
SPLINE
  5
2B1
330
1F
100
AcDbEntity
  8
0
  6
Continuous
 62
     7
370
    15
100
AcDbSpline
210
0.0
220
0.0
230
1.0
 70
     8
 71
     3
 72
    18
 73
    14
 74
     0
 42
0.00000001
 43
0.00000001
 12
1.0
 22
0.0
 32
0.0
 13
1.0
 23
0.0
 33
0.0
 40
0.0
 40
0.0
 40
0.0
 40
0.0
 40
0.249999999999997
 40
0.249999999999997
 40
0.3749999999999979
 40
0.3749999999999979
 40
0.4999999999999989
 40
0.4999999999999989
 40
0.7500000000000008
 40
0.7500000000000008
 40
0.8750000000000003
 40
0.8750000000000003
 40
1.0
 40
1.0
 40
1.0
 40
1.0
 10
696.4510096692583
 20
239.5835192272586
 30
0.0
 10
696.9269917702949
 20
239.4204075409722
 30
0.0
 10
697.4272550556348
 20
239.2958966933404
 30
0.0
 10
698.2155051204372
 20
239.1695292681557
 30
0.0
 10
698.4845837722783
 20
239.1375030436376
 30
0.0
 10
699.0359011209543
 20
239.0944648355439
 30
0.0
 10
699.3197758381015
 20
239.0834953273419
 30
0.0
 10
700.1771438388491
 20
239.0835671460074
 30
0.0
 10
700.7565806898955
 20
239.1267856435114
 30
0.0
 10
701.636908036812
 20
239.252841948727
 30
0.0
 10
701.932219513975
 20
239.305101026925
 30
0.0
 10
702.5265560887055
 20
239.429906008298
 30
0.0
 10
702.8253933955876
 20
239.5025276232998
 30
0.0
 10
703.1204763378488
 20
239.5835192272591
 30
0.0
  0
LINE
  5
2B2
330
1F
100
AcDbEntity
  8
0
  6
Continuous
 62
     7
370
    15
100
AcDbLine
 10
746.5719137229
 20
239.5835193223
 30
0.0
 11
738.2457259931
 21
239.5835193223
 31
0.0
  0
SPLINE
  5
2B3
330
1F
100
AcDbEntity
  8
0
  6
Continuous
 62
     7
370
    15
100
AcDbSpline
210
0.0
220
0.0
230
1.0
 70
     8
 71
     3
 72
    16
 73
    12
 74
     0
 42
0.00000001
 43
0.00000001
 12
1.0
 22
0.0
 32
0.0
 13
1.0
 23
0.0
 33
0.0
 40
0.0
 40
0.0
 40
0.0
 40
0.0
 40
0.2499999999999961
 40
0.2499999999999961
 40
0.3749999999999941
 40
0.3749999999999941
 40
0.4999999999999921
 40
0.4999999999999921
 40
0.749999999999996
 40
0.749999999999996
 40
1.0
 40
1.0
 40
1.0
 40
1.0
 10
781.4886727243273
 20
239.5835192272589
 30
0.0
 10
780.9700132096265
 20
239.4204709211517
 30
0.0
 10
780.46945423652
 20
239.2959854848292
 30
0.0
 10
779.7467836072407
 20
239.1696134565728
 30
0.0
 10
779.5106028340095
 20
239.137578551295
 30
0.0
 10
779.0480303029673
 20
239.0945109394418
 30
0.0
 10
778.820437061152
 20
239.0835230892452
 30
0.0
 10
778.164588603292
 20
239.0835115063622
 30
0.0
 10
777.7620501324323
 20
239.1266310910374
 30
0.0
 10
777.0227360535002
 20
239.2945013771284
 30
0.0
 10
776.6843349345946
 20
239.4204232902312
 30
0.0
 10
776.3840839307782
 20
239.5835192272586
 30
0.0
  0
SPLINE
  5
2B4
330
1F
100
AcDbEntity
  8
0
  6
Continuous
 62
     7
370
    15
100
AcDbSpline
210
0.0
220
0.0
230
1.0
 70
     8
 71
     3
 72
    18
 73
    14
 74
     0
 42
0.00000001
 43
0.00000001
 12
1.0
 22
0.0
 32
0.0
 13
1.0
 23
0.0
 33
0.0
 40
0.0
 40
0.0
 40
0.0
 40
0.0
 40
0.2500000000000022
 40
0.2500000000000022
 40
0.3750000000000008
 40
0.3750000000000008
 40
0.4999999999999993
 40
0.4999999999999993
 40
0.6249999999999979
 40
0.6249999999999979
 40
0.7499999999999964
 40
0.7499999999999964
 40
1.0
 40
1.0
 40
1.0
 40
1.0
 10
812.3385694399326
 20
239.5835192272584
 30
0.0
 10
811.6075379428278
 20
239.2636455260914
 30
0.0
 10
810.9148633797073
 20
239.0146210739715
 30
0.0
 10
809.9388178057856
 20
238.7587829198376
 30
0.0
 10
809.622463053283
 20
238.6930137805344
 30
0.0
 10
809.0198496119443
 20
238.6053377345206
 30
0.0
 10
808.7362895953335
 20
238.5836146681718
 30
0.0
 10
808.2038537772127
 20
238.5834244128722
 30
0.0
 10
807.9549794931593
 20
238.6049590221771
 30
0.0
 10
807.4918671930315
 20
238.6911902858736
 30
0.0
 10
807.27648182231
 20
238.756493164374
 30
0.0
 10
806.693268948917
 20
239.0133049813924
 30
0.0
 10
806.3874096905787
 20
239.2635071587615
 30
0.0
 10
806.1554742473178
 20
239.5835192272585
 30
0.0
  0
SPLINE
  5
2B5
330
1F
100
AcDbEntity
  8
0
  6
Continuous
 62
     7
370
    15
100
AcDbSpline
210
0.0
220
0.0
230
1.0
 70
     8
 71
     3
 72
    18
 73
    14
 74
     0
 42
0.00000001
 43
0.00000001
 12
1.0
 22
0.0
 32
0.0
 13
1.0
 23
0.0
 33
0.0
 40
0.0
 40
0.0
 40
0.0
 40
0.0
 40
0.2500000000000019
 40
0.2500000000000019
 40
0.3750000000000029
 40
0.3750000000000029
 40
0.5000000000000039
 40
0.5000000000000039
 40
0.7500000000000007
 40
0.7500000000000007
 40
0.8750000000000003
 40
0.8750000000000003
 40
1.0
 40
1.0
 40
1.0
 40
1.0
 10
833.2044338027399
 20
239.5835192272587
 30
0.0
 10
832.8399808062867
 20
239.4204075409755
 30
0.0
 10
832.5052199405361
 20
239.2958966933462
 30
0.0
 10
832.0493054306353
 20
239.169529268164
 30
0.0
 10
831.9050624963979
 20
239.1375030436465
 30
0.0
 10
831.6326420138072
 20
239.0944648355537
 30
0.0
 10
831.5038302064759
 20
239.0834953273519
 30
0.0
 10
831.148770262167
 20
239.0835671460174
 30
0.0
 10
830.952984771764
 20
239.1267856435204
 30
0.0
 10
830.7174328363838
 20
239.2528419487334
 30
0.0
 10
830.648638728591
 20
239.3051010269302
 30
0.0
 10
830.5303487921279
 20
239.4299060083005
 30
0.0
 10
830.4810089435088
 20
239.5025276233009
 30
0.0
 10
830.4418502548423
 20
239.5835192272587
 30
0.0
  0
LINE
  5
2B6
330
1F
100
AcDbEntity
  8
0
  6
Continuous
 62
     7
370
    15
100
AcDbLine
 10
848.4212014713
 20
237.5835192273
 30
0.0
 11
364.4212040939
 21
237.5835192273
 31
0.0
  0
LINE
  5
2B7
330
1F
100
AcDbEntity
  8
0
  6
Continuous
 62
     7
370
    15
100
AcDbLine
 10
564.289261017
 20
239.5835193223
 30
0.0
 11
564.289261017
 21
243.5835192794
 31
0.0
  0
LINE
  5
2B8
330
1F
100
AcDbEntity
  8
0
  6
Continuous
 62
     7
370
    15
100
AcDbLine
 10
567.9022971429
 20
239.5835193223
 30
0.0
 11
564.289261017
 21
239.5835193223
 31
0.0
  0
LWPOLYLINE
  5
2B9
330
1F
100
AcDbEntity
  8
0
  6
Continuous
 62
     7
370
    15
100
AcDbPolyline
 90
        3
 70
   128
 43
0.0
 10
783.722341422
 20
431.814329035
 10
801.5146706142
 20
424.0439397166
 10
804.7284338512
 20
422.6400715182
  0
LINE
  5
2BA
330
1F
100
AcDbEntity
  8
0
  6
Continuous
 62
     7
370
    15
100
AcDbLine
 10
804.7284338512
 20
422.6400715182
 30
0.0
 11
675.6033602991
 21
422.6400715182
 31
0.0
  0
LINE
  5
2BB
330
1F
100
AcDbEntity
  8
0
  6
Continuous
 62
     7
370
    15
100
AcDbLine
 10
783.722341422
 20
431.814329035
 30
0.0
 11
676.3488802948
 21
431.814329035
 31
0.0
  0
LWPOLYLINE
  5
2BC
330
1F
100
AcDbEntity
  8
0
  6
Continuous
 62
     7
370
    15
100
AcDbPolyline
 90
        3
 70
   128
 43
0.0
 10
804.7284338512
 20
422.6400715182
 10
804.0672097244
 20
407.4971538851
 10
803.8526479043
 20
402.5835257838
  0
LINE
  5
2BD
330
1F
100
AcDbEntity
  8
0
  6
Continuous
 62
     7
370
    15
100
AcDbLine
 10
803.8526479043
 20
402.5835257838
 30
0.0
 11
670.523412887
 21
402.5835257838
 31
0.0
  0
LINE
  5
2BE
330
1F
100
AcDbEntity
  8
0
  6
Continuous
 62
     7
370
    15
100
AcDbLine
 10
553.3738288917
 20
239.5835193223
 30
0.0
 11
553.3738288917
 21
243.5835192794
 31
0.0
  0
LINE
  5
2BF
330
1F
100
AcDbEntity
  8
0
  6
Continuous
 62
     7
370
    15
100
AcDbLine
 10
465.2761969604
 20
432.5835120747
 30
0.0
 11
438.6691603698
 21
432.5835120747
 31
0.0
  0
LINE
  5
2C0
330
1F
100
AcDbEntity
  8
0
  6
Continuous
 62
     7
370
    15
100
AcDbLine
 10
465.2761969604
 20
425.58351279
 30
0.0
 11
465.2761969604
 21
432.5835120747
 31
0.0
  0
LINE
  5
2C1
330
1F
100
AcDbEntity
  8
0
  6
Continuous
 62
     7
370
    15
100
AcDbLine
 10
465.2761969604
 20
425.58351279
 30
0.0
 11
458.2086954154
 21
425.58351279
 31
0.0
  0
LINE
  5
2C2
330
1F
100
AcDbEntity
  8
0
  6
Continuous
 62
     7
370
    15
100
AcDbLine
 10
458.2086954154
 20
425.58351279
 30
0.0
 11
445.7366619148
 21
425.58351279
 31
0.0
  0
LINE
  5
2C3
330
1F
100
AcDbEntity
  8
0
  6
Continuous
 62
     7
370
    15
100
AcDbLine
 10
445.7366619148
 20
425.58351279
 30
0.0
 11
438.6691603698
 21
425.58351279
 31
0.0
  0
LINE
  5
2C4
330
1F
100
AcDbEntity
  8
0
  6
Continuous
 62
     7
370
    15
100
AcDbLine
 10
438.6691603698
 20
425.58351279
 30
0.0
 11
438.6691603698
 21
432.5835120747
 31
0.0
  0
LINE
  5
2C5
330
1F
100
AcDbEntity
  8
0
  6
Continuous
 62
     7
370
    15
100
AcDbLine
 10
445.7366619148
 20
425.58351279
 30
0.0
 11
455.95906711
 21
411.4109885762
 31
0.0
  0
LINE
  5
2C6
330
1F
100
AcDbEntity
  8
0
  6
Continuous
 62
     7
370
    15
100
AcDbLine
 10
467.9590765275
 20
404.2090189526
 30
0.0
 11
473.6257795133
 21
404.2090189526
 31
0.0
  0
LINE
  5
2C7
330
1F
100
AcDbEntity
  8
0
  6
Continuous
 62
     7
370
    15
100
AcDbLine
 10
458.2086954154
 20
425.58351279
 30
0.0
 11
473.6257795133
 21
404.2090189526
 31
0.0
  0
LINE
  5
2C8
330
1F
100
AcDbEntity
  8
0
  6
Continuous
 62
     7
370
    15
100
AcDbLine
 10
465.2761969604
 20
425.58351279
 30
0.0
 11
481.8657118716
 21
402.5835257838
 31
0.0
  0
ELLIPSE
  5
2C9
330
1F
100
AcDbEntity
  8
0
  6
Continuous
 62
     7
370
    15
100
AcDbEllipse
 10
601.0605716198
 20
218.8855085261
 30
0.0
 11
227.6000994742182
 21
-144.0053206201914
 31
0.0
210
0.0
220
0.0
230
1.0
 40
0.504020474
 41
2.532273186962627
 42
2.535968972133854
  0
ELLIPSE
  5
2CA
330
1F
100
AcDbEntity
  8
0
  6
Continuous
 62
     7
370
    15
100
AcDbEllipse
 10
601.0605716198
 20
218.8855085261
 30
0.0
 11
227.6000994742182
 21
-144.0053206201914
 31
0.0
210
0.0
220
0.0
230
1.0
 40
0.504020474
 41
2.401883667251498
 42
2.470461988169609
  0
LINE
  5
2CB
330
1F
100
AcDbEntity
  8
0
  6
Continuous
 62
     7
370
    15
100
AcDbLine
 10
438.6691603698
 20
425.58351279
 30
0.0
 11
455.2586827316
 21
402.5835257838
 31
0.0
  0
LINE
  5
2CC
330
1F
100
AcDbEntity
  8
0
  6
Continuous
 62
     7
370
    15
100
AcDbLine
 10
495.3163642325
 20
432.5835120747
 30
0.0
 11
495.3163642325
 21
431.814329035
 31
0.0
  0
LINE
  5
2CD
330
1F
100
AcDbEntity
  8
0
  6
Continuous
 62
     7
370
    15
100
AcDbLine
 10
495.3163642325
 20
432.5835120747
 30
0.0
 11
465.2761969604
 21
432.5835120747
 31
0.0
  0
LINE
  5
2CE
330
1F
100
AcDbEntity
  8
0
  6
Continuous
 62
     7
370
    15
100
AcDbLine
 10
553.3738288917
 20
239.5835193223
 30
0.0
 11
548.9509146549
 21
239.5835193223
 31
0.0
  0
LINE
  5
2CF
330
1F
100
AcDbEntity
  8
0
  6
Continuous
 62
     7
370
    15
100
AcDbLine
 10
751.1313561239
 20
239.5835193223
 30
0.0
 11
774.6313515939
 21
239.5835193223
 31
0.0
  0
LINE
  5
2D0
330
1F
100
AcDbEntity
  8
0
  6
Continuous
 62
     7
370
    15
100
AcDbLine
 10
751.1313561239
 20
239.5835193223
 30
0.0
 11
751.1313561239
 21
243.5835192794
 31
0.0
  0
LINE
  5
2D1
330
1F
100
AcDbEntity
  8
0
  6
Continuous
 62
     7
370
    15
100
AcDbLine
 10
837.0352838077
 20
295.5835175583
 30
0.0
 11
828.6060545482
 21
295.5835175583
 31
0.0
  0
LINE
  5
2D2
330
1F
100
AcDbEntity
  8
0
  6
Continuous
 62
     7
370
    15
100
AcDbLine
 10
816.6060600318
 20
295.5835175583
 30
0.0
 11
663.1368290522
 21
295.5835175583
 31
0.0
  0
LINE
  5
2D3
330
1F
100
AcDbEntity
  8
0
  6
Continuous
 62
     7
370
    15
100
AcDbLine
 10
651.1368308105
 20
295.5835175583
 30
0.0
 11
467.9590765275
 21
295.5835175583
 31
0.0
  0
LINE
  5
2D4
330
1F
100
AcDbEntity
  8
0
  6
Continuous
 62
     7
370
    15
100
AcDbLine
 10
455.95906711
 20
295.5835175583
 30
0.0
 11
375.8071217575
 21
295.5835175583
 31
0.0
  0
LINE
  5
2D5
330
1F
100
AcDbEntity
  8
0
  6
Continuous
 62
     7
370
    15
100
AcDbLine
 10
831.8422142305
 20
321.6875281999
 30
0.0
 11
832.0303264894
 21
321.3378873537
 31
0.0
  0
SPLINE
  5
2D6
330
1F
100
AcDbEntity
  8
0
  6
Continuous
 62
     7
370
    15
100
AcDbSpline
210
0.0
220
0.0
230
1.0
 70
     8
 71
     3
 72
     9
 73
     5
 74
     0
 42
0.00000001
 43
0.00000001
 12
1.0
 22
0.0
 32
0.0
 13
1.0
 23
0.0
 33
0.0
 40
0.0
 40
0.0
 40
0.0
 40
0.0
 40
0.2168079612267931
 40
1.0
 40
1.0
 40
1.0
 40
1.0
 10
828.6060545482159
 20
341.4250028202457
 30
0.0
 10
828.6996319975356
 20
341.2746743759072
 30
0.0
 10
829.1312464492844
 20
340.5813029540842
 30
0.0
 10
829.5163784078048
 20
339.8840048794758
 30
0.0
 10
829.8180106915951
 20
339.3378865787906
 30
0.0
  0
SPLINE
  5
2D7
330
1F
100
AcDbEntity
  8
0
  6
Continuous
 62
     7
370
    15
100
AcDbSpline
210
0.0
220
0.0
230
1.0
 70
     8
 71
     3
 72
     9
 73
     5
 74
     0
 42
0.00000001
 43
0.00000001
 12
1.0
 22
0.0
 32
0.0
 13
1.0
 23
0.0
 33
0.0
 40
0.0
 40
0.0
 40
0.0
 40
0.0
 40
0.9004122919885282
 40
1.0
 40
1.0
 40
1.0
 40
1.0
 10
829.8180106915951
 20
339.3378865787906
 30
0.0
 10
829.4840983915743
 20
338.5198330874892
 30
0.0
 10
829.1132546092408
 20
337.6113009643941
 30
0.0
 10
828.6519907579542
 20
336.7088694425201
 30
0.0
 10
828.6060545482159
 20
336.6189983556193
 30
0.0
  0
LINE
  5
2D8
330
1F
100
AcDbEntity
  8
0
  6
Continuous
 62
     7
370
    15
100
AcDbLine
 10
829.5376155414
 20
356.4807412097
 30
0.0
 11
829.4737491645
 21
356.1103132436
 31
0.0
  0
LINE
  5
2D9
330
1F
100
AcDbEntity
  8
0
  6
Continuous
 62
     7
370
    15
100
AcDbLine
 10
473.9590737857
 20
435.0835245917
 30
0.0
 11
449.9590698518
 21
435.0835245917
 31
0.0
  0
LINE
  5
2DA
330
1F
100
AcDbEntity
  8
0
  6
Continuous
 62
     7
370
    15
100
AcDbLine
 10
455.8646533527
 20
445.0835150549
 30
0.0
 11
455.8646533527
 21
435.0835245917
 31
0.0
  0
LINE
  5
2DB
330
1F
100
AcDbEntity
  8
0
  6
Continuous
 62
     7
370
    15
100
AcDbLine
 10
466.8108228483
 20
445.0835150549
 30
0.0
 11
466.8108228483
 21
435.0835245917
 31
0.0
  0
LINE
  5
2DC
330
1F
100
AcDbEntity
  8
0
  6
Continuous
 62
     7
370
    15
100
AcDbLine
 10
455.8646533527
 20
445.0835150549
 30
0.0
 11
466.8108228483
 21
445.0835150549
 31
0.0
  0
LINE
  5
2DD
330
1F
100
AcDbEntity
  8
0
  6
Continuous
 62
     7
370
    15
100
AcDbLine
 10
472.9052338638
 20
445.0835150549
 30
0.0
 11
472.9052338638
 21
435.0835245917
 31
0.0
  0
LINE
  5
2DE
330
1F
100
AcDbEntity
  8
0
  6
Continuous
 62
     7
370
    15
100
AcDbLine
 10
466.8108228483
 20
445.0835150549
 30
0.0
 11
472.9052338638
 21
445.0835150549
 31
0.0
  0
LINE
  5
2DF
330
1F
100
AcDbEntity
  8
0
  6
Continuous
 62
     7
370
    15
100
AcDbLine
 10
451.0129097738
 20
445.0835150549
 30
0.0
 11
451.0129097738
 21
435.0835245917
 31
0.0
  0
LINE
  5
2E0
330
1F
100
AcDbEntity
  8
0
  6
Continuous
 62
     7
370
    15
100
AcDbLine
 10
451.0129097738
 20
445.0835150549
 30
0.0
 11
455.8646533527
 21
445.0835150549
 31
0.0
  0
LINE
  5
2E1
330
1F
100
AcDbEntity
  8
0
  6
Continuous
 62
     7
370
    15
100
AcDbLine
 10
783.722341422
 20
432.5835120747
 30
0.0
 11
783.722341422
 21
431.814329035
 31
0.0
  0
LINE
  5
2E2
330
1F
100
AcDbEntity
  8
0
  6
Continuous
 62
     7
370
    15
100
AcDbLine
 10
438.6691603698
 20
431.814329035
 30
0.0
 11
389.9162713327
 21
431.814329035
 31
0.0
  0
LINE
  5
2E3
330
1F
100
AcDbEntity
  8
0
  6
Continuous
 62
     7
370
    15
100
AcDbLine
 10
389.9162713327
 20
432.5835120747
 30
0.0
 11
389.9162713327
 21
431.814329035
 31
0.0
  0
LINE
  5
2E4
330
1F
100
AcDbEntity
  8
0
  6
Continuous
 62
     7
370
    15
100
AcDbLine
 10
812.7676699199
 20
435.5835181544
 30
0.0
 11
667.5243269541
 21
435.5835181544
 31
0.0
  0
LINE
  5
2E5
330
1F
100
AcDbEntity
  8
0
  6
Continuous
 62
     7
370
    15
100
AcDbLine
 10
646.7493329086
 20
435.5835181544
 30
0.0
 11
472.9052338638
 21
435.5835181544
 31
0.0
  0
LINE
  5
2E6
330
1F
100
AcDbEntity
  8
0
  6
Continuous
 62
     7
370
    15
100
AcDbLine
 10
451.0129097738
 20
435.5835181544
 30
0.0
 11
381.9212023057
 21
435.5835181544
 31
0.0
  0
LINE
  5
2E7
330
1F
100
AcDbEntity
  8
0
  6
Continuous
 62
     7
370
    15
100
AcDbLine
 10
469.9590656795
 20
452.0835143397
 30
0.0
 11
453.9590779581
 21
452.0835143397
 31
0.0
  0
LINE
  5
2E8
330
1F
100
AcDbEntity
  8
0
  6
Continuous
 62
     7
370
    15
100
AcDbLine
 10
469.9590656795
 20
451.583520777
 30
0.0
 11
453.9590779581
 21
451.583520777
 31
0.0
  0
LINE
  5
2E9
330
1F
100
AcDbEntity
  8
0
  6
Continuous
 62
     7
370
    15
100
AcDbLine
 10
468.4590700902
 20
463.5835152934
 30
0.0
 11
455.4590735473
 21
463.5835152934
 31
0.0
  0
LINE
  5
2EA
330
1F
100
AcDbEntity
  8
0
  6
Continuous
 62
     7
370
    15
100
AcDbLine
 10
430.1000837125
 20
239.5835193223
 30
0.0
 11
387.0023790636
 21
239.5835193223
 31
0.0
  0
LINE
  5
2EB
330
1F
100
AcDbEntity
  8
0
  6
Continuous
 62
     7
370
    15
100
AcDbLine
 10
825.8400265016
 20
239.5835193223
 30
0.0
 11
782.7423218526
 21
239.5835193223
 31
0.0
  0
LINE
  5
2EC
330
1F
100
AcDbEntity
  8
0
  6
Continuous
 62
     7
370
    15
100
AcDbLine
 10
466.2704918422
 20
239.5835193223
 30
0.0
 11
453.2655332126
 21
239.5835193223
 31
0.0
  0
LINE
  5
2ED
330
1F
100
AcDbEntity
  8
0
  6
Continuous
 62
     7
370
    15
100
AcDbLine
 10
780.8449569978
 20
243.5835192794
 30
0.0
 11
780.8449569978
 21
239.5835193223
 31
0.0
  0
LINE
  5
2EE
330
1F
100
AcDbEntity
  8
0
  6
Continuous
 62
     7
370
    15
100
AcDbLine
 10
774.6313515939
 20
239.5835193223
 30
0.0
 11
780.8449569978
 21
239.5835193223
 31
0.0
  0
LINE
  5
2EF
330
1F
100
AcDbEntity
  8
0
  6
Continuous
 62
     7
370
    15
100
AcDbLine
 10
453.2655332126
 20
239.5835193223
 30
0.0
 11
430.1000837125
 21
239.5835193223
 31
0.0
  0
LINE
  5
2F0
330
1F
100
AcDbEntity
  8
0
  6
Continuous
 62
     7
370
    15
100
AcDbLine
 10
782.7423218526
 20
239.5835193223
 30
0.0
 11
780.8449569978
 21
239.5835193223
 31
0.0
  0
LINE
  5
2F1
330
1F
100
AcDbEntity
  8
0
  6
Continuous
 62
     7
370
    15
100
AcDbLine
 10
481.8657118716
 20
402.5835257838
 30
0.0
 11
467.9590765275
 21
402.5835257838
 31
0.0
  0
LINE
  5
2F2
330
1F
100
AcDbEntity
  8
0
  6
Continuous
 62
     7
370
    15
100
AcDbLine
 10
455.95906711
 20
402.5835257838
 30
0.0
 11
455.2586827316
 21
402.5835257838
 31
0.0
  0
LINE
  5
2F3
330
1F
100
AcDbEntity
  8
0
  6
Continuous
 62
     7
370
    15
100
AcDbLine
 10
746.5719137229
 20
239.5835193223
 30
0.0
 11
746.5719137229
 21
243.5835192794
 31
0.0
  0
LINE
  5
2F4
330
1F
100
AcDbEntity
  8
0
  6
Continuous
 62
     7
370
    15
100
AcDbLine
 10
751.1313561239
 20
239.5835193223
 30
0.0
 11
746.5719137229
 21
239.5835193223
 31
0.0
  0
LWPOLYLINE
  5
2F5
330
1F
100
AcDbEntity
  8
0
  6
Continuous
 62
     7
370
    15
100
AcDbPolyline
 90
        3
 70
   128
 43
0.0
 10
365.1378754415
 20
422.6400715182
 10
365.9178469219
 20
407.4971538851
 10
366.1709282436
 20
402.5835257838
  0
LINE
  5
2F6
330
1F
100
AcDbEntity
  8
0
  6
Continuous
 62
     7
370
    15
100
AcDbLine
 10
440.7922182121
 20
422.6400715182
 30
0.0
 11
365.1378754415
 21
422.6400715182
 31
0.0
  0
LINE
  5
2F7
330
1F
100
AcDbEntity
  8
0
  6
Continuous
 62
     7
370
    15
100
AcDbLine
 10
455.2586827316
 20
402.5835257838
 30
0.0
 11
366.1709282436
 21
402.5835257838
 31
0.0
  0
LWPOLYLINE
  5
2F8
330
1F
100
AcDbEntity
  8
0
  6
Continuous
 62
     7
370
    15
100
AcDbPolyline
 90
        3
 70
   128
 43
0.0
 10
389.9162713327
 20
431.814329035
 10
368.9287755527
 20
424.0439397166
 10
365.1378754415
 20
422.6400715182
  0
LINE
  5
2F9
330
1F
100
AcDbEntity
  8
0
  6
Continuous
 62
     7
370
    15
100
AcDbLine
 10
371.3110092916
 20
239.5835193223
 30
0.0
 11
387.0023790636
 21
239.5835193223
 31
0.0
  0
LINE
  5
2FA
330
1F
100
AcDbEntity
  8
0
  6
Continuous
 62
     7
370
    15
100
AcDbLine
 10
828.68063486
 20
425.58351279
 30
0.0
 11
828.68063486
 21
432.5835120747
 31
0.0
  0
LINE
  5
2FB
330
1F
100
AcDbEntity
  8
0
  6
Continuous
 62
     7
370
    15
100
AcDbLine
 10
828.68063486
 20
425.58351279
 30
0.0
 11
803.8526479043
 21
402.5835257838
 31
0.0
  0
LINE
  5
2FC
330
1F
100
AcDbEntity
  8
0
  6
Continuous
 62
     7
370
    15
100
AcDbLine
 10
783.722341422
 20
432.5835120747
 30
0.0
 11
828.68063486
 21
432.5835120747
 31
0.0
  0
LINE
  5
2FD
330
1F
100
AcDbEntity
  8
0
  6
Continuous
 62
     7
370
    15
100
AcDbLine
 10
833.4029767551
 20
425.58351279
 30
0.0
 11
828.68063486
 21
425.58351279
 31
0.0
  0
LINE
  5
2FE
330
1F
100
AcDbEntity
  8
0
  6
Continuous
 62
     7
370
    15
100
AcDbLine
 10
833.4029767551
 20
425.58351279
 30
0.0
 11
810.329690937
 21
404.2090189526
 31
0.0
  0
LINE
  5
2FF
330
1F
100
AcDbEntity
  8
0
  6
Continuous
 62
     7
370
    15
100
AcDbLine
 10
810.329690937
 20
404.2090189526
 30
0.0
 11
816.6060600318
 21
404.2090189526
 31
0.0
  0
LINE
  5
300
330
1F
100
AcDbEntity
  8
0
  6
Continuous
 62
     7
370
    15
100
AcDbLine
 10
841.7365256586
 20
425.58351279
 30
0.0
 11
828.6060545482
 21
413.4197843144
 31
0.0
  0
LINE
  5
301
330
1F
100
AcDbEntity
  8
0
  6
Continuous
 62
     7
370
    15
100
AcDbLine
 10
846.4588824548
 20
425.58351279
 30
0.0
 11
841.7365256586
 21
425.58351279
 31
0.0
  0
LINE
  5
302
330
1F
100
AcDbEntity
  8
0
  6
Continuous
 62
     7
370
    15
100
AcDbLine
 10
846.4588824548
 20
425.58351279
 30
0.0
 11
828.6060545482
 21
409.0451312134
 31
0.0
  0
ELLIPSE
  5
303
330
1F
100
AcDbEntity
  8
0
  6
Continuous
 62
     7
370
    15
100
AcDbEllipse
 10
614.4439542723
 20
218.8855085261
 30
0.0
 11
233.7171692918279
 21
171.0692508704574
 31
0.0
210
0.0
220
0.0
230
1.0
 40
0.2912141143
 41
0.3523825903487786
 42
0.4457034790778626
  0
LINE
  5
304
330
1F
100
AcDbEntity
  8
0
  6
Continuous
 62
     7
370
    15
100
AcDbLine
 10
846.4588824548
 20
425.58351279
 30
0.0
 11
846.4588824548
 21
432.5835120747
 31
0.0
  0
LINE
  5
305
330
1F
100
AcDbEntity
  8
0
  6
Continuous
 62
     7
370
    15
100
AcDbLine
 10
841.7365256586
 20
425.58351279
 30
0.0
 11
833.4029767551
 21
425.58351279
 31
0.0
  0
LINE
  5
306
330
1F
100
AcDbEntity
  8
0
  6
Continuous
 62
     7
370
    15
100
AcDbLine
 10
846.4588824548
 20
432.5835120747
 30
0.0
 11
828.68063486
 21
432.5835120747
 31
0.0
  0
LINE
  5
307
330
1F
100
AcDbEntity
  8
0
  6
Continuous
 62
     7
370
    15
100
AcDbLine
 10
834.6060667076
 20
435.0835245917
 30
0.0
 11
810.6060627737
 21
435.0835245917
 31
0.0
  0
LINE
  5
308
330
1F
100
AcDbEntity
  8
0
  6
Continuous
 62
     7
370
    15
100
AcDbLine
 10
812.7676699199
 20
445.0835150549
 30
0.0
 11
812.7676699199
 21
435.0835245917
 31
0.0
  0
LINE
  5
309
330
1F
100
AcDbEntity
  8
0
  6
Continuous
 62
     7
370
    15
100
AcDbLine
 10
812.7676699199
 20
445.0835150549
 30
0.0
 11
821.888611082
 21
445.0835150549
 31
0.0
  0
LINE
  5
30A
330
1F
100
AcDbEntity
  8
0
  6
Continuous
 62
     7
370
    15
100
AcDbLine
 10
821.888611082
 20
445.0835150549
 30
0.0
 11
821.888611082
 21
435.0835245917
 31
0.0
  0
LINE
  5
30B
330
1F
100
AcDbEntity
  8
0
  6
Continuous
 62
     7
370
    15
100
AcDbLine
 10
831.7269984521
 20
445.0835150549
 30
0.0
 11
831.7269984521
 21
435.0835245917
 31
0.0
  0
LINE
  5
30C
330
1F
100
AcDbEntity
  8
0
  6
Continuous
 62
     7
370
    15
100
AcDbLine
 10
821.888611082
 20
445.0835150549
 30
0.0
 11
831.7269984521
 21
445.0835150549
 31
0.0
  0
LINE
  5
30D
330
1F
100
AcDbEntity
  8
0
  6
Continuous
 62
     7
370
    15
100
AcDbLine
 10
830.6060586013
 20
451.583520777
 30
0.0
 11
814.6060559787
 21
451.583520777
 31
0.0
  0
LINE
  5
30E
330
1F
100
AcDbEntity
  8
0
  6
Continuous
 62
     7
370
    15
100
AcDbLine
 10
830.6060586013
 20
452.0835143397
 30
0.0
 11
814.6060559787
 21
452.0835143397
 31
0.0
  0
LINE
  5
30F
330
1F
100
AcDbEntity
  8
0
  6
Continuous
 62
     7
370
    15
100
AcDbLine
 10
816.6060600318
 20
402.5835257838
 30
0.0
 11
803.8526479043
 21
402.5835257838
 31
0.0
  0
LINE
  5
310
330
1F
100
AcDbEntity
  8
0
  6
Continuous
 62
     7
370
    15
100
AcDbLine
 10
829.1060630121
 20
463.5835152934
 30
0.0
 11
816.1060664691
 21
463.5835152934
 31
0.0
  0
LINE
  5
311
330
1F
100
AcDbEntity
  8
0
  6
Continuous
 62
     7
370
    15
100
AcDbLine
 10
832.4444446601
 20
445.0835150549
 30
0.0
 11
832.4444446601
 21
435.0835245917
 31
0.0
  0
LINE
  5
312
330
1F
100
AcDbEntity
  8
0
  6
Continuous
 62
     7
370
    15
100
AcDbLine
 10
831.7269984521
 20
445.0835150549
 30
0.0
 11
832.4444446601
 21
445.0835150549
 31
0.0
  0
LINE
  5
313
330
1F
100
AcDbEntity
  8
0
  6
Continuous
 62
     7
370
    15
100
AcDbLine
 10
363.2790151872
 20
239.5835193223
 30
0.0
 11
371.3110092916
 21
239.5835193223
 31
0.0
  0
LINE
  5
314
330
1F
100
AcDbEntity
  8
0
  6
Continuous
 62
     7
370
    15
100
AcDbLine
 10
363.2790151872
 20
239.5835193223
 30
0.0
 11
363.2790151872
 21
243.5835192794
 31
0.0
  0
LINE
  5
315
330
1F
100
AcDbEntity
  8
0
  6
Continuous
 62
     7
370
    15
100
AcDbLine
 10
361.0930446424
 20
239.5835193223
 30
0.0
 11
328.4737173357
 21
239.5835193223
 31
0.0
  0
LINE
  5
316
330
1F
100
AcDbEntity
  8
0
  6
Continuous
 62
     7
370
    15
100
AcDbLine
 10
884.3686882295
 20
239.5835193223
 30
0.0
 11
851.7493609228
 21
239.5835193223
 31
0.0
  0
LINE
  5
317
330
1F
100
AcDbEntity
  8
0
  6
Continuous
 62
     7
370
    15
100
AcDbLine
 10
851.7493609228
 20
239.5835193223
 30
0.0
 11
825.8400265016
 21
239.5835193223
 31
0.0
  0
LINE
  5
318
330
1F
100
AcDbEntity
  8
0
  6
Continuous
 62
     7
370
    15
100
AcDbLine
 10
363.2790151872
 20
239.5835193223
 30
0.0
 11
361.0930446424
 21
239.5835193223
 31
0.0
  0
LINE
  5
319
330
1F
100
AcDbEntity
  8
0
  6
Continuous
 62
     7
370
    15
100
AcDbLine
 10
856.127277378
 20
422.6400715182
 30
0.0
 11
843.2814929523
 21
422.6400715182
 31
0.0
  0
LINE
  5
31A
330
1F
100
AcDbEntity
  8
0
  6
Continuous
 62
     7
370
    15
100
AcDbLine
 10
855.0761494674
 20
402.5835257838
 30
0.0
 11
828.6060545482
 21
402.5835257838
 31
0.0
  0
LINE
  5
31B
330
1F
100
AcDbEntity
  8
0
  6
Continuous
 62
     7
370
    15
100
AcDbLine
 10
336.884349946
 20
432.5835120747
 30
0.0
 11
330.6414488592
 21
432.5835120747
 31
0.0
  0
LINE
  5
31C
330
1F
100
AcDbEntity
  8
0
  6
Continuous
 62
     7
370
    15
100
AcDbLine
 10
336.884349946
 20
425.58351279
 30
0.0
 11
336.884349946
 21
432.5835120747
 31
0.0
  0
LINE
  5
31D
330
1F
100
AcDbEntity
  8
0
  6
Continuous
 62
     7
370
    15
100
AcDbLine
 10
336.884349946
 20
425.58351279
 30
0.0
 11
335.2260593214
 21
425.58351279
 31
0.0
  0
LINE
  5
31E
330
1F
100
AcDbEntity
  8
0
  6
Continuous
 62
     7
370
    15
100
AcDbLine
 10
335.2260593214
 20
425.58351279
 30
0.0
 11
332.2997096815
 21
425.58351279
 31
0.0
  0
LINE
  5
31F
330
1F
100
AcDbEntity
  8
0
  6
Continuous
 62
     7
370
    15
100
AcDbLine
 10
332.2997096815
 20
425.58351279
 30
0.0
 11
330.6414488592
 21
425.58351279
 31
0.0
  0
LINE
  5
320
330
1F
100
AcDbEntity
  8
0
  6
Continuous
 62
     7
370
    15
100
AcDbLine
 10
330.6414488592
 20
425.58351279
 30
0.0
 11
330.6414488592
 21
432.5835120747
 31
0.0
  0
LINE
  5
321
330
1F
100
AcDbEntity
  8
0
  6
Continuous
 62
     7
370
    15
100
AcDbLine
 10
330.6414488592
 20
425.58351279
 30
0.0
 11
345.4052809515
 21
413.9888596604
 31
0.0
  0
LINE
  5
322
330
1F
100
AcDbEntity
  8
0
  6
Continuous
 62
     7
370
    15
100
AcDbLine
 10
357.4052754678
 20
404.5647543738
 30
0.0
 11
359.9280420579
 21
402.5835257838
 31
0.0
  0
LINE
  5
323
330
1F
100
AcDbEntity
  8
0
  6
Continuous
 62
     7
370
    15
100
AcDbLine
 10
332.2997096815
 20
425.58351279
 30
0.0
 11
345.4052809515
 21
415.2911764452
 31
0.0
  0
LINE
  5
324
330
1F
100
AcDbEntity
  8
0
  6
Continuous
 62
     7
370
    15
100
AcDbLine
 10
357.4052754678
 20
405.8670711586
 30
0.0
 11
359.5165017881
 21
404.2090189526
 31
0.0
  0
LINE
  5
325
330
1F
100
AcDbEntity
  8
0
  6
Continuous
 62
     7
370
    15
100
AcDbLine
 10
359.5165017881
 20
404.2090189526
 30
0.0
 11
362.4428663291
 21
404.2090189526
 31
0.0
  0
LINE
  5
326
330
1F
100
AcDbEntity
  8
0
  6
Continuous
 62
     7
370
    15
100
AcDbLine
 10
335.2260593214
 20
425.58351279
 30
0.0
 11
362.4428663291
 21
404.2090189526
 31
0.0
  0
LINE
  5
327
330
1F
100
AcDbEntity
  8
0
  6
Continuous
 62
     7
370
    15
100
AcDbLine
 10
336.884349946
 20
425.58351279
 30
0.0
 11
366.1709282436
 21
402.5835257838
 31
0.0
  0
ELLIPSE
  5
328
330
1F
100
AcDbEntity
  8
0
  6
Continuous
 62
     7
370
    15
100
AcDbEllipse
 10
596.9577221538
 20
218.8855085261
 30
0.0
 11
238.388021044626
 21
-182.7107238657697
 31
0.0
210
0.0
220
0.0
230
1.0
 40
0.0950925561
 41
2.951110767055838
 42
3.085196071938185
  0
LINE
  5
329
330
1F
100
AcDbEntity
  8
0
  6
Continuous
 62
     7
370
    15
100
AcDbLine
 10
389.9162713327
 20
432.5835120747
 30
0.0
 11
336.884349946
 21
432.5835120747
 31
0.0
  0
LINE
  5
32A
330
1F
100
AcDbEntity
  8
0
  6
Continuous
 62
     7
370
    15
100
AcDbLine
 10
366.1709282436
 20
402.5835257838
 30
0.0
 11
359.9280420579
 21
402.5835257838
 31
0.0
  0
LINE
  5
32B
330
1F
100
AcDbEntity
  8
0
  6
Continuous
 62
     7
370
    15
100
AcDbLine
 10
363.405272726
 20
435.0835245917
 30
0.0
 11
339.4052687921
 21
435.0835245917
 31
0.0
  0
LINE
  5
32C
330
1F
100
AcDbEntity
  8
0
  6
Continuous
 62
     7
370
    15
100
AcDbLine
 10
340.6463865079
 20
445.0835150549
 30
0.0
 11
340.6463865079
 21
435.0835245917
 31
0.0
  0
LINE
  5
32D
330
1F
100
AcDbEntity
  8
0
  6
Continuous
 62
     7
370
    15
100
AcDbLine
 10
347.8792015352
 20
445.0835150549
 30
0.0
 11
347.8792015352
 21
435.0835245917
 31
0.0
  0
LINE
  5
32E
330
1F
100
AcDbEntity
  8
0
  6
Continuous
 62
     7
370
    15
100
AcDbLine
 10
340.6463865079
 20
445.0835150549
 30
0.0
 11
347.8792015352
 21
445.0835150549
 31
0.0
  0
LINE
  5
32F
330
1F
100
AcDbEntity
  8
0
  6
Continuous
 62
     7
370
    15
100
AcDbLine
 10
358.6380634346
 20
445.0835150549
 30
0.0
 11
358.6380634346
 21
435.0835245917
 31
0.0
  0
LINE
  5
330
330
1F
100
AcDbEntity
  8
0
  6
Continuous
 62
     7
370
    15
100
AcDbLine
 10
347.8792015352
 20
445.0835150549
 30
0.0
 11
358.6380634346
 21
445.0835150549
 31
0.0
  0
LINE
  5
331
330
1F
100
AcDbEntity
  8
0
  6
Continuous
 62
     7
370
    15
100
AcDbLine
 10
362.164140109
 20
445.0835150549
 30
0.0
 11
362.164140109
 21
435.0835245917
 31
0.0
  0
LINE
  5
332
330
1F
100
AcDbEntity
  8
0
  6
Continuous
 62
     7
370
    15
100
AcDbLine
 10
358.6380634346
 20
445.0835150549
 30
0.0
 11
362.164140109
 21
445.0835150549
 31
0.0
  0
LINE
  5
333
330
1F
100
AcDbEntity
  8
0
  6
Continuous
 62
     7
370
    15
100
AcDbLine
 10
359.4052646198
 20
451.583520777
 30
0.0
 11
343.4052768983
 21
451.583520777
 31
0.0
  0
LINE
  5
334
330
1F
100
AcDbEntity
  8
0
  6
Continuous
 62
     7
370
    15
100
AcDbLine
 10
359.4052646198
 20
452.0835143397
 30
0.0
 11
343.4052768983
 21
452.0835143397
 31
0.0
  0
LINE
  5
335
330
1F
100
AcDbEntity
  8
0
  6
Continuous
 62
     7
370
    15
100
AcDbLine
 10
357.9052690305
 20
463.5835152934
 30
0.0
 11
344.9052575864
 21
463.5835152934
 31
0.0
  0
LINE
  5
336
330
1F
100
AcDbEntity
  8
0
  6
Continuous
 62
     7
370
    15
100
AcDbLine
 10
359.5165017881
 20
404.2090189526
 30
0.0
 11
359.5165017881
 21
406.5072101424
 31
0.0
  0
LINE
  5
337
330
1F
100
AcDbEntity
  8
0
  6
Continuous
 62
     7
370
    15
100
AcDbLine
 10
829.8180106916
 20
339.3378865788
 30
0.0
 11
831.3180062809
 21
339.3378865788
 31
0.0
  0
SPLINE
  5
338
330
1F
100
AcDbEntity
  8
0
  6
Continuous
 62
     7
370
    15
100
AcDbSpline
210
0.0
220
0.0
230
1.0
 70
     8
 71
     3
 72
    11
 73
     7
 74
     0
 42
0.00000001
 43
0.00000001
 12
1.0
 22
0.0
 32
0.0
 13
1.0
 23
0.0
 33
0.0
 40
0.0
 40
0.0
 40
0.0
 40
0.0
 40
0.1705261642083463
 40
0.4482916363132619
 40
0.7217441708358083
 40
1.0
 40
1.0
 40
1.0
 40
1.0
 10
828.6060545482159
 20
343.7697750399035
 30
0.0
 10
828.7755714208689
 20
343.5192383744958
 30
0.0
 10
829.2212097578191
 20
342.8606092883757
 30
0.0
 10
829.8922162640968
 20
341.7958626677645
 30
0.0
 10
830.6317708806308
 20
340.569451809575
 30
0.0
 10
831.0879373189191
 20
339.7507841560759
 30
0.0
 10
831.3180062808514
 20
339.3378865787906
 30
0.0
  0
SPLINE
  5
339
330
1F
100
AcDbEntity
  8
0
  6
Continuous
 62
     7
370
    15
100
AcDbSpline
210
0.0
220
0.0
230
1.0
 70
     8
 71
     3
 72
    15
 73
    11
 74
     0
 42
0.00000001
 43
0.00000001
 12
1.0
 22
0.0
 32
0.0
 13
1.0
 23
0.0
 33
0.0
 40
0.0
 40
0.0
 40
0.0
 40
0.0
 40
0.0973849640653203
 40
0.1960598193048086
 40
0.2960240110342348
 40
0.3972769763981912
 40
0.4998181443941033
 40
0.6621018973290732
 40
0.8288302710526546
 40
1.0
 40
1.0
 40
1.0
 40
1.0
 10
830.0406519647863
 20
332.01349280068
 30
0.0
 10
830.1293101279286
 20
332.1922444721932
 30
0.0
 10
830.3078007564607
 20
332.5521154312646
 30
0.0
 10
830.5671623868341
 20
333.0961767540457
 30
0.0
 10
830.8222787094106
 20
333.6478533930721
 30
0.0
 10
831.0720721038771
 20
334.2071988242305
 30
0.0
 10
831.3629263888122
 20
334.8819359853757
 30
0.0
 10
831.6896089513126
 20
335.6783323400212
 30
0.0
 10
832.0471950336041
 20
336.6025763065811
 30
0.0
 10
832.2686634439381
 20
337.2279981276627
 30
0.0
 10
832.3808531468917
 20
337.5448193312922
 30
0.0
  0
LINE
  5
33A
330
1F
100
AcDbEntity
  8
0
  6
Continuous
 62
     7
370
    15
100
AcDbLine
 10
830.807090167
 20
321.3378873537
 30
0.0
 11
830.040648941
 21
332.0134964654
 31
0.0
  0
LINE
  5
33B
330
1F
100
AcDbEntity
  8
0
  6
Continuous
 62
     7
370
    15
100
AcDbLine
 10
829.951256875
 20
321.3378873537
 30
0.0
 11
830.807090167
 21
321.3378873537
 31
0.0
  0
LINE
  5
33C
330
1F
100
AcDbEntity
  8
0
  6
Continuous
 62
     7
370
    15
100
AcDbLine
 10
829.0060911216
 20
334.4521683524
 30
0.0
 11
829.951256875
 21
321.3378873537
 31
0.0
  0
SPLINE
  5
33D
330
1F
100
AcDbEntity
  8
0
  6
Continuous
 62
     7
370
    15
100
AcDbSpline
210
0.0
220
0.0
230
1.0
 70
     8
 71
     3
 72
    14
 73
    10
 74
     0
 42
0.00000001
 43
0.00000001
 12
1.0
 22
0.0
 32
0.0
 13
1.0
 23
0.0
 33
0.0
 40
0.0
 40
0.0
 40
0.0
 40
0.0
 40
0.1278888158708131
 40
0.2538824235890478
 40
0.3779798939342404
 40
0.5001803131483408
 40
0.6696313387930525
 40
0.8362385089564706
 40
0.9999999999999999
 40
0.9999999999999999
 40
0.9999999999999999
 40
0.9999999999999999
 10
831.3180043444845
 20
339.3378838132004
 30
0.0
 10
831.2323014293838
 20
339.128778356019
 30
0.0
 10
831.062165646624
 20
338.7136662143244
 30
0.0
 10
830.7956332956261
 20
338.0964354506543
 30
0.0
 10
830.5237257757166
 20
337.4890824227849
 30
0.0
 10
830.208816854772
 20
336.811561887522
 30
0.0
 10
829.8469605245369
 20
336.0657630452226
 30
0.0
 10
829.4353630175694
 20
335.2535100922469
 30
0.0
 10
829.1483555613077
 20
334.7177447511821
 30
0.0
 10
829.006087923674
 20
334.452169527486
 30
0.0
  0
LINE
  5
33E
330
1F
100
AcDbEntity
  8
0
  6
Continuous
 62
     7
370
    15
100
AcDbLine
 10
828.9887610712
 20
346.6622766921
 30
0.0
 11
828.6060545482
 21
351.9905370543
 31
0.0
  0
SPLINE
  5
33F
330
1F
100
AcDbEntity
  8
0
  6
Continuous
 62
     7
370
    15
100
AcDbSpline
210
0.0
220
0.0
230
1.0
 70
     8
 71
     3
 72
    15
 73
    11
 74
     0
 42
0.00000001
 43
0.00000001
 12
1.0
 22
0.0
 32
0.0
 13
1.0
 23
0.0
 33
0.0
 40
0.0
 40
0.0
 40
0.0
 40
0.0
 40
0.1017520596976088
 40
0.202651802971588
 40
0.302699635534071
 40
0.401895960334327
 40
0.5002411775811939
 40
0.6689190732682907
 40
0.835504782817209
 40
1.0
 40
1.0
 40
1.0
 40
1.0
 10
832.1264849022791
 20
341.1309482951085
 30
0.0
 10
832.0333899692691
 20
341.3195875049813
 30
0.0
 10
831.8479799040765
 20
341.6952858063762
 30
0.0
 10
831.5601820097265
 20
342.2556897356912
 30
0.0
 10
831.2670256479754
 20
342.8107838028337
 30
0.0
 10
830.9679352408226
 20
343.3605125322558
 30
0.0
 10
830.5899202543405
 20
344.0362389282506
 30
0.0
 10
830.1258429301731
 20
344.8349738911905
 30
0.0
 10
829.5693821352908
 20
345.7537512363315
 30
0.0
 10
829.1814802815857
 20
346.3607111064267
 30
0.0
 10
828.9887539886497
 20
346.6622748257208
 30
0.0
  0
LWPOLYLINE
  5
340
330
1F
100
AcDbEntity
  8
0
  6
Continuous
 62
     7
370
    15
100
AcDbPolyline
 90
        3
 70
   128
 43
0.0
 10
832.3808465042
 20
337.5448224018
 10
832.2384063043
 20
339.5530518958
 10
832.1264836826
 20
341.1309507558
  0
LINE
  5
341
330
1F
100
AcDbEntity
  8
0
  6
Continuous
 62
     7
370
    15
100
AcDbLine
 10
828.6060545482
 20
334.4521683524
 30
0.0
 11
829.0060911216
 21
334.4521683524
 31
0.0
  0
LINE
  5
342
330
1F
100
AcDbEntity
  8
0
  6
Continuous
 62
     7
370
    15
100
AcDbLine
 10
828.6060545482
 20
321.3378873537
 30
0.0
 11
829.951256875
 21
321.3378873537
 31
0.0
  0
LINE
  5
343
330
1F
100
AcDbEntity
  8
0
  6
Continuous
 62
     7
370
    15
100
AcDbLine
 10
831.3679847755
 20
342.6116865942
 30
0.0
 11
832.0214453973
 21
342.6116865942
 31
0.0
  0
LINE
  5
344
330
1F
100
AcDbEntity
  8
0
  6
Continuous
 62
     7
370
    15
100
AcDbLine
 10
828.9225105085
 20
347.5846436689
 30
0.0
 11
829.2391154804
 21
347.5846436689
 31
0.0
  0
SPLINE
  5
345
330
1F
100
AcDbEntity
  8
0
  6
Continuous
 62
     7
370
    15
100
AcDbSpline
210
0.0
220
0.0
230
1.0
 70
     8
 71
     3
 72
    14
 73
    10
 74
     0
 42
0.00000001
 43
0.00000001
 12
1.0
 22
0.0
 32
0.0
 13
1.0
 23
0.0
 33
0.0
 40
0.0
 40
0.0
 40
0.0
 40
0.0
 40
0.1233311439114368
 40
0.2477389344225999
 40
0.3732239552708969
 40
0.4997867938762204
 40
0.6643799475103656
 40
0.8311171769142539
 40
1.0
 40
1.0
 40
1.0
 40
1.0
 10
829.2391226543792
 20
347.58464730085
 30
0.0
 10
829.3663607908554
 20
347.3812663958298
 30
0.0
 10
829.6219478173663
 20
346.9727291270293
 30
0.0
 10
829.9938736874527
 20
346.3561082837267
 30
0.0
 10
830.3592008341881
 20
345.733321927118
 30
0.0
 10
830.7515863113157
 20
345.0430730688179
 30
0.0
 10
831.1675827146479
 20
344.2832694983389
 30
0.0
 10
831.6047399554438
 20
343.4519165731833
 30
0.0
 10
831.8819572144968
 20
342.892955401383
 30
0.0
 10
832.0214519585373
 20
342.6116881171766
 30
0.0
  0
SPLINE
  5
346
330
1F
100
AcDbEntity
  8
0
  6
Continuous
 62
     7
370
    15
100
AcDbSpline
210
0.0
220
0.0
230
1.0
 70
     8
 71
     3
 72
    25
 73
    21
 74
     0
 42
0.00000001
 43
0.00000001
 12
1.0
 22
0.0
 32
0.0
 13
1.0
 23
0.0
 33
0.0
 40
0.0
 40
0.0
 40
0.0
 40
0.0
 40
0.0360225674829559
 40
0.0719476814586231
 40
0.1256827561068819
 40
0.1881991578506913
 40
0.2505873724671177
 40
0.312894840564481
 40
0.3751583823958439
 40
0.4374062010639405
 40
0.4996599390617488
 40
0.5619367646706549
 40
0.6242514720398109
 40
0.6866185839274874
 40
0.7490544488845255
 40
0.81157932503277
 40
0.8742194405677748
 40
0.9370090168206525
 40
0.9685121270094342
 40
1.0
 40
1.0
 40
1.0
 40
1.0
 10
830.3319483777725
 20
352.3873487902769
 30
0.0
 10
830.3246226542723
 20
352.4509856324726
 30
0.0
 10
830.3099910258885
 20
352.5780871571904
 30
0.0
 10
830.2825816984329
 20
352.7973727202664
 30
0.0
 10
830.2473876016736
 20
353.0592749353775
 30
0.0
 10
830.2029232752388
 20
353.3599258433233
 30
0.0
 10
830.1530479775543
 20
353.6662541834344
 30
0.0
 10
830.1001506070005
 20
353.9623397928617
 30
0.0
 10
830.0444095364403
 20
354.24738272861
 30
0.0
 10
829.9859946068372
 20
354.5205762578224
 30
0.0
 10
829.9250761259107
 20
354.7811149753818
 30
0.0
 10
829.8618232417004
 20
355.0281922144108
 30
0.0
 10
829.796405167191
 20
355.2610011860403
 30
0.0
 10
829.7289914360223
 20
355.4787320949405
 30
0.0
 10
829.6597530115504
 20
355.6805817674459
 30
0.0
 10
829.5888607836015
 20
355.8657172503382
 30
0.0
 10
829.5164935309165
 20
356.033411418668
 30
0.0
 10
829.4551214088186
 20
356.1576192542502
 30
0.0
 10
829.405513354571
 20
356.247857059444
 30
0.0
 10
829.3805138859344
 20
356.2888305799959
 30
0.0
 10
829.3680171752382
 20
356.3093123846289
 30
0.0
  0
SPLINE
  5
347
330
1F
100
AcDbEntity
  8
0
  6
Continuous
 62
     7
370
    15
100
AcDbSpline
210
0.0
220
0.0
230
1.0
 70
     8
 71
     3
 72
    11
 73
     7
 74
     0
 42
0.00000001
 43
0.00000001
 12
1.0
 22
0.0
 32
0.0
 13
1.0
 23
0.0
 33
0.0
 40
0.0
 40
0.0
 40
0.0
 40
0.0
 40
0.2599539836152767
 40
0.5132746759148503
 40
0.7599580031371089
 40
1.0
 40
1.0
 40
1.0
 40
1.0
 10
831.0376143374403
 20
356.4807409560575
 30
0.0
 10
830.9813704899383
 20
356.1257435436679
 30
0.0
 10
830.8703179790384
 20
355.4248072500176
 30
0.0
 10
830.6947651415234
 20
354.3876537089276
 30
0.0
 10
830.5167874490965
 20
353.3781121887322
 30
0.0
 10
830.3929983706656
 20
352.7145853317791
 30
0.0
 10
830.3319483777725
 20
352.3873487902769
 30
0.0
  0
LWPOLYLINE
  5
348
330
1F
100
AcDbEntity
  8
0
  6
Continuous
 62
     7
370
    15
100
AcDbPolyline
 90
        3
 70
   128
 43
0.0
 10
831.3535902538
 20
352.0267170737
 10
831.1766389646
 20
354.5209702918
 10
831.0376111307
 20
356.4807412097
  0
SPLINE
  5
349
330
1F
100
AcDbEntity
  8
0
  6
Continuous
 62
     7
370
    15
100
AcDbSpline
210
0.0
220
0.0
230
1.0
 70
     8
 71
     3
 72
    11
 73
     7
 74
     0
 42
0.00000001
 43
0.00000001
 12
1.0
 22
0.0
 32
0.0
 13
1.0
 23
0.0
 33
0.0
 40
0.0
 40
0.0
 40
0.0
 40
0.0
 40
0.2410180236787671
 40
0.4880261529232962
 40
0.7410212251716606
 40
1.0
 40
1.0
 40
1.0
 40
1.0
 10
830.737816750761
 20
348.4076997540547
 30
0.0
 10
830.7908784761464
 20
348.6982238063692
 30
0.0
 10
830.8983206886089
 20
349.2864924072756
 30
0.0
 10
831.0534392706038
 20
350.1802418972795
 30
0.0
 10
831.2066961827571
 20
351.0959994119745
 30
0.0
 10
831.3042424818123
 20
351.7140689338114
 30
0.0
 10
831.3535856683101
 20
352.0267155434732
 30
0.0
  0
SPLINE
  5
34A
330
1F
100
AcDbEntity
  8
0
  6
Continuous
 62
     7
370
    15
100
AcDbSpline
210
0.0
220
0.0
230
1.0
 70
     8
 71
     3
 72
    11
 73
     7
 74
     0
 42
0.00000001
 43
0.00000001
 12
1.0
 22
0.0
 32
0.0
 13
1.0
 23
0.0
 33
0.0
 40
0.0
 40
0.0
 40
0.0
 40
0.0
 40
0.2528606295573773
 40
0.5038136435344966
 40
0.7528598369722684
 40
1.0
 40
1.0
 40
1.0
 40
1.0
 10
831.7490162915776
 20
346.4523570306655
 30
0.0
 10
831.6675298531227
 20
346.6174388375254
 30
0.0
 10
831.5051717211805
 20
346.9463570512501
 30
0.0
 10
831.2541074063427
 20
347.4372646680118
 30
0.0
 10
830.9994099451022
 20
347.9240350290039
 30
0.0
 10
830.8247908906592
 20
348.2468915817843
 30
0.0
 10
830.7378167507609
 20
348.4076997540547
 30
0.0
  0
LWPOLYLINE
  5
34B
330
1F
100
AcDbEntity
  8
0
  6
Continuous
 62
     7
370
    15
100
AcDbPolyline
 90
        3
 70
   128
 43
0.0
 10
832.0214453973
 20
342.6116865942
 10
831.868887309
 20
344.7624605963
 10
831.7490223684
 20
346.4523565838
  0
LWPOLYLINE
  5
34C
330
1F
100
AcDbEntity
  8
0
  6
Continuous
 62
     7
370
    15
100
AcDbPolyline
 90
        3
 70
   128
 43
0.0
 10
828.9636824169
 20
351.4253136585
 10
829.1179243364
 20
349.2745396564
 10
829.2391154804
 20
347.5846436689
  0
SPLINE
  5
34D
330
1F
100
AcDbEntity
  8
0
  6
Continuous
 62
     7
370
    15
100
AcDbSpline
210
0.0
220
0.0
230
1.0
 70
     8
 71
     3
 72
    11
 73
     7
 74
     0
 42
0.00000001
 43
0.00000001
 12
1.0
 22
0.0
 32
0.0
 13
1.0
 23
0.0
 33
0.0
 40
0.0
 40
0.0
 40
0.0
 40
0.0
 40
0.2523394446967346
 40
0.5031188432377616
 40
0.7523388208580689
 40
0.9999999999999999
 40
0.9999999999999999
 40
0.9999999999999999
 40
0.9999999999999999
 10
830.0612300080978
 20
349.611786347256
 30
0.0
 10
829.9721591722669
 20
349.7646048269964
 30
0.0
 10
829.7945681660593
 20
350.069297011941
 30
0.0
 10
829.5216826763184
 20
350.5243039949148
 30
0.0
 10
829.2456769727546
 20
350.9760672633091
 30
0.0
 10
829.0574823806157
 20
351.2758800848202
 30
0.0
 10
828.9636802833478
 20
351.4253162143389
 30
0.0
  0
SPLINE
  5
34E
330
1F
100
AcDbEntity
  8
0
  6
Continuous
 62
     7
370
    15
100
AcDbSpline
210
0.0
220
0.0
230
1.0
 70
     8
 71
     3
 72
    27
 73
    23
 74
     0
 42
0.00000001
 43
0.00000001
 12
1.0
 22
0.0
 32
0.0
 13
1.0
 23
0.0
 33
0.0
 40
0.0
 40
0.0
 40
0.0
 40
0.0
 40
0.0314349107928228
 40
0.0629309717760786
 40
0.0942375624557056
 40
0.125622041675115
 40
0.1881320929872769
 40
0.2505305231393248
 40
0.3128577363686746
 40
0.3751533722333386
 40
0.4374675670103454
 40
0.4998721544434815
 40
0.5623103045497495
 40
0.6246995910834251
 40
0.6870768237151833
 40
0.7494664751723208
 40
0.8118944466668321
 40
0.8744018139969347
 40
0.9370584354069021
 40
0.9621951512110231
 40
0.9810616892305002
 40
1.0
 40
1.0
 40
1.0
 40
1.0
 10
828.7855257866814
 20
353.9093123846289
 30
0.0
 10
828.8017986218911
 20
353.9083087589803
 30
0.0
 10
828.8343759477837
 20
353.9062995553346
 30
0.0
 10
828.8836836779802
 20
353.8901689619731
 30
0.0
 10
828.9332073722728
 20
353.8645881577295
 30
0.0
 10
828.9992720054405
 20
353.8169260612743
 30
0.0
 10
829.0819378192753
 20
353.7327726337504
 30
0.0
 10
829.1804204167614
 20
353.5936269048311
 30
0.0
 10
829.2775058210709
 20
353.4176606554517
 30
0.0
 10
829.3725255006914
 20
353.2061387321514
 30
0.0
 10
829.464829353437
 20
352.9603068287081
 30
0.0
 10
829.553713732919
 20
352.6817231998582
 30
0.0
 10
829.6383488793217
 20
352.3721230651233
 30
0.0
 10
829.7180444151677
 20
352.0348084366585
 30
0.0
 10
829.792250532042
 20
351.6732406988309
 30
0.0
 10
829.8604600587888
 20
351.2905487190069
 30
0.0
 10
829.9221619617282
 20
350.8898627576039
 30
0.0
 10
829.97681603443
 20
350.4743425756564
 30
0.0
 10
830.0144522266205
 20
350.1328392408293
 30
0.0
 10
830.0378115089919
 20
349.8879929279935
 30
0.0
 10
830.0506543410244
 20
349.7429374893719
 30
0.0
 10
830.0577003267902
 20
349.6555586910326
 30
0.0
 10
830.0612300080978
 20
349.611786347256
 30
0.0
  0
LWPOLYLINE
  5
34F
330
1F
100
AcDbEntity
  8
0
  6
Continuous
 62
     7
370
    15
100
AcDbPolyline
 90
        3
 70
   128
 43
0.0
 10
828.6060545482
 20
356.4114731619
 10
828.6773268022
 20
355.4178860853
 10
828.7855241336
 20
353.9093148777
  0
LINE
  5
350
330
1F
100
AcDbEntity
  8
0
  6
Continuous
 62
     7
370
    15
100
AcDbLine
 10
829.2944881954
 20
357.3378858039
 30
0.0
 11
828.6060545482
 21
357.3378858039
 31
0.0
  0
LWPOLYLINE
  5
351
330
1F
100
AcDbEntity
  8
0
  6
Continuous
 62
     7
370
    15
100
AcDbPolyline
 90
        3
 70
   128
 43
0.0
 10
829.3680105247
 20
356.3093108008
 10
829.3268386163
 20
356.8853151867
 10
829.2944881954
 20
357.3378858039
  0
LINE
  5
352
330
1F
100
AcDbEntity
  8
0
  6
Continuous
 62
     7
370
    15
100
AcDbLine
 10
828.6060545482
 20
353.9093148777
 30
0.0
 11
828.7855241336
 21
353.9093148777
 31
0.0
  0
LINE
  5
353
330
1F
100
AcDbEntity
  8
0
  6
Continuous
 62
     7
370
    15
100
AcDbLine
 10
828.6466602125
 20
351.4253136585
 30
0.0
 11
828.9636824169
 21
351.4253136585
 31
0.0
  0
LINE
  5
354
330
1F
100
AcDbEntity
  8
0
  6
Continuous
 62
     7
370
    15
100
AcDbLine
 10
830.1068697013
 20
331.0911220381
 30
0.0
 11
830.4218057432
 21
331.0911220381
 31
0.0
  0
LINE
  5
355
330
1F
100
AcDbEntity
  8
0
  6
Continuous
 62
     7
370
    15
100
AcDbLine
 10
831.8346444406
 20
336.0640791128
 30
0.0
 11
832.4858847894
 21
336.0640791128
 31
0.0
  0
SPLINE
  5
356
330
1F
100
AcDbEntity
  8
0
  6
Continuous
 62
     7
370
    15
100
AcDbSpline
210
0.0
220
0.0
230
1.0
 70
     8
 71
     3
 72
    15
 73
    11
 74
     0
 42
0.00000001
 43
0.00000001
 12
1.0
 22
0.0
 32
0.0
 13
1.0
 23
0.0
 33
0.0
 40
0.0
 40
0.0
 40
0.0
 40
0.0
 40
0.1029386458605257
 40
0.2044246878978414
 40
0.3044575415920723
 40
0.4030366313577868
 40
0.5001613905598591
 40
0.6700843839710308
 40
0.8366979764979067
 40
1.0
 40
1.0
 40
1.0
 40
1.0
 10
832.4858813592597
 20
336.0640795092241
 30
0.0
 10
832.4258659446369
 20
335.892836145122
 30
0.0
 10
832.3066820142409
 20
335.5527658929003
 30
0.0
 10
832.1203441130389
 20
335.0467357184417
 30
0.0
 10
831.9304148416595
 20
334.5482855579816
 30
0.0
 10
831.7365475359351
 20
334.0574473538275
 30
0.0
 10
831.4889705742809
 20
333.451062664283
 30
0.0
 10
831.182080036207
 20
332.7326292575897
 30
0.0
 10
830.8109539920234
 20
331.9056373889694
 30
0.0
 10
830.5506487780874
 20
331.3608030659322
 30
0.0
 10
830.4218025940977
 20
331.0911203255507
 30
0.0
  0
LINE
  5
357
330
1F
100
AcDbEntity
  8
0
  6
Continuous
 62
     7
370
    15
100
AcDbLine
 10
830.807090167
 20
321.3378873537
 30
0.0
 11
831.121027831
 21
321.3378873537
 31
0.0
  0
LINE
  5
358
330
1F
100
AcDbEntity
  8
0
  6
Continuous
 62
     7
370
    15
100
AcDbLine
 10
830.4218057432
 20
331.0911220381
 30
0.0
 11
831.121027831
 21
321.3378873537
 31
0.0
  0
LINE
  5
359
330
1F
100
AcDbEntity
  8
0
  6
Continuous
 62
     7
370
    15
100
AcDbLine
 10
832.8812423982
 20
325.8719605277
 30
0.0
 11
832.484647993
 21
331.455656595
 31
0.0
  0
SPLINE
  5
35A
330
1F
100
AcDbEntity
  8
0
  6
Continuous
 62
     7
370
    15
100
AcDbSpline
210
0.0
220
0.0
230
1.0
 70
     8
 71
     3
 72
     9
 73
     5
 74
     0
 42
0.00000001
 43
0.00000001
 12
1.0
 22
0.0
 32
0.0
 13
1.0
 23
0.0
 33
0.0
 40
0.0
 40
0.0
 40
0.0
 40
0.0
 40
0.5015531423941316
 40
1.0
 40
1.0
 40
1.0
 40
1.0
 10
833.2601045167343
 20
325.1480995762807
 30
0.0
 10
833.197759305918
 20
325.269184059957
 30
0.0
 10
833.0734550088325
 20
325.5106031109839
 30
0.0
 10
832.9451853104762
 20
325.7517557138278
 30
0.0
 10
832.8812496824041
 20
325.8719574709189
 30
0.0
  0
LWPOLYLINE
  5
35B
330
1F
100
AcDbEntity
  8
0
  6
Continuous
 62
     7
370
    15
100
AcDbPolyline
 90
        3
 70
   128
 43
0.0
 10
833.5303220787
 20
321.3378873537
 10
833.3790007867
 20
323.4716069767
 10
833.2601044216
 20
325.1480993698
  0
SPLINE
  5
35C
330
1F
100
AcDbEntity
  8
0
  6
Continuous
 62
     7
370
    15
100
AcDbSpline
210
0.0
220
0.0
230
1.0
 70
     8
 71
     3
 72
    13
 73
     9
 74
     0
 42
0.00000001
 43
0.00000001
 12
1.0
 22
0.0
 32
0.0
 13
1.0
 23
0.0
 33
0.0
 40
0.0
 40
0.0
 40
0.0
 40
0.0
 40
0.1628907319286032
 40
0.327290867155269
 40
0.4932011295877941
 40
0.6606222485026955
 40
0.8295549585906741
 40
1.0
 40
1.0
 40
1.0
 40
1.0
 10
831.6262389044703
 20
324.7104035495829
 30
0.0
 10
831.7381131408863
 20
324.5279166743356
 30
0.0
 10
831.9628982800737
 20
324.1612519357281
 30
0.0
 10
832.2898708510631
 20
323.6078038839714
 30
0.0
 10
832.6111132143683
 20
323.048621948024
 30
0.0
 10
832.9252753355652
 20
322.4836229252132
 30
0.0
 10
833.233218173693
 20
321.9128844169873
 30
0.0
 10
833.430998353163
 20
321.5301192390904
 30
0.0
 10
833.5303291158043
 20
321.3378838132004
 30
0.0
  0
LWPOLYLINE
  5
35D
330
1F
100
AcDbEntity
  8
0
  6
Continuous
 62
     7
370
    15
100
AcDbPolyline
 90
        3
 70
   128
 43
0.0
 10
831.8672034778
 20
321.3378873537
 10
831.732258562
 20
323.2264977763
 10
831.6262368001
 20
324.7104001114
  0
LINE
  5
35E
330
1F
100
AcDbEntity
  8
0
  6
Continuous
 62
     7
370
    15
100
AcDbLine
 10
831.121027831
 20
321.3378873537
 30
0.0
 11
831.8672034778
 21
321.3378873537
 31
0.0
  0
LWPOLYLINE
  5
35F
330
1F
100
AcDbEntity
  8
0
  6
Continuous
 62
     7
370
    15
100
AcDbPolyline
 90
        3
 70
   128
 43
0.0
 10
832.7582929172
 20
332.2234091232
 10
832.6057497301
 20
334.3741831252
 10
832.4858847894
 20
336.0640791128
  0
SPLINE
  5
360
330
1F
100
AcDbEntity
  8
0
  6
Continuous
 62
     7
370
    15
100
AcDbSpline
210
0.0
220
0.0
230
1.0
 70
     8
 71
     3
 72
     9
 73
     5
 74
     0
 42
0.00000001
 43
0.00000001
 12
1.0
 22
0.0
 32
0.0
 13
1.0
 23
0.0
 33
0.0
 40
0.0
 40
0.0
 40
0.0
 40
0.0
 40
0.49697811438805
 40
1.0
 40
1.0
 40
1.0
 40
1.0
 10
832.4846513846156
 20
331.4556554936944
 30
0.0
 10
832.530969675922
 20
331.5827912993033
 30
0.0
 10
832.6241695371743
 20
331.8386090142655
 30
0.0
 10
832.7134046505886
 20
332.0946276292659
 30
0.0
 10
832.7582918656011
 20
332.2234105957352
 30
0.0
  0
SPLINE
  5
361
330
1F
100
AcDbEntity
  8
0
  6
Continuous
 62
     7
370
    15
100
AcDbSpline
210
0.0
220
0.0
230
1.0
 70
     8
 71
     3
 72
    10
 73
     6
 74
     0
 42
0.00000001
 43
0.00000001
 12
1.0
 22
0.0
 32
0.0
 13
1.0
 23
0.0
 33
0.0
 40
0.0
 40
0.0
 40
0.0
 40
0.0
 40
0.3333954713467332
 40
0.666724852960342
 40
1.0
 40
1.0
 40
1.0
 40
1.0
 10
832.214195531407
 20
326.7550077586444
 30
0.0
 10
832.1085983659551
 20
326.9372760089808
 30
0.0
 10
831.8974249678146
 20
327.3017763782091
 30
0.0
 10
831.5697836883725
 20
327.8476586365559
 30
0.0
 10
831.3441153810533
 20
328.2109729662092
 30
0.0
 10
831.2312904075177
 20
328.3926153515099
 30
0.0
  0
LWPOLYLINE
  5
362
330
1F
100
AcDbEntity
  8
0
  6
Continuous
 62
     7
370
    15
100
AcDbPolyline
 90
        3
 70
   128
 43
0.0
 10
832.2141919174
 20
326.7550107906
 10
832.0796046295
 20
328.6447388003
 10
831.9738659896
 20
330.1295352051
  0
SPLINE
  5
363
330
1F
100
AcDbEntity
  8
0
  6
Continuous
 62
     7
370
    15
100
AcDbSpline
210
0.0
220
0.0
230
1.0
 70
     8
 71
     3
 72
    10
 73
     6
 74
     0
 42
0.00000001
 43
0.00000001
 12
1.0
 22
0.0
 32
0.0
 13
1.0
 23
0.0
 33
0.0
 40
0.0
 40
0.0
 40
0.0
 40
0.0
 40
0.3332839245916878
 40
0.6666133831483505
 40
1.0
 40
1.0
 40
1.0
 40
1.0
 10
831.2312904075177
 20
328.3926153515098
 30
0.0
 10
831.3174122651631
 20
328.5853548738468
 30
0.0
 10
831.489667746607
 20
328.9708602510078
 30
0.0
 10
831.7371967735809
 20
329.5498463550292
 30
0.0
 10
831.8949705059215
 20
329.9362931046528
 30
0.0
 10
831.9738641351489
 20
330.1295330447148
 30
0.0
  0
LINE
  5
364
330
1F
100
AcDbEntity
  8
0
  6
Continuous
 62
     7
370
    15
100
AcDbLine
 10
832.0303264894
 20
321.3378873537
 30
0.0
 11
833.5303220787
 21
321.3378873537
 31
0.0
  0
LINE
  5
365
330
1F
100
AcDbEntity
  8
0
  6
Continuous
 62
     7
370
    15
100
AcDbLine
 10
829.5376155414
 20
356.4807412097
 30
0.0
 11
831.0376111307
 21
356.4807412097
 31
0.0
  0
LINE
  5
366
330
1F
100
AcDbEntity
  8
0
  6
Continuous
 62
     7
370
    15
100
AcDbLine
 10
359.9280420579
 20
402.5835257838
 30
0.0
 11
357.7662560977
 21
402.5835257838
 31
0.0
  0
LINE
  5
367
330
1F
100
AcDbEntity
  8
0
  6
Continuous
 62
     7
370
    15
100
AcDbLine
 10
328.4737173357
 20
239.5835193223
 30
0.0
 11
307.9212013521
 21
239.5835193223
 31
0.0
  0
LINE
  5
368
330
1F
100
AcDbEntity
  8
0
  6
Continuous
 62
     7
370
    15
100
AcDbLine
 10
904.9212042131
 20
239.5835193223
 30
0.0
 11
884.3686882295
 21
239.5835193223
 31
0.0
  0
LINE
  5
369
330
1F
100
AcDbEntity
  8
0
  6
Continuous
 62
     7
370
    15
100
AcDbLine
 10
882.200956706
 20
425.58351279
 30
0.0
 11
882.200956706
 21
432.5835120747
 31
0.0
  0
LINE
  5
36A
330
1F
100
AcDbEntity
  8
0
  6
Continuous
 62
     7
370
    15
100
AcDbLine
 10
882.200956706
 20
425.58351279
 30
0.0
 11
855.1689538993
 21
404.3541413615
 31
0.0
  0
LINE
  5
36B
330
1F
100
AcDbEntity
  8
0
  6
Continuous
 62
     7
370
    15
100
AcDbLine
 10
846.4588824548
 20
432.5835120747
 30
0.0
 11
882.200956706
 21
432.5835120747
 31
0.0
  0
LINE
  5
36C
330
1F
100
AcDbEntity
  8
0
  6
Continuous
 62
     7
370
    15
100
AcDbLine
 10
849.6677134075
 20
435.0835245917
 30
0.0
 11
849.4371328392
 21
435.0835245917
 31
0.0
  0
LINE
  5
36D
330
1F
100
AcDbEntity
  8
0
  6
Continuous
 62
     7
370
    15
100
AcDbLine
 10
873.4371367731
 20
435.0835245917
 30
0.0
 11
849.6677134075
 21
435.0835245917
 31
0.0
  0
LINE
  5
36E
330
1F
100
AcDbEntity
  8
0
  6
Continuous
 62
     7
370
    15
100
AcDbLine
 10
850.6782654562
 20
445.0835150549
 30
0.0
 11
850.6782654562
 21
435.0835245917
 31
0.0
  0
LINE
  5
36F
330
1F
100
AcDbEntity
  8
0
  6
Continuous
 62
     7
370
    15
100
AcDbLine
 10
850.6782654562
 20
445.0835150549
 30
0.0
 11
857.9110506811
 21
445.0835150549
 31
0.0
  0
LINE
  5
370
330
1F
100
AcDbEntity
  8
0
  6
Continuous
 62
     7
370
    15
100
AcDbLine
 10
857.9110506811
 20
445.0835150549
 30
0.0
 11
857.9110506811
 21
435.0835245917
 31
0.0
  0
LINE
  5
371
330
1F
100
AcDbEntity
  8
0
  6
Continuous
 62
     7
370
    15
100
AcDbLine
 10
868.6699274816
 20
445.0835150549
 30
0.0
 11
868.6699274816
 21
435.0835245917
 31
0.0
  0
LINE
  5
372
330
1F
100
AcDbEntity
  8
0
  6
Continuous
 62
     7
370
    15
100
AcDbLine
 10
857.9110506811
 20
445.0835150549
 30
0.0
 11
868.6699274816
 21
445.0835150549
 31
0.0
  0
LINE
  5
373
330
1F
100
AcDbEntity
  8
0
  6
Continuous
 62
     7
370
    15
100
AcDbLine
 10
872.1960190572
 20
445.0835150549
 30
0.0
 11
872.1960190572
 21
435.0835245917
 31
0.0
  0
LINE
  5
374
330
1F
100
AcDbEntity
  8
0
  6
Continuous
 62
     7
370
    15
100
AcDbLine
 10
868.6699274816
 20
445.0835150549
 30
0.0
 11
872.1960190572
 21
445.0835150549
 31
0.0
  0
LINE
  5
375
330
1F
100
AcDbEntity
  8
0
  6
Continuous
 62
     7
370
    15
100
AcDbLine
 10
853.5908464231
 20
452.0835143397
 30
0.0
 11
853.4371409454
 21
452.0835143397
 31
0.0
  0
LINE
  5
376
330
1F
100
AcDbEntity
  8
0
  6
Continuous
 62
     7
370
    15
100
AcDbLine
 10
869.4371286668
 20
452.0835143397
 30
0.0
 11
853.5908464231
 21
452.0835143397
 31
0.0
  0
LINE
  5
377
330
1F
100
AcDbEntity
  8
0
  6
Continuous
 62
     7
370
    15
100
AcDbLine
 10
853.5908464231
 20
451.583520777
 30
0.0
 11
853.4371409454
 21
451.583520777
 31
0.0
  0
LINE
  5
378
330
1F
100
AcDbEntity
  8
0
  6
Continuous
 62
     7
370
    15
100
AcDbLine
 10
869.4371286668
 20
451.583520777
 30
0.0
 11
853.5908464231
 21
451.583520777
 31
0.0
  0
LINE
  5
379
330
1F
100
AcDbEntity
  8
0
  6
Continuous
 62
     7
370
    15
100
AcDbLine
 10
855.0620231666
 20
463.5835152934
 30
0.0
 11
854.9371365346
 21
463.5835152934
 31
0.0
  0
LINE
  5
37A
330
1F
100
AcDbEntity
  8
0
  6
Continuous
 62
     7
370
    15
100
AcDbLine
 10
867.9371479787
 20
463.5835152934
 30
0.0
 11
855.0620231666
 21
463.5835152934
 31
0.0
  0
LINE
  5
37B
330
1F
100
AcDbEntity
  8
0
  6
Continuous
 62
     7
370
    15
100
AcDbLine
 10
381.9212023057
 20
435.0835245917
 30
0.0
 11
378.2363388576
 21
435.0835245917
 31
0.0
  0
LINE
  5
37C
330
1F
100
AcDbEntity
  8
0
  6
Continuous
 62
     7
370
    15
100
AcDbLine
 10
380.397960905
 20
445.0835150549
 30
0.0
 11
380.397960905
 21
435.0835245917
 31
0.0
  0
LINE
  5
37D
330
1F
100
AcDbEntity
  8
0
  6
Continuous
 62
     7
370
    15
100
AcDbLine
 10
380.397960905
 20
445.0835150549
 30
0.0
 11
389.5189020671
 21
445.0835150549
 31
0.0
  0
LINE
  5
37E
330
1F
100
AcDbEntity
  8
0
  6
Continuous
 62
     7
370
    15
100
AcDbLine
 10
389.5189020671
 20
445.0835150549
 30
0.0
 11
389.5189020671
 21
435.5835181544
 31
0.0
  0
LINE
  5
37F
330
1F
100
AcDbEntity
  8
0
  6
Continuous
 62
     7
370
    15
100
AcDbLine
 10
399.3572745361
 20
445.0835150549
 30
0.0
 11
399.3572745361
 21
435.5835181544
 31
0.0
  0
LINE
  5
380
330
1F
100
AcDbEntity
  8
0
  6
Continuous
 62
     7
370
    15
100
AcDbLine
 10
389.5189020671
 20
445.0835150549
 30
0.0
 11
399.3572745361
 21
445.0835150549
 31
0.0
  0
LINE
  5
381
330
1F
100
AcDbEntity
  8
0
  6
Continuous
 62
     7
370
    15
100
AcDbLine
 10
396.8881074228
 20
452.0835143397
 30
0.0
 11
382.2363469638
 21
452.0835143397
 31
0.0
  0
LINE
  5
382
330
1F
100
AcDbEntity
  8
0
  6
Continuous
 62
     7
370
    15
100
AcDbLine
 10
398.2363495864
 20
452.0835143397
 30
0.0
 11
396.8881074228
 21
452.0835143397
 31
0.0
  0
LINE
  5
383
330
1F
100
AcDbEntity
  8
0
  6
Continuous
 62
     7
370
    15
100
AcDbLine
 10
396.8881074228
 20
451.583520777
 30
0.0
 11
382.2363469638
 21
451.583520777
 31
0.0
  0
LINE
  5
384
330
1F
100
AcDbEntity
  8
0
  6
Continuous
 62
     7
370
    15
100
AcDbLine
 10
398.2363495864
 20
451.583520777
 30
0.0
 11
396.8881074228
 21
451.583520777
 31
0.0
  0
LINE
  5
385
330
1F
100
AcDbEntity
  8
0
  6
Continuous
 62
     7
370
    15
100
AcDbLine
 10
395.640895132
 20
463.5835152934
 30
0.0
 11
383.7363425531
 21
463.5835152934
 31
0.0
  0
LINE
  5
386
330
1F
100
AcDbEntity
  8
0
  6
Continuous
 62
     7
370
    15
100
AcDbLine
 10
396.736339096
 20
463.5835152934
 30
0.0
 11
395.640895132
 21
463.5835152934
 31
0.0
  0
LINE
  5
387
330
1F
100
AcDbEntity
  8
0
  6
Continuous
 62
     7
370
    15
100
AcDbLine
 10
400.0747356452
 20
445.0835150549
 30
0.0
 11
400.0747356452
 21
435.5835181544
 31
0.0
  0
LINE
  5
388
330
1F
100
AcDbEntity
  8
0
  6
Continuous
 62
     7
370
    15
100
AcDbLine
 10
399.3572745361
 20
445.0835150549
 30
0.0
 11
400.0747356452
 21
445.0835150549
 31
0.0
  0
LINE
  5
389
330
1F
100
AcDbEntity
  8
0
  6
Continuous
 62
     7
370
    15
100
AcDbLine
 10
744.7889152803
 20
445.0835150549
 30
0.0
 11
744.7889152803
 21
435.5835181544
 31
0.0
  0
LINE
  5
38A
330
1F
100
AcDbEntity
  8
0
  6
Continuous
 62
     7
370
    15
100
AcDbLine
 10
744.7889152803
 20
445.0835150549
 30
0.0
 11
755.7350847759
 21
445.0835150549
 31
0.0
  0
LINE
  5
38B
330
1F
100
AcDbEntity
  8
0
  6
Continuous
 62
     7
370
    15
100
AcDbLine
 10
755.7350847759
 20
445.0835150549
 30
0.0
 11
755.7350847759
 21
435.5835181544
 31
0.0
  0
LINE
  5
38C
330
1F
100
AcDbEntity
  8
0
  6
Continuous
 62
     7
370
    15
100
AcDbLine
 10
761.8294957914
 20
445.0835150549
 30
0.0
 11
761.8294957914
 21
435.5835181544
 31
0.0
  0
LINE
  5
38D
330
1F
100
AcDbEntity
  8
0
  6
Continuous
 62
     7
370
    15
100
AcDbLine
 10
755.7350847759
 20
445.0835150549
 30
0.0
 11
761.8294957914
 21
445.0835150549
 31
0.0
  0
LINE
  5
38E
330
1F
100
AcDbEntity
  8
0
  6
Continuous
 62
     7
370
    15
100
AcDbLine
 10
739.9371717014
 20
445.0835150549
 30
0.0
 11
739.9371717014
 21
435.5835181544
 31
0.0
  0
LINE
  5
38F
330
1F
100
AcDbEntity
  8
0
  6
Continuous
 62
     7
370
    15
100
AcDbLine
 10
739.9371717014
 20
445.0835150549
 30
0.0
 11
744.7889152803
 21
445.0835150549
 31
0.0
  0
LINE
  5
390
330
1F
100
AcDbEntity
  8
0
  6
Continuous
 62
     7
370
    15
100
AcDbLine
 10
746.4387718477
 20
452.0835143397
 30
0.0
 11
742.8833398857
 21
452.0835143397
 31
0.0
  0
LINE
  5
391
330
1F
100
AcDbEntity
  8
0
  6
Continuous
 62
     7
370
    15
100
AcDbLine
 10
758.8833276071
 20
452.0835143397
 30
0.0
 11
746.4387718477
 21
452.0835143397
 31
0.0
  0
LINE
  5
392
330
1F
100
AcDbEntity
  8
0
  6
Continuous
 62
     7
370
    15
100
AcDbLine
 10
746.4387718477
 20
451.583520777
 30
0.0
 11
742.8833398857
 21
451.583520777
 31
0.0
  0
LINE
  5
393
330
1F
100
AcDbEntity
  8
0
  6
Continuous
 62
     7
370
    15
100
AcDbLine
 10
758.8833276071
 20
451.583520777
 30
0.0
 11
746.4387718477
 21
451.583520777
 31
0.0
  0
LINE
  5
394
330
1F
100
AcDbEntity
  8
0
  6
Continuous
 62
     7
370
    15
100
AcDbLine
 10
747.2721341886
 20
463.5835152934
 30
0.0
 11
744.3833354749
 21
463.5835152934
 31
0.0
  0
LINE
  5
395
330
1F
100
AcDbEntity
  8
0
  6
Continuous
 62
     7
370
    15
100
AcDbLine
 10
757.3833320179
 20
463.5835152934
 30
0.0
 11
747.2721341886
 21
463.5835152934
 31
0.0
  0
LINE
  5
396
330
1F
100
AcDbEntity
  8
0
  6
Continuous
 62
     7
370
    15
100
AcDbLine
 10
547.4581535794
 20
445.0835150549
 30
0.0
 11
547.4581535794
 21
435.5835181544
 31
0.0
  0
LINE
  5
397
330
1F
100
AcDbEntity
  8
0
  6
Continuous
 62
     7
370
    15
100
AcDbLine
 10
557.8456487395
 20
445.0835150549
 30
0.0
 11
557.8456487395
 21
435.5835181544
 31
0.0
  0
LINE
  5
398
330
1F
100
AcDbEntity
  8
0
  6
Continuous
 62
     7
370
    15
100
AcDbLine
 10
547.4581535794
 20
445.0835150549
 30
0.0
 11
557.8456487395
 21
445.0835150549
 31
0.0
  0
LINE
  5
399
330
1F
100
AcDbEntity
  8
0
  6
Continuous
 62
     7
370
    15
100
AcDbLine
 10
566.0930726566
 20
445.0835150549
 30
0.0
 11
566.0930726566
 21
435.5835181544
 31
0.0
  0
LINE
  5
39A
330
1F
100
AcDbEntity
  8
0
  6
Continuous
 62
     7
370
    15
100
AcDbLine
 10
557.8456487395
 20
445.0835150549
 30
0.0
 11
566.0930726566
 21
445.0835150549
 31
0.0
  0
LINE
  5
39B
330
1F
100
AcDbEntity
  8
0
  6
Continuous
 62
     7
370
    15
100
AcDbLine
 10
557.2662990429
 20
452.0835143397
 30
0.0
 11
547.7055761852
 21
452.0835143397
 31
0.0
  0
LINE
  5
39C
330
1F
100
AcDbEntity
  8
0
  6
Continuous
 62
     7
370
    15
100
AcDbLine
 10
563.7055750825
 20
452.0835143397
 30
0.0
 11
557.2662990429
 21
452.0835143397
 31
0.0
  0
LINE
  5
39D
330
1F
100
AcDbEntity
  8
0
  6
Continuous
 62
     7
370
    15
100
AcDbLine
 10
557.2662990429
 20
451.583520777
 30
0.0
 11
547.7055761852
 21
451.583520777
 31
0.0
  0
LINE
  5
39E
330
1F
100
AcDbEntity
  8
0
  6
Continuous
 62
     7
370
    15
100
AcDbLine
 10
563.7055750825
 20
451.583520777
 30
0.0
 11
557.2662990429
 21
451.583520777
 31
0.0
  0
LINE
  5
39F
330
1F
100
AcDbEntity
  8
0
  6
Continuous
 62
     7
370
    15
100
AcDbLine
 10
545.3180786111
 20
445.0835150549
 30
0.0
 11
545.3180786111
 21
435.5835181544
 31
0.0
  0
LINE
  5
3A0
330
1F
100
AcDbEntity
  8
0
  6
Continuous
 62
     7
370
    15
100
AcDbLine
 10
545.3180786111
 20
445.0835150549
 30
0.0
 11
547.4581535794
 21
445.0835150549
 31
0.0
  0
LINE
  5
3A1
330
1F
100
AcDbEntity
  8
0
  6
Continuous
 62
     7
370
    15
100
AcDbLine
 10
556.9736625888
 20
463.5835152934
 30
0.0
 11
549.2055754997
 21
463.5835152934
 31
0.0
  0
LINE
  5
3A2
330
1F
100
AcDbEntity
  8
0
  6
Continuous
 62
     7
370
    15
100
AcDbLine
 10
562.2055757679
 20
463.5835152934
 30
0.0
 11
556.9736625888
 21
463.5835152934
 31
0.0
  0
LINE
  5
3A3
330
1F
100
AcDbEntity
  8
0
  6
Continuous
 62
     8
370
     0
100
AcDbLine
 10
634.0516753383
 20
239.5835193223
 30
0.0
 11
634.0516753383
 21
243.5835192794
 31
0.0
  0
LINE
  5
3A4
330
1F
100
AcDbEntity
  8
0
  6
Continuous
 62
     8
370
     0
100
AcDbLine
 10
578.7907302268
 20
239.5835193223
 30
0.0
 11
578.7907302268
 21
243.5835192794
 31
0.0
  0
LINE
  5
3A5
330
1F
100
AcDbEntity
  8
0
  6
Continuous
 62
     8
370
     0
100
AcDbLine
 10
640.663352225
 20
239.5835193223
 30
0.0
 11
640.663352225
 21
243.5835192794
 31
0.0
  0
LINE
  5
3A6
330
1F
100
AcDbEntity
  8
0
  6
Continuous
 62
     8
370
     0
100
AcDbLine
 10
525.9504023828
 20
239.5835193223
 30
0.0
 11
525.9504023828
 21
243.5835192794
 31
0.0
  0
LINE
  5
3A7
330
1F
100
AcDbEntity
  8
0
  6
Continuous
 62
     8
370
     0
100
AcDbLine
 10
686.8920031824
 20
239.5835193223
 30
0.0
 11
686.8920031824
 21
243.5835192794
 31
0.0
  0
LINE
  5
3A8
330
1F
100
AcDbEntity
  8
0
  6
Continuous
 62
     8
370
     0
100
AcDbLine
 10
530.719571177
 20
243.5835192794
 30
0.0
 11
530.719571177
 21
239.5835193223
 31
0.0
  0
LINE
  5
3A9
330
1F
100
AcDbEntity
  8
0
  6
Continuous
 62
     8
370
     0
100
AcDbLine
 10
670.7767326273
 20
239.5835193223
 30
0.0
 11
670.7767326273
 21
243.5835192794
 31
0.0
  0
LINE
  5
3AA
330
1F
100
AcDbEntity
  8
0
  6
Continuous
 62
     8
370
     0
100
AcDbLine
 10
848.4212014713
 20
400.5835217307
 30
0.0
 11
828.6060545482
 21
400.5835217307
 31
0.0
  0
LINE
  5
3AB
330
1F
100
AcDbEntity
  8
0
  6
Continuous
 62
     8
370
     0
100
AcDbLine
 10
816.6060600318
 20
400.5835217307
 30
0.0
 11
663.1368290522
 21
400.5835217307
 31
0.0
  0
LINE
  5
3AC
330
1F
100
AcDbEntity
  8
0
  6
Continuous
 62
     8
370
     0
100
AcDbLine
 10
651.1368308105
 20
400.5835217307
 30
0.0
 11
467.9590765275
 21
400.5835217307
 31
0.0
  0
LINE
  5
3AD
330
1F
100
AcDbEntity
  8
0
  6
Continuous
 62
     8
370
     0
100
AcDbLine
 10
455.95906711
 20
400.5835217307
 30
0.0
 11
364.4212040939
 21
400.5835217307
 31
0.0
  0
LINE
  5
3AE
330
1F
100
AcDbEntity
  8
0
  6
Continuous
 62
     8
370
     0
100
AcDbLine
 10
848.4212014713
 20
399.1021674941
 30
0.0
 11
828.6060545482
 21
399.1021674941
 31
0.0
  0
LINE
  5
3AF
330
1F
100
AcDbEntity
  8
0
  6
Continuous
 62
     8
370
     0
100
AcDbLine
 10
816.6060600318
 20
399.1021674941
 30
0.0
 11
663.1368290522
 21
399.1021674941
 31
0.0
  0
LINE
  5
3B0
330
1F
100
AcDbEntity
  8
0
  6
Continuous
 62
     8
370
     0
100
AcDbLine
 10
651.1368308105
 20
399.1021674941
 30
0.0
 11
467.9590765275
 21
399.1021674941
 31
0.0
  0
LINE
  5
3B1
330
1F
100
AcDbEntity
  8
0
  6
Continuous
 62
     8
370
     0
100
AcDbLine
 10
455.95906711
 20
399.1021674941
 30
0.0
 11
364.4212040939
 21
399.1021674941
 31
0.0
  0
LINE
  5
3B2
330
1F
100
AcDbEntity
  8
0
  6
Continuous
 62
     8
370
     0
100
AcDbLine
 10
847.3495695629
 20
396.8040210078
 30
0.0
 11
828.6060545482
 21
396.8040210078
 31
0.0
  0
LINE
  5
3B3
330
1F
100
AcDbEntity
  8
0
  6
Continuous
 62
     8
370
     0
100
AcDbLine
 10
816.6060600318
 20
396.8040210078
 30
0.0
 11
663.1368290522
 21
396.8040210078
 31
0.0
  0
LINE
  5
3B4
330
1F
100
AcDbEntity
  8
0
  6
Continuous
 62
     8
370
     0
100
AcDbLine
 10
651.1368308105
 20
396.8040210078
 30
0.0
 11
467.9590765275
 21
396.8040210078
 31
0.0
  0
LINE
  5
3B5
330
1F
100
AcDbEntity
  8
0
  6
Continuous
 62
     8
370
     0
100
AcDbLine
 10
455.95906711
 20
396.8040210078
 30
0.0
 11
365.4928360023
 21
396.8040210078
 31
0.0
  0
LINE
  5
3B6
330
1F
100
AcDbEntity
  8
0
  6
Continuous
 62
     8
370
     0
100
AcDbLine
 10
832.8727934398
 20
384.6565795014
 30
0.0
 11
828.6060545482
 21
384.6565795014
 31
0.0
  0
LINE
  5
3B7
330
1F
100
AcDbEntity
  8
0
  6
Continuous
 62
     8
370
     0
100
AcDbLine
 10
816.6060600318
 20
384.6565795014
 30
0.0
 11
663.1368290522
 21
384.6565795014
 31
0.0
  0
LINE
  5
3B8
330
1F
100
AcDbEntity
  8
0
  6
Continuous
 62
     8
370
     0
100
AcDbLine
 10
651.1368308105
 20
384.6565795014
 30
0.0
 11
467.9590765275
 21
384.6565795014
 31
0.0
  0
LINE
  5
3B9
330
1F
100
AcDbEntity
  8
0
  6
Continuous
 62
     8
370
     0
100
AcDbLine
 10
455.95906711
 20
384.6565795014
 30
0.0
 11
379.9696121253
 21
384.6565795014
 31
0.0
  0
LINE
  5
3BA
330
1F
100
AcDbEntity
  8
0
  6
Continuous
 62
     8
370
     0
100
AcDbLine
 10
774.6313515939
 20
243.5835192794
 30
0.0
 11
774.6313515939
 21
239.5835193223
 31
0.0
  0
LINE
  5
3BB
330
1F
100
AcDbEntity
  8
0
  6
Continuous
 62
     8
370
     0
100
AcDbLine
 10
831.0989145078
 20
380.4775786469
 30
0.0
 11
828.6060545482
 21
380.4775786469
 31
0.0
  0
LINE
  5
3BC
330
1F
100
AcDbEntity
  8
0
  6
Continuous
 62
     8
370
     0
100
AcDbLine
 10
816.6060600318
 20
380.4775786469
 30
0.0
 11
663.1368290522
 21
380.4775786469
 31
0.0
  0
LINE
  5
3BD
330
1F
100
AcDbEntity
  8
0
  6
Continuous
 62
     8
370
     0
100
AcDbLine
 10
651.1368308105
 20
380.4775786469
 30
0.0
 11
467.9590765275
 21
380.4775786469
 31
0.0
  0
LINE
  5
3BE
330
1F
100
AcDbEntity
  8
0
  6
Continuous
 62
     8
370
     0
100
AcDbLine
 10
455.95906711
 20
380.4775786469
 30
0.0
 11
381.7434910573
 21
380.4775786469
 31
0.0
  0
LINE
  5
3BF
330
1F
100
AcDbEntity
  8
0
  6
Continuous
 62
     8
370
     0
100
AcDbLine
 10
613.488805376
 20
295.5835175583
 30
0.0
 11
613.488805376
 21
265.5835200915
 31
0.0
  0
LINE
  5
3C0
330
1F
100
AcDbEntity
  8
0
  6
Continuous
 62
     8
370
     0
100
AcDbLine
 10
685.314573709
 20
295.5835175583
 30
0.0
 11
685.314573709
 21
265.5835200915
 31
0.0
  0
LINE
  5
3C1
330
1F
100
AcDbEntity
  8
0
  6
Continuous
 62
     8
370
     0
100
AcDbLine
 10
527.5278318562
 20
295.5835175583
 30
0.0
 11
527.5278318562
 21
265.5835200915
 31
0.0
  0
LINE
  5
3C2
330
1F
100
AcDbEntity
  8
0
  6
Continuous
 62
     8
370
     0
100
AcDbLine
 10
599.3536001891
 20
295.5835175583
 30
0.0
 11
599.3536001891
 21
265.5835200915
 31
0.0
  0
LINE
  5
3C3
330
1F
100
AcDbEntity
  8
0
  6
Continuous
 62
     8
370
     0
100
AcDbLine
 10
430.1000837125
 20
239.5835193223
 30
0.0
 11
430.1000837125
 21
243.5835192794
 31
0.0
  0
LINE
  5
3C4
330
1F
100
AcDbEntity
  8
0
  6
Continuous
 62
     8
370
     0
100
AcDbLine
 10
782.7423218526
 20
239.5835193223
 30
0.0
 11
782.7423218526
 21
243.5835192794
 31
0.0
  0
LINE
  5
3C5
330
1F
100
AcDbEntity
  8
0
  6
Continuous
 62
     8
370
     0
100
AcDbLine
 10
453.2655332126
 20
239.5835193223
 30
0.0
 11
453.2655332126
 21
243.5835192794
 31
0.0
  0
LINE
  5
3C6
330
1F
100
AcDbEntity
  8
0
  6
Continuous
 62
     8
370
     0
100
AcDbLine
 10
698.3738023676
 20
295.5835175583
 30
0.0
 11
698.3738023676
 21
265.5835200915
 31
0.0
  0
LINE
  5
3C7
330
1F
100
AcDbEntity
  8
0
  6
Continuous
 62
     8
370
     0
100
AcDbLine
 10
514.4686031975
 20
295.5835175583
 30
0.0
 11
514.4686031975
 21
265.5835200915
 31
0.0
  0
LINE
  5
3C8
330
1F
100
AcDbEntity
  8
0
  6
Continuous
 62
     8
370
     0
100
AcDbLine
 10
759.264737729
 20
295.5835175583
 30
0.0
 11
759.264737729
 21
265.5835200915
 31
0.0
  0
LINE
  5
3C9
330
1F
100
AcDbEntity
  8
0
  6
Continuous
 62
     8
370
     0
100
AcDbLine
 10
453.5776678361
 20
295.5835175583
 30
0.0
 11
453.5776678361
 21
265.5835200915
 31
0.0
  0
LINE
  5
3CA
330
1F
100
AcDbEntity
  8
0
  6
Continuous
 62
     8
370
     0
100
AcDbLine
 10
371.3110092916
 20
243.5835192794
 30
0.0
 11
371.3110092916
 21
239.5835193223
 31
0.0
  0
LINE
  5
3CB
330
1F
100
AcDbEntity
  8
0
  6
Continuous
 62
     8
370
     0
100
AcDbLine
 10
769.2598406114
 20
295.5835175583
 30
0.0
 11
769.2598406114
 21
265.5835200915
 31
0.0
  0
LINE
  5
3CC
330
1F
100
AcDbEntity
  8
0
  6
Continuous
 62
     8
370
     0
100
AcDbLine
 10
443.5825649538
 20
295.5835175583
 30
0.0
 11
443.5825649538
 21
265.5835200915
 31
0.0
  0
LINE
  5
3CD
330
1F
100
AcDbEntity
  8
0
  6
Continuous
 62
     8
370
     0
100
AcDbLine
 10
809.945866827
 20
295.5835175583
 30
0.0
 11
809.945866827
 21
265.5835200915
 31
0.0
  0
LINE
  5
3CE
330
1F
100
AcDbEntity
  8
0
  6
Continuous
 62
     8
370
     0
100
AcDbLine
 10
402.8965387382
 20
295.5835175583
 30
0.0
 11
402.8965387382
 21
265.5835200915
 31
0.0
  0
LINE
  5
3CF
330
1F
100
AcDbEntity
  8
0
  6
Continuous
 62
     8
370
     0
100
AcDbLine
 10
361.0930446424
 20
239.5835193223
 30
0.0
 11
361.0930446424
 21
243.5835192794
 31
0.0
  0
LINE
  5
3D0
330
1F
100
AcDbEntity
  8
0
  6
Continuous
 62
     8
370
     0
100
AcDbLine
 10
851.7493609228
 20
239.5835193223
 30
0.0
 11
851.7493609228
 21
243.5835192794
 31
0.0
  0
LINE
  5
3D1
330
1F
100
AcDbEntity
  8
0
  6
Continuous
 62
     8
370
     0
100
AcDbLine
 10
815.3551820554
 20
295.5835175583
 30
0.0
 11
815.3551820554
 21
265.5835200915
 31
0.0
  0
LINE
  5
3D2
330
1F
100
AcDbEntity
  8
0
  6
Continuous
 62
     8
370
     0
100
AcDbLine
 10
397.4872235097
 20
295.5835175583
 30
0.0
 11
397.4872235097
 21
265.5835200915
 31
0.0
  0
LINE
  5
3D3
330
1F
100
AcDbEntity
  8
0
  6
CENTERX2
 62
     7
370
     0
100
AcDbLine
 10
606.4212027826
 20
462.8621360688
 30
0.0
 11
606.4212027826
 21
218.7823803244
 31
0.0
  0
CIRCLE
  5
3D4
330
1F
100
AcDbEntity
  8
0
  6
Continuous
 62
     7
370
    15
100
AcDbCircle
 10
-315.0308661334
 20
4.2684159541
 30
0.0
 40
6.499999999999987
  0
CIRCLE
  5
3D5
330
1F
100
AcDbEntity
  8
0
  6
Continuous
 62
     7
370
    15
100
AcDbCircle
 10
-119.8531083752
 20
-34.5626575143
 30
0.0
 40
6.500000000000009
  0
CIRCLE
  5
3D6
330
1F
100
AcDbEntity
  8
0
  6
Continuous
 62
     7
370
    15
100
AcDbCircle
 10
-480.5000975513
 20
-106.2853847232
 30
0.0
 40
6.499999999999976
  0
CIRCLE
  5
3D7
330
1F
100
AcDbEntity
  8
0
  6
Continuous
 62
     7
370
    15
100
AcDbCircle
 10
-9.2993076979
 20
-200.0318889322
 30
0.0
 40
6.500000000000004
  0
CIRCLE
  5
3D8
330
1F
100
AcDbEntity
  8
0
  6
Continuous
 62
     7
370
    15
100
AcDbCircle
 10
-519.3311710197
 20
-301.4631424814
 30
0.0
 40
6.500000000000033
  0
CIRCLE
  5
3D9
330
1F
100
AcDbEntity
  8
0
  6
Continuous
 62
     7
370
    15
100
AcDbCircle
 10
-48.1303811664
 20
-395.2096466903
 30
0.0
 40
6.499999999999994
  0
CIRCLE
  5
3DA
330
1F
100
AcDbEntity
  8
0
  6
Continuous
 62
     7
370
    15
100
AcDbCircle
 10
-408.7773703424
 20
-466.9323738992
 30
0.0
 40
6.50000000000003
  0
CIRCLE
  5
3DB
330
1F
100
AcDbEntity
  8
0
  6
Continuous
 62
     7
370
    15
100
AcDbCircle
 10
-213.5996125842
 20
-505.7634473676
 30
0.0
 40
6.499999999999972
  0
CIRCLE
  5
3DC
330
1F
100
AcDbEntity
  8
0
  6
Continuous
 62
     7
370
    15
100
AcDbCircle
 10
-315.0308661334
 20
4.2684159541
 30
0.0
 40
7.999999999999988
  0
CIRCLE
  5
3DD
330
1F
100
AcDbEntity
  8
0
  6
Continuous
 62
     7
370
    15
100
AcDbCircle
 10
-119.8531083752
 20
-34.5626575143
 30
0.0
 40
8.000000000000005
  0
CIRCLE
  5
3DE
330
1F
100
AcDbEntity
  8
0
  6
Continuous
 62
     7
370
    15
100
AcDbCircle
 10
-480.5000975513
 20
-106.2853847232
 30
0.0
 40
7.99999999999997
  0
CIRCLE
  5
3DF
330
1F
100
AcDbEntity
  8
0
  6
Continuous
 62
     7
370
    15
100
AcDbCircle
 10
-9.2993076979
 20
-200.0318889322
 30
0.0
 40
7.99999999999999
  0
CIRCLE
  5
3E0
330
1F
100
AcDbEntity
  8
0
  6
Continuous
 62
     7
370
    15
100
AcDbCircle
 10
-519.3311710197
 20
-301.4631424814
 30
0.0
 40
8.000000000000057
  0
CIRCLE
  5
3E1
330
1F
100
AcDbEntity
  8
0
  6
Continuous
 62
     7
370
    15
100
AcDbCircle
 10
-48.1303811664
 20
-395.2096466903
 30
0.0
 40
8.00000000000002
  0
CIRCLE
  5
3E2
330
1F
100
AcDbEntity
  8
0
  6
Continuous
 62
     7
370
    15
100
AcDbCircle
 10
-408.7773703424
 20
-466.9323738992
 30
0.0
 40
7.999999999999954
  0
CIRCLE
  5
3E3
330
1F
100
AcDbEntity
  8
0
  6
Continuous
 62
     7
370
    15
100
AcDbCircle
 10
-213.5996125842
 20
-505.7634473676
 30
0.0
 40
7.999999999999947
  0
LINE
  5
3E4
330
1F
100
AcDbEntity
  8
0
  6
Continuous
 62
     7
370
    15
100
AcDbLine
 10
-306.7834444531
 20
11.5012089922
 30
0.0
 11
-317.1709396133
 21
15.0273005679
 31
0.0
  0
LINE
  5
3E5
330
1F
100
AcDbEntity
  8
0
  6
Continuous
 62
     7
370
    15
100
AcDbLine
 10
-304.6433694848
 20
0.7423321917
 30
0.0
 11
-306.7834444531
 21
11.5012089922
 31
0.0
  0
LINE
  5
3E6
330
1F
100
AcDbEntity
  8
0
  6
Continuous
 62
     7
370
    15
100
AcDbLine
 10
-312.8907934019
 20
-6.4904530332
 30
0.0
 11
-304.6433694848
 21
0.7423321917
 31
0.0
  0
LINE
  5
3E7
330
1F
100
AcDbEntity
  8
0
  6
Continuous
 62
     7
370
    15
100
AcDbLine
 10
-323.278288562
 20
-2.9643763587
 30
0.0
 11
-312.8907934019
 21
-6.4904530332
 31
0.0
  0
LINE
  5
3E8
330
1F
100
AcDbEntity
  8
0
  6
Continuous
 62
     7
370
    15
100
AcDbLine
 10
-325.4183635303
 20
7.7944855406
 30
0.0
 11
-323.278288562
 21
-2.9643763587
 31
0.0
  0
LINE
  5
3E9
330
1F
100
AcDbEntity
  8
0
  6
Continuous
 62
     7
370
    15
100
AcDbLine
 10
-317.1709396133
 20
15.0273005679
 30
0.0
 11
-325.4183635303
 21
7.7944855406
 31
0.0
  0
LINE
  5
3EA
330
1F
100
AcDbEntity
  8
0
  6
Continuous
 62
     7
370
    15
100
AcDbLine
 10
-108.90694635
 20
-35.2801074073
 30
0.0
 11
-113.7586899289
 21
-25.4417200372
 31
0.0
  0
LINE
  5
3EB
330
1F
100
AcDbEntity
  8
0
  6
Continuous
 62
     7
370
    15
100
AcDbLine
 10
-115.0013573655
 20
-44.4010485694
 30
0.0
 11
-108.90694635
 21
-35.2801074073
 31
0.0
  0
LINE
  5
3EC
330
1F
100
AcDbEntity
  8
0
  6
Continuous
 62
     7
370
    15
100
AcDbLine
 10
-125.9475268611
 20
-43.6835874603
 30
0.0
 11
-115.0013573655
 21
-44.4010485694
 31
0.0
  0
LINE
  5
3ED
330
1F
100
AcDbEntity
  8
0
  6
Continuous
 62
     7
370
    15
100
AcDbLine
 10
-130.79927044
 20
-33.8452149913
 30
0.0
 11
-125.9475268611
 21
-43.6835874603
 31
0.0
  0
LINE
  5
3EE
330
1F
100
AcDbEntity
  8
0
  6
Continuous
 62
     7
370
    15
100
AcDbLine
 10
-124.7048594245
 20
-24.7242738292
 30
0.0
 11
-130.79927044
 21
-33.8452149913
 31
0.0
  0
LINE
  5
3EF
330
1F
100
AcDbEntity
  8
0
  6
Continuous
 62
     7
370
    15
100
AcDbLine
 10
-113.7586899289
 20
-25.4417200372
 30
0.0
 11
-124.7048594245
 21
-24.7242738292
 31
0.0
  0
LINE
  5
3F0
330
1F
100
AcDbEntity
  8
0
  6
Continuous
 62
     7
370
    15
100
AcDbLine
 10
-479.7826476583
 20
-95.339222698
 30
0.0
 11
-489.6210350284
 21
-100.1909662769
 31
0.0
  0
LINE
  5
3F1
330
1F
100
AcDbEntity
  8
0
  6
Continuous
 62
     7
370
    15
100
AcDbLine
 10
-470.6617064961
 20
-101.4336337135
 30
0.0
 11
-479.7826476583
 21
-95.339222698
 31
0.0
  0
LINE
  5
3F2
330
1F
100
AcDbEntity
  8
0
  6
Continuous
 62
     7
370
    15
100
AcDbLine
 10
-471.3791676053
 20
-112.3798032091
 30
0.0
 11
-470.6617064961
 21
-101.4336337135
 31
0.0
  0
LINE
  5
3F3
330
1F
100
AcDbEntity
  8
0
  6
Continuous
 62
     7
370
    15
100
AcDbLine
 10
-481.2175400743
 20
-117.231546788
 30
0.0
 11
-471.3791676053
 21
-112.3798032091
 31
0.0
  0
LINE
  5
3F4
330
1F
100
AcDbEntity
  8
0
  6
Continuous
 62
     7
370
    15
100
AcDbLine
 10
-490.3384812364
 20
-111.1371357725
 30
0.0
 11
-481.2175400743
 21
-117.231546788
 31
0.0
  0
LINE
  5
3F5
330
1F
100
AcDbEntity
  8
0
  6
Continuous
 62
     7
370
    15
100
AcDbLine
 10
-489.6210350284
 20
-100.1909662769
 30
0.0
 11
-490.3384812364
 21
-111.1371357725
 31
0.0
  0
LINE
  5
3F6
330
1F
100
AcDbEntity
  8
0
  6
Continuous
 62
     7
370
    15
100
AcDbLine
 10
-2.0665146598
 20
-208.2793106124
 30
0.0
 11
1.4595769158
 21
-197.8918154523
 31
0.0
  0
LINE
  5
3F7
330
1F
100
AcDbEntity
  8
0
  6
Continuous
 62
     7
370
    15
100
AcDbLine
 10
-12.8253914603
 20
-210.4193855808
 30
0.0
 11
-2.0665146598
 21
-208.2793106124
 31
0.0
  0
LINE
  5
3F8
330
1F
100
AcDbEntity
  8
0
  6
Continuous
 62
     7
370
    15
100
AcDbLine
 10
-20.0581766852
 20
-202.1719616637
 30
0.0
 11
-12.8253914603
 21
-210.4193855808
 31
0.0
  0
LINE
  5
3F9
330
1F
100
AcDbEntity
  8
0
  6
Continuous
 62
     7
370
    15
100
AcDbLine
 10
-16.5321000108
 20
-191.7844665036
 30
0.0
 11
-20.0581766852
 21
-202.1719616637
 31
0.0
  0
LINE
  5
3FA
330
1F
100
AcDbEntity
  8
0
  6
Continuous
 62
     7
370
    15
100
AcDbLine
 10
-5.7732381114
 20
-189.6443915353
 30
0.0
 11
-16.5321000108
 21
-191.7844665036
 31
0.0
  0
LINE
  5
3FB
330
1F
100
AcDbEntity
  8
0
  6
Continuous
 62
     7
370
    15
100
AcDbLine
 10
1.4595769158
 20
-197.8918154523
 30
0.0
 11
-5.7732381114
 21
-189.6443915353
 31
0.0
  0
LINE
  5
3FC
330
1F
100
AcDbEntity
  8
0
  6
Continuous
 62
     7
370
    15
100
AcDbLine
 10
-526.5639640578
 20
-293.2157208011
 30
0.0
 11
-530.0900556335
 21
-303.6032159612
 31
0.0
  0
LINE
  5
3FD
330
1F
100
AcDbEntity
  8
0
  6
Continuous
 62
     7
370
    15
100
AcDbLine
 10
-515.8050872573
 20
-291.0756458328
 30
0.0
 11
-526.5639640578
 21
-293.2157208011
 31
0.0
  0
LINE
  5
3FE
330
1F
100
AcDbEntity
  8
0
  6
Continuous
 62
     7
370
    15
100
AcDbLine
 10
-508.5723020324
 20
-299.3230697498
 30
0.0
 11
-515.8050872573
 21
-291.0756458328
 31
0.0
  0
LINE
  5
3FF
330
1F
100
AcDbEntity
  8
0
  6
Continuous
 62
     7
370
    15
100
AcDbLine
 10
-512.0983787068
 20
-309.7105649099
 30
0.0
 11
-508.5723020324
 21
-299.3230697498
 31
0.0
  0
LINE
  5
400
330
1F
100
AcDbEntity
  8
0
  6
Continuous
 62
     7
370
    15
100
AcDbLine
 10
-522.8572406062
 20
-311.8506398783
 30
0.0
 11
-512.0983787068
 21
-309.7105649099
 31
0.0
  0
LINE
  5
401
330
1F
100
AcDbEntity
  8
0
  6
Continuous
 62
     7
370
    15
100
AcDbLine
 10
-530.0900556335
 20
-303.6032159612
 30
0.0
 11
-522.8572406062
 21
-311.8506398783
 31
0.0
  0
LINE
  5
402
330
1F
100
AcDbEntity
  8
0
  6
Continuous
 62
     7
370
    15
100
AcDbLine
 10
-48.8478310594
 20
-406.1558087156
 30
0.0
 11
-39.0094436893
 21
-401.3040651367
 31
0.0
  0
LINE
  5
403
330
1F
100
AcDbEntity
  8
0
  6
Continuous
 62
     7
370
    15
100
AcDbLine
 10
-57.9687722215
 20
-400.0613977001
 30
0.0
 11
-48.8478310594
 21
-406.1558087156
 31
0.0
  0
LINE
  5
404
330
1F
100
AcDbEntity
  8
0
  6
Continuous
 62
     7
370
    15
100
AcDbLine
 10
-57.2513111123
 20
-389.1152282045
 30
0.0
 11
-57.9687722215
 21
-400.0613977001
 31
0.0
  0
LINE
  5
405
330
1F
100
AcDbEntity
  8
0
  6
Continuous
 62
     7
370
    15
100
AcDbLine
 10
-47.4129386434
 20
-384.2634846256
 30
0.0
 11
-57.2513111123
 21
-389.1152282045
 31
0.0
  0
LINE
  5
406
330
1F
100
AcDbEntity
  8
0
  6
Continuous
 62
     7
370
    15
100
AcDbLine
 10
-38.2919974813
 20
-390.3578956411
 30
0.0
 11
-47.4129386434
 21
-384.2634846256
 31
0.0
  0
LINE
  5
407
330
1F
100
AcDbEntity
  8
0
  6
Continuous
 62
     7
370
    15
100
AcDbLine
 10
-39.0094436893
 20
-401.3040651367
 30
0.0
 11
-38.2919974813
 21
-390.3578956411
 31
0.0
  0
LINE
  5
408
330
1F
100
AcDbEntity
  8
0
  6
Continuous
 62
     7
370
    15
100
AcDbLine
 10
-419.7235323676
 20
-466.2149240062
 30
0.0
 11
-414.8717887887
 21
-476.0533113763
 31
0.0
  0
LINE
  5
409
330
1F
100
AcDbEntity
  8
0
  6
Continuous
 62
     7
370
    15
100
AcDbLine
 10
-413.6291213521
 20
-457.0939828441
 30
0.0
 11
-419.7235323676
 21
-466.2149240062
 31
0.0
  0
LINE
  5
40A
330
1F
100
AcDbEntity
  8
0
  6
Continuous
 62
     7
370
    15
100
AcDbLine
 10
-402.6829518565
 20
-457.8114439533
 30
0.0
 11
-413.6291213521
 21
-457.0939828441
 31
0.0
  0
LINE
  5
40B
330
1F
100
AcDbEntity
  8
0
  6
Continuous
 62
     7
370
    15
100
AcDbLine
 10
-397.8312082776
 20
-467.6498164222
 30
0.0
 11
-402.6829518565
 21
-457.8114439533
 31
0.0
  0
LINE
  5
40C
330
1F
100
AcDbEntity
  8
0
  6
Continuous
 62
     7
370
    15
100
AcDbLine
 10
-403.9256192931
 20
-476.7707575843
 30
0.0
 11
-397.8312082776
 21
-467.6498164222
 31
0.0
  0
LINE
  5
40D
330
1F
100
AcDbEntity
  8
0
  6
Continuous
 62
     7
370
    15
100
AcDbLine
 10
-414.8717887887
 20
-476.0533113763
 30
0.0
 11
-403.9256192931
 21
-476.7707575843
 31
0.0
  0
LINE
  5
40E
330
1F
100
AcDbEntity
  8
0
  6
Continuous
 62
     7
370
    15
100
AcDbLine
 10
-221.8470342645
 20
-512.9962404058
 30
0.0
 11
-211.4595391044
 21
-516.5223319814
 31
0.0
  0
LINE
  5
40F
330
1F
100
AcDbEntity
  8
0
  6
Continuous
 62
     7
370
    15
100
AcDbLine
 10
-223.9871092328
 20
-502.2373636053
 30
0.0
 11
-221.8470342645
 21
-512.9962404058
 31
0.0
  0
LINE
  5
410
330
1F
100
AcDbEntity
  8
0
  6
Continuous
 62
     7
370
    15
100
AcDbLine
 10
-215.7396853158
 20
-495.0045783803
 30
0.0
 11
-223.9871092328
 21
-502.2373636053
 31
0.0
  0
LINE
  5
411
330
1F
100
AcDbEntity
  8
0
  6
Continuous
 62
     7
370
    15
100
AcDbLine
 10
-205.3521901557
 20
-498.5306550548
 30
0.0
 11
-215.7396853158
 21
-495.0045783803
 31
0.0
  0
LINE
  5
412
330
1F
100
AcDbEntity
  8
0
  6
Continuous
 62
     7
370
    15
100
AcDbLine
 10
-203.2121151873
 20
-509.2895169542
 30
0.0
 11
-205.3521901557
 21
-498.5306550548
 31
0.0
  0
LINE
  5
413
330
1F
100
AcDbEntity
  8
0
  6
Continuous
 62
     7
370
    15
100
AcDbLine
 10
-211.4595391044
 20
-516.5223319814
 30
0.0
 11
-203.2121151873
 21
-509.2895169542
 31
0.0
  0
CIRCLE
  5
414
330
1F
100
AcDbEntity
  8
0
  6
Continuous
 62
     7
370
    15
100
AcDbCircle
 10
-264.3152393588
 20
-250.7475157068
 30
0.0
 40
224.5
  0
CIRCLE
  5
415
330
1F
100
AcDbEntity
  8
0
  6
Continuous
 62
     7
370
    15
100
AcDbCircle
 10
-264.3152393588
 20
-250.7475157068
 30
0.0
 40
218.0
  0
CIRCLE
  5
416
330
1F
100
AcDbEntity
  8
0
  6
Continuous
 62
     7
370
    15
100
AcDbCircle
 10
-315.0308661334
 20
4.2684159541
 30
0.0
 40
11.99999999999999
  0
CIRCLE
  5
417
330
1F
100
AcDbEntity
  8
0
  6
Continuous
 62
     7
370
    15
100
AcDbCircle
 10
-119.8531083752
 20
-34.5626575143
 30
0.0
 40
12.0
  0
CIRCLE
  5
418
330
1F
100
AcDbEntity
  8
0
  6
Continuous
 62
     7
370
    15
100
AcDbCircle
 10
-480.5000975513
 20
-106.2853847232
 30
0.0
 40
11.99999999999999
  0
CIRCLE
  5
419
330
1F
100
AcDbEntity
  8
0
  6
Continuous
 62
     7
370
    15
100
AcDbCircle
 10
-9.2993076979
 20
-200.0318889322
 30
0.0
 40
11.99999999999999
  0
CIRCLE
  5
41A
330
1F
100
AcDbEntity
  8
0
  6
Continuous
 62
     7
370
    15
100
AcDbCircle
 10
-519.3311710197
 20
-301.4631424814
 30
0.0
 40
11.99999999999997
  0
CIRCLE
  5
41B
330
1F
100
AcDbEntity
  8
0
  6
Continuous
 62
     7
370
    15
100
AcDbCircle
 10
-48.1303811664
 20
-395.2096466903
 30
0.0
 40
12.0
  0
CIRCLE
  5
41C
330
1F
100
AcDbEntity
  8
0
  6
Continuous
 62
     7
370
    15
100
AcDbCircle
 10
-408.7773703424
 20
-466.9323738992
 30
0.0
 40
12.0
  0
CIRCLE
  5
41D
330
1F
100
AcDbEntity
  8
0
  6
Continuous
 62
     7
370
    15
100
AcDbCircle
 10
-213.5996125842
 20
-505.7634473676
 30
0.0
 40
11.99999999999998
  0
LINE
  5
41E
330
1F
100
AcDbEntity
  8
0
  6
Continuous
 62
     7
370
    15
100
AcDbLine
 10
-320.4924829492
 20
-6.7691792533
 30
0.0
 11
-319.9742131123
 21
-6.6660930202
 31
0.0
  0
LINE
  5
41F
330
1F
100
AcDbEntity
  8
0
  6
Continuous
 62
     7
370
    15
100
AcDbLine
 10
-306.2793567964
 20
-3.9420117424
 30
0.0
 11
-305.7807043382
 21
-3.8428147123
 31
0.0
  0
LINE
  5
420
330
1F
100
AcDbEntity
  8
0
  6
Continuous
 62
     7
370
    15
100
AcDbLine
 10
-305.7807043382
 20
-3.8428147123
 30
0.0
 11
-305.8557167837
 21
-3.465711026
 31
0.0
  0
LINE
  5
421
330
1F
100
AcDbEntity
  8
0
  6
Continuous
 62
     7
370
    15
100
AcDbLine
 10
-309.5138512739
 20
14.9249891951
 30
0.0
 11
-309.5849633404
 21
15.2824978545
 31
0.0
  0
LINE
  5
422
330
1F
100
AcDbEntity
  8
0
  6
Continuous
 62
     7
370
    15
100
AcDbLine
 10
-310.0562796184
 20
15.1887397482
 30
0.0
 11
-309.5849633404
 21
15.2824978545
 31
0.0
  0
LINE
  5
423
330
1F
100
AcDbEntity
  8
0
  6
Continuous
 62
     7
370
    15
100
AcDbLine
 10
-324.2967419514
 20
12.3561482146
 30
0.0
 11
-323.80581202
 21
12.4537806227
 31
0.0
  0
LINE
  5
424
330
1F
100
AcDbEntity
  8
0
  6
Continuous
 62
     7
370
    15
100
AcDbLine
 10
-324.2225080916
 20
11.9829337313
 30
0.0
 11
-324.2967419514
 21
12.3561482146
 31
0.0
  0
LINE
  5
425
330
1F
100
AcDbEntity
  8
0
  6
Continuous
 62
     7
370
    15
100
AcDbLine
 10
-320.4924829492
 20
-6.7691792533
 30
0.0
 11
-320.5706209132
 21
-6.3763548419
 31
0.0
  0
LINE
  5
426
330
1F
100
AcDbEntity
  8
0
  6
Continuous
 62
     7
370
    15
100
AcDbLine
 10
-300.7326789388
 20
-29.2209525392
 30
0.0
 11
-304.8052519747
 21
-8.7467421577
 31
0.0
  0
LINE
  5
427
330
1F
100
AcDbEntity
  8
0
  6
Continuous
 62
     7
370
    15
100
AcDbLine
 10
-319.5170305857
 20
-11.6731066988
 30
0.0
 11
-304.8052519747
 21
-8.7467421577
 31
0.0
  0
LINE
  5
428
330
1F
100
AcDbEntity
  8
0
  6
Continuous
 62
     7
370
    15
100
AcDbLine
 10
-315.4444575497
 20
-32.1473021791
 30
0.0
 11
-319.5170305857
 21
-11.6731066988
 31
0.0
  0
LINE
  5
429
330
1F
100
AcDbEntity
  8
0
  6
Continuous
 62
     7
370
    15
100
AcDbLine
 10
-323.6942060479
 20
-34.2425842569
 30
0.0
 11
-334.242916871
 21
18.7893371298
 31
0.0
  0
LINE
  5
42A
330
1F
100
AcDbEntity
  8
0
  6
Continuous
 62
     7
370
    15
100
AcDbLine
 10
-292.3090785929
 20
-27.9996831701
 30
0.0
 11
-302.8577856907
 21
25.0322382166
 31
0.0
  0
LINE
  5
42B
330
1F
100
AcDbEntity
  8
0
  6
Continuous
 62
     7
370
    15
100
AcDbLine
 10
-334.242916871
 20
18.7893371298
 30
0.0
 11
-302.8577856907
 21
25.0322382166
 31
0.0
  0
LINE
  5
42C
330
1F
100
AcDbEntity
  8
0
  6
Continuous
 62
     7
370
    15
100
AcDbLine
 10
-108.4166534432
 20
-30.9284467981
 30
0.0
 11
-108.2141466626
 21
-30.6253571794
 31
0.0
  0
LINE
  5
42D
330
1F
100
AcDbEntity
  8
0
  6
Continuous
 62
     7
370
    15
100
AcDbLine
 10
-108.6137063989
 20
-30.3583879755
 30
0.0
 11
-108.2141466626
 21
-30.6253571794
 31
0.0
  0
LINE
  5
42E
330
1F
100
AcDbEntity
  8
0
  6
Continuous
 62
     7
370
    15
100
AcDbLine
 10
-120.6861950645
 20
-22.2918082759
 30
0.0
 11
-120.2700056323
 21
-22.5699086473
 31
0.0
  0
LINE
  5
42F
330
1F
100
AcDbEntity
  8
0
  6
Continuous
 62
     7
370
    15
100
AcDbLine
 10
-131.5198160895
 20
-38.5054637477
 30
0.0
 11
-131.0804404506
 21
-38.7990464256
 31
0.0
  0
LINE
  5
430
330
1F
100
AcDbEntity
  8
0
  6
Continuous
 62
     7
370
    15
100
AcDbLine
 10
-119.4704987296
 20
-46.5565611408
 30
0.0
 11
-119.0477676877
 21
-46.8390275524
 31
0.0
  0
LINE
  5
431
330
1F
100
AcDbEntity
  8
0
  6
Continuous
 62
     7
370
    15
100
AcDbLine
 10
-119.0477676877
 20
-46.8390275524
 30
0.0
 11
-118.8341446408
 21
-46.519323139
 31
0.0
  0
LINE
  5
432
330
1F
100
AcDbEntity
  8
0
  6
Continuous
 62
     7
370
    15
100
AcDbLine
 10
-133.4233202228
 20
-68.3535625026
 30
0.0
 11
-121.8256123551
 21
-50.9963770196
 31
0.0
  0
LINE
  5
433
330
1F
100
AcDbEntity
  8
0
  6
Continuous
 62
     7
370
    15
100
AcDbLine
 10
-134.297660757
 20
-42.662813215
 30
0.0
 11
-121.8256123551
 21
-50.9963770196
 31
0.0
  0
LINE
  5
434
330
1F
100
AcDbEntity
  8
0
  6
Continuous
 62
     7
370
    15
100
AcDbLine
 10
-145.895361174
 20
-60.019998698
 30
0.0
 11
-134.297660757
 21
-42.662813215
 31
0.0
  0
LINE
  5
435
330
1F
100
AcDbEntity
  8
0
  6
Continuous
 62
     7
370
    15
100
AcDbLine
 10
-126.6033716687
 20
-73.4463770673
 30
0.0
 11
-96.5631969461
 21
-28.4880836294
 31
0.0
  0
LINE
  5
436
330
1F
100
AcDbEntity
  8
0
  6
Continuous
 62
     7
370
    15
100
AcDbLine
 10
-131.5198160895
 20
-38.5054637477
 30
0.0
 11
-131.2972970494
 21
-38.1724525974
 31
0.0
  0
LINE
  5
437
330
1F
100
AcDbEntity
  8
0
  6
Continuous
 62
     7
370
    15
100
AcDbLine
 10
-120.8975978383
 20
-22.6082046316
 30
0.0
 11
-120.6861950645
 21
-22.2918082759
 31
0.0
  0
LINE
  5
438
330
1F
100
AcDbEntity
  8
0
  6
Continuous
 62
     7
370
    15
100
AcDbLine
 10
-153.2104008087
 20
-55.6681294725
 30
0.0
 11
-123.1702335366
 21
-10.7098360345
 31
0.0
  0
LINE
  5
439
330
1F
100
AcDbEntity
  8
0
  6
Continuous
 62
     7
370
    15
100
AcDbLine
 10
-123.1702335366
 20
-10.7098360345
 30
0.0
 11
-96.5631969461
 21
-28.4880836294
 31
0.0
  0
LINE
  5
43A
330
1F
100
AcDbEntity
  8
0
  6
Continuous
 62
     7
370
    15
100
AcDbLine
 10
-492.454550434
 20
-107.3298741863
 30
0.0
 11
-492.7709467897
 21
-107.1184714124
 31
0.0
  0
LINE
  5
43B
330
1F
100
AcDbEntity
  8
0
  6
Continuous
 62
     7
370
    15
100
AcDbLine
 10
-476.5572913179
 20
-117.9520924375
 30
0.0
 11
-476.8903024682
 21
-117.7295733974
 31
0.0
  0
LINE
  5
43C
330
1F
100
AcDbEntity
  8
0
  6
Continuous
 62
     7
370
    15
100
AcDbLine
 10
-476.5572913179
 20
-117.9520924375
 30
0.0
 11
-476.26370864
 21
-117.5127167985
 31
0.0
  0
LINE
  5
43D
330
1F
100
AcDbEntity
  8
0
  6
Continuous
 62
     7
370
    15
100
AcDbLine
 10
-468.5061939248
 20
-105.9027750776
 30
0.0
 11
-468.2237275132
 21
-105.4800440357
 31
0.0
  0
LINE
  5
43E
330
1F
100
AcDbEntity
  8
0
  6
Continuous
 62
     7
370
    15
100
AcDbLine
 10
-468.2237275132
 20
-105.4800440357
 30
0.0
 11
-468.5434319266
 21
-105.2664209888
 31
0.0
  0
LINE
  5
43F
330
1F
100
AcDbEntity
  8
0
  6
Continuous
 62
     7
370
    15
100
AcDbLine
 10
-484.1343082675
 20
-94.8489297912
 30
0.0
 11
-484.4373978862
 21
-94.6464230106
 31
0.0
  0
LINE
  5
440
330
1F
100
AcDbEntity
  8
0
  6
Continuous
 62
     7
370
    15
100
AcDbLine
 10
-484.7043670901
 20
-95.0459827468
 30
0.0
 11
-484.4373978862
 21
-94.6464230106
 31
0.0
  0
LINE
  5
441
330
1F
100
AcDbEntity
  8
0
  6
Continuous
 62
     7
370
    15
100
AcDbLine
 10
-492.7709467897
 20
-107.1184714124
 30
0.0
 11
-492.4928464183
 21
-106.7022819803
 31
0.0
  0
LINE
  5
442
330
1F
100
AcDbEntity
  8
0
  6
Continuous
 62
     7
370
    15
100
AcDbLine
 10
-446.709192563
 20
-119.8555965707
 30
0.0
 11
-464.0663780459
 21
-108.2578887031
 31
0.0
  0
LINE
  5
443
330
1F
100
AcDbEntity
  8
0
  6
Continuous
 62
     7
370
    15
100
AcDbLine
 10
-472.3999418506
 20
-120.7299371049
 30
0.0
 11
-464.0663780459
 21
-108.2578887031
 31
0.0
  0
LINE
  5
444
330
1F
100
AcDbEntity
  8
0
  6
Continuous
 62
     7
370
    15
100
AcDbLine
 10
-455.0427563676
 20
-132.327637522
 30
0.0
 11
-472.3999418506
 21
-120.7299371049
 31
0.0
  0
LINE
  5
445
330
1F
100
AcDbEntity
  8
0
  6
Continuous
 62
     7
370
    15
100
AcDbLine
 10
-459.3946255931
 20
-139.6426771567
 30
0.0
 11
-504.3529190311
 21
-109.6025098846
 31
0.0
  0
LINE
  5
446
330
1F
100
AcDbEntity
  8
0
  6
Continuous
 62
     7
370
    15
100
AcDbLine
 10
-504.3529190311
 20
-109.6025098846
 30
0.0
 11
-486.5746714362
 21
-82.995473294
 31
0.0
  0
LINE
  5
447
330
1F
100
AcDbEntity
  8
0
  6
Continuous
 62
     7
370
    15
100
AcDbLine
 10
-441.6163779983
 20
-113.0356480167
 30
0.0
 11
-486.5746714362
 21
-82.995473294
 31
0.0
  0
LINE
  5
448
330
1F
100
AcDbEntity
  8
0
  6
Continuous
 62
     7
370
    15
100
AcDbLine
 10
-17.4105383643
 20
-209.2820507274
 30
0.0
 11
-17.033434678
 21
-209.2070382819
 31
0.0
  0
LINE
  5
449
330
1F
100
AcDbEntity
  8
0
  6
Continuous
 62
     7
370
    15
100
AcDbLine
 10
1.3572655431
 20
-205.5489037917
 30
0.0
 11
1.7147742024
 21
-205.4777917252
 31
0.0
  0
LINE
  5
44A
330
1F
100
AcDbEntity
  8
0
  6
Continuous
 62
     7
370
    15
100
AcDbLine
 10
1.6210160962
 20
-205.0064754472
 30
0.0
 11
1.7147742024
 21
-205.4777917252
 31
0.0
  0
LINE
  5
44B
330
1F
100
AcDbEntity
  8
0
  6
Continuous
 62
     7
370
    15
100
AcDbLine
 10
-1.2115754375
 20
-190.7660131142
 30
0.0
 11
-1.1139430293
 21
-191.2569430456
 31
0.0
  0
LINE
  5
44C
330
1F
100
AcDbEntity
  8
0
  6
Continuous
 62
     7
370
    15
100
AcDbLine
 10
-1.5847899207
 20
-190.840246974
 30
0.0
 11
-1.2115754375
 21
-190.7660131142
 31
0.0
  0
LINE
  5
44D
330
1F
100
AcDbEntity
  8
0
  6
Continuous
 62
     7
370
    15
100
AcDbLine
 10
-20.3369029054
 20
-194.5702721164
 30
0.0
 11
-19.944078494
 21
-194.4921341524
 31
0.0
  0
LINE
  5
44E
330
1F
100
AcDbEntity
  8
0
  6
Continuous
 62
     7
370
    15
100
AcDbLine
 10
-20.3369029054
 20
-194.5702721164
 30
0.0
 11
-20.2338166722
 21
-195.0885419533
 31
0.0
  0
LINE
  5
44F
330
1F
100
AcDbEntity
  8
0
  6
Continuous
 62
     7
370
    15
100
AcDbLine
 10
-17.5097353944
 20
-208.7833982692
 30
0.0
 11
-17.4105383643
 21
-209.2820507274
 31
0.0
  0
LINE
  5
450
330
1F
100
AcDbEntity
  8
0
  6
Continuous
 62
     7
370
    15
100
AcDbLine
 10
-42.7886761912
 20
-214.3300761268
 30
0.0
 11
-22.3144658097
 21
-210.2575030909
 31
0.0
  0
LINE
  5
451
330
1F
100
AcDbEntity
  8
0
  6
Continuous
 62
     7
370
    15
100
AcDbLine
 10
-25.2408303508
 20
-195.5457244799
 30
0.0
 11
-22.3144658097
 21
-210.2575030909
 31
0.0
  0
LINE
  5
452
330
1F
100
AcDbEntity
  8
0
  6
Continuous
 62
     7
370
    15
100
AcDbLine
 10
-45.7150258311
 20
-199.6182975159
 30
0.0
 11
-25.2408303508
 21
-195.5457244799
 31
0.0
  0
LINE
  5
453
330
1F
100
AcDbEntity
  8
0
  6
Continuous
 62
     7
370
    15
100
AcDbLine
 10
-47.8103079089
 20
-191.3685490177
 30
0.0
 11
5.2216134778
 21
-180.8198381946
 31
0.0
  0
LINE
  5
454
330
1F
100
AcDbEntity
  8
0
  6
Continuous
 62
     7
370
    15
100
AcDbLine
 10
5.2216134778
 20
-180.8198381946
 30
0.0
 11
11.4645145646
 21
-212.2049693749
 31
0.0
  0
LINE
  5
455
330
1F
100
AcDbEntity
  8
0
  6
Continuous
 62
     7
370
    15
100
AcDbLine
 10
-41.5674068221
 20
-222.7536764727
 30
0.0
 11
11.4645145646
 21
-212.2049693749
 31
0.0
  0
LINE
  5
456
330
1F
100
AcDbEntity
  8
0
  6
Continuous
 62
     7
370
    15
100
AcDbLine
 10
-527.0456887969
 20
-310.6547844396
 30
0.0
 11
-527.4189032802
 21
-310.7290182993
 31
0.0
  0
LINE
  5
457
330
1F
100
AcDbEntity
  8
0
  6
Continuous
 62
     7
370
    15
100
AcDbLine
 10
-508.2935758123
 20
-306.9247592971
 30
0.0
 11
-508.6864002236
 21
-307.0028972611
 31
0.0
  0
LINE
  5
458
330
1F
100
AcDbEntity
  8
0
  6
Continuous
 62
     7
370
    15
100
AcDbLine
 10
-508.2935758123
 20
-306.9247592971
 30
0.0
 11
-508.3966620454
 21
-306.4064894602
 31
0.0
  0
LINE
  5
459
330
1F
100
AcDbEntity
  8
0
  6
Continuous
 62
     7
370
    15
100
AcDbLine
 10
-511.1207433232
 20
-292.7116331444
 30
0.0
 11
-511.2199403533
 21
-292.2129806862
 31
0.0
  0
LINE
  5
45A
330
1F
100
AcDbEntity
  8
0
  6
Continuous
 62
     7
370
    15
100
AcDbLine
 10
-511.2199403533
 20
-292.2129806862
 30
0.0
 11
-511.5970440396
 21
-292.2879931316
 31
0.0
  0
LINE
  5
45B
330
1F
100
AcDbEntity
  8
0
  6
Continuous
 62
     7
370
    15
100
AcDbLine
 10
-529.9877442607
 20
-295.9461276219
 30
0.0
 11
-530.3452529201
 21
-296.0172396884
 31
0.0
  0
LINE
  5
45C
330
1F
100
AcDbEntity
  8
0
  6
Continuous
 62
     7
370
    15
100
AcDbLine
 10
-530.2514948138
 20
-296.4885559664
 30
0.0
 11
-530.3452529201
 21
-296.0172396884
 31
0.0
  0
LINE
  5
45D
330
1F
100
AcDbEntity
  8
0
  6
Continuous
 62
     7
370
    15
100
AcDbLine
 10
-527.4189032802
 20
-310.7290182993
 30
0.0
 11
-527.5165356883
 21
-310.2380883679
 31
0.0
  0
LINE
  5
45E
330
1F
100
AcDbEntity
  8
0
  6
Continuous
 62
     7
370
    15
100
AcDbLine
 10
-485.8418025264
 20
-287.1649552867
 30
0.0
 11
-506.3160129079
 21
-291.2375283227
 31
0.0
  0
LINE
  5
45F
330
1F
100
AcDbEntity
  8
0
  6
Continuous
 62
     7
370
    15
100
AcDbLine
 10
-503.3896483668
 20
-305.9493069336
 30
0.0
 11
-506.3160129079
 21
-291.2375283227
 31
0.0
  0
LINE
  5
460
330
1F
100
AcDbEntity
  8
0
  6
Continuous
 62
     7
370
    15
100
AcDbLine
 10
-482.9154528865
 20
-301.8767338977
 30
0.0
 11
-503.3896483668
 21
-305.9493069336
 31
0.0
  0
LINE
  5
461
330
1F
100
AcDbEntity
  8
0
  6
Continuous
 62
     7
370
    15
100
AcDbLine
 10
-480.8201708087
 20
-310.1264823959
 30
0.0
 11
-533.8520921954
 21
-320.6751932189
 31
0.0
  0
LINE
  5
462
330
1F
100
AcDbEntity
  8
0
  6
Continuous
 62
     7
370
    15
100
AcDbLine
 10
-533.8520921954
 20
-320.6751932189
 30
0.0
 11
-540.0949932822
 21
-289.2900620387
 31
0.0
  0
LINE
  5
463
330
1F
100
AcDbEntity
  8
0
  6
Continuous
 62
     7
370
    15
100
AcDbLine
 10
-487.0630718955
 20
-278.7413549409
 30
0.0
 11
-540.0949932822
 21
-289.2900620387
 31
0.0
  0
LINE
  5
464
330
1F
100
AcDbEntity
  8
0
  6
Continuous
 62
     7
370
    15
100
AcDbLine
 10
-60.4067512044
 20
-396.0149873779
 30
0.0
 11
-60.087046791
 21
-396.2286104248
 31
0.0
  0
LINE
  5
465
330
1F
100
AcDbEntity
  8
0
  6
Continuous
 62
     7
370
    15
100
AcDbLine
 10
-44.4961704501
 20
-406.6461016223
 30
0.0
 11
-44.1930808314
 21
-406.848608403
 31
0.0
  0
LINE
  5
466
330
1F
100
AcDbEntity
  8
0
  6
Continuous
 62
     7
370
    15
100
AcDbLine
 10
-43.9261116275
 20
-406.4490486667
 30
0.0
 11
-44.1930808314
 21
-406.848608403
 31
0.0
  0
LINE
  5
467
330
1F
100
AcDbEntity
  8
0
  6
Continuous
 62
     7
370
    15
100
AcDbLine
 10
-35.859531928
 20
-394.3765600011
 30
0.0
 11
-36.1376322993
 21
-394.7927494333
 31
0.0
  0
LINE
  5
468
330
1F
100
AcDbEntity
  8
0
  6
Continuous
 62
     7
370
    15
100
AcDbLine
 10
-36.1759282836
 20
-394.1651572273
 30
0.0
 11
-35.859531928
 21
-394.3765600011
 31
0.0
  0
LINE
  5
469
330
1F
100
AcDbEntity
  8
0
  6
Continuous
 62
     7
370
    15
100
AcDbLine
 10
-52.0731873998
 20
-383.5429389761
 30
0.0
 11
-51.7401762494
 21
-383.7654580162
 31
0.0
  0
LINE
  5
46A
330
1F
100
AcDbEntity
  8
0
  6
Continuous
 62
     7
370
    15
100
AcDbLine
 10
-52.0731873998
 20
-383.5429389761
 30
0.0
 11
-52.3667700776
 21
-383.982314615
 31
0.0
  0
LINE
  5
46B
330
1F
100
AcDbEntity
  8
0
  6
Continuous
 62
     7
370
    15
100
AcDbLine
 10
-60.1242847928
 20
-395.592256336
 30
0.0
 11
-60.4067512044
 21
-396.0149873779
 31
0.0
  0
LINE
  5
46C
330
1F
100
AcDbEntity
  8
0
  6
Continuous
 62
     7
370
    15
100
AcDbLine
 10
-81.9212861547
 20
-381.6394348428
 30
0.0
 11
-64.5641006717
 21
-393.2371427104
 31
0.0
  0
LINE
  5
46D
330
1F
100
AcDbEntity
  8
0
  6
Continuous
 62
     7
370
    15
100
AcDbLine
 10
-56.2305368671
 20
-380.7650943086
 30
0.0
 11
-64.5641006717
 21
-393.2371427104
 31
0.0
  0
LINE
  5
46E
330
1F
100
AcDbEntity
  8
0
  6
Continuous
 62
     7
370
    15
100
AcDbLine
 10
-73.58772235
 20
-369.1673938916
 30
0.0
 11
-56.2305368671
 21
-380.7650943086
 31
0.0
  0
LINE
  5
46F
330
1F
100
AcDbEntity
  8
0
  6
Continuous
 62
     7
370
    15
100
AcDbLine
 10
-24.2775596866
 20
-391.892521529
 30
0.0
 11
-42.0558072814
 21
-418.4995581195
 31
0.0
  0
LINE
  5
470
330
1F
100
AcDbEntity
  8
0
  6
Continuous
 62
     7
370
    15
100
AcDbLine
 10
-87.0141007194
 20
-388.4593833969
 30
0.0
 11
-42.0558072814
 21
-418.4995581195
 31
0.0
  0
LINE
  5
471
330
1F
100
AcDbEntity
  8
0
  6
Continuous
 62
     7
370
    15
100
AcDbLine
 10
-69.2358531245
 20
-361.8523542569
 30
0.0
 11
-24.2775596866
 21
-391.892521529
 31
0.0
  0
LINE
  5
472
330
1F
100
AcDbEntity
  8
0
  6
Continuous
 62
     7
370
    15
100
AcDbLine
 10
-420.0167723188
 20
-471.1366434381
 30
0.0
 11
-420.416332055
 21
-470.8696742342
 31
0.0
  0
LINE
  5
473
330
1F
100
AcDbEntity
  8
0
  6
Continuous
 62
     7
370
    15
100
AcDbLine
 10
-407.9442836532
 20
-479.2032231376
 30
0.0
 11
-408.3604730853
 21
-478.9251227663
 31
0.0
  0
LINE
  5
474
330
1F
100
AcDbEntity
  8
0
  6
Continuous
 62
     7
370
    15
100
AcDbLine
 10
-407.7328808793
 20
-478.886826782
 30
0.0
 11
-407.9442836532
 21
-479.2032231376
 31
0.0
  0
LINE
  5
475
330
1F
100
AcDbEntity
  8
0
  6
Continuous
 62
     7
370
    15
100
AcDbLine
 10
-397.1106626281
 20
-462.9895676658
 30
0.0
 11
-397.3331816682
 21
-463.3225788162
 31
0.0
  0
LINE
  5
476
330
1F
100
AcDbEntity
  8
0
  6
Continuous
 62
     7
370
    15
100
AcDbLine
 10
-397.1106626281
 20
-462.9895676658
 30
0.0
 11
-397.550038267
 21
-462.695984988
 31
0.0
  0
LINE
  5
477
330
1F
100
AcDbEntity
  8
0
  6
Continuous
 62
     7
370
    15
100
AcDbLine
 10
-409.159979988
 20
-454.9384702728
 30
0.0
 11
-409.5827110299
 21
-454.6560038612
 31
0.0
  0
LINE
  5
478
330
1F
100
AcDbEntity
  8
0
  6
Continuous
 62
     7
370
    15
100
AcDbLine
 10
-409.5827110299
 20
-454.6560038612
 30
0.0
 11
-409.7963340768
 21
-454.9757082746
 31
0.0
  0
LINE
  5
479
330
1F
100
AcDbEntity
  8
0
  6
Continuous
 62
     7
370
    15
100
AcDbLine
 10
-420.2138252744
 20
-470.5665846155
 30
0.0
 11
-420.416332055
 21
-470.8696742342
 31
0.0
  0
LINE
  5
47A
330
1F
100
AcDbEntity
  8
0
  6
Continuous
 62
     7
370
    15
100
AcDbLine
 10
-395.2071584949
 20
-433.1414689109
 30
0.0
 11
-406.8048663625
 21
-450.4986543939
 31
0.0
  0
LINE
  5
47B
330
1F
100
AcDbEntity
  8
0
  6
Continuous
 62
     7
370
    15
100
AcDbLine
 10
-394.3328179606
 20
-458.8322181985
 30
0.0
 11
-406.8048663625
 21
-450.4986543939
 31
0.0
  0
LINE
  5
47C
330
1F
100
AcDbEntity
  8
0
  6
Continuous
 62
     7
370
    15
100
AcDbLine
 10
-382.7351175436
 20
-441.4750327156
 30
0.0
 11
-394.3328179606
 21
-458.8322181985
 31
0.0
  0
LINE
  5
47D
330
1F
100
AcDbEntity
  8
0
  6
Continuous
 62
     7
370
    15
100
AcDbLine
 10
-375.4200779089
 20
-445.8269019411
 30
0.0
 11
-405.460245181
 21
-490.785195379
 31
0.0
  0
LINE
  5
47E
330
1F
100
AcDbEntity
  8
0
  6
Continuous
 62
     7
370
    15
100
AcDbLine
 10
-405.460245181
 20
-490.785195379
 30
0.0
 11
-432.0672817716
 21
-473.0069477842
 31
0.0
  0
LINE
  5
47F
330
1F
100
AcDbEntity
  8
0
  6
Continuous
 62
     7
370
    15
100
AcDbLine
 10
-402.0271070489
 20
-428.0486543462
 30
0.0
 11
-432.0672817716
 21
-473.0069477842
 31
0.0
  0
LINE
  5
480
330
1F
100
AcDbEntity
  8
0
  6
Continuous
 62
     7
370
    15
100
AcDbLine
 10
-218.5741990992
 20
-516.6837711618
 30
0.0
 11
-219.0455153772
 21
-516.777529268
 31
0.0
  0
LINE
  5
481
330
1F
100
AcDbEntity
  8
0
  6
Continuous
 62
     7
370
    15
100
AcDbLine
 10
-204.3337367662
 20
-513.8511796281
 30
0.0
 11
-204.8246666977
 21
-513.9488120363
 31
0.0
  0
LINE
  5
482
330
1F
100
AcDbEntity
  8
0
  6
Continuous
 62
     7
370
    15
100
AcDbLine
 10
-204.407970626
 20
-513.4779651449
 30
0.0
 11
-204.3337367662
 21
-513.8511796281
 31
0.0
  0
LINE
  5
483
330
1F
100
AcDbEntity
  8
0
  6
Continuous
 62
     7
370
    15
100
AcDbLine
 10
-208.1379957685
 20
-494.7258521602
 30
0.0
 11
-208.0598578044
 21
-495.1186765716
 31
0.0
  0
LINE
  5
484
330
1F
100
AcDbEntity
  8
0
  6
Continuous
 62
     7
370
    15
100
AcDbLine
 10
-208.1379957685
 20
-494.7258521602
 30
0.0
 11
-208.6562656054
 21
-494.8289383934
 31
0.0
  0
LINE
  5
485
330
1F
100
AcDbEntity
  8
0
  6
Continuous
 62
     7
370
    15
100
AcDbLine
 10
-222.3511219212
 20
-497.5530196712
 30
0.0
 11
-222.8497743794
 21
-497.6522167013
 31
0.0
  0
LINE
  5
486
330
1F
100
AcDbEntity
  8
0
  6
Continuous
 62
     7
370
    15
100
AcDbLine
 10
-222.8497743794
 20
-497.6522167013
 30
0.0
 11
-222.774761934
 21
-498.0293203876
 31
0.0
  0
LINE
  5
487
330
1F
100
AcDbEntity
  8
0
  6
Continuous
 62
     7
370
    15
100
AcDbLine
 10
-219.1166274437
 20
-516.4200206087
 30
0.0
 11
-219.0455153772
 21
-516.777529268
 31
0.0
  0
LINE
  5
488
330
1F
100
AcDbEntity
  8
0
  6
Continuous
 62
     7
370
    15
100
AcDbLine
 10
-227.8977997788
 20
-472.2740788744
 30
0.0
 11
-223.8252267429
 21
-492.7482892559
 31
0.0
  0
LINE
  5
489
330
1F
100
AcDbEntity
  8
0
  6
Continuous
 62
     7
370
    15
100
AcDbLine
 10
-209.1134481319
 20
-489.8219247148
 30
0.0
 11
-223.8252267429
 21
-492.7482892559
 31
0.0
  0
LINE
  5
48A
330
1F
100
AcDbEntity
  8
0
  6
Continuous
 62
     7
370
    15
100
AcDbLine
 10
-213.1860211679
 20
-469.3477292345
 30
0.0
 11
-209.1134481319
 21
-489.8219247148
 31
0.0
  0
LINE
  5
48B
330
1F
100
AcDbEntity
  8
0
  6
Continuous
 62
     7
370
    15
100
AcDbLine
 10
-204.9362726697
 20
-467.2524471567
 30
0.0
 11
-194.3875618466
 21
-520.2843685434
 31
0.0
  0
LINE
  5
48C
330
1F
100
AcDbEntity
  8
0
  6
Continuous
 62
     7
370
    15
100
AcDbLine
 10
-194.3875618466
 20
-520.2843685434
 30
0.0
 11
-225.7726930269
 21
-526.5272696302
 31
0.0
  0
LINE
  5
48D
330
1F
100
AcDbEntity
  8
0
  6
Continuous
 62
     7
370
    15
100
AcDbLine
 10
-236.3214001247
 20
-473.4953482435
 30
0.0
 11
-225.7726930269
 21
-526.5272696302
 31
0.0
  0
ARC
  5
48E
330
1F
100
AcDbEntity
  8
0
  6
Continuous
 62
     7
370
    15
100
AcDbCircle
 10
-264.3152393588
 20
-250.7475157068
 30
0.0
 40
249.7060692293565
100
AcDbArc
 50
59.9237630516
 51
97.5762369484
  0
ARC
  5
48F
330
1F
100
AcDbEntity
  8
0
  6
Continuous
 62
     7
370
    15
100
AcDbCircle
 10
-264.3152393588
 20
-250.7475157068
 30
0.0
 40
249.7060692293565
100
AcDbArc
 50
104.9237630516
 51
142.5762369484
  0
ARC
  5
490
330
1F
100
AcDbEntity
  8
0
  6
Continuous
 62
     7
370
    15
100
AcDbCircle
 10
-264.3152393588
 20
-250.7475157068
 30
0.0
 40
249.7060692293565
100
AcDbArc
 50
14.9237630516
 51
52.5762369484
  0
ARC
  5
491
330
1F
100
AcDbEntity
  8
0
  6
Continuous
 62
     7
370
    15
100
AcDbCircle
 10
-264.3152393588
 20
-250.7475157068
 30
0.0
 40
249.7060692293566
100
AcDbArc
 50
149.9237630516
 51
187.5762369484
  0
ARC
  5
492
330
1F
100
AcDbEntity
  8
0
  6
Continuous
 62
     7
370
    15
100
AcDbCircle
 10
-264.3152393588
 20
-250.7475157068
 30
0.0
 40
249.7060692293565
100
AcDbArc
 50
329.9237630516
 51
7.5762369484
  0
ARC
  5
493
330
1F
100
AcDbEntity
  8
0
  6
Continuous
 62
     7
370
    15
100
AcDbCircle
 10
-264.3152393588
 20
-250.7475157068
 30
0.0
 40
249.7060692293566
100
AcDbArc
 50
194.9237630516
 51
232.5762369484
  0
ARC
  5
494
330
1F
100
AcDbEntity
  8
0
  6
Continuous
 62
     7
370
    15
100
AcDbCircle
 10
-264.3152393588
 20
-250.7475157068
 30
0.0
 40
249.7060692293565
100
AcDbArc
 50
284.9237630516
 51
322.5762369484
  0
ARC
  5
495
330
1F
100
AcDbEntity
  8
0
  6
Continuous
 62
     7
370
    15
100
AcDbCircle
 10
-264.3152393588
 20
-250.7475157068
 30
0.0
 40
249.7060692293566
100
AcDbArc
 50
239.9237630516
 51
277.5762369484
  0
CIRCLE
  5
496
330
1F
100
AcDbEntity
  8
0
  6
Continuous
 62
     7
370
    15
100
AcDbCircle
 10
-264.3152393588
 20
-250.7475157068
 30
0.0
 40
200.0
  0
CIRCLE
  5
497
330
1F
100
AcDbEntity
  8
0
  6
Continuous
 62
     7
370
    15
100
AcDbCircle
 10
-264.3152393588
 20
-250.7475157068
 30
0.0
 40
298.5
  0
ARC
  5
498
330
1F
100
AcDbEntity
  8
0
  6
Continuous
 62
     7
370
    15
100
AcDbCircle
 10
-264.3152393588
 20
-508.2475157068
 30
0.0
 40
13.99999999999906
100
AcDbArc
 50
144.8675411216
 51
172.0967922665
  0
ARC
  5
499
330
1F
100
AcDbEntity
  8
0
  6
Continuous
 62
     7
370
    15
100
AcDbCircle
 10
-264.3152393588
 20
-508.2475157068
 30
0.0
 40
13.99999999999906
100
AcDbArc
 50
7.9032077335
 51
35.1324588784
  0
ARC
  5
49A
330
1F
100
AcDbEntity
  8
0
  6
Continuous
 62
     7
370
    15
100
AcDbCircle
 10
-264.3152393588
 20
-513.2475157068
 30
0.0
 40
15.49999999999934
100
AcDbArc
 50
153.4630928545
 51
205.6109481693
  0
ARC
  5
49B
330
1F
100
AcDbEntity
  8
0
  6
Continuous
 62
     7
370
    15
100
AcDbCircle
 10
-264.3152393588
 20
-520.7475157068
 30
0.0
 40
14.0000000000001
100
AcDbArc
 50
176.7241710402
 51
3.2758289598
  0
ARC
  5
49C
330
1F
100
AcDbEntity
  8
0
  6
Continuous
 62
     7
370
    15
100
AcDbCircle
 10
-264.3152393588
 20
-513.2475157068
 30
0.0
 40
15.49999999999921
100
AcDbArc
 50
334.3890518307
 51
26.5369071455
  0
ARC
  5
49D
330
1F
100
AcDbEntity
  8
0
  6
Continuous
 62
     7
370
    15
100
AcDbCircle
 10
-163.860838363
 20
-493.265892991
 30
0.0
 40
15.49999999999931
100
AcDbArc
 50
175.9630928545
 51
228.1109481693
  0
ARC
  5
49E
330
1F
100
AcDbEntity
  8
0
  6
Continuous
 62
     7
370
    15
100
AcDbCircle
 10
-160.9907126202
 20
-500.1949894848
 30
0.0
 40
13.99999999999999
100
AcDbArc
 50
199.2241710402
 51
25.7758289598
  0
ARC
  5
49F
330
1F
100
AcDbEntity
  8
0
  6
Continuous
 62
     7
370
    15
100
AcDbCircle
 10
-163.860838363
 20
-493.265892991
 30
0.0
 40
15.49999999999917
100
AcDbArc
 50
356.8890518307
 51
49.0369071455
  0
ARC
  5
4A0
330
1F
100
AcDbEntity
  8
0
  6
Continuous
 62
     7
370
    15
100
AcDbCircle
 10
-165.7742555248
 20
-488.6464953284
 30
0.0
 40
13.99999999999906
100
AcDbArc
 50
167.3675411216
 51
194.5967922665
  0
ARC
  5
4A1
330
1F
100
AcDbEntity
  8
0
  6
Continuous
 62
     7
370
    15
100
AcDbCircle
 10
-165.7742555248
 20
-488.6464953284
 30
0.0
 40
13.9999999999991
100
AcDbArc
 50
30.4032077335
 51
57.6324588784
  0
ARC
  5
4A2
330
1F
100
AcDbEntity
  8
0
  6
Continuous
 62
     7
370
    15
100
AcDbCircle
 10
-78.6997092973
 20
-436.3630457682
 30
0.0
 40
15.50000000000339
100
AcDbArc
 50
198.4630928545
 51
250.6109481693
  0
ARC
  5
4A3
330
1F
100
AcDbEntity
  8
0
  6
Continuous
 62
     7
370
    15
100
AcDbCircle
 10
-73.3964084384
 20
-441.6663466271
 30
0.0
 40
13.99999999999958
100
AcDbArc
 50
221.7241710402
 51
48.2758289598
  0
ARC
  5
4A4
330
1F
100
AcDbEntity
  8
0
  6
Continuous
 62
     7
370
    15
100
AcDbCircle
 10
-78.6997092973
 20
-436.3630457682
 30
0.0
 40
15.50000000000318
100
AcDbArc
 50
19.3890518307
 51
71.5369071455
  0
ARC
  5
4A5
330
1F
100
AcDbEntity
  8
0
  6
Continuous
 62
     7
370
    15
100
AcDbCircle
 10
-82.2352432033
 20
-432.8275118623
 30
0.0
 40
14.0000000000025
100
AcDbArc
 50
189.8675411216
 51
217.0967922665
  0
ARC
  5
4A6
330
1F
100
AcDbEntity
  8
0
  6
Continuous
 62
     7
370
    15
100
AcDbCircle
 10
-82.2352432033
 20
-432.8275118623
 30
0.0
 40
13.99999999999905
100
AcDbArc
 50
52.9032077335
 51
80.1324588784
  0
ARC
  5
4A7
330
1F
100
AcDbEntity
  8
0
  6
Continuous
 62
     7
370
    15
100
AcDbCircle
 10
-21.7968620746
 20
-351.2019167026
 30
0.0
 40
15.49999999999997
100
AcDbArc
 50
220.9630928545
 51
273.1109481693
  0
ARC
  5
4A8
330
1F
100
AcDbEntity
  8
0
  6
Continuous
 62
     7
370
    15
100
AcDbCircle
 10
-14.8677655808
 20
-354.0720424454
 30
0.0
 40
14.00000000000001
100
AcDbArc
 50
244.2241710402
 51
70.7758289598
  0
ARC
  5
4A9
330
1F
100
AcDbEntity
  8
0
  6
Continuous
 62
     7
370
    15
100
AcDbCircle
 10
-21.7968620746
 20
-351.2019167026
 30
0.0
 40
15.50000000000002
100
AcDbArc
 50
41.8890518307
 51
94.0369071455
  0
ARC
  5
4AA
330
1F
100
AcDbEntity
  8
0
  6
Continuous
 62
     7
370
    15
100
AcDbCircle
 10
-26.4162597371
 20
-349.2884995408
 30
0.0
 40
13.99999999999903
100
AcDbArc
 50
212.3675411215
 51
239.5967922665
  0
ARC
  5
4AB
330
1F
100
AcDbEntity
  8
0
  6
Continuous
 62
     7
370
    15
100
AcDbCircle
 10
-26.4162597371
 20
-349.2884995408
 30
0.0
 40
13.99999999999905
100
AcDbArc
 50
75.4032077335
 51
102.6324588785
  0
ARC
  5
4AC
330
1F
100
AcDbEntity
  8
0
  6
Continuous
 62
     7
370
    15
100
AcDbCircle
 10
-1.8152393588
 20
-250.7475157068
 30
0.0
 40
15.49999999999997
100
AcDbArc
 50
243.4630928545
 51
295.6109481693
  0
ARC
  5
4AD
330
1F
100
AcDbEntity
  8
0
  6
Continuous
 62
     7
370
    15
100
AcDbCircle
 10
5.6847606412
 20
-250.7475157068
 30
0.0
 40
14.00000000000003
100
AcDbArc
 50
266.7241710402
 51
93.2758289598
  0
ARC
  5
4AE
330
1F
100
AcDbEntity
  8
0
  6
Continuous
 62
     7
370
    15
100
AcDbCircle
 10
-1.8152393588
 20
-250.7475157068
 30
0.0
 40
15.50000000000002
100
AcDbArc
 50
64.3890518307
 51
116.5369071455
  0
ARC
  5
4AF
330
1F
100
AcDbEntity
  8
0
  6
Continuous
 62
     7
370
    15
100
AcDbCircle
 10
-6.8152393588
 20
-250.7475157068
 30
0.0
 40
13.99999999999903
100
AcDbArc
 50
234.8675411215
 51
262.0967922665
  0
ARC
  5
4B0
330
1F
100
AcDbEntity
  8
0
  6
Continuous
 62
     7
370
    15
100
AcDbCircle
 10
-6.8152393588
 20
-250.7475157068
 30
0.0
 40
13.99999999999907
100
AcDbArc
 50
97.9032077335
 51
125.1324588785
  0
ARC
  5
4B1
330
1F
100
AcDbEntity
  8
0
  6
Continuous
 62
     7
370
    15
100
AcDbCircle
 10
-21.7968620746
 20
-150.293114711
 30
0.0
 40
15.50000000000002
100
AcDbArc
 50
265.9630928545
 51
318.1109481693
  0
ARC
  5
4B2
330
1F
100
AcDbEntity
  8
0
  6
Continuous
 62
     7
370
    15
100
AcDbCircle
 10
-14.8677655808
 20
-147.4229889682
 30
0.0
 40
14.00000000000001
100
AcDbArc
 50
289.2241710402
 51
115.7758289598
  0
ARC
  5
4B3
330
1F
100
AcDbEntity
  8
0
  6
Continuous
 62
     7
370
    15
100
AcDbCircle
 10
-21.7968620746
 20
-150.293114711
 30
0.0
 40
15.5
100
AcDbArc
 50
86.8890518307
 51
139.0369071455
  0
ARC
  5
4B4
330
1F
100
AcDbEntity
  8
0
  6
Continuous
 62
     7
370
    15
100
AcDbCircle
 10
-26.4162597371
 20
-152.2065318728
 30
0.0
 40
13.99999999999906
100
AcDbArc
 50
257.3675411215
 51
284.5967922665
  0
ARC
  5
4B5
330
1F
100
AcDbEntity
  8
0
  6
Continuous
 62
     7
370
    15
100
AcDbCircle
 10
-26.4162597371
 20
-152.2065318728
 30
0.0
 40
13.99999999999907
100
AcDbArc
 50
120.4032077335
 51
147.6324588785
  0
ARC
  5
4B6
330
1F
100
AcDbEntity
  8
0
  6
Continuous
 62
     7
370
    15
100
AcDbCircle
 10
-78.6997092973
 20
-65.1319856453
 30
0.0
 40
15.5
100
AcDbArc
 50
288.4630928545
 51
340.6109481693
  0
ARC
  5
4B7
330
1F
100
AcDbEntity
  8
0
  6
Continuous
 62
     7
370
    15
100
AcDbCircle
 10
-73.3964084384
 20
-59.8286847864
 30
0.0
 40
14.0
100
AcDbArc
 50
311.7241710402
 51
138.2758289598
  0
ARC
  5
4B8
330
1F
100
AcDbEntity
  8
0
  6
Continuous
 62
     7
370
    15
100
AcDbCircle
 10
-78.6997092973
 20
-65.1319856453
 30
0.0
 40
15.5
100
AcDbArc
 50
109.3890518307
 51
161.5369071455
  0
ARC
  5
4B9
330
1F
100
AcDbEntity
  8
0
  6
Continuous
 62
     7
370
    15
100
AcDbCircle
 10
-82.2352432033
 20
-68.6675195513
 30
0.0
 40
13.99999999999904
100
AcDbArc
 50
279.8675411215
 51
307.0967922665
  0
ARC
  5
4BA
330
1F
100
AcDbEntity
  8
0
  6
Continuous
 62
     7
370
    15
100
AcDbCircle
 10
-82.2352432033
 20
-68.6675195513
 30
0.0
 40
13.99999999999903
100
AcDbArc
 50
142.9032077335
 51
170.1324588785
  0
ARC
  5
4BB
330
1F
100
AcDbEntity
  8
0
  6
Continuous
 62
     7
370
    15
100
AcDbCircle
 10
-163.860838363
 20
-8.2291384226
 30
0.0
 40
15.5
100
AcDbArc
 50
310.9630928545
 51
3.1109481693
  0
ARC
  5
4BC
330
1F
100
AcDbEntity
  8
0
  6
Continuous
 62
     7
370
    15
100
AcDbCircle
 10
-160.9907126202
 20
-1.3000419287
 30
0.0
 40
14.0
100
AcDbArc
 50
334.2241710402
 51
160.7758289598
  0
ARC
  5
4BD
330
1F
100
AcDbEntity
  8
0
  6
Continuous
 62
     7
370
    15
100
AcDbCircle
 10
-163.860838363
 20
-8.2291384226
 30
0.0
 40
15.49999999999998
100
AcDbArc
 50
131.8890518307
 51
184.0369071455
  0
ARC
  5
4BE
330
1F
100
AcDbEntity
  8
0
  6
Continuous
 62
     7
370
    15
100
AcDbCircle
 10
-165.7742555248
 20
-12.8485360851
 30
0.0
 40
13.99999999999903
100
AcDbArc
 50
302.3675411215
 51
329.5967922665
  0
ARC
  5
4BF
330
1F
100
AcDbEntity
  8
0
  6
Continuous
 62
     7
370
    15
100
AcDbCircle
 10
-165.7742555248
 20
-12.8485360851
 30
0.0
 40
13.99999999999906
100
AcDbArc
 50
165.4032077335
 51
192.6324588785
  0
ARC
  5
4C0
330
1F
100
AcDbEntity
  8
0
  6
Continuous
 62
     7
370
    15
100
AcDbCircle
 10
-264.3152393588
 20
11.7524842932
 30
0.0
 40
15.49999999999995
100
AcDbArc
 50
333.4630928545
 51
25.6109481693
  0
ARC
  5
4C1
330
1F
100
AcDbEntity
  8
0
  6
Continuous
 62
     7
370
    15
100
AcDbCircle
 10
-264.3152393588
 20
19.2524842932
 30
0.0
 40
14.00000000000006
100
AcDbArc
 50
356.7241710402
 51
183.2758289598
  0
ARC
  5
4C2
330
1F
100
AcDbEntity
  8
0
  6
Continuous
 62
     7
370
    15
100
AcDbCircle
 10
-264.3152393588
 20
11.7524842932
 30
0.0
 40
15.50000000000005
100
AcDbArc
 50
154.3890518307
 51
206.5369071455
  0
ARC
  5
4C3
330
1F
100
AcDbEntity
  8
0
  6
Continuous
 62
     7
370
    15
100
AcDbCircle
 10
-264.3152393588
 20
6.7524842932
 30
0.0
 40
13.99999999999899
100
AcDbArc
 50
324.8675411215
 51
352.0967922665
  0
ARC
  5
4C4
330
1F
100
AcDbEntity
  8
0
  6
Continuous
 62
     7
370
    15
100
AcDbCircle
 10
-264.3152393588
 20
6.7524842932
 30
0.0
 40
13.99999999999907
100
AcDbArc
 50
187.9032077335
 51
215.1324588784
  0
ARC
  5
4C5
330
1F
100
AcDbEntity
  8
0
  6
Continuous
 62
     7
370
    15
100
AcDbCircle
 10
-364.7696403546
 20
-8.2291384226
 30
0.0
 40
15.50000000000001
100
AcDbArc
 50
355.9630928545
 51
48.1109481693
  0
ARC
  5
4C6
330
1F
100
AcDbEntity
  8
0
  6
Continuous
 62
     7
370
    15
100
AcDbCircle
 10
-367.6397660974
 20
-1.3000419287
 30
0.0
 40
14.00000000000001
100
AcDbArc
 50
19.2241710402
 51
205.7758289598
  0
ARC
  5
4C7
330
1F
100
AcDbEntity
  8
0
  6
Continuous
 62
     7
370
    15
100
AcDbCircle
 10
-364.7696403546
 20
-8.2291384226
 30
0.0
 40
15.49999999999998
100
AcDbArc
 50
176.8890518307
 51
229.0369071455
  0
ARC
  5
4C8
330
1F
100
AcDbEntity
  8
0
  6
Continuous
 62
     7
370
    15
100
AcDbCircle
 10
-362.8562231928
 20
-12.8485360851
 30
0.0
 40
13.99999999999904
100
AcDbArc
 50
347.3675411216
 51
14.5967922665
  0
ARC
  5
4C9
330
1F
100
AcDbEntity
  8
0
  6
Continuous
 62
     7
370
    15
100
AcDbCircle
 10
-362.8562231928
 20
-12.8485360851
 30
0.0
 40
13.99999999999904
100
AcDbArc
 50
210.4032077335
 51
237.6324588784
  0
ARC
  5
4CA
330
1F
100
AcDbEntity
  8
0
  6
Continuous
 62
     7
370
    15
100
AcDbCircle
 10
-449.9307694203
 20
-65.1319856453
 30
0.0
 40
15.50000000000004
100
AcDbArc
 50
18.4630928545
 51
70.6109481693
  0
ARC
  5
4CB
330
1F
100
AcDbEntity
  8
0
  6
Continuous
 62
     7
370
    15
100
AcDbCircle
 10
-455.2340702792
 20
-59.8286847864
 30
0.0
 40
14.00000000000001
100
AcDbArc
 50
41.7241710402
 51
228.2758289598
  0
ARC
  5
4CC
330
1F
100
AcDbEntity
  8
0
  6
Continuous
 62
     7
370
    15
100
AcDbCircle
 10
-449.9307694203
 20
-65.1319856453
 30
0.0
 40
15.49999999999998
100
AcDbArc
 50
199.3890518307
 51
251.5369071455
  0
ARC
  5
4CD
330
1F
100
AcDbEntity
  8
0
  6
Continuous
 62
     7
370
    15
100
AcDbCircle
 10
-446.3952355143
 20
-68.6675195512
 30
0.0
 40
13.99999999999906
100
AcDbArc
 50
9.8675411216
 51
37.0967922665
  0
ARC
  5
4CE
330
1F
100
AcDbEntity
  8
0
  6
Continuous
 62
     7
370
    15
100
AcDbCircle
 10
-446.3952355143
 20
-68.6675195512
 30
0.0
 40
13.99999999999905
100
AcDbArc
 50
232.9032077335
 51
260.1324588784
  0
ARC
  5
4CF
330
1F
100
AcDbEntity
  8
0
  6
Continuous
 62
     7
370
    15
100
AcDbCircle
 10
-506.833616643
 20
-150.2931147109
 30
0.0
 40
15.50000000000002
100
AcDbArc
 50
40.9630928545
 51
93.1109481693
  0
ARC
  5
4D0
330
1F
100
AcDbEntity
  8
0
  6
Continuous
 62
     7
370
    15
100
AcDbCircle
 10
-513.7627131368
 20
-147.4229889682
 30
0.0
 40
14.00000000000004
100
AcDbArc
 50
64.2241710402
 51
250.7758289598
  0
ARC
  5
4D1
330
1F
100
AcDbEntity
  8
0
  6
Continuous
 62
     7
370
    15
100
AcDbCircle
 10
-506.833616643
 20
-150.2931147109
 30
0.0
 40
15.50000000000001
100
AcDbArc
 50
221.8890518307
 51
274.0369071455
  0
ARC
  5
4D2
330
1F
100
AcDbEntity
  8
0
  6
Continuous
 62
     7
370
    15
100
AcDbCircle
 10
-502.2142189805
 20
-152.2065318728
 30
0.0
 40
13.99999999999911
100
AcDbArc
 50
32.3675411216
 51
59.5967922665
  0
ARC
  5
4D3
330
1F
100
AcDbEntity
  8
0
  6
Continuous
 62
     7
370
    15
100
AcDbCircle
 10
-502.2142189805
 20
-152.2065318728
 30
0.0
 40
13.99999999999904
100
AcDbArc
 50
255.4032077335
 51
282.6324588784
  0
ARC
  5
4D4
330
1F
100
AcDbEntity
  8
0
  6
Continuous
 62
     7
370
    15
100
AcDbCircle
 10
-526.8152393588
 20
-250.7475157068
 30
0.0
 40
15.5
100
AcDbArc
 50
63.4630928545
 51
115.6109481693
  0
ARC
  5
4D5
330
1F
100
AcDbEntity
  8
0
  6
Continuous
 62
     7
370
    15
100
AcDbCircle
 10
-534.3152393588
 20
-250.7475157068
 30
0.0
 40
14.00000000000003
100
AcDbArc
 50
86.7241710402
 51
273.2758289598
  0
ARC
  5
4D6
330
1F
100
AcDbEntity
  8
0
  6
Continuous
 62
     7
370
    15
100
AcDbCircle
 10
-526.8152393588
 20
-250.7475157068
 30
0.0
 40
15.50000000000005
100
AcDbArc
 50
244.3890518307
 51
296.5369071455
  0
ARC
  5
4D7
330
1F
100
AcDbEntity
  8
0
  6
Continuous
 62
     7
370
    15
100
AcDbCircle
 10
-521.8152393588
 20
-250.7475157068
 30
0.0
 40
13.99999999999909
100
AcDbArc
 50
54.8675411216
 51
82.0967922665
  0
ARC
  5
4D8
330
1F
100
AcDbEntity
  8
0
  6
Continuous
 62
     7
370
    15
100
AcDbCircle
 10
-521.8152393588
 20
-250.7475157068
 30
0.0
 40
13.99999999999901
100
AcDbArc
 50
277.9032077335
 51
305.1324588784
  0
ARC
  5
4D9
330
1F
100
AcDbEntity
  8
0
  6
Continuous
 62
     7
370
    15
100
AcDbCircle
 10
-506.833616643
 20
-351.2019167026
 30
0.0
 40
15.50000000000004
100
AcDbArc
 50
85.9630928545
 51
138.1109481693
  0
ARC
  5
4DA
330
1F
100
AcDbEntity
  8
0
  6
Continuous
 62
     7
370
    15
100
AcDbCircle
 10
-513.7627131369
 20
-354.0720424453
 30
0.0
 40
14.00000000000005
100
AcDbArc
 50
109.2241710402
 51
295.7758289598
  0
ARC
  5
4DB
330
1F
100
AcDbEntity
  8
0
  6
Continuous
 62
     7
370
    15
100
AcDbCircle
 10
-506.833616643
 20
-351.2019167026
 30
0.0
 40
15.49999999999996
100
AcDbArc
 50
266.8890518307
 51
319.0369071455
  0
ARC
  5
4DC
330
1F
100
AcDbEntity
  8
0
  6
Continuous
 62
     7
370
    15
100
AcDbCircle
 10
-502.2142189805
 20
-349.2884995408
 30
0.0
 40
13.99999999999905
100
AcDbArc
 50
77.3675411216
 51
104.5967922665
  0
ARC
  5
4DD
330
1F
100
AcDbEntity
  8
0
  6
Continuous
 62
     7
370
    15
100
AcDbCircle
 10
-502.2142189805
 20
-349.2884995408
 30
0.0
 40
13.99999999999906
100
AcDbArc
 50
300.4032077335
 51
327.6324588784
  0
ARC
  5
4DE
330
1F
100
AcDbEntity
  8
0
  6
Continuous
 62
     7
370
    15
100
AcDbCircle
 10
-449.9307694203
 20
-436.3630457682
 30
0.0
 40
15.50000000000257
100
AcDbArc
 50
108.4630928545
 51
160.6109481693
  0
ARC
  5
4DF
330
1F
100
AcDbEntity
  8
0
  6
Continuous
 62
     7
370
    15
100
AcDbCircle
 10
-455.2340702792
 20
-441.6663466271
 30
0.0
 40
14.00000000000302
100
AcDbArc
 50
131.7241710402
 51
318.2758289598
  0
ARC
  5
4E0
330
1F
100
AcDbEntity
  8
0
  6
Continuous
 62
     7
370
    15
100
AcDbCircle
 10
-449.9307694203
 20
-436.3630457682
 30
0.0
 40
15.50000000000566
100
AcDbArc
 50
289.3890518307
 51
341.5369071455
  0
ARC
  5
4E1
330
1F
100
AcDbEntity
  8
0
  6
Continuous
 62
     7
370
    15
100
AcDbCircle
 10
-446.3952355143
 20
-432.8275118623
 30
0.0
 40
13.99999999999896
100
AcDbArc
 50
99.8675411216
 51
127.0967922665
  0
ARC
  5
4E2
330
1F
100
AcDbEntity
  8
0
  6
Continuous
 62
     7
370
    15
100
AcDbCircle
 10
-446.3952355143
 20
-432.8275118623
 30
0.0
 40
13.99999999999915
100
AcDbArc
 50
322.9032077335
 51
350.1324588784
  0
ARC
  5
4E3
330
1F
100
AcDbEntity
  8
0
  6
Continuous
 62
     7
370
    15
100
AcDbCircle
 10
-364.7696403546
 20
-493.265892991
 30
0.0
 40
15.49999999999929
100
AcDbArc
 50
130.9630928545
 51
183.1109481693
  0
ARC
  5
4E4
330
1F
100
AcDbEntity
  8
0
  6
Continuous
 62
     7
370
    15
100
AcDbCircle
 10
-367.6397660974
 20
-500.1949894848
 30
0.0
 40
14.0
100
AcDbArc
 50
154.2241710402
 51
340.7758289598
  0
ARC
  5
4E5
330
1F
100
AcDbEntity
  8
0
  6
Continuous
 62
     7
370
    15
100
AcDbCircle
 10
-364.7696403546
 20
-493.265892991
 30
0.0
 40
15.49999999999922
100
AcDbArc
 50
311.8890518307
 51
4.0369071455
  0
ARC
  5
4E6
330
1F
100
AcDbEntity
  8
0
  6
Continuous
 62
     7
370
    15
100
AcDbCircle
 10
-362.8562231928
 20
-488.6464953284
 30
0.0
 40
13.99999999999904
100
AcDbArc
 50
122.3675411216
 51
149.5967922665
  0
ARC
  5
4E7
330
1F
100
AcDbEntity
  8
0
  6
Continuous
 62
     7
370
    15
100
AcDbCircle
 10
-362.8562231928
 20
-488.6464953284
 30
0.0
 40
13.99999999999913
100
AcDbArc
 50
345.4032077335
 51
12.6324588785
  0
INSERT
  5
4F3
330
1F
100
AcDbEntity
  8
0
  6
Continuous
 62
     7
370
     0
100
AcDbBlockReference
  2
SW_CENTERMARKSYMBOL_0
 10
-264.3152393588
 20
-250.7475157068
 30
0.0
  0
ENDSEC
  0
SECTION
  2
OBJECTS
  0
DICTIONARY
  5
C
330
0
100
AcDbDictionary
281
     1
  3
ACAD_GROUP
350
D
  3
ACAD_LAYOUT
350
1A
  3
ACAD_MLINESTYLE
350
17
  3
ACAD_PLOTSETTINGS
350
19
  3
ACAD_PLOTSTYLENAME
350
E
  0
DICTIONARY
  5
D
102
{ACAD_REACTORS
330
C
102
}
330
C
100
AcDbDictionary
281
     1
  0
DICTIONARY
  5
1A
102
{ACAD_REACTORS
330
C
102
}
330
C
100
AcDbDictionary
281
     1
  3
Layout1
350
1E
  3
Layout2
350
26
  3
Model
350
22
  0
DICTIONARY
  5
17
102
{ACAD_REACTORS
330
C
102
}
330
C
100
AcDbDictionary
281
     1
  3
Standard
350
18
  0
DICTIONARY
  5
19
102
{ACAD_REACTORS
330
C
102
}
330
C
100
AcDbDictionary
281
     1
  0
ACDBDICTIONARYWDFLT
  5
E
102
{ACAD_REACTORS
330
C
102
}
330
C
100
AcDbDictionary
281
     1
  3
Normal
350
F
100
AcDbDictionaryWithDefault
340
F
  0
LAYOUT
  5
1E
102
{ACAD_REACTORS
330
1A
102
}
330
1A
100
AcDbPlotSettings
  1

  2
none_device
  4

  6

 40
0.0
 41
0.0
 42
0.0
 43
0.0
 44
0.0
 45
0.0
 46
0.0
 47
0.0
 48
0.0
 49
0.0
140
0.0
141
0.0
142
1.0
143
1.0
 70
   688
 72
     0
 73
     0
 74
     5
  7

 75
    16
147
1.0
148
0.0
149
0.0
100
AcDbLayout
  1
Layout1
 70
     1
 71
     1
 10
0.0
 20
0.0
 11
420.0
 21
297.0
 12
0.0
 22
0.0
 32
0.0
 14
1.0000000000E+20
 24
1.0000000000E+20
 34
1.0000000000E+20
 15
-1.0000000000E+20
 25
-1.0000000000E+20
 35
-1.0000000000E+20
146
0.0
 13
0.0
 23
0.0
 33
0.0
 16
1.0
 26
0.0
 36
0.0
 17
0.0
 27
1.0
 37
0.0
 76
     0
330
1B
  0
LAYOUT
  5
26
102
{ACAD_REACTORS
330
1A
102
}
330
1A
100
AcDbPlotSettings
  1

  2
none_device
  4

  6

 40
0.0
 41
0.0
 42
0.0
 43
0.0
 44
0.0
 45
0.0
 46
0.0
 47
0.0
 48
0.0
 49
0.0
140
0.0
141
0.0
142
1.0
143
1.0
 70
   688
 72
     0
 73
     0
 74
     5
  7

 75
    16
147
1.0
148
0.0
149
0.0
100
AcDbLayout
  1
Layout2
 70
     1
 71
     2
 10
0.0
 20
0.0
 11
0.0
 21
0.0
 12
0.0
 22
0.0
 32
0.0
 14
0.0
 24
0.0
 34
0.0
 15
0.0
 25
0.0
 35
0.0
146
0.0
 13
0.0
 23
0.0
 33
0.0
 16
1.0
 26
0.0
 36
0.0
 17
0.0
 27
1.0
 37
0.0
 76
     0
330
23
  0
LAYOUT
  5
22
102
{ACAD_REACTORS
330
1A
102
}
330
1A
100
AcDbPlotSettings
  1

  2
none_device
  4

  6

 40
0.0
 41
0.0
 42
0.0
 43
0.0
 44
0.0
 45
0.0
 46
0.0
 47
0.0
 48
0.0
 49
0.0
140
0.0
141
0.0
142
1.0
143
1.0
 70
  1712
 72
     0
 73
     0
 74
     0
  7

 75
     0
147
1.0
148
0.0
149
0.0
100
AcDbLayout
  1
Model
 70
     1
 71
     0
 10
0.0
 20
0.0
 11
431.8
 21
279.4
 12
0.0
 22
0.0
 32
0.0
 14
0.0
 24
0.0
 34
0.0
 15
431.8
 25
279.4
 35
0.0
146
0.0
 13
0.0
 23
0.0
 33
0.0
 16
1.0
 26
0.0
 36
0.0
 17
0.0
 27
1.0
 37
0.0
 76
     0
330
1F
331
29
  0
MLINESTYLE
  5
18
102
{ACAD_REACTORS
330
17
102
}
330
17
100
AcDbMlineStyle
  2
Standard
 70
     0
  3

 62
   256
 51
90.0
 52
90.0
 71
     2
 49
0.5
 62
   256
  6
BYLAYER
 49
-0.5
 62
   256
  6
BYLAYER
  0
ACDBPLACEHOLDER
  5
F
102
{ACAD_REACTORS
330
E
102
}
330
E
  0
ENDSEC
  0
EOF
