  0
SECTION
  2
HEADER
  9
$ACADVER
  1
AC1015
  9
$ACADMAINTVER
 70
     6
  9
$DWGCODEPAGE
  3
ANSI_1252
  9
$INSBASE
 10
0.0
 20
0.0
 30
0.0
  9
$EXTMIN
 10
0.0
 20
0.0
 30
0.0
  9
$EXTMAX
 10
297.0
 20
210.0
 30
0.0
  9
$LIMMIN
 10
0.0
 20
0.0
  9
$LIMMAX
 10
297.0
 20
210.0
  9
$ORTHOMODE
 70
     0
  9
$REGENMODE
 70
     1
  9
$FILLMODE
 70
     1
  9
$QTEXTMODE
 70
     0
  9
$MIRRTEXT
 70
     1
  9
$LTSCALE
 40
1.0
  9
$ATTMODE
 70
     1
  9
$TEXTSIZE
 40
2.5
  9
$TRACEWID
 40
1.0
  9
$TEXTSTYLE
  7
Standard
  9
$CLAYER
  8
0
  9
$CELTYPE
  6
ByLayer
  9
$CECOLOR
 62
   256
  9
$CELTSCALE
 40
1.0
  9
$DISPSILH
 70
     0
  9
$DIMSCALE
 40
1.0
  9
$DIMASZ
 40
2.5
  9
$DIMEXO
 40
1.0
  9
$DIMDLI
 40
3.75
  9
$DIMRND
 40
0.0
  9
$DIMDLE
 40
0.0
  9
$DIMEXE
 40
1.0
  9
$DIMTP
 40
0.0
  9
$DIMTM
 40
0.0
  9
$DIMTXT
 40
2.5
  9
$DIMCEN
 40
2.5
  9
$DIMTSZ
 40
0.0
  9
$DIMTOL
 70
     0
  9
$DIMLIM
 70
     0
  9
$DIMTIH
 70
     1
  9
$DIMTOH
 70
     1
  9
$DIMSE1
 70
     0
  9
$DIMSE2
 70
     0
  9
$DIMTAD
 70
     1
  9
$DIMZIN
 70
     0
  9
$DIMBLK
  1

  9
$DIMASO
 70
     1
  9
$DIMSHO
 70
     1
  9
$DIMPOST
  1

  9
$DIMAPOST
  1

  9
$DIMALT
 70
     0
  9
$DIMALTD
 70
     3
  9
$DIMALTF
 40
0.0393700787
  9
$DIMLFAC
 40
1.0
  9
$DIMTOFL
 70
     1
  9
$DIMTVP
 40
0.0
  9
$DIMTIX
 70
     0
  9
$DIMSOXD
 70
     0
  9
$DIMSAH
 70
     0
  9
$DIMBLK1
  1

  9
$DIMBLK2
  1

  9
$DIMSTYLE
  2
ISO-25
  9
$DIMCLRD
 70
     0
  9
$DIMCLRE
 70
     0
  9
$DIMCLRT
 70
     0
  9
$DIMTFAC
 40
1.0
  9
$DIMGAP
 40
1.524
  9
$DIMJUST
 70
     0
  9
$DIMSD1
 70
     0
  9
$DIMSD2
 70
     0
  9
$DIMTOLJ
 70
     0
  9
$DIMTZIN
 70
     0
  9
$DIMALTZ
 70
     0
  9
$DIMALTTZ
 70
     0
  9
$DIMUPT
 70
     0
  9
$DIMDEC
 70
     2
  9
$DIMTDEC
 70
     2
  9
$DIMALTU
 70
     2
  9
$DIMALTTD
 70
     3
  9
$DIMTXSTY
  7
Standard
  9
$DIMAUNIT
 70
     0
  9
$DIMADEC
 70
     2
  9
$DIMALTRND
 40
0.0
  9
$DIMAZIN
 70
     0
  9
$DIMDSEP
 70
    44
  9
$DIMATFIT
 70
     3
  9
$DIMFRAC
 70
     0
  9
$DIMLDRBLK
  1

  9
$DIMLUNIT
 70
     2
  9
$DIMLWD
 70
    -2
  9
$DIMLWE
 70
    -2
  9
$DIMTMOVE
 70
     0
  9
$LUNITS
 70
     2
  9
$LUPREC
 70
     2
  9
$SKETCHINC
 40
1.0
  9
$FILLETRAD
 40
10.0
  9
$AUNITS
 70
     0
  9
$AUPREC
 70
     2
  9
$MENU
  1
.
  9
$ELEVATION
 40
0.0
  9
$PELEVATION
 40
0.0
  9
$THICKNESS
 40
0.0
  9
$LIMCHECK
 70
     0
  9
$CHAMFERA
 40
10.0
  9
$CHAMFERB
 40
10.0
  9
$CHAMFERC
 40
20.0
  9
$CHAMFERD
 40
0.0
  9
$SKPOLY
 70
     0
  9
$TDCREATE
 40
2457640.531358333
  9
$TDUCREATE
 40
2457640.448025
  9
$TDUPDATE
 40
2457640.531358692
  9
$TDUUPDATE
 40
2457640.448025359
  9
$TDINDWG
 40
0.0000000116
  9
$TDUSRTIMER
 40
0.0000000116
  9
$USRTIMER
 70
     1
  9
$ANGBASE
 50
0.0
  9
$ANGDIR
 70
     0
  9
$PDMODE
 70
     0
  9
$PDSIZE
 40
-1.0
  9
$PLINEWID
 40
0.0
  9
$SPLFRAME
 70
     0
  9
$SPLINETYPE
 70
     6
  9
$SPLINESEGS
 70
     8
  9
$HANDSEED
  5
162
  9
$SURFTAB1
 70
     6
  9
$SURFTAB2
 70
     6
  9
$SURFTYPE
 70
     6
  9
$SURFU
 70
     6
  9
$SURFV
 70
     6
  9
$UCSBASE
  2

  9
$UCSNAME
  2

  9
$UCSORG
 10
0.0
 20
0.0
 30
0.0
  9
$UCSXDIR
 10
1.0
 20
0.0
 30
0.0
  9
$UCSYDIR
 10
0.0
 20
1.0
 30
0.0
  9
$UCSORTHOREF
  2

  9
$UCSORTHOVIEW
 70
     0
  9
$UCSORGTOP
 10
0.0
 20
0.0
 30
0.0
  9
$UCSORGBOTTOM
 10
0.0
 20
0.0
 30
0.0
  9
$UCSORGLEFT
 10
0.0
 20
0.0
 30
0.0
  9
$UCSORGRIGHT
 10
0.0
 20
0.0
 30
0.0
  9
$UCSORGFRONT
 10
0.0
 20
0.0
 30
0.0
  9
$UCSORGBACK
 10
0.0
 20
0.0
 30
0.0
  9
$PUCSBASE
  2

  9
$PUCSNAME
  2

  9
$PUCSORG
 10
0.0
 20
0.0
 30
0.0
  9
$PUCSXDIR
 10
1.0
 20
0.0
 30
0.0
  9
$PUCSYDIR
 10
0.0
 20
1.0
 30
0.0
  9
$PUCSORTHOREF
  2

  9
$PUCSORTHOVIEW
 70
     0
  9
$PUCSORGTOP
 10
0.0
 20
0.0
 30
0.0
  9
$PUCSORGBOTTOM
 10
0.0
 20
0.0
 30
0.0
  9
$PUCSORGLEFT
 10
0.0
 20
0.0
 30
0.0
  9
$PUCSORGRIGHT
 10
0.0
 20
0.0
 30
0.0
  9
$PUCSORGFRONT
 10
0.0
 20
0.0
 30
0.0
  9
$PUCSORGBACK
 10
0.0
 20
0.0
 30
0.0
  9
$USERI1
 70
     0
  9
$USERI2
 70
     0
  9
$USERI3
 70
     0
  9
$USERI4
 70
     0
  9
$USERI5
 70
     0
  9
$USERR1
 40
0.0
  9
$USERR2
 40
0.0
  9
$USERR3
 40
0.0
  9
$USERR4
 40
0.0
  9
$USERR5
 40
0.0
  9
$WORLDVIEW
 70
     1
  9
$SHADEDGE
 70
     3
  9
$SHADEDIF
 70
    70
  9
$TILEMODE
 70
     1
  9
$MAXACTVP
 70
    64
  9
$PINSBASE
 10
0.0
 20
0.0
 30
0.0
  9
$PLIMCHECK
 70
     0
  9
$PEXTMIN
 10
1.0000000000E+20
 20
1.0000000000E+20
 30
1.0000000000E+20
  9
$PEXTMAX
 10
-1.0000000000E+20
 20
-1.0000000000E+20
 30
-1.0000000000E+20
  9
$PLIMMIN
 10
0.0
 20
0.0
  9
$PLIMMAX
 10
420.0
 20
297.0
  9
$UNITMODE
 70
     0
  9
$VISRETAIN
 70
     1
  9
$PLINEGEN
 70
     0
  9
$PSLTSCALE
 70
     1
  9
$TREEDEPTH
 70
  3020
  9
$CMLSTYLE
  2
Standard
  9
$CMLJUST
 70
     0
  9
$CMLSCALE
 40
20.0
  9
$PROXYGRAPHICS
 70
     1
  9
$MEASUREMENT
 70
     1
  9
$CELWEIGHT
370
    -1
  9
$ENDCAPS
280
     0
  9
$JOINSTYLE
280
     0
  9
$LWDISPLAY
290
     1
  9
$INSUNITS
 70
     4
  9
$HYPERLINKBASE
  1

  9
$STYLESHEET
  1

  9
$XEDIT
290
     1
  9
$CEPSNTYPE
380
     0
  9
$PSTYLEMODE
290
     1
  9
$FINGERPRINTGUID
  2
{7C607EDC-D0A1-4214-A3D9-D53E15A8378E}
  9
$VERSIONGUID
  2
{FAEB1C32-E019-11D5-929B-00C0DF256EC4}
  9
$EXTNAMES
290
     1
  9
$PSVPSCALE
 40
0.0
  9
$OLESTARTUP
290
     0
  0
ENDSEC
  0
SECTION
  2
CLASSES
  0
CLASS
  1
ACDBDICTIONARYWDFLT
  2
AcDbDictionaryWithDefault
  3
ObjectDBX Classes
 90
        0
280
     0
281
     0
  0
CLASS
  1
VISUALSTYLE
  2
AcDbVisualStyle
  3
ObjectDBX Classes
 90
     4095
280
     0
281
     0
  0
CLASS
  1
MATERIAL
  2
AcDbMaterial
  3
ObjectDBX Classes
 90
     1153
280
     0
281
     0
  0
CLASS
  1
ACDBPLACEHOLDER
  2
AcDbPlaceHolder
  3
ObjectDBX Classes
 90
        0
280
     0
281
     0
  0
CLASS
  1
LAYOUT
  2
AcDbLayout
  3
ObjectDBX Classes
 90
        0
280
     0
281
     0
  0
ENDSEC
  0
SECTION
  2
TABLES
  0
TABLE
  2
VPORT
  5
8
330
0
100
AcDbSymbolTable
 70
     1
  0
VPORT
  5
29
330
8
100
AcDbSymbolTableRecord
100
AcDbViewportTableRecord
  2
*Active
 70
     0
 10
0.0
 20
0.0
 11
1.0
 21
1.0
 12
148.5
 22
105.0
 13
0.0
 23
0.0
 14
10.0
 24
10.0
 15
10.0
 25
10.0
 16
0.0
 26
0.0
 36
1.0
 17
0.0
 27
0.0
 37
0.0
 40
210.0
 41
1.4142857143
 42
50.0
 43
0.0
 44
0.0
 50
0.0
 51
0.0
 71
     0
 72
  2000
 73
     1
 74
     3
 75
     0
 76
     0
 77
     0
 78
     0
281
     0
 65
     1
110
0.0
120
0.0
130
0.0
111
1.0
121
0.0
131
0.0
112
0.0
122
1.0
132
0.0
 79
     0
146
0.0
  0
ENDTAB
  0
TABLE
  2
LTYPE
  5
5
330
0
100
AcDbSymbolTable
 70
     6
  0
LTYPE
  5
14
330
5
100
AcDbSymbolTableRecord
100
AcDbLinetypeTableRecord
  2
ByBlock
 70
     0
  3

 72
    65
 73
     0
 40
0.0
  0
LTYPE
  5
15
330
5
100
AcDbSymbolTableRecord
100
AcDbLinetypeTableRecord
  2
ByLayer
 70
     0
  3

 72
    65
 73
     0
 40
0.0
  0
LTYPE
  5
16
330
5
100
AcDbSymbolTableRecord
100
AcDbLinetypeTableRecord
  2
Continuous
 70
     0
  3
Solid line
 72
    65
 73
     0
 40
0.0
  0
LTYPE
  5
3F
330
5
100
AcDbSymbolTableRecord
100
AcDbLinetypeTableRecord
  2
HIDDEN
 70
     0
  3
Hidden __ __ __ __ __ __ __ __ __ __ __ __ __ __
 72
    65
 73
     2
 40
1.905
 49
1.27
 74
     0
 49
-0.635
 74
     0
  0
LTYPE
  5
40
330
5
100
AcDbSymbolTableRecord
100
AcDbLinetypeTableRecord
  2
PHANTOM
 70
     0
  3
Phantom ______  __  __  ______  __  __  ______
 72
    65
 73
     6
 40
12.7
 49
6.35
 74
     0
 49
-1.27
 74
     0
 49
1.27
 74
     0
 49
-1.27
 74
     0
 49
1.27
 74
     0
 49
-1.27
 74
     0
  0
LTYPE
  5
41
330
5
100
AcDbSymbolTableRecord
100
AcDbLinetypeTableRecord
  2
CENTER
 70
     0
  3
Center ____ _ ____ _ ____ _ ____ _ ____ _ ____
 72
    65
 73
     4
 40
10.16
 49
6.35
 74
     0
 49
-1.27
 74
     0
 49
1.27
 74
     0
 49
-1.27
 74
     0
  0
LTYPE
  5
42
330
5
100
AcDbSymbolTableRecord
100
AcDbLinetypeTableRecord
  2
CENTERX2
 70
     0
  3
Center (2x) ________  __  ________  __  _____
 72
    65
 73
     4
 40
20.32
 49
12.7
 74
     0
 49
-2.54
 74
     0
 49
2.54
 74
     0
 49
-2.54
 74
     0
  0
LTYPE
  5
43
330
5
100
AcDbSymbolTableRecord
100
AcDbLinetypeTableRecord
  2
DOT2
 70
     0
  3
Dot (.5x) ........................................
 72
    65
 73
     2
 40
0.635
 49
0.0
 74
     0
 49
-0.635
 74
     0
  0
ENDTAB
  0
TABLE
  2
LAYER
  5
2
330
0
100
AcDbSymbolTable
 70
     3
  0
LAYER
  5
10
330
2
100
AcDbSymbolTableRecord
100
AcDbLayerTableRecord
  2
0
 70
     0
 62
     7
  6
Continuous
370
    -3
390
F
  0
LAYER
  5
44
330
2
100
AcDbSymbolTableRecord
100
AcDbLayerTableRecord
  2
FORMAT
 70
     0
 62
     7
  6
Continuous
370
    -3
390
F
  0
LAYER
  5
45
330
2
100
AcDbSymbolTableRecord
100
AcDbLayerTableRecord
  2
PROTOTYPE
 70
     0
 62
     7
  6
Continuous
370
    -3
390
F
  0
ENDTAB
  0
TABLE
  2
STYLE
  5
3
330
0
100
AcDbSymbolTable
 70
     1
  0
STYLE
  5
11
330
3
100
AcDbSymbolTableRecord
100
AcDbTextStyleTableRecord
  2
Standard
 70
     0
 40
0.0
 41
1.0
 50
0.0
 71
     0
 42
2.5
  3
txt
  4

  0
ENDTAB
  0
TABLE
  2
VIEW
  5
6
330
0
100
AcDbSymbolTable
 70
     0
  0
ENDTAB
  0
TABLE
  2
UCS
  5
7
330
0
100
AcDbSymbolTable
 70
     0
  0
ENDTAB
  0
TABLE
  2
APPID
  5
9
330
0
100
AcDbSymbolTable
 70
     1
  0
APPID
  5
12
330
9
100
AcDbSymbolTableRecord
100
AcDbRegAppTableRecord
  2
ACAD
 70
     0
  0
ENDTAB
  0
TABLE
  2
DIMSTYLE
  5
A
330
0
100
AcDbSymbolTable
 70
     1
100
AcDbDimStyleTable
  0
DIMSTYLE
105
27
330
A
100
AcDbSymbolTableRecord
100
AcDbDimStyleTableRecord
  2
ISO-25
 70
     0
 41
2.5
 42
0.625
 43
3.75
 44
1.25
 73
     0
 74
     0
 77
     1
 78
     8
140
2.5
141
2.5
143
0.0393700787
147
0.625
171
     3
172
     1
178
     0
271
     2
272
     2
274
     3
278
    44
283
     0
284
     8
340
11
  0
ENDTAB
  0
TABLE
  2
BLOCK_RECORD
  5
1
330
0
100
AcDbSymbolTable
 70
     2
  0
BLOCK_RECORD
  5
1F
330
1
100
AcDbSymbolTableRecord
100
AcDbBlockTableRecord
  2
*Model_Space
340
22
  0
BLOCK_RECORD
  5
1B
330
1
100
AcDbSymbolTableRecord
100
AcDbBlockTableRecord
  2
*Paper_Space
340
1E
  0
BLOCK_RECORD
  5
23
330
1
100
AcDbSymbolTableRecord
100
AcDbBlockTableRecord
  2
*Paper_Space0
340
26
  0
BLOCK_RECORD
  5
9E
330
1
100
AcDbSymbolTableRecord
100
AcDbBlockTableRecord
  2
SW_CENTERMARKSYMBOL_0
340
0
102
{BLKREFS
331
A9
102
}
  0
ENDTAB
  0
ENDSEC
  0
SECTION
  2
BLOCKS
  0
BLOCK
  5
20
330
1F
100
AcDbEntity
  8
0
100
AcDbBlockBegin
  2
*Model_Space
 70
     0
 10
0.0
 20
0.0
 30
0.0
  3
*Model_Space
  1

  0
ENDBLK
  5
21
330
1F
100
AcDbEntity
  8
0
100
AcDbBlockEnd
  0
BLOCK
  5
1C
330
1B
100
AcDbEntity
 67
     1
  8
0
100
AcDbBlockBegin
  2
*Paper_Space
 70
     0
 10
0.0
 20
0.0
 30
0.0
  3
*Paper_Space
  1

  0
ENDBLK
  5
1D
330
1B
100
AcDbEntity
 67
     1
  8
0
100
AcDbBlockEnd
  0
BLOCK
  5
24
330
23
100
AcDbEntity
  8
0
100
AcDbBlockBegin
  2
*Paper_Space0
 70
     0
 10
0.0
 20
0.0
 30
0.0
  3
*Paper_Space0
  1

  0
ENDBLK
  5
25
330
23
100
AcDbEntity
  8
0
100
AcDbBlockEnd
  0
BLOCK
  5
9F
330
9E
100
AcDbEntity
  8
0
100
AcDbBlockBegin
  2
SW_CENTERMARKSYMBOL_0
 70
     0
 10
0.0
 20
0.0
 30
0.0
  3
SW_CENTERMARKSYMBOL_0
  1

  0
LINE
  5
A1
330
9E
100
AcDbEntity
  8
FORMAT
 62
     0
100
AcDbLine
 10
0.0
 20
0.0
 30
0.0
 11
0.0
 21
2.5
 31
0.0
  0
LINE
  5
A2
330
9E
100
AcDbEntity
  8
FORMAT
 62
     0
100
AcDbLine
 10
0.0
 20
0.0
 30
0.0
 11
-2.5
 21
0.0
 31
0.0
  0
LINE
  5
A3
330
9E
100
AcDbEntity
  8
FORMAT
 62
     0
100
AcDbLine
 10
0.0
 20
0.0
 30
0.0
 11
0.0
 21
-2.5
 31
0.0
  0
LINE
  5
A4
330
9E
100
AcDbEntity
  8
FORMAT
 62
     0
100
AcDbLine
 10
0.0
 20
0.0
 30
0.0
 11
2.5
 21
0.0
 31
0.0
  0
LINE
  5
A5
330
9E
100
AcDbEntity
  8
FORMAT
 62
     0
100
AcDbLine
 10
0.0
 20
5.0
 30
0.0
 11
0.0
 21
62.5608160675
 31
0.0
  0
LINE
  5
A6
330
9E
100
AcDbEntity
  8
FORMAT
 62
     0
100
AcDbLine
 10
-5.0
 20
0.0
 30
0.0
 11
-56.4957202925
 21
0.0
 31
0.0
  0
LINE
  5
A7
330
9E
100
AcDbEntity
  8
FORMAT
 62
     0
100
AcDbLine
 10
0.0
 20
-5.0
 30
0.0
 11
0.0
 21
-63.785393928
 31
0.0
  0
LINE
  5
A8
330
9E
100
AcDbEntity
  8
FORMAT
 62
     0
100
AcDbLine
 10
5.0
 20
0.0
 30
0.0
 11
56.4946535513
 21
0.0
 31
0.0
  0
ENDBLK
  5
A0
330
9E
100
AcDbEntity
  8
0
100
AcDbBlockEnd
  0
ENDSEC
  0
SECTION
  2
ENTITIES
  0
SPLINE
  5
46
330
1F
100
AcDbEntity
  8
0
  6
Continuous
 62
     7
370
    15
100
AcDbSpline
210
0.0
220
0.0
230
1.0
 70
     8
 71
     3
 72
    10
 73
     6
 74
     0
 42
0.00000001
 43
0.00000001
 12
1.0
 22
0.0
 32
0.0
 13
1.0
 23
0.0
 33
0.0
 40
0.0
 40
0.0
 40
0.0
 40
0.0
 40
0.5
 40
0.5
 40
1.0
 40
1.0
 40
1.0
 40
1.0
 10
123.1691851650577
 20
167.8248656848865
 30
0.0
 10
123.0610819547337
 20
165.9225749083248
 30
0.0
 10
123.0055961406504
 20
164.0172910426087
 30
0.0
 10
123.005574061166
 20
160.2050286281046
 30
0.0
 10
123.0610819548973
 20
158.2985939614639
 30
0.0
 10
123.1691851650576
 20
156.3963031848928
 30
0.0
  0
SPLINE
  5
47
330
1F
100
AcDbEntity
  8
0
  6
Continuous
 62
     7
370
    15
100
AcDbSpline
210
0.0
220
0.0
230
1.0
 70
     8
 71
     3
 72
    10
 73
     6
 74
     0
 42
0.00000001
 43
0.00000001
 12
1.0
 22
0.0
 32
0.0
 13
1.0
 23
0.0
 33
0.0
 40
0.0
 40
0.0
 40
0.0
 40
0.0
 40
0.5
 40
0.5
 40
1.0
 40
1.0
 40
1.0
 40
1.0
 10
105.800040749068
 20
126.3120625723965
 30
0.0
 10
104.0985570060185
 20
125.4545373104864
 30
0.0
 10
102.4207898698457
 20
124.5499475021742
 30
0.0
 10
99.1192627332496
 20
122.6438354163162
 30
0.0
 10
97.49599582806812
 20
121.6425468370366
 30
0.0
 10
95.90261529533322
 20
120.5977813223984
 30
0.0
  0
SPLINE
  5
48
330
1F
100
AcDbEntity
  8
0
  6
Continuous
 62
     7
370
    15
100
AcDbSpline
210
0.0
220
0.0
230
1.0
 70
     8
 71
     3
 72
    10
 73
     6
 74
     0
 42
0.00000001
 43
0.00000001
 12
1.0
 22
0.0
 32
0.0
 13
1.0
 23
0.0
 33
0.0
 40
0.0
 40
0.0
 40
0.0
 40
0.0
 40
0.5
 40
0.5
 40
1.0
 40
1.0
 40
1.0
 40
1.0
 10
61.16432646335368
 20
120.5977813223981
 30
0.0
 10
59.57094593072677
 20
121.6425468372011
 30
0.0
 10
57.94866460853863
 20
122.6432408944545
 30
0.0
 10
54.64715955142692
 20
124.5493912231014
 30
0.0
 10
52.96838475274448
 20
125.4545373106373
 30
0.0
 10
51.26690100961873
 20
126.3120625723962
 30
0.0
  0
SPLINE
  5
49
330
1F
100
AcDbEntity
  8
0
  6
Continuous
 62
     7
370
    15
100
AcDbSpline
210
0.0
220
0.0
230
1.0
 70
     8
 71
     3
 72
    10
 73
     6
 74
     0
 42
0.00000001
 43
0.00000001
 12
1.0
 22
0.0
 32
0.0
 13
1.0
 23
0.0
 33
0.0
 40
0.0
 40
0.0
 40
0.0
 40
0.0
 40
0.5
 40
0.5
 40
1.0
 40
1.0
 40
1.0
 40
1.0
 10
33.89775659362887
 20
156.3963031848916
 30
0.0
 10
34.00585980425281
 20
158.2985939614368
 30
0.0
 10
34.06134561803621
 20
160.2038778271702
 30
0.0
 10
34.06136769752066
 20
164.0161402416752
 30
0.0
 10
34.00585980415652
 20
165.9225749083372
 30
0.0
 10
33.89775659362883
 20
167.8248656848879
 30
0.0
  0
SPLINE
  5
4A
330
1F
100
AcDbEntity
  8
0
  6
Continuous
 62
     7
370
    15
100
AcDbSpline
210
0.0
220
0.0
230
1.0
 70
     8
 71
     3
 72
    10
 73
     6
 74
     0
 42
0.00000001
 43
0.00000001
 12
1.0
 22
0.0
 32
0.0
 13
1.0
 23
0.0
 33
0.0
 40
0.0
 40
0.0
 40
0.0
 40
0.0
 40
0.5
 40
0.5
 40
1.0
 40
1.0
 40
1.0
 40
1.0
 10
51.2669010096185
 20
197.9091062973833
 30
0.0
 10
52.96838475274926
 20
198.7666315591323
 30
0.0
 10
54.64615188884088
 20
199.6712213676056
 30
0.0
 10
57.94767902543704
 20
201.5773334534637
 30
0.0
 10
59.57094593066649
 20
202.5786220326701
 30
0.0
 10
61.16432646335343
 20
203.6233875473815
 30
0.0
  0
SPLINE
  5
4B
330
1F
100
AcDbEntity
  8
0
  6
Continuous
 62
     7
370
    15
100
AcDbSpline
210
0.0
220
0.0
230
1.0
 70
     8
 71
     3
 72
    10
 73
     6
 74
     0
 42
0.00000001
 43
0.00000001
 12
1.0
 22
0.0
 32
0.0
 13
1.0
 23
0.0
 33
0.0
 40
0.0
 40
0.0
 40
0.0
 40
0.0
 40
0.5
 40
0.5
 40
1.0
 40
1.0
 40
1.0
 40
1.0
 10
95.90261529533407
 20
203.623387547381
 30
0.0
 10
97.49599582802644
 20
202.5786220326787
 30
0.0
 10
99.11827715014846
 20
201.5779279753251
 30
0.0
 10
102.4197822072594
 20
199.6717776466786
 30
0.0
 10
104.0985570060713
 20
198.7666315594005
 30
0.0
 10
105.8000407490668
 20
197.9091062973841
 30
0.0
  0
ARC
  5
4C
330
1F
100
AcDbEntity
  8
0
  6
Continuous
 62
     7
370
    15
100
AcDbCircle
 10
113.5334708793
 20
101.48880617
 30
0.0
 40
17.99999999999994
100
AcDbArc
 50
97.1893073297
 51
142.8106926703
  0
ARC
  5
4D
330
1F
100
AcDbEntity
  8
0
  6
Continuous
 62
     7
370
    15
100
AcDbCircle
 10
148.5334708793
 20
162.1105844349
 30
0.0
 40
17.99999999999948
100
AcDbArc
 50
157.1893073297
 51
202.8106926703
  0
ARC
  5
4E
330
1F
100
AcDbEntity
  8
0
  6
Continuous
 62
     7
370
    15
100
AcDbCircle
 10
113.5334708793
 20
222.7323626998
 30
0.0
 40
18.0
100
AcDbArc
 50
217.1893073297
 51
262.8106926703
  0
ARC
  5
4F
330
1F
100
AcDbEntity
  8
0
  6
Continuous
 62
     7
370
    15
100
AcDbCircle
 10
43.5334708793
 20
101.48880617
 30
0.0
 40
17.99999999999997
100
AcDbArc
 50
37.1893073297
 51
82.8106926703
  0
ARC
  5
50
330
1F
100
AcDbEntity
  8
0
  6
Continuous
 62
     7
370
    15
100
AcDbCircle
 10
43.5334708793
 20
222.7323626998
 30
0.0
 40
17.99999999999999
100
AcDbArc
 50
277.1893073297
 51
322.8106926703
  0
ARC
  5
51
330
1F
100
AcDbEntity
  8
0
  6
Continuous
 62
     7
370
    15
100
AcDbCircle
 10
8.5334708793
 20
162.1105844349
 30
0.0
 40
17.99999999999997
100
AcDbArc
 50
337.1893073297
 51
22.8106926703
  0
ARC
  5
52
330
1F
100
AcDbEntity
  8
0
  6
Continuous
 62
     7
370
    15
100
AcDbCircle
 10
108.0351682829
 20
145.0777714974
 30
0.0
 40
25.93437412502013
100
AcDbArc
 50
277.1893073297
 51
22.8106926703
  0
ARC
  5
53
330
1F
100
AcDbEntity
  8
0
  6
Continuous
 62
     7
370
    15
100
AcDbCircle
 10
49.0317734758
 20
145.0777714974
 30
0.0
 40
25.93437412502009
100
AcDbArc
 50
157.1893073297
 51
262.8106926703
  0
ARC
  5
54
330
1F
100
AcDbEntity
  8
0
  6
Continuous
 62
     7
370
    15
100
AcDbCircle
 10
78.5334708793
 20
128.0449585599
 30
0.0
 40
25.93437412502006
100
AcDbArc
 50
217.1893073297
 51
322.8106926703
  0
ARC
  5
55
330
1F
100
AcDbEntity
  8
0
  6
Continuous
 62
     7
370
    15
100
AcDbCircle
 10
108.0351682829
 20
179.1433973724
 30
0.0
 40
25.93437412502054
100
AcDbArc
 50
337.1893073297
 51
82.8106926703
  0
ARC
  5
56
330
1F
100
AcDbEntity
  8
0
  6
Continuous
 62
     7
370
    15
100
AcDbCircle
 10
78.5334708793
 20
196.1762103099
 30
0.0
 40
25.93437412502054
100
AcDbArc
 50
37.1893073297
 51
142.8106926703
  0
ARC
  5
57
330
1F
100
AcDbEntity
  8
0
  6
Continuous
 62
     7
370
    15
100
AcDbCircle
 10
49.0317734758
 20
179.1433973724
 30
0.0
 40
25.93437412502007
100
AcDbArc
 50
97.1893073297
 51
202.8106926703
  0
SPLINE
  5
58
330
1F
100
AcDbEntity
  8
0
  6
Continuous
 62
     7
370
    15
100
AcDbSpline
210
0.0
220
0.0
230
1.0
 70
     8
 71
     3
 72
    42
 73
    38
 74
     0
 42
0.00000001
 43
0.00000001
 12
1.0
 22
0.0
 32
0.0
 13
1.0
 23
0.0
 33
0.0
 40
0.0
 40
0.0
 40
0.0
 40
0.0
 40
0.0625
 40
0.0625
 40
0.1249999999999999
 40
0.1249999999999999
 40
0.1562500000000001
 40
0.1562500000000001
 40
0.1875000000000003
 40
0.1875000000000003
 40
0.2500000000000007
 40
0.2500000000000007
 40
0.3125000000000011
 40
0.3125000000000011
 40
0.3750000000000015
 40
0.3750000000000015
 40
0.4375000000000018
 40
0.4375000000000018
 40
0.500000000000002
 40
0.500000000000002
 40
0.6250000000000024
 40
0.6250000000000024
 40
0.6875000000000024
 40
0.6875000000000024
 40
0.7500000000000023
 40
0.7500000000000023
 40
0.7812500000000021
 40
0.7812500000000021
 40
0.8125000000000019
 40
0.8125000000000019
 40
0.8437500000000017
 40
0.8437500000000017
 40
0.8750000000000014
 40
0.8750000000000014
 40
0.9375000000000007
 40
0.9375000000000007
 40
1.0
 40
1.0
 40
1.0
 40
1.0
 10
101.2097906001204
 20
186.7689405017709
 30
0.0
 10
100.8945349154494
 20
187.0588559640994
 30
0.0
 10
100.5553009009853
 20
187.309241233704
 30
0.0
 10
99.8316351852384
 20
187.7354898510067
 30
0.0
 10
99.44391266513514
 20
187.9113290833463
 30
0.0
 10
98.85754534028347
 20
188.1076180116106
 30
0.0
 10
98.66022045741416
 20
188.162503640663
 30
0.0
 10
98.26194966132435
 20
188.2518038199283
 30
0.0
 10
98.05999592059017
 20
188.2863187077131
 30
0.0
 10
97.45634207538922
 20
188.3582994500968
 30
0.0
 10
97.05993673081862
 20
188.3646686651352
 30
0.0
 10
96.27817763132391
 20
188.3020185301743
 30
0.0
 10
95.8919240402751
 20
188.2318786816402
 30
0.0
 10
95.15747931308695
 20
188.0254279168207
 30
0.0
 10
94.8055197776684
 20
187.889042903744
 30
0.0
 10
94.13121312589969
 20
187.5524057328726
 30
0.0
 10
93.8148604521028
 20
187.3548395798194
 30
0.0
 10
93.22850196984744
 20
186.909946304155
 30
0.0
 10
92.95708302574461
 20
186.6618269761082
 30
0.0
 10
92.21040472630342
 20
185.8402643093215
 30
0.0
 10
91.82449050368342
 20
185.2188195555021
 30
0.0
 10
91.41896588742279
 20
184.1729191165027
 30
0.0
 10
91.31654307156468
 20
183.8121926861773
 30
0.0
 10
91.18014088728013
 20
183.0743896484398
 30
0.0
 10
91.14558733020142
 20
182.6960682954756
 30
0.0
 10
91.15000454988551
 20
182.1126089176165
 30
0.0
 10
91.16107956623354
 20
181.9152477791201
 30
0.0
 10
91.20260598515704
 20
181.5238195967124
 30
0.0
 10
91.23302289481492
 20
181.3286586437536
 30
0.0
 10
91.31374991499253
 20
180.939427120604
 30
0.0
 10
91.3640550411469
 20
180.7453563600035
 30
0.0
 10
91.48582333934584
 20
180.3583187602354
 30
0.0
 10
91.55788402235825
 20
180.1641359579334
 30
0.0
 10
91.80278769999508
 20
179.5966841188633
 30
0.0
 10
92.0041631612662
 20
179.2359989813137
 30
0.0
 10
92.48709836101337
 20
178.5514535008882
 30
0.0
 10
92.77122512270877
 20
178.2264249067258
 30
0.0
 10
93.08692980461794
 20
177.9360965375149
 30
0.0
  0
ARC
  5
59
330
1F
100
AcDbEntity
  8
0
  6
Continuous
 62
     7
370
    15
100
AcDbCircle
 10
78.5334708793
 20
162.1105844349
 30
0.0
 40
21.50000000000002
100
AcDbArc
 50
354.6199773287
 51
47.3977351585
  0
SPLINE
  5
5A
330
1F
100
AcDbEntity
  8
0
  6
Continuous
 62
     7
370
    15
100
AcDbSpline
210
0.0
220
0.0
230
1.0
 70
     8
 71
     3
 72
    42
 73
    38
 74
     0
 42
0.00000001
 43
0.00000001
 12
1.0
 22
0.0
 32
0.0
 13
1.0
 23
0.0
 33
0.0
 40
0.0
 40
0.0
 40
0.0
 40
0.0
 40
0.0624999999999997
 40
0.0624999999999997
 40
0.1249999999999995
 40
0.1249999999999995
 40
0.1562499999999994
 40
0.1562499999999994
 40
0.1874999999999993
 40
0.1874999999999993
 40
0.2499999999999993
 40
0.2499999999999993
 40
0.3124999999999992
 40
0.3124999999999992
 40
0.3749999999999992
 40
0.3749999999999992
 40
0.4374999999999993
 40
0.4374999999999993
 40
0.4999999999999993
 40
0.4999999999999993
 40
0.6249999999999989
 40
0.6249999999999989
 40
0.6874999999999988
 40
0.6874999999999988
 40
0.7499999999999986
 40
0.7499999999999986
 40
0.7812499999999988
 40
0.7812499999999988
 40
0.812499999999999
 40
0.812499999999999
 40
0.8749999999999994
 40
0.8749999999999994
 40
0.9374999999999998
 40
0.9374999999999998
 40
0.9687499999999999
 40
0.9687499999999999
 40
1.0
 40
1.0
 40
1.0
 40
1.0
 10
99.93875729156404
 20
160.0947189605112
 30
0.0
 10
99.89857140349604
 20
159.6680087188021
 30
0.0
 10
99.9044653458659
 20
159.2465289197317
 30
0.0
 10
100.002655209164
 20
158.4133305240373
 30
0.0
 10
100.0968718911368
 20
157.9996219019029
 30
0.0
 10
100.2938041153961
 20
157.4169086361069
 30
0.0
 10
100.3688378277352
 20
157.2276196373275
 30
0.0
 10
100.5370926633807
 20
156.8585781603323
 30
0.0
 10
100.6308898451812
 20
156.6779167365918
 30
0.0
 10
100.9344662084494
 20
156.158459136912
 30
0.0
 10
101.1657901193269
 20
155.8414553793241
 30
0.0
 10
101.6812045991094
 20
155.2603308595339
 30
0.0
 10
101.9658234244901
 20
154.9969965097037
 30
0.0
 10
102.5653839109593
 20
154.5381059249007
 30
0.0
 10
102.8826591156694
 20
154.3397352052379
 30
0.0
 10
103.5514020094367
 20
154.0034893166346
 30
0.0
 10
103.8962178292323
 20
153.8691476129482
 30
0.0
 10
104.6004262515512
 20
153.6658729936174
 30
0.0
 10
104.9606502307732
 20
153.5965448432362
 30
0.0
 10
106.066268797091
 20
153.4885794237511
 30
0.0
 10
106.798504980381
 20
153.5502961667786
 30
0.0
 10
107.8873386501354
 20
153.8540094388125
 30
0.0
 10
108.2418969204405
 20
153.9898651060986
 30
0.0
 10
108.9212384073385
 20
154.3273186540731
 30
0.0
 10
109.2480600177139
 20
154.5293824954979
 30
0.0
 10
109.7166463803787
 20
154.8882472776715
 30
0.0
 10
109.8693698012276
 20
155.0175878316543
 30
0.0
 10
110.1594063044292
 20
155.2892999114139
 30
0.0
 10
110.2977333274847
 20
155.4323807640776
 30
0.0
 10
110.6922928077071
 20
155.8836440332195
 30
0.0
 10
110.9283782241867
 20
156.2135508841598
 30
0.0
 10
111.3392293185345
 20
156.9393517565087
 30
0.0
 10
111.5066476726527
 20
157.3233352903492
 30
0.0
 10
111.6960691855149
 20
157.9221401788284
 30
0.0
 10
111.7491143740654
 20
158.1260448542699
 30
0.0
 10
111.8340295617818
 20
158.5428782450661
 30
0.0
 10
111.8657720708723
 20
158.7559229741522
 30
0.0
 10
111.8858938937348
 20
158.9695847422533
 30
0.0
  0
ARC
  5
5B
330
1F
100
AcDbEntity
  8
0
  6
Continuous
 62
     7
370
    15
100
AcDbCircle
 10
78.5334708793
 20
162.1105844349
 30
0.0
 40
33.50000000000002
100
AcDbArc
 50
354.6199773287
 51
47.3977351585
  0
SPLINE
  5
5C
330
1F
100
AcDbEntity
  8
0
  6
Continuous
 62
     7
370
    15
100
AcDbSpline
210
0.0
220
0.0
230
1.0
 70
     8
 71
     3
 72
    42
 73
    38
 74
     0
 42
0.00000001
 43
0.00000001
 12
1.0
 22
0.0
 32
0.0
 13
1.0
 23
0.0
 33
0.0
 40
0.0
 40
0.0
 40
0.0
 40
0.0
 40
0.0625000000000002
 40
0.0625000000000002
 40
0.1250000000000005
 40
0.1250000000000005
 40
0.1562500000000005
 40
0.1562500000000005
 40
0.1875000000000005
 40
0.1875000000000005
 40
0.2500000000000004
 40
0.2500000000000004
 40
0.3125000000000003
 40
0.3125000000000003
 40
0.3750000000000002
 40
0.3750000000000002
 40
0.4375000000000001
 40
0.4375000000000001
 40
0.5
 40
0.5
 40
0.6249999999999999
 40
0.6249999999999999
 40
0.6874999999999997
 40
0.6874999999999997
 40
0.7499999999999993
 40
0.7499999999999993
 40
0.7812499999999992
 40
0.7812499999999992
 40
0.8124999999999991
 40
0.8124999999999991
 40
0.8749999999999993
 40
0.8749999999999993
 40
0.9374999999999997
 40
0.9374999999999997
 40
0.9687499999999999
 40
0.9687499999999999
 40
1.0
 40
1.0
 40
1.0
 40
1.0
 10
84.96203692547705
 20
141.5941632413558
 30
0.0
 10
85.37107319823205
 20
141.7223296827573
 30
0.0
 10
85.78458920593424
 20
141.8043270573306
 30
0.0
 10
86.6200661078132
 20
141.8817619721692
 30
0.0
 10
87.04436969202317
 20
141.8757344673798
 30
0.0
 10
87.65537608481104
 20
141.8044121727938
 30
0.0
 10
87.85615909314782
 20
141.770421779442
 30
0.0
 10
88.25218335358116
 20
141.6826623256887
 30
0.0
 10
88.4484336598727
 20
141.6285188219607
 30
0.0
 10
89.01975585564881
 20
141.4396984188386
 30
0.0
 10
89.37800020231592
 20
141.2794059992276
 30
0.0
 10
90.05374351605671
 20
140.8961869508594
 30
0.0
 10
90.37057452007333
 20
140.6725854063867
 30
0.0
 10
90.94424838651969
 20
140.1816052481532
 30
0.0
 10
91.20432985733854
 20
139.9125292425804
 30
0.0
 10
91.67243006529877
 20
139.3283269614218
 30
0.0
 10
91.87559441857624
 20
139.0189925334816
 30
0.0
 10
92.22098447511311
 20
138.3724246628766
 30
0.0
 10
92.3637629852676
 20
138.0344686710086
 30
0.0
 10
92.69943858712185
 20
136.9753622159643
 30
0.0
 10
92.79141021559353
 20
136.2462547486982
 30
0.0
 10
92.7208159781267
 20
135.1178813643582
 30
0.0
 10
92.66167425305454
 20
134.7427957239198
 30
0.0
 10
92.4728694113874
 20
134.0080267309205
 30
0.0
 10
92.34317534598286
 20
133.6462701215872
 30
0.0
 10
92.08955422683945
 20
133.1131992585799
 30
0.0
 10
91.99478862317514
 20
132.9368983456922
 30
0.0
 10
91.78930408552286
 20
132.5966626841246
 30
0.0
 10
91.67810022867744
 20
132.4315862603872
 30
0.0
 10
91.31869043628338
 20
131.9517507805757
 30
0.0
 10
91.04503370483378
 20
131.6521783882542
 30
0.0
 10
90.42037127239193
 20
131.0992940051161
 30
0.0
 10
90.07957988232758
 20
130.8557125099431
 30
0.0
 10
89.53315143679444
 20
130.5459087982254
 30
0.0
 10
89.34469584699085
 20
130.4516218770161
 30
0.0
 10
88.95454347938076
 20
130.2818885831733
 30
0.0
 10
88.75268974945787
 20
130.2066246565705
 30
0.0
 10
88.55007378843551
 20
130.1431374589181
 30
0.0
  0
ARC
  5
5D
330
1F
100
AcDbEntity
  8
0
  6
Continuous
 62
     7
370
    15
100
AcDbCircle
 10
78.5334708793
 20
162.1105844349
 30
0.0
 40
21.50000000000001
100
AcDbArc
 50
234.6199773287
 51
287.3977351585
  0
SPLINE
  5
5E
330
1F
100
AcDbEntity
  8
0
  6
Continuous
 62
     7
370
    15
100
AcDbSpline
210
0.0
220
0.0
230
1.0
 70
     8
 71
     3
 72
    42
 73
    38
 74
     0
 42
0.00000001
 43
0.00000001
 12
1.0
 22
0.0
 32
0.0
 13
1.0
 23
0.0
 33
0.0
 40
0.0
 40
0.0
 40
0.0
 40
0.0
 40
0.0625000000000006
 40
0.0625000000000006
 40
0.1250000000000011
 40
0.1250000000000011
 40
0.1562500000000013
 40
0.1562500000000013
 40
0.1875000000000015
 40
0.1875000000000015
 40
0.2500000000000013
 40
0.2500000000000013
 40
0.3125000000000012
 40
0.3125000000000012
 40
0.375000000000001
 40
0.375000000000001
 40
0.4375000000000009
 40
0.4375000000000009
 40
0.5000000000000007
 40
0.5000000000000007
 40
0.6250000000000006
 40
0.6250000000000006
 40
0.6875000000000004
 40
0.6875000000000004
 40
0.7500000000000003
 40
0.7500000000000003
 40
0.7812500000000001
 40
0.7812500000000001
 40
0.8124999999999999
 40
0.8124999999999999
 40
0.8749999999999997
 40
0.8749999999999997
 40
0.9374999999999994
 40
0.9374999999999994
 40
0.9687499999999997
 40
0.9687499999999997
 40
1.0
 40
1.0
 40
1.0
 40
1.0
 10
66.08503696180877
 20
144.5809953638141
 30
0.0
 10
65.73558859348704
 20
144.8291520606428
 30
0.0
 10
65.36762966481011
 20
145.0347876576731
 30
0.0
 10
64.59696339740198
 20
145.3663522054132
 30
0.0
 10
64.1915731204801
 20
145.491612422397
 30
0.0
 10
63.5884627578968
 20
145.6124207934696
 30
0.0
 10
63.38701680197213
 20
145.6420842346315
 30
0.0
 10
62.98328986153372
 20
145.680892090629
 30
0.0
 10
62.77993367976293
 20
145.6899920797531
 30
0.0
 10
62.17828266271975
 20
145.6868161140509
 30
0.0
 10
61.78808745844473
 20
145.6449857372501
 30
0.0
 10
61.02711116638108
 20
145.4891860049312
 30
0.0
 10
60.65674789986549
 20
145.3743662090414
 30
0.0
 10
59.95955692867521
 20
145.0845771446885
 30
0.0
 10
59.62912506701598
 20
144.9089941593238
 30
0.0
 10
59.0035554174064
 20
144.4979684356882
 30
0.0
 10
58.71480501767742
 20
144.2665207506268
 30
0.0
 10
58.18665973975962
 20
143.7582958855124
 30
0.0
 10
57.94650757756604
 20
143.4809967756234
 30
0.0
 10
57.30019651419013
 20
142.5774846838623
 30
0.0
 10
56.98752752409774
 20
141.9124933699836
 30
0.0
 10
56.70613344564898
 20
140.8176776832851
 30
0.0
 10
56.64650893398625
 20
140.4426948151754
 30
0.0
 10
56.59908123408717
 20
139.6856414199764
 30
0.0
 10
56.61066263553974
 20
139.3015735168925
 30
0.0
 10
56.68715538873198
 20
138.7163325501142
 30
0.0
 10
56.72280578215008
 20
138.5194002336514
 30
0.0
 10
56.81309679057618
 20
138.1323658213412
 30
0.0
 10
56.86784477410668
 20
137.9410308654135
 30
0.0
 10
57.06137009114185
 20
137.3737009212616
 30
0.0
 10
57.22903492245441
 20
137.0042912313671
 30
0.0
 10
57.65217185313749
 20
136.2855818502443
 30
0.0
 10
57.90100092954892
 20
135.9486030046675
 30
0.0
 10
58.32487015609546
 20
135.4851564640013
 30
0.0
 10
58.47493419265395
 20
135.3372654616965
 30
0.0
 10
58.79346516518
 20
135.0553095336401
 30
0.0
 10
58.96209585682213
 20
134.9212972574001
 30
0.0
 10
59.13707384504538
 20
134.797038672981
 30
0.0
  0
ARC
  5
5F
330
1F
100
AcDbEntity
  8
0
  6
Continuous
 62
     7
370
    15
100
AcDbCircle
 10
78.5334708793
 20
162.1105844349
 30
0.0
 40
33.50000000000001
100
AcDbArc
 50
234.6199773287
 51
287.3977351585
  0
SPLINE
  5
60
330
1F
100
AcDbEntity
  8
0
  6
Continuous
 62
     7
370
    15
100
AcDbSpline
210
0.0
220
0.0
230
1.0
 70
     8
 71
     3
 72
    42
 73
    38
 74
     0
 42
0.00000001
 43
0.00000001
 12
1.0
 22
0.0
 32
0.0
 13
1.0
 23
0.0
 33
0.0
 40
0.0
 40
0.0
 40
0.0
 40
0.0
 40
0.0625000000000002
 40
0.0625000000000002
 40
0.1250000000000004
 40
0.1250000000000004
 40
0.1562500000000004
 40
0.1562500000000004
 40
0.1875000000000003
 40
0.1875000000000003
 40
0.2500000000000001
 40
0.2500000000000001
 40
0.3125
 40
0.3125
 40
0.3750000000000002
 40
0.3750000000000002
 40
0.4375000000000004
 40
0.4375000000000004
 40
0.5000000000000006
 40
0.5000000000000006
 40
0.6250000000000014
 40
0.6250000000000014
 40
0.6875000000000016
 40
0.6875000000000016
 40
0.7500000000000016
 40
0.7500000000000016
 40
0.7812500000000014
 40
0.7812500000000014
 40
0.8125000000000013
 40
0.8125000000000013
 40
0.8437500000000012
 40
0.8437500000000012
 40
0.8750000000000011
 40
0.8750000000000011
 40
0.9375000000000006
 40
0.9375000000000006
 40
1.0
 40
1.0
 40
1.0
 40
1.0
 10
45.84054824947347
 20
169.4196753439808
 30
0.0
 10
45.74710171247032
 20
169.001697179217
 30
0.0
 10
45.69987885621305
 20
168.5827189384955
 30
0.0
 10
45.692569731929
 20
167.7428823549708
 30
0.0
 10
45.73414979433507
 20
167.3191849455424
 30
0.0
 10
45.85734245290936
 20
166.7132311477226
 30
0.0
 10
45.90847259210938
 20
166.5149000086061
 30
0.0
 10
46.03027174376384
 20
166.1253376239785
 30
0.0
 10
46.10135766205938
 20
165.9331836239267
 30
0.0
 10
46.34084791128147
 20
165.3744127717672
 30
0.0
 10
46.53353489762146
 20
165.0279310195424
 30
0.0
 10
46.97867086087103
 20
164.3822334314559
 30
0.0
 10
47.2325408309616
 20
164.082797668608
 30
0.0
 10
47.77855525703153
 20
163.5499751023601
 30
0.0
 10
48.07264786591319
 20
163.3133619502367
 30
0.0
 10
48.70133666526976
 20
162.8977145829462
 30
0.0
 10
49.03061159913341
 20
162.7225275628421
 30
0.0
 10
49.70907990740665
 20
162.4371730479437
 30
0.0
 10
50.05966531867475
 20
162.3261775734211
 30
0.0
 10
51.14450112242036
 20
162.0903161948735
 30
0.0
 10
51.87564533247219
 20
162.0668277846834
 30
0.0
 10
52.98418171546604
 20
162.2385833000884
 30
0.0
 10
53.3477934054641
 20
162.330246317975
 30
0.0
 10
54.05495087827189
 20
162.5810205440879
 30
0.0
 10
54.3998632012289
 20
162.7402570766799
 30
0.0
 10
54.90294403836925
 20
163.0358117125295
 30
0.0
 10
55.06832664038271
 20
163.1440837969072
 30
0.0
 10
55.38655067742765
 20
163.3757613764639
 30
0.0
 10
55.54035666903911
 20
163.4996838859706
 30
0.0
 10
55.83707750386001
 20
163.7642115281761
 30
0.0
 10
55.97999500390816
 20
163.9048124400247
 30
0.0
 10
56.25429474795254
 20
164.2037854057012
 30
0.0
 10
56.38643149543346
 20
164.3632830923771
 30
0.0
 10
56.75540806221484
 20
164.8591032375142
 30
0.0
 10
56.96708267588814
 20
165.2138425571364
 30
0.0
 10
57.31844802537314
 20
165.9743489068003
 30
0.0
 10
57.45786732591968
 20
166.3829247352703
 30
0.0
 10
57.55144590793617
 20
166.8014935257983
 30
0.0
  0
ARC
  5
61
330
1F
100
AcDbEntity
  8
0
  6
Continuous
 62
     7
370
    15
100
AcDbCircle
 10
78.5334708793
 20
162.1105844349
 30
0.0
 40
21.50000000000001
100
AcDbArc
 50
114.6199773287
 51
167.3977351585
  0
SPLINE
  5
62
330
1F
100
AcDbEntity
  8
0
  6
Continuous
 62
     7
370
    15
100
AcDbSpline
210
0.0
220
0.0
230
1.0
 70
     8
 71
     3
 72
    42
 73
    38
 74
     0
 42
0.00000001
 43
0.00000001
 12
1.0
 22
0.0
 32
0.0
 13
1.0
 23
0.0
 33
0.0
 40
0.0
 40
0.0
 40
0.0
 40
0.0
 40
0.0625000000000002
 40
0.0625000000000002
 40
0.1250000000000004
 40
0.1250000000000004
 40
0.1562500000000005
 40
0.1562500000000005
 40
0.1875000000000006
 40
0.1875000000000006
 40
0.2500000000000005
 40
0.2500000000000005
 40
0.3125000000000004
 40
0.3125000000000004
 40
0.3750000000000002
 40
0.3750000000000002
 40
0.4375000000000001
 40
0.4375000000000001
 40
0.5
 40
0.5
 40
0.6250000000000003
 40
0.6250000000000003
 40
0.6875000000000006
 40
0.6875000000000006
 40
0.7500000000000007
 40
0.7500000000000007
 40
0.7812500000000007
 40
0.7812500000000007
 40
0.8125000000000007
 40
0.8125000000000007
 40
0.8750000000000006
 40
0.8750000000000006
 40
0.9375000000000004
 40
0.9375000000000004
 40
0.9687500000000002
 40
0.9687500000000002
 40
1.0
 40
1.0
 40
1.0
 40
1.0
 10
69.57661838465673
 20
181.6560389803444
 30
0.0
 10
69.96624934089462
 20
181.8345903153502
 30
0.0
 10
70.32831403368715
 20
182.0504333087621
 30
0.0
 10
71.00079307349368
 20
182.5520690144479
 30
0.0
 10
71.3119660085099
 20
182.8405165005943
 30
0.0
 10
71.71814402808441
 20
183.3024204241837
 30
0.0
 10
71.84455657852497
 20
183.4620461435737
 30
0.0
 10
72.08002965122735
 20
183.792281163151
 30
0.0
 10
72.1895892127983
 20
183.9638438609525
 30
0.0
 10
72.48766286246854
 20
184.486474220922
 30
0.0
 10
72.64653465065834
 20
184.8453080796752
 30
0.0
 10
72.8920974112382
 20
185.5822353817085
 30
0.0
 10
72.97784172320978
 20
185.9603873713321
 30
0.0
 10
73.0754727640608
 20
186.7090660608585
 30
0.0
 10
73.08862975792623
 20
187.0830209110187
 30
0.0
 10
73.04545559279958
 20
187.8302977102863
 30
0.0
 10
72.98939195875005
 20
188.1960810934888
 30
0.0
 10
72.8133293295604
 20
188.9075809153026
 30
0.0
 10
72.69325720005159
 20
189.2542097457652
 30
0.0
 10
72.23394464763032
 20
190.2656952448802
 30
0.0
 10
71.81438668283502
 20
190.8689603538108
 30
0.0
 10
71.00693873821207
 20
191.6600691087402
 30
0.0
 10
70.71201195947125
 20
191.8991920050919
 30
0.0
 10
70.08009959962705
 20
192.318792112367
 30
0.0
 10
69.74169550270237
 20
192.5007973365894
 30
0.0
 10
69.19661069216949
 20
192.7271751983329
 30
0.0
 10
69.008238592046
 20
192.7947665314564
 30
0.0
 10
68.62791454161676
 20
192.9100886052948
 30
0.0
 10
68.434840636506
 20
192.9583428510416
 30
0.0
 10
67.84675713412098
 20
193.0744101956036
 30
0.0
 10
67.44300510715406
 20
193.1139138646026
 30
0.0
 10
66.60900692508984
 20
193.1068210615825
 30
0.0
 10
66.19277027326311
 20
193.059819036217
 30
0.0
 10
65.57947843456428
 20
192.9244611121582
 30
0.0
 10
65.37636811527662
 20
192.868447282481
 30
0.0
 10
64.97291837801565
 20
192.7335683736149
 30
0.0
 10
64.7725451566965
 20
192.6545360592206
 30
0.0
 10
64.57744489925035
 20
192.5651298894353
 30
0.0
  0
ARC
  5
63
330
1F
100
AcDbEntity
  8
0
  6
Continuous
 62
     7
370
    15
100
AcDbCircle
 10
78.5334708793
 20
162.1105844349
 30
0.0
 40
33.5
100
AcDbArc
 50
114.6199773287
 51
167.3977351585
  0
ARC
  5
64
330
1F
100
AcDbEntity
  8
0
  6
Continuous
 62
     7
370
    15
100
AcDbCircle
 10
78.5334708793
 20
162.1105844349
 30
0.0
 40
4.000000000000001
100
AcDbArc
 50
142.0723051833
 51
202.0723051833
  0
SPLINE
  5
65
330
1F
100
AcDbEntity
  8
0
  6
Continuous
 62
     7
370
    15
100
AcDbSpline
210
0.0
220
0.0
230
1.0
 70
    24
 71
     3
 72
    10
 73
     6
 74
     0
 42
0.00000001
 43
0.00000001
 12
1.0
 22
0.0
 32
0.0
 13
1.0
 23
0.0
 33
0.0
 40
0.0
 40
0.0
 40
0.0
 40
0.0
 40
0.5000000000000002
 40
0.5000000000000002
 40
1.0
 40
1.0
 40
1.0
 40
1.0
 10
75.37832260635949
 20
164.5692506130215
 30
0.0
 10
75.13738306644423
 20
164.2600585884926
 30
0.0
 10
74.89675708868792
 20
163.9512689508812
 30
0.0
 10
74.42401052500198
 20
163.3446044442314
 30
0.0
 10
74.19044449850814
 20
163.0448746754347
 30
0.0
 10
73.95881102656773
 20
162.7476249082811
 30
0.0
  0
SPLINE
  5
66
330
1F
100
AcDbEntity
  8
0
  6
Continuous
 62
     7
370
    15
100
AcDbSpline
210
0.0
220
0.0
230
1.0
 70
    24
 71
     3
 72
    10
 73
     6
 74
     0
 42
0.00000001
 43
0.00000001
 12
1.0
 22
0.0
 32
0.0
 13
1.0
 23
0.0
 33
0.0
 40
0.0
 40
0.0
 40
0.0
 40
0.0
 40
0.5
 40
0.5
 40
1.0
 40
1.0
 40
1.0
 40
1.0
 10
74.82662937316375
 20
160.6074789668452
 30
0.0
 10
74.6796374269221
 20
160.9699790435108
 30
0.0
 10
74.53085364995556
 20
161.3368979933987
 30
0.0
 10
74.24132342187598
 20
162.0509148668355
 30
0.0
 10
74.09918973665907
 20
162.4014338789669
 30
0.0
 10
73.95881102656779
 20
162.7476249082812
 30
0.0
  0
SPLINE
  5
67
330
1F
100
AcDbEntity
  8
0
  6
Continuous
 62
     7
370
    15
100
AcDbSpline
210
0.0
220
0.0
230
1.0
 70
    24
 71
     3
 72
    10
 73
     6
 74
     0
 42
0.00000001
 43
0.00000001
 12
1.0
 22
0.0
 32
0.0
 13
1.0
 23
0.0
 33
0.0
 40
0.0
 40
0.0
 40
0.0
 40
0.0
 40
0.5
 40
0.5
 40
1.0
 40
1.0
 40
1.0
 40
1.0
 10
77.9817776461474
 20
158.1488127887136
 30
0.0
 10
78.37001556399456
 20
158.0947490386353
 30
0.0
 10
78.75774822346963
 20
158.0407556478936
 30
0.0
 10
79.51950837964567
 20
157.9346773675146
 30
0.0
 10
79.89586498694096
 20
157.8822681395083
 30
0.0
 10
80.26910757253516
 20
157.8302925520179
 30
0.0
  0
ARC
  5
68
330
1F
100
AcDbEntity
  8
0
  6
Continuous
 62
     7
370
    15
100
AcDbCircle
 10
78.5334708793
 20
162.1105844349
 30
0.0
 40
4.000000000000012
100
AcDbArc
 50
262.0723051833
 51
322.0723051833
  0
SPLINE
  5
69
330
1F
100
AcDbEntity
  8
0
  6
Continuous
 62
     7
370
    15
100
AcDbSpline
210
0.0
220
0.0
230
1.0
 70
    24
 71
     3
 72
     8
 73
     4
 74
     0
 42
0.00000001
 43
0.00000001
 12
1.0
 22
0.0
 32
0.0
 13
1.0
 23
0.0
 33
0.0
 40
0.0
 40
0.0
 40
0.0
 40
0.0
 40
1.0
 40
1.0
 40
1.0
 40
1.0
 10
80.269107572535
 20
157.8302925520179
 30
0.0
 10
80.73353351349574
 20
158.4262793999211
 30
0.0
 10
81.20493248844387
 20
159.0312145777516
 30
0.0
 10
81.6886191523268
 20
159.6519182567583
 30
0.0
  0
ARC
  5
6A
330
1F
100
AcDbEntity
  8
0
  6
Continuous
 62
     7
370
    15
100
AcDbCircle
 10
78.5334708793
 20
162.1105844349
 30
0.0
 40
4.000000000000012
100
AcDbArc
 50
322.0723051833
 51
22.0723051833
  0
SPLINE
  5
6B
330
1F
100
AcDbEntity
  8
0
  6
Continuous
 62
     7
370
    15
100
AcDbSpline
210
0.0
220
0.0
230
1.0
 70
    24
 71
     3
 72
    10
 73
     6
 74
     0
 42
0.00000001
 43
0.00000001
 12
1.0
 22
0.0
 32
0.0
 13
1.0
 23
0.0
 33
0.0
 40
0.0
 40
0.0
 40
0.0
 40
0.0
 40
0.5
 40
0.5
 40
1.0
 40
1.0
 40
1.0
 40
1.0
 10
83.10813073211851
 20
161.4735439614985
 30
0.0
 10
82.966775411102
 20
161.8221434325289
 30
0.0
 10
82.82234767494084
 20
162.1783198542289
 30
0.0
 10
82.53289652909378
 20
162.89214170123
 30
0.0
 10
82.38718606782496
 20
163.2514814795747
 30
0.0
 10
82.24031238552254
 20
163.6136899029345
 30
0.0
  0
SPLINE
  5
6C
330
1F
100
AcDbEntity
  8
0
  6
Continuous
 62
     7
370
    15
100
AcDbSpline
210
0.0
220
0.0
230
1.0
 70
    24
 71
     3
 72
    10
 73
     6
 74
     0
 42
0.00000001
 43
0.00000001
 12
1.0
 22
0.0
 32
0.0
 13
1.0
 23
0.0
 33
0.0
 40
0.0
 40
0.0
 40
0.0
 40
0.0
 40
0.5
 40
0.5
 40
1.0
 40
1.0
 40
1.0
 40
1.0
 10
81.6886191523268
 20
159.6519182567583
 30
0.0
 10
81.92955869224207
 20
159.9611102812871
 30
0.0
 10
82.17018466999836
 20
160.2698999188986
 30
0.0
 10
82.64293123368432
 20
160.8765644255483
 30
0.0
 10
82.87649726017816
 20
161.176294194345
 30
0.0
 10
83.10813073211855
 20
161.4735439614986
 30
0.0
  0
ARC
  5
6D
330
1F
100
AcDbEntity
  8
0
  6
Continuous
 62
     7
370
    15
100
AcDbCircle
 10
78.5334708793
 20
162.1105844349
 30
0.0
 40
4.0
100
AcDbArc
 50
202.0723051833
 51
262.0723051833
  0
SPLINE
  5
6E
330
1F
100
AcDbEntity
  8
0
  6
Continuous
 62
     7
370
    15
100
AcDbSpline
210
0.0
220
0.0
230
1.0
 70
    24
 71
     3
 72
     8
 73
     4
 74
     0
 42
0.00000001
 43
0.00000001
 12
1.0
 22
0.0
 32
0.0
 13
1.0
 23
0.0
 33
0.0
 40
0.0
 40
0.0
 40
0.0
 40
0.0
 40
1.0
 40
1.0
 40
1.0
 40
1.0
 10
75.6944477197597
 20
158.4673330254093
 30
0.0
 10
76.44280044084569
 20
158.3631217863124
 30
0.0
 10
77.20238915996379
 20
158.2573458876047
 30
0.0
 10
77.9817776461474
 20
158.1488127887136
 30
0.0
  0
SPLINE
  5
6F
330
1F
100
AcDbEntity
  8
0
  6
Continuous
 62
     7
370
    15
100
AcDbSpline
210
0.0
220
0.0
230
1.0
 70
    24
 71
     3
 72
    10
 73
     6
 74
     0
 42
0.00000001
 43
0.00000001
 12
1.0
 22
0.0
 32
0.0
 13
1.0
 23
0.0
 33
0.0
 40
0.0
 40
0.0
 40
0.0
 40
0.0
 40
0.5
 40
0.5
 40
1.0
 40
1.0
 40
1.0
 40
1.0
 10
75.69444771975976
 20
158.4673330254092
 30
0.0
 10
75.55309239874326
 20
158.8159324964396
 30
0.0
 10
75.40866466258208
 20
159.1721089181395
 30
0.0
 10
75.119213516735
 20
159.8859307651406
 30
0.0
 10
74.97350305546617
 20
160.2452705434854
 30
0.0
 10
74.82662937316375
 20
160.6074789668452
 30
0.0
  0
ARC
  5
70
330
1F
100
AcDbEntity
  8
0
  6
Continuous
 62
     7
370
    15
100
AcDbCircle
 10
78.5334708793
 20
162.1105844349
 30
0.0
 40
4.000000000000001
100
AcDbArc
 50
82.0723051833
 51
142.0723051833
  0
SPLINE
  5
71
330
1F
100
AcDbEntity
  8
0
  6
Continuous
 62
     7
370
    15
100
AcDbSpline
210
0.0
220
0.0
230
1.0
 70
    24
 71
     3
 72
    10
 73
     6
 74
     0
 42
0.00000001
 43
0.00000001
 12
1.0
 22
0.0
 32
0.0
 13
1.0
 23
0.0
 33
0.0
 40
0.0
 40
0.0
 40
0.0
 40
0.0
 40
0.5
 40
0.5
 40
1.0
 40
1.0
 40
1.0
 40
1.0
 10
79.08516411253889
 20
166.0723560810661
 30
0.0
 10
78.69692619469174
 20
166.1264198311444
 30
0.0
 10
78.30919353521666
 20
166.1804132218861
 30
0.0
 10
77.54743337904063
 20
166.2864915022651
 30
0.0
 10
77.17107677174532
 20
166.3389007302714
 30
0.0
 10
76.79783418615114
 20
166.3908763177618
 30
0.0
  0
SPLINE
  5
72
330
1F
100
AcDbEntity
  8
0
  6
Continuous
 62
     7
370
    15
100
AcDbSpline
210
0.0
220
0.0
230
1.0
 70
    24
 71
     3
 72
     8
 73
     4
 74
     0
 42
0.00000001
 43
0.00000001
 12
1.0
 22
0.0
 32
0.0
 13
1.0
 23
0.0
 33
0.0
 40
0.0
 40
0.0
 40
0.0
 40
0.0
 40
1.0
 40
1.0
 40
1.0
 40
1.0
 10
76.79783418615128
 20
166.3908763177619
 30
0.0
 10
76.33340824519055
 20
165.7948894698586
 30
0.0
 10
75.86200927024242
 20
165.1899542920281
 30
0.0
 10
75.37832260635949
 20
164.5692506130215
 30
0.0
  0
ARC
  5
73
330
1F
100
AcDbEntity
  8
0
  6
Continuous
 62
     7
370
    15
100
AcDbCircle
 10
78.5334708793
 20
162.1105844349
 30
0.0
 40
4.000000000000002
100
AcDbArc
 50
22.0723051833
 51
82.0723051833
  0
SPLINE
  5
74
330
1F
100
AcDbEntity
  8
0
  6
Continuous
 62
     7
370
    15
100
AcDbSpline
210
0.0
220
0.0
230
1.0
 70
    24
 71
     3
 72
    10
 73
     6
 74
     0
 42
0.00000001
 43
0.00000001
 12
1.0
 22
0.0
 32
0.0
 13
1.0
 23
0.0
 33
0.0
 40
0.0
 40
0.0
 40
0.0
 40
0.0
 40
0.5
 40
0.5
 40
1.0
 40
1.0
 40
1.0
 40
1.0
 10
82.24031238552254
 20
163.6136899029345
 30
0.0
 10
82.09332043928089
 20
163.9761899796001
 30
0.0
 10
81.94453666231433
 20
164.343108929488
 30
0.0
 10
81.65500643423476
 20
165.0571258029248
 30
0.0
 10
81.51287274901787
 20
165.4076448150561
 30
0.0
 10
81.37249403892658
 20
165.7538358443705
 30
0.0
  0
SPLINE
  5
75
330
1F
100
AcDbEntity
  8
0
  6
Continuous
 62
     7
370
    15
100
AcDbSpline
210
0.0
220
0.0
230
1.0
 70
    24
 71
     3
 72
     8
 73
     4
 74
     0
 42
0.00000001
 43
0.00000001
 12
1.0
 22
0.0
 32
0.0
 13
1.0
 23
0.0
 33
0.0
 40
0.0
 40
0.0
 40
0.0
 40
0.0
 40
1.0
 40
1.0
 40
1.0
 40
1.0
 10
81.3724940389267
 20
165.7538358443704
 30
0.0
 10
80.62414131784068
 20
165.8580470834673
 30
0.0
 10
79.86455259872255
 20
165.9638229821751
 30
0.0
 10
79.08516411253889
 20
166.0723560810661
 30
0.0
  0
CIRCLE
  5
76
330
1F
100
AcDbEntity
  8
0
  6
Continuous
 62
     7
370
    15
100
AcDbCircle
 10
78.5334708793
 20
162.1105844349
 30
0.0
 40
9.0
  0
CIRCLE
  5
77
330
1F
100
AcDbEntity
  8
0
  6
Continuous
 62
     8
370
     0
100
AcDbCircle
 10
78.5334708793
 20
162.1105844349
 30
0.0
 40
38.86207812049858
  0
ARC
  5
78
330
1F
100
AcDbEntity
  8
0
  6
Continuous
 62
     8
370
     0
100
AcDbCircle
 10
78.5334708793
 20
162.1105844349
 30
0.0
 40
45.00000000000002
100
AcDbArc
 50
7.2953453544
 51
52.7046546456
  0
ARC
  5
79
330
1F
100
AcDbEntity
  8
0
  6
Continuous
 62
     8
370
     0
100
AcDbCircle
 10
78.5334708793
 20
162.1105844349
 30
0.0
 40
45.00000000000001
100
AcDbArc
 50
307.2953453544
 51
352.7046546456
  0
ARC
  5
7A
330
1F
100
AcDbEntity
  8
0
  6
Continuous
 62
     8
370
     0
100
AcDbCircle
 10
78.5334708793
 20
162.1105844349
 30
0.0
 40
44.99999999999999
100
AcDbArc
 50
247.2953453544
 51
292.7046546456
  0
ARC
  5
7B
330
1F
100
AcDbEntity
  8
0
  6
Continuous
 62
     8
370
     0
100
AcDbCircle
 10
78.5334708793
 20
162.1105844349
 30
0.0
 40
45.0
100
AcDbArc
 50
187.2953453544
 51
232.7046546456
  0
ARC
  5
7C
330
1F
100
AcDbEntity
  8
0
  6
Continuous
 62
     8
370
     0
100
AcDbCircle
 10
78.5334708793
 20
162.1105844349
 30
0.0
 40
45.00000000000001
100
AcDbArc
 50
127.2953453544
 51
172.7046546456
  0
ARC
  5
7D
330
1F
100
AcDbEntity
  8
0
  6
Continuous
 62
     8
370
     0
100
AcDbCircle
 10
78.5334708793
 20
162.1105844349
 30
0.0
 40
45.00000000000002
100
AcDbArc
 50
67.2953453544
 51
112.7046546456
  0
ARC
  5
7E
330
1F
100
AcDbEntity
  8
0
  6
Continuous
 62
     8
370
     0
100
AcDbCircle
 10
113.5334708793
 20
101.48880617
 30
0.0
 40
25.99999999999995
100
AcDbArc
 50
97.1893073297
 51
107.3038855071
  0
LINE
  5
7F
330
1F
100
AcDbEntity
  8
0
  6
Continuous
 62
     8
370
     0
100
AcDbLine
 10
111.2808054276
 20
119.3472915022
 30
0.0
 11
110.2796207824
 21
127.2843960944
 31
0.0
  0
LINE
  5
80
330
1F
100
AcDbEntity
  8
0
  6
Continuous
 62
     8
370
     0
100
AcDbLine
 10
99.1939016344
 20
112.3689143436
 30
0.0
 11
92.8207597477
 21
117.2045179763
 31
0.0
  0
ARC
  5
81
330
1F
100
AcDbEntity
  8
0
  6
Continuous
 62
     8
370
     0
100
AcDbCircle
 10
113.5334708793
 20
101.48880617
 30
0.0
 40
25.99999999999995
100
AcDbArc
 50
132.6961144929
 51
142.8106926703
  0
ARC
  5
82
330
1F
100
AcDbEntity
  8
0
  6
Continuous
 62
     8
370
     0
100
AcDbCircle
 10
148.5334708793
 20
162.1105844349
 30
0.0
 40
25.99999999999951
100
AcDbArc
 50
157.1893073297
 51
167.3038855071
  0
LINE
  5
83
330
1F
100
AcDbEntity
  8
0
  6
Continuous
 62
     8
370
     0
100
AcDbLine
 10
131.9412361826
 20
169.0889615936
 30
0.0
 11
124.5669096507
 21
172.190462553
 31
0.0
  0
LINE
  5
84
330
1F
100
AcDbEntity
  8
0
  6
Continuous
 62
     8
370
     0
100
AcDbLine
 10
131.9412361826
 20
155.1322072762
 30
0.0
 11
124.5669096507
 21
152.0307063168
 31
0.0
  0
ARC
  5
85
330
1F
100
AcDbEntity
  8
0
  6
Continuous
 62
     8
370
     0
100
AcDbCircle
 10
148.5334708793
 20
162.1105844349
 30
0.0
 40
25.99999999999951
100
AcDbArc
 50
192.6961144929
 51
202.8106926703
  0
ARC
  5
86
330
1F
100
AcDbEntity
  8
0
  6
Continuous
 62
     8
370
     0
100
AcDbCircle
 10
113.5334708793
 20
222.7323626998
 30
0.0
 40
25.99999999999956
100
AcDbArc
 50
217.1893073297
 51
227.3038855071
  0
LINE
  5
87
330
1F
100
AcDbEntity
  8
0
  6
Continuous
 62
     8
370
     0
100
AcDbLine
 10
99.1939016344
 20
211.8522545262
 30
0.0
 11
92.8207597477
 21
207.0166508935
 31
0.0
  0
LINE
  5
88
330
1F
100
AcDbEntity
  8
0
  6
Continuous
 62
     8
370
     0
100
AcDbLine
 10
111.2808054276
 20
204.8738773675
 30
0.0
 11
110.2796207824
 21
196.9367727754
 31
0.0
  0
ARC
  5
89
330
1F
100
AcDbEntity
  8
0
  6
Continuous
 62
     8
370
     0
100
AcDbCircle
 10
113.5334708793
 20
222.7323626998
 30
0.0
 40
25.99999999999956
100
AcDbArc
 50
252.6961144929
 51
262.8106926703
  0
ARC
  5
8A
330
1F
100
AcDbEntity
  8
0
  6
Continuous
 62
     8
370
     0
100
AcDbCircle
 10
43.5334708793
 20
101.48880617
 30
0.0
 40
26.0
100
AcDbArc
 50
37.1893073297
 51
47.3038855071
  0
LINE
  5
8B
330
1F
100
AcDbEntity
  8
0
  6
Continuous
 62
     8
370
     0
100
AcDbLine
 10
57.8730401243
 20
112.3689143436
 30
0.0
 11
64.246182011
 21
117.2045179763
 31
0.0
  0
LINE
  5
8C
330
1F
100
AcDbEntity
  8
0
  6
Continuous
 62
     8
370
     0
100
AcDbLine
 10
45.7861363311
 20
119.3472915022
 30
0.0
 11
46.7873209763
 21
127.2843960944
 31
0.0
  0
ARC
  5
8D
330
1F
100
AcDbEntity
  8
0
  6
Continuous
 62
     8
370
     0
100
AcDbCircle
 10
43.5334708793
 20
101.48880617
 30
0.0
 40
25.99999999999998
100
AcDbArc
 50
72.6961144929
 51
82.8106926703
  0
ARC
  5
8E
330
1F
100
AcDbEntity
  8
0
  6
Continuous
 62
     8
370
     0
100
AcDbCircle
 10
43.5334708793
 20
222.7323626998
 30
0.0
 40
26.00000000000002
100
AcDbArc
 50
277.1893073297
 51
287.3038855071
  0
LINE
  5
8F
330
1F
100
AcDbEntity
  8
0
  6
Continuous
 62
     8
370
     0
100
AcDbLine
 10
45.7861363311
 20
204.8738773675
 30
0.0
 11
46.7873209763
 21
196.9367727754
 31
0.0
  0
LINE
  5
90
330
1F
100
AcDbEntity
  8
0
  6
Continuous
 62
     8
370
     0
100
AcDbLine
 10
57.8730401243
 20
211.8522545262
 30
0.0
 11
64.246182011
 21
207.0166508935
 31
0.0
  0
ARC
  5
91
330
1F
100
AcDbEntity
  8
0
  6
Continuous
 62
     8
370
     0
100
AcDbCircle
 10
43.5334708793
 20
222.7323626998
 30
0.0
 40
25.99999999999998
100
AcDbArc
 50
312.6961144929
 51
322.8106926703
  0
ARC
  5
92
330
1F
100
AcDbEntity
  8
0
  6
Continuous
 62
     8
370
     0
100
AcDbCircle
 10
8.5334708793
 20
162.1105844349
 30
0.0
 40
25.99999999999999
100
AcDbArc
 50
337.1893073297
 51
347.3038855071
  0
LINE
  5
93
330
1F
100
AcDbEntity
  8
0
  6
Continuous
 62
     8
370
     0
100
AcDbLine
 10
25.1257055761
 20
155.1322072762
 30
0.0
 11
32.5000321079
 21
152.0307063168
 31
0.0
  0
LINE
  5
94
330
1F
100
AcDbEntity
  8
0
  6
Continuous
 62
     8
370
     0
100
AcDbLine
 10
25.1257055761
 20
169.0889615936
 30
0.0
 11
32.5000321079
 21
172.190462553
 31
0.0
  0
ARC
  5
95
330
1F
100
AcDbEntity
  8
0
  6
Continuous
 62
     8
370
     0
100
AcDbCircle
 10
8.5334708793
 20
162.1105844349
 30
0.0
 40
26.0
100
AcDbArc
 50
12.6961144929
 51
22.8106926703
  0
ARC
  5
96
330
1F
100
AcDbEntity
  8
0
  6
Continuous
 62
     8
370
     0
100
AcDbCircle
 10
108.0351682829
 20
145.0777714974
 30
0.0
 40
17.9343741250201
100
AcDbArc
 50
277.1893073297
 51
22.8106926703
  0
ARC
  5
97
330
1F
100
AcDbEntity
  8
0
  6
Continuous
 62
     8
370
     0
100
AcDbCircle
 10
49.0317734758
 20
145.0777714974
 30
0.0
 40
17.93437412502007
100
AcDbArc
 50
157.1893073297
 51
262.8106926703
  0
ARC
  5
98
330
1F
100
AcDbEntity
  8
0
  6
Continuous
 62
     8
370
     0
100
AcDbCircle
 10
78.5334708793
 20
128.0449585599
 30
0.0
 40
17.93437412502004
100
AcDbArc
 50
217.1893073297
 51
322.8106926703
  0
ARC
  5
99
330
1F
100
AcDbEntity
  8
0
  6
Continuous
 62
     8
370
     0
100
AcDbCircle
 10
108.0351682829
 20
179.1433973724
 30
0.0
 40
17.93437412502051
100
AcDbArc
 50
337.1893073297
 51
82.8106926703
  0
ARC
  5
9A
330
1F
100
AcDbEntity
  8
0
  6
Continuous
 62
     8
370
     0
100
AcDbCircle
 10
49.0317734758
 20
179.1433973724
 30
0.0
 40
17.93437412502003
100
AcDbArc
 50
97.1893073297
 51
202.8106926703
  0
ARC
  5
9B
330
1F
100
AcDbEntity
  8
0
  6
Continuous
 62
     8
370
     0
100
AcDbCircle
 10
78.5334708793
 20
196.1762103099
 30
0.0
 40
17.9343741250205
100
AcDbArc
 50
37.1893073297
 51
142.8106926703
  0
CIRCLE
  5
9C
330
1F
100
AcDbEntity
  8
0
  6
Continuous
 62
     8
370
     0
100
AcDbCircle
 10
78.5334708793
 20
162.1105844349
 30
0.0
 40
20.27968229716846
  0
CIRCLE
  5
9D
330
1F
100
AcDbEntity
  8
0
  6
Continuous
 62
     8
370
     0
100
AcDbCircle
 10
78.5334708793
 20
162.1105844349
 30
0.0
 40
16.0
  0
INSERT
  5
A9
330
1F
100
AcDbEntity
  8
FORMAT
 62
     7
100
AcDbBlockReference
  2
SW_CENTERMARKSYMBOL_0
 10
78.5334708793
 20
162.1105844349
 30
0.0
  0
LINE
  5
AA
330
1F
100
AcDbEntity
  8
0
  6
Continuous
 62
     7
370
    15
100
AcDbLine
 10
241.9708076914
 20
147.6890170184
 30
0.0
 11
240.0090714368
 21
147.6890170184
 31
0.0
  0
LINE
  5
AB
330
1F
100
AcDbEntity
  8
0
  6
Continuous
 62
     7
370
    15
100
AcDbLine
 10
250.4708076914
 20
222.1105844349
 30
0.0
 11
242.4708076914
 21
222.1105844349
 31
0.0
  0
ARC
  5
AC
330
1F
100
AcDbEntity
  8
0
  6
Continuous
 62
     7
370
    15
100
AcDbCircle
 10
242.4708076914
 20
221.6105844349
 30
0.0
 40
0.5
100
AcDbArc
 50
90.0
 51
180.0
  0
ARC
  5
AD
330
1F
100
AcDbEntity
  8
0
  6
Continuous
 62
     7
370
    15
100
AcDbCircle
 10
250.4708076914
 20
214.1105844349
 30
0.0
 40
8.000000000000028
100
AcDbArc
 50
0.0
 51
90.0
  0
LINE
  5
AE
330
1F
100
AcDbEntity
  8
0
  6
Continuous
 62
     7
370
    15
100
AcDbLine
 10
242.4708076914
 20
102.1105844349
 30
0.0
 11
250.4708076914
 21
102.1105844349
 31
0.0
  0
ARC
  5
AF
330
1F
100
AcDbEntity
  8
0
  6
Continuous
 62
     7
370
    15
100
AcDbCircle
 10
242.4708076914
 20
102.6105844349
 30
0.0
 40
0.5
100
AcDbArc
 50
180.0
 51
270.0
  0
ARC
  5
B0
330
1F
100
AcDbEntity
  8
0
  6
Continuous
 62
     7
370
    15
100
AcDbCircle
 10
250.4708076914
 20
110.1105844349
 30
0.0
 40
8.000000000000028
100
AcDbArc
 50
270.0
 51
0.0
  0
ARC
  5
B1
330
1F
100
AcDbEntity
  8
0
  6
Continuous
 62
     7
370
    15
100
AcDbCircle
 10
253.9708076914
 20
146.1105844349
 30
0.0
 40
15.00000000000002
100
AcDbArc
 50
193.4933988216
 51
201.5101882669
  0
LINE
  5
B2
330
1F
100
AcDbEntity
  8
0
  6
Continuous
 62
     7
370
    15
100
AcDbLine
 10
240.0155219545
 20
140.6105844349
 30
0.0
 11
241.9708076914
 21
140.6105844349
 31
0.0
  0
LINE
  5
B3
330
1F
100
AcDbEntity
  8
0
  6
Continuous
 62
     7
370
    15
100
AcDbLine
 10
241.9708076914
 20
169.2828054035
 30
0.0
 11
241.9708076914
 21
204.3778083305
 31
0.0
  0
LINE
  5
B4
330
1F
100
AcDbEntity
  8
0
  6
Continuous
 62
     7
370
    15
100
AcDbLine
 10
258.4708076914
 20
196.9367727754
 30
0.0
 11
258.4708076914
 21
172.190462553
 31
0.0
  0
LINE
  5
B5
330
1F
100
AcDbEntity
  8
0
  6
Continuous
 62
     7
370
    15
100
AcDbLine
 10
258.4708076914
 20
152.0307063168
 30
0.0
 11
258.4708076914
 21
127.2843960944
 31
0.0
  0
LINE
  5
B6
330
1F
100
AcDbEntity
  8
0
  6
Continuous
 62
     7
370
    15
100
AcDbLine
 10
241.9708076914
 20
119.8433605392
 30
0.0
 11
241.9708076914
 21
154.9383634662
 31
0.0
  0
LINE
  5
B7
330
1F
100
AcDbEntity
  8
0
  6
Continuous
 62
     7
370
    15
100
AcDbLine
 10
241.9708076914
 20
154.9383634662
 30
0.0
 11
241.9708076914
 21
169.2828054035
 31
0.0
  0
LINE
  5
B8
330
1F
100
AcDbEntity
  8
0
  6
Continuous
 62
     7
370
    15
100
AcDbLine
 10
258.4708076914
 20
156.3963031849
 30
0.0
 11
258.4708076914
 21
152.0307063168
 31
0.0
  0
LINE
  5
B9
330
1F
100
AcDbEntity
  8
0
  6
Continuous
 62
     7
370
    15
100
AcDbLine
 10
258.4708076914
 20
172.190462553
 30
0.0
 11
258.4708076914
 21
167.8248656849
 31
0.0
  0
SPLINE
  5
BA
330
1F
100
AcDbEntity
  8
0
  6
Continuous
 62
     7
370
    15
100
AcDbSpline
210
0.0
220
0.0
230
1.0
 70
     8
 71
     3
 72
    10
 73
     6
 74
     0
 42
0.00000001
 43
0.00000001
 12
1.0
 22
0.0
 32
0.0
 13
1.0
 23
0.0
 33
0.0
 40
0.0
 40
0.0
 40
0.0
 40
0.0
 40
0.5
 40
0.5
 40
1.0
 40
1.0
 40
1.0
 40
1.0
 10
258.4708076914158
 20
156.3963031848916
 30
0.0
 10
258.4708076914158
 20
158.2985939614368
 30
0.0
 10
258.4568666889463
 20
160.2038778271702
 30
0.0
 10
258.4568629143535
 20
164.0161402416752
 30
0.0
 10
258.4708076914158
 20
165.9225749083372
 30
0.0
 10
258.4708076914158
 20
167.8248656848879
 30
0.0
  0
SPLINE
  5
BB
330
1F
100
AcDbEntity
  8
0
  6
Continuous
 62
     7
370
    15
100
AcDbSpline
210
0.0
220
0.0
230
1.0
 70
     8
 71
     3
 72
    10
 73
     6
 74
     0
 42
0.00000001
 43
0.00000001
 12
1.0
 22
0.0
 32
0.0
 13
1.0
 23
0.0
 33
0.0
 40
0.0
 40
0.0
 40
0.0
 40
0.0
 40
0.5
 40
0.5
 40
1.0
 40
1.0
 40
1.0
 40
1.0
 10
258.4708076914158
 20
120.5977813223981
 30
0.0
 10
258.4708076914158
 20
121.6425468372011
 30
0.0
 10
258.4568666889463
 20
122.6432408944545
 30
0.0
 10
258.4568629143535
 20
124.5493912231014
 30
0.0
 10
258.4708076914158
 20
125.4545373106373
 30
0.0
 10
258.4708076914158
 20
126.3120625723962
 30
0.0
  0
SPLINE
  5
BC
330
1F
100
AcDbEntity
  8
0
  6
Continuous
 62
     7
370
    15
100
AcDbSpline
210
0.0
220
0.0
230
1.0
 70
     8
 71
     3
 72
    10
 73
     6
 74
     0
 42
0.00000001
 43
0.00000001
 12
1.0
 22
0.0
 32
0.0
 13
1.0
 23
0.0
 33
0.0
 40
0.0
 40
0.0
 40
0.0
 40
0.0
 40
0.5
 40
0.5
 40
1.0
 40
1.0
 40
1.0
 40
1.0
 10
258.4708076914158
 20
197.9091062973833
 30
0.0
 10
258.4708076914158
 20
198.7666315591323
 30
0.0
 10
258.4568666889463
 20
199.6712213676056
 30
0.0
 10
258.4568629143535
 20
201.5773334534637
 30
0.0
 10
258.4708076914158
 20
202.5786220326701
 30
0.0
 10
258.4708076914158
 20
203.6233875473815
 30
0.0
  0
SPLINE
  5
BD
330
1F
100
AcDbEntity
  8
0
  6
Continuous
 62
     7
370
    15
100
AcDbSpline
210
0.0
220
0.0
230
1.0
 70
     8
 71
     3
 72
    18
 73
    14
 74
     0
 42
0.00000001
 43
0.00000001
 12
1.0
 22
0.0
 32
0.0
 13
1.0
 23
0.0
 33
0.0
 40
0.0
 40
0.0
 40
0.0
 40
0.0
 40
0.2499999999999992
 40
0.2499999999999992
 40
0.3749999999999989
 40
0.3749999999999989
 40
0.4999999999999988
 40
0.4999999999999988
 40
0.7499999999999994
 40
0.7499999999999994
 40
0.8749999999999998
 40
0.8749999999999998
 40
1.0
 40
1.0
 40
1.0
 40
1.0
 10
240.4139010114452
 20
161.4476278627455
 30
0.0
 10
240.2184360447297
 20
161.7167678486164
 30
0.0
 10
240.0575836217083
 20
162.0246871258101
 30
0.0
 10
239.858511167809
 20
162.5470935983645
 30
0.0
 10
239.7992155468551
 20
162.7313558174919
 30
0.0
 10
239.6934300590403
 20
163.121119178625
 30
0.0
 10
239.6473802914787
 20
163.3252981107921
 30
0.0
 10
239.5286650920669
 20
163.9557823417471
 30
0.0
 10
239.4740793709995
 20
164.4035263841818
 30
0.0
 10
239.4199667765525
 20
165.1169788695025
 30
0.0
 10
239.4066793961152
 20
165.3619792371283
 30
0.0
 10
239.3891714319868
 20
165.8576958717931
 30
0.0
 10
239.3848555456009
 20
166.1094456659358
 30
0.0
 10
239.384855545601
 20
166.3651298894457
 30
0.0
  0
SPLINE
  5
BE
330
1F
100
AcDbEntity
  8
0
  6
Continuous
 62
     7
370
    15
100
AcDbSpline
210
0.0
220
0.0
230
1.0
 70
     8
 71
     3
 72
    16
 73
    12
 74
     0
 42
0.00000001
 43
0.00000001
 12
1.0
 22
0.0
 32
0.0
 13
1.0
 23
0.0
 33
0.0
 40
0.0
 40
0.0
 40
0.0
 40
0.0
 40
0.0162165668988866
 40
0.1364357791312549
 40
0.2566540856506259
 40
0.3778756669617603
 40
0.4990959941166159
 40
0.6236883394802094
 40
0.7482788770904963
 40
0.8741406210117494
 40
1.0
 40
1.0
 40
1.0
 40
1.0
 10
241.9708076914158
 20
160.224280404097
 30
0.0
 10
241.9616529467615
 20
160.2268958978995
 30
0.0
 10
241.8846308046867
 20
160.2489009830063
 30
0.0
 10
241.741999142466
 20
160.3085940499751
 30
0.0
 10
241.5431072458235
 20
160.4053088523766
 30
0.0
 10
241.3472955874379
 20
160.523901352442
 30
0.0
 10
241.1530277601625
 20
160.6634871693587
 30
0.0
 10
240.9615405606148
 20
160.8249429185923
 30
0.0
 10
240.7730873589801
 20
161.0097947257293
 30
0.0
 10
240.5894501725786
 20
161.2149538565306
 30
0.0
 10
240.4724170319789
 20
161.3700703464497
 30
0.0
 10
240.4139010114452
 20
161.4476278627455
 30
0.0
  0
SPLINE
  5
BF
330
1F
100
AcDbEntity
  8
0
  6
Continuous
 62
     7
370
    15
100
AcDbSpline
210
0.0
220
0.0
230
1.0
 70
     8
 71
     3
 72
    15
 73
    11
 74
     0
 42
0.00000001
 43
0.00000001
 12
1.0
 22
0.0
 32
0.0
 13
1.0
 23
0.0
 33
0.0
 40
0.0
 40
0.0
 40
0.0
 40
0.0
 40
0.1068606981677117
 40
0.2138233654921512
 40
0.3207922914371817
 40
0.4276615321398111
 40
0.5744877998299327
 40
0.7214347203169369
 40
0.8682701731147436
 40
1.0
 40
1.0
 40
1.0
 40
1.0
 10
240.4139010114452
 20
184.1671930959373
 30
0.0
 10
240.4634905509897
 20
184.2811128595244
 30
0.0
 10
240.5627169496602
 20
184.5090610917925
 30
0.0
 10
240.7179472007415
 20
184.8555999474165
 30
0.0
 10
240.8772872286992
 20
185.2045883890462
 30
0.0
 10
241.0611432013752
 20
185.5993618878936
 30
0.0
 10
241.2708528454244
 20
186.0400896537835
 30
0.0
 10
241.5076136431619
 20
186.5258285139305
 30
0.0
 10
241.7409334840867
 20
186.9948239117521
 30
0.0
 10
241.8970040095
 20
187.3001666332385
 30
0.0
 10
241.970807691416
 20
187.4445591572739
 30
0.0
  0
SPLINE
  5
C0
330
1F
100
AcDbEntity
  8
0
  6
Continuous
 62
     7
370
    15
100
AcDbSpline
210
0.0
220
0.0
230
1.0
 70
     8
 71
     3
 72
    18
 73
    14
 74
     0
 42
0.00000001
 43
0.00000001
 12
1.0
 22
0.0
 32
0.0
 13
1.0
 23
0.0
 33
0.0
 40
0.0
 40
0.0
 40
0.0
 40
0.0
 40
0.0412080729901563
 40
0.1457364492021146
 40
0.2504407795913094
 40
0.3551099142776153
 40
0.4595569149148663
 40
0.5636284492903779
 40
0.6507701302674308
 40
0.7381365045424176
 40
0.8255595260011689
 40
0.9128891881845574
 40
1.0
 40
1.0
 40
1.0
 40
1.0
 10
241.9708076914159
 20
162.2493282341348
 30
0.0
 10
241.9451592136838
 20
162.2593555302771
 30
0.0
 10
241.8544508208643
 20
162.2948180605251
 30
0.0
 10
241.7027809871804
 20
162.3817786760218
 30
0.0
 10
241.5167054120773
 20
162.5095499947995
 30
0.0
 10
241.3366566518407
 20
162.6634535661067
 30
0.0
 10
241.1635148615445
 20
162.8412264747873
 30
0.0
 10
241.0072265813899
 20
163.0325181483124
 30
0.0
 10
240.8670981077303
 20
163.2330836864985
 30
0.0
 10
240.7419053586023
 20
163.4384773056919
 30
0.0
 10
240.6239979918333
 20
163.6608312431681
 30
0.0
 10
240.5133638742814
 20
163.8980104381065
 30
0.0
 10
240.4470275575457
 20
164.0693152394556
 30
0.0
 10
240.4139010114452
 20
164.1548601819298
 30
0.0
  0
SPLINE
  5
C1
330
1F
100
AcDbEntity
  8
0
  6
Continuous
 62
     7
370
    15
100
AcDbSpline
210
0.0
220
0.0
230
1.0
 70
     8
 71
     3
 72
    18
 73
    14
 74
     0
 42
0.00000001
 43
0.00000001
 12
1.0
 22
0.0
 32
0.0
 13
1.0
 23
0.0
 33
0.0
 40
0.0
 40
0.0
 40
0.0
 40
0.0
 40
0.0874647500917557
 40
0.1752098837403278
 40
0.2631239388763912
 40
0.3510681814261896
 40
0.4388830966841018
 40
0.5263945230834323
 40
0.6309720209418899
 40
0.7358373639642336
 40
0.8408214255916395
 40
0.945727166396613
 40
1.0
 40
1.0
 40
1.0
 40
1.0
 10
240.4139010114452
 20
183.5217494608167
 30
0.0
 10
240.4471711757976
 20
183.6158797579785
 30
0.0
 10
240.5138181578343
 20
183.8044421034362
 30
0.0
 10
240.6250974438897
 20
184.0992260685237
 30
0.0
 10
240.7438079862805
 20
184.4013554906507
 30
0.0
 10
240.8699722729369
 20
184.7101451782487
 30
0.0
 10
241.0025120610121
 20
185.023714342286
 30
0.0
 10
241.1498967804503
 20
185.3617028455811
 30
0.0
 10
241.313131760467
 20
185.724455305258
 30
0.0
 10
241.4927096292748
 20
186.111621674201
 30
0.0
 10
241.6785775854059
 20
186.5006494412493
 30
0.0
 10
241.8381930051252
 20
186.8275640504211
 30
0.0
 10
241.9370886596726
 20
187.0235924272504
 30
0.0
 10
241.970807691416
 20
187.0904294090286
 30
0.0
  0
SPLINE
  5
C2
330
1F
100
AcDbEntity
  8
0
  6
Continuous
 62
     7
370
    15
100
AcDbSpline
210
0.0
220
0.0
230
1.0
 70
     8
 71
     3
 72
    12
 73
     8
 74
     0
 42
0.00000001
 43
0.00000001
 12
1.0
 22
0.0
 32
0.0
 13
1.0
 23
0.0
 33
0.0
 40
0.0
 40
0.0
 40
0.0
 40
0.0
 40
0.5000000000000003
 40
0.5000000000000003
 40
0.7500000000000001
 40
0.7500000000000001
 40
1.0
 40
1.0
 40
1.0
 40
1.0
 10
240.4139010114452
 20
164.1548601819298
 30
0.0
 10
240.2772299986091
 20
164.5239445118392
 30
0.0
 10
240.1795206064093
 20
164.9311263708704
 30
0.0
 10
240.0808531883388
 20
165.6005194352575
 30
0.0
 10
240.0561628052299
 20
165.8342296640479
 30
0.0
 10
240.0236321889186
 20
166.3096694968567
 30
0.0
 10
240.015521954463
 20
166.5528102260921
 30
0.0
 10
240.015521954463
 20
166.8014935257989
 30
0.0
  0
LINE
  5
C3
330
1F
100
AcDbEntity
  8
0
  6
Continuous
 62
     7
370
    15
100
AcDbLine
 10
241.9708076914
 20
204.3778083305
 30
0.0
 11
241.9708076914
 21
211.5500292992
 31
0.0
  0
LINE
  5
C4
330
1F
100
AcDbEntity
  8
0
  6
Continuous
 62
     7
370
    15
100
AcDbLine
 10
258.4708076914
 20
207.0166508935
 30
0.0
 11
258.4708076914
 21
203.6233875474
 31
0.0
  0
LINE
  5
C5
330
1F
100
AcDbEntity
  8
0
  6
Continuous
 62
     7
370
    15
100
AcDbLine
 10
258.4708076914
 20
197.9091062974
 30
0.0
 11
258.4708076914
 21
196.9367727754
 31
0.0
  0
LINE
  5
C6
330
1F
100
AcDbEntity
  8
0
  6
Continuous
 62
     7
370
    15
100
AcDbLine
 10
241.9708076914
 20
112.6711395706
 30
0.0
 11
241.9708076914
 21
119.8433605392
 31
0.0
  0
LINE
  5
C7
330
1F
100
AcDbEntity
  8
0
  6
Continuous
 62
     7
370
    15
100
AcDbLine
 10
258.4708076914
 20
120.5977813224
 30
0.0
 11
258.4708076914
 21
117.2045179763
 31
0.0
  0
LINE
  5
C8
330
1F
100
AcDbEntity
  8
0
  6
Continuous
 62
     7
370
    15
100
AcDbLine
 10
258.4708076914
 20
127.2843960944
 30
0.0
 11
258.4708076914
 21
126.3120625724
 31
0.0
  0
SPLINE
  5
C9
330
1F
100
AcDbEntity
  8
0
  6
Continuous
 62
     7
370
    15
100
AcDbSpline
210
0.0
220
0.0
230
1.0
 70
     8
 71
     3
 72
    15
 73
    11
 74
     0
 42
0.00000001
 43
0.00000001
 12
1.0
 22
0.0
 32
0.0
 13
1.0
 23
0.0
 33
0.0
 40
0.0
 40
0.0
 40
0.0
 40
0.0
 40
0.106860698167714
 40
0.2138233654921559
 40
0.3207922914371896
 40
0.4276615321398213
 40
0.574487799829946
 40
0.7214347203169534
 40
0.8682701731147627
 40
0.9999999999999999
 40
0.9999999999999999
 40
0.9999999999999999
 40
0.9999999999999999
 10
240.4139010114452
 20
147.6029433240226
 30
0.0
 10
240.4634905509897
 20
147.583509194241
 30
0.0
 10
240.5627169496602
 20
147.544622390144
 30
0.0
 10
240.7179472007415
 20
147.4660191930219
 30
0.0
 10
240.8772872286992
 20
147.373152061976
 30
0.0
 10
241.0611432013752
 20
147.2514309815717
 30
0.0
 10
241.2708528454244
 20
147.0945908838907
 30
0.0
 10
241.5076136431619
 20
146.8949421252903
 30
0.0
 10
241.7409334840867
 20
146.6795389742893
 30
0.0
 10
241.8970040094999
 20
146.5190221319838
 30
0.0
 10
241.9708076914159
 20
146.4431158457693
 30
0.0
  0
SPLINE
  5
CA
330
1F
100
AcDbEntity
  8
0
  6
Continuous
 62
     7
370
    15
100
AcDbSpline
210
0.0
220
0.0
230
1.0
 70
     8
 71
     3
 72
    18
 73
    14
 74
     0
 42
0.00000001
 43
0.00000001
 12
1.0
 22
0.0
 32
0.0
 13
1.0
 23
0.0
 33
0.0
 40
0.0
 40
0.0
 40
0.0
 40
0.0
 40
0.2500000000000012
 40
0.2500000000000012
 40
0.3750000000000014
 40
0.3750000000000014
 40
0.5000000000000017
 40
0.5000000000000017
 40
0.7500000000000013
 40
0.7500000000000013
 40
0.8750000000000007
 40
0.8750000000000007
 40
1.0
 40
1.0
 40
1.0
 40
1.0
 10
239.384855545601
 20
146.2116548122862
 30
0.0
 10
239.384855545601
 20
146.5150807319809
 30
0.0
 10
239.4016846986956
 20
146.7717010921417
 30
0.0
 10
239.4549519979446
 20
147.0895007415493
 30
0.0
 10
239.477486387969
 20
147.1841619791896
 30
0.0
 10
239.5338486445221
 20
147.3504914779224
 30
0.0
 10
239.5676333448814
 20
147.421630064322
 30
0.0
 10
239.686163756653
 20
147.5962692149886
 30
0.0
 10
239.7884747922445
 20
147.6631326105611
 30
0.0
 10
239.988113007798
 20
147.6927286235113
 30
0.0
 10
240.0627041428939
 20
147.6906102975129
 30
0.0
 10
240.2266017129737
 20
147.6634563035138
 30
0.0
 10
240.3161338347585
 20
147.6385263380191
 30
0.0
 10
240.4139010114447
 20
147.6029433240234
 30
0.0
  0
SPLINE
  5
CB
330
1F
100
AcDbEntity
  8
0
  6
Continuous
 62
     7
370
    15
100
AcDbSpline
210
0.0
220
0.0
230
1.0
 70
     8
 71
     3
 72
    10
 73
     6
 74
     0
 42
0.00000001
 43
0.00000001
 12
1.0
 22
0.0
 32
0.0
 13
1.0
 23
0.0
 33
0.0
 40
0.0
 40
0.0
 40
0.0
 40
0.0
 40
0.3696064697840498
 40
0.7419526973922027
 40
1.0
 40
1.0
 40
1.0
 40
1.0
 10
241.970807691416
 20
139.898552026828
 30
0.0
 10
241.9065169818754
 20
139.9922387285141
 30
0.0
 10
241.7774589992356
 20
140.1803065972026
 30
0.0
 10
241.607926153666
 20
140.4174792668631
 30
0.0
 10
241.5049987687902
 20
140.5544971121465
 30
0.0
 10
241.4628661440747
 20
140.6105844348899
 30
0.0
  0
SPLINE
  5
CC
330
1F
100
AcDbEntity
  8
0
  6
Continuous
 62
     7
370
    15
100
AcDbSpline
210
0.0
220
0.0
230
1.0
 70
     8
 71
     3
 72
    18
 73
    14
 74
     0
 42
0.00000001
 43
0.00000001
 12
1.0
 22
0.0
 32
0.0
 13
1.0
 23
0.0
 33
0.0
 40
0.0
 40
0.0
 40
0.0
 40
0.0
 40
0.0874647500917568
 40
0.1752098837403308
 40
0.2631239388763953
 40
0.3510681814261948
 40
0.4388830966841084
 40
0.5263945230834405
 40
0.6309720209419001
 40
0.735837363964245
 40
0.8408214255916535
 40
0.9457271663966287
 40
1.0
 40
1.0
 40
1.0
 40
1.0
 10
240.4139010114452
 20
145.6475908001296
 30
0.0
 10
240.4471711757976
 20
145.6592090864235
 30
0.0
 10
240.5138181578343
 20
145.6824829034605
 30
0.0
 10
240.6250974438897
 20
145.6915561213477
 30
0.0
 10
240.7438079862805
 20
145.6825110878708
 30
0.0
 10
240.8699722729369
 20
145.6539548632249
 30
0.0
 10
241.0025120610121
 20
145.6069296899975
 30
0.0
 10
241.1498967804503
 20
145.5374410932959
 30
0.0
 10
241.3131317604669
 20
145.4413681305087
 30
0.0
 10
241.4927096292748
 20
145.3157794721158
 30
0.0
 10
241.6785775854059
 20
145.1659175078089
 30
0.0
 10
241.8381930051252
 20
145.024951688602
 30
0.0
 10
241.9370886596725
 20
144.9261488848789
 30
0.0
 10
241.970807691416
 20
144.8924615111482
 30
0.0
  0
LINE
  5
CD
330
1F
100
AcDbEntity
  8
0
  6
Continuous
 62
     7
370
    15
100
AcDbLine
 10
240.0155219545
 20
166.8014935258
 30
0.0
 11
240.0155219545
 21
181.6560389803
 31
0.0
  0
LINE
  5
CE
330
1F
100
AcDbEntity
  8
0
  6
Continuous
 62
     7
370
    15
100
AcDbLine
 10
239.3848555456
 20
166.3651298894
 30
0.0
 11
239.3848555456
 21
179.8378571622
 31
0.0
  0
SPLINE
  5
CF
330
1F
100
AcDbEntity
  8
0
  6
Continuous
 62
     7
370
    15
100
AcDbSpline
210
0.0
220
0.0
230
1.0
 70
     8
 71
     3
 72
    18
 73
    14
 74
     0
 42
0.00000001
 43
0.00000001
 12
1.0
 22
0.0
 32
0.0
 13
1.0
 23
0.0
 33
0.0
 40
0.0
 40
0.0
 40
0.0
 40
0.0
 40
0.2499999999999995
 40
0.2499999999999995
 40
0.3749999999999996
 40
0.3749999999999996
 40
0.4999999999999998
 40
0.4999999999999998
 40
0.75
 40
0.75
 40
0.875
 40
0.875
 40
1.0
 40
1.0
 40
1.0
 40
1.0
 10
239.384855545601
 20
179.8378571621626
 30
0.0
 10
239.384855545601
 20
180.0561760123517
 30
0.0
 10
239.4016845295198
 20
180.3171054306619
 30
0.0
 10
239.4549518069
 20
180.7694031180318
 30
0.0
 10
239.4774862277587
 20
180.9303913668282
 30
0.0
 10
239.5338487409627
 20
181.273135719857
 30
0.0
 10
239.5676332106021
 20
181.4542304088386
 30
0.0
 10
239.6861632430139
 20
182.0152444780896
 30
0.0
 10
239.7884741335451
 20
182.4164385991861
 30
0.0
 10
239.988113138667
 20
183.0547344419647
 30
0.0
 10
240.0627043880756
 20
183.2742866864059
 30
0.0
 10
240.22660174704
 20
183.717014154393
 30
0.0
 10
240.3161338099212
 20
183.9410285183601
 30
0.0
 10
240.4139010114447
 20
184.1671930959371
 30
0.0
  0
SPLINE
  5
D0
330
1F
100
AcDbEntity
  8
0
  6
Continuous
 62
     7
370
    15
100
AcDbSpline
210
0.0
220
0.0
230
1.0
 70
     8
 71
     3
 72
    12
 73
     8
 74
     0
 42
0.00000001
 43
0.00000001
 12
1.0
 22
0.0
 32
0.0
 13
1.0
 23
0.0
 33
0.0
 40
0.0
 40
0.0
 40
0.0
 40
0.0
 40
0.4999999999999989
 40
0.4999999999999989
 40
0.7499999999999994
 40
0.7499999999999994
 40
1.0
 40
1.0
 40
1.0
 40
1.0
 10
240.015521954463
 20
181.6560389803444
 30
0.0
 10
240.015521954463
 20
181.8683609601719
 30
0.0
 10
240.0471431813476
 20
182.1337112645708
 30
0.0
 10
240.1451625076483
 20
182.6072227622677
 30
0.0
 10
240.1867242222145
 20
182.778392751725
 30
0.0
 10
240.2868395061844
 20
183.136814937071
 30
0.0
 10
240.3455575141213
 20
183.3250348512328
 30
0.0
 10
240.4139010114452
 20
183.5217494608167
 30
0.0
  0
SPLINE
  5
D1
330
1F
100
AcDbEntity
  8
0
  6
Continuous
 62
     7
370
    15
100
AcDbSpline
210
0.0
220
0.0
230
1.0
 70
     8
 71
     3
 72
    12
 73
     8
 74
     0
 42
0.00000001
 43
0.00000001
 12
1.0
 22
0.0
 32
0.0
 13
1.0
 23
0.0
 33
0.0
 40
0.0
 40
0.0
 40
0.0
 40
0.0
 40
0.25
 40
0.25
 40
0.5
 40
0.5
 40
1.0
 40
1.0
 40
1.0
 40
1.0
 10
240.015521954463
 20
144.5809953638141
 30
0.0
 10
240.015521954463
 20
144.7270299329335
 30
0.0
 10
240.023467664758
 20
144.8596214352651
 30
0.0
 10
240.0557593291728
 20
145.0978577473161
 30
0.0
 10
240.0804269771813
 20
145.2040276699437
 30
0.0
 10
240.1790457828907
 20
145.4729598615006
 30
0.0
 10
240.2768548445256
 20
145.5898494070431
 30
0.0
 10
240.4139010114452
 20
145.6475908001296
 30
0.0
  0
LINE
  5
D2
330
1F
100
AcDbEntity
  8
0
  6
Continuous
 62
     7
370
    15
100
AcDbLine
 10
241.9708076914
 20
211.5500292992
 30
0.0
 11
241.9708076914
 21
221.6105844349
 31
0.0
  0
LINE
  5
D3
330
1F
100
AcDbEntity
  8
0
  6
Continuous
 62
     7
370
    15
100
AcDbLine
 10
258.4708076914
 20
207.0166508935
 30
0.0
 11
258.4708076914
 21
214.1105844349
 31
0.0
  0
LINE
  5
D4
330
1F
100
AcDbEntity
  8
0
  6
Continuous
 62
     7
370
    15
100
AcDbLine
 10
241.9708076914
 20
102.6105844349
 30
0.0
 11
241.9708076914
 21
112.6711395706
 31
0.0
  0
LINE
  5
D5
330
1F
100
AcDbEntity
  8
0
  6
Continuous
 62
     7
370
    15
100
AcDbLine
 10
258.4708076914
 20
117.2045179763
 30
0.0
 11
258.4708076914
 21
110.1105844349
 31
0.0
  0
LINE
  5
D6
330
1F
100
AcDbEntity
  8
0
  6
Continuous
 62
     7
370
    15
100
AcDbLine
 10
240.0155219545
 20
140.6105844349
 30
0.0
 11
240.0155219545
 21
144.5809953638
 31
0.0
  0
LINE
  5
D7
330
1F
100
AcDbEntity
  8
0
  6
Continuous
 62
     7
370
    15
100
AcDbLine
 10
239.3848555456
 20
142.6105844349
 30
0.0
 11
239.3848555456
 21
146.2116548123
 31
0.0
  0
ARC
  5
D8
330
1F
100
AcDbEntity
  8
0
  6
Continuous
 62
     7
370
    15
100
AcDbCircle
 10
239.9708076914
 20
152.1105844349
 30
0.0
 40
2.0
100
AcDbArc
 50
0.0
 51
90.0
  0
LINE
  5
D9
330
1F
100
AcDbEntity
  8
0
  6
Continuous
 62
     7
370
    15
100
AcDbLine
 10
225.9708076914
 20
157.1105844349
 30
0.0
 11
225.9708076914
 21
167.1105844349
 31
0.0
  0
LINE
  5
DA
330
1F
100
AcDbEntity
  8
0
  6
Continuous
 62
     7
370
    15
100
AcDbLine
 10
225.9708076914
 20
154.1105844349
 30
0.0
 11
239.9708076914
 21
154.1105844349
 31
0.0
  0
LINE
  5
DB
330
1F
100
AcDbEntity
  8
0
  6
Continuous
 62
     7
370
    15
100
AcDbLine
 10
225.9708076914
 20
154.1105844349
 30
0.0
 11
225.9708076914
 21
157.1105844349
 31
0.0
  0
LINE
  5
DC
330
1F
100
AcDbEntity
  8
0
  6
Continuous
 62
     7
370
    15
100
AcDbLine
 10
225.9708076914
 20
170.1105844349
 30
0.0
 11
239.3848555456
 21
170.1105844349
 31
0.0
  0
LINE
  5
DD
330
1F
100
AcDbEntity
  8
0
  6
Continuous
 62
     7
370
    15
100
AcDbLine
 10
225.9708076914
 20
167.1105844349
 30
0.0
 11
225.9708076914
 21
170.1105844349
 31
0.0
  0
SPLINE
  5
DE
330
1F
100
AcDbEntity
  8
0
  6
Continuous
 62
     7
370
    15
100
AcDbSpline
210
0.0
220
0.0
230
1.0
 70
     8
 71
     3
 72
    13
 73
     9
 74
     0
 42
0.00000001
 43
0.00000001
 12
1.0
 22
0.0
 32
0.0
 13
1.0
 23
0.0
 33
0.0
 40
0.0
 40
0.0
 40
0.0
 40
0.0
 40
0.1072683067300517
 40
0.2526661259242083
 40
0.4524263093240681
 40
0.6523506433572761
 40
0.852123323286705
 40
1.0
 40
1.0
 40
1.0
 40
1.0
 10
240.7605417352301
 20
153.9448086789291
 30
0.0
 10
240.7995211194942
 20
153.8813447390707
 30
0.0
 10
240.8913354709382
 20
153.7318580145318
 30
0.0
 10
241.0612679484649
 20
153.4813360129003
 30
0.0
 10
241.270808843968
 20
153.196919514157
 30
0.0
 10
241.5076479495336
 20
152.9111670381911
 30
0.0
 10
241.728218675632
 20
152.6706034489257
 30
0.0
 10
241.8713373721518
 20
152.537470109263
 30
0.0
 10
241.9322145658313
 20
152.4808403026695
 30
0.0
  0
LINE
  5
DF
330
1F
100
AcDbEntity
  8
0
  6
Continuous
 62
     8
370
     0
100
AcDbLine
 10
250.4708076914
 20
204.8738773675
 30
0.0
 11
250.4708076914
 21
169.0889615936
 31
0.0
  0
LINE
  5
E0
330
1F
100
AcDbEntity
  8
0
  6
Continuous
 62
     8
370
     0
100
AcDbLine
 10
242.4708076914
 20
169.0889615936
 30
0.0
 11
250.4708076914
 21
169.0889615936
 31
0.0
  0
LINE
  5
E1
330
1F
100
AcDbEntity
  8
0
  6
Continuous
 62
     8
370
     0
100
AcDbLine
 10
242.4708076914
 20
204.8738773675
 30
0.0
 11
242.4708076914
 21
169.0889615936
 31
0.0
  0
LINE
  5
E2
330
1F
100
AcDbEntity
  8
0
  6
Continuous
 62
     8
370
     0
100
AcDbLine
 10
242.4708076914
 20
204.8738773675
 30
0.0
 11
250.4708076914
 21
204.8738773675
 31
0.0
  0
ARC
  5
E3
330
1F
100
AcDbEntity
  8
0
  6
Continuous
 62
     8
370
     0
100
AcDbCircle
 10
242.4688499362
 20
204.3758350616
 30
0.0
 40
0.4980461538197672
100
AcDbArc
 50
89.7747770928
 51
179.7729923664
  0
LWPOLYLINE
  5
E4
330
1F
100
AcDbEntity
  8
0
  6
Continuous
 62
     8
370
     0
100
AcDbPolyline
 90
       13
 70
   128
 43
0.0
 10
241.9708076914
 20
169.2828054035
 10
241.9750852607
 20
169.2575037091
 10
241.9878447783
 20
169.2326349337
 10
242.0088679252
 20
169.208624589
 10
242.0377949895
 20
169.1858834985
 10
242.0741310213
 20
169.1648007688
 10
242.1172543008
 20
169.145737131
 10
242.1664269769
 20
169.1290187694
 10
242.2208076914
 20
169.1149317397
 10
242.2794659752
 20
169.103717075
 10
242.3413981689
 20
169.0955666612
 10
242.4055445953
 20
169.0906199542
 10
242.4708076914
 20
169.0889615936
  0
LWPOLYLINE
  5
E5
330
1F
100
AcDbEntity
  8
0
  6
Continuous
 62
     8
370
     0
100
AcDbPolyline
 90
       50
 70
   128
 43
0.0
 10
250.4708076914
 20
169.0889615936
 10
250.727220312
 20
169.0905550945
 10
250.9833694513
 20
169.0953339599
 10
251.2389918987
 20
169.1032932792
 10
251.4938249849
 20
169.1144248736
 10
251.7476068517
 20
169.1287173046
 10
252.000076721
 20
169.1461558859
 10
252.2509751631
 20
169.166722698
 10
252.5000443627
 20
169.1903966072
 10
252.7470283845
 20
169.217153287
 10
252.9916734356
 20
169.2469652431
 10
253.2337281268
 20
169.2798018416
 10
253.4729437305
 20
169.3156293408
 10
253.7090744364
 20
169.3544109254
 10
253.9418776044
 20
169.3961067448
 10
254.1711140133
 20
169.4406739536
 10
254.3965481074
 20
169.4880667562
 10
254.6179482379
 20
169.5382364531
 10
254.8350869011
 20
169.5911314916
 10
255.0477409724
 20
169.6466975185
 10
255.2556919353
 20
169.7048774359
 10
255.4587261063
 20
169.76561146
 10
255.6566348539
 20
169.8288371826
 10
255.8492148135
 20
169.8944896348
 10
256.0362680962
 20
169.9625013545
 10
256.2176024922
 20
170.0328024548
 10
256.393031668
 20
170.1053206968
 10
256.5623753584
 20
170.179981563
 10
256.7254595512
 20
170.2567083343
 10
256.8821166664
 20
170.3354221688
 10
257.0321857282
 20
170.4160421827
 10
257.1755125306
 20
170.4984855335
 10
257.3119497955
 20
170.582667505
 10
257.4413573244
 20
170.6685015946
 10
257.5636021424
 20
170.755899602
 10
257.6785586346
 20
170.8447717198
 10
257.7861086755
 20
170.9350266259
 10
257.8861417502
 20
171.0265715773
 10
257.9785550678
 20
171.1193125053
 10
258.0632536675
 20
171.2131541125
 10
258.1401505157
 20
171.3079999701
 10
258.2091665957
 20
171.4037526176
 10
258.2702309889
 20
171.5003136628
 10
258.3232809473
 20
171.5975838827
 10
258.3682619587
 20
171.6954633254
 10
258.405127802
 20
171.7938514133
 10
258.433840595
 20
171.892647046
 10
258.4543708334
 20
171.9917487042
 10
258.466697421
 20
172.0910545544
 10
258.4708076914
 20
172.190462553
  0
ARC
  5
E6
330
1F
100
AcDbEntity
  8
0
  6
Continuous
 62
     8
370
     0
100
AcDbCircle
 10
250.5023684478
 20
196.9054390198
 30
0.0
 40
7.968500849140034
100
AcDbArc
 50
0.2252991639
 51
90.2269313769
  0
LINE
  5
E7
330
1F
100
AcDbEntity
  8
0
  6
Continuous
 62
     8
370
     0
100
AcDbLine
 10
250.4708076914
 20
155.1322072762
 30
0.0
 11
250.4708076914
 21
119.3472915022
 31
0.0
  0
LINE
  5
E8
330
1F
100
AcDbEntity
  8
0
  6
Continuous
 62
     8
370
     0
100
AcDbLine
 10
242.4708076914
 20
119.3472915022
 30
0.0
 11
250.4708076914
 21
119.3472915022
 31
0.0
  0
LINE
  5
E9
330
1F
100
AcDbEntity
  8
0
  6
Continuous
 62
     8
370
     0
100
AcDbLine
 10
242.4708076914
 20
155.1322072762
 30
0.0
 11
242.4708076914
 21
119.3472915022
 31
0.0
  0
LINE
  5
EA
330
1F
100
AcDbEntity
  8
0
  6
Continuous
 62
     8
370
     0
100
AcDbLine
 10
242.4708076914
 20
155.1322072762
 30
0.0
 11
250.4708076914
 21
155.1322072762
 31
0.0
  0
ARC
  5
EB
330
1F
100
AcDbEntity
  8
0
  6
Continuous
 62
     8
370
     0
100
AcDbCircle
 10
250.5023684478
 20
127.31572985
 30
0.0
 40
7.968500849139967
100
AcDbArc
 50
269.7730686231
 51
359.7747008361
  0
LWPOLYLINE
  5
EC
330
1F
100
AcDbEntity
  8
0
  6
Continuous
 62
     8
370
     0
100
AcDbPolyline
 90
       50
 70
   128
 43
0.0
 10
250.4708076914
 20
155.1322072762
 10
250.727220312
 20
155.1306137753
 10
250.9833694513
 20
155.1258349099
 10
251.2389918987
 20
155.1178755906
 10
251.4938249849
 20
155.1067439962
 10
251.7476068517
 20
155.0924515652
 10
252.000076721
 20
155.0750129839
 10
252.2509751631
 20
155.0544461718
 10
252.5000443627
 20
155.0307722626
 10
252.7470283845
 20
155.0040155828
 10
252.9916734356
 20
154.9742036267
 10
253.2337281268
 20
154.9413670282
 10
253.4729437305
 20
154.905539529
 10
253.7090744364
 20
154.8667579444
 10
253.9418776044
 20
154.825062125
 10
254.1711140133
 20
154.7804949161
 10
254.3965481074
 20
154.7331021136
 10
254.6179482379
 20
154.6829324167
 10
254.8350869011
 20
154.6300373782
 10
255.0477409724
 20
154.5744713513
 10
255.2556919353
 20
154.5162914339
 10
255.4587261063
 20
154.4555574098
 10
255.6566348539
 20
154.3923316872
 10
255.8492148135
 20
154.326679235
 10
256.0362680962
 20
154.2586675153
 10
256.2176024922
 20
154.1883664149
 10
256.393031668
 20
154.115848173
 10
256.5623753584
 20
154.0411873068
 10
256.7254595512
 20
153.9644605354
 10
256.8821166664
 20
153.885746701
 10
257.0321857282
 20
153.8051266871
 10
257.1755125306
 20
153.7226833363
 10
257.3119497955
 20
153.6385013648
 10
257.4413573244
 20
153.5526672751
 10
257.5636021424
 20
153.4652692677
 10
257.6785586346
 20
153.3763971499
 10
257.7861086755
 20
153.2861422438
 10
257.8861417502
 20
153.1945972925
 10
257.9785550678
 20
153.1018563644
 10
258.0632536675
 20
153.0080147573
 10
258.1401505157
 20
152.9131688997
 10
258.2091665957
 20
152.8174162522
 10
258.2702309889
 20
152.720855207
 10
258.3232809473
 20
152.6235849871
 10
258.3682619587
 20
152.5257055444
 10
258.405127802
 20
152.4273174565
 10
258.433840595
 20
152.3285218238
 10
258.4543708334
 20
152.2294201655
 10
258.466697421
 20
152.1301143154
 10
258.4708076914
 20
152.0307063168
  0
LWPOLYLINE
  5
ED
330
1F
100
AcDbEntity
  8
0
  6
Continuous
 62
     8
370
     0
100
AcDbPolyline
 90
       13
 70
   128
 43
0.0
 10
241.9708076914
 20
154.9383634662
 10
241.9750852607
 20
154.9636651606
 10
241.9878447783
 20
154.988533936
 10
242.0088679252
 20
155.0125442808
 10
242.0377949895
 20
155.0352853712
 10
242.0741310213
 20
155.056368101
 10
242.1172543008
 20
155.0754317388
 10
242.1664269769
 20
155.0921501004
 10
242.2208076914
 20
155.10623713
 10
242.2794659752
 20
155.1174517948
 10
242.3413981689
 20
155.1256022086
 10
242.4055445953
 20
155.1305489155
 10
242.4708076914
 20
155.1322072762
  0
ARC
  5
EE
330
1F
100
AcDbEntity
  8
0
  6
Continuous
 62
     8
370
     0
100
AcDbCircle
 10
242.4688499362
 20
119.8453338082
 30
0.0
 40
0.4980461538197354
100
AcDbArc
 50
180.2270076336
 51
270.2252229072
  0
LINE
  5
EF
330
1F
100
AcDbEntity
  8
0
  6
Continuous
 62
     8
370
     0
100
AcDbLine
 10
250.4708076914
 20
169.0889615936
 30
0.0
 11
250.4708076914
 21
155.1322072762
 31
0.0
  0
LINE
  5
F0
330
1F
100
AcDbEntity
  8
0
  6
Continuous
 62
     8
370
     0
100
AcDbLine
 10
242.4708076914
 20
169.0889615936
 30
0.0
 11
242.4708076914
 21
155.1322072762
 31
0.0
  0
LINE
  5
F1
330
1F
100
AcDbEntity
  8
0
  6
Continuous
 62
     8
370
     0
100
AcDbLine
 10
240.4139010114
 20
184.1671930959
 30
0.0
 11
240.4139010114
 21
183.5217494608
 31
0.0
  0
LINE
  5
F2
330
1F
100
AcDbEntity
  8
0
  6
Continuous
 62
     8
370
     0
100
AcDbLine
 10
240.4139010114
 20
164.1548601819
 30
0.0
 11
240.4139010114
 21
161.4476278627
 31
0.0
  0
LINE
  5
F3
330
1F
100
AcDbEntity
  8
0
  6
Continuous
 62
     8
370
     0
100
AcDbLine
 10
240.0155219545
 20
166.8014935258
 30
0.0
 11
241.9708076914
 21
166.8014935258
 31
0.0
  0
LINE
  5
F4
330
1F
100
AcDbEntity
  8
0
  6
Continuous
 62
     8
370
     0
100
AcDbLine
 10
250.4708076914
 20
211.8522545262
 30
0.0
 11
250.4708076914
 21
204.8738773675
 31
0.0
  0
LINE
  5
F5
330
1F
100
AcDbEntity
  8
0
  6
Continuous
 62
     8
370
     0
100
AcDbLine
 10
242.4708076914
 20
211.8522545262
 30
0.0
 11
242.4708076914
 21
204.8738773675
 31
0.0
  0
LINE
  5
F6
330
1F
100
AcDbEntity
  8
0
  6
Continuous
 62
     8
370
     0
100
AcDbLine
 10
242.4708076914
 20
211.8522545262
 30
0.0
 11
250.4708076914
 21
211.8522545262
 31
0.0
  0
LWPOLYLINE
  5
F7
330
1F
100
AcDbEntity
  8
0
  6
Continuous
 62
     8
370
     0
100
AcDbPolyline
 90
       13
 70
   128
 43
0.0
 10
241.9708076914
 20
211.5500292992
 10
241.9750852607
 20
211.5894776073
 10
241.9878447783
 20
211.6282509438
 10
242.0088679252
 20
211.6656858864
 10
242.0377949895
 20
211.7011419127
 10
242.0741310213
 20
211.7340123603
 10
242.1172543008
 20
211.7637348067
 10
242.1664269769
 20
211.7898006926
 10
242.2208076914
 20
211.8117640235
 10
242.2794659752
 20
211.8292490007
 10
242.3413981689
 20
211.8419564513
 10
242.4055445953
 20
211.8496689475
 10
242.4708076914
 20
211.8522545262
  0
LWPOLYLINE
  5
F8
330
1F
100
AcDbEntity
  8
0
  6
Continuous
 62
     8
370
     0
100
AcDbPolyline
 90
       50
 70
   128
 43
0.0
 10
250.4708076914
 20
211.8522545262
 10
250.727220312
 20
211.8497700714
 10
250.9833694513
 20
211.8423192599
 10
251.2389918987
 20
211.829909748
 10
251.4938249849
 20
211.8125542872
 10
251.7476068517
 20
211.7902707115
 10
252.000076721
 20
211.7630819188
 10
252.2509751631
 20
211.7310158473
 10
252.5000443627
 20
211.6941054471
 10
252.7470283845
 20
211.6523886462
 10
252.9916734356
 20
211.6059083114
 10
253.2337281268
 20
211.5547122044
 10
253.4729437305
 20
211.4988529326
 10
253.7090744364
 20
211.4383878952
 10
253.9418776044
 20
211.3733792241
 10
254.1711140133
 20
211.3038937202
 10
254.3965481074
 20
211.2300027844
 10
254.6179482379
 20
211.1517823448
 10
254.8350869011
 20
211.0693127781
 10
255.0477409724
 20
210.9826788273
 10
255.2556919353
 20
210.8919695147
 10
255.4587261063
 20
210.7972780503
 10
255.6566348539
 20
210.6987017359
 10
255.8492148135
 20
210.5963418654
 10
256.0362680962
 20
210.4903036204
 10
256.2176024922
 20
210.3806959624
 10
256.393031668
 20
210.2676315207
 10
256.5623753584
 20
210.1512264767
 10
256.7254595512
 20
210.0316004443
 10
256.8821166664
 20
209.9088763475
 10
257.0321857282
 20
209.7831802935
 10
257.1755125306
 20
209.6546414436
 10
257.3119497955
 20
209.52339188
 10
257.4413573244
 20
209.3895664706
 10
257.5636021424
 20
209.2533027301
 10
257.6785586346
 20
209.1147406786
 10
257.7861086755
 20
208.974022698
 10
257.8861417502
 20
208.8312933855
 10
257.9785550678
 20
208.6866994053
 10
258.0632536675
 20
208.5403893373
 10
258.1401505157
 20
208.392513525
 10
258.2091665957
 20
208.2432239209
 10
258.2702309889
 20
208.0926739301
 10
258.3232809473
 20
207.9410182529
 10
258.3682619587
 20
207.7884127257
 10
258.405127802
 20
207.6350141611
 10
258.433840595
 20
207.4809801864
 10
258.4543708334
 20
207.326469082
 10
258.466697421
 20
207.1716396185
 10
258.4708076914
 20
207.0166508935
  0
LINE
  5
F9
330
1F
100
AcDbEntity
  8
0
  6
Continuous
 62
     8
370
     0
100
AcDbLine
 10
250.4708076914
 20
119.3472915022
 30
0.0
 11
250.4708076914
 21
112.3689143436
 31
0.0
  0
LINE
  5
FA
330
1F
100
AcDbEntity
  8
0
  6
Continuous
 62
     8
370
     0
100
AcDbLine
 10
242.4708076914
 20
112.3689143436
 30
0.0
 11
250.4708076914
 21
112.3689143436
 31
0.0
  0
LINE
  5
FB
330
1F
100
AcDbEntity
  8
0
  6
Continuous
 62
     8
370
     0
100
AcDbLine
 10
242.4708076914
 20
119.3472915022
 30
0.0
 11
242.4708076914
 21
112.3689143436
 31
0.0
  0
LWPOLYLINE
  5
FC
330
1F
100
AcDbEntity
  8
0
  6
Continuous
 62
     8
370
     0
100
AcDbPolyline
 90
       13
 70
   128
 43
0.0
 10
242.4708076914
 20
112.3689143436
 10
242.4055445953
 20
112.3714999223
 10
242.3413981689
 20
112.3792124184
 10
242.2794659752
 20
112.3919198691
 10
242.2208076914
 20
112.4094048463
 10
242.1664269769
 20
112.4313681772
 10
242.1172543008
 20
112.4574340631
 10
242.0741310213
 20
112.4871565095
 10
242.0377949895
 20
112.5200269571
 10
242.0088679252
 20
112.5554829834
 10
241.9878447783
 20
112.5929179259
 10
241.9750852607
 20
112.6316912625
 10
241.9708076914
 20
112.6711395706
  0
LWPOLYLINE
  5
FD
330
1F
100
AcDbEntity
  8
0
  6
Continuous
 62
     8
370
     0
100
AcDbPolyline
 90
       50
 70
   128
 43
0.0
 10
250.4708076914
 20
112.3689143436
 10
250.727220312
 20
112.3713987984
 10
250.9833694513
 20
112.3788496098
 10
251.2389918987
 20
112.3912591218
 10
251.4938249849
 20
112.4086145825
 10
251.7476068517
 20
112.4308981582
 10
252.000076721
 20
112.458086951
 10
252.2509751631
 20
112.4901530225
 10
252.5000443627
 20
112.5270634227
 10
252.7470283845
 20
112.5687802236
 10
252.9916734356
 20
112.6152605584
 10
253.2337281268
 20
112.6664566654
 10
253.4729437305
 20
112.7223159372
 10
253.7090744364
 20
112.7827809746
 10
253.9418776044
 20
112.8477896457
 10
254.1711140133
 20
112.9172751496
 10
254.3965481074
 20
112.9911660854
 10
254.6179482379
 20
113.069386525
 10
254.8350869011
 20
113.1518560917
 10
255.0477409724
 20
113.2384900425
 10
255.2556919353
 20
113.3291993551
 10
255.4587261063
 20
113.4238908195
 10
255.6566348539
 20
113.5224671339
 10
255.8492148135
 20
113.6248270044
 10
256.0362680962
 20
113.7308652494
 10
256.2176024922
 20
113.8404729074
 10
256.393031668
 20
113.953537349
 10
256.5623753584
 20
114.0699423931
 10
256.7254595512
 20
114.1895684254
 10
256.8821166664
 20
114.3122925223
 10
257.0321857282
 20
114.4379885762
 10
257.1755125306
 20
114.5665274262
 10
257.3119497955
 20
114.6977769898
 10
257.4413573244
 20
114.8316023992
 10
257.5636021424
 20
114.9678661397
 10
257.6785586346
 20
115.1064281912
 10
257.7861086755
 20
115.2471461718
 10
257.8861417502
 20
115.3898754842
 10
257.9785550678
 20
115.5344694645
 10
258.0632536675
 20
115.6807795325
 10
258.1401505157
 20
115.8286553447
 10
258.2091665957
 20
115.9779449489
 10
258.2702309889
 20
116.1284949397
 10
258.3232809473
 20
116.2801506169
 10
258.3682619587
 20
116.4327561441
 10
258.405127802
 20
116.5861547087
 10
258.433840595
 20
116.7401886834
 10
258.4543708334
 20
116.8946997878
 10
258.466697421
 20
117.0495292513
 10
258.4708076914
 20
117.2045179763
  0
LINE
  5
FE
330
1F
100
AcDbEntity
  8
0
  6
Continuous
 62
     8
370
     0
100
AcDbLine
 10
240.4139010114
 20
147.602943324
 30
0.0
 11
240.4139010114
 21
145.6475908001
 31
0.0
  0
LINE
  5
FF
330
1F
100
AcDbEntity
  8
0
  6
Continuous
 62
     8
370
     0
100
AcDbLine
 10
240.0155219545
 20
144.5809953638
 30
0.0
 11
241.9708076914
 21
144.5809953638
 31
0.0
  0
LINE
  5
100
330
1F
100
AcDbEntity
  8
0
  6
Continuous
 62
     8
370
     0
100
AcDbLine
 10
240.0155219545
 20
181.6560389803
 30
0.0
 11
241.9708076914
 21
181.6560389803
 31
0.0
  0
LINE
  5
101
330
1F
100
AcDbEntity
  8
0
  6
Continuous
 62
     8
370
     0
100
AcDbLine
 10
250.4708076914
 20
211.8522545262
 30
0.0
 11
250.4708076914
 21
222.1105844349
 31
0.0
  0
LINE
  5
102
330
1F
100
AcDbEntity
  8
0
  6
Continuous
 62
     8
370
     0
100
AcDbLine
 10
242.4708076914
 20
222.1105844349
 30
0.0
 11
242.4708076914
 21
211.8522545262
 31
0.0
  0
LINE
  5
103
330
1F
100
AcDbEntity
  8
0
  6
Continuous
 62
     8
370
     0
100
AcDbLine
 10
250.4708076914
 20
112.3689143436
 30
0.0
 11
250.4708076914
 21
102.1105844349
 31
0.0
  0
LINE
  5
104
330
1F
100
AcDbEntity
  8
0
  6
Continuous
 62
     8
370
     0
100
AcDbLine
 10
242.4708076914
 20
112.3689143436
 30
0.0
 11
242.4708076914
 21
102.1105844349
 31
0.0
  0
LINE
  5
105
330
1F
100
AcDbEntity
  8
0
  6
Continuous
 62
     8
370
     0
100
AcDbLine
 10
241.9708076914
 20
157.1105844349
 30
0.0
 11
239.9708076914
 21
157.1105844349
 31
0.0
  0
LINE
  5
106
330
1F
100
AcDbEntity
  8
0
  6
Continuous
 62
     8
370
     0
100
AcDbLine
 10
239.9708076914
 20
157.1105844349
 30
0.0
 11
239.9708076914
 21
162.2626421191
 31
0.0
  0
LINE
  5
107
330
1F
100
AcDbEntity
  8
0
  6
Continuous
 62
     8
370
     0
100
AcDbLine
 10
239.9708076914
 20
154.1105844349
 30
0.0
 11
239.9708076914
 21
157.1105844349
 31
0.0
  0
LINE
  5
108
330
1F
100
AcDbEntity
  8
0
  6
Continuous
 62
     8
370
     0
100
AcDbLine
 10
225.9708076914
 20
167.1105844349
 30
0.0
 11
239.3848555456
 21
167.1105844349
 31
0.0
  0
LINE
  5
109
330
1F
100
AcDbEntity
  8
0
  6
Continuous
 62
     8
370
     0
100
AcDbLine
 10
225.9708076914
 20
157.1105844349
 30
0.0
 11
239.9708076914
 21
157.1105844349
 31
0.0
  0
LINE
  5
10A
330
1F
100
AcDbEntity
  8
FORMAT
  6
CENTERX2
 62
     7
370
     0
100
AcDbLine
 10
222.8245740247
 20
162.1105844349
 30
0.0
 11
265.2346626462
 21
162.1105844349
 31
0.0
  0
LINE
  5
10B
330
1F
100
AcDbEntity
  8
0
  6
Continuous
 62
     7
370
    15
100
AcDbLine
 10
133.9695424079
 20
20.6982050238
 30
0.0
 11
133.9695424079
 21
28.6982050238
 31
0.0
  0
ARC
  5
10C
330
1F
100
AcDbEntity
  8
0
  6
Continuous
 62
     7
370
    15
100
AcDbCircle
 10
125.9695424079
 20
20.6982050238
 30
0.0
 40
8.000000000000004
100
AcDbArc
 50
270.0
 51
0.0
  0
LINE
  5
10D
330
1F
100
AcDbEntity
  8
0
  6
Continuous
 62
     7
370
    15
100
AcDbLine
 10
23.0973993508
 20
28.6982050238
 30
0.0
 11
23.0973993508
 21
20.6982050238
 31
0.0
  0
ARC
  5
10E
330
1F
100
AcDbEntity
  8
0
  6
Continuous
 62
     7
370
    15
100
AcDbCircle
 10
23.5973993508
 20
28.6982050238
 30
0.0
 40
0.5
100
AcDbArc
 50
90.0
 51
180.0
  0
ARC
  5
10F
330
1F
100
AcDbEntity
  8
0
  6
Continuous
 62
     7
370
    15
100
AcDbCircle
 10
31.0973993508
 20
20.6982050238
 30
0.0
 40
8.000000000000007
100
AcDbArc
 50
180.0
 51
270.0
  0
ARC
  5
110
330
1F
100
AcDbEntity
  8
0
  6
Continuous
 62
     7
370
    15
100
AcDbCircle
 10
133.4695424079
 20
28.6982050238
 30
0.0
 40
0.5
100
AcDbArc
 50
0.0
 51
90.0
  0
LINE
  5
111
330
1F
100
AcDbEntity
  8
0
  6
Continuous
 62
     7
370
    15
100
AcDbLine
 10
75.077031642
 20
29.1982050238
 30
0.0
 11
75.077031642
 21
29.368216846
 31
0.0
  0
ARC
  5
112
330
1F
100
AcDbEntity
  8
0
  6
Continuous
 62
     7
370
    15
100
AcDbCircle
 10
101.0506115539
 20
-64.1432350561
 30
0.0
 40
105.0
100
AcDbArc
 50
115.3386878381
 51
117.2563868555
  0
LINE
  5
113
330
1F
100
AcDbEntity
  8
0
  6
Continuous
 62
     7
370
    15
100
AcDbLine
 10
89.1483602024
 20
30.5463828296
 30
0.0
 11
89.1483602024
 21
29.1982050238
 31
0.0
  0
ARC
  5
114
330
1F
100
AcDbEntity
  8
0
  6
Continuous
 62
     7
370
    15
100
AcDbCircle
 10
62.5334708793
 20
17.1982050238
 30
0.0
 40
15.00000000000001
100
AcDbArc
 50
111.7050347289
 51
115.3386878381
  0
ARC
  5
115
330
1F
100
AcDbEntity
  8
0
  6
Continuous
 62
     7
370
    15
100
AcDbCircle
 10
94.5334708793
 20
17.1982050238
 30
0.0
 40
15.0
100
AcDbArc
 50
68.4898117331
 51
76.5066011784
  0
LINE
  5
116
330
1F
100
AcDbEntity
  8
0
  6
Continuous
 62
     7
370
    15
100
AcDbLine
 10
100.0334708793
 20
29.1982050238
 30
0.0
 11
100.0334708793
 21
31.1534907607
 31
0.0
  0
LINE
  5
117
330
1F
100
AcDbEntity
  8
0
  6
Continuous
 62
     7
370
    15
100
AcDbLine
 10
58.2713614922
 20
29.1982050238
 30
0.0
 11
98.7955802665
 21
29.1982050238
 31
0.0
  0
LINE
  5
118
330
1F
100
AcDbEntity
  8
0
  6
Continuous
 62
     7
370
    15
100
AcDbLine
 10
64.246182011
 20
12.6982050238
 30
0.0
 11
92.8207597477
 21
12.6982050238
 31
0.0
  0
LINE
  5
119
330
1F
100
AcDbEntity
  8
0
  6
Continuous
 62
     7
370
    15
100
AcDbLine
 10
110.2796207824
 20
12.6982050238
 30
0.0
 11
105.8000407491
 21
12.6982050238
 31
0.0
  0
LINE
  5
11A
330
1F
100
AcDbEntity
  8
0
  6
Continuous
 62
     7
370
    15
100
AcDbLine
 10
95.9026152953
 20
12.6982050238
 30
0.0
 11
95.9130260236
 21
12.6982058127
 31
0.0
  0
SPLINE
  5
11B
330
1F
100
AcDbEntity
  8
0
  6
Continuous
 62
     7
370
    15
100
AcDbSpline
210
0.0
220
0.0
230
1.0
 70
     8
 71
     3
 72
    10
 73
     6
 74
     0
 42
0.00000001
 43
0.00000001
 12
1.0
 22
0.0
 32
0.0
 13
1.0
 23
0.0
 33
0.0
 40
0.0
 40
0.0
 40
0.0
 40
0.0
 40
0.5
 40
0.5
 40
1.0
 40
1.0
 40
1.0
 40
1.0
 10
95.9280269674266
 20
12.6982065653747
 30
0.0
 10
97.51717221122396
 20
12.69839903231407
 30
0.0
 10
99.13568706455409
 20
12.71219556927469
 30
0.0
 10
102.428700082842
 20
12.7120998903558
 30
0.0
 10
104.103079628069
 20
12.69820502377297
 30
0.0
 10
105.8000407490668
 20
12.69820502377297
 30
0.0
  0
LINE
  5
11C
330
1F
100
AcDbEntity
  8
0
  6
Continuous
 62
     7
370
    15
100
AcDbLine
 10
95.9026152953
 20
12.6982050238
 30
0.0
 11
92.8207597477
 21
12.6982050238
 31
0.0
  0
LINE
  5
11D
330
1F
100
AcDbEntity
  8
0
  6
Continuous
 62
     7
370
    15
100
AcDbLine
 10
45.8487103714
 20
29.1982050238
 30
0.0
 11
58.2713614922
 21
29.1982050238
 31
0.0
  0
LINE
  5
11E
330
1F
100
AcDbEntity
  8
0
  6
Continuous
 62
     7
370
    15
100
AcDbLine
 10
51.2669010096
 20
12.6982050238
 30
0.0
 11
46.7873209763
 21
12.6982050238
 31
0.0
  0
SPLINE
  5
11F
330
1F
100
AcDbEntity
  8
0
  6
Continuous
 62
     7
370
    15
100
AcDbSpline
210
0.0
220
0.0
230
1.0
 70
     8
 71
     3
 72
    10
 73
     6
 74
     0
 42
0.00000001
 43
0.00000001
 12
1.0
 22
0.0
 32
0.0
 13
1.0
 23
0.0
 33
0.0
 40
0.0
 40
0.0
 40
0.0
 40
0.0
 40
0.5
 40
0.5
 40
1.0
 40
1.0
 40
1.0
 40
1.0
 10
51.2669010096185
 20
12.69820502377296
 30
0.0
 10
52.96838475274926
 20
12.69820502377296
 30
0.0
 10
54.64615188884088
 20
12.71214602624252
 30
0.0
 10
57.94767902543704
 20
12.71214980083532
 30
0.0
 10
59.57094593066649
 20
12.69820502377296
 30
0.0
 10
61.16432646335343
 20
12.69820502377296
 30
0.0
  0
LINE
  5
120
330
1F
100
AcDbEntity
  8
0
  6
Continuous
 62
     7
370
    15
100
AcDbLine
 10
64.246182011
 20
12.6982050238
 30
0.0
 11
61.1643264634
 21
12.6982050238
 31
0.0
  0
LINE
  5
121
330
1F
100
AcDbEntity
  8
0
  6
Continuous
 62
     7
370
    15
100
AcDbLine
 10
98.7955802665
 20
29.1982050238
 30
0.0
 11
111.2182313873
 21
29.1982050238
 31
0.0
  0
LINE
  5
122
330
1F
100
AcDbEntity
  8
0
  6
Continuous
 62
     7
370
    15
100
AcDbLine
 10
123.1680865499
 20
12.6982062508
 30
0.0
 11
123.1691851651
 21
12.6982050238
 31
0.0
  0
LINE
  5
123
330
1F
100
AcDbEntity
  8
0
  6
Continuous
 62
     7
370
    15
100
AcDbLine
 10
33.8977565936
 20
12.6982050238
 30
0.0
 11
33.8988986555
 21
12.6982062993
 31
0.0
  0
LINE
  5
124
330
1F
100
AcDbEntity
  8
0
  6
Continuous
 62
     7
370
    15
100
AcDbLine
 10
125.9695424079
 20
12.6982050238
 30
0.0
 11
110.2796207824
 21
12.6982050238
 31
0.0
  0
LINE
  5
125
330
1F
100
AcDbEntity
  8
0
  6
Continuous
 62
     7
370
    15
100
AcDbLine
 10
23.5973993508
 20
29.1982050238
 30
0.0
 11
45.8487103714
 21
29.1982050238
 31
0.0
  0
LINE
  5
126
330
1F
100
AcDbEntity
  8
0
  6
Continuous
 62
     7
370
    15
100
AcDbLine
 10
46.7873209763
 20
12.6982050238
 30
0.0
 11
31.0973993508
 21
12.6982050238
 31
0.0
  0
LINE
  5
127
330
1F
100
AcDbEntity
  8
0
  6
Continuous
 62
     7
370
    15
100
AcDbLine
 10
111.2182313873
 20
29.1982050238
 30
0.0
 11
133.4695424079
 21
29.1982050238
 31
0.0
  0
SPLINE
  5
128
330
1F
100
AcDbEntity
  8
0
  6
Continuous
 62
     7
370
    15
100
AcDbSpline
210
0.0
220
0.0
230
1.0
 70
     8
 71
     3
 72
    16
 73
    12
 74
     0
 42
0.00000001
 43
0.00000001
 12
1.0
 22
0.0
 32
0.0
 13
1.0
 23
0.0
 33
0.0
 40
0.0
 40
0.0
 40
0.0
 40
0.0
 40
0.1065033011833841
 40
0.2130078352119131
 40
0.3203254140907892
 40
0.4276440431108209
 40
0.5374034733544906
 40
0.6471638280306524
 40
0.7577114469073927
 40
0.8682598064863077
 40
1.0
 40
1.0
 40
1.0
 40
1.0
 10
74.51587882587785
 20
30.75511170374354
 30
0.0
 10
74.55907842798322
 20
30.70568891490496
 30
0.0
 10
74.64547813225751
 20
30.60684276512677
 30
0.0
 10
74.75477037929677
 20
30.45186606826241
 30
0.0
 10
74.84918033504132
 20
30.29236904981014
 30
0.0
 10
74.92779692340604
 20
30.12699808138408
 30
0.0
 10
74.9903834354632
 20
29.9565683573782
 30
0.0
 10
75.03680654413702
 20
29.78094598383994
 30
0.0
 10
75.06605409684731
 20
29.60169220351643
 30
0.0
 10
75.08108136144484
 20
29.40776079405076
 30
0.0
 10
75.07330570969434
 20
29.2720146386188
 30
0.0
 10
75.06907783407567
 20
29.19820502377285
 30
0.0
  0
SPLINE
  5
129
330
1F
100
AcDbEntity
  8
0
  6
Continuous
 62
     7
370
    15
100
AcDbSpline
210
0.0
220
0.0
230
1.0
 70
     8
 71
     3
 72
    18
 73
    14
 74
     0
 42
0.00000001
 43
0.00000001
 12
1.0
 22
0.0
 32
0.0
 13
1.0
 23
0.0
 33
0.0
 40
0.0
 40
0.0
 40
0.0
 40
0.0
 40
0.2499999999999995
 40
0.2499999999999995
 40
0.3749999999999996
 40
0.3749999999999996
 40
0.4999999999999998
 40
0.4999999999999998
 40
0.75
 40
0.75
 40
0.875
 40
0.875
 40
1.0
 40
1.0
 40
1.0
 40
1.0
 10
70.40981396555779
 20
31.78415716958779
 30
0.0
 10
70.88622475442784
 20
31.78415716958778
 30
0.0
 10
71.33319202013391
 20
31.767328185669
 30
0.0
 10
71.96129044377298
 20
31.71406090828882
 30
0.0
 10
72.16354286134357
 20
31.69152648743012
 30
0.0
 10
72.553488091416
 20
31.63516397422611
 30
0.0
 10
72.74018623367333
 20
31.60137950458664
 30
0.0
 10
73.26574345586191
 20
31.48284947217488
 30
0.0
 10
73.5745806948561
 20
31.38053858164368
 30
0.0
 10
73.97727569853024
 20
31.18089957652176
 30
0.0
 10
74.10158813782068
 20
31.10630832711314
 30
0.0
 10
74.32584224300943
 20
30.9424109681488
 30
0.0
 10
74.4263903819895
 20
30.85287890526763
 30
0.0
 10
74.51587882587857
 20
30.75511170374407
 30
0.0
  0
SPLINE
  5
12A
330
1F
100
AcDbEntity
  8
0
  6
Continuous
 62
     7
370
    15
100
AcDbSpline
210
0.0
220
0.0
230
1.0
 70
     8
 71
     3
 72
    19
 73
    15
 74
     0
 42
0.00000001
 43
0.00000001
 12
1.0
 22
0.0
 32
0.0
 13
1.0
 23
0.0
 33
0.0
 40
0.0
 40
0.0
 40
0.0
 40
0.0
 40
0.0397573480842858
 40
0.1424969455184851
 40
0.2451457276892969
 40
0.3512776996780986
 40
0.4575129862258878
 40
0.5636323584129708
 40
0.6355877936531525
 40
0.7075804766711695
 40
0.7795323540426523
 40
0.8530081736580535
 40
0.9265286813637192
 40
1.0
 40
1.0
 40
1.0
 40
1.0
 10
52.96427920706347
 20
29.19820502377281
 30
0.0
 10
53.01225866950492
 20
29.22295586682645
 30
0.0
 10
53.18422503987328
 20
29.31166700336086
 30
0.0
 10
53.47646166595549
 20
29.46026248963085
 30
0.0
 10
53.84351474677829
 20
29.6451856742513
 30
0.0
 10
54.20779764729374
 20
29.82616911321501
 30
0.0
 10
54.56775244486155
 20
30.00238116142768
 30
0.0
 10
54.88011764875963
 20
30.1527086203076
 30
0.0
 10
55.14698327188018
 20
30.27904988820134
 30
0.0
 10
55.37138155958297
 20
30.3837137809617
 30
0.0
 10
55.59077126018853
 20
30.48435368574448
 30
0.0
 10
55.80409970819973
 20
30.58029870449141
 30
0.0
 10
56.01142997942748
 20
30.67164939572463
 30
0.0
 10
56.14205349729833
 20
30.72729714168972
 30
0.0
 10
56.20734340042909
 20
30.75511170374354
 30
0.0
  0
SPLINE
  5
12B
330
1F
100
AcDbEntity
  8
0
  6
Continuous
 62
     7
370
    15
100
AcDbSpline
210
0.0
220
0.0
230
1.0
 70
     8
 71
     3
 72
    18
 73
    14
 74
     0
 42
0.00000001
 43
0.00000001
 12
1.0
 22
0.0
 32
0.0
 13
1.0
 23
0.0
 33
0.0
 40
0.0
 40
0.0
 40
0.0
 40
0.0
 40
0.0874647500917584
 40
0.1752098837403332
 40
0.2631239388763993
 40
0.3510681814262003
 40
0.4388830966841153
 40
0.5263945230834485
 40
0.6309720209419094
 40
0.7358373639642563
 40
0.8408214255916654
 40
0.9457271663966421
 40
1.0
 40
1.0
 40
1.0
 40
1.0
 10
71.88538515733374
 20
30.75511170374354
 30
0.0
 10
71.95314695117766
 20
30.72184153939114
 30
0.0
 10
72.08888776114938
 20
30.65519455735449
 30
0.0
 10
72.26955821232458
 20
30.54391527129905
 30
0.0
 10
72.4335484104943
 20
30.42520472890831
 30
0.0
 10
72.57885433177933
 20
30.29904044225188
 30
0.0
 10
72.70559358020265
 20
30.16650065417667
 30
0.0
 10
72.82049281354065
 20
30.01911593473845
 30
0.0
 10
72.91899254193021
 20
29.85588095472182
 30
0.0
 10
72.99750585780006
 20
29.67630308591399
 30
0.0
 10
73.04906545295992
 20
29.49043512978289
 30
0.0
 10
73.07503638323587
 20
29.33081971006364
 30
0.0
 10
73.07412576871464
 20
29.23192405551626
 30
0.0
 10
73.07381528955266
 20
29.19820502377285
 30
0.0
  0
SPLINE
  5
12C
330
1F
100
AcDbEntity
  8
0
  6
Continuous
 62
     7
370
    15
100
AcDbSpline
210
0.0
220
0.0
230
1.0
 70
     8
 71
     3
 72
    12
 73
     8
 74
     0
 42
0.00000001
 43
0.00000001
 12
1.0
 22
0.0
 32
0.0
 13
1.0
 23
0.0
 33
0.0
 40
0.0
 40
0.0
 40
0.0
 40
0.0
 40
0.4999999999999989
 40
0.4999999999999989
 40
0.7499999999999994
 40
0.7499999999999994
 40
1.0
 40
1.0
 40
1.0
 40
1.0
 10
69.57661838465673
 20
31.15349076072583
 30
0.0
 10
70.03994292954351
 20
31.15349076072583
 30
0.0
 10
70.46555224649961
 20
31.12186953384114
 30
0.0
 10
71.04975970410136
 20
31.02385020754049
 30
0.0
 10
71.23560953259563
 20
30.98228849297424
 30
0.0
 10
71.57934336266153
 20
30.88217320900443
 30
0.0
 10
71.73856228573588
 20
30.82345520106751
 30
0.0
 10
71.88538515733374
 20
30.75511170374354
 30
0.0
  0
SPLINE
  5
12D
330
1F
100
AcDbEntity
  8
0
  6
Continuous
 62
     7
370
    15
100
AcDbSpline
210
0.0
220
0.0
230
1.0
 70
     8
 71
     3
 72
    18
 73
    14
 74
     0
 42
0.00000001
 43
0.00000001
 12
1.0
 22
0.0
 32
0.0
 13
1.0
 23
0.0
 33
0.0
 40
0.0
 40
0.0
 40
0.0
 40
0.0
 40
0.2499999999999987
 40
0.2499999999999987
 40
0.3749999999999988
 40
0.3749999999999988
 40
0.4999999999999989
 40
0.4999999999999989
 40
0.7499999999999996
 40
0.7499999999999996
 40
0.8749999999999998
 40
0.8749999999999998
 40
1.0
 40
1.0
 40
1.0
 40
1.0
 10
89.16419330756453
 20
30.75511170374354
 30
0.0
 10
89.1947722477311
 20
30.95057652799798
 30
0.0
 10
89.26958036775943
 20
31.11142885880477
 30
0.0
 10
89.45317046135742
 20
31.31050122944666
 30
0.0
 10
89.52630914809751
 20
31.36979683189868
 30
0.0
 10
89.69803034029532
 20
31.47558229868496
 30
0.0
 10
89.79611703190687
 20
31.52163207004367
 30
0.0
 10
90.12236182990415
 20
31.64034729217337
 30
0.0
 10
90.3837976742003
 20
31.69493305099487
 30
0.0
 10
90.8441517656602
 20
31.74904573028232
 30
0.0
 10
91.0092308451879
 20
31.76233315348412
 30
0.0
 10
91.35696820496369
 20
31.77984122875231
 30
0.0
 10
91.54027082365731
 20
31.78415716958801
 30
0.0
 10
91.73311967204202
 20
31.78415716958789
 30
0.0
  0
SPLINE
  5
12E
330
1F
100
AcDbEntity
  8
0
  6
Continuous
 62
     7
370
    15
100
AcDbSpline
210
0.0
220
0.0
230
1.0
 70
     8
 71
     3
 72
    16
 73
    12
 74
     0
 42
0.00000001
 43
0.00000001
 12
1.0
 22
0.0
 32
0.0
 13
1.0
 23
0.0
 33
0.0
 40
0.0
 40
0.0
 40
0.0
 40
0.0
 40
0.0911311059767195
 40
0.2097266203226027
 40
0.3285580800785126
 40
0.4481238212418037
 40
0.567944603236727
 40
0.6754481390300978
 40
0.7831488321319674
 40
0.8914664670974632
 40
1.0
 40
1.0
 40
1.0
 40
1.0
 10
89.65030456556055
 20
29.19820502377285
 30
0.0
 10
89.6159683517537
 20
29.24935618085201
 30
0.0
 10
89.53694793387109
 20
29.36707404661063
 30
0.0
 10
89.43370333759549
 20
29.54846357578684
 30
0.0
 10
89.33772558514413
 20
29.74270361932811
 30
0.0
 10
89.26071931928401
 20
29.93393551695173
 30
0.0
 10
89.20469716481367
 20
30.11516003320983
 30
0.0
 10
89.16802877838981
 20
30.28610609460597
 30
0.0
 10
89.14923231551042
 20
30.44693993616124
 30
0.0
 10
89.14583740717157
 20
30.60409481085397
 30
0.0
 10
89.15807061428934
 20
30.70473933874158
 30
0.0
 10
89.16419330756455
 20
30.75511170374355
 30
0.0
  0
SPLINE
  5
12F
330
1F
100
AcDbEntity
  8
0
  6
Continuous
 62
     7
370
    15
100
AcDbSpline
210
0.0
220
0.0
230
1.0
 70
     8
 71
     3
 72
    17
 73
    13
 74
     0
 42
0.00000001
 43
0.00000001
 12
1.0
 22
0.0
 32
0.0
 13
1.0
 23
0.0
 33
0.0
 40
0.0
 40
0.0
 40
0.0
 40
0.0
 40
0.0945856461521399
 40
0.1995955388798755
 40
0.3042533469990437
 40
0.4048354736575036
 40
0.5058498942185479
 40
0.6070461679143037
 40
0.7081954694608733
 40
0.8091012644077785
 40
0.9096106755667712
 40
1.0
 40
1.0
 40
1.0
 40
1.0
 10
91.43714444868156
 20
29.19820502377285
 30
0.0
 10
91.40287705841496
 20
29.25660346412141
 30
0.0
 10
91.33056568238158
 20
29.37983641378445
 30
0.0
 10
91.24942613536771
 20
29.56226159442746
 30
0.0
 10
91.18898030811052
 20
29.74332199644626
 30
0.0
 10
91.15475045252659
 20
29.91585856334927
 30
0.0
 10
91.14507915269054
 20
30.07980357718213
 30
0.0
 10
91.16006019837516
 20
30.23657606893429
 30
0.0
 10
91.19996452051586
 20
30.38502048115806
 30
0.0
 10
91.26584907944834
 20
30.523626556037
 30
0.0
 10
91.35314821724859
 20
30.64806837458507
 30
0.0
 10
91.43036683082016
 20
30.72071431692647
 30
0.0
 10
91.46692934807703
 20
30.75511170374354
 30
0.0
  0
SPLINE
  5
130
330
1F
100
AcDbEntity
  8
0
  6
Continuous
 62
     7
370
    15
100
AcDbSpline
210
0.0
220
0.0
230
1.0
 70
     8
 71
     3
 72
    18
 73
    14
 74
     0
 42
0.00000001
 43
0.00000001
 12
1.0
 22
0.0
 32
0.0
 13
1.0
 23
0.0
 33
0.0
 40
0.0
 40
0.0
 40
0.0
 40
0.0
 40
0.0874647500917572
 40
0.175209883740331
 40
0.263123938876396
 40
0.3510681814261966
 40
0.4388830966841099
 40
0.5263945230834427
 40
0.6309720209419011
 40
0.7358373639642444
 40
0.8408214255916505
 40
0.9457271663966246
 40
1.0
 40
1.0
 40
1.0
 40
1.0
 10
100.4001265774214
 20
30.75511170374355
 30
0.0
 10
100.4477649091074
 20
30.72184153939115
 30
0.0
 10
100.5431942854851
 20
30.65519455735449
 30
0.0
 10
100.7081494622915
 20
30.54391527129905
 30
0.0
 10
100.8878061179994
 20
30.42520472890829
 30
0.0
 10
101.0825728712434
 20
30.29904044225187
 30
0.0
 10
101.2907621089315
 20
30.16650065417665
 30
0.0
 10
101.5260191223032
 20
30.01911593473843
 30
0.0
 10
101.7909221034739
 20
29.85588095472181
 30
0.0
 10
102.0869613565345
 20
29.67630308591396
 30
0.0
 10
102.398089487996
 20
29.49043512978287
 30
0.0
 10
102.668220379269
 20
29.3308197100636
 30
0.0
 10
102.8384412407265
 20
29.23192405551621
 30
0.0
 10
102.8964790044396
 20
29.19820502377279
 30
0.0
  0
SPLINE
  5
131
330
1F
100
AcDbEntity
  8
0
  6
Continuous
 62
     7
370
    15
100
AcDbSpline
210
0.0
220
0.0
230
1.0
 70
     8
 71
     3
 72
    12
 73
     8
 74
     0
 42
0.00000001
 43
0.00000001
 12
1.0
 22
0.0
 32
0.0
 13
1.0
 23
0.0
 33
0.0
 40
0.0
 40
0.0
 40
0.0
 40
0.0
 40
0.5
 40
0.5
 40
0.75
 40
0.75
 40
1.0
 40
1.0
 40
1.0
 40
1.0
 10
91.46692934807703
 20
30.75511170374354
 30
0.0
 10
91.62528655093936
 20
30.8922456327259
 30
0.0
 10
91.83983236377043
 20
30.99015953569394
 30
0.0
 10
92.25027085175473
 20
31.08882789440624
 30
0.0
 10
92.40270180561758
 20
31.11343216474662
 30
0.0
 10
92.72796916174434
 20
31.14559466474979
 30
0.0
 10
92.90185970394825
 20
31.15349076072583
 30
0.0
 10
93.0869298046181
 20
31.15349076072583
 30
0.0
  0
LINE
  5
132
330
1F
100
AcDbEntity
  8
0
  6
Continuous
 62
     7
370
    15
100
AcDbLine
 10
57.5514459079
 20
31.1534907607
 30
0.0
 11
69.5766183847
 21
31.1534907607
 31
0.0
  0
SPLINE
  5
133
330
1F
100
AcDbEntity
  8
0
  6
Continuous
 62
     7
370
    15
100
AcDbSpline
210
0.0
220
0.0
230
1.0
 70
     8
 71
     3
 72
    12
 73
     8
 74
     0
 42
0.00000001
 43
0.00000001
 12
1.0
 22
0.0
 32
0.0
 13
1.0
 23
0.0
 33
0.0
 40
0.0
 40
0.0
 40
0.0
 40
0.0
 40
0.5000000000000003
 40
0.5000000000000003
 40
0.7500000000000001
 40
0.7500000000000001
 40
1.0
 40
1.0
 40
1.0
 40
1.0
 10
56.2073434004291
 20
30.75511170374354
 30
0.0
 10
56.53097092336594
 20
30.89178271657973
 30
0.0
 10
56.80895539373429
 20
30.98949210877952
 30
0.0
 10
57.15148951987217
 20
31.08815952685001
 30
0.0
 10
57.25316317929641
 20
31.11284990995891
 30
0.0
 10
57.42492293773528
 20
31.14538052627023
 30
0.0
 10
57.49584828316059
 20
31.15349076072582
 30
0.0
 10
57.55144590793425
 20
31.15349076072582
 30
0.0
  0
SPLINE
  5
134
330
1F
100
AcDbEntity
  8
0
  6
Continuous
 62
     7
370
    15
100
AcDbSpline
210
0.0
220
0.0
230
1.0
 70
     8
 71
     3
 72
    24
 73
    20
 74
     0
 42
0.00000001
 43
0.00000001
 12
1.0
 22
0.0
 32
0.0
 13
1.0
 23
0.0
 33
0.0
 40
0.0
 40
0.0
 40
0.0
 40
0.0
 40
0.0127230157155501
 40
0.0741350272281572
 40
0.1355470273807523
 40
0.1974236392718718
 40
0.2593003544231194
 40
0.3189824863197339
 40
0.37866476674286
 40
0.4387625829140668
 40
0.4988605720222019
 40
0.5602440460055865
 40
0.6216276947973405
 40
0.6834465038738404
 40
0.7452654538788711
 40
0.8086568199641877
 40
0.8721642726461949
 40
0.9360232343955144
 40
1.0
 40
1.0
 40
1.0
 40
1.0
 10
56.9861751410079
 20
31.13435968973444
 30
0.0
 10
57.0018159235204
 20
31.14070827125505
 30
0.0
 10
57.09295232257526
 20
31.17770046511952
 30
0.0
 10
57.25398913854423
 20
31.23836144910593
 30
0.0
 10
57.46865983090058
 20
31.31625319069978
 30
0.0
 10
57.67616139674244
 20
31.38678740744993
 30
0.0
 10
57.87411775160287
 20
31.45016325633659
 30
0.0
 10
58.06160845367422
 20
31.50647976919391
 30
0.0
 10
58.23899994678997
 20
31.55642073784816
 30
0.0
 10
58.40802685915861
 20
31.60083800579496
 30
0.0
 10
58.56939628322794
 20
31.64022981788378
 30
0.0
 10
58.72208399901672
 20
31.67460709869752
 30
0.0
 10
58.86586752786003
 20
31.70416650770833
 30
0.0
 10
58.99924477610552
 20
31.72886838391792
 30
0.0
 10
59.12289068400999
 20
31.74905075256959
 30
0.0
 10
59.23602922406518
 20
31.76475227700129
 30
0.0
 10
59.33794162103155
 20
31.77590322509639
 30
0.0
 10
59.42859483090054
 20
31.78286686704886
 30
0.0
 10
59.47835778059252
 20
31.78372680459008
 30
0.0
 10
59.5032621843467
 20
31.78415716958778
 30
0.0
  0
LINE
  5
135
330
1F
100
AcDbEntity
  8
0
  6
Continuous
 62
     7
370
    15
100
AcDbLine
 10
59.5032621843
 20
31.7841571696
 30
0.0
 11
70.4098139656
 21
31.7841571696
 31
0.0
  0
LINE
  5
136
330
1F
100
AcDbEntity
  8
0
  6
Continuous
 62
     7
370
    15
100
AcDbLine
 10
93.0869298046
 20
31.1534907607
 30
0.0
 11
100.0334708793
 21
31.1534907607
 31
0.0
  0
LINE
  5
137
330
1F
100
AcDbEntity
  8
0
  6
Continuous
 62
     7
370
    15
100
AcDbLine
 10
91.733119672
 20
31.7841571696
 30
0.0
 11
98.0334708793
 21
31.7841571696
 31
0.0
  0
SPLINE
  5
138
330
1F
100
AcDbEntity
  8
0
  6
Continuous
 62
     7
370
    15
100
AcDbSpline
210
0.0
220
0.0
230
1.0
 70
     8
 71
     3
 72
    12
 73
     8
 74
     0
 42
0.00000001
 43
0.00000001
 12
1.0
 22
0.0
 32
0.0
 13
1.0
 23
0.0
 33
0.0
 40
0.0
 40
0.0
 40
0.0
 40
0.0
 40
0.0886220273168986
 40
0.3120898993657637
 40
0.5413365748740002
 40
0.7707494422323083
 40
1.0
 40
1.0
 40
1.0
 40
1.0
 10
100.0334708793432
 20
31.01944666575585
 30
0.0
 10
100.0404319687691
 20
31.01397763638989
 30
0.0
 10
100.064946028808
 20
30.99471799094813
 30
0.0
 10
100.1205540549922
 20
30.95380584074993
 30
0.0
 10
100.2003658158795
 20
30.8962594489813
 30
0.0
 10
100.293028785543
 20
30.83059813444583
 30
0.0
 10
100.3644357365105
 20
30.78026791043904
 30
0.0
 10
100.4001265774214
 20
30.75511170374355
 30
0.0
  0
ARC
  5
139
330
1F
100
AcDbEntity
  8
0
  6
Continuous
 62
     7
370
    15
100
AcDbCircle
 10
88.5334708793
 20
31.1982050238
 30
0.0
 40
2.000000000000004
100
AcDbArc
 50
180.0
 51
270.0
  0
LINE
  5
13A
330
1F
100
AcDbEntity
  8
0
  6
Continuous
 62
     7
370
    15
100
AcDbLine
 10
83.5334708793
 20
45.1982050238
 30
0.0
 11
86.5334708793
 21
45.1982050238
 31
0.0
  0
LINE
  5
13B
330
1F
100
AcDbEntity
  8
0
  6
Continuous
 62
     7
370
    15
100
AcDbLine
 10
86.5334708793
 20
45.1982050238
 30
0.0
 11
86.5334708793
 21
31.1982050238
 31
0.0
  0
LINE
  5
13C
330
1F
100
AcDbEntity
  8
0
  6
Continuous
 62
     7
370
    15
100
AcDbLine
 10
70.5334708793
 20
45.1982050238
 30
0.0
 11
70.5334708793
 21
31.7829577887
 31
0.0
  0
LINE
  5
13D
330
1F
100
AcDbEntity
  8
0
  6
Continuous
 62
     7
370
    15
100
AcDbLine
 10
70.5334708793
 20
45.1982050238
 30
0.0
 11
73.5334708793
 21
45.1982050238
 31
0.0
  0
LINE
  5
13E
330
1F
100
AcDbEntity
  8
0
  6
Continuous
 62
     7
370
    15
100
AcDbLine
 10
73.5334708793
 20
45.1982050238
 30
0.0
 11
83.5334708793
 21
45.1982050238
 31
0.0
  0
SPLINE
  5
13F
330
1F
100
AcDbEntity
  8
0
  6
Continuous
 62
     7
370
    15
100
AcDbSpline
210
0.0
220
0.0
230
1.0
 70
     8
 71
     3
 72
    15
 73
    11
 74
     0
 42
0.00000001
 43
0.00000001
 12
1.0
 22
0.0
 32
0.0
 13
1.0
 23
0.0
 33
0.0
 40
0.0
 40
0.0
 40
0.0
 40
0.0
 40
0.022529468770339
 40
0.1678570381025123
 40
0.3133068482365426
 40
0.4586353439951346
 40
0.5998301056737844
 40
0.7411352167670878
 40
0.88233314349114
 40
1.0
 40
1.0
 40
1.0
 40
1.0
 10
89.30697109081144
 20
31.13408991661267
 30
0.0
 10
89.28757100449886
 20
31.14053051698972
 30
0.0
 10
89.14302960138993
 20
31.18851656201869
 30
0.0
 10
88.86363316555843
 20
31.26579051228418
 30
0.0
 10
88.46979409215324
 20
31.36535033534682
 30
0.0
 10
88.07171182718257
 20
31.45087122135798
 30
0.0
 10
87.6721711934778
 20
31.52475759522547
 30
0.0
 10
87.27240464820152
 20
31.58733552978764
 30
0.0
 10
86.89235379538671
 20
31.63822424371637
 30
0.0
 10
86.64562247599127
 20
31.66399656341427
 30
0.0
 10
86.53347087934316
 20
31.67571135831962
 30
0.0
  0
LINE
  5
140
330
1F
100
AcDbEntity
  8
0
  6
Continuous
 62
     8
370
     0
100
AcDbLine
 10
57.8730401243
 20
20.6982050238
 30
0.0
 11
99.1939016344
 21
20.6982050238
 31
0.0
  0
LINE
  5
141
330
1F
100
AcDbEntity
  8
0
  6
Continuous
 62
     8
370
     0
100
AcDbLine
 10
57.8730401243
 20
28.6982050238
 30
0.0
 11
57.8730401243
 21
20.6982050238
 31
0.0
  0
LINE
  5
142
330
1F
100
AcDbEntity
  8
0
  6
Continuous
 62
     8
370
     0
100
AcDbLine
 10
99.1939016344
 20
28.6982050238
 30
0.0
 11
57.8730401243
 21
28.6982050238
 31
0.0
  0
LINE
  5
143
330
1F
100
AcDbEntity
  8
0
  6
Continuous
 62
     8
370
     0
100
AcDbLine
 10
99.1939016344
 20
28.6982050238
 30
0.0
 11
99.1939016344
 21
20.6982050238
 31
0.0
  0
ARC
  5
144
330
1F
100
AcDbEntity
  8
0
  6
Continuous
 62
     8
370
     0
100
AcDbCircle
 10
98.7382521294
 20
28.7438750677
 30
0.0
 40
0.4579325542895791
100
AcDbArc
 50
354.2763229986
 51
82.8083272468
  0
ARC
  5
145
330
1F
100
AcDbEntity
  8
0
  6
Continuous
 62
     8
370
     0
100
AcDbCircle
 10
58.3286896293
 20
28.7438750677
 30
0.0
 40
0.4579325542895338
100
AcDbArc
 50
97.1916727532
 51
185.7236770015
  0
LWPOLYLINE
  5
146
330
1F
100
AcDbEntity
  8
0
  6
Continuous
 62
     8
370
     0
100
AcDbPolyline
 90
       50
 70
   128
 43
0.0
 10
57.8730401243
 20
20.6982050238
 10
57.8763145414
 20
20.4417924032
 10
57.8861344278
 20
20.1856432639
 10
57.9024896931
 20
19.9300208165
 10
57.9253635311
 20
19.6751877303
 10
57.9547324373
 20
19.4214058635
 10
57.9905662333
 20
19.1689359942
 10
58.0328280974
 20
18.9180375521
 10
58.0814746026
 20
18.6689683525
 10
58.1364557614
 20
18.4219843307
 10
58.1977150769
 20
18.1773392796
 10
58.2651896011
 20
17.9352845884
 10
58.3388099993
 20
17.6960689847
 10
58.4185006215
 20
17.4599382788
 10
58.5041795804
 20
17.2271351108
 10
58.5957588348
 20
16.9978987018
 10
58.6931442811
 20
16.7724646077
 10
58.796235849
 20
16.5510644773
 10
58.904927605
 20
16.3339258141
 10
59.0191078609
 20
16.1212717428
 10
59.1386592889
 20
15.9133207798
 10
59.2634590417
 20
15.7102866089
 10
59.3933788793
 20
15.5123778613
 10
59.5282853
 20
15.3197979017
 10
59.6680396786
 20
15.1327446189
 10
59.8124984079
 20
14.951410223
 10
59.9615130468
 20
14.7759810472
 10
60.1149304727
 20
14.6066373568
 10
60.2725930388
 20
14.443553164
 10
60.4343387362
 20
14.2868960488
 10
60.6000013603
 20
14.136826987
 10
60.7694106814
 20
13.9935001846
 10
60.9423926201
 20
13.8570629197
 10
61.1187694258
 20
13.7276553908
 10
61.2983598592
 20
13.6054105728
 10
61.4809793793
 20
13.4904540806
 10
61.6664403319
 20
13.3829040396
 10
61.8545521435
 20
13.282870965
 10
62.0451215164
 20
13.1904576474
 10
62.2379526278
 20
13.1057590477
 10
62.4328473307
 20
13.0288621995
 10
62.6296053575
 20
12.9598461195
 10
62.8280245261
 20
12.8987817263
 10
63.0279009474
 20
12.8457317678
 10
63.2290292348
 20
12.8007507565
 10
63.4312027155
 20
12.7638849132
 10
63.6342136425
 20
12.7351721202
 10
63.8378534083
 20
12.7146418818
 10
64.0419127594
 20
12.7023152942
 10
64.246182011
 20
12.6982050238
  0
LWPOLYLINE
  5
147
330
1F
100
AcDbEntity
  8
0
  6
Continuous
 62
     8
370
     0
100
AcDbPolyline
 90
       50
 70
   128
 43
0.0
 10
99.1939016344
 20
20.6982050238
 10
99.1906272173
 20
20.4417924032
 10
99.1808073309
 20
20.1856432639
 10
99.1644520656
 20
19.9300208165
 10
99.1415782276
 20
19.6751877303
 10
99.1122093213
 20
19.4214058635
 10
99.0763755254
 20
19.1689359942
 10
99.0341136613
 20
18.9180375521
 10
98.9854671561
 20
18.6689683525
 10
98.9304859973
 20
18.4219843307
 10
98.8692266818
 20
18.1773392796
 10
98.8017521576
 20
17.9352845884
 10
98.7281317594
 20
17.6960689847
 10
98.6484411371
 20
17.4599382788
 10
98.5627621783
 20
17.2271351108
 10
98.4711829238
 20
16.9978987018
 10
98.3737974776
 20
16.7724646077
 10
98.2707059097
 20
16.5510644773
 10
98.1620141537
 20
16.3339258141
 10
98.0478338978
 20
16.1212717428
 10
97.9282824698
 20
15.9133207798
 10
97.8034827169
 20
15.7102866089
 10
97.6735628794
 20
15.5123778613
 10
97.5386564587
 20
15.3197979017
 10
97.3989020801
 20
15.1327446189
 10
97.2544433508
 20
14.951410223
 10
97.1054287119
 20
14.7759810472
 10
96.952011286
 20
14.6066373568
 10
96.7943487199
 20
14.443553164
 10
96.6326030224
 20
14.2868960488
 10
96.4669403984
 20
14.136826987
 10
96.2975310773
 20
13.9935001846
 10
96.1245491386
 20
13.8570629197
 10
95.9481723329
 20
13.7276553908
 10
95.7685818994
 20
13.6054105728
 10
95.5859623794
 20
13.4904540806
 10
95.4005014268
 20
13.3829040396
 10
95.2123896152
 20
13.282870965
 10
95.0218202422
 20
13.1904576474
 10
94.8289891308
 20
13.1057590477
 10
94.634094428
 20
13.0288621995
 10
94.4373364012
 20
12.9598461195
 10
94.2389172326
 20
12.8987817263
 10
94.0390408113
 20
12.8457317678
 10
93.8379125239
 20
12.8007507565
 10
93.6357390432
 20
12.7638849132
 10
93.4327281162
 20
12.7351721202
 10
93.2290883504
 20
12.7146418818
 10
93.0250289993
 20
12.7023152942
 10
92.8207597477
 20
12.6982050238
  0
LINE
  5
148
330
1F
100
AcDbEntity
  8
0
  6
Continuous
 62
     8
370
     0
100
AcDbLine
 10
111.2808054276
 20
20.6982050238
 30
0.0
 11
99.1939016344
 21
20.6982050238
 31
0.0
  0
LWPOLYLINE
  5
149
330
1F
100
AcDbEntity
  8
0
  6
Continuous
 62
     8
370
     0
100
AcDbPolyline
 90
       50
 70
   128
 43
0.0
 10
111.2808054276
 20
20.6982050238
 10
111.2802910351
 20
20.4417924032
 10
111.2787483864
 20
20.1856432639
 10
111.2761790664
 20
19.9300208165
 10
111.2725857155
 20
19.6751877303
 10
111.267972026
 20
19.4214058635
 10
111.2623427387
 20
19.1689359942
 10
111.2557036382
 20
18.9180375521
 10
111.2480615466
 20
18.6689683525
 10
111.2394243167
 20
18.4219843307
 10
111.2298008237
 20
18.1773392796
 10
111.2192009565
 20
17.9352845884
 10
111.2076356072
 20
17.6960689847
 10
111.1951166599
 20
17.4599382788
 10
111.1816569787
 20
17.2271351108
 10
111.1672703944
 20
16.9978987018
 10
111.15197169
 20
16.7724646077
 10
111.1357765862
 20
16.5510644773
 10
111.1187017243
 20
16.3339258141
 10
111.1007646501
 20
16.1212717428
 10
111.081983795
 20
15.9133207798
 10
111.0623784578
 20
15.7102866089
 10
111.041968784
 20
15.5123778613
 10
111.0207757462
 20
15.3197979017
 10
110.9988211216
 20
15.1327446189
 10
110.97612747
 20
14.951410223
 10
110.9527181107
 20
14.7759810472
 10
110.9286170983
 20
14.6066373568
 10
110.9038491984
 20
14.443553164
 10
110.8784398616
 20
14.2868960488
 10
110.8524151977
 20
14.136826987
 10
110.8258019489
 20
13.9935001846
 10
110.7986274619
 20
13.8570629197
 10
110.7709196606
 20
13.7276553908
 10
110.7427070164
 20
13.6054105728
 10
110.7140185198
 20
13.4904540806
 10
110.6848836501
 20
13.3829040396
 10
110.6553323455
 20
13.282870965
 10
110.6253949718
 20
13.1904576474
 10
110.5951022918
 20
13.1057590477
 10
110.5644854332
 20
13.0288621995
 10
110.533575857
 20
12.9598461195
 10
110.5024053247
 20
12.8987817263
 10
110.4710058662
 20
12.8457317678
 10
110.4394097466
 20
12.8007507565
 10
110.4076494331
 20
12.7638849132
 10
110.3757575615
 20
12.7351721202
 10
110.3437669028
 20
12.7146418818
 10
110.3117103297
 20
12.7023152942
 10
110.2796207824
 20
12.6982050238
  0
LINE
  5
14A
330
1F
100
AcDbEntity
  8
0
  6
Continuous
 62
     8
370
     0
100
AcDbLine
 10
57.8730401243
 20
20.6982050238
 30
0.0
 11
45.7861363311
 21
20.6982050238
 31
0.0
  0
LINE
  5
14B
330
1F
100
AcDbEntity
  8
0
  6
Continuous
 62
     8
370
     0
100
AcDbLine
 10
45.7861363311
 20
28.6982050238
 30
0.0
 11
45.7861363311
 21
20.6982050238
 31
0.0
  0
LINE
  5
14C
330
1F
100
AcDbEntity
  8
0
  6
Continuous
 62
     8
370
     0
100
AcDbLine
 10
57.8730401243
 20
28.6982050238
 30
0.0
 11
45.7861363311
 21
28.6982050238
 31
0.0
  0
ARC
  5
14D
330
1F
100
AcDbEntity
  8
0
  6
Continuous
 62
     8
370
     0
100
AcDbCircle
 10
46.8318836178
 20
28.8212472685
 30
0.0
 40
1.052960959256848
100
AcDbArc
 50
159.0227123041
 51
186.7105475682
  0
LINE
  5
14E
330
1F
100
AcDbEntity
  8
0
  6
Continuous
 62
     8
370
     0
100
AcDbLine
 10
111.2808054276
 20
28.6982050238
 30
0.0
 11
99.1939016344
 21
28.6982050238
 31
0.0
  0
LINE
  5
14F
330
1F
100
AcDbEntity
  8
0
  6
Continuous
 62
     8
370
     0
100
AcDbLine
 10
111.2808054276
 20
28.6982050238
 30
0.0
 11
111.2808054276
 21
20.6982050238
 31
0.0
  0
LWPOLYLINE
  5
150
330
1F
100
AcDbEntity
  8
0
  6
Continuous
 62
     8
370
     0
100
AcDbPolyline
 90
       50
 70
   128
 43
0.0
 10
45.7861363311
 20
20.6982050238
 10
45.7866507236
 20
20.4417924032
 10
45.7881933723
 20
20.1856432639
 10
45.7907626923
 20
19.9300208165
 10
45.7943560432
 20
19.6751877303
 10
45.7989697327
 20
19.4214058635
 10
45.80459902
 20
19.1689359942
 10
45.8112381205
 20
18.9180375521
 10
45.818880212
 20
18.6689683525
 10
45.827517442
 20
18.4219843307
 10
45.837140935
 20
18.1773392796
 10
45.8477408021
 20
17.9352845884
 10
45.8593061515
 20
17.6960689847
 10
45.8718250988
 20
17.4599382788
 10
45.88528478
 20
17.2271351108
 10
45.8996713643
 20
16.9978987018
 10
45.9149700687
 20
16.7724646077
 10
45.9311651725
 20
16.5510644773
 10
45.9482400344
 20
16.3339258141
 10
45.9661771086
 20
16.1212717428
 10
45.9849579636
 20
15.9133207798
 10
46.0045633009
 20
15.7102866089
 10
46.0249729746
 20
15.5123778613
 10
46.0461660125
 20
15.3197979017
 10
46.0681206371
 20
15.1327446189
 10
46.0908142887
 20
14.951410223
 10
46.114223648
 20
14.7759810472
 10
46.1383246603
 20
14.6066373568
 10
46.1630925603
 20
14.443553164
 10
46.1885018971
 20
14.2868960488
 10
46.2145265609
 20
14.136826987
 10
46.2411398098
 20
13.9935001846
 10
46.2683142967
 20
13.8570629197
 10
46.2960220981
 20
13.7276553908
 10
46.3242347423
 20
13.6054105728
 10
46.3529232389
 20
13.4904540806
 10
46.3820581086
 20
13.3829040396
 10
46.4116094132
 20
13.282870965
 10
46.4415467868
 20
13.1904576474
 10
46.4718394669
 20
13.1057590477
 10
46.5024563255
 20
13.0288621995
 10
46.5333659017
 20
12.9598461195
 10
46.564536434
 20
12.8987817263
 10
46.5959358925
 20
12.8457317678
 10
46.627532012
 20
12.8007507565
 10
46.6592923256
 20
12.7638849132
 10
46.6911841972
 20
12.7351721202
 10
46.7231748559
 20
12.7146418818
 10
46.755231429
 20
12.7023152942
 10
46.7873209763
 20
12.6982050238
  0
ARC
  5
151
330
1F
100
AcDbEntity
  8
0
  6
Continuous
 62
     8
370
     0
100
AcDbCircle
 10
110.2350581408
 20
28.8212472685
 30
0.0
 40
1.052960959256669
100
AcDbArc
 50
353.2894524318
 51
20.9772876959
  0
LINE
  5
152
330
1F
100
AcDbEntity
  8
0
  6
Continuous
 62
     8
370
     0
100
AcDbLine
 10
133.9695424079
 20
20.6982050238
 30
0.0
 11
111.2808054276
 21
20.6982050238
 31
0.0
  0
LINE
  5
153
330
1F
100
AcDbEntity
  8
0
  6
Continuous
 62
     8
370
     0
100
AcDbLine
 10
133.9695424079
 20
28.6982050238
 30
0.0
 11
111.2808054276
 21
28.6982050238
 31
0.0
  0
LINE
  5
154
330
1F
100
AcDbEntity
  8
0
  6
Continuous
 62
     8
370
     0
100
AcDbLine
 10
45.7861363311
 20
20.6982050238
 30
0.0
 11
23.0973993508
 21
20.6982050238
 31
0.0
  0
LINE
  5
155
330
1F
100
AcDbEntity
  8
0
  6
Continuous
 62
     8
370
     0
100
AcDbLine
 10
45.7861363311
 20
28.6982050238
 30
0.0
 11
23.0973993508
 21
28.6982050238
 31
0.0
  0
LINE
  5
156
330
1F
100
AcDbEntity
  8
0
  6
Continuous
 62
     8
370
     0
100
AcDbLine
 10
74.5158788259
 20
30.7551117037
 30
0.0
 11
71.8853851573
 21
30.7551117037
 31
0.0
  0
LINE
  5
157
330
1F
100
AcDbEntity
  8
0
  6
Continuous
 62
     8
370
     0
100
AcDbLine
 10
56.2073434004
 20
30.7551117037
 30
0.0
 11
56.1139474336
 21
30.7551117037
 31
0.0
  0
LINE
  5
158
330
1F
100
AcDbEntity
  8
0
  6
Continuous
 62
     8
370
     0
100
AcDbLine
 10
69.5766183847
 20
31.1534907607
 30
0.0
 11
69.5766183847
 21
29.1982050238
 31
0.0
  0
LINE
  5
159
330
1F
100
AcDbEntity
  8
0
  6
Continuous
 62
     8
370
     0
100
AcDbLine
 10
91.4669293481
 20
30.7551117037
 30
0.0
 11
89.1641933076
 21
30.7551117037
 31
0.0
  0
LINE
  5
15A
330
1F
100
AcDbEntity
  8
0
  6
Continuous
 62
     8
370
     0
100
AcDbLine
 10
93.0869298046
 20
31.1534907607
 30
0.0
 11
93.0869298046
 21
29.1982050238
 31
0.0
  0
LINE
  5
15B
330
1F
100
AcDbEntity
  8
0
  6
Continuous
 62
     8
370
     0
100
AcDbLine
 10
57.5514459079
 20
31.1534907607
 30
0.0
 11
57.5514459079
 21
29.1982050238
 31
0.0
  0
LINE
  5
15C
330
1F
100
AcDbEntity
  8
0
  6
Continuous
 62
     8
370
     0
100
AcDbLine
 10
73.9324805528
 20
31.1982050238
 30
0.0
 11
83.5334708793
 21
31.1982050238
 31
0.0
  0
LINE
  5
15D
330
1F
100
AcDbEntity
  8
0
  6
Continuous
 62
     8
370
     0
100
AcDbLine
 10
83.5334708793
 20
31.1982050238
 30
0.0
 11
83.5334708793
 21
29.1982050238
 31
0.0
  0
LINE
  5
15E
330
1F
100
AcDbEntity
  8
0
  6
Continuous
 62
     8
370
     0
100
AcDbLine
 10
83.5334708793
 20
31.1982050238
 30
0.0
 11
86.5334708793
 21
31.1982050238
 31
0.0
  0
LINE
  5
15F
330
1F
100
AcDbEntity
  8
0
  6
Continuous
 62
     8
370
     0
100
AcDbLine
 10
83.5334708793
 20
45.1982050238
 30
0.0
 11
83.5334708793
 21
31.1982050238
 31
0.0
  0
LINE
  5
160
330
1F
100
AcDbEntity
  8
0
  6
Continuous
 62
     8
370
     0
100
AcDbLine
 10
73.5334708793
 20
45.1982050238
 30
0.0
 11
73.5334708793
 21
31.3795843376
 31
0.0
  0
LINE
  5
161
330
1F
100
AcDbEntity
  8
FORMAT
  6
CENTERX2
 62
     7
370
     0
100
AcDbLine
 10
78.5334708793
 20
51.9343144213
 30
0.0
 11
78.5334708793
 21
4.9956965291
 31
0.0
  0
ENDSEC
  0
SECTION
  2
OBJECTS
  0
DICTIONARY
  5
C
330
0
100
AcDbDictionary
281
     1
  3
ACAD_GROUP
350
D
  3
ACAD_LAYOUT
350
1A
  3
ACAD_MLINESTYLE
350
17
  3
ACAD_PLOTSETTINGS
350
19
  3
ACAD_PLOTSTYLENAME
350
E
  0
DICTIONARY
  5
D
102
{ACAD_REACTORS
330
C
102
}
330
C
100
AcDbDictionary
281
     1
  0
DICTIONARY
  5
1A
102
{ACAD_REACTORS
330
C
102
}
330
C
100
AcDbDictionary
281
     1
  3
Layout1
350
1E
  3
Layout2
350
26
  3
Model
350
22
  0
DICTIONARY
  5
17
102
{ACAD_REACTORS
330
C
102
}
330
C
100
AcDbDictionary
281
     1
  3
Standard
350
18
  0
DICTIONARY
  5
19
102
{ACAD_REACTORS
330
C
102
}
330
C
100
AcDbDictionary
281
     1
  0
ACDBDICTIONARYWDFLT
  5
E
102
{ACAD_REACTORS
330
C
102
}
330
C
100
AcDbDictionary
281
     1
  3
Normal
350
F
100
AcDbDictionaryWithDefault
340
F
  0
LAYOUT
  5
1E
102
{ACAD_REACTORS
330
1A
102
}
330
1A
100
AcDbPlotSettings
  1

  2
none_device
  4

  6

 40
0.0
 41
0.0
 42
0.0
 43
0.0
 44
0.0
 45
0.0
 46
0.0
 47
0.0
 48
0.0
 49
0.0
140
0.0
141
0.0
142
1.0
143
1.0
 70
   688
 72
     0
 73
     0
 74
     5
  7

 75
    16
147
1.0
148
0.0
149
0.0
100
AcDbLayout
  1
Layout1
 70
     1
 71
     1
 10
0.0
 20
0.0
 11
420.0
 21
297.0
 12
0.0
 22
0.0
 32
0.0
 14
1.0000000000E+20
 24
1.0000000000E+20
 34
1.0000000000E+20
 15
-1.0000000000E+20
 25
-1.0000000000E+20
 35
-1.0000000000E+20
146
0.0
 13
0.0
 23
0.0
 33
0.0
 16
1.0
 26
0.0
 36
0.0
 17
0.0
 27
1.0
 37
0.0
 76
     0
330
1B
  0
LAYOUT
  5
26
102
{ACAD_REACTORS
330
1A
102
}
330
1A
100
AcDbPlotSettings
  1

  2
none_device
  4

  6

 40
0.0
 41
0.0
 42
0.0
 43
0.0
 44
0.0
 45
0.0
 46
0.0
 47
0.0
 48
0.0
 49
0.0
140
0.0
141
0.0
142
1.0
143
1.0
 70
   688
 72
     0
 73
     0
 74
     5
  7

 75
    16
147
1.0
148
0.0
149
0.0
100
AcDbLayout
  1
Layout2
 70
     1
 71
     2
 10
0.0
 20
0.0
 11
0.0
 21
0.0
 12
0.0
 22
0.0
 32
0.0
 14
0.0
 24
0.0
 34
0.0
 15
0.0
 25
0.0
 35
0.0
146
0.0
 13
0.0
 23
0.0
 33
0.0
 16
1.0
 26
0.0
 36
0.0
 17
0.0
 27
1.0
 37
0.0
 76
     0
330
23
  0
LAYOUT
  5
22
102
{ACAD_REACTORS
330
1A
102
}
330
1A
100
AcDbPlotSettings
  1

  2
none_device
  4

  6

 40
0.0
 41
0.0
 42
0.0
 43
0.0
 44
0.0
 45
0.0
 46
0.0
 47
0.0
 48
0.0
 49
0.0
140
0.0
141
0.0
142
1.0
143
1.0
 70
  1712
 72
     0
 73
     0
 74
     0
  7

 75
     0
147
1.0
148
0.0
149
0.0
100
AcDbLayout
  1
Model
 70
     1
 71
     0
 10
0.0
 20
0.0
 11
297.0
 21
210.0
 12
0.0
 22
0.0
 32
0.0
 14
0.0
 24
0.0
 34
0.0
 15
297.0
 25
210.0
 35
0.0
146
0.0
 13
0.0
 23
0.0
 33
0.0
 16
1.0
 26
0.0
 36
0.0
 17
0.0
 27
1.0
 37
0.0
 76
     0
330
1F
331
29
  0
MLINESTYLE
  5
18
102
{ACAD_REACTORS
330
17
102
}
330
17
100
AcDbMlineStyle
  2
Standard
 70
     0
  3

 62
   256
 51
90.0
 52
90.0
 71
     2
 49
0.5
 62
   256
  6
BYLAYER
 49
-0.5
 62
   256
  6
BYLAYER
  0
ACDBPLACEHOLDER
  5
F
102
{ACAD_REACTORS
330
E
102
}
330
E
  0
ENDSEC
  0
EOF
