  0
SECTION
  2
HEADER
  9
$ACADVER
  1
AC1009
  9
$DWGCODEPAGE
  3
ansi_1252
  9
$INSBASE
 10
0.0
 20
0.0
 30
0.0
  9
$EXTMIN
 10
0.0
 20
0.0
 30
0.0
  9
$EXTMAX
 10
6000.0
 20
4500.0
 30
0.0
  9
$LIMMIN
 10
0.0
 20
0.0
  9
$LIMMAX
 10
6000.0
 20
4500.0
  9
$ORTHOMODE
 70
     0
  9
$REGENMODE
 70
     1
  9
$FILLMODE
 70
     1
  9
$QTEXTMODE
 70
     0
  9
$MIRRTEXT
 70
     1
  9
$DRAGMODE
 70
     2
  9
$LTSCALE
 40
1.0
  9
$OSMODE
 70
    37
  9
$ATTMODE
 70
     1
  9
$TEXTSIZE
 40
3.5
  9
$TRACEWID
 40
1.0
  9
$TEXTSTYLE
  7
STANDARD
  9
$CLAYER
  8
0
  9
$CELTYPE
  6
BYLAYER
  9
$CECOLOR
 62
   256
  9
$DIMSCALE
 40
1.0
  9
$DIMASZ
 40
3.302
  9
$DIMEXO
 40
1.0
  9
$DIMDLI
 40
3.75
  9
$DIMRND
 40
0.0
  9
$DIMDLE
 40
0.0
  9
$DIMEXE
 40
1.0
  9
$DIMTP
 40
0.0
  9
$DIMTM
 40
0.0
  9
$DIMTXT
 40
3.5
  9
$DIMCEN
 40
2.5
  9
$DIMTSZ
 40
0.0
  9
$DIMTOL
 70
     0
  9
$DIMLIM
 70
     0
  9
$DIMTIH
 70
     1
  9
$DIMTOH
 70
     1
  9
$DIMSE1
 70
     0
  9
$DIMSE2
 70
     0
  9
$DIMTAD
 70
     1
  9
$DIMZIN
 70
     0
  9
$DIMBLK
  1

  9
$DIMASO
 70
     1
  9
$DIMSHO
 70
     1
  9
$DIMPOST
  1

  9
$DIMAPOST
  1

  9
$DIMALT
 70
     0
  9
$DIMALTD
 70
     3
  9
$DIMALTF
 40
0.0393700787
  9
$DIMLFAC
 40
1.0
  9
$DIMTOFL
 70
     1
  9
$DIMTVP
 40
0.0
  9
$DIMTIX
 70
     0
  9
$DIMSOXD
 70
     0
  9
$DIMSAH
 70
     0
  9
$DIMBLK1
  1

  9
$DIMBLK2
  1

  9
$DIMSTYLE
  2
ISO-25
  9
$DIMCLRD
 70
     0
  9
$DIMCLRE
 70
     0
  9
$DIMCLRT
 70
     0
  9
$DIMTFAC
 40
1.0
  9
$DIMGAP
 40
1.524
  9
$LUNITS
 70
     2
  9
$LUPREC
 70
     2
  9
$SKETCHINC
 40
1.0
  9
$FILLETRAD
 40
10.0
  9
$AUNITS
 70
     0
  9
$AUPREC
 70
     2
  9
$MENU
  1
.
  9
$ELEVATION
 40
0.0
  9
$PELEVATION
 40
0.0
  9
$THICKNESS
 40
0.0
  9
$LIMCHECK
 70
     0
  9
$CHAMFERA
 40
10.0
  9
$CHAMFERB
 40
10.0
  9
$SKPOLY
 70
     0
  9
$TDCREATE
 40
2458222.329872176
  9
$TDUPDATE
 40
2458222.329873623
  9
$TDINDWG
 40
0.0000000116
  9
$TDUSRTIMER
 40
0.0000000116
  9
$USRTIMER
 70
     1
  9
$ANGBASE
 50
0.0
  9
$ANGDIR
 70
     0
  9
$PDMODE
 70
     0
  9
$PDSIZE
 40
-1.0
  9
$PLINEWID
 40
0.0
  9
$COORDS
 70
     1
  9
$SPLFRAME
 70
     0
  9
$SPLINETYPE
 70
     6
  9
$SPLINESEGS
 70
     8
  9
$ATTDIA
 70
     0
  9
$ATTREQ
 70
     1
  9
$HANDLING
 70
     1
  9
$HANDSEED
  5
711
  9
$SURFTAB1
 70
     6
  9
$SURFTAB2
 70
     6
  9
$SURFTYPE
 70
     6
  9
$SURFU
 70
     6
  9
$SURFV
 70
     6
  9
$UCSNAME
  2

  9
$UCSORG
 10
0.0
 20
0.0
 30
0.0
  9
$UCSXDIR
 10
1.0
 20
0.0
 30
0.0
  9
$UCSYDIR
 10
0.0
 20
1.0
 30
0.0
  9
$PUCSNAME
  2

  9
$PUCSORG
 10
0.0
 20
0.0
 30
0.0
  9
$PUCSXDIR
 10
1.0
 20
0.0
 30
0.0
  9
$PUCSYDIR
 10
0.0
 20
1.0
 30
0.0
  9
$USERI1
 70
     0
  9
$USERI2
 70
     0
  9
$USERI3
 70
     0
  9
$USERI4
 70
     0
  9
$USERI5
 70
     0
  9
$USERR1
 40
0.0
  9
$USERR2
 40
0.0
  9
$USERR3
 40
0.0
  9
$USERR4
 40
0.0
  9
$USERR5
 40
0.0
  9
$WORLDVIEW
 70
     1
  9
$SHADEDGE
 70
     3
  9
$SHADEDIF
 70
    70
  9
$TILEMODE
 70
     1
  9
$MAXACTVP
 70
    64
  9
$PLIMCHECK
 70
     0
  9
$PEXTMIN
 10
1.0000000000E+20
 20
1.0000000000E+20
 30
1.0000000000E+20
  9
$PEXTMAX
 10
-1.0000000000E+20
 20
-1.0000000000E+20
 30
-1.0000000000E+20
  9
$PLIMMIN
 10
0.0
 20
0.0
  9
$PLIMMAX
 10
420.0
 20
297.0
  9
$UNITMODE
 70
     0
  9
$VISRETAIN
 70
     1
  9
$PLINEGEN
 70
     0
  9
$PSLTSCALE
 70
     1
  0
ENDSEC
  0
SECTION
  2
TABLES
  0
TABLE
  2
VPORT
 70
     1
  0
VPORT
  2
*ACTIVE
 70
     0
 10
0.0
 20
0.0
 11
1.0
 21
1.0
 12
3000.0
 22
2250.0
 13
0.0
 23
0.0
 14
10.0
 24
10.0
 15
10.0
 25
10.0
 16
0.0
 26
0.0
 36
1.0
 17
0.0
 27
0.0
 37
0.0
 40
4500.0
 41
1.3333333333
 42
50.0
 43
0.0
 44
0.0
 50
0.0
 51
0.0
 71
     0
 72
  2000
 73
     1
 74
     3
 75
     0
 76
     0
 77
     0
 78
     0
  0
ENDTAB
  0
TABLE
  2
LTYPE
 70
     6
  0
LTYPE
  2
CONTINUOUS
 70
     0
  3
Solid line
 72
    65
 73
     0
 40
0.0
  0
LTYPE
  2
HIDDEN
 70
     0
  3
Hidden __ __ __ __ __ __ __ __ __ __ __ __ __ __
 72
    65
 73
     2
 40
1.905
 49
1.27
 49
-0.635
  0
LTYPE
  2
PHANTOM
 70
     0
  3
Phantom ______  __  __  ______  __  __  ______
 72
    65
 73
     6
 40
12.7
 49
6.35
 49
-1.27
 49
1.27
 49
-1.27
 49
1.27
 49
-1.27
  0
LTYPE
  2
CENTER
 70
     0
  3
Center ____ _ ____ _ ____ _ ____ _ ____ _ ____
 72
    65
 73
     4
 40
10.16
 49
6.35
 49
-1.27
 49
1.27
 49
-1.27
  0
LTYPE
  2
CENTERX2
 70
     0
  3
Center (2x) ________  __  ________  __  _____
 72
    65
 73
     4
 40
20.32
 49
12.7
 49
-2.54
 49
2.54
 49
-2.54
  0
LTYPE
  2
DOT2
 70
     0
  3
Dot (.5x) ........................................
 72
    65
 73
     2
 40
0.635
 49
0.0
 49
-0.635
  0
ENDTAB
  0
TABLE
  2
LAYER
 70
     3
  0
LAYER
  2
0
 70
     0
 62
     7
  6
CONTINUOUS
  0
LAYER
  2
FORMAT
 70
     0
 62
     7
  6
CONTINUOUS
  0
LAYER
  2
PROTOTYPE
 70
     0
 62
    -7
  6
CONTINUOUS
  0
ENDTAB
  0
TABLE
  2
STYLE
 70
     1
  0
STYLE
  2
STANDARD
 70
     0
 40
0.0
 41
1.0
 50
0.0
 71
     0
 42
3.5
  3
txt
  4

  0
ENDTAB
  0
TABLE
  2
VIEW
 70
     0
  0
ENDTAB
  0
TABLE
  2
UCS
 70
     0
  0
ENDTAB
  0
TABLE
  2
APPID
 70
     1
  0
APPID
  2
ACAD
 70
     0
  0
ENDTAB
  0
TABLE
  2
DIMSTYLE
 70
     1
  0
DIMSTYLE
  2
ISO-25
 70
     0
  3

  4

  5

  6

  7

 40
1.0
 41
2.5
 42
0.625
 43
3.75
 44
1.25
 45
0.0
 46
0.0
 47
0.0
 48
0.0
140
2.5
141
2.5
142
0.0
143
0.0393700787
144
1.0
145
0.0
146
1.0
147
0.625
 71
     0
 72
     0
 73
     0
 74
     0
 75
     0
 76
     0
 77
     1
 78
     8
170
     0
171
     3
172
     1
173
     0
174
     0
175
     0
176
     0
177
     0
178
     0
  0
ENDTAB
  0
ENDSEC
  0
SECTION
  2
BLOCKS
  0
BLOCK
  8
0
  2
$MODEL_SPACE
 70
     0
 10
0.0
 20
0.0
 30
0.0
  3
$MODEL_SPACE
  1

  0
ENDBLK
  5
21
  8
0
  0
BLOCK
 67
     1
  8
0
  2
$PAPER_SPACE
 70
     0
 10
0.0
 20
0.0
 30
0.0
  3
$PAPER_SPACE
  1

  0
ENDBLK
  5
1D
 67
     1
  8
0
  0
BLOCK
  8
0
  2
SW_CENTERMARKSYMBOL_0
 70
     0
 10
0.0
 20
0.0
 30
0.0
  3
SW_CENTERMARKSYMBOL_0
  1

  0
LINE
  5
140
  8
FORMAT
 62
     0
 10
0.0
 20
0.0
 30
0.0
 11
0.0
 21
2.5
 31
0.0
  0
LINE
  5
141
  8
FORMAT
 62
     0
 10
0.0
 20
0.0
 30
0.0
 11
-2.5
 21
0.0
 31
0.0
  0
LINE
  5
142
  8
FORMAT
 62
     0
 10
0.0
 20
0.0
 30
0.0
 11
0.0
 21
-2.5
 31
0.0
  0
LINE
  5
143
  8
FORMAT
 62
     0
 10
0.0
 20
0.0
 30
0.0
 11
2.5
 21
0.0
 31
0.0
  0
LINE
  5
144
  8
FORMAT
 62
     0
 10
0.0
 20
5.0
 30
0.0
 11
0.0
 21
877.5
 31
0.0
  0
LINE
  5
145
  8
FORMAT
 62
     0
 10
-5.0
 20
0.0
 30
0.0
 11
-877.5
 21
0.0
 31
0.0
  0
LINE
  5
146
  8
FORMAT
 62
     0
 10
0.0
 20
-5.0
 30
0.0
 11
0.0
 21
-877.5
 31
0.0
  0
LINE
  5
147
  8
FORMAT
 62
     0
 10
5.0
 20
0.0
 30
0.0
 11
877.5
 21
0.0
 31
0.0
  0
ENDBLK
  5
13F
  8
0
  0
BLOCK
  8
0
  2
SW_CENTERMARKSYMBOL_1
 70
     0
 10
0.0
 20
0.0
 30
0.0
  3
SW_CENTERMARKSYMBOL_1
  1

  0
LINE
  5
14C
  8
FORMAT
 62
     0
 10
0.0
 20
0.0
 30
0.0
 11
0.0
 21
2.5
 31
0.0
  0
LINE
  5
14D
  8
FORMAT
 62
     0
 10
0.0
 20
0.0
 30
0.0
 11
-2.5
 21
0.0
 31
0.0
  0
LINE
  5
14E
  8
FORMAT
 62
     0
 10
0.0
 20
0.0
 30
0.0
 11
0.0
 21
-2.5
 31
0.0
  0
LINE
  5
14F
  8
FORMAT
 62
     0
 10
0.0
 20
0.0
 30
0.0
 11
2.5
 21
0.0
 31
0.0
  0
LINE
  5
150
  8
FORMAT
 62
     0
 10
0.0
 20
5.0
 30
0.0
 11
0.0
 21
27.5
 31
0.0
  0
LINE
  5
151
  8
FORMAT
 62
     0
 10
-5.0
 20
0.0
 30
0.0
 11
-27.5
 21
0.0
 31
0.0
  0
LINE
  5
152
  8
FORMAT
 62
     0
 10
0.0
 20
-5.0
 30
0.0
 11
0.0
 21
-27.5
 31
0.0
  0
LINE
  5
153
  8
FORMAT
 62
     0
 10
5.0
 20
0.0
 30
0.0
 11
27.5
 21
0.0
 31
0.0
  0
ENDBLK
  5
14B
  8
0
  0
BLOCK
  8
0
  2
SW_CENTERMARKSYMBOL_2
 70
     0
 10
0.0
 20
0.0
 30
0.0
  3
SW_CENTERMARKSYMBOL_2
  1

  0
LINE
  5
158
  8
FORMAT
 62
     0
 10
0.0
 20
0.0
 30
0.0
 11
0.0
 21
2.5
 31
0.0
  0
LINE
  5
159
  8
FORMAT
 62
     0
 10
0.0
 20
0.0
 30
0.0
 11
-2.5
 21
0.0
 31
0.0
  0
LINE
  5
15A
  8
FORMAT
 62
     0
 10
0.0
 20
0.0
 30
0.0
 11
0.0
 21
-2.5
 31
0.0
  0
LINE
  5
15B
  8
FORMAT
 62
     0
 10
0.0
 20
0.0
 30
0.0
 11
2.5
 21
0.0
 31
0.0
  0
LINE
  5
15C
  8
FORMAT
 62
     0
 10
0.0
 20
5.0
 30
0.0
 11
0.0
 21
27.5
 31
0.0
  0
LINE
  5
15D
  8
FORMAT
 62
     0
 10
-5.0
 20
0.0
 30
0.0
 11
-27.5
 21
0.0
 31
0.0
  0
LINE
  5
15E
  8
FORMAT
 62
     0
 10
0.0
 20
-5.0
 30
0.0
 11
0.0
 21
-27.5
 31
0.0
  0
LINE
  5
15F
  8
FORMAT
 62
     0
 10
5.0
 20
0.0
 30
0.0
 11
27.5
 21
0.0
 31
0.0
  0
ENDBLK
  5
157
  8
0
  0
BLOCK
  8
0
  2
SW_CENTERMARKSYMBOL_3
 70
     0
 10
0.0
 20
0.0
 30
0.0
  3
SW_CENTERMARKSYMBOL_3
  1

  0
LINE
  5
164
  8
FORMAT
 62
     0
 10
0.0
 20
0.0
 30
0.0
 11
0.0
 21
2.5
 31
0.0
  0
LINE
  5
165
  8
FORMAT
 62
     0
 10
0.0
 20
0.0
 30
0.0
 11
-2.5
 21
0.0
 31
0.0
  0
LINE
  5
166
  8
FORMAT
 62
     0
 10
0.0
 20
0.0
 30
0.0
 11
0.0
 21
-2.5
 31
0.0
  0
LINE
  5
167
  8
FORMAT
 62
     0
 10
0.0
 20
0.0
 30
0.0
 11
2.5
 21
0.0
 31
0.0
  0
LINE
  5
168
  8
FORMAT
 62
     0
 10
0.0
 20
5.0
 30
0.0
 11
0.0
 21
27.5
 31
0.0
  0
LINE
  5
169
  8
FORMAT
 62
     0
 10
-5.0
 20
0.0
 30
0.0
 11
-27.5
 21
0.0
 31
0.0
  0
LINE
  5
16A
  8
FORMAT
 62
     0
 10
0.0
 20
-5.0
 30
0.0
 11
0.0
 21
-27.5
 31
0.0
  0
LINE
  5
16B
  8
FORMAT
 62
     0
 10
5.0
 20
0.0
 30
0.0
 11
27.5
 21
0.0
 31
0.0
  0
ENDBLK
  5
163
  8
0
  0
BLOCK
  8
0
  2
SW_CENTERMARKSYMBOL_4
 70
     0
 10
0.0
 20
0.0
 30
0.0
  3
SW_CENTERMARKSYMBOL_4
  1

  0
LINE
  5
170
  8
FORMAT
 62
     0
 10
0.0
 20
0.0
 30
0.0
 11
0.0
 21
2.5
 31
0.0
  0
LINE
  5
171
  8
FORMAT
 62
     0
 10
0.0
 20
0.0
 30
0.0
 11
-2.5
 21
0.0
 31
0.0
  0
LINE
  5
172
  8
FORMAT
 62
     0
 10
0.0
 20
0.0
 30
0.0
 11
0.0
 21
-2.5
 31
0.0
  0
LINE
  5
173
  8
FORMAT
 62
     0
 10
0.0
 20
0.0
 30
0.0
 11
2.5
 21
0.0
 31
0.0
  0
LINE
  5
174
  8
FORMAT
 62
     0
 10
0.0
 20
5.0
 30
0.0
 11
0.0
 21
27.5
 31
0.0
  0
LINE
  5
175
  8
FORMAT
 62
     0
 10
-5.0
 20
0.0
 30
0.0
 11
-27.5
 21
0.0
 31
0.0
  0
LINE
  5
176
  8
FORMAT
 62
     0
 10
0.0
 20
-5.0
 30
0.0
 11
0.0
 21
-27.5
 31
0.0
  0
LINE
  5
177
  8
FORMAT
 62
     0
 10
5.0
 20
0.0
 30
0.0
 11
27.5
 21
0.0
 31
0.0
  0
ENDBLK
  5
16F
  8
0
  0
BLOCK
  8
0
  2
SW_CENTERMARKSYMBOL_5
 70
     0
 10
0.0
 20
0.0
 30
0.0
  3
SW_CENTERMARKSYMBOL_5
  1

  0
LINE
  5
17C
  8
FORMAT
 62
     0
 10
0.0
 20
0.0
 30
0.0
 11
0.0
 21
2.5
 31
0.0
  0
LINE
  5
17D
  8
FORMAT
 62
     0
 10
0.0
 20
0.0
 30
0.0
 11
-2.5
 21
0.0
 31
0.0
  0
LINE
  5
17E
  8
FORMAT
 62
     0
 10
0.0
 20
0.0
 30
0.0
 11
0.0
 21
-2.5
 31
0.0
  0
LINE
  5
17F
  8
FORMAT
 62
     0
 10
0.0
 20
0.0
 30
0.0
 11
2.5
 21
0.0
 31
0.0
  0
LINE
  5
180
  8
FORMAT
 62
     0
 10
0.0
 20
5.0
 30
0.0
 11
0.0
 21
27.5
 31
0.0
  0
LINE
  5
181
  8
FORMAT
 62
     0
 10
-5.0
 20
0.0
 30
0.0
 11
-27.5
 21
0.0
 31
0.0
  0
LINE
  5
182
  8
FORMAT
 62
     0
 10
0.0
 20
-5.0
 30
0.0
 11
0.0
 21
-27.5
 31
0.0
  0
LINE
  5
183
  8
FORMAT
 62
     0
 10
5.0
 20
0.0
 30
0.0
 11
27.5
 21
0.0
 31
0.0
  0
ENDBLK
  5
17B
  8
0
  0
BLOCK
  8
0
  2
SW_CENTERMARKSYMBOL_6
 70
     0
 10
0.0
 20
0.0
 30
0.0
  3
SW_CENTERMARKSYMBOL_6
  1

  0
LINE
  5
188
  8
FORMAT
 62
     0
 10
0.0
 20
0.0
 30
0.0
 11
0.0
 21
2.5
 31
0.0
  0
LINE
  5
189
  8
FORMAT
 62
     0
 10
0.0
 20
0.0
 30
0.0
 11
-2.5
 21
0.0
 31
0.0
  0
LINE
  5
18A
  8
FORMAT
 62
     0
 10
0.0
 20
0.0
 30
0.0
 11
0.0
 21
-2.5
 31
0.0
  0
LINE
  5
18B
  8
FORMAT
 62
     0
 10
0.0
 20
0.0
 30
0.0
 11
2.5
 21
0.0
 31
0.0
  0
LINE
  5
18C
  8
FORMAT
 62
     0
 10
0.0
 20
5.0
 30
0.0
 11
0.0
 21
27.5
 31
0.0
  0
LINE
  5
18D
  8
FORMAT
 62
     0
 10
-5.0
 20
0.0
 30
0.0
 11
-27.5
 21
0.0
 31
0.0
  0
LINE
  5
18E
  8
FORMAT
 62
     0
 10
0.0
 20
-5.0
 30
0.0
 11
0.0
 21
-27.5
 31
0.0
  0
LINE
  5
18F
  8
FORMAT
 62
     0
 10
5.0
 20
0.0
 30
0.0
 11
27.5
 21
0.0
 31
0.0
  0
ENDBLK
  5
187
  8
0
  0
BLOCK
  8
0
  2
SW_CENTERMARKSYMBOL_7
 70
     0
 10
0.0
 20
0.0
 30
0.0
  3
SW_CENTERMARKSYMBOL_7
  1

  0
LINE
  5
194
  8
FORMAT
 62
     0
 10
0.0
 20
0.0
 30
0.0
 11
0.0
 21
2.5
 31
0.0
  0
LINE
  5
195
  8
FORMAT
 62
     0
 10
0.0
 20
0.0
 30
0.0
 11
-2.5
 21
0.0
 31
0.0
  0
LINE
  5
196
  8
FORMAT
 62
     0
 10
0.0
 20
0.0
 30
0.0
 11
0.0
 21
-2.5
 31
0.0
  0
LINE
  5
197
  8
FORMAT
 62
     0
 10
0.0
 20
0.0
 30
0.0
 11
2.5
 21
0.0
 31
0.0
  0
LINE
  5
198
  8
FORMAT
 62
     0
 10
0.0
 20
5.0
 30
0.0
 11
0.0
 21
27.5
 31
0.0
  0
LINE
  5
199
  8
FORMAT
 62
     0
 10
-5.0
 20
0.0
 30
0.0
 11
-27.5
 21
0.0
 31
0.0
  0
LINE
  5
19A
  8
FORMAT
 62
     0
 10
0.0
 20
-5.0
 30
0.0
 11
0.0
 21
-27.5
 31
0.0
  0
LINE
  5
19B
  8
FORMAT
 62
     0
 10
5.0
 20
0.0
 30
0.0
 11
27.5
 21
0.0
 31
0.0
  0
ENDBLK
  5
193
  8
0
  0
BLOCK
  8
0
  2
SW_CENTERMARKSYMBOL_8
 70
     0
 10
0.0
 20
0.0
 30
0.0
  3
SW_CENTERMARKSYMBOL_8
  1

  0
LINE
  5
1A0
  8
FORMAT
 62
     0
 10
0.0
 20
0.0
 30
0.0
 11
0.0
 21
2.5
 31
0.0
  0
LINE
  5
1A1
  8
FORMAT
 62
     0
 10
0.0
 20
0.0
 30
0.0
 11
-2.5
 21
0.0
 31
0.0
  0
LINE
  5
1A2
  8
FORMAT
 62
     0
 10
0.0
 20
0.0
 30
0.0
 11
0.0
 21
-2.5
 31
0.0
  0
LINE
  5
1A3
  8
FORMAT
 62
     0
 10
0.0
 20
0.0
 30
0.0
 11
2.5
 21
0.0
 31
0.0
  0
LINE
  5
1A4
  8
FORMAT
 62
     0
 10
0.0
 20
5.0
 30
0.0
 11
0.0
 21
27.5
 31
0.0
  0
LINE
  5
1A5
  8
FORMAT
 62
     0
 10
-5.0
 20
0.0
 30
0.0
 11
-27.5
 21
0.0
 31
0.0
  0
LINE
  5
1A6
  8
FORMAT
 62
     0
 10
0.0
 20
-5.0
 30
0.0
 11
0.0
 21
-27.5
 31
0.0
  0
LINE
  5
1A7
  8
FORMAT
 62
     0
 10
5.0
 20
0.0
 30
0.0
 11
27.5
 21
0.0
 31
0.0
  0
ENDBLK
  5
19F
  8
0
  0
BLOCK
  8
0
  2
SW_CENTERMARKSYMBOL_9
 70
     0
 10
0.0
 20
0.0
 30
0.0
  3
SW_CENTERMARKSYMBOL_9
  1

  0
LINE
  5
1AC
  8
FORMAT
 62
     0
 10
0.0
 20
0.0
 30
0.0
 11
0.0
 21
2.5
 31
0.0
  0
LINE
  5
1AD
  8
FORMAT
 62
     0
 10
0.0
 20
0.0
 30
0.0
 11
-2.5
 21
0.0
 31
0.0
  0
LINE
  5
1AE
  8
FORMAT
 62
     0
 10
0.0
 20
0.0
 30
0.0
 11
0.0
 21
-2.5
 31
0.0
  0
LINE
  5
1AF
  8
FORMAT
 62
     0
 10
0.0
 20
0.0
 30
0.0
 11
2.5
 21
0.0
 31
0.0
  0
LINE
  5
1B0
  8
FORMAT
 62
     0
 10
0.0
 20
5.0
 30
0.0
 11
0.0
 21
27.5
 31
0.0
  0
LINE
  5
1B1
  8
FORMAT
 62
     0
 10
-5.0
 20
0.0
 30
0.0
 11
-27.5
 21
0.0
 31
0.0
  0
LINE
  5
1B2
  8
FORMAT
 62
     0
 10
0.0
 20
-5.0
 30
0.0
 11
0.0
 21
-27.5
 31
0.0
  0
LINE
  5
1B3
  8
FORMAT
 62
     0
 10
5.0
 20
0.0
 30
0.0
 11
27.5
 21
0.0
 31
0.0
  0
ENDBLK
  5
1AB
  8
0
  0
BLOCK
  8
0
  2
SW_CENTERMARKSYMBOL_10
 70
     0
 10
0.0
 20
0.0
 30
0.0
  3
SW_CENTERMARKSYMBOL_10
  1

  0
LINE
  5
1B8
  8
FORMAT
 62
     0
 10
0.0
 20
0.0
 30
0.0
 11
0.0
 21
2.5
 31
0.0
  0
LINE
  5
1B9
  8
FORMAT
 62
     0
 10
0.0
 20
0.0
 30
0.0
 11
-2.5
 21
0.0
 31
0.0
  0
LINE
  5
1BA
  8
FORMAT
 62
     0
 10
0.0
 20
0.0
 30
0.0
 11
0.0
 21
-2.5
 31
0.0
  0
LINE
  5
1BB
  8
FORMAT
 62
     0
 10
0.0
 20
0.0
 30
0.0
 11
2.5
 21
0.0
 31
0.0
  0
LINE
  5
1BC
  8
FORMAT
 62
     0
 10
0.0
 20
5.0
 30
0.0
 11
0.0
 21
27.5
 31
0.0
  0
LINE
  5
1BD
  8
FORMAT
 62
     0
 10
-5.0
 20
0.0
 30
0.0
 11
-27.5
 21
0.0
 31
0.0
  0
LINE
  5
1BE
  8
FORMAT
 62
     0
 10
0.0
 20
-5.0
 30
0.0
 11
0.0
 21
-27.5
 31
0.0
  0
LINE
  5
1BF
  8
FORMAT
 62
     0
 10
5.0
 20
0.0
 30
0.0
 11
27.5
 21
0.0
 31
0.0
  0
ENDBLK
  5
1B7
  8
0
  0
BLOCK
  8
0
  2
SW_CENTERMARKSYMBOL_11
 70
     0
 10
0.0
 20
0.0
 30
0.0
  3
SW_CENTERMARKSYMBOL_11
  1

  0
LINE
  5
1C4
  8
FORMAT
 62
     0
 10
0.0
 20
0.0
 30
0.0
 11
0.0
 21
2.5
 31
0.0
  0
LINE
  5
1C5
  8
FORMAT
 62
     0
 10
0.0
 20
0.0
 30
0.0
 11
-2.5
 21
0.0
 31
0.0
  0
LINE
  5
1C6
  8
FORMAT
 62
     0
 10
0.0
 20
0.0
 30
0.0
 11
0.0
 21
-2.5
 31
0.0
  0
LINE
  5
1C7
  8
FORMAT
 62
     0
 10
0.0
 20
0.0
 30
0.0
 11
2.5
 21
0.0
 31
0.0
  0
LINE
  5
1C8
  8
FORMAT
 62
     0
 10
0.0
 20
5.0
 30
0.0
 11
0.0
 21
27.5
 31
0.0
  0
LINE
  5
1C9
  8
FORMAT
 62
     0
 10
-5.0
 20
0.0
 30
0.0
 11
-27.5
 21
0.0
 31
0.0
  0
LINE
  5
1CA
  8
FORMAT
 62
     0
 10
0.0
 20
-5.0
 30
0.0
 11
0.0
 21
-27.5
 31
0.0
  0
LINE
  5
1CB
  8
FORMAT
 62
     0
 10
5.0
 20
0.0
 30
0.0
 11
27.5
 21
0.0
 31
0.0
  0
ENDBLK
  5
1C3
  8
0
  0
BLOCK
  8
0
  2
SW_CENTERMARKSYMBOL_12
 70
     0
 10
0.0
 20
0.0
 30
0.0
  3
SW_CENTERMARKSYMBOL_12
  1

  0
LINE
  5
1D0
  8
FORMAT
 62
     0
 10
0.0
 20
0.0
 30
0.0
 11
0.0
 21
2.5
 31
0.0
  0
LINE
  5
1D1
  8
FORMAT
 62
     0
 10
0.0
 20
0.0
 30
0.0
 11
-2.5
 21
0.0
 31
0.0
  0
LINE
  5
1D2
  8
FORMAT
 62
     0
 10
0.0
 20
0.0
 30
0.0
 11
0.0
 21
-2.5
 31
0.0
  0
LINE
  5
1D3
  8
FORMAT
 62
     0
 10
0.0
 20
0.0
 30
0.0
 11
2.5
 21
0.0
 31
0.0
  0
LINE
  5
1D4
  8
FORMAT
 62
     0
 10
0.0
 20
5.0
 30
0.0
 11
0.0
 21
27.5
 31
0.0
  0
LINE
  5
1D5
  8
FORMAT
 62
     0
 10
-5.0
 20
0.0
 30
0.0
 11
-27.5
 21
0.0
 31
0.0
  0
LINE
  5
1D6
  8
FORMAT
 62
     0
 10
0.0
 20
-5.0
 30
0.0
 11
0.0
 21
-27.5
 31
0.0
  0
LINE
  5
1D7
  8
FORMAT
 62
     0
 10
5.0
 20
0.0
 30
0.0
 11
27.5
 21
0.0
 31
0.0
  0
ENDBLK
  5
1CF
  8
0
  0
BLOCK
  8
0
  2
SW_CENTERMARKSYMBOL_13
 70
     0
 10
0.0
 20
0.0
 30
0.0
  3
SW_CENTERMARKSYMBOL_13
  1

  0
LINE
  5
1DC
  8
FORMAT
 62
     0
 10
0.0
 20
0.0
 30
0.0
 11
0.0
 21
2.5
 31
0.0
  0
LINE
  5
1DD
  8
FORMAT
 62
     0
 10
0.0
 20
0.0
 30
0.0
 11
-2.5
 21
0.0
 31
0.0
  0
LINE
  5
1DE
  8
FORMAT
 62
     0
 10
0.0
 20
0.0
 30
0.0
 11
0.0
 21
-2.5
 31
0.0
  0
LINE
  5
1DF
  8
FORMAT
 62
     0
 10
0.0
 20
0.0
 30
0.0
 11
2.5
 21
0.0
 31
0.0
  0
LINE
  5
1E0
  8
FORMAT
 62
     0
 10
0.0
 20
5.0
 30
0.0
 11
0.0
 21
27.5
 31
0.0
  0
LINE
  5
1E1
  8
FORMAT
 62
     0
 10
-5.0
 20
0.0
 30
0.0
 11
-27.5
 21
0.0
 31
0.0
  0
LINE
  5
1E2
  8
FORMAT
 62
     0
 10
0.0
 20
-5.0
 30
0.0
 11
0.0
 21
-27.5
 31
0.0
  0
LINE
  5
1E3
  8
FORMAT
 62
     0
 10
5.0
 20
0.0
 30
0.0
 11
27.5
 21
0.0
 31
0.0
  0
ENDBLK
  5
1DB
  8
0
  0
BLOCK
  8
0
  2
SW_CENTERMARKSYMBOL_14
 70
     0
 10
0.0
 20
0.0
 30
0.0
  3
SW_CENTERMARKSYMBOL_14
  1

  0
LINE
  5
1E8
  8
FORMAT
 62
     0
 10
0.0
 20
0.0
 30
0.0
 11
0.0
 21
2.5
 31
0.0
  0
LINE
  5
1E9
  8
FORMAT
 62
     0
 10
0.0
 20
0.0
 30
0.0
 11
-2.5
 21
0.0
 31
0.0
  0
LINE
  5
1EA
  8
FORMAT
 62
     0
 10
0.0
 20
0.0
 30
0.0
 11
0.0
 21
-2.5
 31
0.0
  0
LINE
  5
1EB
  8
FORMAT
 62
     0
 10
0.0
 20
0.0
 30
0.0
 11
2.5
 21
0.0
 31
0.0
  0
LINE
  5
1EC
  8
FORMAT
 62
     0
 10
0.0
 20
5.0
 30
0.0
 11
0.0
 21
27.5
 31
0.0
  0
LINE
  5
1ED
  8
FORMAT
 62
     0
 10
-5.0
 20
0.0
 30
0.0
 11
-27.5
 21
0.0
 31
0.0
  0
LINE
  5
1EE
  8
FORMAT
 62
     0
 10
0.0
 20
-5.0
 30
0.0
 11
0.0
 21
-27.5
 31
0.0
  0
LINE
  5
1EF
  8
FORMAT
 62
     0
 10
5.0
 20
0.0
 30
0.0
 11
27.5
 21
0.0
 31
0.0
  0
ENDBLK
  5
1E7
  8
0
  0
BLOCK
  8
0
  2
SW_CENTERMARKSYMBOL_15
 70
     0
 10
0.0
 20
0.0
 30
0.0
  3
SW_CENTERMARKSYMBOL_15
  1

  0
LINE
  5
1F4
  8
FORMAT
 62
     0
 10
0.0
 20
0.0
 30
0.0
 11
0.0
 21
2.5
 31
0.0
  0
LINE
  5
1F5
  8
FORMAT
 62
     0
 10
0.0
 20
0.0
 30
0.0
 11
-2.5
 21
0.0
 31
0.0
  0
LINE
  5
1F6
  8
FORMAT
 62
     0
 10
0.0
 20
0.0
 30
0.0
 11
0.0
 21
-2.5
 31
0.0
  0
LINE
  5
1F7
  8
FORMAT
 62
     0
 10
0.0
 20
0.0
 30
0.0
 11
2.5
 21
0.0
 31
0.0
  0
LINE
  5
1F8
  8
FORMAT
 62
     0
 10
0.0
 20
5.0
 30
0.0
 11
0.0
 21
27.5
 31
0.0
  0
LINE
  5
1F9
  8
FORMAT
 62
     0
 10
-5.0
 20
0.0
 30
0.0
 11
-27.5
 21
0.0
 31
0.0
  0
LINE
  5
1FA
  8
FORMAT
 62
     0
 10
0.0
 20
-5.0
 30
0.0
 11
0.0
 21
-27.5
 31
0.0
  0
LINE
  5
1FB
  8
FORMAT
 62
     0
 10
5.0
 20
0.0
 30
0.0
 11
27.5
 21
0.0
 31
0.0
  0
ENDBLK
  5
1F3
  8
0
  0
BLOCK
  8
0
  2
SW_CENTERMARKSYMBOL_16
 70
     0
 10
0.0
 20
0.0
 30
0.0
  3
SW_CENTERMARKSYMBOL_16
  1

  0
LINE
  5
200
  8
FORMAT
 62
     0
 10
0.0
 20
0.0
 30
0.0
 11
0.0
 21
2.5
 31
0.0
  0
LINE
  5
201
  8
FORMAT
 62
     0
 10
0.0
 20
0.0
 30
0.0
 11
-2.5
 21
0.0
 31
0.0
  0
LINE
  5
202
  8
FORMAT
 62
     0
 10
0.0
 20
0.0
 30
0.0
 11
0.0
 21
-2.5
 31
0.0
  0
LINE
  5
203
  8
FORMAT
 62
     0
 10
0.0
 20
0.0
 30
0.0
 11
2.5
 21
0.0
 31
0.0
  0
LINE
  5
204
  8
FORMAT
 62
     0
 10
0.0
 20
5.0
 30
0.0
 11
0.0
 21
27.5
 31
0.0
  0
LINE
  5
205
  8
FORMAT
 62
     0
 10
-5.0
 20
0.0
 30
0.0
 11
-27.5
 21
0.0
 31
0.0
  0
LINE
  5
206
  8
FORMAT
 62
     0
 10
0.0
 20
-5.0
 30
0.0
 11
0.0
 21
-27.5
 31
0.0
  0
LINE
  5
207
  8
FORMAT
 62
     0
 10
5.0
 20
0.0
 30
0.0
 11
27.5
 21
0.0
 31
0.0
  0
ENDBLK
  5
1FF
  8
0
  0
BLOCK
  8
0
  2
SW_CENTERMARKSYMBOL_17
 70
     0
 10
0.0
 20
0.0
 30
0.0
  3
SW_CENTERMARKSYMBOL_17
  1

  0
LINE
  5
20C
  8
FORMAT
 62
     0
 10
0.0
 20
0.0
 30
0.0
 11
0.0
 21
2.5
 31
0.0
  0
LINE
  5
20D
  8
FORMAT
 62
     0
 10
0.0
 20
0.0
 30
0.0
 11
-2.5
 21
0.0
 31
0.0
  0
LINE
  5
20E
  8
FORMAT
 62
     0
 10
0.0
 20
0.0
 30
0.0
 11
0.0
 21
-2.5
 31
0.0
  0
LINE
  5
20F
  8
FORMAT
 62
     0
 10
0.0
 20
0.0
 30
0.0
 11
2.5
 21
0.0
 31
0.0
  0
LINE
  5
210
  8
FORMAT
 62
     0
 10
0.0
 20
5.0
 30
0.0
 11
0.0
 21
27.5
 31
0.0
  0
LINE
  5
211
  8
FORMAT
 62
     0
 10
-5.0
 20
0.0
 30
0.0
 11
-27.5
 21
0.0
 31
0.0
  0
LINE
  5
212
  8
FORMAT
 62
     0
 10
0.0
 20
-5.0
 30
0.0
 11
0.0
 21
-27.5
 31
0.0
  0
LINE
  5
213
  8
FORMAT
 62
     0
 10
5.0
 20
0.0
 30
0.0
 11
27.5
 21
0.0
 31
0.0
  0
ENDBLK
  5
20B
  8
0
  0
BLOCK
  8
0
  2
SW_CENTERMARKSYMBOL_18
 70
     0
 10
0.0
 20
0.0
 30
0.0
  3
SW_CENTERMARKSYMBOL_18
  1

  0
LINE
  5
218
  8
FORMAT
 62
     0
 10
0.0
 20
0.0
 30
0.0
 11
0.0
 21
2.5
 31
0.0
  0
LINE
  5
219
  8
FORMAT
 62
     0
 10
0.0
 20
0.0
 30
0.0
 11
-2.5
 21
0.0
 31
0.0
  0
LINE
  5
21A
  8
FORMAT
 62
     0
 10
0.0
 20
0.0
 30
0.0
 11
0.0
 21
-2.5
 31
0.0
  0
LINE
  5
21B
  8
FORMAT
 62
     0
 10
0.0
 20
0.0
 30
0.0
 11
2.5
 21
0.0
 31
0.0
  0
LINE
  5
21C
  8
FORMAT
 62
     0
 10
0.0
 20
5.0
 30
0.0
 11
0.0
 21
27.5
 31
0.0
  0
LINE
  5
21D
  8
FORMAT
 62
     0
 10
-5.0
 20
0.0
 30
0.0
 11
-27.5
 21
0.0
 31
0.0
  0
LINE
  5
21E
  8
FORMAT
 62
     0
 10
0.0
 20
-5.0
 30
0.0
 11
0.0
 21
-27.5
 31
0.0
  0
LINE
  5
21F
  8
FORMAT
 62
     0
 10
5.0
 20
0.0
 30
0.0
 11
27.5
 21
0.0
 31
0.0
  0
ENDBLK
  5
217
  8
0
  0
BLOCK
  8
0
  2
SW_CENTERMARKSYMBOL_19
 70
     0
 10
0.0
 20
0.0
 30
0.0
  3
SW_CENTERMARKSYMBOL_19
  1

  0
LINE
  5
224
  8
FORMAT
 62
     0
 10
0.0
 20
0.0
 30
0.0
 11
0.0
 21
2.5
 31
0.0
  0
LINE
  5
225
  8
FORMAT
 62
     0
 10
0.0
 20
0.0
 30
0.0
 11
-2.5
 21
0.0
 31
0.0
  0
LINE
  5
226
  8
FORMAT
 62
     0
 10
0.0
 20
0.0
 30
0.0
 11
0.0
 21
-2.5
 31
0.0
  0
LINE
  5
227
  8
FORMAT
 62
     0
 10
0.0
 20
0.0
 30
0.0
 11
2.5
 21
0.0
 31
0.0
  0
LINE
  5
228
  8
FORMAT
 62
     0
 10
0.0
 20
5.0
 30
0.0
 11
0.0
 21
27.5
 31
0.0
  0
LINE
  5
229
  8
FORMAT
 62
     0
 10
-5.0
 20
0.0
 30
0.0
 11
-27.5
 21
0.0
 31
0.0
  0
LINE
  5
22A
  8
FORMAT
 62
     0
 10
0.0
 20
-5.0
 30
0.0
 11
0.0
 21
-27.5
 31
0.0
  0
LINE
  5
22B
  8
FORMAT
 62
     0
 10
5.0
 20
0.0
 30
0.0
 11
27.5
 21
0.0
 31
0.0
  0
ENDBLK
  5
223
  8
0
  0
BLOCK
  8
0
  2
SW_CENTERMARKSYMBOL_20
 70
     0
 10
0.0
 20
0.0
 30
0.0
  3
SW_CENTERMARKSYMBOL_20
  1

  0
LINE
  5
230
  8
FORMAT
 62
     0
 10
0.0
 20
0.0
 30
0.0
 11
0.0
 21
2.5
 31
0.0
  0
LINE
  5
231
  8
FORMAT
 62
     0
 10
0.0
 20
0.0
 30
0.0
 11
-2.5
 21
0.0
 31
0.0
  0
LINE
  5
232
  8
FORMAT
 62
     0
 10
0.0
 20
0.0
 30
0.0
 11
0.0
 21
-2.5
 31
0.0
  0
LINE
  5
233
  8
FORMAT
 62
     0
 10
0.0
 20
0.0
 30
0.0
 11
2.5
 21
0.0
 31
0.0
  0
LINE
  5
234
  8
FORMAT
 62
     0
 10
0.0
 20
5.0
 30
0.0
 11
0.0
 21
27.5
 31
0.0
  0
LINE
  5
235
  8
FORMAT
 62
     0
 10
-5.0
 20
0.0
 30
0.0
 11
-27.5
 21
0.0
 31
0.0
  0
LINE
  5
236
  8
FORMAT
 62
     0
 10
0.0
 20
-5.0
 30
0.0
 11
0.0
 21
-27.5
 31
0.0
  0
LINE
  5
237
  8
FORMAT
 62
     0
 10
5.0
 20
0.0
 30
0.0
 11
27.5
 21
0.0
 31
0.0
  0
ENDBLK
  5
22F
  8
0
  0
BLOCK
  8
0
  2
SW_CENTERMARKSYMBOL_21
 70
     0
 10
0.0
 20
0.0
 30
0.0
  3
SW_CENTERMARKSYMBOL_21
  1

  0
LINE
  5
23C
  8
FORMAT
 62
     0
 10
0.0
 20
0.0
 30
0.0
 11
0.0
 21
2.5
 31
0.0
  0
LINE
  5
23D
  8
FORMAT
 62
     0
 10
0.0
 20
0.0
 30
0.0
 11
-2.5
 21
0.0
 31
0.0
  0
LINE
  5
23E
  8
FORMAT
 62
     0
 10
0.0
 20
0.0
 30
0.0
 11
0.0
 21
-2.5
 31
0.0
  0
LINE
  5
23F
  8
FORMAT
 62
     0
 10
0.0
 20
0.0
 30
0.0
 11
2.5
 21
0.0
 31
0.0
  0
LINE
  5
240
  8
FORMAT
 62
     0
 10
0.0
 20
5.0
 30
0.0
 11
0.0
 21
27.5
 31
0.0
  0
LINE
  5
241
  8
FORMAT
 62
     0
 10
-5.0
 20
0.0
 30
0.0
 11
-27.5
 21
0.0
 31
0.0
  0
LINE
  5
242
  8
FORMAT
 62
     0
 10
0.0
 20
-5.0
 30
0.0
 11
0.0
 21
-27.5
 31
0.0
  0
LINE
  5
243
  8
FORMAT
 62
     0
 10
5.0
 20
0.0
 30
0.0
 11
27.5
 21
0.0
 31
0.0
  0
ENDBLK
  5
23B
  8
0
  0
BLOCK
  8
0
  2
SW_CENTERMARKSYMBOL_22
 70
     0
 10
0.0
 20
0.0
 30
0.0
  3
SW_CENTERMARKSYMBOL_22
  1

  0
LINE
  5
248
  8
FORMAT
 62
     0
 10
0.0
 20
0.0
 30
0.0
 11
0.0
 21
2.5
 31
0.0
  0
LINE
  5
249
  8
FORMAT
 62
     0
 10
0.0
 20
0.0
 30
0.0
 11
-2.5
 21
0.0
 31
0.0
  0
LINE
  5
24A
  8
FORMAT
 62
     0
 10
0.0
 20
0.0
 30
0.0
 11
0.0
 21
-2.5
 31
0.0
  0
LINE
  5
24B
  8
FORMAT
 62
     0
 10
0.0
 20
0.0
 30
0.0
 11
2.5
 21
0.0
 31
0.0
  0
LINE
  5
24C
  8
FORMAT
 62
     0
 10
0.0
 20
5.0
 30
0.0
 11
0.0
 21
27.5
 31
0.0
  0
LINE
  5
24D
  8
FORMAT
 62
     0
 10
-5.0
 20
0.0
 30
0.0
 11
-27.5
 21
0.0
 31
0.0
  0
LINE
  5
24E
  8
FORMAT
 62
     0
 10
0.0
 20
-5.0
 30
0.0
 11
0.0
 21
-27.5
 31
0.0
  0
LINE
  5
24F
  8
FORMAT
 62
     0
 10
5.0
 20
0.0
 30
0.0
 11
27.5
 21
0.0
 31
0.0
  0
ENDBLK
  5
247
  8
0
  0
BLOCK
  8
0
  2
SW_CENTERMARKSYMBOL_23
 70
     0
 10
0.0
 20
0.0
 30
0.0
  3
SW_CENTERMARKSYMBOL_23
  1

  0
LINE
  5
254
  8
FORMAT
 62
     0
 10
0.0
 20
0.0
 30
0.0
 11
0.0
 21
2.5
 31
0.0
  0
LINE
  5
255
  8
FORMAT
 62
     0
 10
0.0
 20
0.0
 30
0.0
 11
-2.5
 21
0.0
 31
0.0
  0
LINE
  5
256
  8
FORMAT
 62
     0
 10
0.0
 20
0.0
 30
0.0
 11
0.0
 21
-2.5
 31
0.0
  0
LINE
  5
257
  8
FORMAT
 62
     0
 10
0.0
 20
0.0
 30
0.0
 11
2.5
 21
0.0
 31
0.0
  0
LINE
  5
258
  8
FORMAT
 62
     0
 10
0.0
 20
5.0
 30
0.0
 11
0.0
 21
27.5
 31
0.0
  0
LINE
  5
259
  8
FORMAT
 62
     0
 10
-5.0
 20
0.0
 30
0.0
 11
-27.5
 21
0.0
 31
0.0
  0
LINE
  5
25A
  8
FORMAT
 62
     0
 10
0.0
 20
-5.0
 30
0.0
 11
0.0
 21
-27.5
 31
0.0
  0
LINE
  5
25B
  8
FORMAT
 62
     0
 10
5.0
 20
0.0
 30
0.0
 11
27.5
 21
0.0
 31
0.0
  0
ENDBLK
  5
253
  8
0
  0
BLOCK
  8
0
  2
SW_CENTERMARKSYMBOL_24
 70
     0
 10
0.0
 20
0.0
 30
0.0
  3
SW_CENTERMARKSYMBOL_24
  1

  0
LINE
  5
260
  8
FORMAT
 62
     0
 10
0.0
 20
0.0
 30
0.0
 11
0.0
 21
2.5
 31
0.0
  0
LINE
  5
261
  8
FORMAT
 62
     0
 10
0.0
 20
0.0
 30
0.0
 11
-2.5
 21
0.0
 31
0.0
  0
LINE
  5
262
  8
FORMAT
 62
     0
 10
0.0
 20
0.0
 30
0.0
 11
0.0
 21
-2.5
 31
0.0
  0
LINE
  5
263
  8
FORMAT
 62
     0
 10
0.0
 20
0.0
 30
0.0
 11
2.5
 21
0.0
 31
0.0
  0
LINE
  5
264
  8
FORMAT
 62
     0
 10
0.0
 20
5.0
 30
0.0
 11
0.0
 21
27.5
 31
0.0
  0
LINE
  5
265
  8
FORMAT
 62
     0
 10
-5.0
 20
0.0
 30
0.0
 11
-27.5
 21
0.0
 31
0.0
  0
LINE
  5
266
  8
FORMAT
 62
     0
 10
0.0
 20
-5.0
 30
0.0
 11
0.0
 21
-27.5
 31
0.0
  0
LINE
  5
267
  8
FORMAT
 62
     0
 10
5.0
 20
0.0
 30
0.0
 11
27.5
 21
0.0
 31
0.0
  0
ENDBLK
  5
25F
  8
0
  0
BLOCK
  8
0
  2
SW_CENTERMARKSYMBOL_25
 70
     0
 10
0.0
 20
0.0
 30
0.0
  3
SW_CENTERMARKSYMBOL_25
  1

  0
LINE
  5
26C
  8
FORMAT
 62
     0
 10
0.0
 20
0.0
 30
0.0
 11
0.0
 21
2.5
 31
0.0
  0
LINE
  5
26D
  8
FORMAT
 62
     0
 10
0.0
 20
0.0
 30
0.0
 11
-2.5
 21
0.0
 31
0.0
  0
LINE
  5
26E
  8
FORMAT
 62
     0
 10
0.0
 20
0.0
 30
0.0
 11
0.0
 21
-2.5
 31
0.0
  0
LINE
  5
26F
  8
FORMAT
 62
     0
 10
0.0
 20
0.0
 30
0.0
 11
2.5
 21
0.0
 31
0.0
  0
LINE
  5
270
  8
FORMAT
 62
     0
 10
0.0
 20
5.0
 30
0.0
 11
0.0
 21
27.5
 31
0.0
  0
LINE
  5
271
  8
FORMAT
 62
     0
 10
-5.0
 20
0.0
 30
0.0
 11
-27.5
 21
0.0
 31
0.0
  0
LINE
  5
272
  8
FORMAT
 62
     0
 10
0.0
 20
-5.0
 30
0.0
 11
0.0
 21
-27.5
 31
0.0
  0
LINE
  5
273
  8
FORMAT
 62
     0
 10
5.0
 20
0.0
 30
0.0
 11
27.5
 21
0.0
 31
0.0
  0
ENDBLK
  5
26B
  8
0
  0
BLOCK
  8
0
  2
SW_CENTERMARKSYMBOL_26
 70
     0
 10
0.0
 20
0.0
 30
0.0
  3
SW_CENTERMARKSYMBOL_26
  1

  0
LINE
  5
278
  8
FORMAT
 62
     0
 10
0.0
 20
0.0
 30
0.0
 11
0.0
 21
2.5
 31
0.0
  0
LINE
  5
279
  8
FORMAT
 62
     0
 10
0.0
 20
0.0
 30
0.0
 11
-2.5
 21
0.0
 31
0.0
  0
LINE
  5
27A
  8
FORMAT
 62
     0
 10
0.0
 20
0.0
 30
0.0
 11
0.0
 21
-2.5
 31
0.0
  0
LINE
  5
27B
  8
FORMAT
 62
     0
 10
0.0
 20
0.0
 30
0.0
 11
2.5
 21
0.0
 31
0.0
  0
LINE
  5
27C
  8
FORMAT
 62
     0
 10
0.0
 20
5.0
 30
0.0
 11
0.0
 21
27.5
 31
0.0
  0
LINE
  5
27D
  8
FORMAT
 62
     0
 10
-5.0
 20
0.0
 30
0.0
 11
-27.5
 21
0.0
 31
0.0
  0
LINE
  5
27E
  8
FORMAT
 62
     0
 10
0.0
 20
-5.0
 30
0.0
 11
0.0
 21
-27.5
 31
0.0
  0
LINE
  5
27F
  8
FORMAT
 62
     0
 10
5.0
 20
0.0
 30
0.0
 11
27.5
 21
0.0
 31
0.0
  0
ENDBLK
  5
277
  8
0
  0
BLOCK
  8
0
  2
SW_CENTERMARKSYMBOL_27
 70
     0
 10
0.0
 20
0.0
 30
0.0
  3
SW_CENTERMARKSYMBOL_27
  1

  0
LINE
  5
284
  8
FORMAT
 62
     0
 10
0.0
 20
0.0
 30
0.0
 11
0.0
 21
2.5
 31
0.0
  0
LINE
  5
285
  8
FORMAT
 62
     0
 10
0.0
 20
0.0
 30
0.0
 11
-2.5
 21
0.0
 31
0.0
  0
LINE
  5
286
  8
FORMAT
 62
     0
 10
0.0
 20
0.0
 30
0.0
 11
0.0
 21
-2.5
 31
0.0
  0
LINE
  5
287
  8
FORMAT
 62
     0
 10
0.0
 20
0.0
 30
0.0
 11
2.5
 21
0.0
 31
0.0
  0
LINE
  5
288
  8
FORMAT
 62
     0
 10
0.0
 20
5.0
 30
0.0
 11
0.0
 21
27.5
 31
0.0
  0
LINE
  5
289
  8
FORMAT
 62
     0
 10
-5.0
 20
0.0
 30
0.0
 11
-27.5
 21
0.0
 31
0.0
  0
LINE
  5
28A
  8
FORMAT
 62
     0
 10
0.0
 20
-5.0
 30
0.0
 11
0.0
 21
-27.5
 31
0.0
  0
LINE
  5
28B
  8
FORMAT
 62
     0
 10
5.0
 20
0.0
 30
0.0
 11
27.5
 21
0.0
 31
0.0
  0
ENDBLK
  5
283
  8
0
  0
BLOCK
  8
0
  2
SW_CENTERMARKSYMBOL_28
 70
     0
 10
0.0
 20
0.0
 30
0.0
  3
SW_CENTERMARKSYMBOL_28
  1

  0
LINE
  5
290
  8
FORMAT
 62
     0
 10
0.0
 20
0.0
 30
0.0
 11
0.0
 21
2.5
 31
0.0
  0
LINE
  5
291
  8
FORMAT
 62
     0
 10
0.0
 20
0.0
 30
0.0
 11
-2.5
 21
0.0
 31
0.0
  0
LINE
  5
292
  8
FORMAT
 62
     0
 10
0.0
 20
0.0
 30
0.0
 11
0.0
 21
-2.5
 31
0.0
  0
LINE
  5
293
  8
FORMAT
 62
     0
 10
0.0
 20
0.0
 30
0.0
 11
2.5
 21
0.0
 31
0.0
  0
LINE
  5
294
  8
FORMAT
 62
     0
 10
0.0
 20
5.0
 30
0.0
 11
0.0
 21
27.5
 31
0.0
  0
LINE
  5
295
  8
FORMAT
 62
     0
 10
-5.0
 20
0.0
 30
0.0
 11
-27.5
 21
0.0
 31
0.0
  0
LINE
  5
296
  8
FORMAT
 62
     0
 10
0.0
 20
-5.0
 30
0.0
 11
0.0
 21
-27.5
 31
0.0
  0
LINE
  5
297
  8
FORMAT
 62
     0
 10
5.0
 20
0.0
 30
0.0
 11
27.5
 21
0.0
 31
0.0
  0
ENDBLK
  5
28F
  8
0
  0
BLOCK
  8
0
  2
SW_CENTERMARKSYMBOL_29
 70
     0
 10
0.0
 20
0.0
 30
0.0
  3
SW_CENTERMARKSYMBOL_29
  1

  0
LINE
  5
29C
  8
FORMAT
 62
     0
 10
0.0
 20
0.0
 30
0.0
 11
0.0
 21
2.5
 31
0.0
  0
LINE
  5
29D
  8
FORMAT
 62
     0
 10
0.0
 20
0.0
 30
0.0
 11
-2.5
 21
0.0
 31
0.0
  0
LINE
  5
29E
  8
FORMAT
 62
     0
 10
0.0
 20
0.0
 30
0.0
 11
0.0
 21
-2.5
 31
0.0
  0
LINE
  5
29F
  8
FORMAT
 62
     0
 10
0.0
 20
0.0
 30
0.0
 11
2.5
 21
0.0
 31
0.0
  0
LINE
  5
2A0
  8
FORMAT
 62
     0
 10
0.0
 20
5.0
 30
0.0
 11
0.0
 21
27.5
 31
0.0
  0
LINE
  5
2A1
  8
FORMAT
 62
     0
 10
-5.0
 20
0.0
 30
0.0
 11
-27.5
 21
0.0
 31
0.0
  0
LINE
  5
2A2
  8
FORMAT
 62
     0
 10
0.0
 20
-5.0
 30
0.0
 11
0.0
 21
-27.5
 31
0.0
  0
LINE
  5
2A3
  8
FORMAT
 62
     0
 10
5.0
 20
0.0
 30
0.0
 11
27.5
 21
0.0
 31
0.0
  0
ENDBLK
  5
29B
  8
0
  0
BLOCK
  8
0
  2
SW_CENTERMARKSYMBOL_30
 70
     0
 10
0.0
 20
0.0
 30
0.0
  3
SW_CENTERMARKSYMBOL_30
  1

  0
LINE
  5
2A8
  8
FORMAT
 62
     0
 10
0.0
 20
0.0
 30
0.0
 11
0.0
 21
2.5
 31
0.0
  0
LINE
  5
2A9
  8
FORMAT
 62
     0
 10
0.0
 20
0.0
 30
0.0
 11
-2.5
 21
0.0
 31
0.0
  0
LINE
  5
2AA
  8
FORMAT
 62
     0
 10
0.0
 20
0.0
 30
0.0
 11
0.0
 21
-2.5
 31
0.0
  0
LINE
  5
2AB
  8
FORMAT
 62
     0
 10
0.0
 20
0.0
 30
0.0
 11
2.5
 21
0.0
 31
0.0
  0
LINE
  5
2AC
  8
FORMAT
 62
     0
 10
0.0
 20
5.0
 30
0.0
 11
0.0
 21
27.5
 31
0.0
  0
LINE
  5
2AD
  8
FORMAT
 62
     0
 10
-5.0
 20
0.0
 30
0.0
 11
-27.5
 21
0.0
 31
0.0
  0
LINE
  5
2AE
  8
FORMAT
 62
     0
 10
0.0
 20
-5.0
 30
0.0
 11
0.0
 21
-27.5
 31
0.0
  0
LINE
  5
2AF
  8
FORMAT
 62
     0
 10
5.0
 20
0.0
 30
0.0
 11
27.5
 21
0.0
 31
0.0
  0
ENDBLK
  5
2A7
  8
0
  0
BLOCK
  8
0
  2
SW_CENTERMARKSYMBOL_31
 70
     0
 10
0.0
 20
0.0
 30
0.0
  3
SW_CENTERMARKSYMBOL_31
  1

  0
LINE
  5
2B4
  8
FORMAT
 62
     0
 10
0.0
 20
0.0
 30
0.0
 11
0.0
 21
2.5
 31
0.0
  0
LINE
  5
2B5
  8
FORMAT
 62
     0
 10
0.0
 20
0.0
 30
0.0
 11
-2.5
 21
0.0
 31
0.0
  0
LINE
  5
2B6
  8
FORMAT
 62
     0
 10
0.0
 20
0.0
 30
0.0
 11
0.0
 21
-2.5
 31
0.0
  0
LINE
  5
2B7
  8
FORMAT
 62
     0
 10
0.0
 20
0.0
 30
0.0
 11
2.5
 21
0.0
 31
0.0
  0
LINE
  5
2B8
  8
FORMAT
 62
     0
 10
0.0
 20
5.0
 30
0.0
 11
0.0
 21
27.5
 31
0.0
  0
LINE
  5
2B9
  8
FORMAT
 62
     0
 10
-5.0
 20
0.0
 30
0.0
 11
-27.5
 21
0.0
 31
0.0
  0
LINE
  5
2BA
  8
FORMAT
 62
     0
 10
0.0
 20
-5.0
 30
0.0
 11
0.0
 21
-27.5
 31
0.0
  0
LINE
  5
2BB
  8
FORMAT
 62
     0
 10
5.0
 20
0.0
 30
0.0
 11
27.5
 21
0.0
 31
0.0
  0
ENDBLK
  5
2B3
  8
0
  0
BLOCK
  8
0
  2
SW_CENTERMARKSYMBOL_32
 70
     0
 10
0.0
 20
0.0
 30
0.0
  3
SW_CENTERMARKSYMBOL_32
  1

  0
LINE
  5
2C0
  8
FORMAT
 62
     0
 10
0.0
 20
0.0
 30
0.0
 11
0.0
 21
2.5
 31
0.0
  0
LINE
  5
2C1
  8
FORMAT
 62
     0
 10
0.0
 20
0.0
 30
0.0
 11
-2.5
 21
0.0
 31
0.0
  0
LINE
  5
2C2
  8
FORMAT
 62
     0
 10
0.0
 20
0.0
 30
0.0
 11
0.0
 21
-2.5
 31
0.0
  0
LINE
  5
2C3
  8
FORMAT
 62
     0
 10
0.0
 20
0.0
 30
0.0
 11
2.5
 21
0.0
 31
0.0
  0
LINE
  5
2C4
  8
FORMAT
 62
     0
 10
0.0
 20
5.0
 30
0.0
 11
0.0
 21
27.5
 31
0.0
  0
LINE
  5
2C5
  8
FORMAT
 62
     0
 10
-5.0
 20
0.0
 30
0.0
 11
-27.5
 21
0.0
 31
0.0
  0
LINE
  5
2C6
  8
FORMAT
 62
     0
 10
0.0
 20
-5.0
 30
0.0
 11
0.0
 21
-27.5
 31
0.0
  0
LINE
  5
2C7
  8
FORMAT
 62
     0
 10
5.0
 20
0.0
 30
0.0
 11
27.5
 21
0.0
 31
0.0
  0
ENDBLK
  5
2BF
  8
0
  0
BLOCK
  8
0
  2
SW_CENTERMARKSYMBOL_33
 70
     0
 10
0.0
 20
0.0
 30
0.0
  3
SW_CENTERMARKSYMBOL_33
  1

  0
LINE
  5
2CC
  8
FORMAT
 62
     0
 10
0.0
 20
0.0
 30
0.0
 11
0.0
 21
2.5
 31
0.0
  0
LINE
  5
2CD
  8
FORMAT
 62
     0
 10
0.0
 20
0.0
 30
0.0
 11
-2.5
 21
0.0
 31
0.0
  0
LINE
  5
2CE
  8
FORMAT
 62
     0
 10
0.0
 20
0.0
 30
0.0
 11
0.0
 21
-2.5
 31
0.0
  0
LINE
  5
2CF
  8
FORMAT
 62
     0
 10
0.0
 20
0.0
 30
0.0
 11
2.5
 21
0.0
 31
0.0
  0
LINE
  5
2D0
  8
FORMAT
 62
     0
 10
0.0
 20
5.0
 30
0.0
 11
0.0
 21
27.5
 31
0.0
  0
LINE
  5
2D1
  8
FORMAT
 62
     0
 10
-5.0
 20
0.0
 30
0.0
 11
-27.5
 21
0.0
 31
0.0
  0
LINE
  5
2D2
  8
FORMAT
 62
     0
 10
0.0
 20
-5.0
 30
0.0
 11
0.0
 21
-27.5
 31
0.0
  0
LINE
  5
2D3
  8
FORMAT
 62
     0
 10
5.0
 20
0.0
 30
0.0
 11
27.5
 21
0.0
 31
0.0
  0
ENDBLK
  5
2CB
  8
0
  0
BLOCK
  8
0
  2
SW_CENTERMARKSYMBOL_34
 70
     0
 10
0.0
 20
0.0
 30
0.0
  3
SW_CENTERMARKSYMBOL_34
  1

  0
LINE
  5
2D8
  8
FORMAT
 62
     0
 10
0.0
 20
0.0
 30
0.0
 11
0.0
 21
2.5
 31
0.0
  0
LINE
  5
2D9
  8
FORMAT
 62
     0
 10
0.0
 20
0.0
 30
0.0
 11
-2.5
 21
0.0
 31
0.0
  0
LINE
  5
2DA
  8
FORMAT
 62
     0
 10
0.0
 20
0.0
 30
0.0
 11
0.0
 21
-2.5
 31
0.0
  0
LINE
  5
2DB
  8
FORMAT
 62
     0
 10
0.0
 20
0.0
 30
0.0
 11
2.5
 21
0.0
 31
0.0
  0
LINE
  5
2DC
  8
FORMAT
 62
     0
 10
0.0
 20
5.0
 30
0.0
 11
0.0
 21
27.5
 31
0.0
  0
LINE
  5
2DD
  8
FORMAT
 62
     0
 10
-5.0
 20
0.0
 30
0.0
 11
-27.5
 21
0.0
 31
0.0
  0
LINE
  5
2DE
  8
FORMAT
 62
     0
 10
0.0
 20
-5.0
 30
0.0
 11
0.0
 21
-27.5
 31
0.0
  0
LINE
  5
2DF
  8
FORMAT
 62
     0
 10
5.0
 20
0.0
 30
0.0
 11
27.5
 21
0.0
 31
0.0
  0
ENDBLK
  5
2D7
  8
0
  0
BLOCK
  8
0
  2
SW_CENTERMARKSYMBOL_35
 70
     0
 10
0.0
 20
0.0
 30
0.0
  3
SW_CENTERMARKSYMBOL_35
  1

  0
LINE
  5
2E4
  8
FORMAT
 62
     0
 10
0.0
 20
0.0
 30
0.0
 11
0.0
 21
2.5
 31
0.0
  0
LINE
  5
2E5
  8
FORMAT
 62
     0
 10
0.0
 20
0.0
 30
0.0
 11
-2.5
 21
0.0
 31
0.0
  0
LINE
  5
2E6
  8
FORMAT
 62
     0
 10
0.0
 20
0.0
 30
0.0
 11
0.0
 21
-2.5
 31
0.0
  0
LINE
  5
2E7
  8
FORMAT
 62
     0
 10
0.0
 20
0.0
 30
0.0
 11
2.5
 21
0.0
 31
0.0
  0
LINE
  5
2E8
  8
FORMAT
 62
     0
 10
0.0
 20
5.0
 30
0.0
 11
0.0
 21
27.5
 31
0.0
  0
LINE
  5
2E9
  8
FORMAT
 62
     0
 10
-5.0
 20
0.0
 30
0.0
 11
-27.5
 21
0.0
 31
0.0
  0
LINE
  5
2EA
  8
FORMAT
 62
     0
 10
0.0
 20
-5.0
 30
0.0
 11
0.0
 21
-27.5
 31
0.0
  0
LINE
  5
2EB
  8
FORMAT
 62
     0
 10
5.0
 20
0.0
 30
0.0
 11
27.5
 21
0.0
 31
0.0
  0
ENDBLK
  5
2E3
  8
0
  0
BLOCK
  8
0
  2
SW_CENTERMARKSYMBOL_36
 70
     0
 10
0.0
 20
0.0
 30
0.0
  3
SW_CENTERMARKSYMBOL_36
  1

  0
LINE
  5
2F0
  8
FORMAT
 62
     0
 10
0.0
 20
0.0
 30
0.0
 11
0.0
 21
2.5
 31
0.0
  0
LINE
  5
2F1
  8
FORMAT
 62
     0
 10
0.0
 20
0.0
 30
0.0
 11
-2.5
 21
0.0
 31
0.0
  0
LINE
  5
2F2
  8
FORMAT
 62
     0
 10
0.0
 20
0.0
 30
0.0
 11
0.0
 21
-2.5
 31
0.0
  0
LINE
  5
2F3
  8
FORMAT
 62
     0
 10
0.0
 20
0.0
 30
0.0
 11
2.5
 21
0.0
 31
0.0
  0
LINE
  5
2F4
  8
FORMAT
 62
     0
 10
0.0
 20
5.0
 30
0.0
 11
0.0
 21
27.5
 31
0.0
  0
LINE
  5
2F5
  8
FORMAT
 62
     0
 10
-5.0
 20
0.0
 30
0.0
 11
-27.5
 21
0.0
 31
0.0
  0
LINE
  5
2F6
  8
FORMAT
 62
     0
 10
0.0
 20
-5.0
 30
0.0
 11
0.0
 21
-27.5
 31
0.0
  0
LINE
  5
2F7
  8
FORMAT
 62
     0
 10
5.0
 20
0.0
 30
0.0
 11
27.5
 21
0.0
 31
0.0
  0
ENDBLK
  5
2EF
  8
0
  0
BLOCK
  8
0
  2
SW_CENTERMARKSYMBOL_37
 70
     0
 10
0.0
 20
0.0
 30
0.0
  3
SW_CENTERMARKSYMBOL_37
  1

  0
LINE
  5
2FC
  8
FORMAT
 62
     0
 10
0.0
 20
0.0
 30
0.0
 11
0.0
 21
2.5
 31
0.0
  0
LINE
  5
2FD
  8
FORMAT
 62
     0
 10
0.0
 20
0.0
 30
0.0
 11
-2.5
 21
0.0
 31
0.0
  0
LINE
  5
2FE
  8
FORMAT
 62
     0
 10
0.0
 20
0.0
 30
0.0
 11
0.0
 21
-2.5
 31
0.0
  0
LINE
  5
2FF
  8
FORMAT
 62
     0
 10
0.0
 20
0.0
 30
0.0
 11
2.5
 21
0.0
 31
0.0
  0
LINE
  5
300
  8
FORMAT
 62
     0
 10
0.0
 20
5.0
 30
0.0
 11
0.0
 21
27.5
 31
0.0
  0
LINE
  5
301
  8
FORMAT
 62
     0
 10
-5.0
 20
0.0
 30
0.0
 11
-27.5
 21
0.0
 31
0.0
  0
LINE
  5
302
  8
FORMAT
 62
     0
 10
0.0
 20
-5.0
 30
0.0
 11
0.0
 21
-27.5
 31
0.0
  0
LINE
  5
303
  8
FORMAT
 62
     0
 10
5.0
 20
0.0
 30
0.0
 11
27.5
 21
0.0
 31
0.0
  0
ENDBLK
  5
2FB
  8
0
  0
BLOCK
  8
0
  2
SW_CENTERMARKSYMBOL_38
 70
     0
 10
0.0
 20
0.0
 30
0.0
  3
SW_CENTERMARKSYMBOL_38
  1

  0
LINE
  5
308
  8
FORMAT
 62
     0
 10
0.0
 20
0.0
 30
0.0
 11
0.0
 21
2.5
 31
0.0
  0
LINE
  5
309
  8
FORMAT
 62
     0
 10
0.0
 20
0.0
 30
0.0
 11
-2.5
 21
0.0
 31
0.0
  0
LINE
  5
30A
  8
FORMAT
 62
     0
 10
0.0
 20
0.0
 30
0.0
 11
0.0
 21
-2.5
 31
0.0
  0
LINE
  5
30B
  8
FORMAT
 62
     0
 10
0.0
 20
0.0
 30
0.0
 11
2.5
 21
0.0
 31
0.0
  0
LINE
  5
30C
  8
FORMAT
 62
     0
 10
0.0
 20
5.0
 30
0.0
 11
0.0
 21
27.5
 31
0.0
  0
LINE
  5
30D
  8
FORMAT
 62
     0
 10
-5.0
 20
0.0
 30
0.0
 11
-27.5
 21
0.0
 31
0.0
  0
LINE
  5
30E
  8
FORMAT
 62
     0
 10
0.0
 20
-5.0
 30
0.0
 11
0.0
 21
-27.5
 31
0.0
  0
LINE
  5
30F
  8
FORMAT
 62
     0
 10
5.0
 20
0.0
 30
0.0
 11
27.5
 21
0.0
 31
0.0
  0
ENDBLK
  5
307
  8
0
  0
BLOCK
  8
0
  2
SW_CENTERMARKSYMBOL_39
 70
     0
 10
0.0
 20
0.0
 30
0.0
  3
SW_CENTERMARKSYMBOL_39
  1

  0
LINE
  5
314
  8
FORMAT
 62
     0
 10
0.0
 20
0.0
 30
0.0
 11
0.0
 21
2.5
 31
0.0
  0
LINE
  5
315
  8
FORMAT
 62
     0
 10
0.0
 20
0.0
 30
0.0
 11
-2.5
 21
0.0
 31
0.0
  0
LINE
  5
316
  8
FORMAT
 62
     0
 10
0.0
 20
0.0
 30
0.0
 11
0.0
 21
-2.5
 31
0.0
  0
LINE
  5
317
  8
FORMAT
 62
     0
 10
0.0
 20
0.0
 30
0.0
 11
2.5
 21
0.0
 31
0.0
  0
LINE
  5
318
  8
FORMAT
 62
     0
 10
0.0
 20
5.0
 30
0.0
 11
0.0
 21
27.5
 31
0.0
  0
LINE
  5
319
  8
FORMAT
 62
     0
 10
-5.0
 20
0.0
 30
0.0
 11
-27.5
 21
0.0
 31
0.0
  0
LINE
  5
31A
  8
FORMAT
 62
     0
 10
0.0
 20
-5.0
 30
0.0
 11
0.0
 21
-27.5
 31
0.0
  0
LINE
  5
31B
  8
FORMAT
 62
     0
 10
5.0
 20
0.0
 30
0.0
 11
27.5
 21
0.0
 31
0.0
  0
ENDBLK
  5
313
  8
0
  0
BLOCK
  8
0
  2
SW_CENTERMARKSYMBOL_40
 70
     0
 10
0.0
 20
0.0
 30
0.0
  3
SW_CENTERMARKSYMBOL_40
  1

  0
LINE
  5
320
  8
FORMAT
 62
     0
 10
0.0
 20
0.0
 30
0.0
 11
0.0
 21
2.5
 31
0.0
  0
LINE
  5
321
  8
FORMAT
 62
     0
 10
0.0
 20
0.0
 30
0.0
 11
-2.5
 21
0.0
 31
0.0
  0
LINE
  5
322
  8
FORMAT
 62
     0
 10
0.0
 20
0.0
 30
0.0
 11
0.0
 21
-2.5
 31
0.0
  0
LINE
  5
323
  8
FORMAT
 62
     0
 10
0.0
 20
0.0
 30
0.0
 11
2.5
 21
0.0
 31
0.0
  0
LINE
  5
324
  8
FORMAT
 62
     0
 10
0.0
 20
5.0
 30
0.0
 11
0.0
 21
27.5
 31
0.0
  0
LINE
  5
325
  8
FORMAT
 62
     0
 10
-5.0
 20
0.0
 30
0.0
 11
-27.5
 21
0.0
 31
0.0
  0
LINE
  5
326
  8
FORMAT
 62
     0
 10
0.0
 20
-5.0
 30
0.0
 11
0.0
 21
-27.5
 31
0.0
  0
LINE
  5
327
  8
FORMAT
 62
     0
 10
5.0
 20
0.0
 30
0.0
 11
27.5
 21
0.0
 31
0.0
  0
ENDBLK
  5
31F
  8
0
  0
BLOCK
  8
0
  2
SW_CENTERMARKSYMBOL_41
 70
     0
 10
0.0
 20
0.0
 30
0.0
  3
SW_CENTERMARKSYMBOL_41
  1

  0
LINE
  5
449
  8
FORMAT
 62
     0
 10
0.0
 20
0.0
 30
0.0
 11
0.0
 21
2.5
 31
0.0
  0
LINE
  5
44A
  8
FORMAT
 62
     0
 10
0.0
 20
0.0
 30
0.0
 11
-2.5
 21
0.0
 31
0.0
  0
LINE
  5
44B
  8
FORMAT
 62
     0
 10
0.0
 20
0.0
 30
0.0
 11
0.0
 21
-2.5
 31
0.0
  0
LINE
  5
44C
  8
FORMAT
 62
     0
 10
0.0
 20
0.0
 30
0.0
 11
2.5
 21
0.0
 31
0.0
  0
LINE
  5
44D
  8
FORMAT
 62
     0
 10
0.0
 20
5.0
 30
0.0
 11
0.0
 21
124.2705775637
 31
0.0
  0
LINE
  5
44E
  8
FORMAT
 62
     0
 10
-5.0
 20
0.0
 30
0.0
 11
-124.2705775637
 21
0.0
 31
0.0
  0
LINE
  5
44F
  8
FORMAT
 62
     0
 10
0.0
 20
-5.0
 30
0.0
 11
0.0
 21
-124.2705775637
 31
0.0
  0
LINE
  5
450
  8
FORMAT
 62
     0
 10
5.0
 20
0.0
 30
0.0
 11
124.2705775637
 21
0.0
 31
0.0
  0
ENDBLK
  5
448
  8
0
  0
BLOCK
  8
0
  2
SW_CENTERMARKSYMBOL_42
 70
     0
 10
0.0
 20
0.0
 30
0.0
  3
SW_CENTERMARKSYMBOL_42
  1

  0
LINE
  5
521
  8
FORMAT
 62
     0
 10
0.0
 20
0.0
 30
0.0
 11
0.0
 21
2.5
 31
0.0
  0
LINE
  5
522
  8
FORMAT
 62
     0
 10
0.0
 20
0.0
 30
0.0
 11
-2.5
 21
0.0
 31
0.0
  0
LINE
  5
523
  8
FORMAT
 62
     0
 10
0.0
 20
0.0
 30
0.0
 11
0.0
 21
-2.5
 31
0.0
  0
LINE
  5
524
  8
FORMAT
 62
     0
 10
0.0
 20
0.0
 30
0.0
 11
2.5
 21
0.0
 31
0.0
  0
LINE
  5
525
  8
FORMAT
 62
     0
 10
0.0
 20
5.0
 30
0.0
 11
0.0
 21
210.0
 31
0.0
  0
LINE
  5
526
  8
FORMAT
 62
     0
 10
-5.0
 20
0.0
 30
0.0
 11
-210.0
 21
0.0
 31
0.0
  0
LINE
  5
527
  8
FORMAT
 62
     0
 10
0.0
 20
-5.0
 30
0.0
 11
0.0
 21
-210.0
 31
0.0
  0
LINE
  5
528
  8
FORMAT
 62
     0
 10
5.0
 20
0.0
 30
0.0
 11
210.0
 21
0.0
 31
0.0
  0
ENDBLK
  5
520
  8
0
  0
BLOCK
  8
0
  2
SW_CENTERMARKSYMBOL_43
 70
     0
 10
0.0
 20
0.0
 30
0.0
  3
SW_CENTERMARKSYMBOL_43
  1

  0
LINE
  5
52D
  8
FORMAT
 62
     0
 10
0.0
 20
0.0
 30
0.0
 11
0.0
 21
2.5
 31
0.0
  0
LINE
  5
52E
  8
FORMAT
 62
     0
 10
0.0
 20
0.0
 30
0.0
 11
-2.5
 21
0.0
 31
0.0
  0
LINE
  5
52F
  8
FORMAT
 62
     0
 10
0.0
 20
0.0
 30
0.0
 11
0.0
 21
-2.5
 31
0.0
  0
LINE
  5
530
  8
FORMAT
 62
     0
 10
0.0
 20
0.0
 30
0.0
 11
2.5
 21
0.0
 31
0.0
  0
LINE
  5
531
  8
FORMAT
 62
     0
 10
0.0
 20
5.0
 30
0.0
 11
0.0
 21
27.5
 31
0.0
  0
LINE
  5
532
  8
FORMAT
 62
     0
 10
-5.0
 20
0.0
 30
0.0
 11
-27.5
 21
0.0
 31
0.0
  0
LINE
  5
533
  8
FORMAT
 62
     0
 10
0.0
 20
-5.0
 30
0.0
 11
0.0
 21
-27.5
 31
0.0
  0
LINE
  5
534
  8
FORMAT
 62
     0
 10
5.0
 20
0.0
 30
0.0
 11
27.5
 21
0.0
 31
0.0
  0
ENDBLK
  5
52C
  8
0
  0
BLOCK
  8
0
  2
SW_CENTERMARKSYMBOL_44
 70
     0
 10
0.0
 20
0.0
 30
0.0
  3
SW_CENTERMARKSYMBOL_44
  1

  0
LINE
  5
539
  8
FORMAT
 62
     0
 10
0.0
 20
0.0
 30
0.0
 11
0.0
 21
2.5
 31
0.0
  0
LINE
  5
53A
  8
FORMAT
 62
     0
 10
0.0
 20
0.0
 30
0.0
 11
-2.5
 21
0.0
 31
0.0
  0
LINE
  5
53B
  8
FORMAT
 62
     0
 10
0.0
 20
0.0
 30
0.0
 11
0.0
 21
-2.5
 31
0.0
  0
LINE
  5
53C
  8
FORMAT
 62
     0
 10
0.0
 20
0.0
 30
0.0
 11
2.5
 21
0.0
 31
0.0
  0
LINE
  5
53D
  8
FORMAT
 62
     0
 10
0.0
 20
5.0
 30
0.0
 11
0.0
 21
27.5
 31
0.0
  0
LINE
  5
53E
  8
FORMAT
 62
     0
 10
-5.0
 20
0.0
 30
0.0
 11
-27.5
 21
0.0
 31
0.0
  0
LINE
  5
53F
  8
FORMAT
 62
     0
 10
0.0
 20
-5.0
 30
0.0
 11
0.0
 21
-27.5
 31
0.0
  0
LINE
  5
540
  8
FORMAT
 62
     0
 10
5.0
 20
0.0
 30
0.0
 11
27.5
 21
0.0
 31
0.0
  0
ENDBLK
  5
538
  8
0
  0
BLOCK
  8
0
  2
SW_CENTERMARKSYMBOL_45
 70
     0
 10
0.0
 20
0.0
 30
0.0
  3
SW_CENTERMARKSYMBOL_45
  1

  0
LINE
  5
545
  8
FORMAT
 62
     0
 10
0.0
 20
0.0
 30
0.0
 11
0.0
 21
2.5
 31
0.0
  0
LINE
  5
546
  8
FORMAT
 62
     0
 10
0.0
 20
0.0
 30
0.0
 11
-2.5
 21
0.0
 31
0.0
  0
LINE
  5
547
  8
FORMAT
 62
     0
 10
0.0
 20
0.0
 30
0.0
 11
0.0
 21
-2.5
 31
0.0
  0
LINE
  5
548
  8
FORMAT
 62
     0
 10
0.0
 20
0.0
 30
0.0
 11
2.5
 21
0.0
 31
0.0
  0
LINE
  5
549
  8
FORMAT
 62
     0
 10
0.0
 20
5.0
 30
0.0
 11
0.0
 21
27.5
 31
0.0
  0
LINE
  5
54A
  8
FORMAT
 62
     0
 10
-5.0
 20
0.0
 30
0.0
 11
-27.5
 21
0.0
 31
0.0
  0
LINE
  5
54B
  8
FORMAT
 62
     0
 10
0.0
 20
-5.0
 30
0.0
 11
0.0
 21
-27.5
 31
0.0
  0
LINE
  5
54C
  8
FORMAT
 62
     0
 10
5.0
 20
0.0
 30
0.0
 11
27.5
 21
0.0
 31
0.0
  0
ENDBLK
  5
544
  8
0
  0
BLOCK
  8
0
  2
SW_CENTERMARKSYMBOL_46
 70
     0
 10
0.0
 20
0.0
 30
0.0
  3
SW_CENTERMARKSYMBOL_46
  1

  0
LINE
  5
551
  8
FORMAT
 62
     0
 10
0.0
 20
0.0
 30
0.0
 11
0.0
 21
2.5
 31
0.0
  0
LINE
  5
552
  8
FORMAT
 62
     0
 10
0.0
 20
0.0
 30
0.0
 11
-2.5
 21
0.0
 31
0.0
  0
LINE
  5
553
  8
FORMAT
 62
     0
 10
0.0
 20
0.0
 30
0.0
 11
0.0
 21
-2.5
 31
0.0
  0
LINE
  5
554
  8
FORMAT
 62
     0
 10
0.0
 20
0.0
 30
0.0
 11
2.5
 21
0.0
 31
0.0
  0
LINE
  5
555
  8
FORMAT
 62
     0
 10
0.0
 20
5.0
 30
0.0
 11
0.0
 21
27.5
 31
0.0
  0
LINE
  5
556
  8
FORMAT
 62
     0
 10
-5.0
 20
0.0
 30
0.0
 11
-27.5
 21
0.0
 31
0.0
  0
LINE
  5
557
  8
FORMAT
 62
     0
 10
0.0
 20
-5.0
 30
0.0
 11
0.0
 21
-27.5
 31
0.0
  0
LINE
  5
558
  8
FORMAT
 62
     0
 10
5.0
 20
0.0
 30
0.0
 11
27.5
 21
0.0
 31
0.0
  0
ENDBLK
  5
550
  8
0
  0
ENDSEC
  0
SECTION
  2
ENTITIES
  0
ARC
  5
46
  8
0
  6
CONTINUOUS
 62
     7
 10
333.1170071259
 20
3602.7738906031
 30
0.0
 40
12.49999999999955
 50
90.0
 51
270.0
  0
ARC
  5
47
  8
0
  6
CONTINUOUS
 62
     7
 10
1008.1170071259
 20
3602.7738906031
 30
0.0
 40
12.49999999999955
 50
270.0
 51
90.0
  0
LINE
  5
48
  8
0
  6
CONTINUOUS
 62
     7
 10
333.1169928208
 20
3590.2738753444
 30
0.0
 11
1008.1170047417
 21
3590.2738753444
 31
0.0
  0
LINE
  5
49
  8
0
  6
CONTINUOUS
 62
     7
 10
1008.1170047417
 20
3615.2739111071
 30
0.0
 11
333.1169928208
 21
3615.2739111071
 31
0.0
  0
LINE
  5
4A
  8
0
  6
CONTINUOUS
 62
     7
 10
657.1357096329
 20
3524.1550985461
 30
0.0
 11
569.2177857056
 21
3590.2738753444
 31
0.0
  0
LINE
  5
4B
  8
0
  6
CONTINUOUS
 62
     7
 10
542.5976360932
 20
3590.2738753444
 30
0.0
 11
648.9877546921
 21
3510.2630737906
 31
0.0
  0
LINE
  5
4C
  8
0
  6
CONTINUOUS
 62
     7
 10
712.3824204102
 20
3508.9909020549
 30
0.0
 11
966.0100783005
 21
3590.2738753444
 31
0.0
  0
LINE
  5
4D
  8
0
  6
CONTINUOUS
 62
     7
 10
913.5840381279
 20
3590.2738753444
 30
0.0
 11
711.6101826325
 21
3525.5450192576
 31
0.0
  0
LINE
  5
4E
  8
0
  6
CONTINUOUS
 62
     7
 10
548.8464678421
 20
3304.7738853579
 30
0.0
 11
548.8464678421
 21
3264.7738937026
 31
0.0
  0
LINE
  5
4F
  8
0
  6
CONTINUOUS
 62
     7
 10
792.387589325
 20
3264.7738937026
 30
0.0
 11
792.387589325
 21
3304.7738853579
 31
0.0
  0
LINE
  5
50
  8
0
  6
CONTINUOUS
 62
     7
 10
549.7519816056
 20
3264.7738937026
 30
0.0
 11
549.8399580613
 21
3262.2541222459
 31
0.0
  0
LINE
  5
51
  8
0
  6
CONTINUOUS
 62
     7
 10
791.3940991059
 20
3262.2541222459
 30
0.0
 11
791.4820755616
 21
3264.7738937026
 31
0.0
  0
ARC
  5
52
  8
0
  6
CONTINUOUS
 62
     7
 10
767.4087098518
 20
3263.0917053791
 30
0.0
 40
23.99999999999985
 50
330.0
 51
358.0
  0
ARC
  5
53
  8
0
  6
CONTINUOUS
 62
     7
 10
573.8253044
 20
3263.0917053791
 30
0.0
 40
24.00000000000007
 50
182.0
 51
210.0
  0
LINE
  5
54
  8
0
  6
CONTINUOUS
 62
     7
 10
553.0407274857
 20
3251.091707099
 30
0.0
 11
571.9880903855
 21
3218.2738963252
 31
0.0
  0
LINE
  5
55
  8
0
  6
CONTINUOUS
 62
     7
 10
769.2459667817
 20
3218.2738963252
 30
0.0
 11
788.1933296814
 21
3251.091707099
 31
0.0
  0
ARC
  5
56
  8
0
  6
CONTINUOUS
 62
     7
 10
558.0429729894
 20
3324.7738906038
 30
0.0
 40
19.99999999999987
 50
274.826857915
 51
279.0
  0
ARC
  5
57
  8
0
  6
CONTINUOUS
 62
     7
 10
783.1910412624
 20
3324.7738906038
 30
0.0
 40
19.99999999999983
 50
261.0
 51
265.173142085
  0
LINE
  5
58
  8
0
  6
CONTINUOUS
 62
     7
 10
781.5081919327
 20
3304.7738853579
 30
0.0
 11
781.5081919327
 21
3304.8448148852
 31
0.0
  0
LINE
  5
59
  8
0
  6
CONTINUOUS
 62
     7
 10
559.7258652344
 20
3304.8448148852
 30
0.0
 11
559.7258652344
 21
3304.7738853579
 31
0.0
  0
LINE
  5
5A
  8
0
  6
CONTINUOUS
 62
     7
 10
780.0623024598
 20
3305.0201121455
 30
0.0
 11
700.381978859
 21
3317.6402631884
 31
0.0
  0
LINE
  5
5B
  8
0
  6
CONTINUOUS
 62
     7
 10
640.8519590989
 20
3317.6402631884
 30
0.0
 11
561.1716354981
 21
3305.0201121455
 31
0.0
  0
ARC
  5
5C
  8
0
  6
CONTINUOUS
 62
     7
 10
592.7726785951
 20
3230.2738906032
 30
0.0
 40
23.99999999999987
 50
210.0
 51
270.0
  0
ARC
  5
5D
  8
0
  6
CONTINUOUS
 62
     7
 10
748.4613356567
 20
3230.2738906032
 30
0.0
 40
23.99999999999987
 50
270.0
 51
330.0
  0
LINE
  5
5E
  8
0
  6
CONTINUOUS
 62
     7
 10
715.6170452729
 20
3458.9338782912
 30
0.0
 11
715.6170452729
 21
3510.0275162345
 31
0.0
  0
LINE
  5
5F
  8
0
  6
CONTINUOUS
 62
     7
 10
715.6170452729
 20
3526.8291417247
 30
0.0
 11
715.6170452729
 21
3532.2739068156
 31
0.0
  0
LINE
  5
60
  8
0
  6
CONTINUOUS
 62
     7
 10
625.6170118943
 20
3527.8390828257
 30
0.0
 11
625.6170118943
 21
3458.9338782912
 31
0.0
  0
ARC
  5
61
  8
0
  6
CONTINUOUS
 62
     7
 10
701.9463556532
 20
3327.5171334055
 30
0.0
 40
10.00000000000068
 50
182.0
 51
261.0
  0
ARC
  5
62
  8
0
  6
CONTINUOUS
 62
     7
 10
639.2876585985
 20
3327.5171334055
 30
0.0
 40
10.00000000000068
 50
279.0
 51
358.0
  0
LINE
  5
63
  8
0
  6
CONTINUOUS
 62
     7
 10
649.2816055909
 20
3336.7738906031
 30
0.0
 11
649.2816055909
 21
3327.1681252604
 31
0.0
  0
LINE
  5
64
  8
0
  6
CONTINUOUS
 62
     7
 10
691.9524515763
 20
3327.1681252604
 30
0.0
 11
691.9524515763
 21
3336.7738906031
 31
0.0
  0
LINE
  5
65
  8
0
  6
CONTINUOUS
 62
     7
 10
680.6169594422
 20
3336.7738906031
 30
0.0
 11
680.6169594422
 21
3458.9338782912
 31
0.0
  0
LINE
  5
66
  8
0
  6
CONTINUOUS
 62
     7
 10
660.6169785157
 20
3458.9338782912
 30
0.0
 11
660.6169785157
 21
3336.7738906031
 31
0.0
  0
LINE
  5
67
  8
0
  6
CONTINUOUS
 62
     7
 10
593.6269606247
 20
2819.773885954
 30
0.0
 11
755.6170071259
 21
2819.773885954
 31
0.0
  0
LINE
  5
68
  8
0
  6
CONTINUOUS
 62
     7
 10
755.6170071259
 20
2819.773885954
 30
0.0
 11
800.6169642105
 21
2819.773885954
 31
0.0
  0
LINE
  5
69
  8
0
  6
CONTINUOUS
 62
     7
 10
800.6169642105
 20
3234.7738925105
 30
0.0
 11
778.7722195282
 21
3234.7738925105
 31
0.0
  0
LINE
  5
6A
  8
0
  6
CONTINUOUS
 62
     7
 10
3005.6170071259
 20
3234.7738925105
 30
0.0
 11
2960.6170500412
 21
3234.7738925105
 31
0.0
  0
LINE
  5
6B
  8
0
  6
CONTINUOUS
 62
     7
 10
2960.6170500412
 20
2819.773885954
 30
0.0
 11
3005.6170071259
 21
2819.773885954
 31
0.0
  0
LINE
  5
6C
  8
0
  6
CONTINUOUS
 62
     7
 10
3005.6170071259
 20
2819.773885954
 30
0.0
 11
3045.6169689789
 21
2819.773885954
 31
0.0
  0
LINE
  5
6D
  8
0
  6
CONTINUOUS
 62
     7
 10
3045.6169689789
 20
3234.7738925105
 30
0.0
 11
3005.6170071259
 21
3234.7738925105
 31
0.0
  0
LINE
  5
6E
  8
0
  6
CONTINUOUS
 62
     7
 10
625.6170118943
 20
3526.8291417247
 30
0.0
 11
427.6499594345
 21
3590.2738753444
 31
0.0
  0
LINE
  5
6F
  8
0
  6
CONTINUOUS
 62
     7
 10
375.2238596573
 20
3590.2738753444
 30
0.0
 11
625.6170118943
 21
3510.0275162345
 31
0.0
  0
LINE
  5
70
  8
0
  6
CONTINUOUS
 62
     7
 10
739.2917717591
 20
3206.1132225877
 30
0.0
 11
740.833982338
 21
3206.2827829009
 31
0.0
  0
LINE
  5
71
  8
0
  6
CONTINUOUS
 62
     7
 10
600.4000748291
 20
3206.2827829009
 30
0.0
 11
601.9422854081
 21
3206.1132225877
 31
0.0
  0
LINE
  5
72
  8
0
  6
CONTINUOUS
 62
     7
 10
715.6170452729
 20
3527.8390828257
 30
0.0
 11
798.636421074
 21
3590.2738753444
 31
0.0
  0
LINE
  5
73
  8
0
  6
CONTINUOUS
 62
     7
 10
772.0162714615
 20
3590.2738753444
 30
0.0
 11
694.8938215866
 21
3532.2739068156
 31
0.0
  0
LINE
  5
74
  8
0
  6
CONTINUOUS
 62
     7
 10
580.6170548096
 20
2914.7738922125
 30
0.0
 11
593.6269606247
 21
2914.7738922125
 31
0.0
  0
LINE
  5
75
  8
0
  6
CONTINUOUS
 62
     7
 10
593.6269606247
 20
3139.7738937026
 30
0.0
 11
580.6170548096
 21
3139.7738937026
 31
0.0
  0
POLYLINE
  5
76
  8
0
  6
CONTINUOUS
 62
     7
 66
     1
 10
0.0
 20
0.0
 30
0.0
  0
VERTEX
  5
55A
  8
0
  6
CONTINUOUS
 62
     7
 10
657.1158016816
 20
3524.1217795497
 30
0.0
  0
VERTEX
  5
55B
  8
0
  6
CONTINUOUS
 62
     7
 10
657.3572004929
 20
3523.9820960646
 30
0.0
  0
VERTEX
  5
55C
  8
0
  6
CONTINUOUS
 62
     7
 10
659.0902651444
 20
3522.0726314669
 30
0.0
  0
VERTEX
  5
55D
  8
0
  6
CONTINUOUS
 62
     7
 10
660.2791393891
 20
3519.4886509066
 30
0.0
  0
VERTEX
  5
55E
  8
0
  6
CONTINUOUS
 62
     7
 10
660.5994547501
 20
3516.5202501899
 30
0.0
  0
VERTEX
  5
55F
  8
0
  6
CONTINUOUS
 62
     7
 10
659.9228228226
 20
3513.6814001685
 30
0.0
  0
VERTEX
  5
560
  8
0
  6
CONTINUOUS
 62
     7
 10
658.42150103
 20
3511.3787535315
 30
0.0
  0
VERTEX
  5
561
  8
0
  6
CONTINUOUS
 62
     7
 10
656.3526238099
 20
3509.7876671439
 30
0.0
  0
VERTEX
  5
562
  8
0
  6
CONTINUOUS
 62
     7
 10
653.9610470429
 20
3509.0040746814
 30
0.0
  0
VERTEX
  5
563
  8
0
  6
CONTINUOUS
 62
     7
 10
651.5146340027
 20
3509.0936008578
 30
0.0
  0
VERTEX
  5
564
  8
0
  6
CONTINUOUS
 62
     7
 10
649.2876852646
 20
3510.0497785693
 30
0.0
  0
VERTEX
  5
565
  8
0
  6
CONTINUOUS
 62
     7
 10
649.0259016648
 20
3510.3040519839
 30
0.0
  0
SEQEND
  5
710
  8
0
  6
CONTINUOUS
 62
     7
  0
CIRCLE
  5
77
  8
0
  6
CONTINUOUS
 62
     7
 10
1880.6170071259
 20
3024.2738906031
 30
0.0
 40
781.5
  0
CIRCLE
  5
78
  8
0
  6
CONTINUOUS
 62
     7
 10
1880.6170071259
 20
3024.2738906031
 30
0.0
 40
875.0
  0
LINE
  5
79
  8
0
  6
CONTINUOUS
 62
     7
 10
1440.6170095101
 20
2066.7739096766
 30
0.0
 11
2320.6170047417
 21
2066.7739096766
 31
0.0
  0
LINE
  5
7A
  8
0
  6
CONTINUOUS
 62
     7
 10
1440.6170095101
 20
2173.8585415965
 30
0.0
 11
1440.6170095101
 21
2066.7739096766
 31
0.0
  0
LINE
  5
7B
  8
0
  6
CONTINUOUS
 62
     7
 10
1440.6170095101
 20
3874.6892396098
 30
0.0
 11
1440.6170095101
 21
3981.7738715297
 31
0.0
  0
CIRCLE
  5
7C
  8
0
  6
CONTINUOUS
 62
     7
 10
2471.6147311064
 20
2332.3044619071
 30
0.0
 40
25.00000000000004
  0
CIRCLE
  5
7D
  8
0
  6
CONTINUOUS
 62
     7
 10
1405.1433132344
 20
2248.3713410409
 30
0.0
 40
25.00000000000015
  0
CIRCLE
  5
7E
  8
0
  6
CONTINUOUS
 62
     7
 10
1289.6192831454
 20
2332.3044619071
 30
0.0
 40
24.99999999999993
  0
CIRCLE
  5
7F
  8
0
  6
CONTINUOUS
 62
     7
 10
1188.6475784299
 20
2433.2761666227
 30
0.0
 40
25.00000000000004
  0
CIRCLE
  5
80
  8
0
  6
CONTINUOUS
 62
     7
 10
1104.7144575637
 20
2548.8001967116
 30
0.0
 40
25.00000000000021
  0
CIRCLE
  5
81
  8
0
  6
CONTINUOUS
 62
     7
 10
1039.8866325406
 20
2676.0319671509
 30
0.0
 40
24.99999999999934
  0
CIRCLE
  5
82
  8
0
  6
CONTINUOUS
 62
     7
 10
995.760379564
 20
2811.8386094943
 30
0.0
 40
25.00000000000001
  0
CIRCLE
  5
83
  8
0
  6
CONTINUOUS
 62
     7
 10
973.4222334287
 20
2952.8761134908
 30
0.0
 40
25.00000000000004
  0
CIRCLE
  5
84
  8
0
  6
CONTINUOUS
 62
     7
 10
973.4222334287
 20
3095.6716677155
 30
0.0
 40
25.0
  0
CIRCLE
  5
85
  8
0
  6
CONTINUOUS
 62
     7
 10
995.760379564
 20
3236.709171712
 30
0.0
 40
25.00000000000013
  0
CIRCLE
  5
86
  8
0
  6
CONTINUOUS
 62
     7
 10
1188.6475784299
 20
3615.2716145836
 30
0.0
 40
25.00000000000048
  0
CIRCLE
  5
87
  8
0
  6
CONTINUOUS
 62
     7
 10
1289.6192831454
 20
3716.2433192992
 30
0.0
 40
25.0000000000002
  0
CIRCLE
  5
88
  8
0
  6
CONTINUOUS
 62
     7
 10
1405.1433132344
 20
3800.1764401654
 30
0.0
 40
25.00000000000003
  0
CIRCLE
  5
89
  8
0
  6
CONTINUOUS
 62
     7
 10
1532.3750836737
 20
3865.0042651884
 30
0.0
 40
25.00000000000015
  0
CIRCLE
  5
8A
  8
0
  6
CONTINUOUS
 62
     7
 10
1668.181726017
 20
3909.130518165
 30
0.0
 40
25.00000000000004
  0
CIRCLE
  5
8B
  8
0
  6
CONTINUOUS
 62
     7
 10
1809.2192300136
 20
3931.4686643003
 30
0.0
 40
25.00000000000027
  0
CIRCLE
  5
8C
  8
0
  6
CONTINUOUS
 62
     7
 10
2721.3473817112
 20
2676.0319671509
 30
0.0
 40
25.00000000000018
  0
CIRCLE
  5
8D
  8
0
  6
CONTINUOUS
 62
     7
 10
1952.0147842382
 20
3931.4686643003
 30
0.0
 40
24.99999999999977
  0
LINE
  5
8E
  8
0
  6
CONTINUOUS
 62
     7
 10
1885.6170070141
 20
3981.7738715297
 30
0.0
 11
1880.6170071259
 21
3976.773876298
 31
0.0
  0
LINE
  5
8F
  8
0
  6
CONTINUOUS
 62
     7
 10
1880.6170071259
 20
3976.773876298
 30
0.0
 11
1875.6170072377
 21
3981.7738715297
 31
0.0
  0
CIRCLE
  5
90
  8
0
  6
CONTINUOUS
 62
     7
 10
1104.7144575637
 20
3499.7475844947
 30
0.0
 40
25.00000000000036
  0
CIRCLE
  5
91
  8
0
  6
CONTINUOUS
 62
     7
 10
1668.181726017
 20
2139.4172630413
 30
0.0
 40
25.00000000000004
  0
CIRCLE
  5
92
  8
0
  6
CONTINUOUS
 62
     7
 10
1039.8866325406
 20
3372.5158140554
 30
0.0
 40
25.00000000000018
  0
CIRCLE
  5
93
  8
0
  6
CONTINUOUS
 62
     7
 10
1809.2192300136
 20
2117.079116906
 30
0.0
 40
25.00000000000023
  0
CIRCLE
  5
94
  8
0
  6
CONTINUOUS
 62
     7
 10
2765.4736346878
 20
3236.709171712
 30
0.0
 40
25.00000000000018
  0
CIRCLE
  5
95
  8
0
  6
CONTINUOUS
 62
     7
 10
2656.5195566881
 20
2548.8001967116
 30
0.0
 40
24.99999999999934
  0
CIRCLE
  5
96
  8
0
  6
CONTINUOUS
 62
     7
 10
2721.3473817112
 20
3372.5158140554
 30
0.0
 40
25.00000000000015
  0
LINE
  5
97
  8
0
  6
CONTINUOUS
 62
     7
 10
2320.6170047417
 20
2173.8585415965
 30
0.0
 11
2320.6170047417
 21
2066.7739096766
 31
0.0
  0
CIRCLE
  5
98
  8
0
  6
CONTINUOUS
 62
     7
 10
2656.5195566881
 20
3499.7475844947
 30
0.0
 40
25.00000000000021
  0
CIRCLE
  5
99
  8
0
  6
CONTINUOUS
 62
     7
 10
2228.8589305781
 20
2183.5435160179
 30
0.0
 40
24.99999999999995
  0
CIRCLE
  5
9A
  8
0
  6
CONTINUOUS
 62
     7
 10
2572.5864358219
 20
3615.2716145836
 30
0.0
 40
25.00000000000004
  0
CIRCLE
  5
9B
  8
0
  6
CONTINUOUS
 62
     7
 10
2356.0907010174
 20
2248.3713410409
 30
0.0
 40
24.99999999999984
  0
CIRCLE
  5
9C
  8
0
  6
CONTINUOUS
 62
     7
 10
2471.6147311064
 20
3716.2433192992
 30
0.0
 40
24.99999999999984
  0
LINE
  5
9D
  8
0
  6
CONTINUOUS
 62
     7
 10
2320.6170047417
 20
3874.6892396098
 30
0.0
 11
2320.6170047417
 21
3981.7738715297
 31
0.0
  0
CIRCLE
  5
9E
  8
0
  6
CONTINUOUS
 62
     7
 10
2356.0907010174
 20
3800.1764401654
 30
0.0
 40
25.00000000000036
  0
CIRCLE
  5
9F
  8
0
  6
CONTINUOUS
 62
     7
 10
2572.5864358219
 20
2433.2761666227
 30
0.0
 40
25.00000000000011
  0
CIRCLE
  5
A0
  8
0
  6
CONTINUOUS
 62
     7
 10
2228.8589305781
 20
3865.0042651884
 30
0.0
 40
25.00000000000048
  0
LINE
  5
A1
  8
0
  6
CONTINUOUS
 62
     7
 10
1885.6170070141
 20
3981.7738715297
 30
0.0
 11
2320.6170047417
 21
3981.7738715297
 31
0.0
  0
CIRCLE
  5
A2
  8
0
  6
CONTINUOUS
 62
     7
 10
2093.0522882348
 20
3909.130518165
 30
0.0
 40
25.00000000000004
  0
CIRCLE
  5
A3
  8
0
  6
CONTINUOUS
 62
     7
 10
2093.0522882348
 20
2139.4172630413
 30
0.0
 40
25.00000000000061
  0
LINE
  5
A4
  8
0
  6
CONTINUOUS
 62
     7
 10
1440.6170095101
 20
3981.7738715297
 30
0.0
 11
1875.6170072377
 21
3981.7738715297
 31
0.0
  0
CIRCLE
  5
A5
  8
0
  6
CONTINUOUS
 62
     7
 10
2765.4736346878
 20
2811.8386094943
 30
0.0
 40
25.00000000000011
  0
CIRCLE
  5
A6
  8
0
  6
CONTINUOUS
 62
     7
 10
1532.3750836737
 20
2183.5435160179
 30
0.0
 40
25.00000000000004
  0
CIRCLE
  5
A7
  8
0
  6
CONTINUOUS
 62
     7
 10
2787.811780823
 20
2952.8761134908
 30
0.0
 40
25.0
  0
ARC
  5
A8
  8
0
  6
CONTINUOUS
 62
     7
 10
1880.6170071259
 20
3024.2738906031
 30
0.0
 40
957.5000000000001
 50
297.3567851046
 51
62.6432148954
  0
CIRCLE
  5
A9
  8
0
  6
CONTINUOUS
 62
     7
 10
2787.811780823
 20
3095.6716677155
 30
0.0
 40
25.00000000000049
  0
ARC
  5
AA
  8
0
  6
CONTINUOUS
 62
     7
 10
1880.6170071259
 20
3024.2738906031
 30
0.0
 40
957.5000000000001
 50
117.3567851046
 51
242.6432148954
  0
CIRCLE
  5
AB
  8
0
  6
CONTINUOUS
 62
     7
 10
1952.0147842382
 20
2117.079116906
 30
0.0
 40
25.00000000000011
  0
POLYLINE
  5
AC
  8
0
  6
CONTINUOUS
 62
     7
 66
     1
 10
0.0
 20
0.0
 30
0.0
  0
VERTEX
  5
566
  8
0
  6
CONTINUOUS
 62
     7
 10
712.3781288758
 20
3509.0077105647
 30
0.0
  0
VERTEX
  5
567
  8
0
  6
CONTINUOUS
 62
     7
 10
711.3613928452
 20
3509.0936008578
 30
0.0
  0
VERTEX
  5
568
  8
0
  6
CONTINUOUS
 62
     7
 10
710.2409447327
 20
3510.0497785693
 30
0.0
  0
VERTEX
  5
569
  8
0
  6
CONTINUOUS
 62
     7
 10
709.2348183289
 20
3511.7702368384
 30
0.0
  0
VERTEX
  5
56A
  8
0
  6
CONTINUOUS
 62
     7
 10
708.5205162659
 20
3514.0634361392
 30
0.0
  0
VERTEX
  5
56B
  8
0
  6
CONTINUOUS
 62
     7
 10
708.2234467163
 20
3516.6995409613
 30
0.0
  0
VERTEX
  5
56C
  8
0
  6
CONTINUOUS
 62
     7
 10
708.40404879
 20
3519.4628122931
 30
0.0
  0
VERTEX
  5
56D
  8
0
  6
CONTINUOUS
 62
     7
 10
709.069355835
 20
3522.1002284175
 30
0.0
  0
VERTEX
  5
56E
  8
0
  6
CONTINUOUS
 62
     7
 10
710.1211393967
 20
3524.2195609694
 30
0.0
  0
VERTEX
  5
56F
  8
0
  6
CONTINUOUS
 62
     7
 10
711.2986887589
 20
3525.4029813891
 30
0.0
  0
VERTEX
  5
570
  8
0
  6
CONTINUOUS
 62
     7
 10
711.6246069565
 20
3525.4991832858
 30
0.0
  0
SEQEND
  5
70F
  8
0
  6
CONTINUOUS
 62
     7
  0
LINE
  5
AD
  8
0
  6
CONTINUOUS
 62
     7
 10
548.8464678421
 20
3304.7738853579
 30
0.0
 11
792.387589325
 21
3304.7738853579
 31
0.0
  0
LINE
  5
AE
  8
0
  6
CONTINUOUS
 62
     7
 10
548.8464678421
 20
3264.7738937026
 30
0.0
 11
792.387589325
 21
3264.7738937026
 31
0.0
  0
LINE
  5
AF
  8
0
  6
CONTINUOUS
 62
     7
 10
746.1873139038
 20
3218.2458076363
 30
0.0
 11
747.6547802582
 21
3218.2738963252
 31
0.0
  0
ARC
  5
B0
  8
0
  6
CONTINUOUS
 62
     7
 10
740.0786126748
 20
3295.4286140562
 30
0.0
 40
77.42416830387334
 50
265.4747082238
 51
274.5252917762
  0
LINE
  5
B1
  8
0
  6
CONTINUOUS
 62
     7
 10
732.2031105652
 20
3218.2738963252
 30
0.0
 11
733.9699114457
 21
3218.2458076363
 31
0.0
  0
LINE
  5
B2
  8
0
  6
CONTINUOUS
 62
     7
 10
732.2031105652
 20
3218.2738963252
 30
0.0
 11
609.0308273926
 21
3218.2738963252
 31
0.0
  0
LINE
  5
B3
  8
0
  6
CONTINUOUS
 62
     7
 10
607.2641457215
 20
3218.2458076363
 30
0.0
 11
609.0308273926
 21
3218.2738963252
 31
0.0
  0
ARC
  5
B4
  8
0
  6
CONTINUOUS
 62
     7
 10
601.1553848877
 20
3295.4315230362
 30
0.0
 40
77.42707291841451
 50
265.4748340952
 51
274.5251659048
  0
LINE
  5
B5
  8
0
  6
CONTINUOUS
 62
     7
 10
593.5792769089
 20
3218.2738963252
 30
0.0
 11
595.046624054
 21
3218.2458076363
 31
0.0
  0
LINE
  5
B6
  8
0
  6
CONTINUOUS
 62
     7
 10
559.7258652344
 20
3304.8448148852
 30
0.0
 11
781.5081919327
 21
3304.8448148852
 31
0.0
  0
LINE
  5
B7
  8
0
  6
CONTINUOUS
 62
     7
 10
719.1562498703
 20
3207.0515785104
 30
0.0
 11
724.2525662079
 21
3207.6648805028
 31
0.0
  0
POLYLINE
  5
B8
  8
0
  6
CONTINUOUS
 62
     7
 66
     1
 10
0.0
 20
0.0
 30
0.0
  0
VERTEX
  5
571
  8
0
  6
CONTINUOUS
 62
     7
 10
703.7095869675
 20
3206.2738869077
 30
0.0
  0
VERTEX
  5
572
  8
0
  6
CONTINUOUS
 62
     7
 10
711.4487732544
 20
3206.4315560943
 30
0.0
  0
VERTEX
  5
573
  8
0
  6
CONTINUOUS
 62
     7
 10
719.1562498703
 20
3207.0515785104
 30
0.0
  0
SEQEND
  5
70E
  8
0
  6
CONTINUOUS
 62
     7
  0
LINE
  5
B9
  8
0
  6
CONTINUOUS
 62
     7
 10
637.5244701996
 20
3206.2738869077
 30
0.0
 11
703.7095869675
 21
3206.2738869077
 31
0.0
  0
POLYLINE
  5
BA
  8
0
  6
CONTINUOUS
 62
     7
 66
     1
 10
0.0
 20
0.0
 30
0.0
  0
VERTEX
  5
574
  8
0
  6
CONTINUOUS
 62
     7
 10
622.0778072968
 20
3207.0515785104
 30
0.0
  0
VERTEX
  5
575
  8
0
  6
CONTINUOUS
 62
     7
 10
629.7852839127
 20
3206.4315560943
 30
0.0
  0
VERTEX
  5
576
  8
0
  6
CONTINUOUS
 62
     7
 10
637.5244701996
 20
3206.2738869077
 30
0.0
  0
SEQEND
  5
70D
  8
0
  6
CONTINUOUS
 62
     7
  0
LINE
  5
BB
  8
0
  6
CONTINUOUS
 62
     7
 10
616.9814909592
 20
3207.6648805028
 30
0.0
 11
622.0778072968
 21
3207.0515785104
 31
0.0
  0
ARC
  5
BC
  8
0
  6
CONTINUOUS
 62
     7
 10
627.7132545319
 20
3223.9912559627
 30
0.0
 40
19.53768883564402
 50
197.0156163894
 51
236.6820105986
  0
ARC
  5
BD
  8
0
  6
CONTINUOUS
 62
     7
 10
713.5216087234
 20
3223.9904419427
 30
0.0
 40
19.53656584112044
 50
303.3173252335
 51
342.9858723144
  0
LINE
  5
BE
  8
0
  6
CONTINUOUS
 62
     7
 10
615.640505661
 20
3207.7760580664
 30
0.0
 11
616.9814909592
 21
3207.6648805028
 31
0.0
  0
ARC
  5
BF
  8
0
  6
CONTINUOUS
 62
     7
 10
626.6135087773
 20
3225.1406906637
 30
0.0
 40
20.54111152367249
 50
199.6128357116
 51
237.710519914
  0
LINE
  5
C0
  8
0
  6
CONTINUOUS
 62
     7
 10
724.2525662079
 20
3207.6648805028
 30
0.0
 11
725.5935515061
 21
3207.7760580664
 31
0.0
  0
ARC
  5
C1
  8
0
  6
CONTINUOUS
 62
     7
 10
714.6194137336
 20
3225.1415984494
 30
0.0
 40
20.54248506484861
 50
302.2908028513
 51
340.385841523
  0
ARC
  5
C2
  8
0
  6
CONTINUOUS
 62
     7
 10
731.3303197518
 20
3126.5033660978
 30
0.0
 40
81.4749100627264
 50
85.9623789294
 51
94.0376210706
  0
ARC
  5
C3
  8
0
  6
CONTINUOUS
 62
     7
 10
727.4982503511
 20
3225.3186982309
 30
0.0
 40
19.98266443300035
 50
298.6107738826
 51
339.270812673
  0
ARC
  5
C4
  8
0
  6
CONTINUOUS
 62
     7
 10
609.9037374154
 20
3126.4707739524
 30
0.0
 40
81.50742134784208
 50
85.9639921057
 51
94.0360078943
  0
ARC
  5
C5
  8
0
  6
CONTINUOUS
 62
     7
 10
613.7365075983
 20
3225.3195214877
 30
0.0
 40
19.98372274006351
 50
200.7305627581
 51
241.3885925134
  0
LINE
  5
C6
  8
0
  6
CONTINUOUS
 62
     7
 10
703.7095869675
 20
3206.2738869077
 30
0.0
 11
703.7095869675
 21
3196.6228816396
 31
0.0
  0
LINE
  5
C7
  8
0
  6
CONTINUOUS
 62
     7
 10
703.7095869675
 20
3196.6228816396
 30
0.0
 11
637.5244701996
 21
3196.6228816396
 31
0.0
  0
LINE
  5
C8
  8
0
  6
CONTINUOUS
 62
     7
 10
637.5244701996
 20
3206.2738869077
 30
0.0
 11
637.5244701996
 21
3196.6228816396
 31
0.0
  0
POLYLINE
  5
C9
  8
0
  6
CONTINUOUS
 62
     7
 66
     1
 10
0.0
 20
0.0
 30
0.0
  0
VERTEX
  5
577
  8
0
  6
CONTINUOUS
 62
     7
 10
622.0778072968
 20
3207.0515785104
 30
0.0
  0
VERTEX
  5
578
  8
0
  6
CONTINUOUS
 62
     7
 10
621.9980562821
 20
3206.5830114966
 30
0.0
  0
VERTEX
  5
579
  8
0
  6
CONTINUOUS
 62
     7
 10
621.880277504
 20
3205.860975731
 30
0.0
  0
VERTEX
  5
57A
  8
0
  6
CONTINUOUS
 62
     7
 10
621.7278088227
 20
3204.9053791648
 30
0.0
  0
VERTEX
  5
57B
  8
0
  6
CONTINUOUS
 62
     7
 10
621.5447033539
 20
3203.7424925452
 30
0.0
  0
VERTEX
  5
57C
  8
0
  6
CONTINUOUS
 62
     7
 10
621.3360870972
 20
3202.4043384677
 30
0.0
  0
VERTEX
  5
57D
  8
0
  6
CONTINUOUS
 62
     7
 10
621.1076820984
 20
3200.9277675038
 30
0.0
  0
VERTEX
  5
57E
  8
0
  6
CONTINUOUS
 62
     7
 10
620.8658064499
 20
3199.3534151202
 30
0.0
  0
VERTEX
  5
57F
  8
0
  6
CONTINUOUS
 62
     7
 10
620.6170166626
 20
3197.7246138936
 30
0.0
  0
SEQEND
  5
70C
  8
0
  6
CONTINUOUS
 62
     7
  0
ARC
  5
CA
  8
0
  6
CONTINUOUS
 62
     7
 10
636.3813785864
 20
3309.3645488993
 30
0.0
 40
112.7474620332177
 50
261.9625633925
 51
270.5809039594
  0
POLYLINE
  5
CB
  8
0
  6
CONTINUOUS
 62
     7
 66
     1
 10
0.0
 20
0.0
 30
0.0
  0
VERTEX
  5
580
  8
0
  6
CONTINUOUS
 62
     7
 10
720.6170405045
 20
3197.7246138936
 30
0.0
  0
VERTEX
  5
581
  8
0
  6
CONTINUOUS
 62
     7
 10
720.3682507172
 20
3199.3534151202
 30
0.0
  0
VERTEX
  5
582
  8
0
  6
CONTINUOUS
 62
     7
 10
720.1263750687
 20
3200.9277675038
 30
0.0
  0
VERTEX
  5
583
  8
0
  6
CONTINUOUS
 62
     7
 10
719.8978508606
 20
3202.4043384677
 30
0.0
  0
VERTEX
  5
584
  8
0
  6
CONTINUOUS
 62
     7
 10
719.6892346039
 20
3203.7424925452
 30
0.0
  0
VERTEX
  5
585
  8
0
  6
CONTINUOUS
 62
     7
 10
719.5062483445
 20
3204.9053791648
 30
0.0
  0
VERTEX
  5
586
  8
0
  6
CONTINUOUS
 62
     7
 10
719.3536604538
 20
3205.860975731
 30
0.0
  0
VERTEX
  5
587
  8
0
  6
CONTINUOUS
 62
     7
 10
719.236000885
 20
3206.5830114966
 30
0.0
  0
VERTEX
  5
588
  8
0
  6
CONTINUOUS
 62
     7
 10
719.1562498703
 20
3207.0515785104
 30
0.0
  0
SEQEND
  5
70B
  8
0
  6
CONTINUOUS
 62
     7
  0
ARC
  5
CC
  8
0
  6
CONTINUOUS
 62
     7
 10
704.852728403
 20
3309.3637843142
 30
0.0
 40
112.7466979926215
 50
269.4190667838
 51
278.0374658643
  0
POLYLINE
  5
CD
  8
0
  6
CONTINUOUS
 62
     7
 66
     1
 10
0.0
 20
0.0
 30
0.0
  0
VERTEX
  5
589
  8
0
  6
CONTINUOUS
 62
     7
 10
617.6762426987
 20
3198.5934409982
 30
0.0
  0
VERTEX
  5
58A
  8
0
  6
CONTINUOUS
 62
     7
 10
617.8281153336
 20
3200.0944945699
 30
0.0
  0
VERTEX
  5
58B
  8
0
  6
CONTINUOUS
 62
     7
 10
617.9115618363
 20
3201.5525433904
 30
0.0
  0
VERTEX
  5
58C
  8
0
  6
CONTINUOUS
 62
     7
 10
617.9246748581
 20
3202.9337022191
 30
0.0
  0
VERTEX
  5
58D
  8
0
  6
CONTINUOUS
 62
     7
 10
617.8672159806
 20
3204.2058441525
 30
0.0
  0
VERTEX
  5
58E
  8
0
  6
CONTINUOUS
 62
     7
 10
617.7404965058
 20
3205.339420188
 30
0.0
  0
VERTEX
  5
58F
  8
0
  6
CONTINUOUS
 62
     7
 10
617.5473774567
 20
3206.3080701714
 30
0.0
  0
VERTEX
  5
590
  8
0
  6
CONTINUOUS
 62
     7
 10
617.2923887864
 20
3207.0892784482
 30
0.0
  0
VERTEX
  5
591
  8
0
  6
CONTINUOUS
 62
     7
 10
616.9814909592
 20
3207.6648805028
 30
0.0
  0
SEQEND
  5
70A
  8
0
  6
CONTINUOUS
 62
     7
  0
LINE
  5
CE
  8
0
  6
CONTINUOUS
 62
     7
 10
620.6170166626
 20
3197.7246138936
 30
0.0
 11
617.6762426987
 21
3198.5934409982
 31
0.0
  0
POLYLINE
  5
CF
  8
0
  6
CONTINUOUS
 62
     7
 66
     1
 10
0.0
 20
0.0
 30
0.0
  0
VERTEX
  5
592
  8
0
  6
CONTINUOUS
 62
     7
 10
724.2525662079
 20
3207.6648805028
 30
0.0
  0
VERTEX
  5
593
  8
0
  6
CONTINUOUS
 62
     7
 10
723.9416683808
 20
3207.0892784482
 30
0.0
  0
VERTEX
  5
594
  8
0
  6
CONTINUOUS
 62
     7
 10
723.6866797104
 20
3206.3080701714
 30
0.0
  0
VERTEX
  5
595
  8
0
  6
CONTINUOUS
 62
     7
 10
723.4935606614
 20
3205.339420188
 30
0.0
  0
VERTEX
  5
596
  8
0
  6
CONTINUOUS
 62
     7
 10
723.3668411866
 20
3204.2058441525
 30
0.0
  0
VERTEX
  5
597
  8
0
  6
CONTINUOUS
 62
     7
 10
723.3092630997
 20
3202.9337022191
 30
0.0
  0
VERTEX
  5
598
  8
0
  6
CONTINUOUS
 62
     7
 10
723.3224953308
 20
3201.5525433904
 30
0.0
  0
VERTEX
  5
599
  8
0
  6
CONTINUOUS
 62
     7
 10
723.4059418335
 20
3200.0944945699
 30
0.0
  0
VERTEX
  5
59A
  8
0
  6
CONTINUOUS
 62
     7
 10
723.5576952591
 20
3198.5934409982
 30
0.0
  0
SEQEND
  5
709
  8
0
  6
CONTINUOUS
 62
     7
  0
LINE
  5
D0
  8
0
  6
CONTINUOUS
 62
     7
 10
723.5576952591
 20
3198.5934409982
 30
0.0
 11
720.6170405045
 21
3197.7246138936
 31
0.0
  0
POLYLINE
  5
D1
  8
0
  6
CONTINUOUS
 62
     7
 66
     1
 10
0.0
 20
0.0
 30
0.0
  0
VERTEX
  5
59B
  8
0
  6
CONTINUOUS
 62
     7
 10
615.640505661
 20
3207.7760580664
 30
0.0
  0
VERTEX
  5
59C
  8
0
  6
CONTINUOUS
 62
     7
 10
616.0430754319
 20
3207.1746024972
 30
0.0
  0
VERTEX
  5
59D
  8
0
  6
CONTINUOUS
 62
     7
 10
616.3908089295
 20
3206.379118908
 30
0.0
  0
VERTEX
  5
59E
  8
0
  6
CONTINUOUS
 62
     7
 10
616.6760767594
 20
3205.4071906691
 30
0.0
  0
VERTEX
  5
59F
  8
0
  6
CONTINUOUS
 62
     7
 10
616.8923224106
 20
3204.2803797608
 30
0.0
  0
VERTEX
  5
5A0
  8
0
  6
CONTINUOUS
 62
     7
 10
617.0350159302
 20
3203.0236009246
 30
0.0
  0
VERTEX
  5
5A1
  8
0
  6
CONTINUOUS
 62
     7
 10
617.1009386673
 20
3201.664734233
 30
0.0
  0
VERTEX
  5
5A2
  8
0
  6
CONTINUOUS
 62
     7
 10
617.0885409012
 20
3200.2338502293
 30
0.0
  0
VERTEX
  5
5A3
  8
0
  6
CONTINUOUS
 62
     7
 10
616.9980610505
 20
3198.7626585847
 30
0.0
  0
SEQEND
  5
708
  8
0
  6
CONTINUOUS
 62
     7
  0
LINE
  5
D2
  8
0
  6
CONTINUOUS
 62
     7
 10
617.6762426987
 20
3198.5934409982
 30
0.0
 11
616.9980610505
 21
3198.7626585847
 31
0.0
  0
POLYLINE
  5
D3
  8
0
  6
CONTINUOUS
 62
     7
 66
     1
 10
0.0
 20
0.0
 30
0.0
  0
VERTEX
  5
5A4
  8
0
  6
CONTINUOUS
 62
     7
 10
724.2358769074
 20
3198.7626585847
 30
0.0
  0
VERTEX
  5
5A5
  8
0
  6
CONTINUOUS
 62
     7
 10
724.1455162659
 20
3200.2338502293
 30
0.0
  0
VERTEX
  5
5A6
  8
0
  6
CONTINUOUS
 62
     7
 10
724.1331184998
 20
3201.664734233
 30
0.0
  0
VERTEX
  5
5A7
  8
0
  6
CONTINUOUS
 62
     7
 10
724.1989220276
 20
3203.0236009246
 30
0.0
  0
VERTEX
  5
5A8
  8
0
  6
CONTINUOUS
 62
     7
 10
724.3416155472
 20
3204.2803797608
 30
0.0
  0
VERTEX
  5
5A9
  8
0
  6
CONTINUOUS
 62
     7
 10
724.5579804078
 20
3205.4071906691
 30
0.0
  0
VERTEX
  5
5AA
  8
0
  6
CONTINUOUS
 62
     7
 10
724.8431290284
 20
3206.379118908
 30
0.0
  0
VERTEX
  5
5AB
  8
0
  6
CONTINUOUS
 62
     7
 10
725.1909817353
 20
3207.1746024972
 30
0.0
  0
VERTEX
  5
5AC
  8
0
  6
CONTINUOUS
 62
     7
 10
725.5935515061
 20
3207.7760580664
 30
0.0
  0
SEQEND
  5
707
  8
0
  6
CONTINUOUS
 62
     7
  0
LINE
  5
D4
  8
0
  6
CONTINUOUS
 62
     7
 10
724.2358769074
 20
3198.7626585847
 30
0.0
 11
723.5576952591
 21
3198.5934409982
 31
0.0
  0
ARC
  5
D5
  8
0
  6
CONTINUOUS
 62
     7
 10
740.8533048615
 20
3198.1380536085
 30
0.0
 40
10.35502622271752
 50
111.4470048754
 51
176.5418758859
  0
ARC
  5
D6
  8
0
  6
CONTINUOUS
 62
     7
 10
727.3765052452
 20
3187.1791856863
 30
0.0
 40
12.00168282966889
 50
74.8300908481
 51
105.1699091519
  0
ARC
  5
D7
  8
0
  6
CONTINUOUS
 62
     7
 10
600.3807322275
 20
3198.1381757214
 30
0.0
 40
10.35491990693897
 50
3.4574827558
 51
68.5526446675
  0
ARC
  5
D8
  8
0
  6
CONTINUOUS
 62
     7
 10
613.8574327126
 20
3187.1807153059
 30
0.0
 40
12.0002065177756
 50
74.8281797114
 51
105.1718202886
  0
ARC
  5
D9
  8
0
  6
CONTINUOUS
 62
     7
 10
612.7274298253
 20
3226.2581310998
 30
0.0
 40
20.74607830524006
 50
202.6347471857
 51
243.6668144867
  0
LINE
  5
DA
  8
0
  6
CONTINUOUS
 62
     7
 10
602.1780813828
 20
3207.0515785104
 30
0.0
 11
603.5246695176
 21
3207.6648805028
 31
0.0
  0
POLYLINE
  5
DB
  8
0
  6
CONTINUOUS
 62
     7
 66
     1
 10
0.0
 20
0.0
 30
0.0
  0
VERTEX
  5
5AD
  8
0
  6
CONTINUOUS
 62
     7
 10
600.1568878785
 20
3206.2738869077
 30
0.0
  0
VERTEX
  5
5AE
  8
0
  6
CONTINUOUS
 62
     7
 10
601.135715355
 20
3206.4315560943
 30
0.0
  0
VERTEX
  5
5AF
  8
0
  6
CONTINUOUS
 62
     7
 10
602.1780813828
 20
3207.0515785104
 30
0.0
  0
SEQEND
  5
706
  8
0
  6
CONTINUOUS
 62
     7
  0
LINE
  5
DC
  8
0
  6
CONTINUOUS
 62
     7
 10
592.7727068558
 20
3206.2738869077
 30
0.0
 11
600.1568878785
 21
3206.2738869077
 31
0.0
  0
LINE
  5
DD
  8
0
  6
CONTINUOUS
 62
     7
 10
734.6169794693
 20
3148.2738885766
 30
0.0
 11
593.6269606247
 21
3148.2738885766
 31
0.0
  0
LINE
  5
DE
  8
0
  6
CONTINUOUS
 62
     7
 10
734.6169794693
 20
2906.2738898879
 30
0.0
 11
734.6169794693
 21
3148.2738885766
 31
0.0
  0
LINE
  5
DF
  8
0
  6
CONTINUOUS
 62
     7
 10
734.6169794693
 20
2906.2738898879
 30
0.0
 11
593.6269606247
 21
2906.2738898879
 31
0.0
  0
LINE
  5
E0
  8
0
  6
CONTINUOUS
 62
     7
 10
593.6269606247
 20
2906.2738898879
 30
0.0
 11
593.6269606247
 21
3148.2738885766
 31
0.0
  0
LINE
  5
E1
  8
0
  6
CONTINUOUS
 62
     7
 10
737.0670879975
 20
3207.7760580664
 30
0.0
 11
737.7093876496
 21
3207.6648805028
 31
0.0
  0
ARC
  5
E2
  8
0
  6
CONTINUOUS
 62
     7
 10
728.5066273418
 20
3226.2581310998
 30
0.0
 40
20.74607830524001
 50
296.3331855133
 51
337.3652528143
  0
LINE
  5
E3
  8
0
  6
CONTINUOUS
 62
     7
 10
603.5246695176
 20
3207.6648805028
 30
0.0
 11
604.1669691697
 21
3207.7760580664
 31
0.0
  0
LINE
  5
E4
  8
0
  6
CONTINUOUS
 62
     7
 10
741.0770500794
 20
3206.2738869077
 30
0.0
 11
748.4613503113
 21
3206.2738869077
 31
0.0
  0
POLYLINE
  5
E5
  8
0
  6
CONTINUOUS
 62
     7
 66
     1
 10
0.0
 20
0.0
 30
0.0
  0
VERTEX
  5
5B0
  8
0
  6
CONTINUOUS
 62
     7
 10
739.0559757843
 20
3207.0515785104
 30
0.0
  0
VERTEX
  5
5B1
  8
0
  6
CONTINUOUS
 62
     7
 10
740.0982226029
 20
3206.4315560943
 30
0.0
  0
VERTEX
  5
5B2
  8
0
  6
CONTINUOUS
 62
     7
 10
741.0770500794
 20
3206.2738869077
 30
0.0
  0
SEQEND
  5
705
  8
0
  6
CONTINUOUS
 62
     7
  0
LINE
  5
E6
  8
0
  6
CONTINUOUS
 62
     7
 10
737.7093876496
 20
3207.6648805028
 30
0.0
 11
739.0559757843
 21
3207.0515785104
 31
0.0
  0
LINE
  5
E7
  8
0
  6
CONTINUOUS
 62
     7
 10
730.7332600251
 20
3198.5934409982
 30
0.0
 11
730.5171335831
 21
3198.7626585847
 31
0.0
  0
LINE
  5
E8
  8
0
  6
CONTINUOUS
 62
     7
 10
731.1216438904
 20
3197.7246138936
 30
0.0
 11
730.7332600251
 21
3198.5934409982
 31
0.0
  0
LINE
  5
E9
  8
0
  6
CONTINUOUS
 62
     7
 10
730.7567442551
 20
3187.2738931065
 30
0.0
 11
731.1216438904
 21
3197.7246138936
 31
0.0
  0
LINE
  5
EA
  8
0
  6
CONTINUOUS
 62
     7
 10
720.6170405045
 20
3187.2738931065
 30
0.0
 11
723.9317740097
 21
3187.2738931065
 31
0.0
  0
LINE
  5
EB
  8
0
  6
CONTINUOUS
 62
     7
 10
720.6170405045
 20
3197.7246138936
 30
0.0
 11
720.6170405045
 21
3187.2738931065
 31
0.0
  0
LINE
  5
EC
  8
0
  6
CONTINUOUS
 62
     7
 10
620.6170166626
 20
3187.2738931065
 30
0.0
 11
620.6170166626
 21
3197.7246138936
 31
0.0
  0
LINE
  5
ED
  8
0
  6
CONTINUOUS
 62
     7
 10
617.3022831574
 20
3187.2738931065
 30
0.0
 11
620.6170166626
 21
3187.2738931065
 31
0.0
  0
LINE
  5
EE
  8
0
  6
CONTINUOUS
 62
     7
 10
610.477312912
 20
3187.2738931065
 30
0.0
 11
610.6170261994
 21
3187.2738931065
 31
0.0
  0
LINE
  5
EF
  8
0
  6
CONTINUOUS
 62
     7
 10
610.1124132767
 20
3197.7246138936
 30
0.0
 11
610.477312912
 21
3187.2738931065
 31
0.0
  0
LINE
  5
F0
  8
0
  6
CONTINUOUS
 62
     7
 10
610.5007971421
 20
3198.5934409982
 30
0.0
 11
610.1124132767
 21
3197.7246138936
 31
0.0
  0
LINE
  5
F1
  8
0
  6
CONTINUOUS
 62
     7
 10
610.7168043747
 20
3198.7626585847
 30
0.0
 11
610.5007971421
 21
3198.5934409982
 31
0.0
  0
LINE
  5
F2
  8
0
  6
CONTINUOUS
 62
     7
 10
620.6170166626
 20
3187.2738931065
 30
0.0
 11
720.6170405045
 21
3187.2738931065
 31
0.0
  0
LINE
  5
F3
  8
0
  6
CONTINUOUS
 62
     7
 10
610.6170261994
 20
3185.2738890534
 30
0.0
 11
593.6269606247
 21
3185.2738890534
 31
0.0
  0
LINE
  5
F4
  8
0
  6
CONTINUOUS
 62
     7
 10
729.6169842377
 20
3185.2738890534
 30
0.0
 11
610.6170261994
 21
3185.2738890534
 31
0.0
  0
LINE
  5
F5
  8
0
  6
CONTINUOUS
 62
     7
 10
734.6169794693
 20
3185.2738890534
 30
0.0
 11
729.6169842377
 21
3185.2738890534
 31
0.0
  0
LINE
  5
F6
  8
0
  6
CONTINUOUS
 62
     7
 10
734.6169794693
 20
3148.2738885766
 30
0.0
 11
734.6169794693
 21
3185.2738890534
 31
0.0
  0
LINE
  5
F7
  8
0
  6
CONTINUOUS
 62
     7
 10
593.6269606247
 20
3148.2738885766
 30
0.0
 11
593.6269606247
 21
3185.2738890534
 31
0.0
  0
LINE
  5
F8
  8
0
  6
CONTINUOUS
 62
     7
 10
617.3022831574
 20
3187.2738931065
 30
0.0
 11
610.6170261994
 21
3187.2738931065
 31
0.0
  0
LINE
  5
F9
  8
0
  6
CONTINUOUS
 62
     7
 10
729.6169842377
 20
3187.2738931065
 30
0.0
 11
723.9317740097
 21
3187.2738931065
 31
0.0
  0
LINE
  5
FA
  8
0
  6
CONTINUOUS
 62
     7
 10
729.6169842377
 20
3185.2738890534
 30
0.0
 11
729.6169842377
 21
3187.2738931065
 31
0.0
  0
LINE
  5
FB
  8
0
  6
CONTINUOUS
 62
     7
 10
610.6170261994
 20
3187.2738931065
 30
0.0
 11
610.6170261994
 21
3185.2738890534
 31
0.0
  0
LINE
  5
FC
  8
0
  6
CONTINUOUS
 62
     7
 10
729.6169842377
 20
3187.2738931065
 30
0.0
 11
734.1996277466
 21
3187.2738931065
 31
0.0
  0
ARC
  5
FD
  8
0
  6
CONTINUOUS
 62
     7
 10
729.6170071259
 20
3185.2738906031
 30
0.0
 40
4.999999999999892
 50
0.0
 51
23.5781784782
  0
LINE
  5
FE
  8
0
  6
CONTINUOUS
 62
     7
 10
610.6170261994
 20
2869.2738894111
 30
0.0
 11
593.6269606247
 21
2869.2738894111
 31
0.0
  0
LINE
  5
FF
  8
0
  6
CONTINUOUS
 62
     7
 10
730.6170309677
 20
2854.783895958
 30
0.0
 11
610.6170261994
 21
2854.783895958
 31
0.0
  0
LINE
  5
100
  8
0
  6
CONTINUOUS
 62
     7
 10
610.6170261994
 20
2869.2738894111
 30
0.0
 11
610.6170261994
 21
2854.783895958
 31
0.0
  0
LINE
  5
101
  8
0
  6
CONTINUOUS
 62
     7
 10
734.6169794693
 20
2869.2738894111
 30
0.0
 11
730.6170309677
 21
2869.2738894111
 31
0.0
  0
LINE
  5
102
  8
0
  6
CONTINUOUS
 62
     7
 10
730.6170309677
 20
2869.2738894111
 30
0.0
 11
730.6170309677
 21
2854.783895958
 31
0.0
  0
LINE
  5
103
  8
0
  6
CONTINUOUS
 62
     7
 10
734.6169794693
 20
2869.2738894111
 30
0.0
 11
734.6169794693
 21
2906.2738898879
 31
0.0
  0
LINE
  5
104
  8
0
  6
CONTINUOUS
 62
     7
 10
593.6269606247
 20
2869.2738894111
 30
0.0
 11
593.6269606247
 21
2906.2738898879
 31
0.0
  0
ARC
  5
105
  8
0
  6
CONTINUOUS
 62
     7
 10
729.6170071259
 20
2869.2738906031
 30
0.0
 40
4.999999999999892
 50
336.4218215218
 51
0.0
  0
LINE
  5
106
  8
0
  6
CONTINUOUS
 62
     7
 10
734.1996277466
 20
2867.2738853579
 30
0.0
 11
730.6170309677
 21
2867.2738853579
 31
0.0
  0
ARC
  5
107
  8
0
  6
CONTINUOUS
 62
     7
 10
741.0549182319
 20
3197.8739830461
 30
0.0
 40
10.3467022709908
 50
108.8651977797
 51
176.0127203452
  0
ARC
  5
108
  8
0
  6
CONTINUOUS
 62
     7
 10
600.1787543291
 20
3197.873687276
 30
0.0
 40
10.34710651597448
 50
3.9887653907
 51
71.1333164844
  0
ARC
  5
109
  8
0
  6
CONTINUOUS
 62
     7
 10
600.2103755297
 20
3197.3393751503
 30
0.0
 40
9.909528769414006
 50
2.227968468
 51
78.5468237282
  0
ARC
  5
10A
  8
0
  6
CONTINUOUS
 62
     7
 10
741.0234759705
 20
3197.3395501085
 30
0.0
 40
9.909316457777669
 50
101.4522116555
 51
177.7729961483
  0
ARC
  5
10B
  8
0
  6
CONTINUOUS
 62
     7
 10
600.1569416787
 20
3196.2738906032
 30
0.0
 40
10.00000000000045
 50
2.0
 51
90.0
  0
ARC
  5
10C
  8
0
  6
CONTINUOUS
 62
     7
 10
741.0770725715
 20
3196.2738906032
 30
0.0
 40
10.00000000000045
 50
90.0
 51
178.0
  0
LINE
  5
10D
  8
0
  6
CONTINUOUS
 62
     7
 10
715.6170452729
 20
3458.9338782912
 30
0.0
 11
625.6170118943
 21
3458.9338782912
 31
0.0
  0
LINE
  5
10E
  8
0
  6
CONTINUOUS
 62
     7
 10
712.0148981705
 20
3532.2739068156
 30
0.0
 11
715.6170452729
 21
3532.2739068156
 31
0.0
  0
LINE
  5
10F
  8
0
  6
CONTINUOUS
 62
     7
 10
646.3402355805
 20
3532.2739068156
 30
0.0
 11
712.0148981705
 21
3532.2739068156
 31
0.0
  0
LINE
  5
110
  8
0
  6
CONTINUOUS
 62
     7
 10
649.2816055909
 20
3327.1681252604
 30
0.0
 11
691.9524515763
 21
3327.1681252604
 31
0.0
  0
LINE
  5
111
  8
0
  6
CONTINUOUS
 62
     7
 10
649.2816055909
 20
3336.7738906031
 30
0.0
 11
691.9524515763
 21
3336.7738906031
 31
0.0
  0
POLYLINE
  5
112
  8
0
  6
CONTINUOUS
 62
     7
 66
     1
 10
0.0
 20
0.0
 30
0.0
  0
VERTEX
  5
5B3
  8
0
  6
CONTINUOUS
 62
     7
 10
734.6169794693
 20
3087.4839383846
 30
0.0
  0
VERTEX
  5
5B4
  8
0
  6
CONTINUOUS
 62
     7
 10
734.8091448441
 20
3086.9438755995
 30
0.0
  0
VERTEX
  5
5B5
  8
0
  6
CONTINUOUS
 62
     7
 10
735.3782499924
 20
3086.4245664066
 30
0.0
  0
VERTEX
  5
5B6
  8
0
  6
CONTINUOUS
 62
     7
 10
736.302360405
 20
3085.9459671861
 30
0.0
  0
VERTEX
  5
5B7
  8
0
  6
CONTINUOUS
 62
     7
 10
737.5459517136
 20
3085.5264696961
 30
0.0
  0
VERTEX
  5
5B8
  8
0
  6
CONTINUOUS
 62
     7
 10
739.0613402024
 20
3085.1822007185
 30
0.0
  0
VERTEX
  5
5B9
  8
0
  6
CONTINUOUS
 62
     7
 10
740.7901133194
 20
3084.9263850337
 30
0.0
  0
VERTEX
  5
5BA
  8
0
  6
CONTINUOUS
 62
     7
 10
742.6661099091
 20
3084.7688536828
 30
0.0
  0
VERTEX
  5
5BB
  8
0
  6
CONTINUOUS
 62
     7
 10
744.6169699326
 20
3084.7156602627
 30
0.0
  0
SEQEND
  5
704
  8
0
  6
CONTINUOUS
 62
     7
  0
POLYLINE
  5
113
  8
0
  6
CONTINUOUS
 62
     7
 66
     1
 10
0.0
 20
0.0
 30
0.0
  0
VERTEX
  5
5BC
  8
0
  6
CONTINUOUS
 62
     7
 10
744.6169699326
 20
3084.7156602627
 30
0.0
  0
VERTEX
  5
5BD
  8
0
  6
CONTINUOUS
 62
     7
 10
744.5865715638
 20
3077.2293839341
 30
0.0
  0
VERTEX
  5
5BE
  8
0
  6
CONTINUOUS
 62
     7
 10
744.5036018982
 20
3068.8293833023
 30
0.0
  0
VERTEX
  5
5BF
  8
0
  6
CONTINUOUS
 62
     7
 10
744.3965519562
 20
3060.4013945645
 30
0.0
  0
VERTEX
  5
5C0
  8
0
  6
CONTINUOUS
 62
     7
 10
744.2884291306
 20
3051.9198696798
 30
0.0
  0
VERTEX
  5
5C1
  8
0
  6
CONTINUOUS
 62
     7
 10
744.2040289536
 20
3043.8221595919
 30
0.0
  0
VERTEX
  5
5C2
  8
0
  6
CONTINUOUS
 62
     7
 10
744.1475237503
 20
3035.616758812
 30
0.0
  0
VERTEX
  5
5C3
  8
0
  6
CONTINUOUS
 62
     7
 10
744.1272581711
 20
3027.4596382601
 30
0.0
  0
VERTEX
  5
5C4
  8
0
  6
CONTINUOUS
 62
     7
 10
744.1350067749
 20
3022.1222327759
 30
0.0
  0
VERTEX
  5
5C5
  8
0
  6
CONTINUOUS
 62
     7
 10
744.1596830979
 20
3016.6511922812
 30
0.0
  0
VERTEX
  5
5C6
  8
0
  6
CONTINUOUS
 62
     7
 10
744.1983069077
 20
3011.3797556346
 30
0.0
  0
VERTEX
  5
5C7
  8
0
  6
CONTINUOUS
 62
     7
 10
744.2477787629
 20
3006.3092332071
 30
0.0
  0
VERTEX
  5
5C8
  8
0
  6
CONTINUOUS
 62
     7
 10
744.3140591278
 20
3000.5629840976
 30
0.0
  0
VERTEX
  5
5C9
  8
0
  6
CONTINUOUS
 62
     7
 10
744.3862999573
 20
2994.8912091291
 30
0.0
  0
VERTEX
  5
5CA
  8
0
  6
CONTINUOUS
 62
     7
 10
744.4695080414
 20
2988.5279495006
 30
0.0
  0
VERTEX
  5
5CB
  8
0
  6
CONTINUOUS
 62
     7
 10
744.5446098938
 20
2982.0453446096
 30
0.0
  0
VERTEX
  5
5CC
  8
0
  6
CONTINUOUS
 62
     7
 10
744.5988501206
 20
2975.4670221096
 30
0.0
  0
VERTEX
  5
5CD
  8
0
  6
CONTINUOUS
 62
     7
 10
744.6169699326
 20
2969.8321182018
 30
0.0
  0
SEQEND
  5
703
  8
0
  6
CONTINUOUS
 62
     7
  0
POLYLINE
  5
114
  8
0
  6
CONTINUOUS
 62
     7
 66
     1
 10
0.0
 20
0.0
 30
0.0
  0
VERTEX
  5
5CE
  8
0
  6
CONTINUOUS
 62
     7
 10
734.6169794693
 20
2967.0638400799
 30
0.0
  0
VERTEX
  5
5CF
  8
0
  6
CONTINUOUS
 62
     7
 10
734.8091448441
 20
2967.6039065903
 30
0.0
  0
VERTEX
  5
5D0
  8
0
  6
CONTINUOUS
 62
     7
 10
735.3782499924
 20
2968.1232157832
 30
0.0
  0
VERTEX
  5
5D1
  8
0
  6
CONTINUOUS
 62
     7
 10
736.302360405
 20
2968.6018150037
 30
0.0
  0
VERTEX
  5
5D2
  8
0
  6
CONTINUOUS
 62
     7
 10
737.5459517136
 20
2969.0213087684
 30
0.0
  0
VERTEX
  5
5D3
  8
0
  6
CONTINUOUS
 62
     7
 10
739.0613402024
 20
2969.3655814713
 30
0.0
  0
VERTEX
  5
5D4
  8
0
  6
CONTINUOUS
 62
     7
 10
740.7901133194
 20
2969.6213971561
 30
0.0
  0
VERTEX
  5
5D5
  8
0
  6
CONTINUOUS
 62
     7
 10
742.6661099091
 20
2969.7789285069
 30
0.0
  0
VERTEX
  5
5D6
  8
0
  6
CONTINUOUS
 62
     7
 10
744.6169699326
 20
2969.8321182018
 30
0.0
  0
SEQEND
  5
702
  8
0
  6
CONTINUOUS
 62
     7
  0
LINE
  5
115
  8
0
  6
CONTINUOUS
 62
     7
 10
744.6169699326
 20
3185.2738890534
 30
0.0
 11
744.6169699326
 21
3084.7156602627
 31
0.0
  0
LINE
  5
116
  8
0
  6
CONTINUOUS
 62
     7
 10
734.6260393753
 20
3185.2738890534
 30
0.0
 11
734.6225823059
 21
3185.3959444648
 31
0.0
  0
LINE
  5
117
  8
0
  6
CONTINUOUS
 62
     7
 10
744.6169699326
 20
3185.2738890534
 30
0.0
 11
734.6260393753
 21
3185.2738890534
 31
0.0
  0
LINE
  5
118
  8
0
  6
CONTINUOUS
 62
     7
 10
744.6169699326
 20
2969.8321182018
 30
0.0
 11
744.6169699326
 21
2869.2738894111
 31
0.0
  0
LINE
  5
119
  8
0
  6
CONTINUOUS
 62
     7
 10
734.6203173294
 20
2869.1803250199
 30
0.0
 11
734.6223438874
 21
2869.2738894111
 31
0.0
  0
LINE
  5
11A
  8
0
  6
CONTINUOUS
 62
     7
 10
734.6223438874
 20
2869.2738894111
 30
0.0
 11
744.6169699326
 21
2869.2738894111
 31
0.0
  0
LINE
  5
11B
  8
0
  6
CONTINUOUS
 62
     7
 10
593.6269606247
 20
2819.773885954
 30
0.0
 11
593.6269606247
 21
2869.2738894111
 31
0.0
  0
LINE
  5
11C
  8
0
  6
CONTINUOUS
 62
     7
 10
593.6269606247
 20
3185.2738890534
 30
0.0
 11
593.6269606247
 21
3206.3466343766
 31
0.0
  0
LINE
  5
11D
  8
0
  6
CONTINUOUS
 62
     7
 10
800.6169642105
 20
3039.2738902679
 30
0.0
 11
800.6169642105
 21
3234.7738925105
 31
0.0
  0
LINE
  5
11E
  8
0
  6
CONTINUOUS
 62
     7
 10
800.6169642105
 20
2819.773885954
 30
0.0
 11
800.6169642105
 21
3009.2738909384
 31
0.0
  0
LINE
  5
11F
  8
0
  6
CONTINUOUS
 62
     7
 10
923.2345069542
 20
3009.2738909384
 30
0.0
 11
800.6169642105
 21
3009.2738909384
 31
0.0
  0
LINE
  5
120
  8
0
  6
CONTINUOUS
 62
     7
 10
923.2345069542
 20
3039.2738902679
 30
0.0
 11
800.6169642105
 21
3039.2738902679
 31
0.0
  0
LINE
  5
121
  8
0
  6
CONTINUOUS
 62
     7
 10
2960.6170500412
 20
2819.773885954
 30
0.0
 11
2960.6170500412
 21
3009.2738909384
 31
0.0
  0
LINE
  5
122
  8
0
  6
CONTINUOUS
 62
     7
 10
2960.6170500412
 20
3039.2738902679
 30
0.0
 11
2960.6170500412
 21
3234.7738925105
 31
0.0
  0
LINE
  5
123
  8
0
  6
CONTINUOUS
 62
     7
 10
2837.9995072976
 20
3039.2738902679
 30
0.0
 11
2960.6170500412
 21
3039.2738902679
 31
0.0
  0
LINE
  5
124
  8
0
  6
CONTINUOUS
 62
     7
 10
2837.9995072976
 20
3009.2738909384
 30
0.0
 11
2960.6170500412
 21
3009.2738909384
 31
0.0
  0
LINE
  5
125
  8
0
  6
CONTINUOUS
 62
     7
 10
3045.6169689789
 20
3234.7738925105
 30
0.0
 11
3045.6169689789
 21
2819.773885954
 31
0.0
  0
LINE
  5
126
  8
0
  6
CONTINUOUS
 62
     7
 10
930.7156647339
 20
2903.884265173
 30
0.0
 11
800.6169642105
 21
2903.884265173
 31
0.0
  0
LINE
  5
127
  8
0
  6
CONTINUOUS
 62
     7
 10
931.4953530922
 20
3150.6635132914
 30
0.0
 11
800.6169642105
 21
3150.6635132914
 31
0.0
  0
LINE
  5
128
  8
0
  6
CONTINUOUS
 62
     7
 10
2830.5183495179
 20
2903.884265173
 30
0.0
 11
2960.6170500412
 21
2903.884265173
 31
0.0
  0
LINE
  5
129
  8
0
  6
CONTINUOUS
 62
     7
 10
2829.7386611596
 20
3150.6635132914
 30
0.0
 11
2960.6170500412
 21
3150.6635132914
 31
0.0
  0
LINE
  5
12A
  8
0
  6
CONTINUOUS
 62
     7
 10
580.6170548096
 20
2914.7738922125
 30
0.0
 11
580.6170548096
 21
3139.7738937026
 31
0.0
  0
LINE
  5
12B
  8
0
  6
CONTINUOUS
 62
     7
 10
997.5581015244
 20
2836.7738906031
 30
0.0
 11
993.9626897469
 21
2836.7738906031
 31
0.0
  0
LINE
  5
12C
  8
0
  6
CONTINUOUS
 62
     7
 10
941.6547859803
 20
2836.7738906031
 30
0.0
 11
800.6169642105
 21
2836.7738906031
 31
0.0
  0
LINE
  5
12D
  8
0
  6
CONTINUOUS
 62
     7
 10
2763.6759127274
 20
2836.7738906031
 30
0.0
 11
2767.2713245049
 21
2836.7738906031
 31
0.0
  0
LINE
  5
12E
  8
0
  6
CONTINUOUS
 62
     7
 10
2819.5792282715
 20
2836.7738906031
 30
0.0
 11
2960.6170500412
 21
2836.7738906031
 31
0.0
  0
LINE
  5
12F
  8
0
  6
CONTINUOUS
 62
     7
 10
1012.0838130608
 20
3217.7738878613
 30
0.0
 11
979.4369186058
 21
3217.7738878613
 31
0.0
  0
LINE
  5
130
  8
0
  6
CONTINUOUS
 62
     7
 10
942.8729261055
 20
3217.7738878613
 30
0.0
 11
800.6169642105
 21
3217.7738878613
 31
0.0
  0
LINE
  5
131
  8
0
  6
CONTINUOUS
 62
     7
 10
2749.150201191
 20
3217.7738878613
 30
0.0
 11
2781.7970956459
 21
3217.7738878613
 31
0.0
  0
LINE
  5
132
  8
0
  6
CONTINUOUS
 62
     7
 10
2818.3610881462
 20
3217.7738878613
 30
0.0
 11
2960.6170500412
 21
3217.7738878613
 31
0.0
  0
LINE
  5
133
  8
0
  6
CONTINUOUS
 62
     7
 10
791.3940991059
 20
3262.2541222459
 30
0.0
 11
549.8399580613
 21
3262.2541222459
 31
0.0
  0
LINE
  5
134
  8
0
  6
CONTINUOUS
 62
     7
 10
788.1933296814
 20
3251.091707099
 30
0.0
 11
553.0407274857
 21
3251.091707099
 31
0.0
  0
LINE
  5
135
  8
0
  6
CONTINUOUS
 62
     7
 10
769.2459667817
 20
3218.2738963252
 30
0.0
 11
747.6547802582
 21
3218.2738963252
 31
0.0
  0
LINE
  5
136
  8
0
  6
CONTINUOUS
 62
     7
 10
593.5792769089
 20
3218.2738963252
 30
0.0
 11
571.9880903855
 21
3218.2738963252
 31
0.0
  0
LINE
  5
137
  8
0
  6
CONTINUOUS
 62
     7
 10
561.1716354981
 20
3305.0201121455
 30
0.0
 11
780.0623024598
 21
3305.0201121455
 31
0.0
  0
LINE
  5
138
  8
0
  6
CONTINUOUS
 62
     7
 10
700.381978859
 20
3317.6402631884
 30
0.0
 11
640.8519590989
 21
3317.6402631884
 31
0.0
  0
LINE
  5
139
  8
0
  6
CONTINUOUS
 62
     7
 10
755.6170071259
 20
2819.773885954
 30
0.0
 11
755.6170071259
 21
3207.3654565698
 31
0.0
  0
LINE
  5
13A
  8
0
  6
CONTINUOUS
 62
     7
 10
3005.6170071259
 20
3027.2738906292
 30
0.0
 11
3005.6170071259
 21
3234.7738925105
 31
0.0
  0
LINE
  5
13B
  8
0
  6
CONTINUOUS
 62
     7
 10
3005.6170071259
 20
2819.773885954
 30
0.0
 11
3005.6170071259
 21
3027.2738906292
 31
0.0
  0
POINT
  5
13C
  8
FORMAT
 10
779.7457076626
 20
3617.1884034465
 30
0.0
  0
INSERT
  5
148
  8
FORMAT
  2
SW_CENTERMARKSYMBOL_0
 10
1880.6170071259
 20
3024.2738906031
 30
0.0
  0
INSERT
  5
154
  8
FORMAT
  2
SW_CENTERMARKSYMBOL_1
 10
1952.0147842382
 20
3931.4686643003
 30
0.0
  0
INSERT
  5
160
  8
FORMAT
  2
SW_CENTERMARKSYMBOL_2
 10
2093.0522882348
 20
3909.130518165
 30
0.0
  0
INSERT
  5
16C
  8
FORMAT
  2
SW_CENTERMARKSYMBOL_3
 10
2228.8589305781
 20
3865.0042651884
 30
0.0
  0
INSERT
  5
178
  8
FORMAT
  2
SW_CENTERMARKSYMBOL_4
 10
2356.0907010174
 20
3800.1764401654
 30
0.0
  0
INSERT
  5
184
  8
FORMAT
  2
SW_CENTERMARKSYMBOL_5
 10
2471.6147311064
 20
3716.2433192992
 30
0.0
  0
INSERT
  5
190
  8
FORMAT
  2
SW_CENTERMARKSYMBOL_6
 10
2572.5864358219
 20
3615.2716145836
 30
0.0
  0
INSERT
  5
19C
  8
FORMAT
  2
SW_CENTERMARKSYMBOL_7
 10
2656.5195566881
 20
3499.7475844947
 30
0.0
  0
INSERT
  5
1A8
  8
FORMAT
  2
SW_CENTERMARKSYMBOL_8
 10
2721.3473817112
 20
3372.5158140554
 30
0.0
  0
INSERT
  5
1B4
  8
FORMAT
  2
SW_CENTERMARKSYMBOL_9
 10
2765.4736346878
 20
3236.709171712
 30
0.0
  0
INSERT
  5
1C0
  8
FORMAT
  2
SW_CENTERMARKSYMBOL_10
 10
2787.811780823
 20
3095.6716677155
 30
0.0
  0
INSERT
  5
1CC
  8
FORMAT
  2
SW_CENTERMARKSYMBOL_11
 10
2787.811780823
 20
2952.8761134908
 30
0.0
  0
INSERT
  5
1D8
  8
FORMAT
  2
SW_CENTERMARKSYMBOL_12
 10
2765.4736346878
 20
2811.8386094943
 30
0.0
  0
INSERT
  5
1E4
  8
FORMAT
  2
SW_CENTERMARKSYMBOL_13
 10
2721.3473817112
 20
2676.0319671509
 30
0.0
  0
INSERT
  5
1F0
  8
FORMAT
  2
SW_CENTERMARKSYMBOL_14
 10
2656.5195566881
 20
2548.8001967116
 30
0.0
  0
INSERT
  5
1FC
  8
FORMAT
  2
SW_CENTERMARKSYMBOL_15
 10
2572.5864358219
 20
2433.2761666227
 30
0.0
  0
INSERT
  5
208
  8
FORMAT
  2
SW_CENTERMARKSYMBOL_16
 10
2471.6147311064
 20
2332.3044619071
 30
0.0
  0
INSERT
  5
214
  8
FORMAT
  2
SW_CENTERMARKSYMBOL_17
 10
2356.0907010174
 20
2248.3713410409
 30
0.0
  0
INSERT
  5
220
  8
FORMAT
  2
SW_CENTERMARKSYMBOL_18
 10
2228.8589305781
 20
2183.5435160179
 30
0.0
  0
INSERT
  5
22C
  8
FORMAT
  2
SW_CENTERMARKSYMBOL_19
 10
2093.0522882348
 20
2139.4172630413
 30
0.0
  0
INSERT
  5
238
  8
FORMAT
  2
SW_CENTERMARKSYMBOL_20
 10
1952.0147842382
 20
2117.079116906
 30
0.0
  0
INSERT
  5
244
  8
FORMAT
  2
SW_CENTERMARKSYMBOL_21
 10
1809.2192300136
 20
2117.079116906
 30
0.0
  0
INSERT
  5
250
  8
FORMAT
  2
SW_CENTERMARKSYMBOL_22
 10
1668.181726017
 20
2139.4172630413
 30
0.0
  0
INSERT
  5
25C
  8
FORMAT
  2
SW_CENTERMARKSYMBOL_23
 10
1532.3750836737
 20
2183.5435160179
 30
0.0
  0
INSERT
  5
268
  8
FORMAT
  2
SW_CENTERMARKSYMBOL_24
 10
1405.1433132344
 20
2248.3713410409
 30
0.0
  0
INSERT
  5
274
  8
FORMAT
  2
SW_CENTERMARKSYMBOL_25
 10
1289.6192831454
 20
2332.3044619071
 30
0.0
  0
INSERT
  5
280
  8
FORMAT
  2
SW_CENTERMARKSYMBOL_26
 10
1188.6475784299
 20
2433.2761666227
 30
0.0
  0
INSERT
  5
28C
  8
FORMAT
  2
SW_CENTERMARKSYMBOL_27
 10
1104.7144575637
 20
2548.8001967116
 30
0.0
  0
INSERT
  5
298
  8
FORMAT
  2
SW_CENTERMARKSYMBOL_28
 10
1039.8866325406
 20
2676.0319671509
 30
0.0
  0
INSERT
  5
2A4
  8
FORMAT
  2
SW_CENTERMARKSYMBOL_29
 10
995.760379564
 20
2811.8386094943
 30
0.0
  0
INSERT
  5
2B0
  8
FORMAT
  2
SW_CENTERMARKSYMBOL_30
 10
973.4222334287
 20
2952.8761134908
 30
0.0
  0
INSERT
  5
2BC
  8
FORMAT
  2
SW_CENTERMARKSYMBOL_31
 10
973.4222334287
 20
3095.6716677155
 30
0.0
  0
INSERT
  5
2C8
  8
FORMAT
  2
SW_CENTERMARKSYMBOL_32
 10
995.760379564
 20
3236.709171712
 30
0.0
  0
INSERT
  5
2D4
  8
FORMAT
  2
SW_CENTERMARKSYMBOL_33
 10
1039.8866325406
 20
3372.5158140554
 30
0.0
  0
INSERT
  5
2E0
  8
FORMAT
  2
SW_CENTERMARKSYMBOL_34
 10
1104.7144575637
 20
3499.7475844947
 30
0.0
  0
INSERT
  5
2EC
  8
FORMAT
  2
SW_CENTERMARKSYMBOL_35
 10
1188.6475784299
 20
3615.2716145836
 30
0.0
  0
INSERT
  5
2F8
  8
FORMAT
  2
SW_CENTERMARKSYMBOL_36
 10
1289.6192831454
 20
3716.2433192992
 30
0.0
  0
INSERT
  5
304
  8
FORMAT
  2
SW_CENTERMARKSYMBOL_37
 10
1405.1433132344
 20
3800.1764401654
 30
0.0
  0
INSERT
  5
310
  8
FORMAT
  2
SW_CENTERMARKSYMBOL_38
 10
1532.3750836737
 20
3865.0042651884
 30
0.0
  0
INSERT
  5
31C
  8
FORMAT
  2
SW_CENTERMARKSYMBOL_39
 10
1668.181726017
 20
3909.130518165
 30
0.0
  0
INSERT
  5
328
  8
FORMAT
  2
SW_CENTERMARKSYMBOL_40
 10
1809.2192300136
 20
3931.4686643003
 30
0.0
  0
LINE
  5
329
  8
0
  6
CONTINUOUS
 62
     7
 10
1005.6170071259
 20
1436.4795356695
 30
0.0
 11
1005.6170071259
 21
1431.4795106355
 31
0.0
  0
LINE
  5
32A
  8
0
  6
CONTINUOUS
 62
     7
 10
2755.6170071259
 20
1431.4795106355
 30
0.0
 11
2755.6170071259
 21
1436.4795356695
 31
0.0
  0
LINE
  5
32B
  8
0
  6
CONTINUOUS
 62
     7
 10
1005.6170071259
 20
651.4795392457
 30
0.0
 11
1005.6170071259
 21
646.4795142118
 31
0.0
  0
LINE
  5
32C
  8
0
  6
CONTINUOUS
 62
     7
 10
2755.6170071259
 20
646.4795142118
 30
0.0
 11
2755.6170071259
 21
651.4795392457
 31
0.0
  0
LINE
  5
32D
  8
0
  6
CONTINUOUS
 62
     7
 10
2838.1169880524
 20
1248.9795207683
 30
0.0
 11
2838.1169880524
 21
1431.4795106355
 31
0.0
  0
LINE
  5
32E
  8
0
  6
CONTINUOUS
 62
     7
 10
923.1170261994
 20
1431.4795106355
 30
0.0
 11
923.1170261994
 21
1248.9795207683
 31
0.0
  0
LINE
  5
32F
  8
0
  6
CONTINUOUS
 62
     7
 10
923.1170261994
 20
833.9795291129
 30
0.0
 11
923.1170261994
 21
733.574417204
 31
0.0
  0
LINE
  5
330
  8
0
  6
CONTINUOUS
 62
     7
 10
923.1170261994
 20
716.1821990911
 30
0.0
 11
923.1170261994
 21
651.4795392457
 31
0.0
  0
LINE
  5
331
  8
0
  6
CONTINUOUS
 62
     7
 10
2838.1169880524
 20
651.4795392457
 30
0.0
 11
2838.1169880524
 21
833.9795291129
 31
0.0
  0
LINE
  5
332
  8
0
  6
CONTINUOUS
 62
     7
 10
1966.2988628045
 20
1083.1954039339
 30
0.0
 11
1965.9930388227
 21
1083.1954039339
 31
0.0
  0
LINE
  5
333
  8
0
  6
CONTINUOUS
 62
     7
 10
2007.7396179333
 20
1098.7152836922
 30
0.0
 11
2007.2858924761
 21
1098.7152836922
 31
0.0
  0
LINE
  5
334
  8
0
  6
CONTINUOUS
 62
     7
 10
2007.3144281998
 20
1052.5228872601
 30
0.0
 11
2007.7682877674
 21
1052.5228881914
 31
0.0
  0
LINE
  5
335
  8
0
  6
CONTINUOUS
 62
     7
 10
2007.768153657
 20
1030.4359661121
 30
0.0
 11
2007.3142940894
 21
1030.4359670434
 31
0.0
  0
LINE
  5
336
  8
0
  6
CONTINUOUS
 62
     7
 10
2007.3144281998
 20
977.2907167379
 30
0.0
 11
2007.7682877674
 21
977.2907167379
 31
0.0
  0
ARC
  5
337
  8
0
  6
CONTINUOUS
 62
     7
 10
670.6170071259
 20
832.4795249406
 30
0.0
 40
325.0000000000001
 50
270.0
 51
335.6182509809
  0
ARC
  5
338
  8
0
  6
CONTINUOUS
 62
     7
 10
670.6170071259
 20
832.4795249406
 30
0.0
 40
325.0000000000001
 50
338.2232848248
 51
65.6077410233
  0
ARC
  5
339
  8
0
  6
CONTINUOUS
 62
     7
 10
670.6170071259
 20
832.4795249406
 30
0.0
 40
325.0000000000001
 50
68.229143379
 51
155.610389727
  0
ARC
  5
33A
  8
0
  6
CONTINUOUS
 62
     7
 10
670.6170071259
 20
832.4795249406
 30
0.0
 40
325.0000000000001
 50
158.2261703833
 51
245.607768712
  0
ARC
  5
33B
  8
0
  6
CONTINUOUS
 62
     7
 10
670.6170071259
 20
832.4795249406
 30
0.0
 40
325.0000000000001
 50
248.2241623788
 51
270.0
  0
CIRCLE
  5
33C
  8
0
  6
CONTINUOUS
 62
     7
 10
670.6170071259
 20
832.4795249406
 30
0.0
 40
349.9999999999998
  0
LINE
  5
33D
  8
0
  6
CONTINUOUS
 62
     7
 10
695.3418100968
 20
870.0929552022
 30
0.0
 11
805.3482617035
 21
1128.2370283905
 31
0.0
  0
LINE
  5
33E
  8
0
  6
CONTINUOUS
 62
     7
 10
790.6290138855
 20
1134.5095306341
 30
0.0
 11
680.6243504181
 21
876.3696968261
 31
0.0
  0
LINE
  5
33F
  8
0
  6
CONTINUOUS
 62
     7
 10
645.894154419
 20
794.8708504144
 30
0.0
 11
535.8857954636
 21
536.7220014039
 31
0.0
  0
LINE
  5
340
  8
0
  6
CONTINUOUS
 62
     7
 10
550.6050432816
 20
530.449506611
 30
0.0
 11
660.6119717255
 21
788.5948091451
 31
0.0
  0
LINE
  5
341
  8
0
  6
CONTINUOUS
 62
     7
 10
633.0083454743
 20
857.2023182813
 30
0.0
 11
374.8595560685
 21
967.2107442919
 31
0.0
  0
LINE
  5
342
  8
0
  6
CONTINUOUS
 62
     7
 10
368.5870016709
 20
952.4915113751
 30
0.0
 11
626.7323340073
 21
842.4846052829
 31
0.0
  0
LINE
  5
343
  8
0
  6
CONTINUOUS
 62
     7
 10
708.2257116928
 20
807.7567189637
 30
0.0
 11
966.3745010987
 21
697.7483004037
 31
0.0
  0
LINE
  5
344
  8
0
  6
CONTINUOUS
 62
     7
 10
972.6469958916
 20
712.4675482217
 30
0.0
 11
714.5017231598
 21
822.4744468633
 31
0.0
  0
LINE
  5
345
  8
0
  6
CONTINUOUS
 62
     7
 10
755.6170071259
 20
1248.9795207683
 30
0.0
 11
719.6169937745
 21
1248.9795207683
 31
0.0
  0
LINE
  5
346
  8
0
  6
CONTINUOUS
 62
     7
 10
3005.6170071259
 20
833.9795291129
 30
0.0
 11
3045.6169689789
 21
833.9795291129
 31
0.0
  0
LINE
  5
347
  8
0
  6
CONTINUOUS
 62
     7
 10
3045.6169689789
 20
1248.9795207683
 30
0.0
 11
3005.6170071259
 21
1248.9795207683
 31
0.0
  0
LINE
  5
348
  8
0
  6
CONTINUOUS
 62
     7
 10
3005.6170071259
 20
1248.9795207683
 30
0.0
 11
2838.0937422409
 21
1248.9795207683
 31
0.0
  0
LINE
  5
349
  8
0
  6
CONTINUOUS
 62
     7
 10
2838.0932057991
 20
833.9795291129
 30
0.0
 11
3005.6170071259
 21
833.9795291129
 31
0.0
  0
LINE
  5
34A
  8
0
  6
CONTINUOUS
 62
     7
 10
792.3782910004
 20
833.9795291129
 30
0.0
 11
923.1402720108
 21
833.9795291129
 31
0.0
  0
LINE
  5
34B
  8
0
  6
CONTINUOUS
 62
     7
 10
923.1408084526
 20
1248.9795207683
 30
0.0
 11
755.6170071259
 21
1248.9795207683
 31
0.0
  0
LINE
  5
34C
  8
0
  6
CONTINUOUS
 62
     7
 10
580.6170548096
 20
928.9795279208
 30
0.0
 11
593.6269606247
 21
928.9795279208
 31
0.0
  0
LINE
  5
34D
  8
0
  6
CONTINUOUS
 62
     7
 10
719.6169937745
 20
1179.4795214835
 30
0.0
 11
716.3444603577
 21
1179.4795214835
 31
0.0
  0
LINE
  5
34E
  8
0
  6
CONTINUOUS
 62
     7
 10
624.8895968094
 20
1179.4795214835
 30
0.0
 11
593.6269606247
 21
1179.4795214835
 31
0.0
  0
LINE
  5
34F
  8
0
  6
CONTINUOUS
 62
     7
 10
2320.6170047417
 20
1431.4795106355
 30
0.0
 11
1885.6170070141
 21
1431.4795106355
 31
0.0
  0
LINE
  5
350
  8
0
  6
CONTINUOUS
 62
     7
 10
1885.6170070141
 20
1387.4795108739
 30
0.0
 11
2320.6170047417
 21
1387.4795108739
 31
0.0
  0
LINE
  5
351
  8
0
  6
CONTINUOUS
 62
     7
 10
1885.6170070141
 20
1387.4795108739
 30
0.0
 11
1885.6170070141
 21
1431.4795106355
 31
0.0
  0
LINE
  5
352
  8
0
  6
CONTINUOUS
 62
     7
 10
2320.6170047417
 20
1387.4795108739
 30
0.0
 11
2320.6170047417
 21
1431.4795106355
 31
0.0
  0
LINE
  5
353
  8
0
  6
CONTINUOUS
 62
     7
 10
1440.6170095101
 20
1387.4795108739
 30
0.0
 11
1875.6170072377
 21
1387.4795108739
 31
0.0
  0
LINE
  5
354
  8
0
  6
CONTINUOUS
 62
     7
 10
1440.6170095101
 20
1431.4795106355
 30
0.0
 11
1440.6170095101
 21
1387.4795108739
 31
0.0
  0
LINE
  5
355
  8
0
  6
CONTINUOUS
 62
     7
 10
1875.6170072377
 20
1431.4795106355
 30
0.0
 11
1440.6170095101
 21
1431.4795106355
 31
0.0
  0
LINE
  5
356
  8
0
  6
CONTINUOUS
 62
     7
 10
1875.6170072377
 20
1431.4795106355
 30
0.0
 11
1875.6170072377
 21
1387.4795108739
 31
0.0
  0
LINE
  5
357
  8
0
  6
CONTINUOUS
 62
     7
 10
1885.6170070141
 20
1387.4795108739
 30
0.0
 11
1880.6170071259
 21
1387.4795108739
 31
0.0
  0
LINE
  5
358
  8
0
  6
CONTINUOUS
 62
     7
 10
1880.6170071259
 20
1387.4795108739
 30
0.0
 11
1880.6170071259
 21
1431.4795106355
 31
0.0
  0
LINE
  5
359
  8
0
  6
CONTINUOUS
 62
     7
 10
1885.6170070141
 20
1431.4795106355
 30
0.0
 11
1880.6170071259
 21
1431.4795106355
 31
0.0
  0
LINE
  5
35A
  8
0
  6
CONTINUOUS
 62
     7
 10
1880.6170071259
 20
1387.4795108739
 30
0.0
 11
1875.6170072377
 21
1387.4795108739
 31
0.0
  0
LINE
  5
35B
  8
0
  6
CONTINUOUS
 62
     7
 10
1880.6170071259
 20
1431.4795106355
 30
0.0
 11
1875.6170072377
 21
1431.4795106355
 31
0.0
  0
LINE
  5
35C
  8
0
  6
CONTINUOUS
 62
     7
 10
1440.6170095101
 20
651.4795392457
 30
0.0
 11
1875.6170072377
 21
651.4795392457
 31
0.0
  0
LINE
  5
35D
  8
0
  6
CONTINUOUS
 62
     7
 10
1440.6170095101
 20
695.4795390073
 30
0.0
 11
1440.6170095101
 21
651.4795392457
 31
0.0
  0
LINE
  5
35E
  8
0
  6
CONTINUOUS
 62
     7
 10
1875.6170072377
 20
695.4795390073
 30
0.0
 11
1440.6170095101
 21
695.4795390073
 31
0.0
  0
LINE
  5
35F
  8
0
  6
CONTINUOUS
 62
     7
 10
1875.6170072377
 20
651.4795392457
 30
0.0
 11
1875.6170072377
 21
695.4795390073
 31
0.0
  0
LINE
  5
360
  8
0
  6
CONTINUOUS
 62
     7
 10
2320.6170047417
 20
695.4795390073
 30
0.0
 11
1885.6170070141
 21
695.4795390073
 31
0.0
  0
LINE
  5
361
  8
0
  6
CONTINUOUS
 62
     7
 10
2320.6170047417
 20
651.4795392457
 30
0.0
 11
2320.6170047417
 21
695.4795390073
 31
0.0
  0
LINE
  5
362
  8
0
  6
CONTINUOUS
 62
     7
 10
1885.6170070141
 20
651.4795392457
 30
0.0
 11
2320.6170047417
 21
651.4795392457
 31
0.0
  0
LINE
  5
363
  8
0
  6
CONTINUOUS
 62
     7
 10
1885.6170070141
 20
651.4795392457
 30
0.0
 11
1885.6170070141
 21
695.4795390073
 31
0.0
  0
LINE
  5
364
  8
0
  6
CONTINUOUS
 62
     7
 10
1885.6170070141
 20
651.4795392457
 30
0.0
 11
1880.6170071259
 21
651.4795392457
 31
0.0
  0
LINE
  5
365
  8
0
  6
CONTINUOUS
 62
     7
 10
1880.6170071259
 20
651.4795392457
 30
0.0
 11
1880.6170071259
 21
695.4795390073
 31
0.0
  0
LINE
  5
366
  8
0
  6
CONTINUOUS
 62
     7
 10
1880.6170071259
 20
695.4795390073
 30
0.0
 11
1885.6170070141
 21
695.4795390073
 31
0.0
  0
LINE
  5
367
  8
0
  6
CONTINUOUS
 62
     7
 10
1880.6170071259
 20
651.4795392457
 30
0.0
 11
1875.6170072377
 21
651.4795392457
 31
0.0
  0
LINE
  5
368
  8
0
  6
CONTINUOUS
 62
     7
 10
1875.6170072377
 20
695.4795390073
 30
0.0
 11
1880.6170071259
 21
695.4795390073
 31
0.0
  0
LINE
  5
369
  8
0
  6
CONTINUOUS
 62
     7
 10
1865.6170074612
 20
1387.4795108739
 30
0.0
 11
1865.6170074612
 21
695.4795390073
 31
0.0
  0
LINE
  5
36A
  8
0
  6
CONTINUOUS
 62
     7
 10
1895.6170067906
 20
695.4795390073
 30
0.0
 11
1895.6170067906
 21
1387.4795108739
 31
0.0
  0
LINE
  5
36B
  8
0
  6
CONTINUOUS
 62
     7
 10
1005.6170071259
 20
1436.4795356695
 30
0.0
 11
2755.6170071259
 21
1436.4795356695
 31
0.0
  0
LINE
  5
36C
  8
0
  6
CONTINUOUS
 62
     7
 10
1005.6170071259
 20
646.4795142118
 30
0.0
 11
2755.6170071259
 21
646.4795142118
 31
0.0
  0
LINE
  5
36D
  8
0
  6
CONTINUOUS
 62
     7
 10
2837.9995072976
 20
1248.6322492067
 30
0.0
 11
2838.0937422409
 21
1248.8937198821
 31
0.0
  0
LINE
  5
36E
  8
0
  6
CONTINUOUS
 62
     7
 10
2837.9995072976
 20
1248.6322492067
 30
0.0
 11
2837.9995072976
 21
1387.4795108739
 31
0.0
  0
LINE
  5
36F
  8
0
  6
CONTINUOUS
 62
     7
 10
2320.6170047417
 20
1387.4795108739
 30
0.0
 11
2837.9995072976
 21
1387.4795108739
 31
0.0
  0
LINE
  5
370
  8
0
  6
CONTINUOUS
 62
     7
 10
2320.6170047417
 20
1431.4795106355
 30
0.0
 11
2838.1169880524
 21
1431.4795106355
 31
0.0
  0
LINE
  5
371
  8
0
  6
CONTINUOUS
 62
     7
 10
923.2345069542
 20
1248.6322492067
 30
0.0
 11
923.2345069542
 21
1387.4795108739
 31
0.0
  0
LINE
  5
372
  8
0
  6
CONTINUOUS
 62
     7
 10
923.1408084526
 20
1248.8913356963
 30
0.0
 11
923.2345069542
 21
1248.6322492067
 31
0.0
  0
LINE
  5
373
  8
0
  6
CONTINUOUS
 62
     7
 10
923.2345069542
 20
1387.4795108739
 30
0.0
 11
1440.6170095101
 21
1387.4795108739
 31
0.0
  0
LINE
  5
374
  8
0
  6
CONTINUOUS
 62
     7
 10
923.1170261994
 20
1431.4795106355
 30
0.0
 11
1440.6170095101
 21
1431.4795106355
 31
0.0
  0
LINE
  5
375
  8
0
  6
CONTINUOUS
 62
     7
 10
923.2345069542
 20
834.3268006746
 30
0.0
 11
923.1402720108
 21
834.0653299991
 31
0.0
  0
LINE
  5
376
  8
0
  6
CONTINUOUS
 62
     7
 10
923.2345069542
 20
834.3268006746
 30
0.0
 11
923.2345069542
 21
733.5243493024
 31
0.0
  0
LINE
  5
377
  8
0
  6
CONTINUOUS
 62
     7
 10
923.2345069542
 20
716.1321311895
 30
0.0
 11
923.2345069542
 21
695.4795390073
 31
0.0
  0
LINE
  5
378
  8
0
  6
CONTINUOUS
 62
     7
 10
923.1170261994
 20
651.4795392457
 30
0.0
 11
940.5503119126
 21
651.4795392457
 31
0.0
  0
LINE
  5
379
  8
0
  6
CONTINUOUS
 62
     7
 10
970.1816881791
 20
651.4795392457
 30
0.0
 11
1440.6170095101
 21
651.4795392457
 31
0.0
  0
LINE
  5
37A
  8
0
  6
CONTINUOUS
 62
     7
 10
923.2345069542
 20
695.4795390073
 30
0.0
 11
965.3304065361
 21
695.4795390073
 31
0.0
  0
LINE
  5
37B
  8
0
  6
CONTINUOUS
 62
     7
 10
992.689951767
 20
695.4795390073
 30
0.0
 11
1440.6170095101
 21
695.4795390073
 31
0.0
  0
LINE
  5
37C
  8
0
  6
CONTINUOUS
 62
     7
 10
2837.9995072976
 20
834.3268006746
 30
0.0
 11
2837.9995072976
 21
695.4795390073
 31
0.0
  0
LINE
  5
37D
  8
0
  6
CONTINUOUS
 62
     7
 10
2838.0932057991
 20
834.0677141849
 30
0.0
 11
2837.9995072976
 21
834.3268006746
 31
0.0
  0
LINE
  5
37E
  8
0
  6
CONTINUOUS
 62
     7
 10
2320.6170047417
 20
651.4795392457
 30
0.0
 11
2838.1169880524
 21
651.4795392457
 31
0.0
  0
LINE
  5
37F
  8
0
  6
CONTINUOUS
 62
     7
 10
2320.6170047417
 20
695.4795390073
 30
0.0
 11
2837.9995072976
 21
695.4795390073
 31
0.0
  0
LINE
  5
380
  8
0
  6
CONTINUOUS
 62
     7
 10
1043.2513202324
 20
1358.6310118142
 30
0.0
 11
1865.6170074612
 21
1358.6310118142
 31
0.0
  0
POLYLINE
  5
381
  8
0
  6
CONTINUOUS
 62
     7
 66
     1
 10
0.0
 20
0.0
 30
0.0
  0
VERTEX
  5
5D7
  8
0
  6
CONTINUOUS
 62
     7
 10
1032.7496970787
 20
1387.4795108739
 30
0.0
  0
VERTEX
  5
5D8
  8
0
  6
CONTINUOUS
 62
     7
 10
1042.2184909478
 20
1361.4683717195
 30
0.0
  0
VERTEX
  5
5D9
  8
0
  6
CONTINUOUS
 62
     7
 10
1043.2513202324
 20
1358.6310118142
 30
0.0
  0
SEQEND
  5
701
  8
0
  6
CONTINUOUS
 62
     7
  0
POLYLINE
  5
382
  8
0
  6
CONTINUOUS
 62
     7
 66
     1
 10
0.0
 20
0.0
 30
0.0
  0
VERTEX
  5
5DA
  8
0
  6
CONTINUOUS
 62
     7
 10
2728.484317173
 20
1387.4795108739
 30
0.0
  0
VERTEX
  5
5DB
  8
0
  6
CONTINUOUS
 62
     7
 10
2722.2474659577
 20
1370.3466027681
 30
0.0
  0
VERTEX
  5
5DC
  8
0
  6
CONTINUOUS
 62
     7
 10
2717.9826940194
 20
1358.6310118142
 30
0.0
  0
SEQEND
  5
700
  8
0
  6
CONTINUOUS
 62
     7
  0
LINE
  5
383
  8
0
  6
CONTINUOUS
 62
     7
 10
1895.6170067906
 20
1358.6310118142
 30
0.0
 11
2717.9826940194
 21
1358.6310118142
 31
0.0
  0
LINE
  5
384
  8
0
  6
CONTINUOUS
 62
     7
 10
1043.2513202324
 20
724.328038067
 30
0.0
 11
1865.6170074612
 21
724.328038067
 31
0.0
  0
POLYLINE
  5
385
  8
0
  6
CONTINUOUS
 62
     7
 66
     1
 10
0.0
 20
0.0
 30
0.0
  0
VERTEX
  5
5DD
  8
0
  6
CONTINUOUS
 62
     7
 10
1043.2513202324
 20
724.328038067
 30
0.0
  0
VERTEX
  5
5DE
  8
0
  6
CONTINUOUS
 62
     7
 10
1034.3501413956
 20
699.8759776059
 30
0.0
  0
VERTEX
  5
5DF
  8
0
  6
CONTINUOUS
 62
     7
 10
1032.7496970787
 20
695.4795390073
 30
0.0
  0
SEQEND
  5
6FF
  8
0
  6
CONTINUOUS
 62
     7
  0
LINE
  5
386
  8
0
  6
CONTINUOUS
 62
     7
 10
1895.6170067906
 20
724.328038067
 30
0.0
 11
2717.9826940194
 21
724.328038067
 31
0.0
  0
POLYLINE
  5
387
  8
0
  6
CONTINUOUS
 62
     7
 66
     1
 10
0.0
 20
0.0
 30
0.0
  0
VERTEX
  5
5E0
  8
0
  6
CONTINUOUS
 62
     7
 10
2717.9826940194
 20
724.328038067
 30
0.0
  0
VERTEX
  5
5E1
  8
0
  6
CONTINUOUS
 62
     7
 10
2726.8838728562
 20
699.8759776059
 30
0.0
  0
VERTEX
  5
5E2
  8
0
  6
CONTINUOUS
 62
     7
 10
2728.484317173
 20
695.4795390073
 30
0.0
  0
SEQEND
  5
6FE
  8
0
  6
CONTINUOUS
 62
     7
  0
LINE
  5
388
  8
0
  6
CONTINUOUS
 62
     7
 10
1948.3303050294
 20
1058.9596356902
 30
0.0
 11
1948.3303050294
 21
1105.0420224372
 31
0.0
  0
LINE
  5
389
  8
0
  6
CONTINUOUS
 62
     7
 10
1948.5728586808
 20
1105.0420224372
 30
0.0
 11
1948.3303050294
 21
1105.0420224372
 31
0.0
  0
LINE
  5
38A
  8
0
  6
CONTINUOUS
 62
     7
 10
1948.5728586808
 20
1058.9596356902
 30
0.0
 11
1948.5728586808
 21
1105.0420224372
 31
0.0
  0
LINE
  5
38B
  8
0
  6
CONTINUOUS
 62
     7
 10
1948.5728586808
 20
1058.9596356902
 30
0.0
 11
1948.3303050294
 21
1058.9596356902
 31
0.0
  0
LINE
  5
38C
  8
0
  6
CONTINUOUS
 62
     7
 10
1948.5728586808
 20
981.2920249704
 30
0.0
 11
1948.5728586808
 21
1023.999414191
 31
0.0
  0
ARC
  5
38D
  8
0
  6
CONTINUOUS
 62
     7
 10
1949.1975925899
 20
1023.9995486755
 30
0.0
 40
0.6247339236458217
 50
112.4735388129
 51
180.0123338794
  0
POLYLINE
  5
38E
  8
0
  6
CONTINUOUS
 62
     7
 66
     1
 10
0.0
 20
0.0
 30
0.0
  0
VERTEX
  5
5E3
  8
0
  6
CONTINUOUS
 62
     7
 10
1948.9587838545
 20
1024.5768379126
 30
0.0
  0
VERTEX
  5
5E4
  8
0
  6
CONTINUOUS
 62
     7
 10
1968.6494911805
 20
1032.7394695658
 30
0.0
  0
VERTEX
  5
5E5
  8
0
  6
CONTINUOUS
 62
     7
 10
1988.2914568081
 20
1040.9021002295
 30
0.0
  0
SEQEND
  5
6FD
  8
0
  6
CONTINUOUS
 62
     7
  0
ARC
  5
38F
  8
0
  6
CONTINUOUS
 62
     7
 10
1988.0496508046
 20
1041.4795249406
 30
0.0
 40
0.6260107349887908
 50
292.7222922108
 51
67.2777077892
  0
POLYLINE
  5
390
  8
0
  6
CONTINUOUS
 62
     7
 66
     1
 10
0.0
 20
0.0
 30
0.0
  0
VERTEX
  5
5E6
  8
0
  6
CONTINUOUS
 62
     7
 10
1988.2914568081
 20
1042.0569496517
 30
0.0
  0
VERTEX
  5
5E7
  8
0
  6
CONTINUOUS
 62
     7
 10
1968.6494911805
 20
1050.2195803154
 30
0.0
  0
VERTEX
  5
5E8
  8
0
  6
CONTINUOUS
 62
     7
 10
1948.9587838545
 20
1058.3822119687
 30
0.0
  0
SEQEND
  5
6FC
  8
0
  6
CONTINUOUS
 62
     7
  0
ARC
  5
391
  8
0
  6
CONTINUOUS
 62
     7
 10
1949.1975919892
 20
1058.9595008042
 30
0.0
 40
0.624733323004928
 50
179.9876292862
 51
247.5264980215
  0
ARC
  5
392
  8
0
  6
CONTINUOUS
 62
     7
 10
1949.1979369942
 20
1105.0419435285
 30
0.0
 40
0.6250783184332468
 50
89.9922084502
 51
179.9927670896
  0
LINE
  5
393
  8
0
  6
CONTINUOUS
 62
     7
 10
1949.1980219975
 20
1105.6670218412
 30
0.0
 11
1960.4441518679
 21
1105.6670218412
 31
0.0
  0
ARC
  5
394
  8
0
  6
CONTINUOUS
 62
     7
 10
1960.4438514783
 20
1105.0423404371
 30
0.0
 40
0.6246814763349718
 50
359.970833056
 51
89.9724482647
  0
LINE
  5
395
  8
0
  6
CONTINUOUS
 62
     7
 10
1961.0685328737
 20
1105.0420224372
 30
0.0
 11
1961.0685328737
 21
1067.3118687872
 31
0.0
  0
ARC
  5
396
  8
0
  6
CONTINUOUS
 62
     7
 10
1961.6932511948
 20
1067.3115141417
 30
0.0
 40
0.6247184218142133
 50
179.9674738416
 51
247.4771263422
  0
POLYLINE
  5
397
  8
0
  6
CONTINUOUS
 62
     7
 66
     1
 10
0.0
 20
0.0
 30
0.0
  0
VERTEX
  5
5E9
  8
0
  6
CONTINUOUS
 62
     7
 10
1961.4539514079
 20
1066.7344450656
 30
0.0
  0
VERTEX
  5
5EA
  8
0
  6
CONTINUOUS
 62
     7
 10
1984.7586373582
 20
1057.0566856939
 30
0.0
  0
VERTEX
  5
5EB
  8
0
  6
CONTINUOUS
 62
     7
 10
2007.9822833434
 20
1047.3789267879
 30
0.0
  0
SEQEND
  5
6FB
  8
0
  6
CONTINUOUS
 62
     7
  0
ARC
  5
398
  8
0
  6
CONTINUOUS
 62
     7
 10
2007.740238318
 20
1046.802949863
 30
0.0
 40
0.624768126773492
 50
359.8672326953
 51
67.2062036257
  0
LINE
  5
399
  8
0
  6
CONTINUOUS
 62
     7
 10
2008.3650047675
 20
1046.801502135
 30
0.0
 11
2008.3650047675
 21
1036.1575477462
 31
0.0
  0
ARC
  5
39A
  8
0
  6
CONTINUOUS
 62
     7
 10
2007.7402432526
 20
1036.1560967475
 30
0.0
 40
0.624763199778136
 50
292.7934953783
 51
0.1330683007
  0
POLYLINE
  5
39B
  8
0
  6
CONTINUOUS
 62
     7
 66
     1
 10
0.0
 20
0.0
 30
0.0
  0
VERTEX
  5
5EC
  8
0
  6
CONTINUOUS
 62
     7
 10
2007.9822833434
 20
1035.5801230933
 30
0.0
  0
VERTEX
  5
5ED
  8
0
  6
CONTINUOUS
 62
     7
 10
1984.7586373582
 20
1025.9023641873
 30
0.0
  0
VERTEX
  5
5EE
  8
0
  6
CONTINUOUS
 62
     7
 10
1961.4539514079
 20
1016.2246048156
 30
0.0
  0
SEQEND
  5
6FA
  8
0
  6
CONTINUOUS
 62
     7
  0
ARC
  5
39C
  8
0
  6
CONTINUOUS
 62
     7
 10
1961.693249965
 20
1015.6475365604
 30
0.0
 40
0.6247171924495645
 50
112.5227983063
 51
180.0326015099
  0
LINE
  5
39D
  8
0
  6
CONTINUOUS
 62
     7
 10
1961.0685328737
 20
1015.6471810941
 30
0.0
 11
1961.0685328737
 21
981.2920249704
 31
0.0
  0
ARC
  5
39E
  8
0
  6
CONTINUOUS
 62
     7
 10
1960.4438456151
 20
981.291712828
 30
0.0
 40
0.6246873365834567
 50
270.0280892449
 51
0.0286294345
  0
LINE
  5
39F
  8
0
  6
CONTINUOUS
 62
     7
 10
1949.1980219975
 20
980.6670255665
 30
0.0
 11
1960.4441518679
 21
980.6670255665
 31
0.0
  0
ARC
  5
3A0
  8
0
  6
CONTINUOUS
 62
     7
 10
1949.1979428561
 20
981.2921097425
 30
0.0
 40
0.6250841810361079
 50
180.0077702846
 51
270.0072541756
  0
ARC
  5
3A1
  8
0
  6
CONTINUOUS
 62
     7
 10
1948.9542662638
 20
1105.0430605861
 30
0.0
 40
0.6239620979961487
 50
90.0941803043
 51
180.0953288328
  0
ARC
  5
3A2
  8
0
  6
CONTINUOUS
 62
     7
 10
1948.9569017878
 20
1058.9601701062
 30
0.0
 40
0.6265969862448308
 50
180.0488667917
 51
247.2759739185
  0
LINE
  5
3A3
  8
0
  6
CONTINUOUS
 62
     7
 10
1948.9587838545
 20
1058.3822119687
 30
0.0
 11
1948.7148518458
 21
1058.3822119687
 31
0.0
  0
ARC
  5
3A4
  8
0
  6
CONTINUOUS
 62
     7
 10
1948.9568960302
 20
1023.9988836094
 30
0.0
 40
0.6265912253745871
 50
112.7236759116
 51
179.9514833782
  0
LINE
  5
3A5
  8
0
  6
CONTINUOUS
 62
     7
 10
1948.9587838545
 20
1024.5768379126
 30
0.0
 11
1948.7148518458
 21
1024.5768379126
 31
0.0
  0
LINE
  5
3A6
  8
0
  6
CONTINUOUS
 62
     7
 10
1948.5728586808
 20
1023.999414191
 30
0.0
 11
1948.3303050294
 21
1023.999414191
 31
0.0
  0
LINE
  5
3A7
  8
0
  6
CONTINUOUS
 62
     7
 10
1948.5728586808
 20
981.2920249704
 30
0.0
 11
1948.3303050294
 21
981.2920249704
 31
0.0
  0
LINE
  5
3A8
  8
0
  6
CONTINUOUS
 62
     7
 10
1948.3303050294
 20
981.2920249704
 30
0.0
 11
1948.3303050294
 21
1023.999414191
 31
0.0
  0
ARC
  5
3A9
  8
0
  6
CONTINUOUS
 62
     7
 10
1948.9542721299
 20
981.2909926683
 30
0.0
 40
0.623967954448776
 50
179.9052089435
 51
269.9052819194
  0
POLYLINE
  5
3AA
  8
0
  6
CONTINUOUS
 62
     7
 66
     1
 10
0.0
 20
0.0
 30
0.0
  0
VERTEX
  5
5EF
  8
0
  6
CONTINUOUS
 62
     7
 10
1987.9071335092
 20
1042.0569496517
 30
0.0
  0
VERTEX
  5
5F0
  8
0
  6
CONTINUOUS
 62
     7
 10
1968.3352778449
 20
1050.2195803154
 30
0.0
  0
VERTEX
  5
5F1
  8
0
  6
CONTINUOUS
 62
     7
 10
1948.7148518458
 20
1058.3822119687
 30
0.0
  0
SEQEND
  5
6F9
  8
0
  6
CONTINUOUS
 62
     7
  0
LINE
  5
3AB
  8
0
  6
CONTINUOUS
 62
     7
 10
1988.2914568081
 20
1042.0569496517
 30
0.0
 11
1987.9071335092
 21
1042.0569496517
 31
0.0
  0
POLYLINE
  5
3AC
  8
0
  6
CONTINUOUS
 62
     7
 66
     1
 10
0.0
 20
0.0
 30
0.0
  0
VERTEX
  5
5F2
  8
0
  6
CONTINUOUS
 62
     7
 10
1948.7148518458
 20
1024.5768379126
 30
0.0
  0
VERTEX
  5
5F3
  8
0
  6
CONTINUOUS
 62
     7
 10
1968.3352778449
 20
1032.7394695658
 30
0.0
  0
VERTEX
  5
5F4
  8
0
  6
CONTINUOUS
 62
     7
 10
1987.9071335092
 20
1040.9021002295
 30
0.0
  0
SEQEND
  5
6F8
  8
0
  6
CONTINUOUS
 62
     7
  0
LINE
  5
3AD
  8
0
  6
CONTINUOUS
 62
     7
 10
1988.2914568081
 20
1040.9021002295
 30
0.0
 11
1987.9071335092
 21
1040.9021002295
 31
0.0
  0
LINE
  5
3AE
  8
0
  6
CONTINUOUS
 62
     7
 10
1043.2513202324
 20
724.328038067
 30
0.0
 11
1043.2513202324
 21
917.0568555299
 31
0.0
  0
POLYLINE
  5
3AF
  8
0
  6
CONTINUOUS
 62
     7
 66
     1
 10
0.0
 20
0.0
 30
0.0
  0
VERTEX
  5
5F5
  8
0
  6
CONTINUOUS
 62
     7
 10
1043.2513202324
 20
917.0568555299
 30
0.0
  0
VERTEX
  5
5F6
  8
0
  6
CONTINUOUS
 62
     7
 10
1043.5036266938
 20
918.5070141856
 30
0.0
  0
VERTEX
  5
5F7
  8
0
  6
CONTINUOUS
 62
     7
 10
1043.8790167466
 20
920.8295091692
 30
0.0
  0
VERTEX
  5
5F8
  8
0
  6
CONTINUOUS
 62
     7
 10
1044.3647946015
 20
923.9941805307
 30
0.0
  0
VERTEX
  5
5F9
  8
0
  6
CONTINUOUS
 62
     7
 10
1044.9482048645
 20
927.9708608691
 30
0.0
  0
VERTEX
  5
5FA
  8
0
  6
CONTINUOUS
 62
     7
 10
1045.6177438393
 20
932.7520027462
 30
0.0
  0
VERTEX
  5
5FB
  8
0
  6
CONTINUOUS
 62
     7
 10
1046.3554705277
 20
938.3116036359
 30
0.0
  0
VERTEX
  5
5FC
  8
0
  6
CONTINUOUS
 62
     7
 10
1047.1384967461
 20
944.5878535215
 30
0.0
  0
VERTEX
  5
5FD
  8
0
  6
CONTINUOUS
 62
     7
 10
1047.943934311
 20
951.5189349357
 30
0.0
  0
VERTEX
  5
5FE
  8
0
  6
CONTINUOUS
 62
     7
 10
1048.7584913865
 20
959.1440155808
 30
0.0
  0
VERTEX
  5
5FF
  8
0
  6
CONTINUOUS
 62
     7
 10
1049.55659758
 20
967.3830091659
 30
0.0
  0
VERTEX
  5
600
  8
0
  6
CONTINUOUS
 62
     7
 10
1050.3141726151
 20
976.1473357383
 30
0.0
  0
VERTEX
  5
601
  8
0
  6
CONTINUOUS
 62
     7
 10
1051.0069574013
 20
985.3484265212
 30
0.0
  0
VERTEX
  5
602
  8
0
  6
CONTINUOUS
 62
     7
 10
1051.7284120217
 20
996.9594634775
 30
0.0
  0
VERTEX
  5
603
  8
0
  6
CONTINUOUS
 62
     7
 10
1052.3045505181
 20
1009.0656399432
 30
0.0
  0
VERTEX
  5
604
  8
0
  6
CONTINUOUS
 62
     7
 10
1052.7088488236
 20
1021.4795253877
 30
0.0
  0
SEQEND
  5
6F7
  8
0
  6
CONTINUOUS
 62
     7
  0
LINE
  5
3B0
  8
0
  6
CONTINUOUS
 62
     7
 10
1065.7771671906
 20
1021.4795253877
 30
0.0
 11
1065.7771671906
 21
1061.4795244936
 31
0.0
  0
POLYLINE
  5
3B1
  8
0
  6
CONTINUOUS
 62
     7
 66
     1
 10
0.0
 20
0.0
 30
0.0
  0
VERTEX
  5
605
  8
0
  6
CONTINUOUS
 62
     7
 10
1052.7088488236
 20
1061.4795244936
 30
0.0
  0
VERTEX
  5
606
  8
0
  6
CONTINUOUS
 62
     7
 10
1052.3873413697
 20
1071.7581852976
 30
0.0
  0
VERTEX
  5
607
  8
0
  6
CONTINUOUS
 62
     7
 10
1051.9445980683
 20
1081.8549252752
 30
0.0
  0
VERTEX
  5
608
  8
0
  6
CONTINUOUS
 62
     7
 10
1051.3964141503
 20
1091.6645534042
 30
0.0
  0
VERTEX
  5
609
  8
0
  6
CONTINUOUS
 62
     7
 10
1050.758346428
 20
1101.0818674866
 30
0.0
  0
VERTEX
  5
60A
  8
0
  6
CONTINUOUS
 62
     7
 10
1050.0444019928
 20
1110.0659712855
 30
0.0
  0
VERTEX
  5
60B
  8
0
  6
CONTINUOUS
 62
     7
 10
1049.2738927498
 20
1118.5951575342
 30
0.0
  0
VERTEX
  5
60C
  8
0
  6
CONTINUOUS
 62
     7
 10
1048.4708989754
 20
1126.5844225589
 30
0.0
  0
VERTEX
  5
60D
  8
0
  6
CONTINUOUS
 62
     7
 10
1047.6595605507
 20
1133.9487775866
 30
0.0
  0
VERTEX
  5
60E
  8
0
  6
CONTINUOUS
 62
     7
 10
1046.8541825905
 20
1140.6988471452
 30
0.0
  0
VERTEX
  5
60F
  8
0
  6
CONTINUOUS
 62
     7
 10
1046.0794414177
 20
1146.7663764659
 30
0.0
  0
VERTEX
  5
610
  8
0
  6
CONTINUOUS
 62
     7
 10
1045.358046402
 20
1152.090658218
 30
0.0
  0
VERTEX
  5
611
  8
0
  6
CONTINUOUS
 62
     7
 10
1044.7130645409
 20
1156.6109925214
 30
0.0
  0
VERTEX
  5
612
  8
0
  6
CONTINUOUS
 62
     7
 10
1044.0651620522
 20
1160.9317704741
 30
0.0
  0
VERTEX
  5
613
  8
0
  6
CONTINUOUS
 62
     7
 10
1043.5708607331
 20
1164.0454873148
 30
0.0
  0
VERTEX
  5
614
  8
0
  6
CONTINUOUS
 62
     7
 10
1043.2513202324
 20
1165.9021943513
 30
0.0
  0
SEQEND
  5
6F6
  8
0
  6
CONTINUOUS
 62
     7
  0
LINE
  5
3B2
  8
0
  6
CONTINUOUS
 62
     7
 10
1043.2513202324
 20
1165.9021943513
 30
0.0
 11
1043.2513202324
 21
1358.6310118142
 31
0.0
  0
POLYLINE
  5
3B3
  8
0
  6
CONTINUOUS
 62
     7
 66
     1
 10
0.0
 20
0.0
 30
0.0
  0
VERTEX
  5
615
  8
0
  6
CONTINUOUS
 62
     7
 10
2708.5251654282
 20
1061.4795244936
 30
0.0
  0
VERTEX
  5
616
  8
0
  6
CONTINUOUS
 62
     7
 10
2708.8466728821
 20
1071.7581852976
 30
0.0
  0
VERTEX
  5
617
  8
0
  6
CONTINUOUS
 62
     7
 10
2709.2894161835
 20
1081.8549252752
 30
0.0
  0
VERTEX
  5
618
  8
0
  6
CONTINUOUS
 62
     7
 10
2709.8376001015
 20
1091.6645534042
 30
0.0
  0
VERTEX
  5
619
  8
0
  6
CONTINUOUS
 62
     7
 10
2710.4756678238
 20
1101.0818674866
 30
0.0
  0
VERTEX
  5
61A
  8
0
  6
CONTINUOUS
 62
     7
 10
2711.1896122589
 20
1110.0659712855
 30
0.0
  0
VERTEX
  5
61B
  8
0
  6
CONTINUOUS
 62
     7
 10
2711.960121502
 20
1118.5951575342
 30
0.0
  0
VERTEX
  5
61C
  8
0
  6
CONTINUOUS
 62
     7
 10
2712.7631152764
 20
1126.5844225589
 30
0.0
  0
VERTEX
  5
61D
  8
0
  6
CONTINUOUS
 62
     7
 10
2713.5744537011
 20
1133.9487775866
 30
0.0
  0
VERTEX
  5
61E
  8
0
  6
CONTINUOUS
 62
     7
 10
2714.3798316613
 20
1140.6988471452
 30
0.0
  0
VERTEX
  5
61F
  8
0
  6
CONTINUOUS
 62
     7
 10
2715.1545728341
 20
1146.7663764659
 30
0.0
  0
VERTEX
  5
620
  8
0
  6
CONTINUOUS
 62
     7
 10
2715.8759678498
 20
1152.090658218
 30
0.0
  0
VERTEX
  5
621
  8
0
  6
CONTINUOUS
 62
     7
 10
2716.5209497109
 20
1156.6109925214
 30
0.0
  0
VERTEX
  5
622
  8
0
  6
CONTINUOUS
 62
     7
 10
2717.1688521996
 20
1160.9317704741
 30
0.0
  0
VERTEX
  5
623
  8
0
  6
CONTINUOUS
 62
     7
 10
2717.6631535187
 20
1164.0454873148
 30
0.0
  0
VERTEX
  5
624
  8
0
  6
CONTINUOUS
 62
     7
 10
2717.9826940194
 20
1165.9021943513
 30
0.0
  0
SEQEND
  5
6F5
  8
0
  6
CONTINUOUS
 62
     7
  0
LINE
  5
3B4
  8
0
  6
CONTINUOUS
 62
     7
 10
2695.4568470612
 20
1021.4795253877
 30
0.0
 11
2695.4568470612
 21
1061.4795244936
 31
0.0
  0
POLYLINE
  5
3B5
  8
0
  6
CONTINUOUS
 62
     7
 66
     1
 10
0.0
 20
0.0
 30
0.0
  0
VERTEX
  5
625
  8
0
  6
CONTINUOUS
 62
     7
 10
2717.9826940194
 20
917.0568555299
 30
0.0
  0
VERTEX
  5
626
  8
0
  6
CONTINUOUS
 62
     7
 10
2717.730387558
 20
918.5070141856
 30
0.0
  0
VERTEX
  5
627
  8
0
  6
CONTINUOUS
 62
     7
 10
2717.3549975052
 20
920.8295091692
 30
0.0
  0
VERTEX
  5
628
  8
0
  6
CONTINUOUS
 62
     7
 10
2716.8692196503
 20
923.9941805307
 30
0.0
  0
VERTEX
  5
629
  8
0
  6
CONTINUOUS
 62
     7
 10
2716.2858093872
 20
927.9708608691
 30
0.0
  0
VERTEX
  5
62A
  8
0
  6
CONTINUOUS
 62
     7
 10
2715.6162704125
 20
932.7520027462
 30
0.0
  0
VERTEX
  5
62B
  8
0
  6
CONTINUOUS
 62
     7
 10
2714.8785437241
 20
938.3116036359
 30
0.0
  0
VERTEX
  5
62C
  8
0
  6
CONTINUOUS
 62
     7
 10
2714.0955175057
 20
944.5878535215
 30
0.0
  0
VERTEX
  5
62D
  8
0
  6
CONTINUOUS
 62
     7
 10
2713.2900799408
 20
951.5189349357
 30
0.0
  0
VERTEX
  5
62E
  8
0
  6
CONTINUOUS
 62
     7
 10
2712.4755228653
 20
959.1440155808
 30
0.0
  0
VERTEX
  5
62F
  8
0
  6
CONTINUOUS
 62
     7
 10
2711.6774166718
 20
967.3830091659
 30
0.0
  0
VERTEX
  5
630
  8
0
  6
CONTINUOUS
 62
     7
 10
2710.9198416367
 20
976.1473357383
 30
0.0
  0
VERTEX
  5
631
  8
0
  6
CONTINUOUS
 62
     7
 10
2710.2270568505
 20
985.3484265212
 30
0.0
  0
VERTEX
  5
632
  8
0
  6
CONTINUOUS
 62
     7
 10
2709.5056022301
 20
996.9594634775
 30
0.0
  0
VERTEX
  5
633
  8
0
  6
CONTINUOUS
 62
     7
 10
2708.9294637337
 20
1009.0656399432
 30
0.0
  0
VERTEX
  5
634
  8
0
  6
CONTINUOUS
 62
     7
 10
2708.5251654282
 20
1021.4795253877
 30
0.0
  0
SEQEND
  5
6F4
  8
0
  6
CONTINUOUS
 62
     7
  0
LINE
  5
3B6
  8
0
  6
CONTINUOUS
 62
     7
 10
2717.9826940194
 20
724.328038067
 30
0.0
 11
2717.9826940194
 21
917.0568555299
 31
0.0
  0
LINE
  5
3B7
  8
0
  6
CONTINUOUS
 62
     7
 10
2717.9826940194
 20
1165.9021943513
 30
0.0
 11
2717.9826940194
 21
1358.6310118142
 31
0.0
  0
ARC
  5
3B8
  8
0
  6
CONTINUOUS
 62
     7
 10
1987.6633448892
 20
1041.4795249406
 30
0.0
 40
0.6267792180571201
 50
292.889463211
 51
67.110536789
  0
ARC
  5
3B9
  8
0
  6
CONTINUOUS
 62
     7
 10
1965.9948852128
 20
1105.0436405601
 30
0.0
 40
0.6233833741722217
 50
90.1484752019
 51
180.1487234327
  0
LINE
  5
3BA
  8
0
  6
CONTINUOUS
 62
     7
 10
1965.3715039387
 20
1093.156971753
 30
0.0
 11
1965.3715039387
 21
1105.0420224372
 31
0.0
  0
ARC
  5
3BB
  8
0
  6
CONTINUOUS
 62
     7
 10
1965.9954158073
 20
1093.1559640066
 30
0.0
 40
0.6239126824160182
 50
179.9074555734
 51
271.9380272084
  0
ARC
  5
3BC
  8
0
  6
CONTINUOUS
 62
     7
 10
1966.4903565924
 20
1078.8357961419
 30
0.0
 40
13.70480599547287
 50
357.5250787669
 51
91.9813852821
  0
ARC
  5
3BD
  8
0
  6
CONTINUOUS
 62
     7
 10
1979.5898660902
 20
1078.2456277451
 30
0.0
 40
0.5925151592508299
 50
284.9999125895
 51
359.8420118892
  0
ARC
  5
3BE
  8
0
  6
CONTINUOUS
 62
     7
 10
1965.9749390975
 20
1082.5876475997
 30
0.0
 40
0.6036706295702843
 50
88.2422368788
 51
181.6003695059
  0
LINE
  5
3BF
  8
0
  6
CONTINUOUS
 62
     7
 10
1965.3715039387
 20
1070.3938740943
 30
0.0
 11
1965.3715039387
 21
1082.5707882348
 31
0.0
  0
ARC
  5
3C0
  8
0
  6
CONTINUOUS
 62
     7
 10
1965.9981011172
 20
1070.3941085189
 30
0.0
 40
0.6265972223832286
 50
180.0214356878
 51
247.2050161604
  0
POLYLINE
  5
3C1
  8
0
  6
CONTINUOUS
 62
     7
 66
     1
 10
0.0
 20
0.0
 30
0.0
  0
VERTEX
  5
635
  8
0
  6
CONTINUOUS
 62
     7
 10
2007.0548201695
 20
1052.5696517605
 30
0.0
  0
VERTEX
  5
636
  8
0
  6
CONTINUOUS
 62
     7
 10
1986.4377747074
 20
1061.1930496696
 30
0.0
  0
VERTEX
  5
637
  8
0
  6
CONTINUOUS
 62
     7
 10
1965.7553354993
 20
1069.8164503727
 30
0.0
  0
SEQEND
  5
6F3
  8
0
  6
CONTINUOUS
 62
     7
  0
POLYLINE
  5
3C2
  8
0
  6
CONTINUOUS
 62
     7
 66
     1
 10
0.0
 20
0.0
 30
0.0
  0
VERTEX
  5
638
  8
0
  6
CONTINUOUS
 62
     7
 10
2007.3145027056
 20
1052.526296832
 30
0.0
  0
VERTEX
  5
639
  8
0
  6
CONTINUOUS
 62
     7
 10
2007.2011197701
 20
1052.5288626257
 30
0.0
  0
VERTEX
  5
63A
  8
0
  6
CONTINUOUS
 62
     7
 10
2007.0548201695
 20
1052.5696517605
 30
0.0
  0
SEQEND
  5
6F2
  8
0
  6
CONTINUOUS
 62
     7
  0
ARC
  5
3C3
  8
0
  6
CONTINUOUS
 62
     7
 10
2007.2587575157
 20
1098.2029225463
 30
0.0
 40
0.511352102960987
 50
87.1136484237
 51
125.8462176706
  0
LINE
  5
3C4
  8
0
  6
CONTINUOUS
 62
     7
 10
1990.4140676155
 20
1087.9704251591
 30
0.0
 11
2006.9593037262
 21
1098.6174203161
 31
0.0
  0
ARC
  5
3C5
  8
0
  6
CONTINUOUS
 62
     7
 10
1965.9948910815
 20
981.2904126859
 30
0.0
 40
0.6233892277554112
 50
179.8518145707
 51
269.8509867948
  0
LINE
  5
3C6
  8
0
  6
CONTINUOUS
 62
     7
 10
2007.0548201695
 20
977.3374765817
 30
0.0
 11
1978.6557177797
 21
989.2084680203
 31
0.0
  0
POLYLINE
  5
3C7
  8
0
  6
CONTINUOUS
 62
     7
 66
     1
 10
0.0
 20
0.0
 30
0.0
  0
VERTEX
  5
63B
  8
0
  6
CONTINUOUS
 62
     7
 10
2007.3145027056
 20
977.2941216532
 30
0.0
  0
VERTEX
  5
63C
  8
0
  6
CONTINUOUS
 62
     7
 10
2007.2011197701
 20
977.2966921035
 30
0.0
  0
VERTEX
  5
63D
  8
0
  6
CONTINUOUS
 62
     7
 10
2007.0548201695
 20
977.3374765817
 30
0.0
  0
SEQEND
  5
6F1
  8
0
  6
CONTINUOUS
 62
     7
  0
POLYLINE
  5
3C8
  8
0
  6
CONTINUOUS
 62
     7
 66
     1
 10
0.0
 20
0.0
 30
0.0
  0
VERTEX
  5
63E
  8
0
  6
CONTINUOUS
 62
     7
 10
2007.0548201695
 20
1030.3893981207
 30
0.0
  0
VERTEX
  5
63F
  8
0
  6
CONTINUOUS
 62
     7
 10
2007.2008813515
 20
1030.429943249
 30
0.0
  0
VERTEX
  5
640
  8
0
  6
CONTINUOUS
 62
     7
 10
2007.3143685952
 20
1030.4325397763
 30
0.0
  0
SEQEND
  5
6F0
  8
0
  6
CONTINUOUS
 62
     7
  0
POLYLINE
  5
3C9
  8
0
  6
CONTINUOUS
 62
     7
 66
     1
 10
0.0
 20
0.0
 30
0.0
  0
VERTEX
  5
641
  8
0
  6
CONTINUOUS
 62
     7
 10
1965.7553354993
 20
1013.1425995085
 30
0.0
  0
VERTEX
  5
642
  8
0
  6
CONTINUOUS
 62
     7
 10
1986.4377747074
 20
1021.7660002116
 30
0.0
  0
VERTEX
  5
643
  8
0
  6
CONTINUOUS
 62
     7
 10
2007.0548201695
 20
1030.3893981207
 30
0.0
  0
SEQEND
  5
6EF
  8
0
  6
CONTINUOUS
 62
     7
  0
ARC
  5
3CA
  8
0
  6
CONTINUOUS
 62
     7
 10
1965.9981106048
 20
1012.5649350556
 30
0.0
 40
0.6266067123779733
 50
112.7955601889
 51
179.977987963
  0
LINE
  5
3CB
  8
0
  6
CONTINUOUS
 62
     7
 10
1965.3715039387
 20
981.2920249704
 30
0.0
 11
1965.3715039387
 21
1012.565175787
 31
0.0
  0
LINE
  5
3CC
  8
0
  6
CONTINUOUS
 62
     7
 10
1965.6751001969
 20
1105.0420224372
 30
0.0
 11
1965.3715039387
 21
1105.0420224372
 31
0.0
  0
LINE
  5
3CD
  8
0
  6
CONTINUOUS
 62
     7
 10
1965.6751001969
 20
1093.156971753
 30
0.0
 11
1965.6751001969
 21
1105.0420224372
 31
0.0
  0
LINE
  5
3CE
  8
0
  6
CONTINUOUS
 62
     7
 10
1965.6751001969
 20
1093.156971753
 30
0.0
 11
1965.3715039387
 21
1093.156971753
 31
0.0
  0
ARC
  5
3CF
  8
0
  6
CONTINUOUS
 62
     7
 10
1966.7949677633
 20
1078.8666218345
 30
0.0
 40
24.93966999799957
 50
22.1280016521
 51
62.0669531235
  0
ARC
  5
3D0
  8
0
  6
CONTINUOUS
 62
     7
 10
1990.473121771
 20
1088.4933677664
 30
0.0
 40
0.6206368421260952
 50
202.0050182598
 51
302.5853275505
  0
LINE
  5
3D1
  8
0
  6
CONTINUOUS
 62
     7
 10
1990.8073688641
 20
1087.9704251591
 30
0.0
 11
2007.4118668929
 21
1098.6174203161
 31
0.0
  0
ARC
  5
3D2
  8
0
  6
CONTINUOUS
 62
     7
 10
2007.7450172472
 20
1098.094530964
 30
0.0
 40
0.6200019622400649
 50
359.6089291372
 51
122.5025796808
  0
LINE
  5
3D3
  8
0
  6
CONTINUOUS
 62
     7
 10
2008.3650047675
 20
1098.0902991895
 30
0.0
 11
2008.3650047675
 21
1085.9133869115
 31
0.0
  0
ARC
  5
3D4
  8
0
  6
CONTINUOUS
 62
     7
 10
2007.7393456723
 20
1085.9122612126
 30
0.0
 40
0.6256601078253821
 50
302.7860149955
 51
0.103087651
  0
LINE
  5
3D5
  8
0
  6
CONTINUOUS
 62
     7
 10
2008.0781425133
 20
1085.3862695102
 30
0.0
 11
1990.6324888363
 21
1074.1994239096
 31
0.0
  0
ARC
  5
3D6
  8
0
  6
CONTINUOUS
 62
     7
 10
1990.9708619838
 20
1073.6724200835
 30
0.0
 40
0.6262822204008919
 50
122.7032876272
 51
247.2459667507
  0
LINE
  5
3D7
  8
0
  6
CONTINUOUS
 62
     7
 10
1990.7286311283
 20
1073.0948790613
 30
0.0
 11
2007.9822833434
 21
1065.9014124129
 31
0.0
  0
ARC
  5
3D8
  8
0
  6
CONTINUOUS
 62
     7
 10
2007.7402410046
 20
1065.3254372711
 30
0.0
 40
0.6247654421544103
 50
359.8671540159
 51
67.2063674169
  0
LINE
  5
3D9
  8
0
  6
CONTINUOUS
 62
     7
 10
2008.3650047675
 20
1065.3239886913
 30
0.0
 11
2008.3650047675
 21
1053.1470764134
 31
0.0
  0
ARC
  5
3DA
  8
0
  6
CONTINUOUS
 62
     7
 10
2007.7444413962
 20
1053.1433119165
 30
0.0
 40
0.6205747893700403
 50
247.5782519973
 51
0.3475666574
  0
POLYLINE
  5
3DB
  8
0
  6
CONTINUOUS
 62
     7
 66
     1
 10
0.0
 20
0.0
 30
0.0
  0
VERTEX
  5
644
  8
0
  6
CONTINUOUS
 62
     7
 10
2007.507740964
 20
1052.5696517605
 30
0.0
  0
VERTEX
  5
645
  8
0
  6
CONTINUOUS
 62
     7
 10
1986.8168304458
 20
1061.1930496696
 30
0.0
  0
VERTEX
  5
646
  8
0
  6
CONTINUOUS
 62
     7
 10
1966.0603101149
 20
1069.8164503727
 30
0.0
  0
SEQEND
  5
6EE
  8
0
  6
CONTINUOUS
 62
     7
  0
ARC
  5
3DC
  8
0
  6
CONTINUOUS
 62
     7
 10
1966.2998420486
 20
1070.3934486526
 30
0.0
 40
0.6247419965893549
 50
179.9609822749
 51
247.4549727125
  0
LINE
  5
3DD
  8
0
  6
CONTINUOUS
 62
     7
 10
1965.6751001969
 20
1070.3938740943
 30
0.0
 11
1965.6751001969
 21
1082.5707882348
 31
0.0
  0
ARC
  5
3DE
  8
0
  6
CONTINUOUS
 62
     7
 10
1966.2992079217
 20
1082.5715423051
 30
0.0
 40
0.6241081804181611
 50
67.5165291504
 51
180.0692268689
  0
LINE
  5
3DF
  8
0
  6
CONTINUOUS
 62
     7
 10
1966.53787743
 20
1083.1482119564
 30
0.0
 11
1979.6783472195
 21
1077.6914775077
 31
0.0
  0
ARC
  5
3E0
  8
0
  6
CONTINUOUS
 62
     7
 10
1979.9164808406
 20
1078.2671484295
 30
0.0
 40
0.6229804424095394
 50
247.5269423486
 51
357.8699808851
  0
ARC
  5
3E1
  8
0
  6
CONTINUOUS
 62
     7
 10
1966.8218276162
 20
1078.8125145857
 30
0.0
 40
13.72897956862514
 50
357.6266881059
 51
92.0846230596
  0
ARC
  5
3E2
  8
0
  6
CONTINUOUS
 62
     7
 10
1966.2993748411
 20
1093.1562574268
 30
0.0
 40
0.6242750528606142
 50
179.9344393398
 51
272.1163842803
  0
ARC
  5
3E3
  8
0
  6
CONTINUOUS
 62
     7
 10
1966.2996039465
 20
1105.0425181032
 30
0.0
 40
0.624503946335119
 50
90.0468064674
 51
180.0454754103
  0
LINE
  5
3E4
  8
0
  6
CONTINUOUS
 62
     7
 10
1966.2990937724
 20
1105.6670218412
 30
0.0
 11
1977.5225068226
 21
1105.6670218412
 31
0.0
  0
ARC
  5
3E5
  8
0
  6
CONTINUOUS
 62
     7
 10
1977.5215363037
 20
1105.0430188308
 30
0.0
 40
0.6240037651372651
 50
359.9085114989
 51
89.9108872968
  0
LINE
  5
3E6
  8
0
  6
CONTINUOUS
 62
     7
 10
1978.1455392733
 20
1105.0420224372
 30
0.0
 11
1978.1455392733
 21
1101.453427941
 31
0.0
  0
ARC
  5
3E7
  8
0
  6
CONTINUOUS
 62
     7
 10
1978.7699122332
 20
1101.4524809169
 30
0.0
 40
0.6243736780936456
 50
179.9130961048
 51
242.0942300761
  0
LINE
  5
3E8
  8
0
  6
CONTINUOUS
 62
     7
 10
1966.3224289909
 20
1092.532408208
 30
0.0
 11
1966.1710331931
 21
1092.532408208
 31
0.0
  0
LINE
  5
3E9
  8
0
  6
CONTINUOUS
 62
     7
 10
1965.6751001969
 20
1082.5707882348
 30
0.0
 11
1965.3715039387
 21
1082.5707882348
 31
0.0
  0
LINE
  5
3EA
  8
0
  6
CONTINUOUS
 62
     7
 10
1965.6751001969
 20
1070.3938740943
 30
0.0
 11
1965.3715039387
 21
1070.3938740943
 31
0.0
  0
LINE
  5
3EB
  8
0
  6
CONTINUOUS
 62
     7
 10
1966.0603101149
 20
1069.8164503727
 30
0.0
 11
1965.7553354993
 21
1069.8164503727
 31
0.0
  0
LINE
  5
3EC
  8
0
  6
CONTINUOUS
 62
     7
 10
1965.6751001969
 20
981.2920249704
 30
0.0
 11
1965.6751001969
 21
1012.565175787
 31
0.0
  0
ARC
  5
3ED
  8
0
  6
CONTINUOUS
 62
     7
 10
1966.2998454737
 20
1012.5655989437
 30
0.0
 40
0.6247454201401759
 50
112.5452370554
 51
180.0388079572
  0
POLYLINE
  5
3EE
  8
0
  6
CONTINUOUS
 62
     7
 66
     1
 10
0.0
 20
0.0
 30
0.0
  0
VERTEX
  5
647
  8
0
  6
CONTINUOUS
 62
     7
 10
1966.0603101149
 20
1013.1425995085
 30
0.0
  0
VERTEX
  5
648
  8
0
  6
CONTINUOUS
 62
     7
 10
1986.8168304458
 20
1021.7660002116
 30
0.0
  0
VERTEX
  5
649
  8
0
  6
CONTINUOUS
 62
     7
 10
2007.507740964
 20
1030.3893981207
 30
0.0
  0
SEQEND
  5
6ED
  8
0
  6
CONTINUOUS
 62
     7
  0
ARC
  5
3EF
  8
0
  6
CONTINUOUS
 62
     7
 10
2007.7444413962
 20
1029.8157379647
 30
0.0
 40
0.6205747893700403
 50
359.6524333426
 51
112.4217480027
  0
LINE
  5
3F0
  8
0
  6
CONTINUOUS
 62
     7
 10
2008.3650047675
 20
1029.8119734678
 30
0.0
 11
2008.3650047675
 21
1017.6350611899
 31
0.0
  0
ARC
  5
3F1
  8
0
  6
CONTINUOUS
 62
     7
 10
2007.7402449529
 20
1017.6336099932
 30
0.0
 40
0.6247614999903225
 50
292.7933917499
 51
0.1330868172
  0
LINE
  5
3F2
  8
0
  6
CONTINUOUS
 62
     7
 10
2007.9822833434
 20
1017.0576374683
 30
0.0
 11
2000.062152256
 21
1013.752893329
 31
0.0
  0
ARC
  5
3F3
  8
0
  6
CONTINUOUS
 62
     7
 10
2000.3036302613
 20
1013.1766798405
 30
0.0
 40
0.6247668456362543
 50
112.7374524755
 51
180.1109874617
  0
LINE
  5
3F4
  8
0
  6
CONTINUOUS
 62
     7
 10
1999.6788645878
 20
1013.1754696075
 30
0.0
 11
1999.6788645878
 21
994.5514060262
 31
0.0
  0
ARC
  5
3F5
  8
0
  6
CONTINUOUS
 62
     7
 10
2000.3036312455
 20
994.5501964465
 30
0.0
 40
0.6247678285346432
 50
179.8890726234
 51
247.2624874393
  0
LINE
  5
3F6
  8
0
  6
CONTINUOUS
 62
     7
 10
2000.062152256
 20
993.9739823047
 30
0.0
 11
2007.9822833434
 21
990.669240028
 31
0.0
  0
ARC
  5
3F7
  8
0
  6
CONTINUOUS
 62
     7
 10
2007.7402422053
 20
990.093265682
 30
0.0
 40
0.6247642433185836
 50
359.8670807775
 51
67.2064406553
  0
LINE
  5
3F8
  8
0
  6
CONTINUOUS
 62
     7
 10
2008.3650047675
 20
990.0918163065
 30
0.0
 11
2008.3650047675
 21
977.9149040285
 31
0.0
  0
ARC
  5
3F9
  8
0
  6
CONTINUOUS
 62
     7
 10
2007.7444389695
 20
977.9111403587
 30
0.0
 40
0.6205772110336013
 50
247.5785866253
 51
0.3474889425
  0
LINE
  5
3FA
  8
0
  6
CONTINUOUS
 62
     7
 10
2007.507740964
 20
977.3374765817
 30
0.0
 11
1979.0069008961
 21
989.2084680203
 31
0.0
  0
ARC
  5
3FB
  8
0
  6
CONTINUOUS
 62
     7
 10
1978.7687361506
 20
988.6325737136
 30
0.0
 40
0.6231987632007606
 50
67.5321486119
 51
180.1409543057
  0
LINE
  5
3FC
  8
0
  6
CONTINUOUS
 62
     7
 10
1978.1455392733
 20
988.6310405735
 30
0.0
 11
1978.1455392733
 21
981.2920249704
 31
0.0
  0
ARC
  5
3FD
  8
0
  6
CONTINUOUS
 62
     7
 10
1977.521530438
 20
981.2910344241
 30
0.0
 40
0.6240096214754548
 50
270.0896504446
 51
0.0909507597
  0
LINE
  5
3FE
  8
0
  6
CONTINUOUS
 62
     7
 10
1966.2990937724
 20
980.6670255665
 30
0.0
 11
1977.5225068226
 21
980.6670255665
 31
0.0
  0
ARC
  5
3FF
  8
0
  6
CONTINUOUS
 62
     7
 10
1966.2996098109
 20
981.2915351593
 30
0.0
 40
0.6245098060697325
 50
179.9550621773
 51
269.9526559451
  0
ARC
  5
400
  8
0
  6
CONTINUOUS
 62
     7
 10
1977.9299371667
 20
1003.8634378169
 30
0.0
 40
0.6256630721862648
 50
112.6459365597
 51
247.3540634403
  0
LINE
  5
401
  8
0
  6
CONTINUOUS
 62
     7
 10
1987.3207802668
 20
999.2810941938
 30
0.0
 11
1977.6890347495
 21
1003.2860122327
 31
0.0
  0
ARC
  5
402
  8
0
  6
CONTINUOUS
 62
     7
 10
1987.5580452066
 20
999.8570756914
 30
0.0
 40
0.6229360619233428
 50
247.6116927595
 51
0.132651527
  0
LINE
  5
403
  8
0
  6
CONTINUOUS
 62
     7
 10
1988.180979599
 20
1007.8683577184
 30
0.0
 11
1988.180979599
 21
999.8585179154
 31
0.0
  0
ARC
  5
404
  8
0
  6
CONTINUOUS
 62
     7
 10
1987.5580399521
 20
1007.8697921145
 30
0.0
 40
0.6229412983682411
 50
359.8680695595
 51
112.3875861541
  0
LINE
  5
405
  8
0
  6
CONTINUOUS
 62
     7
 10
1977.6890347495
 20
1004.4408634011
 30
0.0
 11
1987.3207802668
 21
1008.4457814399
 31
0.0
  0
LINE
  5
406
  8
0
  6
CONTINUOUS
 62
     7
 10
1966.0603101149
 20
1013.1425995085
 30
0.0
 11
1965.7553354993
 21
1013.1425995085
 31
0.0
  0
LINE
  5
407
  8
0
  6
CONTINUOUS
 62
     7
 10
1965.6751001969
 20
1012.565175787
 30
0.0
 11
1965.3715039387
 21
1012.565175787
 31
0.0
  0
LINE
  5
408
  8
0
  6
CONTINUOUS
 62
     7
 10
1965.6751001969
 20
981.2920249704
 30
0.0
 11
1965.3715039387
 21
981.2920249704
 31
0.0
  0
LINE
  5
409
  8
0
  6
CONTINUOUS
 62
     7
 10
2007.507740964
 20
1052.5696517605
 30
0.0
 11
2007.0548201695
 21
1052.5696517605
 31
0.0
  0
LINE
  5
40A
  8
0
  6
CONTINUOUS
 62
     7
 10
2007.507740964
 20
1030.3893981207
 30
0.0
 11
2007.0548201695
 21
1030.3893981207
 31
0.0
  0
LINE
  5
40B
  8
0
  6
CONTINUOUS
 62
     7
 10
1980.5390308395
 20
1078.2439939383
 30
0.0
 11
1980.1823789969
 21
1078.2439939383
 31
0.0
  0
LINE
  5
40C
  8
0
  6
CONTINUOUS
 62
     7
 10
1979.0069008961
 20
989.2084680203
 30
0.0
 11
1978.6557177797
 21
989.2084680203
 31
0.0
  0
LINE
  5
40D
  8
0
  6
CONTINUOUS
 62
     7
 10
2007.507740964
 20
977.3374765817
 30
0.0
 11
2007.0548201695
 21
977.3374765817
 31
0.0
  0
ARC
  5
40E
  8
0
  6
CONTINUOUS
 62
     7
 10
1987.2038016613
 20
999.8361397702
 30
0.0
 40
0.59367143597262
 50
286.479685256
 51
2.1602472715
  0
LINE
  5
40F
  8
0
  6
CONTINUOUS
 62
     7
 10
1988.180979599
 20
999.8585179154
 30
0.0
 11
1987.7970511809
 21
999.8585179154
 31
0.0
  0
LINE
  5
410
  8
0
  6
CONTINUOUS
 62
     7
 10
1988.180979599
 20
1007.8683577184
 30
0.0
 11
1987.7970511809
 21
1007.8683577184
 31
0.0
  0
ARC
  5
411
  8
0
  6
CONTINUOUS
 62
     7
 10
1987.2047050569
 20
1007.8912690821
 30
0.0
 40
0.592789052885721
 50
357.784959942
 51
73.5966413539
  0
LINE
  5
412
  8
0
  6
CONTINUOUS
 62
     7
 10
1987.7970511809
 20
1007.8683577184
 30
0.0
 11
1987.7970511809
 21
999.8585179154
 31
0.0
  0
LINE
  5
413
  8
0
  6
CONTINUOUS
 62
     7
 10
1990.8073688641
 20
1087.9704251591
 30
0.0
 11
1990.4140676155
 21
1087.9704251591
 31
0.0
  0
LINE
  5
414
  8
0
  6
CONTINUOUS
 62
     7
 10
2007.4118668929
 20
1098.6174203161
 30
0.0
 11
2006.9593037262
 21
1098.6174203161
 31
0.0
  0
POLYLINE
  5
415
  8
0
  6
CONTINUOUS
 62
     7
 66
     1
 10
0.0
 20
0.0
 30
0.0
  0
VERTEX
  5
64A
  8
0
  6
CONTINUOUS
 62
     7
 10
791.1661709443
 20
1134.321172506
 30
0.0
  0
VERTEX
  5
64B
  8
0
  6
CONTINUOUS
 62
     7
 10
791.2388886109
 20
1134.271253616
 30
0.0
  0
VERTEX
  5
64C
  8
0
  6
CONTINUOUS
 62
     7
 10
792.4384916916
 20
1134.0428113643
 30
0.0
  0
VERTEX
  5
64D
  8
0
  6
CONTINUOUS
 62
     7
 10
794.4992626801
 20
1133.8083788458
 30
0.0
  0
VERTEX
  5
64E
  8
0
  6
CONTINUOUS
 62
     7
 10
796.6983164444
 20
1133.4127232138
 30
0.0
  0
VERTEX
  5
64F
  8
0
  6
CONTINUOUS
 62
     7
 10
798.559054245
 20
1132.7971413437
 30
0.0
  0
VERTEX
  5
650
  8
0
  6
CONTINUOUS
 62
     7
 10
800.3018940583
 20
1131.8874180023
 30
0.0
  0
VERTEX
  5
651
  8
0
  6
CONTINUOUS
 62
     7
 10
802.1336640015
 20
1130.5657371584
 30
0.0
  0
VERTEX
  5
652
  8
0
  6
CONTINUOUS
 62
     7
 10
803.8776959076
 20
1129.1230514351
 30
0.0
  0
VERTEX
  5
653
  8
0
  6
CONTINUOUS
 62
     7
 10
804.5310820237
 20
1128.6438598934
 30
0.0
  0
VERTEX
  5
654
  8
0
  6
CONTINUOUS
 62
     7
 10
804.8455561295
 20
1128.4892528955
 30
0.0
  0
SEQEND
  5
6EC
  8
0
  6
CONTINUOUS
 62
     7
  0
POLYLINE
  5
416
  8
0
  6
CONTINUOUS
 62
     7
 66
     1
 10
0.0
 20
0.0
 30
0.0
  0
VERTEX
  5
655
  8
0
  6
CONTINUOUS
 62
     7
 10
972.466215004
 20
711.8913501207
 30
0.0
  0
VERTEX
  5
656
  8
0
  6
CONTINUOUS
 62
     7
 10
972.3138059273
 20
711.4945321981
 30
0.0
  0
VERTEX
  5
657
  8
0
  6
CONTINUOUS
 62
     7
 10
972.1036399498
 20
709.9916606847
 30
0.0
  0
VERTEX
  5
658
  8
0
  6
CONTINUOUS
 62
     7
 10
971.7958415642
 20
707.5805931989
 30
0.0
  0
VERTEX
  5
659
  8
0
  6
CONTINUOUS
 62
     7
 10
971.3178719178
 20
705.5756717626
 30
0.0
  0
VERTEX
  5
65A
  8
0
  6
CONTINUOUS
 62
     7
 10
970.4660023346
 20
703.5566538278
 30
0.0
  0
VERTEX
  5
65B
  8
0
  6
CONTINUOUS
 62
     7
 10
969.4901550904
 20
701.9953995649
 30
0.0
  0
VERTEX
  5
65C
  8
0
  6
CONTINUOUS
 62
     7
 10
968.014642109
 20
700.1297145788
 30
0.0
  0
VERTEX
  5
65D
  8
0
  6
CONTINUOUS
 62
     7
 10
966.8839419976
 20
698.7185448114
 30
0.0
  0
VERTEX
  5
65E
  8
0
  6
CONTINUOUS
 62
     7
 10
966.6824782982
 20
698.2903450433
 30
0.0
  0
SEQEND
  5
6EB
  8
0
  6
CONTINUOUS
 62
     7
  0
POLYLINE
  5
417
  8
0
  6
CONTINUOUS
 62
     7
 66
     1
 10
0.0
 20
0.0
 30
0.0
  0
VERTEX
  5
65F
  8
0
  6
CONTINUOUS
 62
     7
 10
550.035818924
 20
530.6317180101
 30
0.0
  0
VERTEX
  5
660
  8
0
  6
CONTINUOUS
 62
     7
 10
549.8254145279
 20
530.7372182313
 30
0.0
  0
VERTEX
  5
661
  8
0
  6
CONTINUOUS
 62
     7
 10
548.4769190445
 20
530.9543579522
 30
0.0
  0
VERTEX
  5
662
  8
0
  6
CONTINUOUS
 62
     7
 10
546.2386454239
 20
531.2182873193
 30
0.0
  0
VERTEX
  5
663
  8
0
  6
CONTINUOUS
 62
     7
 10
544.1411579743
 20
531.6506594125
 30
0.0
  0
VERTEX
  5
664
  8
0
  6
CONTINUOUS
 62
     7
 10
542.3191631928
 20
532.3193043176
 30
0.0
  0
VERTEX
  5
665
  8
0
  6
CONTINUOUS
 62
     7
 10
540.6517828598
 20
533.2510441247
 30
0.0
  0
VERTEX
  5
666
  8
0
  6
CONTINUOUS
 62
     7
 10
538.8018931046
 20
534.6364348832
 30
0.0
  0
VERTEX
  5
667
  8
0
  6
CONTINUOUS
 62
     7
 10
537.3445595398
 20
535.8453362886
 30
0.0
  0
VERTEX
  5
668
  8
0
  6
CONTINUOUS
 62
     7
 10
536.6914118424
 20
536.3225906793
 30
0.0
  0
VERTEX
  5
669
  8
0
  6
CONTINUOUS
 62
     7
 10
536.3889778748
 20
536.4689200822
 30
0.0
  0
SEQEND
  5
6EA
  8
0
  6
CONTINUOUS
 62
     7
  0
POLYLINE
  5
418
  8
0
  6
CONTINUOUS
 62
     7
 66
     1
 10
0.0
 20
0.0
 30
0.0
  0
VERTEX
  5
66A
  8
0
  6
CONTINUOUS
 62
     7
 10
368.7716568604
 20
953.04786858
 30
0.0
  0
VERTEX
  5
66B
  8
0
  6
CONTINUOUS
 62
     7
 10
368.8504542008
 20
953.1829997603
 30
0.0
  0
VERTEX
  5
66C
  8
0
  6
CONTINUOUS
 62
     7
 10
369.0727795258
 20
954.4561996762
 30
0.0
  0
VERTEX
  5
66D
  8
0
  6
CONTINUOUS
 62
     7
 10
369.3202580109
 20
956.6056698266
 30
0.0
  0
VERTEX
  5
66E
  8
0
  6
CONTINUOUS
 62
     7
 10
369.7331989899
 20
958.753649861
 30
0.0
  0
VERTEX
  5
66F
  8
0
  6
CONTINUOUS
 62
     7
 10
370.3743065491
 20
960.5947702829
 30
0.0
  0
VERTEX
  5
670
  8
0
  6
CONTINUOUS
 62
     7
 10
371.2946022644
 20
962.2996940914
 30
0.0
  0
VERTEX
  5
671
  8
0
  6
CONTINUOUS
 62
     7
 10
372.6478661194
 20
964.1406729523
 30
0.0
  0
VERTEX
  5
672
  8
0
  6
CONTINUOUS
 62
     7
 10
373.8635624543
 20
965.6035050455
 30
0.0
  0
VERTEX
  5
673
  8
0
  6
CONTINUOUS
 62
     7
 10
374.5920504227
 20
966.6982114021
 30
0.0
  0
SEQEND
  5
6E9
  8
0
  6
CONTINUOUS
 62
     7
  0
CIRCLE
  5
419
  8
0
  6
CONTINUOUS
 62
     7
 10
670.6170071259
 20
832.4795249406
 30
0.0
 40
44.99999999999997
  0
ARC
  5
41A
  8
0
  6
CONTINUOUS
 62
     7
 10
670.6170071259
 20
832.4795249406
 30
0.0
 40
110.8911351532076
 50
0.0
 51
62.7819675767
  0
ARC
  5
41B
  8
0
  6
CONTINUOUS
 62
     7
 10
670.6170071259
 20
832.4795249406
 30
0.0
 40
110.8911351532075
 50
71.0561144826
 51
152.7819675767
  0
ARC
  5
41C
  8
0
  6
CONTINUOUS
 62
     7
 10
670.6170071259
 20
832.4795249406
 30
0.0
 40
110.8911351532076
 50
161.0561144826
 51
242.7819675767
  0
ARC
  5
41D
  8
0
  6
CONTINUOUS
 62
     7
 10
670.6170071259
 20
832.4795249406
 30
0.0
 40
110.8911351532076
 50
251.0561144826
 51
332.7819675767
  0
ARC
  5
41E
  8
0
  6
CONTINUOUS
 62
     7
 10
670.6170071259
 20
832.4795249406
 30
0.0
 40
110.8911351532076
 50
341.0561144826
 51
0.0
  0
ARC
  5
41F
  8
0
  6
CONTINUOUS
 62
     7
 10
670.6170071259
 20
832.4795249406
 30
0.0
 40
121.7705775637442
 50
88.4660067044
 51
153.1521490928
  0
ARC
  5
420
  8
0
  6
CONTINUOUS
 62
     7
 10
670.6170071259
 20
832.4795249406
 30
0.0
 40
121.7705775637443
 50
160.6859329665
 51
243.1521490928
  0
ARC
  5
421
  8
0
  6
CONTINUOUS
 62
     7
 10
670.6170071259
 20
832.4795249406
 30
0.0
 40
121.7705775637443
 50
250.6859329665
 51
333.1521490928
  0
ARC
  5
422
  8
0
  6
CONTINUOUS
 62
     7
 10
670.6170071259
 20
832.4795249406
 30
0.0
 40
121.7705775637442
 50
340.6859329665
 51
63.1521490928
  0
ARC
  5
423
  8
0
  6
CONTINUOUS
 62
     7
 10
670.6170071259
 20
832.4795249406
 30
0.0
 40
121.7705775637442
 50
70.6859329665
 51
88.4660067044
  0
LINE
  5
424
  8
0
  6
CONTINUOUS
 62
     7
 10
593.6269606247
 20
926.822584838
 30
0.0
 11
593.6269606247
 21
1148.2286944691
 31
0.0
  0
LINE
  5
425
  8
0
  6
CONTINUOUS
 62
     7
 10
719.6169937745
 20
1248.9795207683
 30
0.0
 11
719.6169937745
 21
1179.0325462524
 31
0.0
  0
LINE
  5
426
  8
0
  6
CONTINUOUS
 62
     7
 10
3045.6169689789
 20
1041.4795249406
 30
0.0
 11
3045.6169689789
 21
833.9795291129
 31
0.0
  0
LINE
  5
427
  8
0
  6
CONTINUOUS
 62
     7
 10
3045.6169689789
 20
1248.9795207683
 30
0.0
 11
3045.6169689789
 21
1041.4795249406
 31
0.0
  0
LINE
  5
428
  8
0
  6
CONTINUOUS
 62
     7
 10
2837.9995072976
 20
834.3268006746
 30
0.0
 11
2960.6170500412
 21
834.3268006746
 31
0.0
  0
LINE
  5
429
  8
0
  6
CONTINUOUS
 62
     7
 10
2837.9995072976
 20
1248.6322492067
 30
0.0
 11
2960.6170500412
 21
1248.6322492067
 31
0.0
  0
LINE
  5
42A
  8
0
  6
CONTINUOUS
 62
     7
 10
2960.6170500412
 20
834.3268006746
 30
0.0
 11
2960.6170500412
 21
1248.6322492067
 31
0.0
  0
LINE
  5
42B
  8
0
  6
CONTINUOUS
 62
     7
 10
923.2345069542
 20
834.3268006746
 30
0.0
 11
800.6169642105
 21
834.3268006746
 31
0.0
  0
LINE
  5
42C
  8
0
  6
CONTINUOUS
 62
     7
 10
923.2345069542
 20
1248.6322492067
 30
0.0
 11
800.6169642105
 21
1248.6322492067
 31
0.0
  0
LINE
  5
42D
  8
0
  6
CONTINUOUS
 62
     7
 10
800.6169642105
 20
834.3268006746
 30
0.0
 11
800.6169642105
 21
1117.1346202198
 31
0.0
  0
LINE
  5
42E
  8
0
  6
CONTINUOUS
 62
     7
 10
800.6169642105
 20
1157.4410617057
 30
0.0
 11
800.6169642105
 21
1248.6322492067
 31
0.0
  0
LINE
  5
42F
  8
0
  6
CONTINUOUS
 62
     7
 10
2695.4568470612
 20
1021.4795253877
 30
0.0
 11
2960.6170500412
 21
1021.4795253877
 31
0.0
  0
LINE
  5
430
  8
0
  6
CONTINUOUS
 62
     7
 10
2695.4568470612
 20
1061.4795244936
 30
0.0
 11
2960.6170500412
 21
1061.4795244936
 31
0.0
  0
LINE
  5
431
  8
0
  6
CONTINUOUS
 62
     7
 10
1065.7771671906
 20
1021.4795253877
 30
0.0
 11
965.1997531548
 21
1021.4795253877
 31
0.0
  0
LINE
  5
432
  8
0
  6
CONTINUOUS
 62
     7
 10
935.0106562271
 20
1021.4795253877
 30
0.0
 11
800.6169642105
 21
1021.4795253877
 31
0.0
  0
LINE
  5
433
  8
0
  6
CONTINUOUS
 62
     7
 10
1065.7771671906
 20
1061.4795244936
 30
0.0
 11
935.3036130562
 21
1061.4795244936
 31
0.0
  0
LINE
  5
434
  8
0
  6
CONTINUOUS
 62
     7
 10
901.2335981026
 20
1061.4795244936
 30
0.0
 11
800.6169642105
 21
1061.4795244936
 31
0.0
  0
LINE
  5
435
  8
0
  6
CONTINUOUS
 62
     7
 10
1043.2513202324
 20
1165.9021943513
 30
0.0
 11
800.6169642105
 21
1165.9021943513
 31
0.0
  0
LINE
  5
436
  8
0
  6
CONTINUOUS
 62
     7
 10
2717.9826940194
 20
1165.9021943513
 30
0.0
 11
2960.6170500412
 21
1165.9021943513
 31
0.0
  0
LINE
  5
437
  8
0
  6
CONTINUOUS
 62
     7
 10
1043.2513202324
 20
917.0568555299
 30
0.0
 11
1010.2442945137
 21
917.0568555299
 31
0.0
  0
LINE
  5
438
  8
0
  6
CONTINUOUS
 62
     7
 10
984.4189728394
 20
917.0568555299
 30
0.0
 11
800.6169642105
 21
917.0568555299
 31
0.0
  0
LINE
  5
439
  8
0
  6
CONTINUOUS
 62
     7
 10
2717.9826940194
 20
917.0568555299
 30
0.0
 11
2960.6170500412
 21
917.0568555299
 31
0.0
  0
LINE
  5
43A
  8
0
  6
CONTINUOUS
 62
     7
 10
580.6170548096
 20
1041.4795249406
 30
0.0
 11
580.6170548096
 21
1144.7694569532
 31
0.0
  0
LINE
  5
43B
  8
0
  6
CONTINUOUS
 62
     7
 10
580.6170548096
 20
928.9795279208
 30
0.0
 11
580.6170548096
 21
1041.4795249406
 31
0.0
  0
LINE
  5
43C
  8
0
  6
CONTINUOUS
 62
     7
 10
593.6269606247
 20
1173.9067405168
 30
0.0
 11
593.6269606247
 21
1179.4795214835
 31
0.0
  0
ARC
  5
43D
  8
0
  6
CONTINUOUS
 62
     7
 10
670.6170071259
 20
832.4795249406
 30
0.0
 40
109.4453448356875
 50
89.9999999987
 51
152.7272191056
  0
ARC
  5
43E
  8
0
  6
CONTINUOUS
 62
     7
 10
670.6170071259
 20
832.4795249406
 30
0.0
 40
109.4453448356875
 50
161.1108629537
 51
242.7272191056
  0
ARC
  5
43F
  8
0
  6
CONTINUOUS
 62
     7
 10
670.6170071259
 20
832.4795249406
 30
0.0
 40
109.4453448356876
 50
251.1108629537
 51
332.7272191056
  0
ARC
  5
440
  8
0
  6
CONTINUOUS
 62
     7
 10
670.6170071259
 20
832.4795249406
 30
0.0
 40
109.4453448356876
 50
341.1108629537
 51
62.7272191056
  0
ARC
  5
441
  8
0
  6
CONTINUOUS
 62
     7
 10
670.6170071259
 20
832.4795249406
 30
0.0
 40
109.4453448356875
 50
71.1108629537
 51
89.9999999987
  0
LINE
  5
442
  8
0
  6
CONTINUOUS
 62
     7
 10
755.6170071259
 20
919.6751311127
 30
0.0
 11
755.6170071259
 21
1011.5363642279
 31
0.0
  0
LINE
  5
443
  8
0
  6
CONTINUOUS
 62
     7
 10
755.6170071259
 20
1052.34942098
 30
0.0
 11
755.6170071259
 21
1146.1672678295
 31
0.0
  0
LINE
  5
444
  8
0
  6
CONTINUOUS
 62
     7
 10
755.6170071259
 20
1172.0012545291
 30
0.0
 11
755.6170071259
 21
1248.9795207683
 31
0.0
  0
LINE
  5
445
  8
0
  6
CONTINUOUS
 62
     7
 10
3005.6170071259
 20
833.9795291129
 30
0.0
 11
3005.6170071259
 21
1248.9795207683
 31
0.0
  0
INSERT
  5
451
  8
FORMAT
  2
SW_CENTERMARKSYMBOL_41
 10
670.6170071259
 20
832.4795249406
 30
0.0
  0
ARC
  5
452
  8
0
  6
CONTINUOUS
 62
     7
 10
4329.6466983373
 20
3602.7738906031
 30
0.0
 40
12.49999999999955
 50
90.0
 51
270.0
  0
ARC
  5
453
  8
0
  6
CONTINUOUS
 62
     7
 10
5004.6466983373
 20
3602.7738906031
 30
0.0
 40
12.49999999999955
 50
270.0
 51
90.0
  0
LINE
  5
454
  8
0
  6
CONTINUOUS
 62
     7
 10
4329.6466986949
 20
3590.2738753444
 30
0.0
 11
5004.646725517
 21
3590.2738753444
 31
0.0
  0
LINE
  5
455
  8
0
  6
CONTINUOUS
 62
     7
 10
5004.646725517
 20
3615.2739111071
 30
0.0
 11
4329.6466986949
 21
3615.2739111071
 31
0.0
  0
LINE
  5
456
  8
0
  6
CONTINUOUS
 62
     7
 10
4653.6654453094
 20
3524.1550985461
 30
0.0
 11
4565.7474617774
 21
3590.2738753444
 31
0.0
  0
LINE
  5
457
  8
0
  6
CONTINUOUS
 62
     7
 10
4539.1273196156
 20
3590.2738753444
 30
0.0
 11
4645.5174903686
 21
3510.2630737906
 31
0.0
  0
LINE
  5
458
  8
0
  6
CONTINUOUS
 62
     7
 10
4708.9121113832
 20
3508.9909020549
 30
0.0
 11
4962.5397990758
 21
3590.2738753444
 31
0.0
  0
LINE
  5
459
  8
0
  6
CONTINUOUS
 62
     7
 10
4910.1137291009
 20
3590.2738753444
 30
0.0
 11
4708.1398587043
 21
3525.5450192576
 31
0.0
  0
LINE
  5
45A
  8
0
  6
CONTINUOUS
 62
     7
 10
4545.3761215622
 20
3304.7738853579
 30
0.0
 11
4545.3761215622
 21
3264.7738937026
 31
0.0
  0
LINE
  5
45B
  8
0
  6
CONTINUOUS
 62
     7
 10
4788.917280298
 20
3264.7738937026
 30
0.0
 11
4788.917280298
 21
3304.7738853579
 31
0.0
  0
LINE
  5
45C
  8
0
  6
CONTINUOUS
 62
     7
 10
4546.2816204245
 20
3264.7738937026
 30
0.0
 11
4546.3696192319
 21
3262.2541222459
 31
0.0
  0
LINE
  5
45D
  8
0
  6
CONTINUOUS
 62
     7
 10
4787.9237900788
 20
3262.2541222459
 30
0.0
 11
4788.0117665345
 21
3264.7738937026
 31
0.0
  0
ARC
  5
45E
  8
0
  6
CONTINUOUS
 62
     7
 10
4763.9384010632
 20
3263.0917053791
 30
0.0
 40
24.00000000000039
 50
330.0
 51
358.0
  0
ARC
  5
45F
  8
0
  6
CONTINUOUS
 62
     7
 10
4570.3549956114
 20
3263.0917053791
 30
0.0
 40
23.99999999999961
 50
182.0
 51
210.0
  0
LINE
  5
460
  8
0
  6
CONTINUOUS
 62
     7
 10
4549.5703886563
 20
3251.091707099
 30
0.0
 11
4568.5177590067
 21
3218.2738963252
 31
0.0
  0
LINE
  5
461
  8
0
  6
CONTINUOUS
 62
     7
 10
4765.7756279523
 20
3218.2738963252
 30
0.0
 11
4784.7230206544
 21
3251.091707099
 31
0.0
  0
ARC
  5
462
  8
0
  6
CONTINUOUS
 62
     7
 10
4554.5726642008
 20
3324.7738906038
 30
0.0
 40
19.99999999999986
 50
274.826857915
 51
279.0
  0
ARC
  5
463
  8
0
  6
CONTINUOUS
 62
     7
 10
4779.7207324738
 20
3324.7738906038
 30
0.0
 40
19.99999999999978
 50
261.0
 51
265.173142085
  0
LINE
  5
464
  8
0
  6
CONTINUOUS
 62
     7
 10
4778.037823301
 20
3304.7738853579
 30
0.0
 11
4778.037823301
 21
3304.8448148852
 31
0.0
  0
LINE
  5
465
  8
0
  6
CONTINUOUS
 62
     7
 10
4556.255563658
 20
3304.8448148852
 30
0.0
 11
4556.255563658
 21
3304.7738853579
 31
0.0
  0
LINE
  5
466
  8
0
  6
CONTINUOUS
 62
     7
 10
4776.5920530374
 20
3305.0201121455
 30
0.0
 11
4696.9116996343
 21
3317.6402631884
 31
0.0
  0
LINE
  5
467
  8
0
  6
CONTINUOUS
 62
     7
 10
4637.3816947753
 20
3317.6402631884
 30
0.0
 11
4557.7013562734
 21
3305.0201121455
 31
0.0
  0
ARC
  5
468
  8
0
  6
CONTINUOUS
 62
     7
 10
4589.3023698065
 20
3230.2738906032
 30
0.0
 40
24.00000000000017
 50
210.0
 51
270.0
  0
ARC
  5
469
  8
0
  6
CONTINUOUS
 62
     7
 10
4744.9910268681
 20
3230.2738906032
 30
0.0
 40
24.0
 50
270.0
 51
330.0
  0
LINE
  5
46A
  8
0
  6
CONTINUOUS
 62
     7
 10
4712.1467064435
 20
3458.9338782912
 30
0.0
 11
4712.1467064435
 21
3510.0275162345
 31
0.0
  0
LINE
  5
46B
  8
0
  6
CONTINUOUS
 62
     7
 10
4712.1467064435
 20
3526.8291417247
 30
0.0
 11
4712.1467064435
 21
3532.2739068156
 31
0.0
  0
LINE
  5
46C
  8
0
  6
CONTINUOUS
 62
     7
 10
4622.1467028672
 20
3527.8390828257
 30
0.0
 11
4622.1467028672
 21
3458.9338782912
 31
0.0
  0
ARC
  5
46D
  8
0
  6
CONTINUOUS
 62
     7
 10
4698.4760468646
 20
3327.5171334055
 30
0.0
 40
10.00000000000081
 50
182.0
 51
261.0
  0
ARC
  5
46E
  8
0
  6
CONTINUOUS
 62
     7
 10
4635.8173498099
 20
3327.5171334055
 30
0.0
 40
10.00000000000081
 50
279.0
 51
358.0
  0
LINE
  5
46F
  8
0
  6
CONTINUOUS
 62
     7
 10
4645.8112518603
 20
3336.7738906031
 30
0.0
 11
4645.8112518603
 21
3327.1681252604
 31
0.0
  0
LINE
  5
470
  8
0
  6
CONTINUOUS
 62
     7
 10
4688.4821425492
 20
3327.1681252604
 30
0.0
 11
4688.4821425492
 21
3336.7738906031
 31
0.0
  0
LINE
  5
471
  8
0
  6
CONTINUOUS
 62
     7
 10
4677.1466951186
 20
3336.7738906031
 30
0.0
 11
4677.1466951186
 21
3458.9338782912
 31
0.0
  0
LINE
  5
472
  8
0
  6
CONTINUOUS
 62
     7
 10
4657.146699291
 20
3458.9338782912
 30
0.0
 11
4657.146699291
 21
3336.7738906031
 31
0.0
  0
LINE
  5
473
  8
0
  6
CONTINUOUS
 62
     7
 10
4622.1467028672
 20
3526.8291417247
 30
0.0
 11
4424.1796764846
 21
3590.2738753444
 31
0.0
  0
LINE
  5
474
  8
0
  6
CONTINUOUS
 62
     7
 10
4371.7536027844
 20
3590.2738753444
 30
0.0
 11
4622.1467028672
 21
3510.0275162345
 31
0.0
  0
LINE
  5
475
  8
0
  6
CONTINUOUS
 62
     7
 10
4596.9297359998
 20
3206.2827829009
 30
0.0
 11
4598.4719614799
 21
3206.1132225877
 31
0.0
  0
LINE
  5
476
  8
0
  6
CONTINUOUS
 62
     7
 10
4735.8214329297
 20
3206.1132225877
 30
0.0
 11
4737.3636435086
 21
3206.2827829009
 31
0.0
  0
LINE
  5
477
  8
0
  6
CONTINUOUS
 62
     7
 10
4712.1467064435
 20
3527.8390828257
 30
0.0
 11
4795.1660822446
 21
3590.2738753444
 31
0.0
  0
LINE
  5
478
  8
0
  6
CONTINUOUS
 62
     7
 10
4768.5459326322
 20
3590.2738753444
 30
0.0
 11
4691.4234976585
 21
3532.2739068156
 31
0.0
  0
LINE
  5
479
  8
0
  6
CONTINUOUS
 62
     7
 10
4063.1466876085
 20
2149.2738906031
 30
0.0
 11
4068.1467126424
 21
2149.2738906031
 31
0.0
  0
LINE
  5
47A
  8
0
  6
CONTINUOUS
 62
     7
 10
4068.1467126424
 20
3899.2738906031
 30
0.0
 11
4063.1466876085
 21
3899.2738906031
 31
0.0
  0
LINE
  5
47B
  8
0
  6
CONTINUOUS
 62
     7
 10
4848.1466840322
 20
2149.2738906031
 30
0.0
 11
4853.1467090661
 21
2149.2738906031
 31
0.0
  0
LINE
  5
47C
  8
0
  6
CONTINUOUS
 62
     7
 10
4853.1467090661
 20
3899.2738906031
 30
0.0
 11
4848.1466840322
 21
3899.2738906031
 31
0.0
  0
POLYLINE
  5
47D
  8
0
  6
CONTINUOUS
 62
     7
 66
     1
 10
0.0
 20
0.0
 30
0.0
  0
VERTEX
  5
674
  8
0
  6
CONTINUOUS
 62
     7
 10
4653.6454628522
 20
3524.1217795497
 30
0.0
  0
VERTEX
  5
675
  8
0
  6
CONTINUOUS
 62
     7
 10
4653.8868914659
 20
3523.9820960646
 30
0.0
  0
VERTEX
  5
676
  8
0
  6
CONTINUOUS
 62
     7
 10
4655.6199710185
 20
3522.0726314669
 30
0.0
  0
VERTEX
  5
677
  8
0
  6
CONTINUOUS
 62
     7
 10
4656.8088154609
 20
3519.4886509066
 30
0.0
  0
VERTEX
  5
678
  8
0
  6
CONTINUOUS
 62
     7
 10
4657.1290861184
 20
3516.5202501899
 30
0.0
  0
VERTEX
  5
679
  8
0
  6
CONTINUOUS
 62
     7
 10
4656.4524988944
 20
3513.6814001685
 30
0.0
  0
VERTEX
  5
67A
  8
0
  6
CONTINUOUS
 62
     7
 10
4654.9512218053
 20
3511.3787535315
 30
0.0
  0
VERTEX
  5
67B
  8
0
  6
CONTINUOUS
 62
     7
 10
4652.8822998817
 20
3509.7876671439
 30
0.0
  0
VERTEX
  5
67C
  8
0
  6
CONTINUOUS
 62
     7
 10
4650.4907976205
 20
3509.0040746814
 30
0.0
  0
VERTEX
  5
67D
  8
0
  6
CONTINUOUS
 62
     7
 10
4648.0443696792
 20
3509.0936008578
 30
0.0
  0
VERTEX
  5
67E
  8
0
  6
CONTINUOUS
 62
     7
 10
4645.8173911388
 20
3510.0497785693
 30
0.0
  0
VERTEX
  5
67F
  8
0
  6
CONTINUOUS
 62
     7
 10
4645.5555330331
 20
3510.3040519839
 30
0.0
  0
SEQEND
  5
6E8
  8
0
  6
CONTINUOUS
 62
     7
  0
POLYLINE
  5
47E
  8
0
  6
CONTINUOUS
 62
     7
 66
     1
 10
0.0
 20
0.0
 30
0.0
  0
VERTEX
  5
680
  8
0
  6
CONTINUOUS
 62
     7
 10
4708.9077900464
 20
3509.0077105647
 30
0.0
  0
VERTEX
  5
681
  8
0
  6
CONTINUOUS
 62
     7
 10
4707.8910391147
 20
3509.0936008578
 30
0.0
  0
VERTEX
  5
682
  8
0
  6
CONTINUOUS
 62
     7
 10
4706.7706953103
 20
3510.0497785693
 30
0.0
  0
VERTEX
  5
683
  8
0
  6
CONTINUOUS
 62
     7
 10
4705.7645093019
 20
3511.7702368384
 30
0.0
  0
VERTEX
  5
684
  8
0
  6
CONTINUOUS
 62
     7
 10
4705.0501774366
 20
3514.0634361392
 30
0.0
  0
VERTEX
  5
685
  8
0
  6
CONTINUOUS
 62
     7
 10
4704.7530780847
 20
3516.6995409613
 30
0.0
  0
VERTEX
  5
686
  8
0
  6
CONTINUOUS
 62
     7
 10
4704.9337844665
 20
3519.4628122931
 30
0.0
  0
VERTEX
  5
687
  8
0
  6
CONTINUOUS
 62
     7
 10
4705.5990319068
 20
3522.1002284175
 30
0.0
  0
VERTEX
  5
688
  8
0
  6
CONTINUOUS
 62
     7
 10
4706.6508750732
 20
3524.2195609694
 30
0.0
  0
VERTEX
  5
689
  8
0
  6
CONTINUOUS
 62
     7
 10
4707.8283499295
 20
3525.4029813891
 30
0.0
  0
VERTEX
  5
68A
  8
0
  6
CONTINUOUS
 62
     7
 10
4708.1543575341
 20
3525.4991832858
 30
0.0
  0
SEQEND
  5
6E7
  8
0
  6
CONTINUOUS
 62
     7
  0
LINE
  5
47F
  8
0
  6
CONTINUOUS
 62
     7
 10
4545.3761215622
 20
3304.7738853579
 30
0.0
 11
4788.917280298
 21
3304.7738853579
 31
0.0
  0
LINE
  5
480
  8
0
  6
CONTINUOUS
 62
     7
 10
4545.3761215622
 20
3264.7738937026
 30
0.0
 11
4788.917280298
 21
3264.7738937026
 31
0.0
  0
LINE
  5
481
  8
0
  6
CONTINUOUS
 62
     7
 10
4742.7170644815
 20
3218.2458076363
 30
0.0
 11
4744.1844712312
 21
3218.2738963252
 31
0.0
  0
ARC
  5
482
  8
0
  6
CONTINUOUS
 62
     7
 10
4736.60833345
 20
3295.4300911885
 30
0.0
 40
77.42564318278276
 50
265.4747724827
 51
274.5252275173
  0
LINE
  5
483
  8
0
  6
CONTINUOUS
 62
     7
 10
4728.7328313405
 20
3218.2738963252
 30
0.0
 11
4730.4996024186
 21
3218.2458076363
 31
0.0
  0
LINE
  5
484
  8
0
  6
CONTINUOUS
 62
     7
 10
4728.7328313405
 20
3218.2738963252
 30
0.0
 11
4605.5605779702
 21
3218.2738963252
 31
0.0
  0
LINE
  5
485
  8
0
  6
CONTINUOUS
 62
     7
 10
4605.5605779702
 20
3218.2738963252
 30
0.0
 11
4603.7938068921
 21
3218.2458076363
 31
0.0
  0
ARC
  5
486
  8
0
  6
CONTINUOUS
 62
     7
 10
4597.6850684101
 20
3295.4305766944
 30
0.0
 40
77.42612776310871
 50
265.4747953326
 51
274.5252046674
  0
LINE
  5
487
  8
0
  6
CONTINUOUS
 62
     7
 10
4590.1089380796
 20
3218.2738963252
 30
0.0
 11
4591.5763299281
 21
3218.2458076363
 31
0.0
  0
LINE
  5
488
  8
0
  6
CONTINUOUS
 62
     7
 10
4556.255563658
 20
3304.8448148852
 30
0.0
 11
4778.037823301
 21
3304.8448148852
 31
0.0
  0
ARC
  5
489
  8
0
  6
CONTINUOUS
 62
     7
 10
4624.2419954122
 20
3223.9904540536
 30
0.0
 40
19.53648867898069
 50
197.0142340768
 51
236.6830837112
  0
ARC
  5
48A
  8
0
  6
CONTINUOUS
 62
     7
 10
4710.0511909115
 20
3223.9906362373
 30
0.0
 40
19.53675521523012
 50
303.3171327761
 51
342.985446369
  0
LINE
  5
48B
  8
0
  6
CONTINUOUS
 62
     7
 10
4715.6859408433
 20
3207.0515785104
 30
0.0
 11
4720.7821975763
 21
3207.6648805028
 31
0.0
  0
POLYLINE
  5
48C
  8
0
  6
CONTINUOUS
 62
     7
 66
     1
 10
0.0
 20
0.0
 30
0.0
  0
VERTEX
  5
68B
  8
0
  6
CONTINUOUS
 62
     7
 10
4700.2392779405
 20
3206.2738869077
 30
0.0
  0
VERTEX
  5
68C
  8
0
  6
CONTINUOUS
 62
     7
 10
4707.9784046228
 20
3206.4315560943
 30
0.0
  0
VERTEX
  5
68D
  8
0
  6
CONTINUOUS
 62
     7
 10
4715.6859408433
 20
3207.0515785104
 30
0.0
  0
SEQEND
  5
6E6
  8
0
  6
CONTINUOUS
 62
     7
  0
LINE
  5
48D
  8
0
  6
CONTINUOUS
 62
     7
 10
4634.0541164691
 20
3206.2738869077
 30
0.0
 11
4700.2392779405
 21
3206.2738869077
 31
0.0
  0
POLYLINE
  5
48E
  8
0
  6
CONTINUOUS
 62
     7
 66
     1
 10
0.0
 20
0.0
 30
0.0
  0
VERTEX
  5
68E
  8
0
  6
CONTINUOUS
 62
     7
 10
4618.6074386651
 20
3207.0515785104
 30
0.0
  0
VERTEX
  5
68F
  8
0
  6
CONTINUOUS
 62
     7
 10
4626.3149897868
 20
3206.4315560943
 30
0.0
  0
VERTEX
  5
690
  8
0
  6
CONTINUOUS
 62
     7
 10
4634.0541164691
 20
3206.2738869077
 30
0.0
  0
SEQEND
  5
6E5
  8
0
  6
CONTINUOUS
 62
     7
  0
LINE
  5
48F
  8
0
  6
CONTINUOUS
 62
     7
 10
4613.5111968333
 20
3207.6648805028
 30
0.0
 11
4618.6074386651
 21
3207.0515785104
 31
0.0
  0
CIRCLE
  5
490
  8
0
  6
CONTINUOUS
 62
     7
 10
4458.1466983373
 20
3027.2738906031
 30
0.0
 40
112.5
  0
LINE
  5
491
  8
0
  6
CONTINUOUS
 62
     7
 10
4612.170196634
 20
3207.7760580664
 30
0.0
 11
4613.5111968333
 21
3207.6648805028
 31
0.0
  0
ARC
  5
492
  8
0
  6
CONTINUOUS
 62
     7
 10
4623.1437187892
 20
3225.1411610025
 30
0.0
 40
20.54178639915017
 50
199.613557635
 51
237.7099968744
  0
LINE
  5
493
  8
0
  6
CONTINUOUS
 62
     7
 10
4720.7821975763
 20
3207.6648805028
 30
0.0
 11
4722.1232126767
 21
3207.7760580664
 31
0.0
  0
ARC
  5
494
  8
0
  6
CONTINUOUS
 62
     7
 10
4711.1495461106
 20
3225.1412765393
 30
0.0
 40
20.54196121393349
 50
302.2901714769
 51
340.3862740137
  0
LINE
  5
495
  8
0
  6
CONTINUOUS
 62
     7
 10
4727.1466921384
 20
2869.2738894111
 30
0.0
 11
4727.1466921384
 21
2906.2738898879
 31
0.0
  0
LINE
  5
496
  8
0
  6
CONTINUOUS
 62
     7
 10
4592.6541309173
 20
2869.2738894111
 30
0.0
 11
4727.1466921384
 21
2869.2738894111
 31
0.0
  0
ARC
  5
497
  8
0
  6
CONTINUOUS
 62
     7
 10
4468.1466983373
 20
3027.2738906031
 30
0.0
 40
148.0
 50
153.1119523823
 51
206.8880476177
  0
LINE
  5
498
  8
0
  6
CONTINUOUS
 62
     7
 10
4727.1466921384
 20
3185.2738890534
 30
0.0
 11
4592.6541309173
 21
3185.2738890534
 31
0.0
  0
LINE
  5
499
  8
0
  6
CONTINUOUS
 62
     7
 10
4727.1466921384
 20
3148.2738885766
 30
0.0
 11
4727.1466921384
 21
3185.2738890534
 31
0.0
  0
LINE
  5
49A
  8
0
  6
CONTINUOUS
 62
     7
 10
4731.1467002446
 20
3148.2738885766
 30
0.0
 11
4727.1466921384
 21
3148.2738885766
 31
0.0
  0
LINE
  5
49B
  8
0
  6
CONTINUOUS
 62
     7
 10
4731.1467002446
 20
2906.2738898879
 30
0.0
 11
4731.1467002446
 21
3148.2738885766
 31
0.0
  0
LINE
  5
49C
  8
0
  6
CONTINUOUS
 62
     7
 10
4727.1466921384
 20
2906.2738898879
 30
0.0
 11
4731.1467002446
 21
2906.2738898879
 31
0.0
  0
LINE
  5
49D
  8
0
  6
CONTINUOUS
 62
     7
 10
4336.1466969664
 20
3195.1198015099
 30
0.0
 11
4336.1466969664
 21
3094.2066941148
 31
0.0
  0
LINE
  5
49E
  8
0
  6
CONTINUOUS
 62
     7
 10
4336.1466969664
 20
2960.3410918003
 30
0.0
 11
4336.1466969664
 21
2859.4279769545
 31
0.0
  0
ARC
  5
49F
  8
0
  6
CONTINUOUS
 62
     7
 10
4458.1466983373
 20
3027.2738906031
 30
0.0
 40
207.5000000000002
 50
49.5918212458
 51
126.0117965492
  0
ARC
  5
4A0
  8
0
  6
CONTINUOUS
 62
     7
 10
4458.1466983373
 20
3027.2738906031
 30
0.0
 40
207.5000000000001
 50
233.9882034508
 51
310.4081787542
  0
ARC
  5
4A1
  8
0
  6
CONTINUOUS
 62
     7
 10
4727.8599958236
 20
3126.5029719334
 30
0.0
 40
81.47530429803764
 50
85.9623879937
 51
94.0376120063
  0
ARC
  5
4A2
  8
0
  6
CONTINUOUS
 62
     7
 10
4724.0275867641
 20
3225.3191134886
 30
0.0
 40
19.98319876863031
 50
298.6110962032
 51
339.2701194378
  0
ARC
  5
4A3
  8
0
  6
CONTINUOUS
 62
     7
 10
4606.433398586
 20
3126.4693718826
 30
0.0
 40
81.50882203810396
 50
85.9640405762
 51
94.0359594238
  0
ARC
  5
4A4
  8
0
  6
CONTINUOUS
 62
     7
 10
4610.2659840921
 20
3225.319253573
 30
0.0
 40
19.98341337676491
 50
200.7300771345
 51
241.3886144961
  0
LINE
  5
4A5
  8
0
  6
CONTINUOUS
 62
     7
 10
4634.0541164691
 20
3206.2738869077
 30
0.0
 11
4634.0541164691
 21
3196.6228816396
 31
0.0
  0
LINE
  5
4A6
  8
0
  6
CONTINUOUS
 62
     7
 10
4700.2392779405
 20
3206.2738869077
 30
0.0
 11
4700.2392779405
 21
3196.6228816396
 31
0.0
  0
LINE
  5
4A7
  8
0
  6
CONTINUOUS
 62
     7
 10
4700.2392779405
 20
3196.6228816396
 30
0.0
 11
4634.0541164691
 21
3196.6228816396
 31
0.0
  0
POLYLINE
  5
4A8
  8
0
  6
CONTINUOUS
 62
     7
 66
     1
 10
0.0
 20
0.0
 30
0.0
  0
VERTEX
  5
691
  8
0
  6
CONTINUOUS
 62
     7
 10
4717.1467016751
 20
3197.7246138936
 30
0.0
  0
VERTEX
  5
692
  8
0
  6
CONTINUOUS
 62
     7
 10
4716.8979416902
 20
3199.3534151202
 30
0.0
  0
VERTEX
  5
693
  8
0
  6
CONTINUOUS
 62
     7
 10
4716.656006437
 20
3200.9277675038
 30
0.0
  0
VERTEX
  5
694
  8
0
  6
CONTINUOUS
 62
     7
 10
4716.4276014383
 20
3202.4043384677
 30
0.0
  0
VERTEX
  5
695
  8
0
  6
CONTINUOUS
 62
     7
 10
4716.2189851815
 20
3203.7424925452
 30
0.0
  0
VERTEX
  5
696
  8
0
  6
CONTINUOUS
 62
     7
 10
4716.0359095151
 20
3204.9053791648
 30
0.0
  0
VERTEX
  5
697
  8
0
  6
CONTINUOUS
 62
     7
 10
4715.8833812291
 20
3205.860975731
 30
0.0
  0
VERTEX
  5
698
  8
0
  6
CONTINUOUS
 62
     7
 10
4715.7656620557
 20
3206.5830114966
 30
0.0
  0
VERTEX
  5
699
  8
0
  6
CONTINUOUS
 62
     7
 10
4715.6859408433
 20
3207.0515785104
 30
0.0
  0
SEQEND
  5
6E4
  8
0
  6
CONTINUOUS
 62
     7
  0
ARC
  5
4A9
  8
0
  6
CONTINUOUS
 62
     7
 10
4701.3824215239
 20
3309.3633249221
 30
0.0
 40
112.7462386458668
 50
269.4190633254
 51
278.0374824291
  0
POLYLINE
  5
4AA
  8
0
  6
CONTINUOUS
 62
     7
 66
     1
 10
0.0
 20
0.0
 30
0.0
  0
VERTEX
  5
69A
  8
0
  6
CONTINUOUS
 62
     7
 10
4617.1466927344
 20
3197.7246138936
 30
0.0
  0
VERTEX
  5
69B
  8
0
  6
CONTINUOUS
 62
     7
 10
4617.3954676206
 20
3199.3534151202
 30
0.0
  0
VERTEX
  5
69C
  8
0
  6
CONTINUOUS
 62
     7
 10
4617.6373879726
 20
3200.9277675038
 30
0.0
  0
VERTEX
  5
69D
  8
0
  6
CONTINUOUS
 62
     7
 10
4617.8658078725
 20
3202.4043384677
 30
0.0
  0
VERTEX
  5
69E
  8
0
  6
CONTINUOUS
 62
     7
 10
4618.0744241292
 20
3203.7424925452
 30
0.0
  0
VERTEX
  5
69F
  8
0
  6
CONTINUOUS
 62
     7
 10
4618.2574997956
 20
3204.9053791648
 30
0.0
  0
VERTEX
  5
6A0
  8
0
  6
CONTINUOUS
 62
     7
 10
4618.4099982793
 20
3205.860975731
 30
0.0
  0
VERTEX
  5
6A1
  8
0
  6
CONTINUOUS
 62
     7
 10
4618.5277323539
 20
3206.5830114966
 30
0.0
  0
VERTEX
  5
6A2
  8
0
  6
CONTINUOUS
 62
     7
 10
4618.6074386651
 20
3207.0515785104
 30
0.0
  0
SEQEND
  5
6E3
  8
0
  6
CONTINUOUS
 62
     7
  0
ARC
  5
4AB
  8
0
  6
CONTINUOUS
 62
     7
 10
4632.9110164647
 20
3309.3639936946
 30
0.0
 40
112.7469069421787
 50
261.9625431616
 51
270.5809110839
  0
POLYLINE
  5
4AC
  8
0
  6
CONTINUOUS
 62
     7
 66
     1
 10
0.0
 20
0.0
 30
0.0
  0
VERTEX
  5
6A3
  8
0
  6
CONTINUOUS
 62
     7
 10
4720.7821975763
 20
3207.6648805028
 30
0.0
  0
VERTEX
  5
6A4
  8
0
  6
CONTINUOUS
 62
     7
 10
4720.4713295514
 20
3207.0892784482
 30
0.0
  0
VERTEX
  5
6A5
  8
0
  6
CONTINUOUS
 62
     7
 10
4720.2163706834
 20
3206.3080701714
 30
0.0
  0
VERTEX
  5
6A6
  8
0
  6
CONTINUOUS
 62
     7
 10
4720.0232516343
 20
3205.339420188
 30
0.0
  0
VERTEX
  5
6A7
  8
0
  6
CONTINUOUS
 62
     7
 10
4719.8964725549
 20
3204.2058441525
 30
0.0
  0
VERTEX
  5
6A8
  8
0
  6
CONTINUOUS
 62
     7
 10
4719.838983875
 20
3202.9337022191
 30
0.0
  0
VERTEX
  5
6A9
  8
0
  6
CONTINUOUS
 62
     7
 10
4719.8521266992
 20
3201.5525433904
 30
0.0
  0
VERTEX
  5
6AA
  8
0
  6
CONTINUOUS
 62
     7
 10
4719.9355732019
 20
3200.0944945699
 30
0.0
  0
VERTEX
  5
6AB
  8
0
  6
CONTINUOUS
 62
     7
 10
4720.0874160344
 20
3198.5934409982
 30
0.0
  0
SEQEND
  5
6E2
  8
0
  6
CONTINUOUS
 62
     7
  0
LINE
  5
4AD
  8
0
  6
CONTINUOUS
 62
     7
 10
4720.0874160344
 20
3198.5934409982
 30
0.0
 11
4717.1467016751
 21
3197.7246138936
 31
0.0
  0
POLYLINE
  5
4AE
  8
0
  6
CONTINUOUS
 62
     7
 66
     1
 10
0.0
 20
0.0
 30
0.0
  0
VERTEX
  5
6AC
  8
0
  6
CONTINUOUS
 62
     7
 10
4614.2059783752
 20
3198.5934409982
 30
0.0
  0
VERTEX
  5
6AD
  8
0
  6
CONTINUOUS
 62
     7
 10
4614.3578063066
 20
3200.0944945699
 30
0.0
  0
VERTEX
  5
6AE
  8
0
  6
CONTINUOUS
 62
     7
 10
4614.4412677104
 20
3201.5525433904
 30
0.0
  0
VERTEX
  5
6AF
  8
0
  6
CONTINUOUS
 62
     7
 10
4614.4544105346
 20
3202.9337022191
 30
0.0
  0
VERTEX
  5
6B0
  8
0
  6
CONTINUOUS
 62
     7
 10
4614.3969218547
 20
3204.2058441525
 30
0.0
  0
VERTEX
  5
6B1
  8
0
  6
CONTINUOUS
 62
     7
 10
4614.2701427753
 20
3205.339420188
 30
0.0
  0
VERTEX
  5
6B2
  8
0
  6
CONTINUOUS
 62
     7
 10
4614.0770386274
 20
3206.3080701714
 30
0.0
  0
VERTEX
  5
6B3
  8
0
  6
CONTINUOUS
 62
     7
 10
4613.8220797593
 20
3207.0892784482
 30
0.0
  0
VERTEX
  5
6B4
  8
0
  6
CONTINUOUS
 62
     7
 10
4613.5111968333
 20
3207.6648805028
 30
0.0
  0
SEQEND
  5
6E1
  8
0
  6
CONTINUOUS
 62
     7
  0
LINE
  5
4AF
  8
0
  6
CONTINUOUS
 62
     7
 10
4617.1466927344
 20
3197.7246138936
 30
0.0
 11
4614.2059783752
 21
3198.5934409982
 31
0.0
  0
POLYLINE
  5
4B0
  8
0
  6
CONTINUOUS
 62
     7
 66
     1
 10
0.0
 20
0.0
 30
0.0
  0
VERTEX
  5
6B5
  8
0
  6
CONTINUOUS
 62
     7
 10
4612.170196634
 20
3207.7760580664
 30
0.0
  0
VERTEX
  5
6B6
  8
0
  6
CONTINUOUS
 62
     7
 10
4612.572781306
 20
3207.1746024972
 30
0.0
  0
VERTEX
  5
6B7
  8
0
  6
CONTINUOUS
 62
     7
 10
4612.9205297048
 20
3206.379118908
 30
0.0
  0
VERTEX
  5
6B8
  8
0
  6
CONTINUOUS
 62
     7
 10
4613.2057230289
 20
3205.4071906691
 30
0.0
  0
VERTEX
  5
6B9
  8
0
  6
CONTINUOUS
 62
     7
 10
4613.4220580871
 20
3204.2803797608
 30
0.0
  0
VERTEX
  5
6BA
  8
0
  6
CONTINUOUS
 62
     7
 10
4613.5647367055
 20
3203.0236009246
 30
0.0
  0
VERTEX
  5
6BB
  8
0
  6
CONTINUOUS
 62
     7
 10
4613.630599838
 20
3201.664734233
 30
0.0
  0
VERTEX
  5
6BC
  8
0
  6
CONTINUOUS
 62
     7
 10
4613.6181871707
 20
3200.2338502293
 30
0.0
  0
VERTEX
  5
6BD
  8
0
  6
CONTINUOUS
 62
     7
 10
4613.5277818258
 20
3198.7626585847
 30
0.0
  0
SEQEND
  5
6E0
  8
0
  6
CONTINUOUS
 62
     7
  0
LINE
  5
4B1
  8
0
  6
CONTINUOUS
 62
     7
 10
4614.2059783752
 20
3198.5934409982
 30
0.0
 11
4613.5277818258
 21
3198.7626585847
 31
0.0
  0
POLYLINE
  5
4B2
  8
0
  6
CONTINUOUS
 62
     7
 66
     1
 10
0.0
 20
0.0
 30
0.0
  0
VERTEX
  5
6BE
  8
0
  6
CONTINUOUS
 62
     7
 10
4720.765627485
 20
3198.7626585847
 30
0.0
  0
VERTEX
  5
6BF
  8
0
  6
CONTINUOUS
 62
     7
 10
4720.6752072389
 20
3200.2338502293
 30
0.0
  0
VERTEX
  5
6C0
  8
0
  6
CONTINUOUS
 62
     7
 10
4720.6628094728
 20
3201.664734233
 30
0.0
  0
VERTEX
  5
6C1
  8
0
  6
CONTINUOUS
 62
     7
 10
4720.7286726052
 20
3203.0236009246
 30
0.0
  0
VERTEX
  5
6C2
  8
0
  6
CONTINUOUS
 62
     7
 10
4720.8713363225
 20
3204.2803797608
 30
0.0
  0
VERTEX
  5
6C3
  8
0
  6
CONTINUOUS
 62
     7
 10
4721.0876713807
 20
3205.4071906691
 30
0.0
  0
VERTEX
  5
6C4
  8
0
  6
CONTINUOUS
 62
     7
 10
4721.372879606
 20
3206.379118908
 30
0.0
  0
VERTEX
  5
6C5
  8
0
  6
CONTINUOUS
 62
     7
 10
4721.7206131036
 20
3207.1746024972
 30
0.0
  0
VERTEX
  5
6C6
  8
0
  6
CONTINUOUS
 62
     7
 10
4722.1232126767
 20
3207.7760580664
 30
0.0
  0
SEQEND
  5
6DF
  8
0
  6
CONTINUOUS
 62
     7
  0
LINE
  5
4B3
  8
0
  6
CONTINUOUS
 62
     7
 10
4720.765627485
 20
3198.7626585847
 30
0.0
 11
4720.0874160344
 21
3198.5934409982
 31
0.0
  0
ARC
  5
4B4
  8
0
  6
CONTINUOUS
 62
     7
 10
4737.3829234188
 20
3198.1381745836
 30
0.0
 40
10.35488714629105
 50
111.4468766822
 51
176.5424999852
  0
ARC
  5
4B5
  8
0
  6
CONTINUOUS
 62
     7
 10
4723.9062558229
 20
3187.1789228328
 30
0.0
 40
12.0019365239655
 50
74.830419215
 51
105.169580785
  0
ARC
  5
4B6
  8
0
  6
CONTINUOUS
 62
     7
 10
4596.9104645015
 20
3198.1381465208
 30
0.0
 40
10.35491019024343
 50
3.4576478713
 51
68.5532234148
  0
ARC
  5
4B7
  8
0
  6
CONTINUOUS
 62
     7
 10
4610.3871534879
 20
3187.1805379371
 30
0.0
 40
12.00037770449048
 50
74.8284013435
 51
105.1715986565
  0
LINE
  5
4B8
  8
0
  6
CONTINUOUS
 62
     7
 10
4598.7077723558
 20
3207.0515785104
 30
0.0
 11
4600.0543306882
 21
3207.6648805028
 31
0.0
  0
POLYLINE
  5
4B9
  8
0
  6
CONTINUOUS
 62
     7
 66
     1
 10
0.0
 20
0.0
 30
0.0
  0
VERTEX
  5
6C7
  8
0
  6
CONTINUOUS
 62
     7
 10
4596.6866384561
 20
3206.2738869077
 30
0.0
  0
VERTEX
  5
6C8
  8
0
  6
CONTINUOUS
 62
     7
 10
4597.6654361303
 20
3206.4315560943
 30
0.0
  0
VERTEX
  5
6C9
  8
0
  6
CONTINUOUS
 62
     7
 10
4598.7077723558
 20
3207.0515785104
 30
0.0
  0
SEQEND
  5
6DE
  8
0
  6
CONTINUOUS
 62
     7
  0
LINE
  5
4BA
  8
0
  6
CONTINUOUS
 62
     7
 10
4589.3023680265
 20
3206.2738869077
 30
0.0
 11
4596.6866384561
 21
3206.2738869077
 31
0.0
  0
ARC
  5
4BB
  8
0
  6
CONTINUOUS
 62
     7
 10
4609.2572098871
 20
3226.258242554
 30
0.0
 40
20.74623093275903
 50
202.6349049192
 51
243.6666567532
  0
LINE
  5
4BC
  8
0
  6
CONTINUOUS
 62
     7
 10
4600.0543306882
 20
3207.6648805028
 30
0.0
 11
4600.696600538
 21
3207.7760580664
 31
0.0
  0
LINE
  5
4BD
  8
0
  6
CONTINUOUS
 62
     7
 10
4733.5967789704
 20
3207.7760580664
 30
0.0
 11
4734.2390786225
 21
3207.6648805028
 31
0.0
  0
ARC
  5
4BE
  8
0
  6
CONTINUOUS
 62
     7
 10
4725.035983627
 20
3226.258444852
 30
0.0
 40
20.74650796411927
 50
296.3336295397
 51
337.3648087879
  0
LINE
  5
4BF
  8
0
  6
CONTINUOUS
 62
     7
 10
4737.6067708547
 20
3206.2738869077
 30
0.0
 11
4744.9910412843
 21
3206.2738869077
 31
0.0
  0
POLYLINE
  5
4C0
  8
0
  6
CONTINUOUS
 62
     7
 66
     1
 10
0.0
 20
0.0
 30
0.0
  0
VERTEX
  5
6CA
  8
0
  6
CONTINUOUS
 62
     7
 10
4735.585636955
 20
3207.0515785104
 30
0.0
  0
VERTEX
  5
6CB
  8
0
  6
CONTINUOUS
 62
     7
 10
4736.6279731805
 20
3206.4315560943
 30
0.0
  0
VERTEX
  5
6CC
  8
0
  6
CONTINUOUS
 62
     7
 10
4737.6067708547
 20
3206.2738869077
 30
0.0
  0
SEQEND
  5
6DD
  8
0
  6
CONTINUOUS
 62
     7
  0
LINE
  5
4C1
  8
0
  6
CONTINUOUS
 62
     7
 10
4734.2390786225
 20
3207.6648805028
 30
0.0
 11
4735.585636955
 21
3207.0515785104
 31
0.0
  0
LINE
  5
4C2
  8
0
  6
CONTINUOUS
 62
     7
 10
4727.2629211957
 20
3198.5934409982
 30
0.0
 11
4727.0468841607
 21
3198.7626585847
 31
0.0
  0
LINE
  5
4C3
  8
0
  6
CONTINUOUS
 62
     7
 10
4727.6513348634
 20
3197.7246138936
 30
0.0
 11
4727.2629211957
 21
3198.5934409982
 31
0.0
  0
LINE
  5
4C4
  8
0
  6
CONTINUOUS
 62
     7
 10
4727.2863756234
 20
3187.2738931065
 30
0.0
 11
4727.6513348634
 21
3197.7246138936
 31
0.0
  0
LINE
  5
4C5
  8
0
  6
CONTINUOUS
 62
     7
 10
4726.729280811
 20
3187.2738931065
 30
0.0
 11
4727.2863756234
 21
3187.2738931065
 31
0.0
  0
LINE
  5
4C6
  8
0
  6
CONTINUOUS
 62
     7
 10
4717.1467016751
 20
3187.2738931065
 30
0.0
 11
4718.8239465768
 21
3187.2738931065
 31
0.0
  0
LINE
  5
4C7
  8
0
  6
CONTINUOUS
 62
     7
 10
4717.1467016751
 20
3197.7246138936
 30
0.0
 11
4717.1467016751
 21
3187.2738931065
 31
0.0
  0
LINE
  5
4C8
  8
0
  6
CONTINUOUS
 62
     7
 10
4617.1466927344
 20
3197.7246138936
 30
0.0
 11
4617.1466927344
 21
3187.2738931065
 31
0.0
  0
LINE
  5
4C9
  8
0
  6
CONTINUOUS
 62
     7
 10
4615.4694478328
 20
3187.2738931065
 30
0.0
 11
4617.1466927344
 21
3187.2738931065
 31
0.0
  0
LINE
  5
4CA
  8
0
  6
CONTINUOUS
 62
     7
 10
4607.0070187862
 20
3187.2738931065
 30
0.0
 11
4606.6420744474
 21
3197.7246138936
 31
0.0
  0
LINE
  5
4CB
  8
0
  6
CONTINUOUS
 62
     7
 10
4607.030488115
 20
3198.5934409982
 30
0.0
 11
4606.6420744474
 21
3197.7246138936
 31
0.0
  0
LINE
  5
4CC
  8
0
  6
CONTINUOUS
 62
     7
 10
4607.24652515
 20
3198.7626585847
 30
0.0
 11
4607.030488115
 21
3198.5934409982
 31
0.0
  0
LINE
  5
4CD
  8
0
  6
CONTINUOUS
 62
     7
 10
4617.1466927344
 20
3187.2738931065
 30
0.0
 11
4717.1467016751
 21
3187.2738931065
 31
0.0
  0
LINE
  5
4CE
  8
0
  6
CONTINUOUS
 62
     7
 10
4718.8239465768
 20
3187.2738931065
 30
0.0
 11
4726.729280811
 21
3187.2738931065
 31
0.0
  0
LINE
  5
4CF
  8
0
  6
CONTINUOUS
 62
     7
 10
4607.0027123506
 20
3187.2738931065
 30
0.0
 11
4607.0027123506
 21
3185.2738890534
 31
0.0
  0
LINE
  5
4D0
  8
0
  6
CONTINUOUS
 62
     7
 10
4607.0027123506
 20
3187.2738931065
 30
0.0
 11
4615.4694478328
 21
3187.2738931065
 31
0.0
  0
ARC
  5
4D1
  8
0
  6
CONTINUOUS
 62
     7
 10
4722.1466983373
 20
3185.2738906031
 30
0.0
 40
4.999999999999754
 50
0.0
 51
23.5781784823
  0
LINE
  5
4D2
  8
0
  6
CONTINUOUS
 62
     7
 10
4727.1466921384
 20
2854.783895958
 30
0.0
 11
4607.1467022712
 21
2854.783895958
 31
0.0
  0
LINE
  5
4D3
  8
0
  6
CONTINUOUS
 62
     7
 10
4607.1467022712
 20
2869.2738894111
 30
0.0
 11
4607.1467022712
 21
2854.783895958
 31
0.0
  0
LINE
  5
4D4
  8
0
  6
CONTINUOUS
 62
     7
 10
4727.1466921384
 20
2869.2738894111
 30
0.0
 11
4727.1466921384
 21
2854.783895958
 31
0.0
  0
ARC
  5
4D5
  8
0
  6
CONTINUOUS
 62
     7
 10
4596.7085192245
 20
3197.8737331318
 30
0.0
 40
10.34702958293507
 50
3.9885405569
 51
71.133777882
  0
ARC
  5
4D6
  8
0
  6
CONTINUOUS
 62
     7
 10
4737.5848717999
 20
3197.8737471945
 30
0.0
 40
10.34701036267864
 50
108.8661514788
 51
176.0115300823
  0
ARC
  5
4D7
  8
0
  6
CONTINUOUS
 62
     7
 10
4596.7401799429
 20
3197.3395032918
 30
0.0
 40
9.909380654404798
 50
2.2272603147
 51
78.5473194548
  0
ARC
  5
4D8
  8
0
  6
CONTINUOUS
 62
     7
 10
4737.5531458359
 20
3197.3395743512
 30
0.0
 40
9.909294424129271
 50
101.452288759
 51
177.7731314716
  0
ARC
  5
4D9
  8
0
  6
CONTINUOUS
 62
     7
 10
4596.6866328901
 20
3196.2738906032
 30
0.0
 40
10.00000000000045
 50
2.0
 51
90.0
  0
ARC
  5
4DA
  8
0
  6
CONTINUOUS
 62
     7
 10
4737.6067637829
 20
3196.2738906032
 30
0.0
 40
10.00000000000045
 50
90.0
 51
178.0000000011
  0
LINE
  5
4DB
  8
0
  6
CONTINUOUS
 62
     7
 10
4642.8698967511
 20
3532.2739068156
 30
0.0
 11
4712.1467064435
 21
3532.2739068156
 31
0.0
  0
LINE
  5
4DC
  8
0
  6
CONTINUOUS
 62
     7
 10
4649.5052795226
 20
3458.9338782912
 30
0.0
 11
4622.1467028672
 21
3458.9338782912
 31
0.0
  0
LINE
  5
4DD
  8
0
  6
CONTINUOUS
 62
     7
 10
4712.1467064435
 20
3458.9338782912
 30
0.0
 11
4649.5052795226
 21
3458.9338782912
 31
0.0
  0
LINE
  5
4DE
  8
0
  6
CONTINUOUS
 62
     7
 10
4645.8112518603
 20
3327.1681252604
 30
0.0
 11
4688.4821425492
 21
3327.1681252604
 31
0.0
  0
LINE
  5
4DF
  8
0
  6
CONTINUOUS
 62
     7
 10
4645.8112518603
 20
3336.7738906031
 30
0.0
 11
4688.4821425492
 21
3336.7738906031
 31
0.0
  0
ARC
  5
4E0
  8
0
  6
CONTINUOUS
 62
     7
 10
4458.1466983373
 20
3027.2738906031
 30
0.0
 40
207.5000000000002
 50
126.0117965492
 51
233.9882034508
  0
LINE
  5
4E1
  8
0
  6
CONTINUOUS
 62
     7
 10
4068.1467126424
 20
2173.8585415965
 30
0.0
 11
4068.1467126424
 21
3874.6892396098
 31
0.0
  0
LINE
  5
4E2
  8
0
  6
CONTINUOUS
 62
     7
 10
4068.1467126424
 20
3874.6892396098
 30
0.0
 11
4112.146712404
 21
3874.6892396098
 31
0.0
  0
LINE
  5
4E3
  8
0
  6
CONTINUOUS
 62
     7
 10
4112.146712404
 20
3039.2738902679
 30
0.0
 11
4112.146712404
 21
3874.6892396098
 31
0.0
  0
LINE
  5
4E4
  8
0
  6
CONTINUOUS
 62
     7
 10
4112.146712404
 20
2173.8585415965
 30
0.0
 11
4112.146712404
 21
3009.2738909384
 31
0.0
  0
LINE
  5
4E5
  8
0
  6
CONTINUOUS
 62
     7
 10
4068.1467126424
 20
2173.8585415965
 30
0.0
 11
4112.146712404
 21
2173.8585415965
 31
0.0
  0
LINE
  5
4E6
  8
0
  6
CONTINUOUS
 62
     7
 10
4251.428894263
 20
3009.2738909384
 30
0.0
 11
4112.146712404
 21
3009.2738909384
 31
0.0
  0
LINE
  5
4E7
  8
0
  6
CONTINUOUS
 62
     7
 10
4250.9939740712
 20
3039.2738902679
 30
0.0
 11
4112.146712404
 21
3039.2738902679
 31
0.0
  0
LINE
  5
4E8
  8
0
  6
CONTINUOUS
 62
     7
 10
4804.1466842706
 20
2173.8585415965
 30
0.0
 11
4804.1466842706
 21
3009.2738909384
 31
0.0
  0
LINE
  5
4E9
  8
0
  6
CONTINUOUS
 62
     7
 10
4804.1466842706
 20
3039.2738902679
 30
0.0
 11
4804.1466842706
 21
3539.51181804
 31
0.0
  0
LINE
  5
4EA
  8
0
  6
CONTINUOUS
 62
     7
 10
4804.1466842706
 20
3556.3134137278
 30
0.0
 11
4804.1466842706
 21
3590.2738753444
 31
0.0
  0
LINE
  5
4EB
  8
0
  6
CONTINUOUS
 62
     7
 10
4804.1466842706
 20
3615.2739111071
 30
0.0
 11
4804.1466842706
 21
3874.6892396098
 31
0.0
  0
LINE
  5
4EC
  8
0
  6
CONTINUOUS
 62
     7
 10
4804.1466842706
 20
3874.6892396098
 30
0.0
 11
4848.1466840322
 21
3874.6892396098
 31
0.0
  0
LINE
  5
4ED
  8
0
  6
CONTINUOUS
 62
     7
 10
4848.1466840322
 20
2173.8585415965
 30
0.0
 11
4848.1466840322
 21
3553.6130252963
 31
0.0
  0
LINE
  5
4EE
  8
0
  6
CONTINUOUS
 62
     7
 10
4848.1466840322
 20
3570.4146209842
 30
0.0
 11
4848.1466840322
 21
3590.2738753444
 31
0.0
  0
LINE
  5
4EF
  8
0
  6
CONTINUOUS
 62
     7
 10
4848.1466840322
 20
3615.2739111071
 30
0.0
 11
4848.1466840322
 21
3874.6892396098
 31
0.0
  0
LINE
  5
4F0
  8
0
  6
CONTINUOUS
 62
     7
 10
4804.1466842706
 20
2173.8585415965
 30
0.0
 11
4848.1466840322
 21
2173.8585415965
 31
0.0
  0
LINE
  5
4F1
  8
0
  6
CONTINUOUS
 62
     7
 10
4731.1467002446
 20
3009.2738909384
 30
0.0
 11
4804.1466842706
 21
3009.2738909384
 31
0.0
  0
LINE
  5
4F2
  8
0
  6
CONTINUOUS
 62
     7
 10
4731.1467002446
 20
3039.2738902679
 30
0.0
 11
4804.1466842706
 21
3039.2738902679
 31
0.0
  0
LINE
  5
4F3
  8
0
  6
CONTINUOUS
 62
     7
 10
4063.1466876085
 20
3024.2738906031
 30
0.0
 11
4063.1466876085
 21
3899.2738906031
 31
0.0
  0
LINE
  5
4F4
  8
0
  6
CONTINUOUS
 62
     7
 10
4063.1466876085
 20
2149.2738906031
 30
0.0
 11
4063.1466876085
 21
3024.2738906031
 31
0.0
  0
LINE
  5
4F5
  8
0
  6
CONTINUOUS
 62
     7
 10
4853.1467090661
 20
3024.2738906031
 30
0.0
 11
4853.1467090661
 21
3555.2154365664
 31
0.0
  0
LINE
  5
4F6
  8
0
  6
CONTINUOUS
 62
     7
 10
4853.1467090661
 20
3572.0170322543
 30
0.0
 11
4853.1467090661
 21
3590.2738753444
 31
0.0
  0
LINE
  5
4F7
  8
0
  6
CONTINUOUS
 62
     7
 10
4853.1467090661
 20
3615.2739111071
 30
0.0
 11
4853.1467090661
 21
3899.2738906031
 31
0.0
  0
LINE
  5
4F8
  8
0
  6
CONTINUOUS
 62
     7
 10
4853.1467090661
 20
2149.2738906031
 30
0.0
 11
4853.1467090661
 21
3024.2738906031
 31
0.0
  0
POLYLINE
  5
4F9
  8
0
  6
CONTINUOUS
 62
     7
 66
     1
 10
0.0
 20
0.0
 30
0.0
  0
VERTEX
  5
6CD
  8
0
  6
CONTINUOUS
 62
     7
 10
4140.9952114637
 20
3861.6395774966
 30
0.0
  0
VERTEX
  5
6CE
  8
0
  6
CONTINUOUS
 62
     7
 10
4136.1019681508
 20
3863.4208027011
 30
0.0
  0
VERTEX
  5
6CF
  8
0
  6
CONTINUOUS
 62
     7
 10
4112.146712404
 20
3872.1412006503
 30
0.0
  0
SEQEND
  5
6DC
  8
0
  6
CONTINUOUS
 62
     7
  0
LINE
  5
4FA
  8
0
  6
CONTINUOUS
 62
     7
 10
4140.9952114637
 20
3039.2738902679
 30
0.0
 11
4140.9952114637
 21
3861.6395774966
 31
0.0
  0
LINE
  5
4FB
  8
0
  6
CONTINUOUS
 62
     7
 10
4140.9952114637
 20
2186.9082037097
 30
0.0
 11
4140.9952114637
 21
3009.2738909384
 31
0.0
  0
POLYLINE
  5
4FC
  8
0
  6
CONTINUOUS
 62
     7
 66
     1
 10
0.0
 20
0.0
 30
0.0
  0
VERTEX
  5
6D0
  8
0
  6
CONTINUOUS
 62
     7
 10
4140.9952114637
 20
2186.9082037097
 30
0.0
  0
VERTEX
  5
6D1
  8
0
  6
CONTINUOUS
 62
     7
 10
4136.1019681508
 20
2185.1269785052
 30
0.0
  0
VERTEX
  5
6D2
  8
0
  6
CONTINUOUS
 62
     7
 10
4112.146712404
 20
2176.406580556
 30
0.0
  0
SEQEND
  5
6DB
  8
0
  6
CONTINUOUS
 62
     7
  0
LINE
  5
4FD
  8
0
  6
CONTINUOUS
 62
     7
 10
4775.2981852109
 20
3039.2738902679
 30
0.0
 11
4775.2981852109
 21
3234.7674254065
 31
0.0
  0
LINE
  5
4FE
  8
0
  6
CONTINUOUS
 62
     7
 10
4775.2981852109
 20
3305.2250627166
 30
0.0
 11
4775.2981852109
 21
3530.2664223796
 31
0.0
  0
LINE
  5
4FF
  8
0
  6
CONTINUOUS
 62
     7
 10
4775.2981852109
 20
3547.0680180674
 30
0.0
 11
4775.2981852109
 21
3575.3322425967
 31
0.0
  0
LINE
  5
500
  8
0
  6
CONTINUOUS
 62
     7
 10
4775.2981852109
 20
3615.2739111071
 30
0.0
 11
4775.2981852109
 21
3861.6395774966
 31
0.0
  0
POLYLINE
  5
501
  8
0
  6
CONTINUOUS
 62
     7
 66
     1
 10
0.0
 20
0.0
 30
0.0
  0
VERTEX
  5
6D3
  8
0
  6
CONTINUOUS
 62
     7
 10
4804.1466842706
 20
3872.1412006503
 30
0.0
  0
VERTEX
  5
6D4
  8
0
  6
CONTINUOUS
 62
     7
 10
4799.2961178834
 20
3870.3754726535
 30
0.0
  0
VERTEX
  5
6D5
  8
0
  6
CONTINUOUS
 62
     7
 10
4775.2981852109
 20
3861.6395774966
 30
0.0
  0
SEQEND
  5
6DA
  8
0
  6
CONTINUOUS
 62
     7
  0
POLYLINE
  5
502
  8
0
  6
CONTINUOUS
 62
     7
 66
     1
 10
0.0
 20
0.0
 30
0.0
  0
VERTEX
  5
6D6
  8
0
  6
CONTINUOUS
 62
     7
 10
4804.1466842706
 20
2176.406580556
 30
0.0
  0
VERTEX
  5
6D7
  8
0
  6
CONTINUOUS
 62
     7
 10
4799.2961178834
 20
2178.1723085528
 30
0.0
  0
VERTEX
  5
6D8
  8
0
  6
CONTINUOUS
 62
     7
 10
4775.2981852109
 20
2186.9082037097
 30
0.0
  0
SEQEND
  5
6D9
  8
0
  6
CONTINUOUS
 62
     7
  0
LINE
  5
503
  8
0
  6
CONTINUOUS
 62
     7
 10
4775.2981852109
 20
2186.9082037097
 30
0.0
 11
4775.2981852109
 21
3009.2738909384
 31
0.0
  0
LINE
  5
504
  8
0
  6
CONTINUOUS
 62
     7
 10
4140.9952114637
 20
3861.6395774966
 30
0.0
 11
4775.2981852109
 21
3861.6395774966
 31
0.0
  0
LINE
  5
505
  8
0
  6
CONTINUOUS
 62
     7
 10
4140.9952114637
 20
2186.9082037097
 30
0.0
 11
4775.2981852109
 21
2186.9082037097
 31
0.0
  0
LINE
  5
506
  8
0
  6
CONTINUOUS
 62
     7
 10
4068.1467126424
 20
2066.7739096766
 30
0.0
 11
4112.146712404
 21
2066.7739096766
 31
0.0
  0
LINE
  5
507
  8
0
  6
CONTINUOUS
 62
     7
 10
4112.146712404
 20
2173.8585415965
 30
0.0
 11
4112.146712404
 21
2066.7739096766
 31
0.0
  0
LINE
  5
508
  8
0
  6
CONTINUOUS
 62
     7
 10
4068.1467126424
 20
2173.8585415965
 30
0.0
 11
4068.1467126424
 21
2066.7739096766
 31
0.0
  0
LINE
  5
509
  8
0
  6
CONTINUOUS
 62
     7
 10
4068.1467126424
 20
3981.7738715297
 30
0.0
 11
4112.146712404
 21
3981.7738715297
 31
0.0
  0
LINE
  5
50A
  8
0
  6
CONTINUOUS
 62
     7
 10
4112.146712404
 20
3874.6892396098
 30
0.0
 11
4112.146712404
 21
3981.7738715297
 31
0.0
  0
LINE
  5
50B
  8
0
  6
CONTINUOUS
 62
     7
 10
4068.1467126424
 20
3874.6892396098
 30
0.0
 11
4068.1467126424
 21
3981.7738715297
 31
0.0
  0
LINE
  5
50C
  8
0
  6
CONTINUOUS
 62
     7
 10
4804.1466842706
 20
3981.7738715297
 30
0.0
 11
4848.1466840322
 21
3981.7738715297
 31
0.0
  0
LINE
  5
50D
  8
0
  6
CONTINUOUS
 62
     7
 10
4804.1466842706
 20
3874.6892396098
 30
0.0
 11
4804.1466842706
 21
3981.7738715297
 31
0.0
  0
LINE
  5
50E
  8
0
  6
CONTINUOUS
 62
     7
 10
4848.1466840322
 20
3874.6892396098
 30
0.0
 11
4848.1466840322
 21
3981.7738715297
 31
0.0
  0
LINE
  5
50F
  8
0
  6
CONTINUOUS
 62
     7
 10
4804.1466842706
 20
2066.7739096766
 30
0.0
 11
4848.1466840322
 21
2066.7739096766
 31
0.0
  0
LINE
  5
510
  8
0
  6
CONTINUOUS
 62
     7
 10
4804.1466842706
 20
2173.8585415965
 30
0.0
 11
4804.1466842706
 21
2066.7739096766
 31
0.0
  0
LINE
  5
511
  8
0
  6
CONTINUOUS
 62
     7
 10
4848.1466840322
 20
2173.8585415965
 30
0.0
 11
4848.1466840322
 21
2066.7739096766
 31
0.0
  0
CIRCLE
  5
512
  8
0
  6
CONTINUOUS
 62
     7
 10
4218.1466983373
 20
2143.7738906031
 30
0.0
 40
25.0
  0
LINE
  5
513
  8
0
  6
CONTINUOUS
 62
     7
 10
4112.146712404
 20
2083.7738696223
 30
0.0
 11
4804.1466842706
 21
2083.7738696223
 31
0.0
  0
CIRCLE
  5
514
  8
0
  6
CONTINUOUS
 62
     7
 10
4698.1466983373
 20
2143.7738906031
 30
0.0
 40
25.00000000000091
  0
LINE
  5
515
  8
0
  6
CONTINUOUS
 62
     7
 10
4112.146712404
 20
3964.773911584
 30
0.0
 11
4804.1466842706
 21
3964.773911584
 31
0.0
  0
CIRCLE
  5
516
  8
0
  6
CONTINUOUS
 62
     7
 10
4698.1466983373
 20
3904.7738906031
 30
0.0
 40
24.99999999999909
  0
CIRCLE
  5
517
  8
0
  6
CONTINUOUS
 62
     7
 10
4218.1466983373
 20
3904.7738906031
 30
0.0
 40
25.0
  0
LINE
  5
518
  8
0
  6
CONTINUOUS
 62
     7
 10
4787.9237900788
 20
3262.2541222459
 30
0.0
 11
4546.3696192319
 21
3262.2541222459
 31
0.0
  0
LINE
  5
519
  8
0
  6
CONTINUOUS
 62
     7
 10
4784.7230206544
 20
3251.091707099
 30
0.0
 11
4549.5703886563
 21
3251.091707099
 31
0.0
  0
LINE
  5
51A
  8
0
  6
CONTINUOUS
 62
     7
 10
4765.7756279523
 20
3218.2738963252
 30
0.0
 11
4744.1844712312
 21
3218.2738963252
 31
0.0
  0
LINE
  5
51B
  8
0
  6
CONTINUOUS
 62
     7
 10
4590.1089380796
 20
3218.2738963252
 30
0.0
 11
4568.5177590067
 21
3218.2738963252
 31
0.0
  0
LINE
  5
51C
  8
0
  6
CONTINUOUS
 62
     7
 10
4557.7013562734
 20
3305.0201121455
 30
0.0
 11
4776.5920530374
 21
3305.0201121455
 31
0.0
  0
LINE
  5
51D
  8
0
  6
CONTINUOUS
 62
     7
 10
4696.9116996343
 20
3317.6402631884
 30
0.0
 11
4637.3816947753
 21
3317.6402631884
 31
0.0
  0
INSERT
  5
529
  8
FORMAT
  2
SW_CENTERMARKSYMBOL_42
 10
4458.1466983373
 20
3027.2738906031
 30
0.0
  0
INSERT
  5
535
  8
FORMAT
  2
SW_CENTERMARKSYMBOL_43
 10
4698.1466983373
 20
3904.7738906031
 30
0.0
  0
INSERT
  5
541
  8
FORMAT
  2
SW_CENTERMARKSYMBOL_44
 10
4218.1466983373
 20
3904.7738906031
 30
0.0
  0
INSERT
  5
54D
  8
FORMAT
  2
SW_CENTERMARKSYMBOL_45
 10
4698.1466983373
 20
2143.7738906031
 30
0.0
  0
INSERT
  5
559
  8
FORMAT
  2
SW_CENTERMARKSYMBOL_46
 10
4218.1466983373
 20
2143.7738906031
 30
0.0
  0
ENDSEC
  0
EOF
