  0
SECTION
  2
HEADER
  9
$ACADVER
  1
AC1015
  9
$ACADMAINTVER
 70
     6
  9
$DWGCODEPAGE
  3
ANSI_1252
  9
$INSBASE
 10
0.0
 20
0.0
 30
0.0
  9
$EXTMIN
 10
0.0
 20
0.0
 30
0.0
  9
$EXTMAX
 10
841.0
 20
594.0
 30
0.0
  9
$LIMMIN
 10
0.0
 20
0.0
  9
$LIMMAX
 10
841.0
 20
594.0
  9
$ORTHOMODE
 70
     0
  9
$REGENMODE
 70
     1
  9
$FILLMODE
 70
     1
  9
$QTEXTMODE
 70
     0
  9
$MIRRTEXT
 70
     1
  9
$LTSCALE
 40
1.0
  9
$ATTMODE
 70
     1
  9
$TEXTSIZE
 40
2.5
  9
$TRACEWID
 40
1.0
  9
$TEXTSTYLE
  7
Standard
  9
$CLAYER
  8
0
  9
$CELTYPE
  6
ByLayer
  9
$CECOLOR
 62
   256
  9
$CELTSCALE
 40
1.0
  9
$DISPSILH
 70
     0
  9
$DIMSCALE
 40
1.0
  9
$DIMASZ
 40
2.5
  9
$DIMEXO
 40
1.0
  9
$DIMDLI
 40
3.75
  9
$DIMRND
 40
0.0
  9
$DIMDLE
 40
0.0
  9
$DIMEXE
 40
1.0
  9
$DIMTP
 40
0.0
  9
$DIMTM
 40
0.0
  9
$DIMTXT
 40
2.5
  9
$DIMCEN
 40
2.5
  9
$DIMTSZ
 40
0.0
  9
$DIMTOL
 70
     0
  9
$DIMLIM
 70
     0
  9
$DIMTIH
 70
     1
  9
$DIMTOH
 70
     1
  9
$DIMSE1
 70
     0
  9
$DIMSE2
 70
     0
  9
$DIMTAD
 70
     1
  9
$DIMZIN
 70
     0
  9
$DIMBLK
  1

  9
$DIMASO
 70
     1
  9
$DIMSHO
 70
     1
  9
$DIMPOST
  1

  9
$DIMAPOST
  1

  9
$DIMALT
 70
     0
  9
$DIMALTD
 70
     3
  9
$DIMALTF
 40
0.0393700787
  9
$DIMLFAC
 40
1.0
  9
$DIMTOFL
 70
     1
  9
$DIMTVP
 40
0.0
  9
$DIMTIX
 70
     0
  9
$DIMSOXD
 70
     0
  9
$DIMSAH
 70
     0
  9
$DIMBLK1
  1

  9
$DIMBLK2
  1

  9
$DIMSTYLE
  2
ISO-25
  9
$DIMCLRD
 70
     0
  9
$DIMCLRE
 70
     0
  9
$DIMCLRT
 70
     0
  9
$DIMTFAC
 40
1.0
  9
$DIMGAP
 40
1.524
  9
$DIMJUST
 70
     0
  9
$DIMSD1
 70
     0
  9
$DIMSD2
 70
     0
  9
$DIMTOLJ
 70
     0
  9
$DIMTZIN
 70
     0
  9
$DIMALTZ
 70
     0
  9
$DIMALTTZ
 70
     0
  9
$DIMUPT
 70
     0
  9
$DIMDEC
 70
     2
  9
$DIMTDEC
 70
     2
  9
$DIMALTU
 70
     2
  9
$DIMALTTD
 70
     3
  9
$DIMTXSTY
  7
Standard
  9
$DIMAUNIT
 70
     0
  9
$DIMADEC
 70
     2
  9
$DIMALTRND
 40
0.0
  9
$DIMAZIN
 70
     0
  9
$DIMDSEP
 70
    44
  9
$DIMATFIT
 70
     3
  9
$DIMFRAC
 70
     0
  9
$DIMLDRBLK
  1

  9
$DIMLUNIT
 70
     2
  9
$DIMLWD
 70
    -2
  9
$DIMLWE
 70
    -2
  9
$DIMTMOVE
 70
     0
  9
$LUNITS
 70
     2
  9
$LUPREC
 70
     2
  9
$SKETCHINC
 40
1.0
  9
$FILLETRAD
 40
10.0
  9
$AUNITS
 70
     0
  9
$AUPREC
 70
     2
  9
$MENU
  1
.
  9
$ELEVATION
 40
0.0
  9
$PELEVATION
 40
0.0
  9
$THICKNESS
 40
0.0
  9
$LIMCHECK
 70
     0
  9
$CHAMFERA
 40
10.0
  9
$CHAMFERB
 40
10.0
  9
$CHAMFERC
 40
20.0
  9
$CHAMFERD
 40
0.0
  9
$SKPOLY
 70
     0
  9
$TDCREATE
 40
2457457.487404213
  9
$TDUCREATE
 40
2457457.445737546
  9
$TDUPDATE
 40
2457457.487405116
  9
$TDUUPDATE
 40
2457457.445738449
  9
$TDINDWG
 40
0.0000000116
  9
$TDUSRTIMER
 40
0.0000000116
  9
$USRTIMER
 70
     1
  9
$ANGBASE
 50
0.0
  9
$ANGDIR
 70
     0
  9
$PDMODE
 70
     0
  9
$PDSIZE
 40
-1.0
  9
$PLINEWID
 40
0.0
  9
$SPLFRAME
 70
     0
  9
$SPLINETYPE
 70
     6
  9
$SPLINESEGS
 70
     8
  9
$HANDSEED
  5
39F
  9
$SURFTAB1
 70
     6
  9
$SURFTAB2
 70
     6
  9
$SURFTYPE
 70
     6
  9
$SURFU
 70
     6
  9
$SURFV
 70
     6
  9
$UCSBASE
  2

  9
$UCSNAME
  2

  9
$UCSORG
 10
0.0
 20
0.0
 30
0.0
  9
$UCSXDIR
 10
1.0
 20
0.0
 30
0.0
  9
$UCSYDIR
 10
0.0
 20
1.0
 30
0.0
  9
$UCSORTHOREF
  2

  9
$UCSORTHOVIEW
 70
     0
  9
$UCSORGTOP
 10
0.0
 20
0.0
 30
0.0
  9
$UCSORGBOTTOM
 10
0.0
 20
0.0
 30
0.0
  9
$UCSORGLEFT
 10
0.0
 20
0.0
 30
0.0
  9
$UCSORGRIGHT
 10
0.0
 20
0.0
 30
0.0
  9
$UCSORGFRONT
 10
0.0
 20
0.0
 30
0.0
  9
$UCSORGBACK
 10
0.0
 20
0.0
 30
0.0
  9
$PUCSBASE
  2

  9
$PUCSNAME
  2

  9
$PUCSORG
 10
0.0
 20
0.0
 30
0.0
  9
$PUCSXDIR
 10
1.0
 20
0.0
 30
0.0
  9
$PUCSYDIR
 10
0.0
 20
1.0
 30
0.0
  9
$PUCSORTHOREF
  2

  9
$PUCSORTHOVIEW
 70
     0
  9
$PUCSORGTOP
 10
0.0
 20
0.0
 30
0.0
  9
$PUCSORGBOTTOM
 10
0.0
 20
0.0
 30
0.0
  9
$PUCSORGLEFT
 10
0.0
 20
0.0
 30
0.0
  9
$PUCSORGRIGHT
 10
0.0
 20
0.0
 30
0.0
  9
$PUCSORGFRONT
 10
0.0
 20
0.0
 30
0.0
  9
$PUCSORGBACK
 10
0.0
 20
0.0
 30
0.0
  9
$USERI1
 70
     0
  9
$USERI2
 70
     0
  9
$USERI3
 70
     0
  9
$USERI4
 70
     0
  9
$USERI5
 70
     0
  9
$USERR1
 40
0.0
  9
$USERR2
 40
0.0
  9
$USERR3
 40
0.0
  9
$USERR4
 40
0.0
  9
$USERR5
 40
0.0
  9
$WORLDVIEW
 70
     1
  9
$SHADEDGE
 70
     3
  9
$SHADEDIF
 70
    70
  9
$TILEMODE
 70
     1
  9
$MAXACTVP
 70
    64
  9
$PINSBASE
 10
0.0
 20
0.0
 30
0.0
  9
$PLIMCHECK
 70
     0
  9
$PEXTMIN
 10
1.0000000000E+20
 20
1.0000000000E+20
 30
1.0000000000E+20
  9
$PEXTMAX
 10
-1.0000000000E+20
 20
-1.0000000000E+20
 30
-1.0000000000E+20
  9
$PLIMMIN
 10
0.0
 20
0.0
  9
$PLIMMAX
 10
420.0
 20
297.0
  9
$UNITMODE
 70
     0
  9
$VISRETAIN
 70
     1
  9
$PLINEGEN
 70
     0
  9
$PSLTSCALE
 70
     1
  9
$TREEDEPTH
 70
  3020
  9
$CMLSTYLE
  2
Standard
  9
$CMLJUST
 70
     0
  9
$CMLSCALE
 40
20.0
  9
$PROXYGRAPHICS
 70
     1
  9
$MEASUREMENT
 70
     1
  9
$CELWEIGHT
370
    -1
  9
$ENDCAPS
280
     0
  9
$JOINSTYLE
280
     0
  9
$LWDISPLAY
290
     1
  9
$INSUNITS
 70
     4
  9
$HYPERLINKBASE
  1

  9
$STYLESHEET
  1

  9
$XEDIT
290
     1
  9
$CEPSNTYPE
380
     0
  9
$PSTYLEMODE
290
     1
  9
$FINGERPRINTGUID
  2
{A13A79BF-B6F8-4D0A-9711-6D485050CBA1}
  9
$VERSIONGUID
  2
{FAEB1C32-E019-11D5-929B-00C0DF256EC4}
  9
$EXTNAMES
290
     1
  9
$PSVPSCALE
 40
0.0
  9
$OLESTARTUP
290
     0
  0
ENDSEC
  0
SECTION
  2
CLASSES
  0
CLASS
  1
ACDBDICTIONARYWDFLT
  2
AcDbDictionaryWithDefault
  3
ObjectDBX Classes
 90
        0
280
     0
281
     0
  0
CLASS
  1
VISUALSTYLE
  2
AcDbVisualStyle
  3
ObjectDBX Classes
 90
     4095
280
     0
281
     0
  0
CLASS
  1
MATERIAL
  2
AcDbMaterial
  3
ObjectDBX Classes
 90
     1153
280
     0
281
     0
  0
CLASS
  1
ACDBPLACEHOLDER
  2
AcDbPlaceHolder
  3
ObjectDBX Classes
 90
        0
280
     0
281
     0
  0
CLASS
  1
LAYOUT
  2
AcDbLayout
  3
ObjectDBX Classes
 90
        0
280
     0
281
     0
  0
ENDSEC
  0
SECTION
  2
TABLES
  0
TABLE
  2
VPORT
  5
8
330
0
100
AcDbSymbolTable
 70
     1
  0
VPORT
  5
29
330
8
100
AcDbSymbolTableRecord
100
AcDbViewportTableRecord
  2
*Active
 70
     0
 10
0.0
 20
0.0
 11
1.0
 21
1.0
 12
420.5
 22
297.0
 13
0.0
 23
0.0
 14
10.0
 24
10.0
 15
10.0
 25
10.0
 16
0.0
 26
0.0
 36
1.0
 17
0.0
 27
0.0
 37
0.0
 40
594.0
 41
1.4158249158
 42
50.0
 43
0.0
 44
0.0
 50
0.0
 51
0.0
 71
     0
 72
  2000
 73
     1
 74
     3
 75
     0
 76
     0
 77
     0
 78
     0
281
     0
 65
     1
110
0.0
120
0.0
130
0.0
111
1.0
121
0.0
131
0.0
112
0.0
122
1.0
132
0.0
 79
     0
146
0.0
  0
ENDTAB
  0
TABLE
  2
LTYPE
  5
5
330
0
100
AcDbSymbolTable
 70
     6
  0
LTYPE
  5
14
330
5
100
AcDbSymbolTableRecord
100
AcDbLinetypeTableRecord
  2
ByBlock
 70
     0
  3

 72
    65
 73
     0
 40
0.0
  0
LTYPE
  5
15
330
5
100
AcDbSymbolTableRecord
100
AcDbLinetypeTableRecord
  2
ByLayer
 70
     0
  3

 72
    65
 73
     0
 40
0.0
  0
LTYPE
  5
16
330
5
100
AcDbSymbolTableRecord
100
AcDbLinetypeTableRecord
  2
Continuous
 70
     0
  3
Solid line
 72
    65
 73
     0
 40
0.0
  0
LTYPE
  5
3F
330
5
100
AcDbSymbolTableRecord
100
AcDbLinetypeTableRecord
  2
HIDDEN
 70
     0
  3
Hidden __ __ __ __ __ __ __ __ __ __ __ __ __ __
 72
    65
 73
     2
 40
1.905
 49
1.27
 74
     0
 49
-0.635
 74
     0
  0
LTYPE
  5
40
330
5
100
AcDbSymbolTableRecord
100
AcDbLinetypeTableRecord
  2
PHANTOM
 70
     0
  3
Phantom ______  __  __  ______  __  __  ______
 72
    65
 73
     6
 40
12.7
 49
6.35
 74
     0
 49
-1.27
 74
     0
 49
1.27
 74
     0
 49
-1.27
 74
     0
 49
1.27
 74
     0
 49
-1.27
 74
     0
  0
LTYPE
  5
41
330
5
100
AcDbSymbolTableRecord
100
AcDbLinetypeTableRecord
  2
CENTER
 70
     0
  3
Center ____ _ ____ _ ____ _ ____ _ ____ _ ____
 72
    65
 73
     4
 40
10.16
 49
6.35
 74
     0
 49
-1.27
 74
     0
 49
1.27
 74
     0
 49
-1.27
 74
     0
  0
LTYPE
  5
42
330
5
100
AcDbSymbolTableRecord
100
AcDbLinetypeTableRecord
  2
CENTERX2
 70
     0
  3
Center (2x) ________  __  ________  __  _____
 72
    65
 73
     4
 40
20.32
 49
12.7
 74
     0
 49
-2.54
 74
     0
 49
2.54
 74
     0
 49
-2.54
 74
     0
  0
LTYPE
  5
43
330
5
100
AcDbSymbolTableRecord
100
AcDbLinetypeTableRecord
  2
DOT2
 70
     0
  3
Dot (.5x) ........................................
 72
    65
 73
     2
 40
0.635
 49
0.0
 74
     0
 49
-0.635
 74
     0
  0
ENDTAB
  0
TABLE
  2
LAYER
  5
2
330
0
100
AcDbSymbolTable
 70
     5
  0
LAYER
  5
10
330
2
100
AcDbSymbolTableRecord
100
AcDbLayerTableRecord
  2
0
 70
     0
 62
     7
  6
Continuous
370
    -3
390
F
  0
LAYER
  5
44
330
2
100
AcDbSymbolTableRecord
100
AcDbLayerTableRecord
  2
FORMAT
 70
     0
 62
     7
  6
Continuous
370
    -3
390
F
  0
LAYER
  5
45
330
2
100
AcDbSymbolTableRecord
100
AcDbLayerTableRecord
  2
PROTOTYPE
 70
     0
 62
     7
  6
Continuous
370
    -3
390
F
  0
LAYER
  5
46
330
2
100
AcDbSymbolTableRecord
100
AcDbLayerTableRecord
  2
TECH_TEXT
 70
     0
 62
     7
  6
Continuous
370
    -3
390
F
  0
LAYER
  5
47
330
2
100
AcDbSymbolTableRecord
100
AcDbLayerTableRecord
  2
TOOLING_TABLE
 70
     0
 62
    -7
  6
Continuous
370
    -3
390
F
  0
ENDTAB
  0
TABLE
  2
STYLE
  5
3
330
0
100
AcDbSymbolTable
 70
     2
  0
STYLE
  5
11
330
3
100
AcDbSymbolTableRecord
100
AcDbTextStyleTableRecord
  2
Standard
 70
     0
 40
0.0
 41
1.0
 50
0.0
 71
     0
 42
2.5
  3
txt
  4

  0
STYLE
  5
52
330
3
100
AcDbSymbolTableRecord
100
AcDbTextStyleTableRecord
  2
SLDTEXTSTYLE0
 70
     0
 40
0.0
 41
0.605
 50
0.0
 71
     0
 42
0.2
  3
TXT
  4

  0
ENDTAB
  0
TABLE
  2
VIEW
  5
6
330
0
100
AcDbSymbolTable
 70
     0
  0
ENDTAB
  0
TABLE
  2
UCS
  5
7
330
0
100
AcDbSymbolTable
 70
     0
  0
ENDTAB
  0
TABLE
  2
APPID
  5
9
330
0
100
AcDbSymbolTable
 70
     1
  0
APPID
  5
12
330
9
100
AcDbSymbolTableRecord
100
AcDbRegAppTableRecord
  2
ACAD
 70
     0
  0
ENDTAB
  0
TABLE
  2
DIMSTYLE
  5
A
330
0
100
AcDbSymbolTable
 70
     1
100
AcDbDimStyleTable
  0
DIMSTYLE
105
27
330
A
100
AcDbSymbolTableRecord
100
AcDbDimStyleTableRecord
  2
ISO-25
 70
     0
 41
2.5
 42
0.625
 43
3.75
 44
1.25
 73
     0
 74
     0
 77
     1
 78
     8
140
2.5
141
2.5
143
0.0393700787
147
0.625
171
     3
172
     1
178
     0
271
     2
272
     2
274
     3
278
    44
283
     0
284
     8
340
11
  0
ENDTAB
  0
TABLE
  2
BLOCK_RECORD
  5
1
330
0
100
AcDbSymbolTable
 70
    13
  0
BLOCK_RECORD
  5
1F
330
1
100
AcDbSymbolTableRecord
100
AcDbBlockTableRecord
  2
*Model_Space
340
22
  0
BLOCK_RECORD
  5
1B
330
1
100
AcDbSymbolTableRecord
100
AcDbBlockTableRecord
  2
*Paper_Space
340
1E
  0
BLOCK_RECORD
  5
23
330
1
100
AcDbSymbolTableRecord
100
AcDbBlockTableRecord
  2
*Paper_Space0
340
26
  0
BLOCK_RECORD
  5
E8
330
1
100
AcDbSymbolTableRecord
100
AcDbBlockTableRecord
  2
SW_CENTERMARKSYMBOL_0
340
0
102
{BLKREFS
331
12B
102
}
  0
BLOCK_RECORD
  5
1BF
330
1
100
AcDbSymbolTableRecord
100
AcDbBlockTableRecord
  2
SW_CENTERMARKSYMBOL_1
340
0
102
{BLKREFS
331
1CA
102
}
  0
BLOCK_RECORD
  5
1CB
330
1
100
AcDbSymbolTableRecord
100
AcDbBlockTableRecord
  2
SW_CENTERMARKSYMBOL_2
340
0
102
{BLKREFS
331
1D6
102
}
  0
BLOCK_RECORD
  5
1D7
330
1
100
AcDbSymbolTableRecord
100
AcDbBlockTableRecord
  2
SW_CENTERMARKSYMBOL_3
340
0
102
{BLKREFS
331
1E2
102
}
  0
BLOCK_RECORD
  5
1E3
330
1
100
AcDbSymbolTableRecord
100
AcDbBlockTableRecord
  2
SW_CENTERMARKSYMBOL_4
340
0
102
{BLKREFS
331
1EE
102
}
  0
BLOCK_RECORD
  5
1EF
330
1
100
AcDbSymbolTableRecord
100
AcDbBlockTableRecord
  2
SW_CENTERMARKSYMBOL_5
340
0
102
{BLKREFS
331
1FA
102
}
  0
BLOCK_RECORD
  5
33B
330
1
100
AcDbSymbolTableRecord
100
AcDbBlockTableRecord
  2
SW_CENTERMARKSYMBOL_6
340
0
102
{BLKREFS
331
346
102
}
  0
BLOCK_RECORD
  5
347
330
1
100
AcDbSymbolTableRecord
100
AcDbBlockTableRecord
  2
SW_CENTERMARKSYMBOL_7
340
0
102
{BLKREFS
331
352
102
}
  0
BLOCK_RECORD
  5
353
330
1
100
AcDbSymbolTableRecord
100
AcDbBlockTableRecord
  2
SW_CENTERMARKSYMBOL_8
340
0
102
{BLKREFS
331
35E
102
}
  0
BLOCK_RECORD
  5
35F
330
1
100
AcDbSymbolTableRecord
100
AcDbBlockTableRecord
  2
SW_CENTERMARKSYMBOL_9
340
0
102
{BLKREFS
331
36A
102
}
  0
BLOCK_RECORD
  5
36B
330
1
100
AcDbSymbolTableRecord
100
AcDbBlockTableRecord
  2
SW_CENTERMARKSYMBOL_10
340
0
102
{BLKREFS
331
376
102
}
  0
BLOCK_RECORD
  5
377
330
1
100
AcDbSymbolTableRecord
100
AcDbBlockTableRecord
  2
SW_CENTERMARKSYMBOL_11
340
0
102
{BLKREFS
331
39E
102
}
  0
ENDTAB
  0
ENDSEC
  0
SECTION
  2
BLOCKS
  0
BLOCK
  5
20
330
1F
100
AcDbEntity
  8
0
100
AcDbBlockBegin
  2
*Model_Space
 70
     0
 10
0.0
 20
0.0
 30
0.0
  3
*Model_Space
  1

  0
ENDBLK
  5
21
330
1F
100
AcDbEntity
  8
0
100
AcDbBlockEnd
  0
BLOCK
  5
1C
330
1B
100
AcDbEntity
 67
     1
  8
0
100
AcDbBlockBegin
  2
*Paper_Space
 70
     0
 10
0.0
 20
0.0
 30
0.0
  3
*Paper_Space
  1

  0
ENDBLK
  5
1D
330
1B
100
AcDbEntity
 67
     1
  8
0
100
AcDbBlockEnd
  0
BLOCK
  5
24
330
23
100
AcDbEntity
  8
0
100
AcDbBlockBegin
  2
*Paper_Space0
 70
     0
 10
0.0
 20
0.0
 30
0.0
  3
*Paper_Space0
  1

  0
ENDBLK
  5
25
330
23
100
AcDbEntity
  8
0
100
AcDbBlockEnd
  0
BLOCK
  5
E9
330
E8
100
AcDbEntity
  8
0
100
AcDbBlockBegin
  2
SW_CENTERMARKSYMBOL_0
 70
     0
 10
0.0
 20
0.0
 30
0.0
  3
SW_CENTERMARKSYMBOL_0
  1

  0
ARC
  5
EB
330
E8
100
AcDbEntity
  8
FORMAT
 62
     0
100
AcDbCircle
 10
136.2722310454
 20
-56.4458062739
 30
0.0
 40
147.5000000000001
100
AcDbArc
 50
157.5
 51
158.471114907
  0
ARC
  5
EC
330
E8
100
AcDbEntity
  8
FORMAT
 62
     0
100
AcDbCircle
 10
136.2722310454
 20
-56.4458062739
 30
0.0
 40
147.5000000000001
100
AcDbArc
 50
156.528885093
 51
157.5
  0
ARC
  5
ED
330
E8
100
AcDbEntity
  8
FORMAT
 62
     0
100
AcDbCircle
 10
136.2722310454
 20
-56.4458062739
 30
0.0
 40
147.5000000000002
100
AcDbArc
 50
112.5
 51
113.471114907
  0
ARC
  5
EE
330
E8
100
AcDbEntity
  8
FORMAT
 62
     0
100
AcDbCircle
 10
136.2722310454
 20
-56.4458062739
 30
0.0
 40
147.5000000000001
100
AcDbArc
 50
111.528885093
 51
112.5
  0
ARC
  5
EF
330
E8
100
AcDbEntity
  8
FORMAT
 62
     0
100
AcDbCircle
 10
136.2722310454
 20
-56.4458062739
 30
0.0
 40
147.5000000000001
100
AcDbArc
 50
67.5
 51
68.471114907
  0
ARC
  5
F0
330
E8
100
AcDbEntity
  8
FORMAT
 62
     0
100
AcDbCircle
 10
136.2722310454
 20
-56.4458062739
 30
0.0
 40
147.5000000000001
100
AcDbArc
 50
66.528885093
 51
67.5
  0
ARC
  5
F1
330
E8
100
AcDbEntity
  8
FORMAT
 62
     0
100
AcDbCircle
 10
136.2722310454
 20
-56.4458062739
 30
0.0
 40
147.4999999999999
100
AcDbArc
 50
22.5
 51
23.471114907
  0
ARC
  5
F2
330
E8
100
AcDbEntity
  8
FORMAT
 62
     0
100
AcDbCircle
 10
136.2722310454
 20
-56.4458062739
 30
0.0
 40
147.5
100
AcDbArc
 50
21.528885093
 51
22.5
  0
ARC
  5
F3
330
E8
100
AcDbEntity
  8
FORMAT
 62
     0
100
AcDbCircle
 10
136.2722310454
 20
-56.4458062739
 30
0.0
 40
147.4999999999999
100
AcDbArc
 50
337.5
 51
338.471114907
  0
ARC
  5
F4
330
E8
100
AcDbEntity
  8
FORMAT
 62
     0
100
AcDbCircle
 10
136.2722310454
 20
-56.4458062739
 30
0.0
 40
147.4999999999999
100
AcDbArc
 50
336.528885093
 51
337.5
  0
ARC
  5
F5
330
E8
100
AcDbEntity
  8
FORMAT
 62
     0
100
AcDbCircle
 10
136.2722310454
 20
-56.4458062739
 30
0.0
 40
147.4999999999999
100
AcDbArc
 50
292.5
 51
293.471114907
  0
ARC
  5
F6
330
E8
100
AcDbEntity
  8
FORMAT
 62
     0
100
AcDbCircle
 10
136.2722310454
 20
-56.4458062739
 30
0.0
 40
147.4999999999999
100
AcDbArc
 50
291.528885093
 51
292.5
  0
ARC
  5
F7
330
E8
100
AcDbEntity
  8
FORMAT
 62
     0
100
AcDbCircle
 10
136.2722310454
 20
-56.4458062739
 30
0.0
 40
147.5
100
AcDbArc
 50
247.5
 51
248.471114907
  0
ARC
  5
F8
330
E8
100
AcDbEntity
  8
FORMAT
 62
     0
100
AcDbCircle
 10
136.2722310454
 20
-56.4458062739
 30
0.0
 40
147.4999999999999
100
AcDbArc
 50
246.528885093
 51
247.5
  0
ARC
  5
F9
330
E8
100
AcDbEntity
  8
FORMAT
 62
     0
100
AcDbCircle
 10
136.2722310454
 20
-56.4458062739
 30
0.0
 40
147.5
100
AcDbArc
 50
202.5
 51
203.471114907
  0
ARC
  5
FA
330
E8
100
AcDbEntity
  8
FORMAT
 62
     0
100
AcDbCircle
 10
136.2722310454
 20
-56.4458062739
 30
0.0
 40
147.5
100
AcDbArc
 50
201.528885093
 51
202.5
  0
ARC
  5
FB
330
E8
100
AcDbEntity
  8
FORMAT
 62
     0
100
AcDbCircle
 10
136.2722310454
 20
-56.4458062739
 30
0.0
 40
147.5000000000001
100
AcDbArc
 50
69.442229814
 51
110.557770186
  0
ARC
  5
FC
330
E8
100
AcDbEntity
  8
FORMAT
 62
     0
100
AcDbCircle
 10
136.2722310454
 20
-56.4458062739
 30
0.0
 40
147.5000000000001
100
AcDbArc
 50
114.442229814
 51
155.557770186
  0
ARC
  5
FD
330
E8
100
AcDbEntity
  8
FORMAT
 62
     0
100
AcDbCircle
 10
136.2722310454
 20
-56.4458062739
 30
0.0
 40
147.5
100
AcDbArc
 50
24.442229814
 51
65.557770186
  0
ARC
  5
FE
330
E8
100
AcDbEntity
  8
FORMAT
 62
     0
100
AcDbCircle
 10
136.2722310454
 20
-56.4458062739
 30
0.0
 40
147.5
100
AcDbArc
 50
339.442229814
 51
20.557770186
  0
ARC
  5
FF
330
E8
100
AcDbEntity
  8
FORMAT
 62
     0
100
AcDbCircle
 10
136.2722310454
 20
-56.4458062739
 30
0.0
 40
147.4999999999999
100
AcDbArc
 50
294.442229814
 51
335.557770186
  0
ARC
  5
100
330
E8
100
AcDbEntity
  8
FORMAT
 62
     0
100
AcDbCircle
 10
136.2722310454
 20
-56.4458062739
 30
0.0
 40
147.5
100
AcDbArc
 50
249.442229814
 51
290.557770186
  0
ARC
  5
101
330
E8
100
AcDbEntity
  8
FORMAT
 62
     0
100
AcDbCircle
 10
136.2722310454
 20
-56.4458062739
 30
0.0
 40
147.5000000000001
100
AcDbArc
 50
159.442229814
 51
200.557770186
  0
ARC
  5
102
330
E8
100
AcDbEntity
  8
FORMAT
 62
     0
100
AcDbCircle
 10
136.2722310454
 20
-56.4458062739
 30
0.0
 40
147.5
100
AcDbArc
 50
204.442229814
 51
245.557770186
  0
LINE
  5
103
330
E8
100
AcDbEntity
  8
FORMAT
 62
     0
100
AcDbLine
 10
0.0
 20
0.0
 30
0.0
 11
-2.3096988313
 21
0.9567085809
 31
0.0
  0
LINE
  5
104
330
E8
100
AcDbEntity
  8
FORMAT
 62
     0
100
AcDbLine
 10
0.0
 20
0.0
 30
0.0
 11
2.3096988313
 21
-0.9567085809
 31
0.0
  0
LINE
  5
105
330
E8
100
AcDbEntity
  8
FORMAT
 62
     0
100
AcDbLine
 10
-4.6193976626
 20
1.9134171618
 30
0.0
 11
-13.8581929877
 21
5.7402514855
 31
0.0
  0
LINE
  5
106
330
E8
100
AcDbEntity
  8
FORMAT
 62
     0
100
AcDbLine
 10
4.6193976626
 20
-1.9134171618
 30
0.0
 11
13.8581929877
 21
-5.7402514855
 31
0.0
  0
LINE
  5
107
330
E8
100
AcDbEntity
  8
FORMAT
 62
     0
100
AcDbLine
 10
79.8264247716
 20
79.8264247716
 30
0.0
 11
78.8697161907
 21
82.1361236028
 31
0.0
  0
LINE
  5
108
330
E8
100
AcDbEntity
  8
FORMAT
 62
     0
100
AcDbLine
 10
79.8264247716
 20
79.8264247716
 30
0.0
 11
80.7831333525
 21
77.5167259403
 31
0.0
  0
LINE
  5
109
330
E8
100
AcDbEntity
  8
FORMAT
 62
     0
100
AcDbLine
 10
77.9130076097
 20
84.4458224341
 30
0.0
 11
74.0861732861
 21
93.6846177592
 31
0.0
  0
LINE
  5
10A
330
E8
100
AcDbEntity
  8
FORMAT
 62
     0
100
AcDbLine
 10
81.7398419334
 20
75.207027109
 30
0.0
 11
85.566676257
 21
65.9682317839
 31
0.0
  0
LINE
  5
10B
330
E8
100
AcDbEntity
  8
FORMAT
 62
     0
100
AcDbLine
 10
192.7180373193
 20
79.8264247716
 30
0.0
 11
193.6747459002
 21
82.1361236028
 31
0.0
  0
LINE
  5
10C
330
E8
100
AcDbEntity
  8
FORMAT
 62
     0
100
AcDbLine
 10
192.7180373193
 20
79.8264247716
 30
0.0
 11
191.7613287384
 21
77.5167259403
 31
0.0
  0
LINE
  5
10D
330
E8
100
AcDbEntity
  8
FORMAT
 62
     0
100
AcDbLine
 10
194.6314544811
 20
84.4458224341
 30
0.0
 11
198.4582888047
 21
93.6846177592
 31
0.0
  0
LINE
  5
10E
330
E8
100
AcDbEntity
  8
FORMAT
 62
     0
100
AcDbLine
 10
190.8046201574
 20
75.207027109
 30
0.0
 11
186.9777858338
 21
65.9682317839
 31
0.0
  0
LINE
  5
10F
330
E8
100
AcDbEntity
  8
FORMAT
 62
     0
100
AcDbLine
 10
136.2722310454
 20
-56.4458062739
 30
0.0
 11
136.2722310454
 21
-53.9458062739
 31
0.0
  0
LINE
  5
110
330
E8
100
AcDbEntity
  8
FORMAT
 62
     0
100
AcDbLine
 10
136.2722310454
 20
-56.4458062739
 30
0.0
 11
133.7722310454
 21
-56.4458062739
 31
0.0
  0
LINE
  5
111
330
E8
100
AcDbEntity
  8
FORMAT
 62
     0
100
AcDbLine
 10
136.2722310454
 20
-56.4458062739
 30
0.0
 11
136.2722310454
 21
-58.9458062739
 31
0.0
  0
LINE
  5
112
330
E8
100
AcDbEntity
  8
FORMAT
 62
     0
100
AcDbLine
 10
136.2722310454
 20
-56.4458062739
 30
0.0
 11
138.7722310454
 21
-56.4458062739
 31
0.0
  0
LINE
  5
113
330
E8
100
AcDbEntity
  8
FORMAT
 62
     0
100
AcDbLine
 10
136.2722310454
 20
-51.4458062739
 30
0.0
 11
136.2722310454
 21
127.9084415992
 31
0.0
  0
LINE
  5
114
330
E8
100
AcDbEntity
  8
FORMAT
 62
     0
100
AcDbLine
 10
131.2722310454
 20
-56.4458062739
 30
0.0
 11
-34.4108033928
 21
-56.4458062739
 31
0.0
  0
LINE
  5
115
330
E8
100
AcDbEntity
  8
FORMAT
 62
     0
100
AcDbLine
 10
136.2722310454
 20
-61.4458062739
 30
0.0
 11
136.2722310454
 21
-241.7950653573
 31
0.0
  0
LINE
  5
116
330
E8
100
AcDbEntity
  8
FORMAT
 62
     0
100
AcDbLine
 10
141.2722310454
 20
-56.4458062739
 30
0.0
 11
306.5890151355
 21
-56.4458062739
 31
0.0
  0
LINE
  5
117
330
E8
100
AcDbEntity
  8
FORMAT
 62
     0
100
AcDbLine
 10
272.5444620908
 20
0.0
 30
0.0
 11
274.8541609221
 21
0.9567085809
 31
0.0
  0
LINE
  5
118
330
E8
100
AcDbEntity
  8
FORMAT
 62
     0
100
AcDbLine
 10
272.5444620908
 20
0.0
 30
0.0
 11
270.2347632596
 21
-0.9567085809
 31
0.0
  0
LINE
  5
119
330
E8
100
AcDbEntity
  8
FORMAT
 62
     0
100
AcDbLine
 10
277.1638597534
 20
1.9134171618
 30
0.0
 11
286.4026550785
 21
5.7402514855
 31
0.0
  0
LINE
  5
11A
330
E8
100
AcDbEntity
  8
FORMAT
 62
     0
100
AcDbLine
 10
267.9250644283
 20
-1.9134171618
 30
0.0
 11
258.6862691032
 21
-5.7402514855
 31
0.0
  0
LINE
  5
11B
330
E8
100
AcDbEntity
  8
FORMAT
 62
     0
100
AcDbLine
 10
272.5444620908
 20
-112.8916125477
 30
0.0
 11
274.8541609221
 21
-113.8483211286
 31
0.0
  0
LINE
  5
11C
330
E8
100
AcDbEntity
  8
FORMAT
 62
     0
100
AcDbLine
 10
272.5444620908
 20
-112.8916125477
 30
0.0
 11
270.2347632595
 21
-111.9349039668
 31
0.0
  0
LINE
  5
11D
330
E8
100
AcDbEntity
  8
FORMAT
 62
     0
100
AcDbLine
 10
277.1638597534
 20
-114.8050297095
 30
0.0
 11
286.4026550785
 21
-118.6318640332
 31
0.0
  0
LINE
  5
11E
330
E8
100
AcDbEntity
  8
FORMAT
 62
     0
100
AcDbLine
 10
267.9250644283
 20
-110.9781953859
 30
0.0
 11
258.6862691032
 21
-107.1513610622
 31
0.0
  0
LINE
  5
11F
330
E8
100
AcDbEntity
  8
FORMAT
 62
     0
100
AcDbLine
 10
192.7180373193
 20
-192.7180373193
 30
0.0
 11
193.6747459002
 21
-195.0277361505
 31
0.0
  0
LINE
  5
120
330
E8
100
AcDbEntity
  8
FORMAT
 62
     0
100
AcDbLine
 10
192.7180373193
 20
-192.7180373193
 30
0.0
 11
191.7613287384
 21
-190.408338488
 31
0.0
  0
LINE
  5
121
330
E8
100
AcDbEntity
  8
FORMAT
 62
     0
100
AcDbLine
 10
194.6314544811
 20
-197.3374349818
 30
0.0
 11
198.4582888047
 21
-206.5762303069
 31
0.0
  0
LINE
  5
122
330
E8
100
AcDbEntity
  8
FORMAT
 62
     0
100
AcDbLine
 10
190.8046201574
 20
-188.0986396567
 30
0.0
 11
186.9777858338
 21
-178.8598443316
 31
0.0
  0
LINE
  5
123
330
E8
100
AcDbEntity
  8
FORMAT
 62
     0
100
AcDbLine
 10
79.8264247716
 20
-192.7180373193
 30
0.0
 11
78.8697161906
 21
-195.0277361505
 31
0.0
  0
LINE
  5
124
330
E8
100
AcDbEntity
  8
FORMAT
 62
     0
100
AcDbLine
 10
79.8264247716
 20
-192.7180373193
 30
0.0
 11
80.7831333525
 21
-190.408338488
 31
0.0
  0
LINE
  5
125
330
E8
100
AcDbEntity
  8
FORMAT
 62
     0
100
AcDbLine
 10
77.9130076097
 20
-197.3374349818
 30
0.0
 11
74.0861732861
 21
-206.5762303069
 31
0.0
  0
LINE
  5
126
330
E8
100
AcDbEntity
  8
FORMAT
 62
     0
100
AcDbLine
 10
81.7398419334
 20
-188.0986396567
 30
0.0
 11
85.566676257
 21
-178.8598443316
 31
0.0
  0
LINE
  5
127
330
E8
100
AcDbEntity
  8
FORMAT
 62
     0
100
AcDbLine
 10
0.0
 20
-112.8916125477
 30
0.0
 11
-2.3096988313
 21
-113.8483211286
 31
0.0
  0
LINE
  5
128
330
E8
100
AcDbEntity
  8
FORMAT
 62
     0
100
AcDbLine
 10
0.0
 20
-112.8916125477
 30
0.0
 11
2.3096988313
 21
-111.9349039668
 31
0.0
  0
LINE
  5
129
330
E8
100
AcDbEntity
  8
FORMAT
 62
     0
100
AcDbLine
 10
-4.6193976626
 20
-114.8050297095
 30
0.0
 11
-13.8581929877
 21
-118.6318640332
 31
0.0
  0
LINE
  5
12A
330
E8
100
AcDbEntity
  8
FORMAT
 62
     0
100
AcDbLine
 10
4.6193976626
 20
-110.9781953859
 30
0.0
 11
13.8581929877
 21
-107.1513610622
 31
0.0
  0
ENDBLK
  5
EA
330
E8
100
AcDbEntity
  8
0
100
AcDbBlockEnd
  0
BLOCK
  5
1C0
330
1BF
100
AcDbEntity
  8
0
100
AcDbBlockBegin
  2
SW_CENTERMARKSYMBOL_1
 70
     0
 10
0.0
 20
0.0
 30
0.0
  3
SW_CENTERMARKSYMBOL_1
  1

  0
LINE
  5
1C2
330
1BF
100
AcDbEntity
  8
FORMAT
 62
     0
100
AcDbLine
 10
0.0
 20
0.0
 30
0.0
 11
0.0
 21
2.5
 31
0.0
  0
LINE
  5
1C3
330
1BF
100
AcDbEntity
  8
FORMAT
 62
     0
100
AcDbLine
 10
0.0
 20
0.0
 30
0.0
 11
-2.5
 21
0.0
 31
0.0
  0
LINE
  5
1C4
330
1BF
100
AcDbEntity
  8
FORMAT
 62
     0
100
AcDbLine
 10
0.0
 20
0.0
 30
0.0
 11
0.0
 21
-2.5
 31
0.0
  0
LINE
  5
1C5
330
1BF
100
AcDbEntity
  8
FORMAT
 62
     0
100
AcDbLine
 10
0.0
 20
0.0
 30
0.0
 11
2.5
 21
0.0
 31
0.0
  0
LINE
  5
1C6
330
1BF
100
AcDbEntity
  8
FORMAT
 62
     0
100
AcDbLine
 10
0.0
 20
5.0
 30
0.0
 11
0.0
 21
91.6235367321
 31
0.0
  0
LINE
  5
1C7
330
1BF
100
AcDbEntity
  8
FORMAT
 62
     0
100
AcDbLine
 10
-5.0
 20
0.0
 30
0.0
 11
-87.5835513439
 21
0.0
 31
0.0
  0
LINE
  5
1C8
330
1BF
100
AcDbEntity
  8
FORMAT
 62
     0
100
AcDbLine
 10
0.0
 20
-5.0
 30
0.0
 11
0.0
 21
-88.140824141
 31
0.0
  0
LINE
  5
1C9
330
1BF
100
AcDbEntity
  8
FORMAT
 62
     0
100
AcDbLine
 10
5.0
 20
0.0
 30
0.0
 11
88.3132002325
 21
0.0
 31
0.0
  0
ENDBLK
  5
1C1
330
1BF
100
AcDbEntity
  8
0
100
AcDbBlockEnd
  0
BLOCK
  5
1CC
330
1CB
100
AcDbEntity
  8
0
100
AcDbBlockBegin
  2
SW_CENTERMARKSYMBOL_2
 70
     0
 10
0.0
 20
0.0
 30
0.0
  3
SW_CENTERMARKSYMBOL_2
  1

  0
LINE
  5
1CE
330
1CB
100
AcDbEntity
  8
FORMAT
 62
     0
100
AcDbLine
 10
0.0
 20
0.0
 30
0.0
 11
0.0
 21
2.5
 31
0.0
  0
LINE
  5
1CF
330
1CB
100
AcDbEntity
  8
FORMAT
 62
     0
100
AcDbLine
 10
0.0
 20
0.0
 30
0.0
 11
-2.5
 21
0.0
 31
0.0
  0
LINE
  5
1D0
330
1CB
100
AcDbEntity
  8
FORMAT
 62
     0
100
AcDbLine
 10
0.0
 20
0.0
 30
0.0
 11
0.0
 21
-2.5
 31
0.0
  0
LINE
  5
1D1
330
1CB
100
AcDbEntity
  8
FORMAT
 62
     0
100
AcDbLine
 10
0.0
 20
0.0
 30
0.0
 11
2.5
 21
0.0
 31
0.0
  0
LINE
  5
1D2
330
1CB
100
AcDbEntity
  8
FORMAT
 62
     0
100
AcDbLine
 10
0.0
 20
5.0
 30
0.0
 11
0.0
 21
9.0
 31
0.0
  0
LINE
  5
1D3
330
1CB
100
AcDbEntity
  8
FORMAT
 62
     0
100
AcDbLine
 10
-5.0
 20
0.0
 30
0.0
 11
-9.0
 21
0.0
 31
0.0
  0
LINE
  5
1D4
330
1CB
100
AcDbEntity
  8
FORMAT
 62
     0
100
AcDbLine
 10
0.0
 20
-5.0
 30
0.0
 11
0.0
 21
-9.0
 31
0.0
  0
LINE
  5
1D5
330
1CB
100
AcDbEntity
  8
FORMAT
 62
     0
100
AcDbLine
 10
5.0
 20
0.0
 30
0.0
 11
9.0
 21
0.0
 31
0.0
  0
ENDBLK
  5
1CD
330
1CB
100
AcDbEntity
  8
0
100
AcDbBlockEnd
  0
BLOCK
  5
1D8
330
1D7
100
AcDbEntity
  8
0
100
AcDbBlockBegin
  2
SW_CENTERMARKSYMBOL_3
 70
     0
 10
0.0
 20
0.0
 30
0.0
  3
SW_CENTERMARKSYMBOL_3
  1

  0
LINE
  5
1DA
330
1D7
100
AcDbEntity
  8
FORMAT
 62
     0
100
AcDbLine
 10
0.0
 20
0.0
 30
0.0
 11
0.0
 21
2.5
 31
0.0
  0
LINE
  5
1DB
330
1D7
100
AcDbEntity
  8
FORMAT
 62
     0
100
AcDbLine
 10
0.0
 20
0.0
 30
0.0
 11
-2.5
 21
0.0
 31
0.0
  0
LINE
  5
1DC
330
1D7
100
AcDbEntity
  8
FORMAT
 62
     0
100
AcDbLine
 10
0.0
 20
0.0
 30
0.0
 11
0.0
 21
-2.5
 31
0.0
  0
LINE
  5
1DD
330
1D7
100
AcDbEntity
  8
FORMAT
 62
     0
100
AcDbLine
 10
0.0
 20
0.0
 30
0.0
 11
2.5
 21
0.0
 31
0.0
  0
LINE
  5
1DE
330
1D7
100
AcDbEntity
  8
FORMAT
 62
     0
100
AcDbLine
 10
0.0
 20
5.0
 30
0.0
 11
0.0
 21
9.0
 31
0.0
  0
LINE
  5
1DF
330
1D7
100
AcDbEntity
  8
FORMAT
 62
     0
100
AcDbLine
 10
-5.0
 20
0.0
 30
0.0
 11
-9.0
 21
0.0
 31
0.0
  0
LINE
  5
1E0
330
1D7
100
AcDbEntity
  8
FORMAT
 62
     0
100
AcDbLine
 10
0.0
 20
-5.0
 30
0.0
 11
0.0
 21
-9.0
 31
0.0
  0
LINE
  5
1E1
330
1D7
100
AcDbEntity
  8
FORMAT
 62
     0
100
AcDbLine
 10
5.0
 20
0.0
 30
0.0
 11
9.0
 21
0.0
 31
0.0
  0
ENDBLK
  5
1D9
330
1D7
100
AcDbEntity
  8
0
100
AcDbBlockEnd
  0
BLOCK
  5
1E4
330
1E3
100
AcDbEntity
  8
0
100
AcDbBlockBegin
  2
SW_CENTERMARKSYMBOL_4
 70
     0
 10
0.0
 20
0.0
 30
0.0
  3
SW_CENTERMARKSYMBOL_4
  1

  0
LINE
  5
1E6
330
1E3
100
AcDbEntity
  8
FORMAT
 62
     0
100
AcDbLine
 10
0.0
 20
0.0
 30
0.0
 11
0.0
 21
2.5
 31
0.0
  0
LINE
  5
1E7
330
1E3
100
AcDbEntity
  8
FORMAT
 62
     0
100
AcDbLine
 10
0.0
 20
0.0
 30
0.0
 11
-2.5
 21
0.0
 31
0.0
  0
LINE
  5
1E8
330
1E3
100
AcDbEntity
  8
FORMAT
 62
     0
100
AcDbLine
 10
0.0
 20
0.0
 30
0.0
 11
0.0
 21
-2.5
 31
0.0
  0
LINE
  5
1E9
330
1E3
100
AcDbEntity
  8
FORMAT
 62
     0
100
AcDbLine
 10
0.0
 20
0.0
 30
0.0
 11
2.5
 21
0.0
 31
0.0
  0
LINE
  5
1EA
330
1E3
100
AcDbEntity
  8
FORMAT
 62
     0
100
AcDbLine
 10
0.0
 20
5.0
 30
0.0
 11
0.0
 21
9.0
 31
0.0
  0
LINE
  5
1EB
330
1E3
100
AcDbEntity
  8
FORMAT
 62
     0
100
AcDbLine
 10
-5.0
 20
0.0
 30
0.0
 11
-9.0
 21
0.0
 31
0.0
  0
LINE
  5
1EC
330
1E3
100
AcDbEntity
  8
FORMAT
 62
     0
100
AcDbLine
 10
0.0
 20
-5.0
 30
0.0
 11
0.0
 21
-9.0
 31
0.0
  0
LINE
  5
1ED
330
1E3
100
AcDbEntity
  8
FORMAT
 62
     0
100
AcDbLine
 10
5.0
 20
0.0
 30
0.0
 11
9.0
 21
0.0
 31
0.0
  0
ENDBLK
  5
1E5
330
1E3
100
AcDbEntity
  8
0
100
AcDbBlockEnd
  0
BLOCK
  5
1F0
330
1EF
100
AcDbEntity
  8
0
100
AcDbBlockBegin
  2
SW_CENTERMARKSYMBOL_5
 70
     0
 10
0.0
 20
0.0
 30
0.0
  3
SW_CENTERMARKSYMBOL_5
  1

  0
LINE
  5
1F2
330
1EF
100
AcDbEntity
  8
FORMAT
 62
     0
100
AcDbLine
 10
0.0
 20
0.0
 30
0.0
 11
0.0
 21
2.5
 31
0.0
  0
LINE
  5
1F3
330
1EF
100
AcDbEntity
  8
FORMAT
 62
     0
100
AcDbLine
 10
0.0
 20
0.0
 30
0.0
 11
-2.5
 21
0.0
 31
0.0
  0
LINE
  5
1F4
330
1EF
100
AcDbEntity
  8
FORMAT
 62
     0
100
AcDbLine
 10
0.0
 20
0.0
 30
0.0
 11
0.0
 21
-2.5
 31
0.0
  0
LINE
  5
1F5
330
1EF
100
AcDbEntity
  8
FORMAT
 62
     0
100
AcDbLine
 10
0.0
 20
0.0
 30
0.0
 11
2.5
 21
0.0
 31
0.0
  0
LINE
  5
1F6
330
1EF
100
AcDbEntity
  8
FORMAT
 62
     0
100
AcDbLine
 10
0.0
 20
5.0
 30
0.0
 11
0.0
 21
9.0
 31
0.0
  0
LINE
  5
1F7
330
1EF
100
AcDbEntity
  8
FORMAT
 62
     0
100
AcDbLine
 10
-5.0
 20
0.0
 30
0.0
 11
-9.0
 21
0.0
 31
0.0
  0
LINE
  5
1F8
330
1EF
100
AcDbEntity
  8
FORMAT
 62
     0
100
AcDbLine
 10
0.0
 20
-5.0
 30
0.0
 11
0.0
 21
-9.0
 31
0.0
  0
LINE
  5
1F9
330
1EF
100
AcDbEntity
  8
FORMAT
 62
     0
100
AcDbLine
 10
5.0
 20
0.0
 30
0.0
 11
9.0
 21
0.0
 31
0.0
  0
ENDBLK
  5
1F1
330
1EF
100
AcDbEntity
  8
0
100
AcDbBlockEnd
  0
BLOCK
  5
33C
330
33B
100
AcDbEntity
  8
0
100
AcDbBlockBegin
  2
SW_CENTERMARKSYMBOL_6
 70
     0
 10
0.0
 20
0.0
 30
0.0
  3
SW_CENTERMARKSYMBOL_6
  1

  0
LINE
  5
33E
330
33B
100
AcDbEntity
  8
FORMAT
 62
     0
100
AcDbLine
 10
0.0
 20
0.0
 30
0.0
 11
0.0
 21
2.5
 31
0.0
  0
LINE
  5
33F
330
33B
100
AcDbEntity
  8
FORMAT
 62
     0
100
AcDbLine
 10
0.0
 20
0.0
 30
0.0
 11
-2.5
 21
0.0
 31
0.0
  0
LINE
  5
340
330
33B
100
AcDbEntity
  8
FORMAT
 62
     0
100
AcDbLine
 10
0.0
 20
0.0
 30
0.0
 11
0.0
 21
-2.5
 31
0.0
  0
LINE
  5
341
330
33B
100
AcDbEntity
  8
FORMAT
 62
     0
100
AcDbLine
 10
0.0
 20
0.0
 30
0.0
 11
2.5
 21
0.0
 31
0.0
  0
LINE
  5
342
330
33B
100
AcDbEntity
  8
FORMAT
 62
     0
100
AcDbLine
 10
0.0
 20
5.0
 30
0.0
 11
0.0
 21
27.1646272105
 31
0.0
  0
LINE
  5
343
330
33B
100
AcDbEntity
  8
FORMAT
 62
     0
100
AcDbLine
 10
-5.0
 20
0.0
 30
0.0
 11
-31.4760000498
 21
0.0
 31
0.0
  0
LINE
  5
344
330
33B
100
AcDbEntity
  8
FORMAT
 62
     0
100
AcDbLine
 10
0.0
 20
-5.0
 30
0.0
 11
0.0
 21
-28.2306669286
 31
0.0
  0
LINE
  5
345
330
33B
100
AcDbEntity
  8
FORMAT
 62
     0
100
AcDbLine
 10
5.0
 20
0.0
 30
0.0
 11
25.1805156338
 21
0.0
 31
0.0
  0
ENDBLK
  5
33D
330
33B
100
AcDbEntity
  8
0
100
AcDbBlockEnd
  0
BLOCK
  5
348
330
347
100
AcDbEntity
  8
0
100
AcDbBlockBegin
  2
SW_CENTERMARKSYMBOL_7
 70
     0
 10
0.0
 20
0.0
 30
0.0
  3
SW_CENTERMARKSYMBOL_7
  1

  0
LINE
  5
34A
330
347
100
AcDbEntity
  8
FORMAT
 62
     0
100
AcDbLine
 10
0.0
 20
0.0
 30
0.0
 11
0.0
 21
2.5
 31
0.0
  0
LINE
  5
34B
330
347
100
AcDbEntity
  8
FORMAT
 62
     0
100
AcDbLine
 10
0.0
 20
0.0
 30
0.0
 11
-2.5
 21
0.0
 31
0.0
  0
LINE
  5
34C
330
347
100
AcDbEntity
  8
FORMAT
 62
     0
100
AcDbLine
 10
0.0
 20
0.0
 30
0.0
 11
0.0
 21
-2.5
 31
0.0
  0
LINE
  5
34D
330
347
100
AcDbEntity
  8
FORMAT
 62
     0
100
AcDbLine
 10
0.0
 20
0.0
 30
0.0
 11
2.5
 21
0.0
 31
0.0
  0
LINE
  5
34E
330
347
100
AcDbEntity
  8
FORMAT
 62
     0
100
AcDbLine
 10
0.0
 20
5.0
 30
0.0
 11
0.0
 21
20.6561649764
 31
0.0
  0
LINE
  5
34F
330
347
100
AcDbEntity
  8
FORMAT
 62
     0
100
AcDbLine
 10
-5.0
 20
0.0
 30
0.0
 11
-20.6561649764
 21
0.0
 31
0.0
  0
LINE
  5
350
330
347
100
AcDbEntity
  8
FORMAT
 62
     0
100
AcDbLine
 10
0.0
 20
-5.0
 30
0.0
 11
0.0
 21
-20.6561649764
 31
0.0
  0
LINE
  5
351
330
347
100
AcDbEntity
  8
FORMAT
 62
     0
100
AcDbLine
 10
5.0
 20
0.0
 30
0.0
 11
20.6561649764
 21
0.0
 31
0.0
  0
ENDBLK
  5
349
330
347
100
AcDbEntity
  8
0
100
AcDbBlockEnd
  0
BLOCK
  5
354
330
353
100
AcDbEntity
  8
0
100
AcDbBlockBegin
  2
SW_CENTERMARKSYMBOL_8
 70
     0
 10
0.0
 20
0.0
 30
0.0
  3
SW_CENTERMARKSYMBOL_8
  1

  0
LINE
  5
356
330
353
100
AcDbEntity
  8
FORMAT
 62
     0
100
AcDbLine
 10
0.0
 20
0.0
 30
0.0
 11
0.0
 21
2.5
 31
0.0
  0
LINE
  5
357
330
353
100
AcDbEntity
  8
FORMAT
 62
     0
100
AcDbLine
 10
0.0
 20
0.0
 30
0.0
 11
-2.5
 21
0.0
 31
0.0
  0
LINE
  5
358
330
353
100
AcDbEntity
  8
FORMAT
 62
     0
100
AcDbLine
 10
0.0
 20
0.0
 30
0.0
 11
0.0
 21
-2.5
 31
0.0
  0
LINE
  5
359
330
353
100
AcDbEntity
  8
FORMAT
 62
     0
100
AcDbLine
 10
0.0
 20
0.0
 30
0.0
 11
2.5
 21
0.0
 31
0.0
  0
LINE
  5
35A
330
353
100
AcDbEntity
  8
FORMAT
 62
     0
100
AcDbLine
 10
0.0
 20
5.0
 30
0.0
 11
0.0
 21
20.6561649764
 31
0.0
  0
LINE
  5
35B
330
353
100
AcDbEntity
  8
FORMAT
 62
     0
100
AcDbLine
 10
-5.0
 20
0.0
 30
0.0
 11
-20.6561649764
 21
0.0
 31
0.0
  0
LINE
  5
35C
330
353
100
AcDbEntity
  8
FORMAT
 62
     0
100
AcDbLine
 10
0.0
 20
-5.0
 30
0.0
 11
0.0
 21
-20.6561649764
 31
0.0
  0
LINE
  5
35D
330
353
100
AcDbEntity
  8
FORMAT
 62
     0
100
AcDbLine
 10
5.0
 20
0.0
 30
0.0
 11
20.6561649764
 21
0.0
 31
0.0
  0
ENDBLK
  5
355
330
353
100
AcDbEntity
  8
0
100
AcDbBlockEnd
  0
BLOCK
  5
360
330
35F
100
AcDbEntity
  8
0
100
AcDbBlockBegin
  2
SW_CENTERMARKSYMBOL_9
 70
     0
 10
0.0
 20
0.0
 30
0.0
  3
SW_CENTERMARKSYMBOL_9
  1

  0
LINE
  5
362
330
35F
100
AcDbEntity
  8
FORMAT
 62
     0
100
AcDbLine
 10
0.0
 20
0.0
 30
0.0
 11
0.0
 21
2.5
 31
0.0
  0
LINE
  5
363
330
35F
100
AcDbEntity
  8
FORMAT
 62
     0
100
AcDbLine
 10
0.0
 20
0.0
 30
0.0
 11
-2.5
 21
0.0
 31
0.0
  0
LINE
  5
364
330
35F
100
AcDbEntity
  8
FORMAT
 62
     0
100
AcDbLine
 10
0.0
 20
0.0
 30
0.0
 11
0.0
 21
-2.5
 31
0.0
  0
LINE
  5
365
330
35F
100
AcDbEntity
  8
FORMAT
 62
     0
100
AcDbLine
 10
0.0
 20
0.0
 30
0.0
 11
2.5
 21
0.0
 31
0.0
  0
LINE
  5
366
330
35F
100
AcDbEntity
  8
FORMAT
 62
     0
100
AcDbLine
 10
0.0
 20
5.0
 30
0.0
 11
0.0
 21
20.6561649764
 31
0.0
  0
LINE
  5
367
330
35F
100
AcDbEntity
  8
FORMAT
 62
     0
100
AcDbLine
 10
-5.0
 20
0.0
 30
0.0
 11
-20.6561649764
 21
0.0
 31
0.0
  0
LINE
  5
368
330
35F
100
AcDbEntity
  8
FORMAT
 62
     0
100
AcDbLine
 10
0.0
 20
-5.0
 30
0.0
 11
0.0
 21
-20.6561649764
 31
0.0
  0
LINE
  5
369
330
35F
100
AcDbEntity
  8
FORMAT
 62
     0
100
AcDbLine
 10
5.0
 20
0.0
 30
0.0
 11
20.6561649764
 21
0.0
 31
0.0
  0
ENDBLK
  5
361
330
35F
100
AcDbEntity
  8
0
100
AcDbBlockEnd
  0
BLOCK
  5
36C
330
36B
100
AcDbEntity
  8
0
100
AcDbBlockBegin
  2
SW_CENTERMARKSYMBOL_10
 70
     0
 10
0.0
 20
0.0
 30
0.0
  3
SW_CENTERMARKSYMBOL_10
  1

  0
LINE
  5
36E
330
36B
100
AcDbEntity
  8
FORMAT
 62
     0
100
AcDbLine
 10
0.0
 20
0.0
 30
0.0
 11
0.0
 21
2.5
 31
0.0
  0
LINE
  5
36F
330
36B
100
AcDbEntity
  8
FORMAT
 62
     0
100
AcDbLine
 10
0.0
 20
0.0
 30
0.0
 11
-2.5
 21
0.0
 31
0.0
  0
LINE
  5
370
330
36B
100
AcDbEntity
  8
FORMAT
 62
     0
100
AcDbLine
 10
0.0
 20
0.0
 30
0.0
 11
0.0
 21
-2.5
 31
0.0
  0
LINE
  5
371
330
36B
100
AcDbEntity
  8
FORMAT
 62
     0
100
AcDbLine
 10
0.0
 20
0.0
 30
0.0
 11
2.5
 21
0.0
 31
0.0
  0
LINE
  5
372
330
36B
100
AcDbEntity
  8
FORMAT
 62
     0
100
AcDbLine
 10
0.0
 20
5.0
 30
0.0
 11
0.0
 21
20.6561649764
 31
0.0
  0
LINE
  5
373
330
36B
100
AcDbEntity
  8
FORMAT
 62
     0
100
AcDbLine
 10
-5.0
 20
0.0
 30
0.0
 11
-20.6561649764
 21
0.0
 31
0.0
  0
LINE
  5
374
330
36B
100
AcDbEntity
  8
FORMAT
 62
     0
100
AcDbLine
 10
0.0
 20
-5.0
 30
0.0
 11
0.0
 21
-20.6561649764
 31
0.0
  0
LINE
  5
375
330
36B
100
AcDbEntity
  8
FORMAT
 62
     0
100
AcDbLine
 10
5.0
 20
0.0
 30
0.0
 11
20.6561649764
 21
0.0
 31
0.0
  0
ENDBLK
  5
36D
330
36B
100
AcDbEntity
  8
0
100
AcDbBlockEnd
  0
BLOCK
  5
378
330
377
100
AcDbEntity
  8
0
100
AcDbBlockBegin
  2
SW_CENTERMARKSYMBOL_11
 70
     0
 10
0.0
 20
0.0
 30
0.0
  3
SW_CENTERMARKSYMBOL_11
  1

  0
ARC
  5
37A
330
377
100
AcDbEntity
  8
FORMAT
 62
     0
100
AcDbCircle
 10
-36.0624458405
 20
-36.0624458405
 30
0.0
 40
51.00000000000001
100
AcDbArc
 50
45.0
 51
47.8086166428
  0
ARC
  5
37B
330
377
100
AcDbEntity
  8
FORMAT
 62
     0
100
AcDbCircle
 10
-36.0624458405
 20
-36.0624458405
 30
0.0
 40
51.00000000000001
100
AcDbArc
 50
42.1913833572
 51
45.0
  0
ARC
  5
37C
330
377
100
AcDbEntity
  8
FORMAT
 62
     0
100
AcDbCircle
 10
-36.0624458405
 20
-36.0624458405
 30
0.0
 40
51.0
100
AcDbArc
 50
315.0
 51
317.8086166428
  0
ARC
  5
37D
330
377
100
AcDbEntity
  8
FORMAT
 62
     0
100
AcDbCircle
 10
-36.0624458405
 20
-36.0624458405
 30
0.0
 40
50.99999999999999
100
AcDbArc
 50
312.1913833572
 51
315.0
  0
ARC
  5
37E
330
377
100
AcDbEntity
  8
FORMAT
 62
     0
100
AcDbCircle
 10
-36.0624458405
 20
-36.0624458405
 30
0.0
 40
50.99999999999999
100
AcDbArc
 50
225.0
 51
227.8086166428
  0
ARC
  5
37F
330
377
100
AcDbEntity
  8
FORMAT
 62
     0
100
AcDbCircle
 10
-36.0624458405
 20
-36.0624458405
 30
0.0
 40
50.99999999999999
100
AcDbArc
 50
222.1913833572
 51
225.0
  0
ARC
  5
380
330
377
100
AcDbEntity
  8
FORMAT
 62
     0
100
AcDbCircle
 10
-36.0624458405
 20
-36.0624458405
 30
0.0
 40
51.00000000000001
100
AcDbArc
 50
135.0
 51
137.8086166428
  0
ARC
  5
381
330
377
100
AcDbEntity
  8
FORMAT
 62
     0
100
AcDbCircle
 10
-36.0624458405
 20
-36.0624458405
 30
0.0
 40
51.00000000000001
100
AcDbArc
 50
132.1913833572
 51
135.0
  0
ARC
  5
382
330
377
100
AcDbEntity
  8
FORMAT
 62
     0
100
AcDbCircle
 10
-36.0624458405
 20
-36.0624458405
 30
0.0
 40
51.00000000000001
100
AcDbArc
 50
230.6172332856
 51
309.3827667144
  0
ARC
  5
383
330
377
100
AcDbEntity
  8
FORMAT
 62
     0
100
AcDbCircle
 10
-36.0624458405
 20
-36.0624458405
 30
0.0
 40
51.00000000000001
100
AcDbArc
 50
320.6172332856
 51
39.3827667144
  0
ARC
  5
384
330
377
100
AcDbEntity
  8
FORMAT
 62
     0
100
AcDbCircle
 10
-36.0624458405
 20
-36.0624458405
 30
0.0
 40
51.00000000000001
100
AcDbArc
 50
50.6172332856
 51
129.3827667144
  0
ARC
  5
385
330
377
100
AcDbEntity
  8
FORMAT
 62
     0
100
AcDbCircle
 10
-36.0624458405
 20
-36.0624458405
 30
0.0
 40
51.00000000000001
100
AcDbArc
 50
140.6172332856
 51
219.3827667144
  0
LINE
  5
386
330
377
100
AcDbEntity
  8
FORMAT
 62
     0
100
AcDbLine
 10
0.0
 20
0.0
 30
0.0
 11
1.767766953
 21
1.767766953
 31
0.0
  0
LINE
  5
387
330
377
100
AcDbEntity
  8
FORMAT
 62
     0
100
AcDbLine
 10
0.0
 20
0.0
 30
0.0
 11
-1.767766953
 21
-1.767766953
 31
0.0
  0
LINE
  5
388
330
377
100
AcDbEntity
  8
FORMAT
 62
     0
100
AcDbLine
 10
3.5355339059
 20
3.5355339059
 30
0.0
 11
5.4800775542
 21
5.4800775542
 31
0.0
  0
LINE
  5
389
330
377
100
AcDbEntity
  8
FORMAT
 62
     0
100
AcDbLine
 10
-3.5355339059
 20
-3.5355339059
 30
0.0
 11
-5.4800775542
 21
-5.4800775542
 31
0.0
  0
LINE
  5
38A
330
377
100
AcDbEntity
  8
FORMAT
 62
     0
100
AcDbLine
 10
0.0
 20
-72.124891681
 30
0.0
 11
1.767766953
 21
-73.892658634
 31
0.0
  0
LINE
  5
38B
330
377
100
AcDbEntity
  8
FORMAT
 62
     0
100
AcDbLine
 10
0.0
 20
-72.124891681
 30
0.0
 11
-1.767766953
 21
-70.3571247281
 31
0.0
  0
LINE
  5
38C
330
377
100
AcDbEntity
  8
FORMAT
 62
     0
100
AcDbLine
 10
3.5355339059
 20
-75.660425587
 30
0.0
 11
5.4800775542
 21
-77.6049692352
 31
0.0
  0
LINE
  5
38D
330
377
100
AcDbEntity
  8
FORMAT
 62
     0
100
AcDbLine
 10
-3.5355339059
 20
-68.5893577751
 30
0.0
 11
-5.4800775542
 21
-66.6448141268
 31
0.0
  0
LINE
  5
38E
330
377
100
AcDbEntity
  8
FORMAT
 62
     0
100
AcDbLine
 10
-72.124891681
 20
-72.124891681
 30
0.0
 11
-73.892658634
 21
-73.892658634
 31
0.0
  0
LINE
  5
38F
330
377
100
AcDbEntity
  8
FORMAT
 62
     0
100
AcDbLine
 10
-72.124891681
 20
-72.124891681
 30
0.0
 11
-70.3571247281
 21
-70.3571247281
 31
0.0
  0
LINE
  5
390
330
377
100
AcDbEntity
  8
FORMAT
 62
     0
100
AcDbLine
 10
-75.660425587
 20
-75.660425587
 30
0.0
 11
-77.6049692352
 21
-77.6049692352
 31
0.0
  0
LINE
  5
391
330
377
100
AcDbEntity
  8
FORMAT
 62
     0
100
AcDbLine
 10
-68.5893577751
 20
-68.5893577751
 30
0.0
 11
-66.6448141268
 21
-66.6448141268
 31
0.0
  0
LINE
  5
392
330
377
100
AcDbEntity
  8
FORMAT
 62
     0
100
AcDbLine
 10
-36.0624458405
 20
-36.0624458405
 30
0.0
 11
-36.0624458405
 21
-33.5624458405
 31
0.0
  0
LINE
  5
393
330
377
100
AcDbEntity
  8
FORMAT
 62
     0
100
AcDbLine
 10
-36.0624458405
 20
-36.0624458405
 30
0.0
 11
-38.5624458405
 21
-36.0624458405
 31
0.0
  0
LINE
  5
394
330
377
100
AcDbEntity
  8
FORMAT
 62
     0
100
AcDbLine
 10
-36.0624458405
 20
-36.0624458405
 30
0.0
 11
-36.0624458405
 21
-38.5624458405
 31
0.0
  0
LINE
  5
395
330
377
100
AcDbEntity
  8
FORMAT
 62
     0
100
AcDbLine
 10
-36.0624458405
 20
-36.0624458405
 30
0.0
 11
-33.5624458405
 21
-36.0624458405
 31
0.0
  0
LINE
  5
396
330
377
100
AcDbEntity
  8
FORMAT
 62
     0
100
AcDbLine
 10
-36.0624458405
 20
-31.0624458405
 30
0.0
 11
-36.0624458405
 21
2.5
 31
0.0
  0
LINE
  5
397
330
377
100
AcDbEntity
  8
FORMAT
 62
     0
100
AcDbLine
 10
-41.0624458405
 20
-36.0624458405
 30
0.0
 11
-74.624891681
 21
-36.0624458405
 31
0.0
  0
LINE
  5
398
330
377
100
AcDbEntity
  8
FORMAT
 62
     0
100
AcDbLine
 10
-36.0624458405
 20
-41.0624458405
 30
0.0
 11
-36.0624458405
 21
-74.624891681
 31
0.0
  0
LINE
  5
399
330
377
100
AcDbEntity
  8
FORMAT
 62
     0
100
AcDbLine
 10
-31.0624458405
 20
-36.0624458405
 30
0.0
 11
2.5
 21
-36.0624458405
 31
0.0
  0
LINE
  5
39A
330
377
100
AcDbEntity
  8
FORMAT
 62
     0
100
AcDbLine
 10
-72.124891681
 20
0.0
 30
0.0
 11
-73.892658634
 21
1.767766953
 31
0.0
  0
LINE
  5
39B
330
377
100
AcDbEntity
  8
FORMAT
 62
     0
100
AcDbLine
 10
-72.124891681
 20
0.0
 30
0.0
 11
-70.3571247281
 21
-1.767766953
 31
0.0
  0
LINE
  5
39C
330
377
100
AcDbEntity
  8
FORMAT
 62
     0
100
AcDbLine
 10
-75.660425587
 20
3.5355339059
 30
0.0
 11
-77.6049692352
 21
5.4800775542
 31
0.0
  0
LINE
  5
39D
330
377
100
AcDbEntity
  8
FORMAT
 62
     0
100
AcDbLine
 10
-68.5893577751
 20
-3.5355339059
 30
0.0
 11
-66.6448141268
 21
-5.4800775542
 31
0.0
  0
ENDBLK
  5
379
330
377
100
AcDbEntity
  8
0
100
AcDbBlockEnd
  0
ENDSEC
  0
SECTION
  2
ENTITIES
  0
LINE
  5
48
330
1F
100
AcDbEntity
  8
TOOLING_TABLE
 62
     7
100
AcDbLine
 10
558.0
 20
36.8671069427
 30
0.0
 11
644.0
 21
36.8671069427
 31
0.0
  0
LINE
  5
49
330
1F
100
AcDbEntity
  8
TOOLING_TABLE
 62
     7
100
AcDbLine
 10
558.0
 20
24.8671069427
 30
0.0
 11
644.0
 21
24.8671069427
 31
0.0
  0
LINE
  5
4A
330
1F
100
AcDbEntity
  8
TOOLING_TABLE
 62
     7
100
AcDbLine
 10
558.0
 20
63.8671069427
 30
0.0
 11
558.0
 21
12.8671069427
 31
0.0
  0
LINE
  5
4B
330
1F
100
AcDbEntity
  8
TOOLING_TABLE
100
AcDbLine
 10
558.0
 20
12.8671069427
 30
0.0
 11
644.0
 21
12.8671069427
 31
0.0
  0
LINE
  5
4C
330
1F
100
AcDbEntity
  8
TOOLING_TABLE
100
AcDbLine
 10
644.0
 20
63.8671069427
 30
0.0
 11
644.0
 21
12.8671069427
 31
0.0
  0
LINE
  5
4D
330
1F
100
AcDbEntity
  8
TOOLING_TABLE
 62
     7
100
AcDbLine
 10
558.0
 20
45.8671069427
 30
0.0
 11
644.0
 21
45.8671069427
 31
0.0
  0
LINE
  5
4E
330
1F
100
AcDbEntity
  8
TOOLING_TABLE
 62
     7
100
AcDbLine
 10
558.0
 20
54.8671069427
 30
0.0
 11
644.0
 21
54.8671069427
 31
0.0
  0
LINE
  5
4F
330
1F
100
AcDbEntity
  8
TOOLING_TABLE
 62
     7
100
AcDbLine
 10
558.0
 20
63.8671069427
 30
0.0
 11
644.0
 21
63.8671069427
 31
0.0
  0
LINE
  5
50
330
1F
100
AcDbEntity
  8
TOOLING_TABLE
 62
     7
100
AcDbLine
 10
601.0
 20
63.8671069427
 30
0.0
 11
601.0
 21
36.8671069427
 31
0.0
  0
LINE
  5
51
330
1F
100
AcDbEntity
  8
TOOLING_TABLE
 62
     7
370
     0
100
AcDbLine
 10
624.0
 20
54.8671069427
 30
0.0
 11
624.0
 21
45.8671069427
 31
0.0
  0
MTEXT
  5
53
330
1F
100
AcDbEntity
  8
TOOLING_TABLE
100
AcDbMText
 10
602.1062783613
 20
54.2702582207
 30
0.0
 40
1.2
 41
0.0
 71
     1
 72
     1
  1
Date:
  7
SLDTEXTSTYLE0
 73
     1
 44
1.0
  0
MTEXT
  5
54
330
1F
100
AcDbEntity
  8
TOOLING_TABLE
100
AcDbMText
 10
603.018097772
 20
49.8283199631
 30
0.0
 40
2.5
 41
0.0
 71
     1
 72
     1
  1
yyyy.mm.dd
  7
SLDTEXTSTYLE0
 73
     1
 44
1.0
  0
MTEXT
  5
55
330
1F
100
AcDbEntity
  8
TOOLING_TABLE
100
AcDbMText
 10
560.201296573
 20
19.1574227188
 30
0.0
 40
2.6458333333
 41
0.0
 71
     1
 72
     1
  1
-
  7
SLDTEXTSTYLE0
 73
     1
 44
1.0
  0
MTEXT
  5
56
330
1F
100
AcDbEntity
  8
TOOLING_TABLE
100
AcDbMText
 10
560.201296573
 20
31.4173726938
 30
0.0
 40
2.6458333333
 41
0.0
 71
     1
 72
     1
  1
-
  7
SLDTEXTSTYLE0
 73
     1
 44
1.0
  0
MTEXT
  5
57
330
1F
100
AcDbEntity
  8
TOOLING_TABLE
100
AcDbMText
 10
560.201296573
 20
41.3865649653
 30
0.0
 40
2.6458333333
 41
0.0
 71
     1
 72
     1
  1
-
  7
SLDTEXTSTYLE0
 73
     1
 44
1.0
  0
MTEXT
  5
58
330
1F
100
AcDbEntity
  8
TOOLING_TABLE
100
AcDbMText
 10
559.8363625628
 20
49.9958228804
 30
0.0
 40
2.6458333333
 41
0.0
 71
     1
 72
     1
  1
-
  7
SLDTEXTSTYLE0
 73
     1
 44
1.0
  0
MTEXT
  5
59
330
1F
100
AcDbEntity
  8
TOOLING_TABLE
100
AcDbMText
 10
603.9499678367
 20
41.662126356
 30
0.0
 40
2.5
 41
0.0
 71
     1
 72
     1
  1
-
  7
SLDTEXTSTYLE0
 73
     1
 44
1.0
  0
MTEXT
  5
5A
330
1F
100
AcDbEntity
  8
TOOLING_TABLE
100
AcDbMText
 10
630.2212650386
 20
50.3962796907
 30
0.0
 40
3.175
 41
0.0
 71
     1
 72
     1
  1
-
  7
SLDTEXTSTYLE0
 73
     1
 44
1.0
  0
MTEXT
  5
5B
330
1F
100
AcDbEntity
  8
TOOLING_TABLE
100
AcDbMText
 10
610.1822179805
 20
60.6243780584
 30
0.0
 40
3.175
 41
0.0
 71
     1
 72
     1
  1
T-
  7
SLDTEXTSTYLE0
 73
     1
 44
1.0
  0
MTEXT
  5
5C
330
1F
100
AcDbEntity
  8
TOOLING_TABLE
 62
     7
100
AcDbMText
 10
559.1184091958
 20
45.4874334828
 30
0.0
 40
1.2
 41
0.0
 71
     1
 72
     1
  1
Not specified chamfer:
  7
SLDTEXTSTYLE0
 73
     1
 44
1.0
  0
MTEXT
  5
5D
330
1F
100
AcDbEntity
  8
TOOLING_TABLE
100
AcDbMText
 10
559.1184091958
 20
54.2702582207
 30
0.0
 40
1.2
 41
0.0
 71
     1
 72
     1
  1
Not specified tolerance:
  7
SLDTEXTSTYLE0
 73
     1
 44
1.0
  0
MTEXT
  5
5E
330
1F
100
AcDbEntity
  8
TOOLING_TABLE
100
AcDbMText
 10
559.1184091958
 20
36.1184577829
 30
0.0
 40
1.2
 41
0.0
 71
     1
 72
     1
  1
Hardening & Surfacing:
  7
SLDTEXTSTYLE0
 73
     1
 44
1.0
  0
MTEXT
  5
5F
330
1F
100
AcDbEntity
  8
TOOLING_TABLE
100
AcDbMText
 10
559.1184091958
 20
24.3382170231
 30
0.0
 40
1.2
 41
0.0
 71
     1
 72
     1
  1
Notes:
  7
SLDTEXTSTYLE0
 73
     1
 44
1.0
  0
MTEXT
  5
60
330
1F
100
AcDbEntity
  8
TOOLING_TABLE
100
AcDbMText
 10
602.1062783613
 20
45.4874334828
 30
0.0
 40
1.2
 41
0.0
 71
     1
 72
     1
  1
Ekstern part no.:
  7
SLDTEXTSTYLE0
 73
     1
 44
1.0
  0
MTEXT
  5
61
330
1F
100
AcDbEntity
  8
TOOLING_TABLE
100
AcDbMText
 10
624.6246212708
 20
54.2702582207
 30
0.0
 40
1.2
 41
0.0
 71
     1
 72
     1
  1
Number:
  7
SLDTEXTSTYLE0
 73
     1
 44
1.0
  0
MTEXT
  5
62
330
1F
100
AcDbEntity
  8
TOOLING_TABLE
100
AcDbMText
 10
601.8747919494
 20
63.2637332969
 30
0.0
 40
1.2
 41
0.0
 71
     1
 72
     1
  1
Order no.:
  7
SLDTEXTSTYLE0
 73
     1
 44
1.0
  0
MTEXT
  5
63
330
1F
100
AcDbEntity
  8
TOOLING_TABLE
100
AcDbMText
 10
561.334242998
 20
60.6243780584
 30
0.0
 40
3.175
 41
0.0
 71
     1
 72
     1
  1
AVK Tech Tooling
  7
SLDTEXTSTYLE0
 73
     1
 44
1.0
  0
LINE
  5
64
330
1F
100
AcDbEntity
  8
0
  6
Continuous
 62
     7
370
     0
100
AcDbLine
 10
7.3075305756
 20
515.7633462071
 30
0.0
 11
7.3075305756
 21
505.7633482933
 31
0.0
  0
LINE
  5
65
330
1F
100
AcDbEntity
  8
0
  6
Continuous
 62
     7
370
     0
100
AcDbLine
 10
133.3075326021
 20
505.7633482933
 30
0.0
 11
133.3075326021
 21
515.7633462071
 31
0.0
  0
LINE
  5
66
330
1F
100
AcDbEntity
  8
0
  6
Continuous
 62
     7
370
     0
100
AcDbLine
 10
105.3075354632
 20
444.7633438825
 30
0.0
 11
105.3075354632
 21
479.7633477568
 31
0.0
  0
LINE
  5
67
330
1F
100
AcDbEntity
  8
0
  6
Continuous
 62
     7
370
     0
100
AcDbLine
 10
35.3075277145
 20
479.7633477568
 30
0.0
 11
35.3075277145
 21
444.7633438825
 31
0.0
  0
LINE
  5
68
330
1F
100
AcDbEntity
  8
0
  6
Continuous
 62
     7
370
     0
100
AcDbLine
 10
35.3075277145
 20
350.7633471012
 30
0.0
 11
35.3075277145
 21
315.7633432269
 31
0.0
  0
LINE
  5
69
330
1F
100
AcDbEntity
  8
0
  6
Continuous
 62
     7
370
     0
100
AcDbLine
 10
105.3075354632
 20
315.7633432269
 30
0.0
 11
105.3075354632
 21
350.7633471012
 31
0.0
  0
LINE
  5
6A
330
1F
100
AcDbEntity
  8
0
  6
Continuous
 62
     7
370
     0
100
AcDbLine
 10
99.3075233038
 20
479.7633477568
 30
0.0
 11
99.3075233038
 21
505.7633482933
 31
0.0
  0
LINE
  5
6B
330
1F
100
AcDbEntity
  8
0
  6
Continuous
 62
     7
370
     0
100
AcDbLine
 10
41.3075398739
 20
505.7633482933
 30
0.0
 11
41.3075398739
 21
479.7633477568
 31
0.0
  0
LINE
  5
6C
330
1F
100
AcDbEntity
  8
0
  6
Continuous
 62
     7
370
     0
100
AcDbLine
 10
99.3075233038
 20
435.8254597604
 30
0.0
 11
99.3075233038
 21
444.7633438825
 31
0.0
  0
LINE
  5
6D
330
1F
100
AcDbEntity
  8
0
  6
Continuous
 62
     7
370
     0
100
AcDbLine
 10
99.3075233038
 20
350.7633471012
 30
0.0
 11
99.3075233038
 21
359.7191871226
 31
0.0
  0
LINE
  5
6E
330
1F
100
AcDbEntity
  8
0
  6
Continuous
 62
     7
370
     0
100
AcDbLine
 10
108.3075266417
 20
482.7633463859
 30
0.0
 11
99.3075233038
 21
482.7633463859
 31
0.0
  0
LINE
  5
6F
330
1F
100
AcDbEntity
  8
0
  6
Continuous
 62
     7
370
     0
100
AcDbLine
 10
79.3075274761
 20
312.7633445978
 30
0.0
 11
93.557522827
 21
312.7633445978
 31
0.0
  0
LINE
  5
70
330
1F
100
AcDbEntity
  8
0
  6
Continuous
 62
     7
370
     0
100
AcDbLine
 10
100.057528549
 20
312.7633445978
 30
0.0
 11
108.3075266417
 21
312.7633445978
 31
0.0
  0
LINE
  5
71
330
1F
100
AcDbEntity
  8
0
  6
Continuous
 62
     7
370
     0
100
AcDbLine
 10
77.8075318869
 20
515.7633462071
 30
0.0
 11
77.8075318869
 21
555.7633527636
 31
0.0
  0
LINE
  5
72
330
1F
100
AcDbEntity
  8
0
  6
Continuous
 62
     7
370
     0
100
AcDbLine
 10
62.8075312908
 20
555.7633527636
 30
0.0
 11
62.8075312908
 21
515.7633462071
 31
0.0
  0
LINE
  5
73
330
1F
100
AcDbEntity
  8
0
  6
Continuous
 62
     7
370
     0
100
AcDbLine
 10
115.3075259264
 20
335.2633454919
 30
0.0
 11
132.8075241383
 21
335.2633454919
 31
0.0
  0
LINE
  5
74
330
1F
100
AcDbEntity
  8
0
  6
Continuous
 62
     7
370
     0
100
AcDbLine
 10
132.8075241383
 20
460.2633454919
 30
0.0
 11
115.3075259264
 21
460.2633454919
 31
0.0
  0
LINE
  5
75
330
1F
100
AcDbEntity
  8
0
  6
Continuous
 62
     7
370
     0
100
AcDbLine
 10
542.3075269993
 20
460.2633454919
 30
0.0
 11
497.807533675
 21
460.2633454919
 31
0.0
  0
LINE
  5
76
330
1F
100
AcDbEntity
  8
0
  6
Continuous
 62
     7
370
     0
100
AcDbLine
 10
497.807533675
 20
335.2633454919
 30
0.0
 11
542.3075269993
 21
335.2633454919
 31
0.0
  0
LINE
  5
77
330
1F
100
AcDbEntity
  8
0
  6
Continuous
 62
     7
370
     0
100
AcDbLine
 10
35.3075277145
 20
404.263345626
 30
0.0
 11
28.3575367268
 21
404.263345626
 31
0.0
  0
LINE
  5
78
330
1F
100
AcDbEntity
  8
0
  6
Continuous
 62
     7
370
     0
100
AcDbLine
 10
28.3575367268
 20
391.2633453578
 30
0.0
 11
35.3075277145
 21
391.2633453578
 31
0.0
  0
LINE
  5
79
330
1F
100
AcDbEntity
  8
0
  6
Continuous
 62
     7
370
     0
100
AcDbLine
 10
35.3075277145
 20
440.2633459389
 30
0.0
 11
28.3575367268
 21
440.2633459389
 31
0.0
  0
LINE
  5
7A
330
1F
100
AcDbEntity
  8
0
  6
Continuous
 62
     7
370
     0
100
AcDbLine
 10
28.3575367268
 20
427.2633456707
 30
0.0
 11
35.3075277145
 21
427.2633456707
 31
0.0
  0
LINE
  5
7B
330
1F
100
AcDbEntity
  8
0
  6
Continuous
 62
     7
370
     0
100
AcDbLine
 10
35.3075277145
 20
368.2633453131
 30
0.0
 11
28.3575367268
 21
368.2633453131
 31
0.0
  0
LINE
  5
7C
330
1F
100
AcDbEntity
  8
0
  6
Continuous
 62
     7
370
     0
100
AcDbLine
 10
28.3575367268
 20
355.2633450448
 30
0.0
 11
35.3075277145
 21
355.2633450448
 31
0.0
  0
LINE
  5
7D
330
1F
100
AcDbEntity
  8
0
  6
Continuous
 62
     7
370
     0
100
AcDbLine
 10
7.3075305756
 20
515.7633462071
 30
0.0
 11
133.3075326021
 21
515.7633462071
 31
0.0
  0
LINE
  5
7E
330
1F
100
AcDbEntity
  8
0
  6
Continuous
 62
     7
370
     0
100
AcDbLine
 10
7.3075305756
 20
505.7633482933
 30
0.0
 11
133.3075326021
 21
505.7633482933
 31
0.0
  0
CIRCLE
  5
7F
330
1F
100
AcDbEntity
  8
0
  6
Continuous
 62
     7
370
     0
100
AcDbCircle
 10
315.3075289066
 20
392.7633454919
 30
0.0
 40
102.0
  0
CIRCLE
  5
80
330
1F
100
AcDbEntity
  8
0
  6
Continuous
 62
     7
370
     0
100
AcDbCircle
 10
315.3075289066
 20
392.7633454919
 30
0.0
 40
133.0
  0
CIRCLE
  5
81
330
1F
100
AcDbEntity
  8
0
  6
Continuous
 62
     7
370
     0
100
AcDbCircle
 10
179.0352978612
 20
336.317539218
 30
0.0
 40
12.50000000000003
  0
CIRCLE
  5
82
330
1F
100
AcDbEntity
  8
0
  6
Continuous
 62
     7
370
     0
100
AcDbCircle
 10
258.8617226328
 20
256.4911144465
 30
0.0
 40
12.50000000000002
  0
CIRCLE
  5
83
330
1F
100
AcDbEntity
  8
0
  6
Continuous
 62
     7
370
     0
100
AcDbCircle
 10
371.7533351805
 20
529.0355765373
 30
0.0
 40
12.50000000000002
  0
CIRCLE
  5
84
330
1F
100
AcDbEntity
  8
0
  6
Continuous
 62
     7
370
     0
100
AcDbCircle
 10
258.8617226328
 20
529.0355765373
 30
0.0
 40
12.5
  0
LINE
  5
85
330
1F
100
AcDbEntity
  8
0
  6
Continuous
 62
     7
370
     0
100
AcDbLine
 10
340.3075292792
 20
564.7633412003
 30
0.0
 11
350.3075290557
 21
574.7633465648
 31
0.0
  0
LINE
  5
86
330
1F
100
AcDbEntity
  8
0
  6
Continuous
 62
     7
370
     0
100
AcDbLine
 10
350.3075290557
 20
574.7633465648
 30
0.0
 11
385.3075292047
 21
574.7633465648
 31
0.0
  0
LINE
  5
87
330
1F
100
AcDbEntity
  8
0
  6
Continuous
 62
     7
370
     0
100
AcDbLine
 10
385.3075292047
 20
574.7633465648
 30
0.0
 11
385.3075292047
 21
547.6826765656
 31
0.0
  0
ARC
  5
88
330
1F
100
AcDbEntity
  8
0
  6
Continuous
 62
     7
370
     0
100
AcDbCircle
 10
315.3075289066
 20
392.7633454919
 30
0.0
 40
170.0
100
AcDbArc
 50
294.3157391712
 51
65.6842608288
  0
LINE
  5
89
330
1F
100
AcDbEntity
  8
0
  6
Continuous
 62
     7
370
     0
100
AcDbLine
 10
385.3075292047
 20
210.7633390546
 30
0.0
 11
385.3075292047
 21
237.8440090537
 31
0.0
  0
LINE
  5
8A
330
1F
100
AcDbEntity
  8
0
  6
Continuous
 62
     7
370
     0
100
AcDbLine
 10
350.3075290557
 20
210.7633390546
 30
0.0
 11
385.3075292047
 21
210.7633390546
 31
0.0
  0
LINE
  5
8B
330
1F
100
AcDbEntity
  8
0
  6
Continuous
 62
     7
370
     0
100
AcDbLine
 10
340.3075292792
 20
220.763344419
 30
0.0
 11
350.3075290557
 21
210.7633390546
 31
0.0
  0
LINE
  5
8C
330
1F
100
AcDbEntity
  8
0
  6
Continuous
 62
     7
370
     0
100
AcDbLine
 10
290.3075285341
 20
220.763344419
 30
0.0
 11
340.3075292792
 21
220.763344419
 31
0.0
  0
LINE
  5
8D
330
1F
100
AcDbEntity
  8
0
  6
Continuous
 62
     7
370
     0
100
AcDbLine
 10
280.3075287576
 20
210.7633390546
 30
0.0
 11
290.3075285341
 21
220.763344419
 31
0.0
  0
LINE
  5
8E
330
1F
100
AcDbEntity
  8
0
  6
Continuous
 62
     7
370
     0
100
AcDbLine
 10
245.3075286086
 20
210.7633390546
 30
0.0
 11
280.3075287576
 21
210.7633390546
 31
0.0
  0
LINE
  5
8F
330
1F
100
AcDbEntity
  8
0
  6
Continuous
 62
     7
370
     0
100
AcDbLine
 10
245.3075286086
 20
237.8440090537
 30
0.0
 11
245.3075286086
 21
210.7633390546
 31
0.0
  0
ARC
  5
90
330
1F
100
AcDbEntity
  8
0
  6
Continuous
 62
     7
370
     0
100
AcDbCircle
 10
315.3075289066
 20
392.7633454919
 30
0.0
 40
170.0
100
AcDbArc
 50
114.3157391712
 51
245.6842608288
  0
LINE
  5
91
330
1F
100
AcDbEntity
  8
0
  6
Continuous
 62
     7
370
     0
100
AcDbLine
 10
245.3075286086
 20
574.7633465648
 30
0.0
 11
280.3075287576
 21
574.7633465648
 31
0.0
  0
LINE
  5
92
330
1F
100
AcDbEntity
  8
0
  6
Continuous
 62
     7
370
     0
100
AcDbLine
 10
280.3075287576
 20
574.7633465648
 30
0.0
 11
290.3075285341
 21
564.7633412003
 31
0.0
  0
LINE
  5
93
330
1F
100
AcDbEntity
  8
0
  6
Continuous
 62
     7
370
     0
100
AcDbLine
 10
290.3075285341
 20
564.7633412003
 30
0.0
 11
310.3075290184
 21
564.7633412003
 31
0.0
  0
LINE
  5
94
330
1F
100
AcDbEntity
  8
0
  6
Continuous
 62
     7
370
     0
100
AcDbLine
 10
315.3075289066
 20
561.7633500218
 30
0.0
 11
310.3075290184
 21
564.7633412003
 31
0.0
  0
LINE
  5
95
330
1F
100
AcDbEntity
  8
0
  6
Continuous
 62
     7
370
     0
100
AcDbLine
 10
320.3075287949
 20
564.7633412003
 30
0.0
 11
315.3075289066
 21
561.7633500218
 31
0.0
  0
LINE
  5
96
330
1F
100
AcDbEntity
  8
0
  6
Continuous
 62
     7
370
     0
100
AcDbLine
 10
320.3075287949
 20
564.7633412003
 30
0.0
 11
340.3075292792
 21
564.7633412003
 31
0.0
  0
CIRCLE
  5
97
330
1F
100
AcDbEntity
  8
0
  6
Continuous
 62
     7
370
     0
100
AcDbCircle
 10
451.5797599521
 20
449.2091517657
 30
0.0
 40
12.5
  0
CIRCLE
  5
98
330
1F
100
AcDbEntity
  8
0
  6
Continuous
 62
     7
370
     0
100
AcDbCircle
 10
179.0352978612
 20
449.2091517657
 30
0.0
 40
12.50000000000002
  0
CIRCLE
  5
99
330
1F
100
AcDbEntity
  8
0
  6
Continuous
 62
     7
370
     0
100
AcDbCircle
 10
451.5797599521
 20
336.317539218
 30
0.0
 40
12.49999999999998
  0
CIRCLE
  5
9A
330
1F
100
AcDbEntity
  8
0
  6
Continuous
 62
     7
370
     0
100
AcDbCircle
 10
371.7533351805
 20
256.4911144465
 30
0.0
 40
12.5
  0
LINE
  5
9B
330
1F
100
AcDbEntity
  8
0
  6
Continuous
 62
     7
370
     0
100
AcDbLine
 10
245.3075286086
 20
547.6826765656
 30
0.0
 11
245.3075286086
 21
574.7633465648
 31
0.0
  0
LINE
  5
9C
330
1F
100
AcDbEntity
  8
0
  6
Continuous
 62
     7
370
     0
100
AcDbLine
 10
105.3075354632
 20
444.7633438825
 30
0.0
 11
40.290863448
 21
444.7633438825
 31
0.0
  0
LINE
  5
9D
330
1F
100
AcDbEntity
  8
0
  6
Continuous
 62
     7
370
     0
100
AcDbLine
 10
70.3075241383
 20
479.7633477568
 30
0.0
 11
35.3075277145
 21
479.7633477568
 31
0.0
  0
LINE
  5
9E
330
1F
100
AcDbEntity
  8
0
  6
Continuous
 62
     7
370
     0
100
AcDbLine
 10
105.3075354632
 20
479.7633477568
 30
0.0
 11
70.3075241383
 21
479.7633477568
 31
0.0
  0
LINE
  5
9F
330
1F
100
AcDbEntity
  8
0
  6
Continuous
 62
     7
370
     0
100
AcDbLine
 10
70.3075241383
 20
315.7633432269
 30
0.0
 11
35.3075277145
 21
315.7633432269
 31
0.0
  0
LINE
  5
A0
330
1F
100
AcDbEntity
  8
0
  6
Continuous
 62
     7
370
     0
100
AcDbLine
 10
105.3075354632
 20
315.7633432269
 30
0.0
 11
70.3075241383
 21
315.7633432269
 31
0.0
  0
LINE
  5
A1
330
1F
100
AcDbEntity
  8
0
  6
Continuous
 62
     7
370
     0
100
AcDbLine
 10
105.3075354632
 20
350.7633471012
 30
0.0
 11
40.290863448
 21
350.7633471012
 31
0.0
  0
LINE
  5
A2
330
1F
100
AcDbEntity
  8
0
  6
Continuous
 62
     7
370
     0
100
AcDbLine
 10
68.4311401184
 20
311.7633425712
 30
0.0
 11
68.4311401184
 21
315.7633432269
 31
0.0
  0
LINE
  5
A3
330
1F
100
AcDbEntity
  8
0
  6
Continuous
 62
     7
370
     0
100
AcDbLine
 10
68.4311401184
 20
311.7633425712
 30
0.0
 11
66.5547560986
 21
311.7633425712
 31
0.0
  0
LINE
  5
A4
330
1F
100
AcDbEntity
  8
0
  6
Continuous
 62
     7
370
     0
100
AcDbLine
 10
66.5547560986
 20
311.7633425712
 30
0.0
 11
66.5547560986
 21
315.7633432269
 31
0.0
  0
LINE
  5
A5
330
1F
100
AcDbEntity
  8
0
  6
Continuous
 62
     7
370
     0
100
AcDbLine
 10
72.1839230593
 20
311.7633425712
 30
0.0
 11
72.1839230593
 21
315.7633432269
 31
0.0
  0
LINE
  5
A6
330
1F
100
AcDbEntity
  8
0
  6
Continuous
 62
     7
370
     0
100
AcDbLine
 10
72.1839230593
 20
311.7633425712
 30
0.0
 11
68.4311401184
 21
311.7633425712
 31
0.0
  0
LINE
  5
A7
330
1F
100
AcDbEntity
  8
0
  6
Continuous
 62
     7
370
     0
100
AcDbLine
 10
74.0603070791
 20
311.7633425712
 30
0.0
 11
74.0603070791
 21
315.7633432269
 31
0.0
  0
LINE
  5
A8
330
1F
100
AcDbEntity
  8
0
  6
Continuous
 62
     7
370
     0
100
AcDbLine
 10
74.0603070791
 20
311.7633425712
 30
0.0
 11
72.1839230593
 21
311.7633425712
 31
0.0
  0
SPLINE
  5
A9
330
1F
100
AcDbEntity
  8
0
  6
Continuous
 62
     7
370
     0
100
AcDbSpline
210
0.0
220
0.0
230
1.0
 70
     8
 71
     3
 72
    37
 73
    33
 74
     0
 42
0.00000001
 43
0.00000001
 12
1.0
 22
0.0
 32
0.0
 13
1.0
 23
0.0
 33
0.0
 40
0.0
 40
0.0
 40
0.0
 40
0.0
 40
0.0017223445047139
 40
0.0284189582082597
 40
0.0636610620087489
 40
0.0989332188788432
 40
0.1342180564117844
 40
0.1694949181111126
 40
0.2047409269533037
 40
0.2409819358535552
 40
0.2772545551033569
 40
0.3135368629214313
 40
0.3498076599931889
 40
0.3860471252959852
 40
0.4215312319932757
 40
0.4570471449383864
 40
0.492573433567379
 40
0.5280888164826667
 40
0.5635724744297145
 40
0.6001550917862145
 40
0.636770675766255
 40
0.6733985619795445
 40
0.7100164564329061
 40
0.7466010312410176
 40
0.7812136383260577
 40
0.8158538388109259
 40
0.8505023939404518
 40
0.8851406622752126
 40
0.919751607950444
 40
0.9553868418425421
 40
0.9910646393726801
 40
1.0
 40
1.0
 40
1.0
 40
1.0
 10
99.30658453065058
 20
435.8254597604088
 30
0.0
 10
99.30690593646005
 20
435.7851559115702
 30
0.0
 10
99.31220918342467
 20
435.1201359967736
 30
0.0
 10
99.29039533398856
 20
433.6053166034004
 30
0.0
 10
99.23718665599881
 20
431.2730840392288
 30
0.0
 10
99.13838236181417
 20
428.6959279652665
 30
0.0
 10
99.01388250183676
 20
426.0869395694742
 30
0.0
 10
98.87042767515153
 20
423.4489154500817
 30
0.0
 10
98.7154706537999
 20
420.7599104718793
 30
0.0
 10
98.55750364871201
 20
418.0202755961458
 30
0.0
 10
98.40256954489621
 20
415.2311570732332
 30
0.0
 10
98.25774215725596
 20
412.4210169003896
 30
0.0
 10
98.12901012654868
 20
409.5944122559065
 30
0.0
 10
98.02279079076551
 20
406.774320738116
 30
0.0
 10
97.94461229141113
 20
403.9630517531751
 30
0.0
 10
97.89468846441812
 20
401.1631181941722
 30
0.0
 10
97.8731358396262
 20
398.358318920695
 30
0.0
 10
97.88074064337857
 20
395.5536402497275
 30
0.0
 10
97.91870495952979
 20
392.7238021883864
 30
0.0
 10
97.98885597361736
 20
389.8713021784079
 30
0.0
 10
98.08737711535589
 20
386.9987392406893
 30
0.0
 10
98.20885764058134
 20
384.1385370627705
 30
0.0
 10
98.34848359350018
 20
381.2956385277821
 30
0.0
 10
98.4988986891468
 20
378.5242098397034
 30
0.0
 10
98.6545457955393
 20
375.8250469121961
 30
0.0
 10
98.80719378038613
 20
373.1979072811833
 30
0.0
 10
98.95275865986544
 20
370.5949874606481
 30
0.0
 10
99.08343980178422
 20
368.0203150298272
 30
0.0
 10
99.19458608042488
 20
365.4503778460499
 30
0.0
 10
99.27211865784393
 20
362.8921335044417
 30
0.0
 10
99.31252860727666
 20
360.9726121407776
 30
0.0
 10
99.30459686374924
 20
359.9283395848774
 30
0.0
 10
99.30300825196406
 20
359.7191871225647
 30
0.0
  0
LINE
  5
AA
330
1F
100
AcDbEntity
  8
0
  6
Continuous
 62
     7
370
     0
100
AcDbLine
 10
47.5699018772
 20
350.7633471012
 30
0.0
 11
47.5699018772
 21
444.7633438825
 31
0.0
  0
ELLIPSE
  5
AB
330
1F
100
AcDbEntity
  8
0
  6
Continuous
 62
     7
370
     0
100
AcDbEllipse
 10
521.9874237534
 20
397.7633454919
 30
0.0
 11
0.0
 21
62.5
 31
0.0
210
0.0
220
0.0
230
1.0
 40
0.3868783175
 41
1.450506444400109
 42
1.691086209189684
  0
LINE
  5
AC
330
1F
100
AcDbEntity
  8
0
  6
Continuous
 62
     7
370
     0
100
AcDbLine
 10
485.2891426619
 20
390.2633456595
 30
0.0
 11
497.98224979
 21
390.2633456595
 31
0.0
  0
LINE
  5
AD
330
1F
100
AcDbEntity
  8
0
  6
Continuous
 62
     7
370
     0
100
AcDbLine
 10
484.8473530348
 20
405.2633453242
 30
0.0
 11
497.98224979
 21
405.2633453242
 31
0.0
  0
LINE
  5
AE
330
1F
100
AcDbEntity
  8
0
  6
Continuous
 62
     7
370
     0
100
AcDbLine
 10
145.7677047785
 20
405.2633453242
 30
0.0
 11
132.6328080233
 21
405.2633453242
 31
0.0
  0
LINE
  5
AF
330
1F
100
AcDbEntity
  8
0
  6
Continuous
 62
     7
370
     0
100
AcDbLine
 10
145.3259151514
 20
390.2633456595
 30
0.0
 11
132.6328080233
 21
390.2633456595
 31
0.0
  0
ELLIPSE
  5
B0
330
1F
100
AcDbEntity
  8
0
  6
Continuous
 62
     7
370
     0
100
AcDbEllipse
 10
108.6276340598
 20
397.7633454919
 30
0.0
 11
0.0
 21
62.5
 31
0.0
210
0.0
220
0.0
230
1.0
 40
0.3868783175
 41
4.592099097989908
 42
4.832678862779483
  0
LINE
  5
B1
330
1F
100
AcDbEntity
  8
0
  6
Continuous
 62
     7
370
     0
100
AcDbLine
 10
40.290863448
 20
350.7633471012
 30
0.0
 11
35.3075277145
 21
350.7633471012
 31
0.0
  0
LINE
  5
B2
330
1F
100
AcDbEntity
  8
0
  6
Continuous
 62
     7
370
     0
100
AcDbLine
 10
35.3075277145
 20
350.7633471012
 30
0.0
 11
35.3075277145
 21
444.7633438825
 31
0.0
  0
LINE
  5
B3
330
1F
100
AcDbEntity
  8
0
  6
Continuous
 62
     7
370
     0
100
AcDbLine
 10
35.3075277145
 20
444.7633438825
 30
0.0
 11
40.290863448
 21
444.7633438825
 31
0.0
  0
LINE
  5
B4
330
1F
100
AcDbEntity
  8
0
  6
Continuous
 62
     7
370
     0
100
AcDbLine
 10
79.3075274761
 20
312.7633445978
 30
0.0
 11
79.3075274761
 21
315.7633432269
 31
0.0
  0
LINE
  5
B5
330
1F
100
AcDbEntity
  8
0
  6
Continuous
 62
     7
370
     0
100
AcDbLine
 10
108.3075266417
 20
312.7633445978
 30
0.0
 11
108.3075266417
 21
482.7633463859
 31
0.0
  0
LINE
  5
B6
330
1F
100
AcDbEntity
  8
0
  6
Continuous
 62
     7
370
     0
100
AcDbLine
 10
62.8075312908
 20
555.7633527636
 30
0.0
 11
77.8075318869
 21
555.7633527636
 31
0.0
  0
LINE
  5
B7
330
1F
100
AcDbEntity
  8
0
  6
Continuous
 62
     7
370
     0
100
AcDbLine
 10
43.8075374897
 20
311.7633425712
 30
0.0
 11
43.8075374897
 21
315.7633432269
 31
0.0
  0
LINE
  5
B8
330
1F
100
AcDbEntity
  8
0
  6
Continuous
 62
     7
370
     0
100
AcDbLine
 10
43.8075374897
 20
311.7633425712
 30
0.0
 11
40.5575346287
 21
311.7633425712
 31
0.0
  0
LINE
  5
B9
330
1F
100
AcDbEntity
  8
0
  6
Continuous
 62
     7
370
     0
100
AcDbLine
 10
40.5575346287
 20
311.7633425712
 30
0.0
 11
40.5575346287
 21
315.7633432269
 31
0.0
  0
LINE
  5
BA
330
1F
100
AcDbEntity
  8
0
  6
Continuous
 62
     7
370
     0
100
AcDbLine
 10
47.0575403507
 20
311.7633425712
 30
0.0
 11
47.0575403507
 21
315.7633432269
 31
0.0
  0
LINE
  5
BB
330
1F
100
AcDbEntity
  8
0
  6
Continuous
 62
     7
370
     0
100
AcDbLine
 10
47.0575403507
 20
311.7633425712
 30
0.0
 11
43.8075374897
 21
311.7633425712
 31
0.0
  0
LINE
  5
BC
330
1F
100
AcDbEntity
  8
0
  6
Continuous
 62
     7
370
     0
100
AcDbLine
 10
96.807525688
 20
311.7633425712
 30
0.0
 11
96.807525688
 21
315.7633432269
 31
0.0
  0
LINE
  5
BD
330
1F
100
AcDbEntity
  8
0
  6
Continuous
 62
     7
370
     0
100
AcDbLine
 10
96.807525688
 20
311.7633425712
 30
0.0
 11
93.557522827
 21
311.7633425712
 31
0.0
  0
LINE
  5
BE
330
1F
100
AcDbEntity
  8
0
  6
Continuous
 62
     7
370
     0
100
AcDbLine
 10
93.557522827
 20
311.7633425712
 30
0.0
 11
93.557522827
 21
315.7633432269
 31
0.0
  0
LINE
  5
BF
330
1F
100
AcDbEntity
  8
0
  6
Continuous
 62
     7
370
     0
100
AcDbLine
 10
100.057528549
 20
311.7633425712
 30
0.0
 11
100.057528549
 21
315.7633432269
 31
0.0
  0
LINE
  5
C0
330
1F
100
AcDbEntity
  8
0
  6
Continuous
 62
     7
370
     0
100
AcDbLine
 10
100.057528549
 20
311.7633425712
 30
0.0
 11
96.807525688
 21
311.7633425712
 31
0.0
  0
LINE
  5
C1
330
1F
100
AcDbEntity
  8
0
  6
Continuous
 62
     7
370
     0
100
AcDbLine
 10
115.3075259264
 20
460.2633454919
 30
0.0
 11
115.3075259264
 21
457.3939033866
 31
0.0
  0
LINE
  5
C2
330
1F
100
AcDbEntity
  8
0
  6
Continuous
 62
     7
370
     0
100
AcDbLine
 10
115.3075259264
 20
338.1327875972
 30
0.0
 11
115.3075259264
 21
335.2633454919
 31
0.0
  0
LINE
  5
C3
330
1F
100
AcDbEntity
  8
0
  6
Continuous
 62
     7
370
     0
100
AcDbLine
 10
115.3075259264
 20
434.3170971691
 30
0.0
 11
115.3075259264
 21
361.2095938146
 31
0.0
  0
LINE
  5
C4
330
1F
100
AcDbEntity
  8
0
  6
Continuous
 62
     7
370
     0
100
AcDbLine
 10
132.8075241383
 20
460.2633454919
 30
0.0
 11
132.8075241383
 21
405.2633453242
 31
0.0
  0
LINE
  5
C5
330
1F
100
AcDbEntity
  8
0
  6
Continuous
 62
     7
370
     0
100
AcDbLine
 10
132.8075241383
 20
390.2633456595
 30
0.0
 11
132.8075241383
 21
335.2633454919
 31
0.0
  0
LINE
  5
C6
330
1F
100
AcDbEntity
  8
0
  6
Continuous
 62
     7
370
     0
100
AcDbLine
 10
542.3075269993
 20
460.2633454919
 30
0.0
 11
542.3075269993
 21
335.2633454919
 31
0.0
  0
LINE
  5
C7
330
1F
100
AcDbEntity
  8
0
  6
Continuous
 62
     7
370
     0
100
AcDbLine
 10
497.807533675
 20
460.2633454919
 30
0.0
 11
497.807533675
 21
405.2633453242
 31
0.0
  0
LINE
  5
C8
330
1F
100
AcDbEntity
  8
0
  6
Continuous
 62
     7
370
     0
100
AcDbLine
 10
497.807533675
 20
390.2633456595
 30
0.0
 11
497.807533675
 21
335.2633454919
 31
0.0
  0
LINE
  5
C9
330
1F
100
AcDbEntity
  8
0
  6
Continuous
 62
     7
370
     0
100
AcDbLine
 10
115.3075259264
 20
443.2517663657
 30
0.0
 11
108.3075266417
 21
443.2517663657
 31
0.0
  0
LINE
  5
CA
330
1F
100
AcDbEntity
  8
0
  6
Continuous
 62
     7
370
     0
100
AcDbLine
 10
115.3075259264
 20
418.0784058839
 30
0.0
 11
108.3075266417
 21
418.0784058839
 31
0.0
  0
LINE
  5
CB
330
1F
100
AcDbEntity
  8
0
  6
Continuous
 62
     7
370
     0
100
AcDbLine
 10
115.3075259264
 20
443.2517663657
 30
0.0
 11
115.3075259264
 21
434.3170971691
 31
0.0
  0
LINE
  5
CC
330
1F
100
AcDbEntity
  8
0
  6
Continuous
 62
     7
370
     0
100
AcDbLine
 10
115.3075259264
 20
457.3939033866
 30
0.0
 11
108.3075266417
 21
457.3939033866
 31
0.0
  0
LINE
  5
CD
330
1F
100
AcDbEntity
  8
0
  6
Continuous
 62
     7
370
     0
100
AcDbLine
 10
115.3075259264
 20
457.3939033866
 30
0.0
 11
115.3075259264
 21
443.2517663657
 31
0.0
  0
LINE
  5
CE
330
1F
100
AcDbEntity
  8
0
  6
Continuous
 62
     7
370
     0
100
AcDbLine
 10
115.3075259264
 20
352.274924618
 30
0.0
 11
108.3075266417
 21
352.274924618
 31
0.0
  0
LINE
  5
CF
330
1F
100
AcDbEntity
  8
0
  6
Continuous
 62
     7
370
     0
100
AcDbLine
 10
115.3075259264
 20
352.274924618
 30
0.0
 11
115.3075259264
 21
338.1327875972
 31
0.0
  0
LINE
  5
D0
330
1F
100
AcDbEntity
  8
0
  6
Continuous
 62
     7
370
     0
100
AcDbLine
 10
115.3075259264
 20
338.1327875972
 30
0.0
 11
108.3075266417
 21
338.1327875972
 31
0.0
  0
LINE
  5
D1
330
1F
100
AcDbEntity
  8
0
  6
Continuous
 62
     7
370
     0
100
AcDbLine
 10
115.3075259264
 20
377.4482850998
 30
0.0
 11
108.3075266417
 21
377.4482850998
 31
0.0
  0
LINE
  5
D2
330
1F
100
AcDbEntity
  8
0
  6
Continuous
 62
     7
370
     0
100
AcDbLine
 10
115.3075259264
 20
361.2095938146
 30
0.0
 11
115.3075259264
 21
352.274924618
 31
0.0
  0
LINE
  5
D3
330
1F
100
AcDbEntity
  8
0
  6
Continuous
 62
     7
370
     0
100
AcDbLine
 10
28.3575367268
 20
391.2633453578
 30
0.0
 11
28.3575367268
 21
404.263345626
 31
0.0
  0
SPLINE
  5
D4
330
1F
100
AcDbEntity
  8
0
  6
Continuous
 62
     7
370
     0
100
AcDbSpline
210
0.0
220
0.0
230
1.0
 70
     8
 71
     3
 72
     9
 73
     5
 74
     0
 42
0.00000001
 43
0.00000001
 12
1.0
 22
0.0
 32
0.0
 13
1.0
 23
0.0
 33
0.0
 40
0.0
 40
0.0
 40
0.0
 40
0.0
 40
0.6097389601205664
 40
1.0
 40
1.0
 40
1.0
 40
1.0
 10
147.155181699573
 20
367.8260372102073
 30
0.0
 10
144.2424368938346
 20
366.0952763501306
 30
0.0
 10
139.4654011519125
 20
363.256748761645
 30
0.0
 10
134.6764609294209
 20
360.4383589980983
 30
0.0
 10
132.8075241382708
 20
359.338451278191
 30
0.0
  0
SPLINE
  5
D5
330
1F
100
AcDbEntity
  8
0
  6
Continuous
 62
     7
370
     0
100
AcDbSpline
210
0.0
220
0.0
230
1.0
 70
     8
 71
     3
 72
    10
 73
     6
 74
     0
 42
0.00000001
 43
0.00000001
 12
1.0
 22
0.0
 32
0.0
 13
1.0
 23
0.0
 33
0.0
 40
0.0
 40
0.0
 40
0.0
 40
0.0
 40
0.5
 40
0.5
 40
1.0
 40
1.0
 40
1.0
 40
1.0
 10
132.8075289066424
 20
368.9333724830897
 30
0.0
 10
132.9763754827236
 20
369.3658704270656
 30
0.0
 10
133.0672464999304
 20
369.7839594913064
 30
0.0
 10
133.0674264226992
 20
370.5872157186364
 30
0.0
 10
132.9763919575338
 20
370.9497590362465
 30
0.0
 10
132.8075289066424
 20
371.2764589947132
 30
0.0
  0
SPLINE
  5
D6
330
1F
100
AcDbEntity
  8
0
  6
Continuous
 62
     7
370
     0
100
AcDbSpline
210
0.0
220
0.0
230
1.0
 70
     8
 71
     3
 72
     8
 73
     4
 74
     0
 42
0.00000001
 43
0.00000001
 12
1.0
 22
0.0
 32
0.0
 13
1.0
 23
0.0
 33
0.0
 40
0.0
 40
0.0
 40
0.0
 40
0.0
 40
1.0
 40
1.0
 40
1.0
 40
1.0
 10
132.8075289066424
 20
436.1882397662828
 30
0.0
 10
138.0984156809297
 20
433.0759005464658
 30
0.0
 10
143.3839462608691
 20
429.9542431098466
 30
0.0
 10
148.6557937958976
 20
426.8107205884231
 30
0.0
  0
LINE
  5
D7
330
1F
100
AcDbEntity
  8
0
  6
Continuous
 62
     7
370
     0
100
AcDbLine
 10
148.6557882364
 20
426.8107210368
 30
0.0
 11
148.6557882364
 21
426.3371323317
 31
0.0
  0
SPLINE
  5
D8
330
1F
100
AcDbEntity
  8
0
  6
Continuous
 62
     7
370
     0
100
AcDbSpline
210
0.0
220
0.0
230
1.0
 70
     8
 71
     3
 72
    10
 73
     6
 74
     0
 42
0.00000001
 43
0.00000001
 12
1.0
 22
0.0
 32
0.0
 13
1.0
 23
0.0
 33
0.0
 40
0.0
 40
0.0
 40
0.0
 40
0.0
 40
0.5
 40
0.5
 40
1.0
 40
1.0
 40
1.0
 40
1.0
 10
132.8075289066424
 20
424.250231989022
 30
0.0
 10
132.9763754827236
 20
424.5769000736136
 30
0.0
 10
133.0672464999304
 20
424.938344635421
 30
0.0
 10
133.0674264226992
 20
425.7414885226196
 30
0.0
 10
132.9763919575338
 20
426.160778356693
 30
0.0
 10
132.8075289066424
 20
426.5933185006455
 30
0.0
  0
LINE
  5
D9
330
1F
100
AcDbEntity
  8
0
  6
Continuous
 62
     7
370
     0
100
AcDbLine
 10
481.9592695768
 20
426.3371323317
 30
0.0
 11
481.9592695768
 21
426.8107210368
 31
0.0
  0
SPLINE
  5
DA
330
1F
100
AcDbEntity
  8
0
  6
Continuous
 62
     7
370
     0
100
AcDbSpline
210
0.0
220
0.0
230
1.0
 70
     8
 71
     3
 72
     8
 73
     4
 74
     0
 42
0.00000001
 43
0.00000001
 12
1.0
 22
0.0
 32
0.0
 13
1.0
 23
0.0
 33
0.0
 40
0.0
 40
0.0
 40
0.0
 40
0.0
 40
1.0
 40
1.0
 40
1.0
 40
1.0
 10
481.9592640173872
 20
426.810720588423
 30
0.0
 10
487.2313883060677
 20
429.954408133841
 30
0.0
 10
492.5167817394449
 20
433.0759826696787
 30
0.0
 10
497.8075289066423
 20
436.1882397662828
 30
0.0
  0
SPLINE
  5
DB
330
1F
100
AcDbEntity
  8
0
  6
Continuous
 62
     7
370
     0
100
AcDbSpline
210
0.0
220
0.0
230
1.0
 70
     8
 71
     3
 72
    10
 73
     6
 74
     0
 42
0.00000001
 43
0.00000001
 12
1.0
 22
0.0
 32
0.0
 13
1.0
 23
0.0
 33
0.0
 40
0.0
 40
0.0
 40
0.0
 40
0.0
 40
0.5
 40
0.5
 40
1.0
 40
1.0
 40
1.0
 40
1.0
 10
497.8075289066423
 20
424.250231989022
 30
0.0
 10
497.6386823305612
 20
424.5769000736136
 30
0.0
 10
497.5478113133544
 20
424.938344635421
 30
0.0
 10
497.5476313905856
 20
425.7414885226196
 30
0.0
 10
497.638665855751
 20
426.160778356693
 30
0.0
 10
497.8075289066423
 20
426.5933185006455
 30
0.0
  0
SPLINE
  5
DC
330
1F
100
AcDbEntity
  8
0
  6
Continuous
 62
     7
370
     0
100
AcDbSpline
210
0.0
220
0.0
230
1.0
 70
     8
 71
     3
 72
     9
 73
     5
 74
     0
 42
0.00000001
 43
0.00000001
 12
1.0
 22
0.0
 32
0.0
 13
1.0
 23
0.0
 33
0.0
 40
0.0
 40
0.0
 40
0.0
 40
0.0
 40
0.9062909918878215
 40
1.0
 40
1.0
 40
1.0
 40
1.0
 10
497.807533675014
 20
359.338451278191
 30
0.0
 10
493.4664405402974
 20
361.895253975472
 30
0.0
 10
488.6764854667355
 20
364.7164258950505
 30
0.0
 10
483.9001457050408
 20
367.5605542559152
 30
0.0
 10
483.4525596435656
 20
367.8270747035555
 30
0.0
  0
SPLINE
  5
DD
330
1F
100
AcDbEntity
  8
0
  6
Continuous
 62
     7
370
     0
100
AcDbSpline
210
0.0
220
0.0
230
1.0
 70
     8
 71
     3
 72
    10
 73
     6
 74
     0
 42
0.00000001
 43
0.00000001
 12
1.0
 22
0.0
 32
0.0
 13
1.0
 23
0.0
 33
0.0
 40
0.0
 40
0.0
 40
0.0
 40
0.0
 40
0.5
 40
0.5
 40
1.0
 40
1.0
 40
1.0
 40
1.0
 10
497.8075289066423
 20
368.9333724830897
 30
0.0
 10
497.6386823305612
 20
369.3658704270656
 30
0.0
 10
497.5478113133544
 20
369.7839594913064
 30
0.0
 10
497.5476313905856
 20
370.5872157186364
 30
0.0
 10
497.638665855751
 20
370.9497590362465
 30
0.0
 10
497.8075289066423
 20
371.2764589947132
 30
0.0
  0
LINE
  5
DE
330
1F
100
AcDbEntity
  8
0
  6
Continuous
 62
     7
370
     0
100
AcDbLine
 10
148.6557882364
 20
426.8107210368
 30
0.0
 11
148.7519007261
 21
426.8107210368
 31
0.0
  0
LINE
  5
DF
330
1F
100
AcDbEntity
  8
0
  6
Continuous
 62
     7
370
     0
100
AcDbLine
 10
481.8631570871
 20
426.8107210368
 30
0.0
 11
481.9592695768
 21
426.8107210368
 31
0.0
  0
LINE
  5
E0
330
1F
100
AcDbEntity
  8
0
  6
Continuous
 62
     7
370
     0
100
AcDbLine
 10
132.8075241383
 20
355.2633450448
 30
0.0
 11
149.4951408442
 21
355.2633450448
 31
0.0
  0
LINE
  5
E1
330
1F
100
AcDbEntity
  8
0
  6
Continuous
 62
     7
370
     0
100
AcDbLine
 10
497.807533675
 20
355.2633450448
 30
0.0
 11
481.1199169691
 21
355.2633450448
 31
0.0
  0
LINE
  5
E2
330
1F
100
AcDbEntity
  8
0
  6
Continuous
 62
     7
370
     0
100
AcDbLine
 10
132.8075241383
 20
440.2633459389
 30
0.0
 11
152.0783912476
 21
440.2633459389
 31
0.0
  0
LINE
  5
E3
330
1F
100
AcDbEntity
  8
0
  6
Continuous
 62
     7
370
     0
100
AcDbLine
 10
170.3047465618
 20
440.2633459389
 30
0.0
 11
187.765852743
 21
440.2633459389
 31
0.0
  0
LINE
  5
E4
330
1F
100
AcDbEntity
  8
0
  6
Continuous
 62
     7
370
     0
100
AcDbLine
 10
497.807533675
 20
440.2633459389
 30
0.0
 11
478.5366665657
 21
440.2633459389
 31
0.0
  0
LINE
  5
E5
330
1F
100
AcDbEntity
  8
0
  6
Continuous
 62
     7
370
     0
100
AcDbLine
 10
460.3103112515
 20
440.2633459389
 30
0.0
 11
442.8492050703
 21
440.2633459389
 31
0.0
  0
LINE
  5
E6
330
1F
100
AcDbEntity
  8
0
  6
Continuous
 62
     7
370
     0
100
AcDbLine
 10
28.3575367268
 20
427.2633456707
 30
0.0
 11
28.3575367268
 21
440.2633459389
 31
0.0
  0
LINE
  5
E7
330
1F
100
AcDbEntity
  8
0
  6
Continuous
 62
     7
370
     0
100
AcDbLine
 10
28.3575367268
 20
355.2633450448
 30
0.0
 11
28.3575367268
 21
368.2633453131
 31
0.0
  0
INSERT
  5
12B
330
1F
100
AcDbEntity
  8
FORMAT
 62
     7
100
AcDbBlockReference
  2
SW_CENTERMARKSYMBOL_0
 10
179.0352978612
 20
449.2091517657
 30
0.0
  0
LINE
  5
12C
330
1F
100
AcDbEntity
  8
FORMAT
  6
CENTERX2
 62
     7
370
     0
100
AcDbLine
 10
18.3282653839
 20
397.7633454919
 30
0.0
 11
134.8075289066
 21
397.7633454919
 31
0.0
  0
LINE
  5
12D
330
1F
100
AcDbEntity
  8
FORMAT
  6
CENTERX2
 62
     7
370
     0
100
AcDbLine
 10
495.8075289066
 20
397.7633454919
 30
0.0
 11
544.3075289066
 21
397.7633454919
 31
0.0
  0
LINE
  5
12E
330
1F
100
AcDbEntity
  8
0
  6
Continuous
 62
     7
370
     0
100
AcDbLine
 10
709.6657501233
 20
515.7633462071
 30
0.0
 11
709.6657501233
 21
505.7633482933
 31
0.0
  0
LINE
  5
12F
330
1F
100
AcDbEntity
  8
0
  6
Continuous
 62
     7
370
     0
100
AcDbLine
 10
835.6657484245
 20
505.7633482933
 30
0.0
 11
835.6657484245
 21
515.7633462071
 31
0.0
  0
LINE
  5
130
330
1F
100
AcDbEntity
  8
0
  6
Continuous
 62
     7
370
     0
100
AcDbLine
 10
807.6657512856
 20
444.7633438825
 30
0.0
 11
807.6657512856
 21
479.7633477568
 31
0.0
  0
LINE
  5
131
330
1F
100
AcDbEntity
  8
0
  6
Continuous
 62
     7
370
     0
100
AcDbLine
 10
737.6657509875
 20
479.7633477568
 30
0.0
 11
737.6657509875
 21
460.5646171689
 31
0.0
  0
LINE
  5
132
330
1F
100
AcDbEntity
  8
0
  6
Continuous
 62
     7
370
     0
100
AcDbLine
 10
737.6657509875
 20
334.9620738149
 30
0.0
 11
737.6657509875
 21
315.7633432269
 31
0.0
  0
LINE
  5
133
330
1F
100
AcDbEntity
  8
0
  6
Continuous
 62
     7
370
     0
100
AcDbLine
 10
807.6657512856
 20
315.7633432269
 30
0.0
 11
807.6657512856
 21
350.7633471012
 31
0.0
  0
LINE
  5
134
330
1F
100
AcDbEntity
  8
0
  6
Continuous
 62
     7
370
     0
100
AcDbLine
 10
801.6657465768
 20
479.7633477568
 30
0.0
 11
801.6657465768
 21
505.7633482933
 31
0.0
  0
LINE
  5
135
330
1F
100
AcDbEntity
  8
0
  6
Continuous
 62
     7
370
     0
100
AcDbLine
 10
743.6657482457
 20
505.7633482933
 30
0.0
 11
743.6657482457
 21
479.7633477568
 31
0.0
  0
LINE
  5
136
330
1F
100
AcDbEntity
  8
0
  6
Continuous
 62
     7
370
     0
100
AcDbLine
 10
801.6657465768
 20
350.7633471012
 30
0.0
 11
801.6657465768
 21
444.7633438825
 31
0.0
  0
LINE
  5
137
330
1F
100
AcDbEntity
  8
0
  6
Continuous
 62
     7
370
     0
100
AcDbLine
 10
780.1657477093
 20
515.7633462071
 30
0.0
 11
780.1657477093
 21
555.7633527636
 31
0.0
  0
LINE
  5
138
330
1F
100
AcDbEntity
  8
0
  6
Continuous
 62
     7
370
     0
100
AcDbLine
 10
765.1657471132
 20
555.7633527636
 30
0.0
 11
765.1657471132
 21
515.7633462071
 31
0.0
  0
LINE
  5
139
330
1F
100
AcDbEntity
  8
0
  6
Continuous
 62
     7
370
     0
100
AcDbLine
 10
581.6657477689
 20
259.7633489489
 30
0.0
 11
584.665746398
 21
259.7633489489
 31
0.0
  0
LINE
  5
13A
330
1F
100
AcDbEntity
  8
0
  6
Continuous
 62
     7
370
     0
100
AcDbLine
 10
584.665746398
 20
525.7633515715
 30
0.0
 11
581.6657477689
 21
525.7633515715
 31
0.0
  0
LINE
  5
13B
330
1F
100
AcDbEntity
  8
0
  6
Continuous
 62
     7
370
     0
100
AcDbLine
 10
808.6657533121
 20
259.7633489489
 30
0.0
 11
811.6657519412
 21
259.7633489489
 31
0.0
  0
LINE
  5
13C
330
1F
100
AcDbEntity
  8
0
  6
Continuous
 62
     7
370
     0
100
AcDbLine
 10
811.6657519412
 20
525.7633515715
 30
0.0
 11
808.6657533121
 21
525.7633515715
 31
0.0
  0
LINE
  5
13D
330
1F
100
AcDbEntity
  8
0
  6
Continuous
 62
     7
370
     0
100
AcDbLine
 10
601.6657510471
 20
269.7633394122
 30
0.0
 11
638.7566933108
 21
283.263344419
 31
0.0
  0
LINE
  5
13E
330
1F
100
AcDbEntity
  8
0
  6
Continuous
 62
     7
370
     0
100
AcDbLine
 10
754.5748063994
 20
283.263344419
 30
0.0
 11
791.665748663
 21
269.7633394122
 31
0.0
  0
LINE
  5
13F
330
1F
100
AcDbEntity
  8
0
  6
Continuous
 62
     7
370
     0
100
AcDbLine
 10
638.7566933108
 20
502.2633486509
 30
0.0
 11
601.6657510471
 21
515.7633462071
 31
0.0
  0
LINE
  5
140
330
1F
100
AcDbEntity
  8
0
  6
Continuous
 62
     7
370
     0
100
AcDbLine
 10
680.8275235516
 20
502.2633486509
 30
0.0
 11
638.7566933108
 21
502.2633486509
 31
0.0
  0
LINE
  5
141
330
1F
100
AcDbEntity
  8
0
  6
Continuous
 62
     7
370
     0
100
AcDbLine
 10
743.6657482457
 20
502.2633486509
 30
0.0
 11
712.5063640696
 21
502.2633486509
 31
0.0
  0
LINE
  5
142
330
1F
100
AcDbEntity
  8
0
  6
Continuous
 62
     7
370
     0
100
AcDbLine
 10
712.5063640696
 20
283.263344419
 30
0.0
 11
754.5748063994
 21
283.263344419
 31
0.0
  0
LINE
  5
143
330
1F
100
AcDbEntity
  8
0
  6
Continuous
 62
     7
370
     0
100
AcDbLine
 10
638.7566933108
 20
283.263344419
 30
0.0
 11
680.8275235516
 21
283.263344419
 31
0.0
  0
LINE
  5
144
330
1F
100
AcDbEntity
  8
0
  6
Continuous
 62
     7
370
     0
100
AcDbLine
 10
712.5168246848
 20
502.2620969534
 30
0.0
 11
712.4251415652
 21
505.7633482933
 31
0.0
  0
LINE
  5
145
330
1F
100
AcDbEntity
  8
0
  6
Continuous
 62
     7
370
     0
100
AcDbLine
 10
712.1632825282
 20
515.7633462071
 30
0.0
 11
711.6657495198
 21
534.7633400082
 31
0.0
  0
LINE
  5
146
330
1F
100
AcDbEntity
  8
0
  6
Continuous
 62
     7
370
     0
100
AcDbLine
 10
681.6657501903
 20
534.7633400082
 30
0.0
 11
680.8146675748
 21
502.2618138313
 31
0.0
  0
LINE
  5
147
330
1F
100
AcDbEntity
  8
0
  6
Continuous
 62
     7
370
     0
100
AcDbLine
 10
680.8146675748
 20
283.2648792386
 30
0.0
 11
681.6657501903
 21
250.7633456111
 31
0.0
  0
LINE
  5
148
330
1F
100
AcDbEntity
  8
0
  6
Continuous
 62
     7
370
     0
100
AcDbLine
 10
711.6657495198
 20
250.7633456111
 30
0.0
 11
712.5168246848
 21
283.2645961165
 31
0.0
  0
LINE
  5
149
330
1F
100
AcDbEntity
  8
0
  6
Continuous
 62
     7
370
     0
100
AcDbLine
 10
709.6657501233
 20
515.7633462071
 30
0.0
 11
835.6657484245
 21
515.7633462071
 31
0.0
  0
LINE
  5
14A
330
1F
100
AcDbEntity
  8
0
  6
Continuous
 62
     7
370
     0
100
AcDbLine
 10
709.6657501233
 20
505.7633482933
 30
0.0
 11
835.6657484245
 21
505.7633482933
 31
0.0
  0
CIRCLE
  5
14B
330
1F
100
AcDbEntity
  8
0
  6
Continuous
 62
     7
370
     0
100
AcDbCircle
 10
660.6657498551
 20
397.7633454919
 30
0.0
 40
6.5
  0
CIRCLE
  5
14C
330
1F
100
AcDbEntity
  8
0
  6
Continuous
 62
     7
370
     0
100
AcDbCircle
 10
696.6657498551
 20
361.7633454919
 30
0.0
 40
6.499999999999886
  0
CIRCLE
  5
14D
330
1F
100
AcDbEntity
  8
0
  6
Continuous
 62
     7
370
     0
100
AcDbCircle
 10
696.6657498551
 20
433.7633454919
 30
0.0
 40
6.499999999999886
  0
CIRCLE
  5
14E
330
1F
100
AcDbEntity
  8
0
  6
Continuous
 62
     7
370
     0
100
AcDbCircle
 10
732.6657498551
 20
397.7633454919
 30
0.0
 40
6.5
  0
LINE
  5
14F
330
1F
100
AcDbEntity
  8
0
  6
Continuous
 62
     7
370
     0
100
AcDbLine
 10
807.6657512856
 20
444.7633438825
 30
0.0
 11
790.6657466364
 21
444.7633438825
 31
0.0
  0
LINE
  5
150
330
1F
100
AcDbEntity
  8
0
  6
Continuous
 62
     7
370
     0
100
AcDbLine
 10
754.6657481861
 20
444.7633438825
 30
0.0
 11
746.7283243013
 21
444.7633438825
 31
0.0
  0
LINE
  5
151
330
1F
100
AcDbEntity
  8
0
  6
Continuous
 62
     7
370
     0
100
AcDbLine
 10
746.7283243013
 20
444.7633438825
 30
0.0
 11
746.7283243013
 21
453.6090121686
 31
0.0
  0
LINE
  5
152
330
1F
100
AcDbEntity
  8
0
  6
Continuous
 62
     7
370
     0
100
AcDbLine
 10
807.6657512856
 20
479.7633477568
 30
0.0
 11
737.6657509875
 21
479.7633477568
 31
0.0
  0
LINE
  5
153
330
1F
100
AcDbEntity
  8
0
  6
Continuous
 62
     7
370
     0
100
AcDbLine
 10
746.7283243013
 20
350.7633471012
 30
0.0
 11
746.7283243013
 21
341.9176788151
 31
0.0
  0
LINE
  5
154
330
1F
100
AcDbEntity
  8
0
  6
Continuous
 62
     7
370
     0
100
AcDbLine
 10
754.6657481861
 20
350.7633471012
 30
0.0
 11
746.7283243013
 21
350.7633471012
 31
0.0
  0
LINE
  5
155
330
1F
100
AcDbEntity
  8
0
  6
Continuous
 62
     7
370
     0
100
AcDbLine
 10
807.6657512856
 20
350.7633471012
 30
0.0
 11
790.6657466364
 21
350.7633471012
 31
0.0
  0
LINE
  5
156
330
1F
100
AcDbEntity
  8
0
  6
Continuous
 62
     7
370
     0
100
AcDbLine
 10
807.6657512856
 20
315.7633432269
 30
0.0
 11
737.6657509875
 21
315.7633432269
 31
0.0
  0
LINE
  5
157
330
1F
100
AcDbEntity
  8
0
  6
Continuous
 62
     7
370
     0
100
AcDbLine
 10
772.6657474113
 20
350.7633471012
 30
0.0
 11
754.6657481861
 21
350.7633471012
 31
0.0
  0
LINE
  5
158
330
1F
100
AcDbEntity
  8
0
  6
Continuous
 62
     7
370
     0
100
AcDbLine
 10
772.6657474113
 20
444.7633438825
 30
0.0
 11
790.6657466364
 21
444.7633438825
 31
0.0
  0
LINE
  5
159
330
1F
100
AcDbEntity
  8
0
  6
Continuous
 62
     7
370
     0
100
AcDbLine
 10
790.6657466364
 20
350.7633471012
 30
0.0
 11
790.6657466364
 21
444.7633438825
 31
0.0
  0
LINE
  5
15A
330
1F
100
AcDbEntity
  8
0
  6
Continuous
 62
     7
370
     0
100
AcDbLine
 10
790.6657466364
 20
350.7633471012
 30
0.0
 11
772.6657474113
 21
350.7633471012
 31
0.0
  0
LINE
  5
15B
330
1F
100
AcDbEntity
  8
0
  6
Continuous
 62
     7
370
     0
100
AcDbLine
 10
754.6657481861
 20
350.7633471012
 30
0.0
 11
754.6657481861
 21
444.7633438825
 31
0.0
  0
LINE
  5
15C
330
1F
100
AcDbEntity
  8
0
  6
Continuous
 62
     7
370
     0
100
AcDbLine
 10
754.6657481861
 20
444.7633438825
 30
0.0
 11
772.6657474113
 21
444.7633438825
 31
0.0
  0
CIRCLE
  5
15D
330
1F
100
AcDbEntity
  8
0
  6
Continuous
 62
     7
370
     0
100
AcDbCircle
 10
696.6657498551
 20
397.7633454919
 30
0.0
 40
43.49999999999989
  0
LINE
  5
15E
330
1F
100
AcDbEntity
  8
0
  6
Continuous
 62
     7
370
     0
100
AcDbLine
 10
770.7893633914
 20
311.7633425712
 30
0.0
 11
770.7893633914
 21
315.7633432269
 31
0.0
  0
LINE
  5
15F
330
1F
100
AcDbEntity
  8
0
  6
Continuous
 62
     7
370
     0
100
AcDbLine
 10
768.912971921
 20
311.7633425712
 30
0.0
 11
768.912971921
 21
315.7633432269
 31
0.0
  0
LINE
  5
160
330
1F
100
AcDbEntity
  8
0
  6
Continuous
 62
     7
370
     0
100
AcDbLine
 10
770.7893633914
 20
311.7633425712
 30
0.0
 11
768.912971921
 21
311.7633425712
 31
0.0
  0
LINE
  5
161
330
1F
100
AcDbEntity
  8
0
  6
Continuous
 62
     7
370
     0
100
AcDbLine
 10
774.5421388817
 20
311.7633425712
 30
0.0
 11
774.5421388817
 21
315.7633432269
 31
0.0
  0
LINE
  5
162
330
1F
100
AcDbEntity
  8
0
  6
Continuous
 62
     7
370
     0
100
AcDbLine
 10
774.5421388817
 20
311.7633425712
 30
0.0
 11
770.7893633914
 21
311.7633425712
 31
0.0
  0
LINE
  5
163
330
1F
100
AcDbEntity
  8
0
  6
Continuous
 62
     7
370
     0
100
AcDbLine
 10
776.4185229015
 20
311.7633425712
 30
0.0
 11
776.4185229015
 21
315.7633432269
 31
0.0
  0
LINE
  5
164
330
1F
100
AcDbEntity
  8
0
  6
Continuous
 62
     7
370
     0
100
AcDbLine
 10
776.4185229015
 20
311.7633425712
 30
0.0
 11
774.5421388817
 21
311.7633425712
 31
0.0
  0
ARC
  5
165
330
1F
100
AcDbEntity
  8
0
  6
Continuous
 62
     7
370
     0
100
AcDbCircle
 10
696.6657498551
 20
397.7633454919
 30
0.0
 40
75.00000000000004
100
AcDbArc
 50
233.8710725281
 51
311.874482856
  0
ARC
  5
166
330
1F
100
AcDbEntity
  8
0
  6
Continuous
 62
     7
370
     0
100
AcDbCircle
 10
650.6766207048
 20
334.7633454919
 30
0.0
 40
3.0
100
AcDbArc
 50
53.8710725281
 51
90.0
  0
LINE
  5
167
330
1F
100
AcDbEntity
  8
0
  6
Continuous
 62
     7
370
     0
100
AcDbLine
 10
650.6766201627
 20
337.763346833
 30
0.0
 11
643.6657504809
 21
337.763346833
 31
0.0
  0
LINE
  5
168
330
1F
100
AcDbEntity
  8
0
  6
Continuous
 62
     7
370
     0
100
AcDbLine
 10
643.6657504809
 20
457.7633441508
 30
0.0
 11
650.6766201627
 21
457.7633441508
 31
0.0
  0
ARC
  5
169
330
1F
100
AcDbEntity
  8
0
  6
Continuous
 62
     7
370
     0
100
AcDbCircle
 10
650.6766207048
 20
460.7633454919
 30
0.0
 40
3.000000000000057
100
AcDbArc
 50
270.0
 51
306.1289274719
  0
ARC
  5
16A
330
1F
100
AcDbEntity
  8
0
  6
Continuous
 62
     7
370
     0
100
AcDbCircle
 10
696.6657498551
 20
397.7633454919
 30
0.0
 40
75.00000000000009
100
AcDbArc
 50
48.125517144
 51
126.1289274719
  0
ARC
  5
16B
330
1F
100
AcDbEntity
  8
0
  6
Continuous
 62
     7
370
     0
100
AcDbCircle
 10
643.6657498551
 20
340.7633454919
 30
0.0
 40
3.0
100
AcDbArc
 50
180.0
 51
270.0
  0
LINE
  5
16C
330
1F
100
AcDbEntity
  8
0
  6
Continuous
 62
     7
370
     0
100
AcDbLine
 10
640.6657481265
 20
340.7633454621
 30
0.0
 11
640.6657481265
 21
454.7633455217
 31
0.0
  0
ARC
  5
16D
330
1F
100
AcDbEntity
  8
0
  6
Continuous
 62
     7
370
     0
100
AcDbCircle
 10
643.6657498551
 20
454.7633454919
 30
0.0
 40
3.0
100
AcDbArc
 50
90.0
 51
180.0
  0
LINE
  5
16E
330
1F
100
AcDbEntity
  8
0
  6
Continuous
 62
     7
370
     0
100
AcDbLine
 10
618.6657482457
 20
432.7936918557
 30
0.0
 11
640.6657481265
 21
432.7936918557
 31
0.0
  0
LINE
  5
16F
330
1F
100
AcDbEntity
  8
0
  6
Continuous
 62
     7
370
     0
100
AcDbLine
 10
618.6657482457
 20
432.7936918557
 30
0.0
 11
618.6657482457
 21
438.2785187185
 31
0.0
  0
LINE
  5
170
330
1F
100
AcDbEntity
  8
0
  6
Continuous
 62
     7
370
     0
100
AcDbLine
 10
618.6657482457
 20
438.2785187185
 30
0.0
 11
640.6657481265
 21
438.2785187185
 31
0.0
  0
LINE
  5
171
330
1F
100
AcDbEntity
  8
0
  6
Continuous
 62
     7
370
     0
100
AcDbLine
 10
618.6657482457
 20
340.7936916768
 30
0.0
 11
640.6657481265
 21
340.7936916768
 31
0.0
  0
LINE
  5
172
330
1F
100
AcDbEntity
  8
0
  6
Continuous
 62
     7
370
     0
100
AcDbLine
 10
618.6657482457
 20
346.2785185396
 30
0.0
 11
640.6657481265
 21
346.2785185396
 31
0.0
  0
LINE
  5
173
330
1F
100
AcDbEntity
  8
0
  6
Continuous
 62
     7
370
     0
100
AcDbLine
 10
618.6657482457
 20
340.7936916768
 30
0.0
 11
618.6657482457
 21
346.2785185396
 31
0.0
  0
LINE
  5
174
330
1F
100
AcDbEntity
  8
0
  6
Continuous
 62
     7
370
     0
100
AcDbLine
 10
618.6657482457
 20
357.2481722653
 30
0.0
 11
640.6657481265
 21
357.2481722653
 31
0.0
  0
LINE
  5
175
330
1F
100
AcDbEntity
  8
0
  6
Continuous
 62
     7
370
     0
100
AcDbLine
 10
618.6657482457
 20
362.7329991281
 30
0.0
 11
640.6657481265
 21
362.7329991281
 31
0.0
  0
LINE
  5
176
330
1F
100
AcDbEntity
  8
0
  6
Continuous
 62
     7
370
     0
100
AcDbLine
 10
618.6657482457
 20
357.2481722653
 30
0.0
 11
618.6657482457
 21
362.7329991281
 31
0.0
  0
LINE
  5
177
330
1F
100
AcDbEntity
  8
0
  6
Continuous
 62
     7
370
     0
100
AcDbLine
 10
618.6657482457
 20
449.2481724441
 30
0.0
 11
640.6657481265
 21
449.2481724441
 31
0.0
  0
LINE
  5
178
330
1F
100
AcDbEntity
  8
0
  6
Continuous
 62
     7
370
     0
100
AcDbLine
 10
618.6657482457
 20
438.2785187185
 30
0.0
 11
618.6657482457
 21
449.2481724441
 31
0.0
  0
LINE
  5
179
330
1F
100
AcDbEntity
  8
0
  6
Continuous
 62
     7
370
     0
100
AcDbLine
 10
618.6657482457
 20
454.7329993069
 30
0.0
 11
640.6657481265
 21
454.7329993069
 31
0.0
  0
LINE
  5
17A
330
1F
100
AcDbEntity
  8
0
  6
Continuous
 62
     7
370
     0
100
AcDbLine
 10
618.6657482457
 20
449.2481724441
 30
0.0
 11
618.6657482457
 21
454.7329993069
 31
0.0
  0
LINE
  5
17B
330
1F
100
AcDbEntity
  8
0
  6
Continuous
 62
     7
370
     0
100
AcDbLine
 10
618.6657482457
 20
346.2785185396
 30
0.0
 11
618.6657482457
 21
357.2481722653
 31
0.0
  0
LINE
  5
17C
330
1F
100
AcDbEntity
  8
0
  6
Continuous
 62
     7
370
     0
100
AcDbLine
 10
765.1657471132
 20
555.7633527636
 30
0.0
 11
780.1657477093
 21
555.7633527636
 31
0.0
  0
LINE
  5
17D
330
1F
100
AcDbEntity
  8
0
  6
Continuous
 62
     7
370
     0
100
AcDbLine
 10
746.1657495868
 20
311.7633425712
 30
0.0
 11
746.1657495868
 21
315.7633432269
 31
0.0
  0
LINE
  5
17E
330
1F
100
AcDbEntity
  8
0
  6
Continuous
 62
     7
370
     0
100
AcDbLine
 10
742.9157504511
 20
311.7633425712
 30
0.0
 11
742.9157504511
 21
315.7633432269
 31
0.0
  0
LINE
  5
17F
330
1F
100
AcDbEntity
  8
0
  6
Continuous
 62
     7
370
     0
100
AcDbLine
 10
746.1657495868
 20
311.7633425712
 30
0.0
 11
742.9157504511
 21
311.7633425712
 31
0.0
  0
LINE
  5
180
330
1F
100
AcDbEntity
  8
0
  6
Continuous
 62
     7
370
     0
100
AcDbLine
 10
749.4157487226
 20
311.7633425712
 30
0.0
 11
749.4157487226
 21
315.7633432269
 31
0.0
  0
LINE
  5
181
330
1F
100
AcDbEntity
  8
0
  6
Continuous
 62
     7
370
     0
100
AcDbLine
 10
749.4157487226
 20
311.7633425712
 30
0.0
 11
746.1657495868
 21
311.7633425712
 31
0.0
  0
LINE
  5
182
330
1F
100
AcDbEntity
  8
0
  6
Continuous
 62
     7
370
     0
100
AcDbLine
 10
799.165748961
 20
311.7633425712
 30
0.0
 11
799.165748961
 21
315.7633432269
 31
0.0
  0
LINE
  5
183
330
1F
100
AcDbEntity
  8
0
  6
Continuous
 62
     7
370
     0
100
AcDbLine
 10
799.165748961
 20
311.7633425712
 30
0.0
 11
795.9157535505
 21
311.7633425712
 31
0.0
  0
LINE
  5
184
330
1F
100
AcDbEntity
  8
0
  6
Continuous
 62
     7
370
     0
100
AcDbLine
 10
795.9157535505
 20
311.7633425712
 30
0.0
 11
795.9157535505
 21
315.7633432269
 31
0.0
  0
LINE
  5
185
330
1F
100
AcDbEntity
  8
0
  6
Continuous
 62
     7
370
     0
100
AcDbLine
 10
802.415751822
 20
311.7633425712
 30
0.0
 11
802.415751822
 21
315.7633432269
 31
0.0
  0
LINE
  5
186
330
1F
100
AcDbEntity
  8
0
  6
Continuous
 62
     7
370
     0
100
AcDbLine
 10
802.415751822
 20
311.7633425712
 30
0.0
 11
799.165748961
 21
311.7633425712
 31
0.0
  0
ARC
  5
187
330
1F
100
AcDbEntity
  8
0
  6
Continuous
 62
     7
370
     0
100
AcDbCircle
 10
696.6657498551
 20
397.7633454919
 30
0.0
 40
85.00000000000007
100
AcDbArc
 50
155.6618131747
 51
204.3381868253
  0
ARC
  5
188
330
1F
100
AcDbEntity
  8
0
  6
Continuous
 62
     7
370
     0
100
AcDbCircle
 10
696.6657498551
 20
397.7633454919
 30
0.0
 40
85.00000000000007
100
AcDbArc
 50
222.0849142652
 51
298.8391894006
  0
ARC
  5
189
330
1F
100
AcDbEntity
  8
0
  6
Continuous
 62
     7
370
     0
100
AcDbCircle
 10
696.6657498551
 20
397.7633454919
 30
0.0
 40
85.00000000000011
100
AcDbArc
 50
61.1608105994
 51
137.9150857348
  0
LINE
  5
18A
330
1F
100
AcDbEntity
  8
0
  6
Continuous
 62
     7
370
     0
100
AcDbLine
 10
601.6657510471
 20
390.2633456595
 30
0.0
 11
611.9972774458
 21
390.2633456595
 31
0.0
  0
ELLIPSE
  5
18B
330
1F
100
AcDbEntity
  8
0
  6
Continuous
 62
     7
370
     0
100
AcDbEllipse
 10
162.4412005024
 20
392.7633454919
 30
0.0
 11
439.4146487120224
 21
0.0
 31
0.0
210
0.0
220
0.0
230
1.0
 40
0.3868783175
 41
0.0294160068079387
 42
0.073595830525171
  0
LINE
  5
18C
330
1F
100
AcDbEntity
  8
0
  6
Continuous
 62
     7
370
     0
100
AcDbLine
 10
600.6663748694
 20
405.2633453242
 30
0.0
 11
611.9972774458
 21
405.2633453242
 31
0.0
  0
LINE
  5
18D
330
1F
100
AcDbEntity
  8
0
  6
Continuous
 62
     7
370
     0
100
AcDbLine
 10
601.6657510471
 20
547.6826765656
 30
0.0
 11
584.665746398
 21
547.6826765656
 31
0.0
  0
LINE
  5
18E
330
1F
100
AcDbEntity
  8
0
  6
Continuous
 62
     7
370
     0
100
AcDbLine
 10
601.6657510471
 20
405.2633453242
 30
0.0
 11
601.6657510471
 21
547.6826765656
 31
0.0
  0
LINE
  5
18F
330
1F
100
AcDbEntity
  8
0
  6
Continuous
 62
     7
370
     0
100
AcDbLine
 10
601.6657510471
 20
237.8440090537
 30
0.0
 11
601.6657510471
 21
397.7633454919
 31
0.0
  0
LINE
  5
190
330
1F
100
AcDbEntity
  8
0
  6
Continuous
 62
     7
370
     0
100
AcDbLine
 10
601.6657510471
 20
237.8440090537
 30
0.0
 11
584.665746398
 21
237.8440090537
 31
0.0
  0
LINE
  5
191
330
1F
100
AcDbEntity
  8
0
  6
Continuous
 62
     7
370
     0
100
AcDbLine
 10
584.665746398
 20
237.8440090537
 30
0.0
 11
584.665746398
 21
547.6826765656
 31
0.0
  0
LINE
  5
192
330
1F
100
AcDbEntity
  8
0
  6
Continuous
 62
     7
370
     0
100
AcDbLine
 10
808.6657533121
 20
237.8440090537
 30
0.0
 11
808.6657533121
 21
505.7633482933
 31
0.0
  0
LINE
  5
193
330
1F
100
AcDbEntity
  8
0
  6
Continuous
 62
     7
370
     0
100
AcDbLine
 10
808.6657533121
 20
515.7633462071
 30
0.0
 11
808.6657533121
 21
547.6826765656
 31
0.0
  0
LINE
  5
194
330
1F
100
AcDbEntity
  8
0
  6
Continuous
 62
     7
370
     0
100
AcDbLine
 10
791.665748663
 20
237.8440090537
 30
0.0
 11
808.6657533121
 21
237.8440090537
 31
0.0
  0
LINE
  5
195
330
1F
100
AcDbEntity
  8
0
  6
Continuous
 62
     7
370
     0
100
AcDbLine
 10
791.665748663
 20
515.7633462071
 30
0.0
 11
791.665748663
 21
547.6826765656
 31
0.0
  0
LINE
  5
196
330
1F
100
AcDbEntity
  8
0
  6
Continuous
 62
     7
370
     0
100
AcDbLine
 10
791.665748663
 20
547.6826765656
 30
0.0
 11
808.6657533121
 21
547.6826765656
 31
0.0
  0
LINE
  5
197
330
1F
100
AcDbEntity
  8
0
  6
Continuous
 62
     7
370
     0
100
AcDbLine
 10
791.665748663
 20
237.8440090537
 30
0.0
 11
791.665748663
 21
315.7633432269
 31
0.0
  0
LINE
  5
198
330
1F
100
AcDbEntity
  8
0
  6
Continuous
 62
     7
370
     0
100
AcDbLine
 10
581.6657477689
 20
259.7633489489
 30
0.0
 11
581.6657477689
 21
525.7633515715
 31
0.0
  0
LINE
  5
199
330
1F
100
AcDbEntity
  8
0
  6
Continuous
 62
     7
370
     0
100
AcDbLine
 10
811.6657519412
 20
259.7633489489
 30
0.0
 11
811.6657519412
 21
505.7633482933
 31
0.0
  0
LINE
  5
19A
330
1F
100
AcDbEntity
  8
0
  6
Continuous
 62
     7
370
     0
100
AcDbLine
 10
811.6657519412
 20
515.7633462071
 30
0.0
 11
811.6657519412
 21
525.7633515715
 31
0.0
  0
LINE
  5
19B
330
1F
100
AcDbEntity
  8
0
  6
Continuous
 62
     7
370
     0
100
AcDbLine
 10
638.7566933108
 20
283.263344419
 30
0.0
 11
638.7566933108
 21
335.541635853
 31
0.0
  0
LINE
  5
19C
330
1F
100
AcDbEntity
  8
0
  6
Continuous
 62
     7
370
     0
100
AcDbLine
 10
754.5748063994
 20
283.263344419
 30
0.0
 11
754.5748063994
 21
315.7633432269
 31
0.0
  0
LINE
  5
19D
330
1F
100
AcDbEntity
  8
0
  6
Continuous
 62
     7
370
     0
100
AcDbLine
 10
638.7566933108
 20
459.9850551307
 30
0.0
 11
638.7566933108
 21
502.2633486509
 31
0.0
  0
SPLINE
  5
19E
330
1F
100
AcDbEntity
  8
0
  6
Continuous
 62
     7
370
     0
100
AcDbSpline
210
0.0
220
0.0
230
1.0
 70
     8
 71
     3
 72
    17
 73
    13
 74
     0
 42
0.00000001
 43
0.00000001
 12
1.0
 22
0.0
 32
0.0
 13
1.0
 23
0.0
 33
0.0
 40
0.0
 40
0.0
 40
0.0
 40
0.0
 40
0.1054200796501478
 40
0.2108400197294381
 40
0.3193096644100591
 40
0.4277788416887831
 40
0.5332046896658201
 40
0.6386299926603906
 40
0.7471538585863505
 40
0.8556772475895513
 40
0.9604836103902714
 40
1.0
 40
1.0
 40
1.0
 40
1.0
 10
685.4991148856423
 20
501.6816892742924
 30
0.0
 10
685.1948705229422
 20
501.7137683030436
 30
0.0
 10
684.5863822003465
 20
501.7779263180751
 30
0.0
 10
683.769637672284
 20
501.8724860345613
 30
0.0
 10
683.0317890143197
 20
501.9625362054495
 30
0.0
 10
682.3936079553383
 20
502.0446319933416
 30
0.0
 10
681.8623537984256
 20
502.1156857589282
 30
0.0
 10
681.4343337327816
 20
502.1748326906576
 30
0.0
 10
681.1096724523396
 20
502.2207446982318
 30
0.0
 10
680.9051563868687
 20
502.2502259080909
 30
0.0
 10
680.8122010498345
 20
502.2636817345001
 30
0.0
 10
680.824229966005
 20
502.2619521305676
 30
0.0
 10
680.8275235515973
 20
502.2614785551838
 30
0.0
  0
SPLINE
  5
19F
330
1F
100
AcDbEntity
  8
0
  6
Continuous
 62
     7
370
     0
100
AcDbSpline
210
0.0
220
0.0
230
1.0
 70
     8
 71
     3
 72
    37
 73
    33
 74
     0
 42
0.00000001
 43
0.00000001
 12
1.0
 22
0.0
 32
0.0
 13
1.0
 23
0.0
 33
0.0
 40
0.0
 40
0.0
 40
0.0
 40
0.0
 40
0.0084624050338565
 40
0.0447900998198221
 40
0.0798469836003409
 40
0.1149039917395356
 40
0.1509735809764871
 40
0.1870433489572876
 40
0.2222130156397258
 40
0.2573828057260039
 40
0.2935583658243717
 40
0.3297339760026207
 40
0.3651737933233876
 40
0.4006135427886559
 40
0.4370845191453759
 40
0.4735552826104019
 40
0.5089498293683832
 40
0.5443441348267124
 40
0.5807886887157873
 40
0.6172330393008937
 40
0.6522567795657012
 40
0.6872804879608907
 40
0.7233328783069699
 40
0.7593853941120122
 40
0.7942361541725073
 40
0.8290871323172789
 40
0.8649353926923292
 40
0.9007839068898986
 40
0.9254192786177874
 40
0.9500547175073959
 40
0.9750273577369583
 40
1.0
 40
1.0
 40
1.0
 40
1.0
 10
712.5063640695951
 20
502.2618212818912
 30
0.0
 10
712.5095077199784
 20
502.2622750924465
 30
0.0
 10
712.5261465376549
 20
502.2646770361008
 30
0.0
 10
712.443419622381
 20
502.2526882989202
 30
0.0
 10
712.2569201279564
 20
502.225785591884
 30
0.0
 10
711.9553643865481
 20
502.1829988316053
 30
0.0
 10
711.5455373293344
 20
502.1261039122824
 30
0.0
 10
711.029288238306
 20
502.0566770544443
 30
0.0
 10
710.417091478959
 20
501.9774202944309
 30
0.0
 10
709.7101656070108
 20
501.8901257369037
 30
0.0
 10
708.9041943561208
 20
501.7961152733884
 30
0.0
 10
708.0089624743422
 20
501.6986717233096
 30
0.0
 10
707.0394502136438
 20
501.6014538300969
 30
0.0
 10
705.9947883944432
 20
501.5061806557641
 30
0.0
 10
704.8722979684364
 20
501.4150565163026
 30
0.0
 10
703.6902734063925
 20
501.3316663382811
 30
0.0
 10
702.4692434914758
 20
501.259185497483
 30
0.0
 10
701.2073795496534
 20
501.1984835663614
 30
0.0
 10
699.8995520708587
 20
501.1512968724793
 30
0.0
 10
698.5722690693461
 20
501.1196295463756
 30
0.0
 10
697.2487981857678
 20
501.1045313826987
 30
0.0
 10
695.926103319782
 20
501.1053252584928
 30
0.0
 10
694.5958355561019
 20
501.1226976475096
 30
0.0
 10
693.2827644292668
 20
501.1559383185818
 30
0.0
 10
692.0087024039893
 20
501.2036329594748
 30
0.0
 10
690.769215806195
 20
501.2641718625758
 30
0.0
 10
689.5597986145679
 20
501.3370666215866
 30
0.0
 10
688.5119667343047
 20
501.4116813893506
 30
0.0
 10
687.6258822515408
 20
501.4825998098434
 30
0.0
 10
686.8842600917484
 20
501.547121790986
 30
0.0
 10
686.1700634884946
 20
501.6137843044696
 30
0.0
 10
685.7227644259968
 20
501.659054283737
 30
0.0
 10
685.4991148856423
 20
501.6816892742924
 30
0.0
  0
SPLINE
  5
1A0
330
1F
100
AcDbEntity
  8
0
  6
Continuous
 62
     7
370
     0
100
AcDbSpline
210
0.0
220
0.0
230
1.0
 70
     8
 71
     3
 72
    17
 73
    13
 74
     0
 42
0.00000001
 43
0.00000001
 12
1.0
 22
0.0
 32
0.0
 13
1.0
 23
0.0
 33
0.0
 40
0.0
 40
0.0
 40
0.0
 40
0.0
 40
0.1054200789040673
 40
0.210840018237278
 40
0.3193096621502361
 40
0.4277788386613004
 40
0.533204685892216
 40
0.638629988140669
 40
0.7471538532985823
 40
0.8556772415337397
 40
0.9604836098079854
 40
1.0
 40
1.0
 40
1.0
 40
1.0
 10
685.4991148856423
 20
283.8450037956051
 30
0.0
 10
685.1948705229423
 20
283.8129247666947
 30
0.0
 10
684.5863822003467
 20
283.7487667513451
 30
0.0
 10
683.7696376722834
 20
283.654207037268
 30
0.0
 10
683.0317890143223
 20
283.5641568569686
 30
0.0
 10
682.3936079553287
 20
283.4820611041212
 30
0.0
 10
681.8623537984607
 20
283.4110072113064
 30
0.0
 10
681.434333732649
 20
283.3518607561604
 30
0.0
 10
681.1096724528509
 20
283.3059469187759
 30
0.0
 10
680.9051563810409
 20
283.276472499834
 30
0.0
 10
680.81220105023
 20
283.2629971989317
 30
0.0
 10
680.8242299661605
 20
283.2647379006939
 30
0.0
 10
680.8275235515973
 20
283.2652145147136
 30
0.0
  0
SPLINE
  5
1A1
330
1F
100
AcDbEntity
  8
0
  6
Continuous
 62
     7
370
     0
100
AcDbSpline
210
0.0
220
0.0
230
1.0
 70
     8
 71
     3
 72
    37
 73
    33
 74
     0
 42
0.00000001
 43
0.00000001
 12
1.0
 22
0.0
 32
0.0
 13
1.0
 23
0.0
 33
0.0
 40
0.0
 40
0.0
 40
0.0
 40
0.0
 40
0.0084624056878731
 40
0.0447901004664564
 40
0.0798469884206001
 40
0.1149039901638452
 40
0.1509735793934668
 40
0.1870433576843895
 40
0.2222130243596807
 40
0.2573828144388117
 40
0.2935583745298281
 40
0.3297339847007256
 40
0.3651738020142906
 40
0.4006135373258412
 40
0.4370845136751498
 40
0.473555289397102
 40
0.5089498361478905
 40
0.5443441325827911
 40
0.5807886934177399
 40
0.6172330393287863
 40
0.6522567818562915
 40
0.6872804902443637
 40
0.7233328805831164
 40
0.7593854013431486
 40
0.7942361542143218
 40
0.8290871323520113
 40
0.8649353927197766
 40
0.9007839069100609
 40
0.9254192786329434
 40
0.9500547175175457
 40
0.9750273577420331
 40
1.0
 40
1.0
 40
1.0
 40
1.0
 10
712.5063640695951
 20
283.2648717880062
 30
0.0
 10
712.5095077201768
 20
283.2644152575969
 30
0.0
 10
712.526146537858
 20
283.2619989183607
 30
0.0
 10
712.4434196031854
 20
283.2739973980274
 30
0.0
 10
712.2569201758854
 20
283.3009117555507
 30
0.0
 10
711.9553643568806
 20
283.3436842048916
 30
0.0
 10
711.5455372375609
 20
283.4005798763523
 30
0.0
 10
711.0292883459616
 20
283.4700184188723
 30
0.0
 10
710.4170914668473
 20
283.5492721488811
 30
0.0
 10
709.7101656077932
 20
283.6365674610435
 30
0.0
 10
708.904194365822
 20
283.730577936371
 30
0.0
 10
708.0089624351717
 20
283.8280206648076
 30
0.0
 10
707.0394504854809
 20
283.9252417561709
 30
0.0
 10
705.9947881311039
 20
284.0205028157791
 30
0.0
 10
704.8722977442529
 20
284.1116274164394
 30
0.0
 10
703.6902736352054
 20
284.1950281462964
 30
0.0
 10
702.4692437054375
 20
284.2675105720361
 30
0.0
 10
701.2073791407155
 20
284.3281958733105
 30
0.0
 10
699.8995524065704
 20
284.375403183105
 30
0.0
 10
698.57226886152
 20
284.4070496647481
 30
0.0
 10
697.2487982623908
 20
284.4221655573915
 30
0.0
 10
695.9261033289023
 20
284.4213658967143
 30
0.0
 10
694.5958354050442
 20
284.4039992029007
 30
0.0
 10
693.2827647387667
 20
284.3707417823687
 30
0.0
 10
692.008702207792
 20
284.3230635274365
 30
0.0
 10
690.7692158371498
 20
284.2625202605601
 30
0.0
 10
689.559798606071
 20
284.1896267081907
 30
0.0
 10
688.5119667358044
 20
284.1150116346796
 30
0.0
 10
687.6258822512042
 20
284.0440932703535
 30
0.0
 10
686.8842600918396
 20
283.9795712761228
 30
0.0
 10
686.1700634884717
 20
283.9129087661289
 30
0.0
 10
685.7227644259892
 20
283.8676387863941
 30
0.0
 10
685.4991148856423
 20
283.8450037956051
 30
0.0
  0
LINE
  5
1A2
330
1F
100
AcDbEntity
  8
0
  6
Continuous
 62
     7
370
     0
100
AcDbLine
 10
674.6657499743
 20
295.31678195
 30
0.0
 11
674.6657499743
 21
315.6597503543
 31
0.0
  0
SPLINE
  5
1A3
330
1F
100
AcDbEntity
  8
0
  6
Continuous
 62
     7
370
     0
100
AcDbSpline
210
0.0
220
0.0
230
1.0
 70
     8
 71
     3
 72
    20
 73
    16
 74
     0
 42
0.00000001
 43
0.00000001
 12
1.0
 22
0.0
 32
0.0
 13
1.0
 23
0.0
 33
0.0
 40
0.0
 40
0.0
 40
0.0
 40
0.0
 40
0.1249999999999989
 40
0.1249999999999989
 40
0.2499999999999978
 40
0.2499999999999978
 40
0.3749999999999967
 40
0.3749999999999967
 40
0.4999999999999956
 40
0.4999999999999956
 40
0.7499999999999978
 40
0.7499999999999978
 40
0.8749999999999989
 40
0.8749999999999989
 40
1.0
 40
1.0
 40
1.0
 40
1.0
 10
676.6657498550555
 20
294.3200352986019
 30
0.0
 10
676.5308346532063
 20
294.3200352986019
 30
0.0
 10
676.3985048290238
 20
294.3269461938654
 30
0.0
 10
676.1385433155154
 20
294.3533546346508
 30
0.0
 10
676.0095623859852
 20
294.3731950872345
 30
0.0
 10
675.7652812240821
 20
294.4240815316984
 30
0.0
 10
675.6495396028283
 20
294.4550010478443
 30
0.0
 10
675.4308781264857
 20
294.5279229555873
 30
0.0
 10
675.3286853630992
 20
294.5698877452417
 30
0.0
 10
675.0557524526789
 20
294.7077969354759
 30
0.0
 10
674.9115206640683
 20
294.8185795549501
 30
0.0
 10
674.7661439375295
 20
294.9971243443106
 30
0.0
 10
674.7286299583318
 20
295.0597052843283
 30
0.0
 10
674.6785802244309
 20
295.1867779297801
 30
0.0
 10
674.6657498550555
 20
295.2512722202798
 30
0.0
 10
674.6657498550555
 20
295.3167790202813
 30
0.0
  0
LINE
  5
1A4
330
1F
100
AcDbEntity
  8
0
  6
Continuous
 62
     7
370
     0
100
AcDbLine
 10
716.665749408
 20
294.3200358271
 30
0.0
 11
676.6657503021
 21
294.3200358271
 31
0.0
  0
SPLINE
  5
1A5
330
1F
100
AcDbEntity
  8
0
  6
Continuous
 62
     7
370
     0
100
AcDbSpline
210
0.0
220
0.0
230
1.0
 70
     8
 71
     3
 72
    20
 73
    16
 74
     0
 42
0.00000001
 43
0.00000001
 12
1.0
 22
0.0
 32
0.0
 13
1.0
 23
0.0
 33
0.0
 40
0.0
 40
0.0
 40
0.0
 40
0.0
 40
0.1249999999999997
 40
0.1249999999999997
 40
0.2499999999999994
 40
0.2499999999999994
 40
0.3749999999999992
 40
0.3749999999999992
 40
0.4999999999999989
 40
0.4999999999999989
 40
0.6249999999999987
 40
0.6249999999999987
 40
0.7499999999999983
 40
0.7499999999999983
 40
1.0
 40
1.0
 40
1.0
 40
1.0
 10
718.6657498550557
 20
295.3167790202813
 30
0.0
 10
718.6657498550557
 20
295.2512080272718
 30
0.0
 10
718.653027438692
 20
295.1869123995978
 30
0.0
 10
718.6036945076702
 20
295.0607026322434
 30
0.0
 10
718.5666468299471
 20
294.9982783692591
 30
0.0
 10
718.4692251938228
 20
294.8783331325108
 30
0.0
 10
718.4096250284794
 20
294.8214537115217
 30
0.0
 10
718.2685857182172
 20
294.713793273376
 30
0.0
 10
718.1859809881117
 20
294.6624970217403
 30
0.0
 10
718.0033340796608
 20
294.5700931682012
 30
0.0
 10
717.9031536255027
 20
294.5288807835577
 30
0.0
 10
717.6856424123428
 20
294.4559978092504
 30
0.0
 10
717.5674632315281
 20
294.4243027847327
 30
0.0
 10
717.202324722832
 20
294.348061834092
 30
0.0
 10
716.9356685610924
 20
294.3200352986019
 30
0.0
 10
716.6657498550557
 20
294.3200352986019
 30
0.0
  0
LINE
  5
1A6
330
1F
100
AcDbEntity
  8
0
  6
Continuous
 62
     7
370
     0
100
AcDbLine
 10
718.6657497358
 20
315.6597503543
 30
0.0
 11
718.6657497358
 21
295.31678195
 31
0.0
  0
LINE
  5
1A7
330
1F
100
AcDbEntity
  8
0
  6
Continuous
 62
     7
370
     0
100
AcDbLine
 10
723.6657505554
 20
317.1655797481
 30
0.0
 11
723.6657505554
 21
295.31678195
 31
0.0
  0
SPLINE
  5
1A8
330
1F
100
AcDbEntity
  8
0
  6
Continuous
 62
     7
370
     0
100
AcDbSpline
210
0.0
220
0.0
230
1.0
 70
     8
 71
     3
 72
    12
 73
     8
 74
     0
 42
0.00000001
 43
0.00000001
 12
1.0
 22
0.0
 32
0.0
 13
1.0
 23
0.0
 33
0.0
 40
0.0
 40
0.0
 40
0.0
 40
0.0
 40
0.5000000000000003
 40
0.5000000000000003
 40
0.7500000000000002
 40
0.7500000000000002
 40
1.0
 40
1.0
 40
1.0
 40
1.0
 10
716.6657498550557
 20
291.9585924784357
 30
0.0
 10
718.5627353665681
 20
291.9585924784357
 30
0.0
 10
720.3933912477031
 20
292.317474711787
 30
0.0
 10
722.3070009250064
 20
293.2354550267009
 30
0.0
 10
722.8089875845143
 20
293.600929382483
 30
0.0
 10
723.4909419739715
 20
294.4163499124892
 30
0.0
 10
723.6657498550555
 20
294.8561473413592
 30
0.0
 10
723.6657498550555
 20
295.3167790202813
 30
0.0
  0
LINE
  5
1A9
330
1F
100
AcDbEntity
  8
0
  6
Continuous
 62
     7
370
     0
100
AcDbLine
 10
716.665749408
 20
291.9585892081
 30
0.0
 11
676.6657503021
 21
291.9585892081
 31
0.0
  0
SPLINE
  5
1AA
330
1F
100
AcDbEntity
  8
0
  6
Continuous
 62
     7
370
     0
100
AcDbSpline
210
0.0
220
0.0
230
1.0
 70
     8
 71
     3
 72
    12
 73
     8
 74
     0
 42
0.00000001
 43
0.00000001
 12
1.0
 22
0.0
 32
0.0
 13
1.0
 23
0.0
 33
0.0
 40
0.0
 40
0.0
 40
0.0
 40
0.0
 40
0.5000000000000003
 40
0.5000000000000003
 40
0.7500000000000002
 40
0.7500000000000002
 40
1.0
 40
1.0
 40
1.0
 40
1.0
 10
669.6657498550555
 20
295.3167790202813
 30
0.0
 10
669.6657498550555
 20
294.3962961438602
 30
0.0
 10
670.3932731260613
 20
293.5375212041225
 30
0.0
 10
672.301203858966
 20
292.6233763121552
 30
0.0
 10
673.0774398351136
 20
292.3775593351877
 30
0.0
 10
674.7878827545456
 20
292.0456613808721
 30
0.0
 10
675.7181883977709
 20
291.9585924784357
 30
0.0
 10
676.6657498550555
 20
291.9585924784357
 30
0.0
  0
LINE
  5
1AB
330
1F
100
AcDbEntity
  8
0
  6
Continuous
 62
     7
370
     0
100
AcDbLine
 10
669.6657491547
 20
295.31678195
 30
0.0
 11
669.6657491547
 21
317.1655797481
 31
0.0
  0
SPLINE
  5
1AC
330
1F
100
AcDbEntity
  8
0
  6
Continuous
 62
     7
370
     0
100
AcDbSpline
210
0.0
220
0.0
230
1.0
 70
     8
 71
     3
 72
    20
 73
    16
 74
     0
 42
0.00000001
 43
0.00000001
 12
1.0
 22
0.0
 32
0.0
 13
1.0
 23
0.0
 33
0.0
 40
0.0
 40
0.0
 40
0.0
 40
0.0
 40
0.1250000000000004
 40
0.1250000000000004
 40
0.2500000000000007
 40
0.2500000000000007
 40
0.3750000000000011
 40
0.3750000000000011
 40
0.5000000000000014
 40
0.5000000000000014
 40
0.6250000000000018
 40
0.6250000000000018
 40
0.7500000000000022
 40
0.7500000000000022
 40
1.0
 40
1.0
 40
1.0
 40
1.0
 10
718.6657498550557
 20
297.0845459732476
 30
0.0
 10
718.6657498550557
 20
297.0189749802382
 30
0.0
 10
718.653027438692
 20
296.9546793525641
 30
0.0
 10
718.6036945076702
 20
296.8284695852097
 30
0.0
 10
718.5666468299471
 20
296.7660453222256
 30
0.0
 10
718.4692251938228
 20
296.6461000854771
 30
0.0
 10
718.4096250284794
 20
296.589220664488
 30
0.0
 10
718.2685857182172
 20
296.4815602263424
 30
0.0
 10
718.1859809881117
 20
296.4302639747067
 30
0.0
 10
718.0033340796608
 20
296.3378601211676
 30
0.0
 10
717.9031536255027
 20
296.2966477365241
 30
0.0
 10
717.6856424123428
 20
296.2237647622168
 30
0.0
 10
717.5674632315281
 20
296.1920697376992
 30
0.0
 10
717.202324722832
 20
296.1158287870584
 30
0.0
 10
716.9356685610924
 20
296.0878022515682
 30
0.0
 10
716.6657498550557
 20
296.0878022515683
 30
0.0
  0
LINE
  5
1AD
330
1F
100
AcDbEntity
  8
0
  6
Continuous
 62
     7
370
     0
100
AcDbLine
 10
716.665749408
 20
296.0878052831
 30
0.0
 11
676.6657503021
 21
296.0878052831
 31
0.0
  0
SPLINE
  5
1AE
330
1F
100
AcDbEntity
  8
0
  6
Continuous
 62
     7
370
     0
100
AcDbSpline
210
0.0
220
0.0
230
1.0
 70
     8
 71
     3
 72
    20
 73
    16
 74
     0
 42
0.00000001
 43
0.00000001
 12
1.0
 22
0.0
 32
0.0
 13
1.0
 23
0.0
 33
0.0
 40
0.0
 40
0.0
 40
0.0
 40
0.0
 40
0.1249999999999989
 40
0.1249999999999989
 40
0.2499999999999978
 40
0.2499999999999978
 40
0.3749999999999967
 40
0.3749999999999967
 40
0.4999999999999956
 40
0.4999999999999956
 40
0.7499999999999978
 40
0.7499999999999978
 40
0.8749999999999989
 40
0.8749999999999989
 40
1.0
 40
1.0
 40
1.0
 40
1.0
 10
676.6657498550555
 20
296.0878022515683
 30
0.0
 10
676.5308346532063
 20
296.0878022515683
 30
0.0
 10
676.3985048290238
 20
296.0947131468317
 30
0.0
 10
676.1385433155154
 20
296.1211215876172
 30
0.0
 10
676.0095623859852
 20
296.1409620402009
 30
0.0
 10
675.7652812240821
 20
296.1918484846647
 30
0.0
 10
675.6495396028283
 20
296.2227680008107
 30
0.0
 10
675.4308781264857
 20
296.2956899085538
 30
0.0
 10
675.3286853630992
 20
296.337654698208
 30
0.0
 10
675.0557524526789
 20
296.4755638884423
 30
0.0
 10
674.9115206640683
 20
296.5863465079165
 30
0.0
 10
674.7661439375295
 20
296.764891297277
 30
0.0
 10
674.7286299583318
 20
296.8274722372947
 30
0.0
 10
674.6785802244309
 20
296.9545448827465
 30
0.0
 10
674.6657498550555
 20
297.0190391732462
 30
0.0
 10
674.6657498550555
 20
297.0845459732476
 30
0.0
  0
LINE
  5
1AF
330
1F
100
AcDbEntity
  8
0
  6
Continuous
 62
     7
370
     0
100
AcDbLine
 10
601.6657510471
 20
210.7633390546
 30
0.0
 11
584.665746398
 21
210.7633390546
 31
0.0
  0
LINE
  5
1B0
330
1F
100
AcDbEntity
  8
0
  6
Continuous
 62
     7
370
     0
100
AcDbLine
 10
601.6657510471
 20
237.8440090537
 30
0.0
 11
601.6657510471
 21
210.7633390546
 31
0.0
  0
LINE
  5
1B1
330
1F
100
AcDbEntity
  8
0
  6
Continuous
 62
     7
370
     0
100
AcDbLine
 10
584.665746398
 20
237.8440090537
 30
0.0
 11
584.665746398
 21
210.7633390546
 31
0.0
  0
LINE
  5
1B2
330
1F
100
AcDbEntity
  8
0
  6
Continuous
 62
     7
370
     0
100
AcDbLine
 10
601.6657510471
 20
574.7633465648
 30
0.0
 11
584.665746398
 21
574.7633465648
 31
0.0
  0
LINE
  5
1B3
330
1F
100
AcDbEntity
  8
0
  6
Continuous
 62
     7
370
     0
100
AcDbLine
 10
601.6657510471
 20
547.6826765656
 30
0.0
 11
601.6657510471
 21
574.7633465648
 31
0.0
  0
LINE
  5
1B4
330
1F
100
AcDbEntity
  8
0
  6
Continuous
 62
     7
370
     0
100
AcDbLine
 10
584.665746398
 20
547.6826765656
 30
0.0
 11
584.665746398
 21
574.7633465648
 31
0.0
  0
LINE
  5
1B5
330
1F
100
AcDbEntity
  8
0
  6
Continuous
 62
     7
370
     0
100
AcDbLine
 10
791.665748663
 20
210.7633390546
 30
0.0
 11
808.6657533121
 21
210.7633390546
 31
0.0
  0
LINE
  5
1B6
330
1F
100
AcDbEntity
  8
0
  6
Continuous
 62
     7
370
     0
100
AcDbLine
 10
808.6657533121
 20
237.8440090537
 30
0.0
 11
808.6657533121
 21
210.7633390546
 31
0.0
  0
LINE
  5
1B7
330
1F
100
AcDbEntity
  8
0
  6
Continuous
 62
     7
370
     0
100
AcDbLine
 10
791.665748663
 20
237.8440090537
 30
0.0
 11
791.665748663
 21
210.7633390546
 31
0.0
  0
LINE
  5
1B8
330
1F
100
AcDbEntity
  8
0
  6
Continuous
 62
     7
370
     0
100
AcDbLine
 10
791.665748663
 20
574.7633465648
 30
0.0
 11
808.6657533121
 21
574.7633465648
 31
0.0
  0
LINE
  5
1B9
330
1F
100
AcDbEntity
  8
0
  6
Continuous
 62
     7
370
     0
100
AcDbLine
 10
791.665748663
 20
547.6826765656
 30
0.0
 11
791.665748663
 21
574.7633465648
 31
0.0
  0
LINE
  5
1BA
330
1F
100
AcDbEntity
  8
0
  6
Continuous
 62
     7
370
     0
100
AcDbLine
 10
808.6657533121
 20
547.6826765656
 30
0.0
 11
808.6657533121
 21
574.7633465648
 31
0.0
  0
LINE
  5
1BB
330
1F
100
AcDbEntity
  8
0
  6
Continuous
 62
     7
370
     0
100
AcDbLine
 10
681.6657501903
 20
534.7633400082
 30
0.0
 11
711.6657495198
 21
534.7633400082
 31
0.0
  0
LINE
  5
1BC
330
1F
100
AcDbEntity
  8
0
  6
Continuous
 62
     7
370
     0
100
AcDbLine
 10
681.6657501903
 20
250.7633456111
 30
0.0
 11
711.6657495198
 21
250.7633456111
 31
0.0
  0
LINE
  5
1BD
330
1F
100
AcDbEntity
  8
0
  6
Continuous
 62
     8
370
     0
100
AcDbLine
 10
716.665749408
 20
296.0878052831
 30
0.0
 11
716.665749408
 21
294.3200358271
 31
0.0
  0
LINE
  5
1BE
330
1F
100
AcDbEntity
  8
0
  6
Continuous
 62
     8
370
     0
100
AcDbLine
 10
676.6657503021
 20
296.0878052831
 30
0.0
 11
676.6657503021
 21
294.3200358271
 31
0.0
  0
INSERT
  5
1CA
330
1F
100
AcDbEntity
  8
FORMAT
 62
     7
100
AcDbBlockReference
  2
SW_CENTERMARKSYMBOL_1
 10
696.6657498551
 20
397.7633454919
 30
0.0
  0
INSERT
  5
1D6
330
1F
100
AcDbEntity
  8
FORMAT
 62
     7
100
AcDbBlockReference
  2
SW_CENTERMARKSYMBOL_2
 10
696.6657498551
 20
433.7633454919
 30
0.0
  0
INSERT
  5
1E2
330
1F
100
AcDbEntity
  8
FORMAT
 62
     7
100
AcDbBlockReference
  2
SW_CENTERMARKSYMBOL_3
 10
732.6657498551
 20
397.7633454919
 30
0.0
  0
INSERT
  5
1EE
330
1F
100
AcDbEntity
  8
FORMAT
 62
     7
100
AcDbBlockReference
  2
SW_CENTERMARKSYMBOL_4
 10
696.6657498551
 20
361.7633454919
 30
0.0
  0
INSERT
  5
1FA
330
1F
100
AcDbEntity
  8
FORMAT
 62
     7
100
AcDbBlockReference
  2
SW_CENTERMARKSYMBOL_5
 10
660.6657498551
 20
397.7633454919
 30
0.0
  0
LINE
  5
1FB
330
1F
100
AcDbEntity
  8
0
  6
Continuous
 62
     7
370
     0
100
AcDbLine
 10
485.3075306948
 20
132.7892003911
 30
0.0
 11
485.3075306948
 21
149.7892050403
 31
0.0
  0
LINE
  5
1FC
330
1F
100
AcDbEntity
  8
0
  6
Continuous
 62
     7
370
     0
100
AcDbLine
 10
145.3075271185
 20
149.7892050403
 30
0.0
 11
145.3075271185
 21
132.7892003911
 31
0.0
  0
LINE
  5
1FD
330
1F
100
AcDbEntity
  8
0
  6
Continuous
 62
     7
370
     0
100
AcDbLine
 10
145.3075271185
 20
-57.2107972247
 30
0.0
 11
145.3075271185
 21
-74.2108018738
 31
0.0
  0
LINE
  5
1FE
330
1F
100
AcDbEntity
  8
0
  6
Continuous
 62
     7
370
     0
100
AcDbLine
 10
485.3075306948
 20
-74.2108018738
 30
0.0
 11
485.3075306948
 21
-57.2107972247
 31
0.0
  0
LINE
  5
1FF
330
1F
100
AcDbEntity
  8
0
  6
Continuous
 62
     7
370
     0
100
AcDbLine
 10
182.3075275953
 20
152.7892036694
 30
0.0
 11
182.3075275953
 21
149.7892050403
 31
0.0
  0
LINE
  5
200
330
1F
100
AcDbEntity
  8
0
  6
Continuous
 62
     7
370
     0
100
AcDbLine
 10
448.3075302179
 20
149.7892050403
 30
0.0
 11
448.3075302179
 21
152.7892036694
 31
0.0
  0
LINE
  5
201
330
1F
100
AcDbEntity
  8
0
  6
Continuous
 62
     7
370
     0
100
AcDbLine
 10
182.3075275953
 20
-74.2108018738
 30
0.0
 11
182.3075275953
 21
-77.2108005029
 31
0.0
  0
LINE
  5
202
330
1F
100
AcDbEntity
  8
0
  6
Continuous
 62
     7
370
     0
100
AcDbLine
 10
448.3075302179
 20
-77.2108005029
 30
0.0
 11
448.3075302179
 21
-74.2108018738
 31
0.0
  0
LINE
  5
203
330
1F
100
AcDbEntity
  8
0
  6
Continuous
 62
     7
370
     0
100
AcDbLine
 10
343.6324793931
 20
57.3933443385
 30
0.0
 11
345.4002469863
 21
57.3933443385
 31
0.0
  0
LINE
  5
204
330
1F
100
AcDbEntity
  8
0
  6
Continuous
 62
     7
370
     0
100
AcDbLine
 10
345.3997310336
 20
53.8082385766
 30
0.0
 11
343.631965303
 21
53.8082385766
 31
0.0
  0
LINE
  5
205
330
1F
100
AcDbEntity
  8
0
  6
Continuous
 62
     7
370
     0
100
AcDbLine
 10
362.0676595803
 20
59.767732616
 30
0.0
 11
360.2998528715
 21
59.767732616
 31
0.0
  0
LINE
  5
206
330
1F
100
AcDbEntity
  8
0
  6
Continuous
 62
     7
370
     0
100
AcDbLine
 10
362.0676968332
 20
33.5488545107
 30
0.0
 11
360.2998528715
 21
33.5488545107
 31
0.0
  0
LINE
  5
207
330
1F
100
AcDbEntity
  8
0
  6
Continuous
 62
     7
370
     0
100
AcDbLine
 10
360.2999013003
 20
42.0295439991
 30
0.0
 11
362.0677303608
 21
42.0295439991
 31
0.0
  0
LINE
  5
208
330
1F
100
AcDbEntity
  8
0
  6
Continuous
 62
     7
370
     0
100
AcDbLine
 10
360.2999013003
 20
13.1403899151
 30
0.0
 11
362.0677303608
 21
13.1403899151
 31
0.0
  0
LINE
  5
209
330
1F
100
AcDbEntity
  8
0
  6
Continuous
 62
     7
370
     0
100
AcDbLine
 10
108.3075266417
 20
122.7892024773
 30
0.0
 11
79.3075274761
 21
122.7892024773
 31
0.0
  0
LINE
  5
20A
330
1F
100
AcDbEntity
  8
0
  6
Continuous
 62
     7
370
     0
100
AcDbLine
 10
542.3075269993
 20
100.2892015832
 30
0.0
 11
497.807533675
 21
100.2892015832
 31
0.0
  0
LINE
  5
20B
330
1F
100
AcDbEntity
  8
0
  6
Continuous
 62
     7
370
     0
100
AcDbLine
 10
497.807533675
 20
-24.7107984168
 30
0.0
 11
542.3075269993
 21
-24.7107984168
 31
0.0
  0
LINE
  5
20C
330
1F
100
AcDbEntity
  8
0
  6
Continuous
 62
     7
370
     0
100
AcDbLine
 10
131.8441044624
 20
-24.7107984168
 30
0.0
 11
132.8075241383
 21
-24.7107984168
 31
0.0
  0
LINE
  5
20D
330
1F
100
AcDbEntity
  8
0
  6
Continuous
 62
     7
370
     0
100
AcDbLine
 10
132.8075241383
 20
100.2892015832
 30
0.0
 11
115.3075259264
 21
100.2892015832
 31
0.0
  0
LINE
  5
20E
330
1F
100
AcDbEntity
  8
0
  6
Continuous
 62
     7
370
     0
100
AcDbLine
 10
46.8075286682
 20
81.2892003315
 30
0.0
 11
38.8075422581
 21
81.2892003315
 31
0.0
  0
LINE
  5
20F
330
1F
100
AcDbEntity
  8
0
  6
Continuous
 62
     7
370
     0
100
AcDbLine
 10
38.8075422581
 20
44.2892017173
 30
0.0
 11
28.3575367268
 21
44.2892017173
 31
0.0
  0
LINE
  5
210
330
1F
100
AcDbEntity
  8
0
  6
Continuous
 62
     7
370
     0
100
AcDbLine
 10
28.3575367268
 20
31.2892014491
 30
0.0
 11
38.8075422581
 21
31.2892014491
 31
0.0
  0
LINE
  5
211
330
1F
100
AcDbEntity
  8
0
  6
Continuous
 62
     7
370
     0
100
AcDbLine
 10
38.8075422581
 20
80.2892020303
 30
0.0
 11
28.3575367268
 21
80.2892020303
 31
0.0
  0
LINE
  5
212
330
1F
100
AcDbEntity
  8
0
  6
Continuous
 62
     7
370
     0
100
AcDbLine
 10
28.3575367268
 20
67.289201762
 30
0.0
 11
38.8075422581
 21
67.289201762
 31
0.0
  0
LINE
  5
213
330
1F
100
AcDbEntity
  8
0
  6
Continuous
 62
     7
370
     0
100
AcDbLine
 10
29.6629082497
 20
-4.7107988638
 30
0.0
 11
38.8075422581
 21
-4.7107988638
 31
0.0
  0
LINE
  5
214
330
1F
100
AcDbEntity
  8
0
  6
Continuous
 62
     7
370
     0
100
AcDbLine
 10
385.3075292047
 20
132.7892003911
 30
0.0
 11
385.3075292047
 21
149.7892050403
 31
0.0
  0
LINE
  5
215
330
1F
100
AcDbEntity
  8
0
  6
Continuous
 62
     7
370
     0
100
AcDbLine
 10
350.3075290557
 20
132.7892003911
 30
0.0
 11
385.3075292047
 21
132.7892003911
 31
0.0
  0
LINE
  5
216
330
1F
100
AcDbEntity
  8
0
  6
Continuous
 62
     7
370
     0
100
AcDbLine
 10
350.3075290557
 20
132.7892003911
 30
0.0
 11
350.3075290557
 21
149.7892050403
 31
0.0
  0
LINE
  5
217
330
1F
100
AcDbEntity
  8
0
  6
Continuous
 62
     7
370
     0
100
AcDbLine
 10
350.3075290557
 20
149.7892050403
 30
0.0
 11
385.3075292047
 21
149.7892050403
 31
0.0
  0
LINE
  5
218
330
1F
100
AcDbEntity
  8
0
  6
Continuous
 62
     7
370
     0
100
AcDbLine
 10
280.3075287576
 20
132.7892003911
 30
0.0
 11
280.3075287576
 21
149.7892050403
 31
0.0
  0
LINE
  5
219
330
1F
100
AcDbEntity
  8
0
  6
Continuous
 62
     7
370
     0
100
AcDbLine
 10
245.3075286086
 20
132.7892003911
 30
0.0
 11
280.3075287576
 21
132.7892003911
 31
0.0
  0
LINE
  5
21A
330
1F
100
AcDbEntity
  8
0
  6
Continuous
 62
     7
370
     0
100
AcDbLine
 10
245.3075286086
 20
149.7892050403
 30
0.0
 11
280.3075287576
 21
149.7892050403
 31
0.0
  0
LINE
  5
21B
330
1F
100
AcDbEntity
  8
0
  6
Continuous
 62
     7
370
     0
100
AcDbLine
 10
245.3075286086
 20
132.7892003911
 30
0.0
 11
245.3075286086
 21
149.7892050403
 31
0.0
  0
LINE
  5
21C
330
1F
100
AcDbEntity
  8
0
  6
Continuous
 62
     7
370
     0
100
AcDbLine
 10
340.3075292792
 20
132.7892003911
 30
0.0
 11
350.3075290557
 21
132.7892003911
 31
0.0
  0
LINE
  5
21D
330
1F
100
AcDbEntity
  8
0
  6
Continuous
 62
     7
370
     0
100
AcDbLine
 10
340.3075292792
 20
132.7892003911
 30
0.0
 11
340.3075292792
 21
149.7892050403
 31
0.0
  0
LINE
  5
21E
330
1F
100
AcDbEntity
  8
0
  6
Continuous
 62
     7
370
     0
100
AcDbLine
 10
340.3075292792
 20
149.7892050403
 30
0.0
 11
350.3075290557
 21
149.7892050403
 31
0.0
  0
LINE
  5
21F
330
1F
100
AcDbEntity
  8
0
  6
Continuous
 62
     7
370
     0
100
AcDbLine
 10
290.3075285341
 20
132.7892003911
 30
0.0
 11
290.3075285341
 21
149.7892050403
 31
0.0
  0
LINE
  5
220
330
1F
100
AcDbEntity
  8
0
  6
Continuous
 62
     7
370
     0
100
AcDbLine
 10
280.3075287576
 20
132.7892003911
 30
0.0
 11
290.3075285341
 21
132.7892003911
 31
0.0
  0
LINE
  5
221
330
1F
100
AcDbEntity
  8
0
  6
Continuous
 62
     7
370
     0
100
AcDbLine
 10
280.3075287576
 20
149.7892050403
 30
0.0
 11
290.3075285341
 21
149.7892050403
 31
0.0
  0
LINE
  5
222
330
1F
100
AcDbEntity
  8
0
  6
Continuous
 62
     7
370
     0
100
AcDbLine
 10
245.3075286086
 20
-57.2107972247
 30
0.0
 11
245.3075286086
 21
-74.2108018738
 31
0.0
  0
LINE
  5
223
330
1F
100
AcDbEntity
  8
0
  6
Continuous
 62
     7
370
     0
100
AcDbLine
 10
245.3075286086
 20
-57.2107972247
 30
0.0
 11
280.3075287576
 21
-57.2107972247
 31
0.0
  0
LINE
  5
224
330
1F
100
AcDbEntity
  8
0
  6
Continuous
 62
     7
370
     0
100
AcDbLine
 10
280.3075287576
 20
-57.2107972247
 30
0.0
 11
280.3075287576
 21
-74.2108018738
 31
0.0
  0
LINE
  5
225
330
1F
100
AcDbEntity
  8
0
  6
Continuous
 62
     7
370
     0
100
AcDbLine
 10
245.3075286086
 20
-74.2108018738
 30
0.0
 11
280.3075287576
 21
-74.2108018738
 31
0.0
  0
LINE
  5
226
330
1F
100
AcDbEntity
  8
0
  6
Continuous
 62
     7
370
     0
100
AcDbLine
 10
340.3075292792
 20
-57.2107972247
 30
0.0
 11
340.3075292792
 21
-74.2108018738
 31
0.0
  0
LINE
  5
227
330
1F
100
AcDbEntity
  8
0
  6
Continuous
 62
     7
370
     0
100
AcDbLine
 10
340.3075292792
 20
-57.2107972247
 30
0.0
 11
350.3075290557
 21
-57.2107972247
 31
0.0
  0
LINE
  5
228
330
1F
100
AcDbEntity
  8
0
  6
Continuous
 62
     7
370
     0
100
AcDbLine
 10
350.3075290557
 20
-57.2107972247
 30
0.0
 11
350.3075290557
 21
-74.2108018738
 31
0.0
  0
LINE
  5
229
330
1F
100
AcDbEntity
  8
0
  6
Continuous
 62
     7
370
     0
100
AcDbLine
 10
340.3075292792
 20
-74.2108018738
 30
0.0
 11
350.3075290557
 21
-74.2108018738
 31
0.0
  0
LINE
  5
22A
330
1F
100
AcDbEntity
  8
0
  6
Continuous
 62
     7
370
     0
100
AcDbLine
 10
350.3075290557
 20
-74.2108018738
 30
0.0
 11
385.3075292047
 21
-74.2108018738
 31
0.0
  0
LINE
  5
22B
330
1F
100
AcDbEntity
  8
0
  6
Continuous
 62
     7
370
     0
100
AcDbLine
 10
350.3075290557
 20
-57.2107972247
 30
0.0
 11
385.3075292047
 21
-57.2107972247
 31
0.0
  0
LINE
  5
22C
330
1F
100
AcDbEntity
  8
0
  6
Continuous
 62
     7
370
     0
100
AcDbLine
 10
385.3075292047
 20
-57.2107972247
 30
0.0
 11
385.3075292047
 21
-74.2108018738
 31
0.0
  0
LINE
  5
22D
330
1F
100
AcDbEntity
  8
0
  6
Continuous
 62
     7
370
     0
100
AcDbLine
 10
290.3075285341
 20
-57.2107972247
 30
0.0
 11
290.3075285341
 21
-74.2108018738
 31
0.0
  0
LINE
  5
22E
330
1F
100
AcDbEntity
  8
0
  6
Continuous
 62
     7
370
     0
100
AcDbLine
 10
280.3075287576
 20
-74.2108018738
 30
0.0
 11
290.3075285341
 21
-74.2108018738
 31
0.0
  0
LINE
  5
22F
330
1F
100
AcDbEntity
  8
0
  6
Continuous
 62
     7
370
     0
100
AcDbLine
 10
280.3075287576
 20
-57.2107972247
 30
0.0
 11
290.3075285341
 21
-57.2107972247
 31
0.0
  0
LINE
  5
230
330
1F
100
AcDbEntity
  8
0
  6
Continuous
 62
     7
370
     0
100
AcDbLine
 10
315.3075289066
 20
149.7892050403
 30
0.0
 11
315.3075289066
 21
132.7892003911
 31
0.0
  0
LINE
  5
231
330
1F
100
AcDbEntity
  8
0
  6
Continuous
 62
     7
370
     0
100
AcDbLine
 10
320.3075287949
 20
149.7892050403
 30
0.0
 11
320.3075287949
 21
132.7892003911
 31
0.0
  0
LINE
  5
232
330
1F
100
AcDbEntity
  8
0
  6
Continuous
 62
     7
370
     0
100
AcDbLine
 10
320.3075287949
 20
132.7892003911
 30
0.0
 11
315.3075289066
 21
132.7892003911
 31
0.0
  0
LINE
  5
233
330
1F
100
AcDbEntity
  8
0
  6
Continuous
 62
     7
370
     0
100
AcDbLine
 10
315.3075289066
 20
149.7892050403
 30
0.0
 11
320.3075287949
 21
149.7892050403
 31
0.0
  0
LINE
  5
234
330
1F
100
AcDbEntity
  8
0
  6
Continuous
 62
     7
370
     0
100
AcDbLine
 10
310.3075290184
 20
149.7892050403
 30
0.0
 11
310.3075290184
 21
132.7892003911
 31
0.0
  0
LINE
  5
235
330
1F
100
AcDbEntity
  8
0
  6
Continuous
 62
     7
370
     0
100
AcDbLine
 10
315.3075289066
 20
132.7892003911
 30
0.0
 11
310.3075290184
 21
132.7892003911
 31
0.0
  0
LINE
  5
236
330
1F
100
AcDbEntity
  8
0
  6
Continuous
 62
     7
370
     0
100
AcDbLine
 10
310.3075290184
 20
149.7892050403
 30
0.0
 11
315.3075289066
 21
149.7892050403
 31
0.0
  0
LINE
  5
237
330
1F
100
AcDbEntity
  8
0
  6
Continuous
 62
     7
370
     0
100
AcDbLine
 10
290.3075285341
 20
132.7892003911
 30
0.0
 11
310.3075290184
 21
132.7892003911
 31
0.0
  0
LINE
  5
238
330
1F
100
AcDbEntity
  8
0
  6
Continuous
 62
     7
370
     0
100
AcDbLine
 10
290.3075285341
 20
149.7892050403
 30
0.0
 11
310.3075290184
 21
149.7892050403
 31
0.0
  0
LINE
  5
239
330
1F
100
AcDbEntity
  8
0
  6
Continuous
 62
     7
370
     0
100
AcDbLine
 10
320.3075287949
 20
132.7892003911
 30
0.0
 11
340.3075292792
 21
132.7892003911
 31
0.0
  0
LINE
  5
23A
330
1F
100
AcDbEntity
  8
0
  6
Continuous
 62
     7
370
     0
100
AcDbLine
 10
320.3075287949
 20
149.7892050403
 30
0.0
 11
340.3075292792
 21
149.7892050403
 31
0.0
  0
LINE
  5
23B
330
1F
100
AcDbEntity
  8
0
  6
Continuous
 62
     7
370
     0
100
AcDbLine
 10
315.3075289066
 20
-57.2107972247
 30
0.0
 11
315.3075289066
 21
-74.2108018738
 31
0.0
  0
LINE
  5
23C
330
1F
100
AcDbEntity
  8
0
  6
Continuous
 62
     7
370
     0
100
AcDbLine
 10
310.3075290184
 20
-74.2108018738
 30
0.0
 11
310.3075290184
 21
-57.2107972247
 31
0.0
  0
LINE
  5
23D
330
1F
100
AcDbEntity
  8
0
  6
Continuous
 62
     7
370
     0
100
AcDbLine
 10
315.3075289066
 20
-74.2108018738
 30
0.0
 11
310.3075290184
 21
-74.2108018738
 31
0.0
  0
LINE
  5
23E
330
1F
100
AcDbEntity
  8
0
  6
Continuous
 62
     7
370
     0
100
AcDbLine
 10
310.3075290184
 20
-57.2107972247
 30
0.0
 11
315.3075289066
 21
-57.2107972247
 31
0.0
  0
LINE
  5
23F
330
1F
100
AcDbEntity
  8
0
  6
Continuous
 62
     7
370
     0
100
AcDbLine
 10
320.3075287949
 20
-57.2107972247
 30
0.0
 11
320.3075287949
 21
-74.2108018738
 31
0.0
  0
LINE
  5
240
330
1F
100
AcDbEntity
  8
0
  6
Continuous
 62
     7
370
     0
100
AcDbLine
 10
320.3075287949
 20
-74.2108018738
 30
0.0
 11
315.3075289066
 21
-74.2108018738
 31
0.0
  0
LINE
  5
241
330
1F
100
AcDbEntity
  8
0
  6
Continuous
 62
     7
370
     0
100
AcDbLine
 10
315.3075289066
 20
-57.2107972247
 30
0.0
 11
320.3075287949
 21
-57.2107972247
 31
0.0
  0
LINE
  5
242
330
1F
100
AcDbEntity
  8
0
  6
Continuous
 62
     7
370
     0
100
AcDbLine
 10
290.3075285341
 20
-74.2108018738
 30
0.0
 11
310.3075290184
 21
-74.2108018738
 31
0.0
  0
LINE
  5
243
330
1F
100
AcDbEntity
  8
0
  6
Continuous
 62
     7
370
     0
100
AcDbLine
 10
290.3075285341
 20
-57.2107972247
 30
0.0
 11
310.3075290184
 21
-57.2107972247
 31
0.0
  0
LINE
  5
244
330
1F
100
AcDbEntity
  8
0
  6
Continuous
 62
     7
370
     0
100
AcDbLine
 10
320.3075287949
 20
-74.2108018738
 30
0.0
 11
340.3075292792
 21
-74.2108018738
 31
0.0
  0
LINE
  5
245
330
1F
100
AcDbEntity
  8
0
  6
Continuous
 62
     7
370
     0
100
AcDbLine
 10
320.3075287949
 20
-57.2107972247
 30
0.0
 11
340.3075292792
 21
-57.2107972247
 31
0.0
  0
CIRCLE
  5
246
330
1F
100
AcDbEntity
  8
0
  6
Continuous
 62
     7
370
     0
100
AcDbCircle
 10
70.3075289066
 20
-38.2107984168
 30
0.0
 40
7.500000000000004
  0
LINE
  5
247
330
1F
100
AcDbEntity
  8
0
  6
Continuous
 62
     7
370
     0
100
AcDbLine
 10
485.2339785631
 20
132.7892003911
 30
0.0
 11
485.3075306948
 21
132.7892003911
 31
0.0
  0
LINE
  5
248
330
1F
100
AcDbEntity
  8
0
  6
Continuous
 62
     7
370
     0
100
AcDbLine
 10
484.8473530348
 20
132.7892003911
 30
0.0
 11
484.8473530348
 21
133.7885765689
 31
0.0
  0
LINE
  5
249
330
1F
100
AcDbEntity
  8
0
  6
Continuous
 62
     7
370
     0
100
AcDbLine
 10
385.3075292047
 20
132.7892003911
 30
0.0
 11
484.8473530348
 21
132.7892003911
 31
0.0
  0
LINE
  5
24A
330
1F
100
AcDbEntity
  8
0
  6
Continuous
 62
     7
370
     0
100
AcDbLine
 10
385.3075292047
 20
149.7892050403
 30
0.0
 11
485.3075306948
 21
149.7892050403
 31
0.0
  0
LINE
  5
24B
330
1F
100
AcDbEntity
  8
0
  6
Continuous
 62
     7
370
     0
100
AcDbLine
 10
145.7677047785
 20
133.7885765689
 30
0.0
 11
145.7677047785
 21
132.7892003911
 31
0.0
  0
LINE
  5
24C
330
1F
100
AcDbEntity
  8
0
  6
Continuous
 62
     7
370
     0
100
AcDbLine
 10
145.3075271185
 20
132.7892003911
 30
0.0
 11
145.3810792502
 21
132.7892003911
 31
0.0
  0
LINE
  5
24D
330
1F
100
AcDbEntity
  8
0
  6
Continuous
 62
     7
370
     0
100
AcDbLine
 10
145.7677047785
 20
132.7892003911
 30
0.0
 11
245.3075286086
 21
132.7892003911
 31
0.0
  0
LINE
  5
24E
330
1F
100
AcDbEntity
  8
0
  6
Continuous
 62
     7
370
     0
100
AcDbLine
 10
145.3075271185
 20
149.7892050403
 30
0.0
 11
245.3075286086
 21
149.7892050403
 31
0.0
  0
LINE
  5
24F
330
1F
100
AcDbEntity
  8
0
  6
Continuous
 62
     7
370
     0
100
AcDbLine
 10
145.3075271185
 20
-57.2107972247
 30
0.0
 11
145.3810792502
 21
-57.2107972247
 31
0.0
  0
LINE
  5
250
330
1F
100
AcDbEntity
  8
0
  6
Continuous
 62
     7
370
     0
100
AcDbLine
 10
145.7677047785
 20
-57.2107972247
 30
0.0
 11
145.7677047785
 21
-58.2101734025
 31
0.0
  0
LINE
  5
251
330
1F
100
AcDbEntity
  8
0
  6
Continuous
 62
     7
370
     0
100
AcDbLine
 10
145.3075271185
 20
-74.2108018738
 30
0.0
 11
245.3075286086
 21
-74.2108018738
 31
0.0
  0
LINE
  5
252
330
1F
100
AcDbEntity
  8
0
  6
Continuous
 62
     7
370
     0
100
AcDbLine
 10
145.7677047785
 20
-57.2107972247
 30
0.0
 11
245.3075286086
 21
-57.2107972247
 31
0.0
  0
LINE
  5
253
330
1F
100
AcDbEntity
  8
0
  6
Continuous
 62
     7
370
     0
100
AcDbLine
 10
484.8473530348
 20
-58.2101734025
 30
0.0
 11
484.8473530348
 21
-57.2107972247
 31
0.0
  0
LINE
  5
254
330
1F
100
AcDbEntity
  8
0
  6
Continuous
 62
     7
370
     0
100
AcDbLine
 10
485.2339785631
 20
-57.2107972247
 30
0.0
 11
485.3075306948
 21
-57.2107972247
 31
0.0
  0
LINE
  5
255
330
1F
100
AcDbEntity
  8
0
  6
Continuous
 62
     7
370
     0
100
AcDbLine
 10
385.3075292047
 20
-74.2108018738
 30
0.0
 11
485.3075306948
 21
-74.2108018738
 31
0.0
  0
LINE
  5
256
330
1F
100
AcDbEntity
  8
0
  6
Continuous
 62
     7
370
     0
100
AcDbLine
 10
385.3075292047
 20
-57.2107972247
 30
0.0
 11
484.8473530348
 21
-57.2107972247
 31
0.0
  0
CIRCLE
  5
257
330
1F
100
AcDbEntity
  8
0
  6
Continuous
 62
     7
370
     0
100
AcDbCircle
 10
315.3075289066
 20
37.7892015832
 30
0.0
 40
15.0
  0
SPLINE
  5
258
330
1F
100
AcDbEntity
  8
0
  6
Continuous
 62
     7
370
     0
100
AcDbSpline
210
0.0
220
0.0
230
1.0
 70
     8
 71
     3
 72
   102
 73
    98
 74
     0
 42
0.00000001
 43
0.00000001
 12
1.0
 22
0.0
 32
0.0
 13
1.0
 23
0.0
 33
0.0
 40
-0.03125
 40
-0.03125
 40
0.0
 40
0.0
 40
0.03125
 40
0.03125
 40
0.046875
 40
0.046875
 40
0.0625
 40
0.0625
 40
0.0937500000000001
 40
0.0937500000000001
 40
0.1093750000000001
 40
0.1093750000000001
 40
0.1250000000000001
 40
0.1250000000000001
 40
0.1562500000000001
 40
0.1562500000000001
 40
0.1718750000000001
 40
0.1718750000000001
 40
0.1875000000000001
 40
0.1875000000000001
 40
0.2031250000000001
 40
0.2031250000000001
 40
0.2187500000000001
 40
0.2187500000000001
 40
0.2500000000000002
 40
0.2500000000000002
 40
0.2656250000000002
 40
0.2656250000000002
 40
0.2812500000000002
 40
0.2812500000000002
 40
0.3125000000000002
 40
0.3125000000000002
 40
0.3281250000000002
 40
0.3281250000000002
 40
0.3437500000000002
 40
0.3437500000000002
 40
0.3750000000000002
 40
0.3750000000000002
 40
0.4062500000000002
 40
0.4062500000000002
 40
0.4218750000000002
 40
0.4218750000000002
 40
0.4375000000000001
 40
0.4375000000000001
 40
0.4687500000000002
 40
0.4687500000000002
 40
0.4843750000000003
 40
0.4843750000000003
 40
0.5000000000000003
 40
0.5000000000000003
 40
0.5312500000000004
 40
0.5312500000000004
 40
0.5468750000000004
 40
0.5468750000000004
 40
0.5625000000000004
 40
0.5625000000000004
 40
0.5781250000000004
 40
0.5781250000000004
 40
0.5937500000000004
 40
0.5937500000000004
 40
0.6250000000000003
 40
0.6250000000000003
 40
0.6406250000000003
 40
0.6406250000000003
 40
0.6562500000000003
 40
0.6562500000000003
 40
0.6875000000000003
 40
0.6875000000000003
 40
0.7031250000000003
 40
0.7031250000000003
 40
0.7187500000000003
 40
0.7187500000000003
 40
0.7500000000000002
 40
0.7500000000000002
 40
0.7812500000000001
 40
0.7812500000000001
 40
0.7968750000000001
 40
0.7968750000000001
 40
0.8125000000000001
 40
0.8125000000000001
 40
0.8437500000000001
 40
0.8437500000000001
 40
0.8593750000000001
 40
0.8593750000000001
 40
0.875
 40
0.875
 40
0.90625
 40
0.90625
 40
0.921875
 40
0.921875
 40
0.9375
 40
0.9375
 40
0.953125
 40
0.953125
 40
0.96875
 40
0.96875
 40
1.0
 40
1.0
 40
1.03125
 40
1.03125
 10
303.2980002650479
 20
48.21364352071977
 30
0.0
 10
304.7742184078044
 20
49.69803012018603
 30
0.0
 10
305.5727937395887
 20
50.35559516757103
 30
0.0
 10
306.8579946244409
 20
51.22043209579208
 30
0.0
 10
307.3010603024877
 20
51.48830566566969
 30
0.0
 10
308.2172658206123
 20
51.9823190347274
 30
0.0
 10
308.6920147409897
 20
52.20884373538721
 30
0.0
 10
310.1311878309663
 20
52.81054027308269
 30
0.0
 10
311.119370390563
 20
53.11415239898333
 30
0.0
 10
312.6445629488028
 20
53.42439349088404
 30
0.0
 10
313.1618797931523
 20
53.50360541975407
 30
0.0
 10
314.2039304612178
 20
53.61056474297736
 30
0.0
 10
314.7235201526934
 20
53.63796463405464
 30
0.0
 10
316.2781169433176
 20
53.64439454585056
 30
0.0
 10
317.3089904493179
 20
53.54837202257037
 30
0.0
 10
318.8468309675894
 20
53.25037967338482
 30
0.0
 10
319.3574478105378
 20
53.12494141610177
 30
0.0
 10
320.353230771415
 20
52.82788569473858
 30
0.0
 10
320.8413102183392
 20
52.65578013001641
 30
0.0
 10
321.7981856803192
 20
52.26514577830017
 30
0.0
 10
322.2669815538871
 20
52.04661681257051
 30
0.0
 10
323.1850732170058
 20
51.56250696582713
 30
0.0
 10
323.6367225761691
 20
51.29529451064126
 30
0.0
 10
324.9417016134616
 20
50.43337256866803
 30
0.0
 10
325.7434452411684
 20
49.78201371092649
 30
0.0
 10
326.8465456306544
 20
48.69239478982487
 30
0.0
 10
327.1975389082648
 20
48.31028842134277
 30
0.0
 10
327.8650893674841
 20
47.50699988918593
 30
0.0
 10
328.1787342321721
 20
47.08899326768142
 30
0.0
 10
329.0494648403981
 20
45.80204634601201
 30
0.0
 10
329.5420630275186
 20
44.89451319931224
 30
0.0
 10
330.1477765182916
 20
43.45770869994701
 30
0.0
 10
330.3280352965778
 20
42.96331805688322
 30
0.0
 10
330.6360792775621
 20
41.96753651053154
 30
0.0
 10
330.7646134250096
 20
41.46515655009675
 30
0.0
 10
331.0754446953196
 20
39.94482752273485
 30
0.0
 10
331.1837114547853
 20
38.91381763219042
 30
0.0
 10
331.1937083379477
 20
36.81531481175469
 30
0.0
 10
331.0951013473082
 20
35.78186832028226
 30
0.0
 10
330.7985249378915
 20
34.25829317977049
 30
0.0
 10
330.6747034331382
 20
33.75467380987418
 30
0.0
 10
330.3760506598762
 20
32.75608475454236
 30
0.0
 10
330.200434767739
 20
32.25996299013634
 30
0.0
 10
329.6080204634543
 20
30.81701612493109
 30
0.0
 10
329.1236960402784
 20
29.90445288476252
 30
0.0
 10
328.2643884639252
 20
28.60864310945912
 30
0.0
 10
327.9541488415562
 20
28.18716198144309
 30
0.0
 10
327.2944672451397
 20
27.37827434030515
 30
0.0
 10
326.9471793677277
 20
26.99309779343977
 30
0.0
 10
325.8544653479572
 20
25.89355268650882
 30
0.0
 10
325.0586825704576
 20
25.23462648308708
 30
0.0
 10
323.7609017845009
 20
24.36017439592007
 30
0.0
 10
323.3121867849165
 20
24.08911228100817
 30
0.0
 10
322.3991807478807
 20
23.59684183115474
 30
0.0
 10
321.9326680714753
 20
23.37408389029518
 30
0.0
 10
320.9798312707745
 20
22.97472982411225
 30
0.0
 10
320.4935073593174
 20
22.79813336533478
 30
0.0
 10
319.5006839990006
 20
22.49186151288132
 30
0.0
 10
318.9912494146487
 20
22.36166763641197
 30
0.0
 10
317.4563849280243
 20
22.04938374805968
 30
0.0
 10
316.4265444355902
 20
21.94376171459531
 30
0.0
 10
314.8721009023538
 20
21.9356803756887
 30
0.0
 10
314.3523279560785
 20
21.95822439862253
 30
0.0
 10
313.3094268799876
 20
22.05543178141887
 30
0.0
 10
312.7912090394689
 20
22.12982749896474
 30
0.0
 10
311.2628116880065
 20
22.42589833748051
 30
0.0
 10
310.2714998333764
 20
22.72039154587327
 30
0.0
 10
308.8261645851207
 20
23.30898801111298
 30
0.0
 10
308.3492774799267
 20
23.53115202356784
 30
0.0
 10
307.4287390895149
 20
24.01655388311501
 30
0.0
 10
306.9832244418703
 20
24.28029310342512
 30
0.0
 10
305.689894785801
 20
25.13329216683911
 30
0.0
 10
304.8836911561895
 20
25.78487309399811
 30
0.0
 10
303.3950879950964
 20
27.25445594657364
 30
0.0
 10
302.7347408562916
 20
28.05023812611966
 30
0.0
 10
301.8653261520649
 20
29.33242504608101
 30
0.0
 10
301.5958571526863
 20
29.77468252995261
 30
0.0
 10
301.0986099520838
 20
30.68974960539981
 30
0.0
 10
300.8707037741268
 20
31.16366944122753
 30
0.0
 10
300.2651530871786
 20
32.60030454986965
 30
0.0
 10
299.9590181127313
 20
33.58752448906673
 30
0.0
 10
299.6456073889609
 20
35.11253594793693
 30
0.0
 10
299.5654012095819
 20
35.63047508154933
 30
0.0
 10
299.4570066222244
 20
36.67171744451841
 30
0.0
 10
299.4289935478864
 20
37.19104602459277
 30
0.0
 10
299.4211261651111
 20
38.74527022290773
 30
0.0
 10
299.5167161134295
 20
39.776439456049
 30
0.0
 10
299.8153116374711
 20
41.31553628227188
 30
0.0
 10
299.9408881372486
 20
41.82551604405835
 30
0.0
 10
300.2384833704929
 20
42.82056507450309
 30
0.0
 10
300.4109866867511
 20
43.30838032901304
 30
0.0
 10
300.80272312754
 20
44.26490876845486
 30
0.0
 10
301.021956159072
 20
44.73362192654677
 30
0.0
 10
301.5078441250704
 20
45.65170919284654
 30
0.0
 10
301.7759355316288
 20
46.103084544788
 30
0.0
 10
302.6409870212289
 20
47.40753897980999
 30
0.0
 10
303.2980002650479
 20
48.21364352071977
 30
0.0
 10
304.7742184078044
 20
49.69803012018603
 30
0.0
  0
LINE
  5
259
330
1F
100
AcDbEntity
  8
0
  6
Continuous
 62
     7
370
     0
100
AcDbLine
 10
315.3075289066
 20
152.7892036694
 30
0.0
 11
448.3075302179
 21
152.7892036694
 31
0.0
  0
LINE
  5
25A
330
1F
100
AcDbEntity
  8
0
  6
Continuous
 62
     7
370
     0
100
AcDbLine
 10
182.3075275953
 20
152.7892036694
 30
0.0
 11
315.3075289066
 21
152.7892036694
 31
0.0
  0
LINE
  5
25B
330
1F
100
AcDbEntity
  8
0
  6
Continuous
 62
     7
370
     0
100
AcDbLine
 10
315.3075289066
 20
-77.2108005029
 30
0.0
 11
448.3075302179
 21
-77.2108005029
 31
0.0
  0
LINE
  5
25C
330
1F
100
AcDbEntity
  8
0
  6
Continuous
 62
     7
370
     0
100
AcDbLine
 10
182.3075275953
 20
-77.2108005029
 30
0.0
 11
315.3075289066
 21
-77.2108005029
 31
0.0
  0
SPLINE
  5
25D
330
1F
100
AcDbEntity
  8
0
  6
Continuous
 62
     7
370
     0
100
AcDbSpline
210
0.0
220
0.0
230
1.0
 70
     8
 71
     3
 72
     8
 73
     4
 74
     0
 42
0.00000001
 43
0.00000001
 12
1.0
 22
0.0
 32
0.0
 13
1.0
 23
0.0
 33
0.0
 40
0.0
 40
0.0
 40
0.0
 40
0.0
 40
1.0
 40
1.0
 40
1.0
 40
1.0
 10
424.0917189344216
 20
95.69825642058743
 30
0.0
 10
428.6209415791889
 20
108.060846386153
 30
0.0
 10
433.1469548376189
 20
120.4246136059799
 30
0.0
 10
437.6707178157257
 20
132.7892015832247
 30
0.0
  0
LINE
  5
25E
330
1F
100
AcDbEntity
  8
0
  6
Continuous
 62
     7
370
     0
100
AcDbLine
 10
206.5233375962
 20
95.6982581275
 30
0.0
 11
424.091720217
 21
95.6982581275
 31
0.0
  0
SPLINE
  5
25F
330
1F
100
AcDbEntity
  8
0
  6
Continuous
 62
     7
370
     0
100
AcDbSpline
210
0.0
220
0.0
230
1.0
 70
     8
 71
     3
 72
     8
 73
     4
 74
     0
 42
0.00000001
 43
0.00000001
 12
1.0
 22
0.0
 32
0.0
 13
1.0
 23
0.0
 33
0.0
 40
0.0
 40
0.0
 40
0.0
 40
0.0
 40
1.0
 40
1.0
 40
1.0
 40
1.0
 10
192.9443399975591
 20
132.7892015832248
 30
0.0
 10
197.4681031107858
 20
120.4246132366627
 30
0.0
 10
201.9941170283064
 20
108.0608442183418
 30
0.0
 10
206.523338878863
 20
95.69825642058741
 30
0.0
  0
CIRCLE
  5
260
330
1F
100
AcDbEntity
  8
0
  6
Continuous
 62
     7
370
     0
100
AcDbCircle
 10
34.2450830661
 20
-74.2732442573
 30
0.0
 40
5.25
  0
CIRCLE
  5
261
330
1F
100
AcDbEntity
  8
0
  6
Continuous
 62
     7
370
     0
100
AcDbCircle
 10
106.3699747472
 20
-74.2732442573
 30
0.0
 40
5.25
  0
CIRCLE
  5
262
330
1F
100
AcDbEntity
  8
0
  6
Continuous
 62
     7
370
     0
100
AcDbCircle
 10
34.2450830661
 20
-2.1483525763
 30
0.0
 40
5.250000000000008
  0
CIRCLE
  5
263
330
1F
100
AcDbEntity
  8
0
  6
Continuous
 62
     7
370
     0
100
AcDbCircle
 10
106.3699747472
 20
-2.1483525763
 30
0.0
 40
5.250000000000005
  0
CIRCLE
  5
264
330
1F
100
AcDbEntity
  8
0
  6
Continuous
 62
     7
370
     0
100
AcDbCircle
 10
70.3075289066
 20
-38.2107984168
 30
0.0
 40
63.00000000000001
  0
SPLINE
  5
265
330
1F
100
AcDbEntity
  8
0
  6
Continuous
 62
     7
370
     0
100
AcDbSpline
210
0.0
220
0.0
230
1.0
 70
     8
 71
     3
 72
     8
 73
     4
 74
     0
 42
0.00000001
 43
0.00000001
 12
1.0
 22
0.0
 32
0.0
 13
1.0
 23
0.0
 33
0.0
 40
0.0
 40
0.0
 40
0.0
 40
0.0
 40
1.0
 40
1.0
 40
1.0
 40
1.0
 10
437.6707178157257
 20
-57.21079841677529
 30
0.0
 10
433.1469547025374
 20
-44.84621007031848
 30
0.0
 10
428.6209407850736
 20
-32.48244105215247
 30
0.0
 10
424.0917189344217
 20
-20.119853254138
 30
0.0
  0
SPLINE
  5
266
330
1F
100
AcDbEntity
  8
0
  6
Continuous
 62
     7
370
     0
100
AcDbSpline
210
0.0
220
0.0
230
1.0
 70
     8
 71
     3
 72
     8
 73
     4
 74
     0
 42
0.00000001
 43
0.00000001
 12
1.0
 22
0.0
 32
0.0
 13
1.0
 23
0.0
 33
0.0
 40
0.0
 40
0.0
 40
0.0
 40
0.0
 40
1.0
 40
1.0
 40
1.0
 40
1.0
 10
206.523338878863
 20
-20.11985325413793
 30
0.0
 10
201.9941162341384
 20
-32.48244321958722
 30
0.0
 10
197.4681029756808
 20
-44.8462104394896
 30
0.0
 10
192.9443399975591
 20
-57.21079841677528
 30
0.0
  0
LINE
  5
267
330
1F
100
AcDbEntity
  8
0
  6
Continuous
 62
     7
370
     0
100
AcDbLine
 10
206.5233375962
 20
-20.1198549611
 30
0.0
 11
424.091720217
 21
-20.1198549611
 31
0.0
  0
SPLINE
  5
268
330
1F
100
AcDbEntity
  8
0
  6
Continuous
 62
     7
370
     0
100
AcDbSpline
210
0.0
220
0.0
230
1.0
 70
     8
 71
     3
 72
    26
 73
    22
 74
     0
 42
0.00000001
 43
0.00000001
 12
1.0
 22
0.0
 32
0.0
 13
1.0
 23
0.0
 33
0.0
 40
0.0
 40
0.0
 40
0.0
 40
0.0
 40
0.0624999999999999
 40
0.0624999999999999
 40
0.1249999999999999
 40
0.1249999999999999
 40
0.2499999999999999
 40
0.2499999999999999
 40
0.3749999999999998
 40
0.3749999999999998
 40
0.4999999999999997
 40
0.4999999999999997
 40
0.6249999999999996
 40
0.6249999999999996
 40
0.6874999999999996
 40
0.6874999999999996
 40
0.7499999999999996
 40
0.7499999999999996
 40
0.8749999999999998
 40
0.8749999999999998
 40
1.0
 40
1.0
 40
1.0
 40
1.0
 10
211.2353123979389
 20
45.28920158322473
 30
0.0
 10
211.180468463956
 20
45.93847167490057
 30
0.0
 10
211.1188166577374
 20
46.58372212151893
 30
0.0
 10
210.9823841472476
 20
47.86604762069157
 30
0.0
 10
210.9080912416831
 20
48.49831226969149
 30
0.0
 10
210.670191995687
 20
50.35763190854168
 30
0.0
 10
210.4910570212275
 20
51.55245975416038
 30
0.0
 10
210.1010414766462
 20
53.85595203532809
 30
0.0
 10
209.8899024463154
 20
54.96573299877517
 30
0.0
 10
209.4454923949262
 20
57.09301018820754
 30
0.0
 10
209.216670637578
 20
58.08980040060639
 30
0.0
 10
208.7559287599741
 20
59.95640801096211
 30
0.0
 10
208.5239750813592
 20
60.8262038587564
 30
0.0
 10
208.1806896611087
 20
62.03500158326781
 30
0.0
 10
208.0669315889922
 20
62.42222701184856
 30
0.0
 10
207.8425492208257
 20
63.16239721110092
 30
0.0
 10
207.732975318307
 20
63.51191522531147
 30
0.0
 10
207.4134631897003
 20
64.50032457014001
 30
0.0
 10
207.2127386265665
 20
65.0793457729976
 30
0.0
 10
206.8427345346547
 20
66.07882752589799
 30
0.0
 10
206.673430451708
 20
66.49931542720229
 30
0.0
 10
206.523338878863
 20
66.83657667978035
 30
0.0
  0
LINE
  5
269
330
1F
100
AcDbEntity
  8
0
  6
Continuous
 62
     7
370
     0
100
AcDbLine
 10
206.5233375962
 20
95.6982581275
 30
0.0
 11
206.5233375962
 21
66.8365771281
 31
0.0
  0
LINE
  5
26A
330
1F
100
AcDbEntity
  8
0
  6
Continuous
 62
     7
370
     0
100
AcDbLine
 10
424.091720217
 20
66.8365771281
 30
0.0
 11
424.091720217
 21
95.6982581275
 31
0.0
  0
SPLINE
  5
26B
330
1F
100
AcDbEntity
  8
0
  6
Continuous
 62
     7
370
     0
100
AcDbSpline
210
0.0
220
0.0
230
1.0
 70
     8
 71
     3
 72
    30
 73
    26
 74
     0
 42
0.00000001
 43
0.00000001
 12
1.0
 22
0.0
 32
0.0
 13
1.0
 23
0.0
 33
0.0
 40
0.0
 40
0.0
 40
0.0
 40
0.0
 40
0.0625000000000001
 40
0.0625000000000001
 40
0.1250000000000001
 40
0.1250000000000001
 40
0.2500000000000001
 40
0.2500000000000001
 40
0.3125
 40
0.3125
 40
0.3749999999999999
 40
0.3749999999999999
 40
0.4999999999999997
 40
0.4999999999999997
 40
0.6249999999999994
 40
0.6249999999999994
 40
0.6874999999999996
 40
0.6874999999999996
 40
0.7499999999999996
 40
0.7499999999999996
 40
0.875
 40
0.875
 40
0.9375
 40
0.9375
 40
1.0
 40
1.0
 40
1.0
 40
1.0
 10
424.0917189344216
 20
66.83657667978035
 30
0.0
 10
424.0168868550517
 20
66.66842626105303
 30
0.0
 10
423.9363517778846
 20
66.47732847929171
 30
0.0
 10
423.7671652676509
 20
66.05581171903431
 30
0.0
 10
423.6782476228524
 20
65.8248273760472
 30
0.0
 10
423.3998855797897
 20
65.0725205753084
 30
0.0
 10
423.1988260233493
 20
64.49211846181215
 30
0.0
 10
422.8793805767823
 20
63.50337411939739
 30
0.0
 10
422.7699229917415
 20
63.1540339723672
 30
0.0
 10
422.5459880372083
 20
62.41500435371914
 30
0.0
 10
422.4317152272587
 20
62.02587698993098
 30
0.0
 10
422.0879225110692
 20
60.8146336805533
 30
0.0
 10
421.8558851575791
 20
59.94388592813018
 30
0.0
 10
421.3954948325152
 20
58.07745436875108
 30
0.0
 10
421.1671089964204
 20
57.08178434778065
 30
0.0
 10
420.8347841705764
 20
55.49022855663099
 30
0.0
 10
420.7258269275514
 20
54.94351733321989
 30
0.0
 10
420.5158379098403
 20
53.83337343548298
 30
0.0
 10
420.4143828634474
 20
53.26796883561562
 30
0.0
 10
420.1222191628077
 20
51.54098744573322
 30
0.0
 10
419.9436847873549
 20
50.34878327613913
 30
0.0
 10
419.7068912609372
 20
48.49753196767735
 30
0.0
 10
419.6331336590693
 20
47.86992287937559
 30
0.0
 10
419.4971744491681
 20
46.59293775536824
 30
0.0
 10
419.4348758544582
 20
45.94186346681305
 30
0.0
 10
419.3797454153458
 20
45.28920158322472
 30
0.0
  0
LINE
  5
26C
330
1F
100
AcDbEntity
  8
0
  6
Continuous
 62
     7
370
     0
100
AcDbLine
 10
413.9685642059
 20
30.2892017509
 30
0.0
 11
413.9685642059
 21
45.2892014156
 31
0.0
  0
SPLINE
  5
26D
330
1F
100
AcDbEntity
  8
0
  6
Continuous
 62
     7
370
     0
100
AcDbSpline
210
0.0
220
0.0
230
1.0
 70
     8
 71
     3
 72
    26
 73
    22
 74
     0
 42
0.00000001
 43
0.00000001
 12
1.0
 22
0.0
 32
0.0
 13
1.0
 23
0.0
 33
0.0
 40
0.0
 40
0.0
 40
0.0
 40
0.0
 40
0.0625
 40
0.0625
 40
0.125
 40
0.125
 40
0.2499999999999999
 40
0.2499999999999999
 40
0.3749999999999998
 40
0.3749999999999998
 40
0.4999999999999997
 40
0.4999999999999997
 40
0.6249999999999996
 40
0.6249999999999996
 40
0.6874999999999996
 40
0.6874999999999996
 40
0.7499999999999996
 40
0.7499999999999996
 40
0.8749999999999998
 40
0.8749999999999998
 40
1.0
 40
1.0
 40
1.0
 40
1.0
 10
419.3797454153458
 20
30.28920158322472
 30
0.0
 10
419.4345893493286
 20
29.63993149154889
 30
0.0
 10
419.4962411555473
 20
28.99468104493052
 30
0.0
 10
419.6326736660371
 20
27.71235554575788
 30
0.0
 10
419.7069665716016
 20
27.08009089675797
 30
0.0
 10
419.9448658175977
 20
25.22077125790777
 30
0.0
 10
420.1240007920572
 20
24.02594341228907
 30
0.0
 10
420.5140163366385
 20
21.72245113112136
 30
0.0
 10
420.7251553669693
 20
20.61267016767427
 30
0.0
 10
421.1695654183586
 20
18.4853929782419
 30
0.0
 10
421.3983871757067
 20
17.48860276584306
 30
0.0
 10
421.8591290533106
 20
15.62199515548734
 30
0.0
 10
422.0910827319256
 20
14.75219930769305
 30
0.0
 10
422.434368152176
 20
13.54340158318164
 30
0.0
 10
422.5481262242924
 20
13.1561761546009
 30
0.0
 10
422.772508592459
 20
12.41600595534852
 30
0.0
 10
422.8820824949777
 20
12.06648794113797
 30
0.0
 10
423.2015946235844
 20
11.07807859630944
 30
0.0
 10
423.4023191867182
 20
10.49905739345187
 30
0.0
 10
423.77232327863
 20
9.499575640551448
 30
0.0
 10
423.9416273615766
 20
9.079087739247147
 30
0.0
 10
424.0917189344216
 20
8.741826486669096
 30
0.0
  0
LINE
  5
26E
330
1F
100
AcDbEntity
  8
0
  6
Continuous
 62
     7
370
     0
100
AcDbLine
 10
424.091720217
 20
-20.1198549611
 30
0.0
 11
424.091720217
 21
8.7418260383
 31
0.0
  0
LINE
  5
26F
330
1F
100
AcDbEntity
  8
0
  6
Continuous
 62
     7
370
     0
100
AcDbLine
 10
206.5233375962
 20
8.7418260383
 30
0.0
 11
206.5233375962
 21
-20.1198549611
 31
0.0
  0
SPLINE
  5
270
330
1F
100
AcDbEntity
  8
0
  6
Continuous
 62
     7
370
     0
100
AcDbSpline
210
0.0
220
0.0
230
1.0
 70
     8
 71
     3
 72
    30
 73
    26
 74
     0
 42
0.00000001
 43
0.00000001
 12
1.0
 22
0.0
 32
0.0
 13
1.0
 23
0.0
 33
0.0
 40
0.0
 40
0.0
 40
0.0
 40
0.0
 40
0.0625000000000001
 40
0.0625000000000001
 40
0.1250000000000001
 40
0.1250000000000001
 40
0.2500000000000001
 40
0.2500000000000001
 40
0.3125
 40
0.3125
 40
0.3749999999999999
 40
0.3749999999999999
 40
0.4999999999999997
 40
0.4999999999999997
 40
0.6249999999999994
 40
0.6249999999999994
 40
0.6874999999999996
 40
0.6874999999999996
 40
0.7499999999999996
 40
0.7499999999999996
 40
0.875
 40
0.875
 40
0.9375
 40
0.9375
 40
1.0
 40
1.0
 40
1.0
 40
1.0
 10
206.523338878863
 20
8.741826486669096
 30
0.0
 10
206.598170958233
 20
8.909976905396418
 30
0.0
 10
206.6787060354001
 20
9.101074687157727
 30
0.0
 10
206.8478925456338
 20
9.522591447415133
 30
0.0
 10
206.9368101904323
 20
9.753575790402248
 30
0.0
 10
207.2151722334949
 20
10.50588259114105
 30
0.0
 10
207.4162317899354
 20
11.08628470463729
 30
0.0
 10
207.7356772365024
 20
12.07502904705207
 30
0.0
 10
207.8451348215433
 20
12.42436919408224
 30
0.0
 10
208.0690697760764
 20
13.16339881273031
 30
0.0
 10
208.1833425860259
 20
13.55252617651847
 30
0.0
 10
208.5271353022155
 20
14.76376948589615
 30
0.0
 10
208.7591726557056
 20
15.63451723831927
 30
0.0
 10
209.2195629807695
 20
17.50094879769837
 30
0.0
 10
209.4479488168643
 20
18.49661881866879
 30
0.0
 10
209.7802736427083
 20
20.08817460981846
 30
0.0
 10
209.8892308857333
 20
20.63488583322955
 30
0.0
 10
210.0992199034444
 20
21.74502973096647
 30
0.0
 10
210.2006749498373
 20
22.31043433083383
 30
0.0
 10
210.492838650477
 20
24.03741572071622
 30
0.0
 10
210.6713730259298
 20
25.22961989031031
 30
0.0
 10
210.9081665523475
 20
27.08087119877209
 30
0.0
 10
210.9819241542154
 20
27.70848028707385
 30
0.0
 10
211.1178833641166
 20
28.9854654110812
 30
0.0
 10
211.1801819588265
 20
29.6365396996364
 30
0.0
 10
211.2353123979389
 20
30.28920158322473
 30
0.0
  0
LINE
  5
271
330
1F
100
AcDbEntity
  8
0
  6
Continuous
 62
     7
370
     0
100
AcDbLine
 10
216.6464936073
 20
45.2892014156
 30
0.0
 11
216.6464936073
 21
30.2892017509
 31
0.0
  0
SPLINE
  5
272
330
1F
100
AcDbEntity
  8
0
  6
Continuous
 62
     7
370
     0
100
AcDbSpline
210
0.0
220
0.0
230
1.0
 70
     8
 71
     3
 72
    20
 73
    16
 74
     0
 42
0.00000001
 43
0.00000001
 12
1.0
 22
0.0
 32
0.0
 13
1.0
 23
0.0
 33
0.0
 40
0.0
 40
0.0
 40
0.0
 40
0.0
 40
0.2945910772615289
 40
0.2945910772615289
 40
0.2945910772615289
 40
0.572416511373388
 40
0.572416511373388
 40
0.572416511373388
 40
0.7614685195881445
 40
0.7614685195881445
 40
0.7614685195881445
 40
0.9520892366730355
 40
0.9520892366730355
 40
0.9520892366730355
 40
1.0
 40
1.0
 40
1.0
 40
1.0
 10
336.0780162201292
 20
62.43720158322472
 30
0.0
 10
336.0381148128269
 20
62.43720158322471
 30
0.0
 10
335.997532259442
 20
62.42998352384624
 30
0.0
 10
335.960182343624
 20
62.41566313476201
 30
0.0
 10
335.9250123532616
 20
62.40217855427381
 30
0.0
 10
335.891466980881
 20
62.3818176045202
 30
0.0
 10
335.8641061750943
 20
62.35557973529779
 30
0.0
 10
335.8453351159977
 20
62.33757907414818
 30
0.0
 10
335.8290122505202
 20
62.316337673168
 30
0.0
 10
335.8169865425999
 20
62.29311327775803
 30
0.0
 10
335.8049016378691
 20
62.26977455975366
 30
0.0
 10
335.796882927924
 20
62.2436719726891
 30
0.0
 10
335.7942461291316
 20
62.21742610546452
 30
0.0
 10
335.7935714788584
 20
62.21071084848612
 30
0.0
 10
335.7932320036988
 20
62.20395186761323
 30
0.0
 10
335.7932320036988
 20
62.19720158322473
 30
0.0
  0
LINE
  5
273
330
1F
100
AcDbEntity
  8
0
  6
Continuous
 62
     7
370
     0
100
AcDbLine
 10
335.7932318087
 20
44.5015646848
 30
0.0
 11
335.7932318087
 21
62.1972011733
 31
0.0
  0
SPLINE
  5
274
330
1F
100
AcDbEntity
  8
0
  6
Continuous
 62
     7
370
     0
100
AcDbSpline
210
0.0
220
0.0
230
1.0
 70
     8
 71
     3
 72
    17
 73
    13
 74
     0
 42
0.00000001
 43
0.00000001
 12
1.0
 22
0.0
 32
0.0
 13
1.0
 23
0.0
 33
0.0
 40
0.0
 40
0.0
 40
0.0
 40
0.0
 40
0.233060774874302
 40
0.233060774874302
 40
0.233060774874302
 40
0.4650305328555684
 40
0.4650305328555684
 40
0.4650305328555684
 40
0.711836300133719
 40
0.711836300133719
 40
0.711836300133719
 40
1.0
 40
1.0
 40
1.0
 40
1.0
 10
335.7932320036988
 20
44.50156445632536
 30
0.0
 10
335.7932320036988
 20
44.47806633831297
 30
0.0
 10
335.7974909889045
 20
44.45424068661244
 30
0.0
 10
335.8054102182634
 20
44.432168760659
 30
0.0
 10
335.8133085370881
 20
44.41015511509369
 30
0.0
 10
335.8249996246524
 20
44.38929277841738
 30
0.0
 10
335.8392146855549
 20
44.37085861499979
 30
0.0
 10
335.8543532467294
 20
44.35122685172329
 30
0.0
 10
335.8726650016891
 20
44.3338641392491
 30
0.0
 10
335.892653929585
 20
44.3194163794991
 30
0.0
 10
335.915969200388
 20
44.30256437859016
 30
0.0
 10
335.9420681614489
 20
44.28927609596358
 30
0.0
 10
335.9691114956812
 20
44.27983336852265
 30
0.0
  0
SPLINE
  5
275
330
1F
100
AcDbEntity
  8
0
  6
Continuous
 62
     7
370
     0
100
AcDbSpline
210
0.0
220
0.0
230
1.0
 70
     8
 71
     3
 72
    21
 73
    17
 74
     0
 42
0.00000001
 43
0.00000001
 12
1.0
 22
0.0
 32
0.0
 13
1.0
 23
0.0
 33
0.0
 40
0.0
 40
0.0
 40
0.0
 40
0.0
 40
0.0552996772637425
 40
0.1106180460641285
 40
0.1659591402791799
 40
0.221326988819872
 40
0.2767256147599887
 40
0.3321590344723166
 40
0.3876312567720894
 40
0.4431462820685792
 40
0.4987081015257076
 40
0.5987790081011011
 40
0.6989205534508337
 40
0.7991558693435501
 40
0.8995080227039092
 40
1.0
 40
1.0
 40
1.0
 40
1.0
 10
335.9691114956813
 20
44.27983336852265
 30
0.0
 10
336.2859023962208
 20
44.16897317883278
 30
0.0
 10
336.9195912740317
 20
43.94721532821632
 30
0.0
 10
337.8674354335324
 20
43.61228554799337
 30
0.0
 10
338.8134794187799
 20
43.2756186089846
 30
0.0
 10
339.7575217389583
 20
42.93705259834731
 30
0.0
 10
340.6996163995308
 20
42.5966309454668
 30
0.0
 10
341.6397489060718
 20
42.25434197754592
 30
0.0
 10
342.5779231110869
 20
41.91018896178662
 30
0.0
 10
343.5141380304469
 20
41.56417054679343
 30
0.0
 10
344.6975721896509
 20
41.12350420149979
 30
0.0
 10
346.1250926797608
 20
40.5863699507078
 30
0.0
 10
347.7924946490753
 20
39.95057995375206
 30
0.0
 10
349.4513714879949
 20
39.30939869418668
 30
0.0
 10
351.1027150077906
 20
38.66321247016285
 30
0.0
 10
352.1952668287248
 20
38.22846015955442
 30
0.0
 10
352.7419230462864
 20
38.01093267102743
 30
0.0
  0
SPLINE
  5
276
330
1F
100
AcDbEntity
  8
0
  6
Continuous
 62
     7
370
     0
100
AcDbSpline
210
0.0
220
0.0
230
1.0
 70
     8
 71
     3
 72
    29
 73
    25
 74
     0
 42
0.00000001
 43
0.00000001
 12
1.0
 22
0.0
 32
0.0
 13
1.0
 23
0.0
 33
0.0
 40
0.0
 40
0.0
 40
0.0
 40
0.0
 40
0.1522469061250049
 40
0.1522469061250049
 40
0.1522469061250049
 40
0.3052760049059959
 40
0.3052760049059959
 40
0.3052760049059959
 40
0.4465371940091676
 40
0.4465371940091676
 40
0.4465371940091676
 40
0.5758489395370532
 40
0.5758489395370532
 40
0.5758489395370532
 40
0.7011657864940143
 40
0.7011657864940143
 40
0.7011657864940143
 40
0.8305026150156863
 40
0.8305026150156863
 40
0.8305026150156863
 40
0.9698758808212173
 40
0.9698758808212173
 40
0.9698758808212173
 40
1.0
 40
1.0
 40
1.0
 40
1.0
 10
352.7419230462864
 20
38.01093267102744
 30
0.0
 10
352.7679549389614
 20
38.00053440216842
 30
0.0
 10
352.7927766153443
 20
37.98549721739776
 30
0.0
 10
352.8142152966719
 20
37.96666225994939
 30
0.0
 10
352.8357176962039
 20
37.94777132286087
 30
0.0
 10
352.8544232571085
 20
37.92444277614148
 30
0.0
 10
352.8681321883543
 20
37.89860327252625
 30
0.0
 10
352.880796472917
 20
37.87473278832331
 30
0.0
 10
352.8895559962565
 20
37.84796785748455
 30
0.0
 10
352.89329243393
 20
37.82084321457189
 30
0.0
 10
352.896720437096
 20
37.79595764978949
 30
0.0
 10
352.8960262400146
 20
37.77005926871001
 30
0.0
 10
352.8912908128063
 20
37.74541797843979
 30
0.0
 10
352.8866946336379
 20
37.72150127989425
 30
0.0
 10
352.8781948493046
 20
37.69813285848356
 30
0.0
 10
352.8666459701427
 20
37.67704273811698
 30
0.0
 10
352.8547208097553
 20
37.65526546740232
 30
0.0
 10
352.8392709953767
 20
37.63536004374031
 30
0.0
 10
352.8216360915559
 20
37.61853517037316
 30
0.0
 10
352.8026394328286
 20
37.60041109208309
 30
0.0
 10
352.7806581515819
 20
37.58540077362786
 30
0.0
 10
352.7573902800145
 20
37.57425469978205
 30
0.0
 10
352.7523053367909
 20
37.57181884515275
 30
0.0
 10
352.7471440125808
 20
37.56955597617867
 30
0.0
 10
352.7419230462864
 20
37.56747049542201
 30
0.0
  0
SPLINE
  5
277
330
1F
100
AcDbEntity
  8
0
  6
Continuous
 62
     7
370
     0
100
AcDbSpline
210
0.0
220
0.0
230
1.0
 70
     8
 71
     3
 72
    21
 73
    17
 74
     0
 42
0.00000001
 43
0.00000001
 12
1.0
 22
0.0
 32
0.0
 13
1.0
 23
0.0
 33
0.0
 40
0.0
 40
0.0
 40
0.0
 40
0.0
 40
0.0558419958242005
 40
0.1116391602176987
 40
0.1673954241079107
 40
0.2231147270786934
 40
0.2788010165584178
 40
0.3344582469997923
 40
0.3900903790522654
 40
0.4457013787278538
 40
0.5012952165612654
 40
0.6012625472515452
 40
0.7010933042704187
 40
0.800810836106705
 40
0.9004385708547065
 40
1.0
 40
1.0
 40
1.0
 40
1.0
 10
352.7419230462864
 20
37.56747049542201
 30
0.0
 10
352.438415813043
 20
37.44649352200004
 30
0.0
 10
351.8316450101879
 20
37.20463669866897
 30
0.0
 10
350.9176058219912
 20
36.84367729231763
 30
0.0
 10
350.001218793644
 20
36.48425282437436
 30
0.0
 10
349.0821765993153
 20
36.12648241955227
 30
0.0
 10
348.1605615353394
 20
35.77033419862319
 30
0.0
 10
347.2363515101314
 20
35.41581670759034
 30
0.0
 10
346.3095527433201
 20
35.06292764798062
 30
0.0
 10
345.380162508698
 20
34.71166770917706
 30
0.0
 10
344.2001582234575
 20
34.26898897911585
 30
0.0
 10
342.7670071153866
 20
33.73692770328598
 30
0.0
 10
341.0775672897782
 20
33.11807614964084
 30
0.0
 10
339.3815569211647
 20
32.50534950897429
 30
0.0
 10
337.6796321158884
 20
31.89822344246035
 30
0.0
 10
336.5391584897246
 20
31.49840998312847
 30
0.0
 10
335.9691114956812
 20
31.29856979792678
 30
0.0
  0
SPLINE
  5
278
330
1F
100
AcDbEntity
  8
0
  6
Continuous
 62
     7
370
     0
100
AcDbSpline
210
0.0
220
0.0
230
1.0
 70
     8
 71
     3
 72
    17
 73
    13
 74
     0
 42
0.00000001
 43
0.00000001
 12
1.0
 22
0.0
 32
0.0
 13
1.0
 23
0.0
 33
0.0
 40
0.0
 40
0.0
 40
0.0
 40
0.0
 40
0.3277039730680147
 40
0.3277039730680147
 40
0.3277039730680147
 40
0.6019571452994742
 40
0.6019571452994742
 40
0.6019571452994742
 40
0.8788698412764401
 40
0.8788698412764401
 40
0.8788698412764401
 40
1.0
 40
1.0
 40
1.0
 40
1.0
 10
335.9691114956812
 20
31.2985697979268
 30
0.0
 10
335.9384272849902
 20
31.28785578478752
 30
0.0
 10
335.908894957798
 20
31.27214105415928
 30
0.0
 10
335.8832642521048
 20
31.251890305811
 30
0.0
 10
335.8617821704227
 20
31.23491737360439
 30
0.0
 10
335.8425354395781
 20
31.21429934857264
 30
0.0
 10
335.8276373903622
 20
31.19113858778655
 30
0.0
 10
335.8126547359294
 20
31.16784629829066
 30
0.0
 10
335.8017008716446
 20
31.14116503671571
 30
0.0
 10
335.7966342480384
 20
31.11380486770102
 30
0.0
 10
335.7943820946141
 20
31.1016430607217
 30
0.0
 10
335.7932320036987
 20
31.08921472626017
 30
0.0
 10
335.7932320036987
 20
31.0768387101241
 30
0.0
  0
LINE
  5
279
330
1F
100
AcDbEntity
  8
0
  6
Continuous
 62
     7
370
     0
100
AcDbLine
 10
335.7932318087
 20
14.6772006857
 30
0.0
 11
335.7932318087
 21
31.0768384817
 31
0.0
  0
SPLINE
  5
27A
330
1F
100
AcDbEntity
  8
0
  6
Continuous
 62
     7
370
     0
100
AcDbSpline
210
0.0
220
0.0
230
1.0
 70
     8
 71
     3
 72
    20
 73
    16
 74
     0
 42
0.00000001
 43
0.00000001
 12
1.0
 22
0.0
 32
0.0
 13
1.0
 23
0.0
 33
0.0
 40
0.0
 40
0.0
 40
0.0
 40
0.0
 40
0.1698166797313738
 40
0.1698166797313738
 40
0.1698166797313738
 40
0.3388384042996137
 40
0.3388384042996137
 40
0.3388384042996137
 40
0.5186701926403929
 40
0.5186701926403929
 40
0.5186701926403929
 40
0.7284881147646343
 40
0.7284881147646343
 40
0.7284881147646343
 40
1.0
 40
1.0
 40
1.0
 40
1.0
 10
335.7932320036988
 20
14.67720158322473
 30
0.0
 10
335.7932320036988
 20
14.65370346521235
 30
0.0
 10
335.7974909889045
 20
14.62987781351181
 30
0.0
 10
335.8054102182634
 20
14.60780588755836
 30
0.0
 10
335.8133085370881
 20
14.58579224199305
 30
0.0
 10
335.8249996246524
 20
14.56492990531673
 30
0.0
 10
335.8392146855549
 20
14.54649574189914
 30
0.0
 10
335.8543532467294
 20
14.52686397862264
 30
0.0
 10
335.8726650016891
 20
14.50950126614847
 30
0.0
 10
335.892653929585
 20
14.49505350639846
 30
0.0
 10
335.9159530166166
 20
14.47821320292735
 30
0.0
 10
335.9420317992782
 20
14.46493169195753
 30
0.0
 10
335.9690546264803
 20
14.45549035852186
 30
0.0
 10
336.0038761175028
 20
14.44332429961869
 30
0.0
 10
336.0412092876485
 20
14.43720158322473
 30
0.0
 10
336.0780162201292
 20
14.43720158322473
 30
0.0
  0
SPLINE
  5
27B
330
1F
100
AcDbEntity
  8
0
  6
Continuous
 62
     7
370
     0
100
AcDbSpline
210
0.0
220
0.0
230
1.0
 70
     8
 71
     3
 72
    17
 73
    13
 74
     0
 42
0.00000001
 43
0.00000001
 12
1.0
 22
0.0
 32
0.0
 13
1.0
 23
0.0
 33
0.0
 40
0.0
 40
0.0
 40
0.0
 40
0.0
 40
0.3032608590225437
 40
0.3032608590225437
 40
0.3032608590225437
 40
0.5637856715424642
 40
0.5637856715424642
 40
0.5637856715424642
 40
0.7950633073663453
 40
0.7950633073663453
 40
0.7950633073663453
 40
1.0
 40
1.0
 40
1.0
 40
1.0
 10
343.632245687132
 20
62.43720158322473
 30
0.0
 10
343.5928640378277
 20
62.43720158322473
 30
0.0
 10
343.5526906364758
 20
62.42919845084637
 30
0.0
 10
343.5163128916546
 20
62.41355480444308
 30
0.0
 10
343.4849822495887
 20
62.4000815809523
 30
0.0
 10
343.4553802886041
 20
62.38042472955402
 30
0.0
 10
343.4311702105844
 20
62.35582006100643
 30
0.0
 10
343.4096708136158
 20
62.33397025383305
 30
0.0
 10
343.3917384085802
 20
62.3073801984546
 30
0.0
 10
343.3801405157735
 20
62.27859985335285
 30
0.0
 10
343.3698444886829
 20
62.25305010756868
 30
0.0
 10
343.3642394776236
 20
62.22488290078934
 30
0.0
 10
343.3642394776236
 20
62.19720158322471
 30
0.0
  0
LINE
  5
27C
330
1F
100
AcDbEntity
  8
0
  6
Continuous
 62
     7
370
     0
100
AcDbLine
 10
343.3642398651
 20
57.633340578
 30
0.0
 11
343.3642398651
 21
62.1972011733
 31
0.0
  0
SPLINE
  5
27D
330
1F
100
AcDbEntity
  8
0
  6
Continuous
 62
     7
370
     0
100
AcDbSpline
210
0.0
220
0.0
230
1.0
 70
     8
 71
     3
 72
    20
 73
    16
 74
     0
 42
0.00000001
 43
0.00000001
 12
1.0
 22
0.0
 32
0.0
 13
1.0
 23
0.0
 33
0.0
 40
0.0
 40
0.0
 40
0.0
 40
0.0
 40
0.1749280806812176
 40
0.1749280806812176
 40
0.1749280806812176
 40
0.3492159269725948
 40
0.3492159269725948
 40
0.3492159269725948
 40
0.532641800288065
 40
0.532641800288065
 40
0.532641800288065
 40
0.7399408101770336
 40
0.7399408101770336
 40
0.7399408101770336
 40
1.0
 40
1.0
 40
1.0
 40
1.0
 10
343.3642394776236
 20
57.63334145092206
 30
0.0
 10
343.3642394776236
 20
57.60912665332494
 30
0.0
 10
343.3684856840398
 20
57.58457641835253
 30
0.0
 10
343.3764356261368
 20
57.56180121521324
 30
0.0
 10
343.384369204045
 20
57.5390728926316
 30
0.0
 10
343.3961572330757
 20
57.5175022943026
 30
0.0
 10
343.4105818798606
 20
57.49849695740784
 30
0.0
 10
343.4257740591753
 20
57.4784803503917
 30
0.0
 10
343.4442207151198
 20
57.46080562606762
 30
0.0
 10
343.4644135307945
 20
57.44627559309117
 30
0.0
 10
343.4872146483043
 20
57.42986871875257
 30
0.0
 10
343.5127595872941
 20
57.41706647050145
 30
0.0
 10
343.5392000739374
 20
57.40829112676516
 30
0.0
 10
343.5722281017977
 20
57.39732944132734
 30
0.0
 10
343.6075982809788
 20
57.39234666659868
 30
0.0
 10
343.6422556636036
 20
57.39350928276131
 30
0.0
  0
SPLINE
  5
27E
330
1F
100
AcDbEntity
  8
0
  6
Continuous
 62
     7
370
     0
100
AcDbSpline
210
0.0
220
0.0
230
1.0
 70
     8
 71
     3
 72
    21
 73
    17
 74
     0
 42
0.00000001
 43
0.00000001
 12
1.0
 22
0.0
 32
0.0
 13
1.0
 23
0.0
 33
0.0
 40
0.0
 40
0.0
 40
0.0
 40
0.0
 40
0.0628039173103698
 40
0.151638824831335
 40
0.2397415880026398
 40
0.3287536678637348
 40
0.4174588862128199
 40
0.5059948302901336
 40
0.572859881320297
 40
0.6388413878813599
 40
0.7057316169259119
 40
0.771997855321794
 40
0.8387380285818714
 40
0.9052560474219664
 40
0.9718452510959237
 40
1.0
 40
1.0
 40
1.0
 40
1.0
 10
343.86427626866
 20
57.388330097753
 30
0.0
 10
344.0411872212738
 20
57.38780645371791
 30
0.0
 10
344.4683352417006
 20
57.38654212547993
 30
0.0
 10
345.1367903415392
 20
57.28504626729473
 30
0.0
 10
345.860962938931
 20
57.09647997526629
 30
0.0
 10
346.5565302236097
 20
56.81653531689908
 30
0.0
 10
347.2130078748145
 20
56.44819434365849
 30
0.0
 10
347.7671562942808
 20
56.03174577874123
 30
0.0
 10
348.2228494946208
 20
55.59579463490248
 30
0.0
 10
348.5911334275412
 20
55.15856285358903
 30
0.0
 10
348.9105222989909
 20
54.683089881496
 30
0.0
 10
349.1764218267577
 20
54.17032078884957
 30
0.0
 10
349.3843156348306
 20
53.62939538584914
 30
0.0
 10
349.5243702176439
 20
53.06503247326246
 30
0.0
 10
349.5971184420833
 20
52.59859875882835
 30
0.0
 10
349.5973866658503
 20
52.32216207580701
 30
0.0
 10
349.5974663730254
 20
52.24001429553647
 30
0.0
  0
SPLINE
  5
27F
330
1F
100
AcDbEntity
  8
0
  6
Continuous
 62
     7
370
     0
100
AcDbSpline
210
0.0
220
0.0
230
1.0
 70
     8
 71
     3
 72
    14
 73
    10
 74
     0
 42
0.00000001
 43
0.00000001
 12
1.0
 22
0.0
 32
0.0
 13
1.0
 23
0.0
 33
0.0
 40
0.0
 40
0.0
 40
0.0
 40
0.0
 40
0.0490158649652775
 40
0.2076499124713555
 40
0.3657897059597177
 40
0.5271370530719285
 40
0.6824365999350582
 40
0.8421200918039622
 40
0.9999999999999999
 40
0.9999999999999999
 40
0.9999999999999999
 40
0.9999999999999999
 10
343.6319224621644
 20
53.80685649390836
 30
0.0
 10
343.6255255525695
 20
53.80724555056193
 30
0.0
 10
343.5984258019399
 20
53.8088937430424
 30
0.0
 10
343.5509199682835
 20
53.79862884304784
 30
0.0
 10
343.4923605876403
 20
53.7757458926073
 30
0.0
 10
343.4402856302885
 20
53.7394193429024
 30
0.0
 10
343.3988153830208
 20
53.69082828010706
 30
0.0
 10
343.3698344777133
 20
53.63276824565273
 30
0.0
 10
343.3660976616402
 20
53.58967186896351
 30
0.0
 10
343.3642398651232
 20
53.56824606235642
 30
0.0
  0
LINE
  5
280
330
1F
100
AcDbEntity
  8
0
  6
Continuous
 62
     7
370
     0
100
AcDbLine
 10
343.3642398651
 20
48.8923119711
 30
0.0
 11
343.3642398651
 21
53.5682460624
 31
0.0
  0
SPLINE
  5
281
330
1F
100
AcDbEntity
  8
0
  6
Continuous
 62
     7
370
     0
100
AcDbSpline
210
0.0
220
0.0
230
1.0
 70
     8
 71
     3
 72
    17
 73
    13
 74
     0
 42
0.00000001
 43
0.00000001
 12
1.0
 22
0.0
 32
0.0
 13
1.0
 23
0.0
 33
0.0
 40
0.0
 40
0.0
 40
0.0
 40
0.0
 40
0.2446932873243689
 40
0.2446932873243689
 40
0.2446932873243689
 40
0.4884910005539669
 40
0.4884910005539669
 40
0.4884910005539669
 40
0.7450711890927024
 40
0.7450711890927024
 40
0.7450711890927024
 40
1.0
 40
1.0
 40
1.0
 40
1.0
 10
343.3642394776236
 20
48.89231175671904
 30
0.0
 10
343.3642394776236
 20
48.86809695912191
 30
0.0
 10
343.3684856840398
 20
48.8435467241495
 30
0.0
 10
343.3764356261368
 20
48.82077152101022
 30
0.0
 10
343.384369204045
 20
48.79804319842859
 30
0.0
 10
343.3961572330757
 20
48.77647260009957
 30
0.0
 10
343.4105818798606
 20
48.75746726320482
 30
0.0
 10
343.4257740591753
 20
48.73745065618868
 30
0.0
 10
343.4442207151198
 20
48.7197759318646
 30
0.0
 10
343.4644135307945
 20
48.70524589888814
 30
0.0
 10
343.4845093524232
 20
48.69078565938223
 30
0.0
 10
343.5067147195949
 20
48.67912799407225
 30
0.0
 10
343.5297519482854
 20
48.67058066891552
 30
0.0
  0
SPLINE
  5
282
330
1F
100
AcDbEntity
  8
0
  6
Continuous
 62
     7
370
     0
100
AcDbSpline
210
0.0
220
0.0
230
1.0
 70
     8
 71
     3
 72
    21
 73
    17
 74
     0
 42
0.00000001
 43
0.00000001
 12
1.0
 22
0.0
 32
0.0
 13
1.0
 23
0.0
 33
0.0
 40
0.0
 40
0.0
 40
0.0
 40
0.0
 40
0.0553225026457022
 40
0.1106610338201368
 40
0.1660196915458428
 40
0.2214025693776029
 40
0.2768137555023486
 40
0.3322573318449922
 40
0.3877373731811499
 40
0.4432579462577017
 40
0.4988231089221214
 40
0.5988925963869893
 40
0.6990215259917101
 40
0.799233431794241
 40
0.8995517894554678
 40
1.0
 40
1.0
 40
1.0
 40
1.0
 10
343.5297519482857
 20
48.67058066891545
 30
0.0
 10
343.8468237049869
 20
48.55268092651801
 30
0.0
 10
344.4810590832459
 20
48.31684728275857
 30
0.0
 10
345.4288969793963
 20
47.96100035495277
 30
0.0
 10
346.3743005309509
 20
47.60356737670914
 30
0.0
 10
347.3170106143954
 20
47.2444001322039
 30
0.0
 10
348.2570966845947
 20
46.88353837581719
 30
0.0
 10
349.1945400976713
 20
46.5209714224597
 30
0.0
 10
350.1293458463692
 20
46.15670227109053
 30
0.0
 10
351.061512535514
 20
45.79072965663588
 30
0.0
 10
352.2389286532234
 20
45.32500382004502
 30
0.0
 10
353.6576746763589
 20
44.75791376797811
 30
0.0
 10
355.3125659843483
 20
44.0875358133302
 30
0.0
 10
356.9566222933011
 20
43.41237492417359
 30
0.0
 10
358.5910247090972
 20
42.73276452524233
 30
0.0
 10
359.6704592234091
 20
42.2762267353847
 30
0.0
 10
360.2105255618022
 20
42.04781019946944
 30
0.0
  0
SPLINE
  5
283
330
1F
100
AcDbEntity
  8
0
  6
Continuous
 62
     7
370
     0
100
AcDbSpline
210
0.0
220
0.0
230
1.0
 70
     8
 71
     3
 72
     9
 73
     5
 74
     0
 42
0.00000001
 43
0.00000001
 12
1.0
 22
0.0
 32
0.0
 13
1.0
 23
0.0
 33
0.0
 40
0.0
 40
0.0
 40
0.0
 40
0.0
 40
0.9152886776694941
 40
0.9999999999999999
 40
0.9999999999999999
 40
0.9999999999999999
 40
0.9999999999999999
 10
360.2105241354098
 20
42.04781002874989
 30
0.0
 10
360.2375955875701
 20
42.03711515706405
 30
0.0
 10
360.267172542711
 20
42.02543045916843
 30
0.0
 10
360.297221687048
 20
42.03040288150173
 30
0.0
 10
360.2997671897998
 20
42.03082410197277
 30
0.0
  0
SPLINE
  5
284
330
1F
100
AcDbEntity
  8
0
  6
Continuous
 62
     7
370
     0
100
AcDbSpline
210
0.0
220
0.0
230
1.0
 70
     8
 71
     3
 72
    10
 73
     6
 74
     0
 42
0.00000001
 43
0.00000001
 12
1.0
 22
0.0
 32
0.0
 13
1.0
 23
0.0
 33
0.0
 40
0.0
 40
0.0
 40
0.0
 40
0.0
 40
0.1090396085939482
 40
0.7467765876995693
 40
1.0
 40
1.0
 40
1.0
 40
1.0
 10
360.2996889587035
 20
59.76564272816796
 30
0.0
 10
360.2949529035502
 20
59.7662975346917
 30
0.0
 10
360.262517212042
 20
59.77078209023726
 30
0.0
 10
360.2183752402935
 20
59.75565409487832
 30
0.0
 10
360.1840684958855
 20
59.73579732269211
 30
0.0
 10
360.174318038999
 20
59.73015375013966
 30
0.0
  0
SPLINE
  5
285
330
1F
100
AcDbEntity
  8
0
  6
Continuous
 62
     7
370
     0
100
AcDbSpline
210
0.0
220
0.0
230
1.0
 70
     8
 71
     3
 72
     9
 73
     5
 74
     0
 42
0.00000001
 43
0.00000001
 12
1.0
 22
0.0
 32
0.0
 13
1.0
 23
0.0
 33
0.0
 40
0.0
 40
0.0
 40
0.0
 40
0.0
 40
0.6057124962906704
 40
1.0
 40
1.0
 40
1.0
 40
1.0
 10
360.174318038999
 20
59.73015375013966
 30
0.0
 10
359.1150547568914
 20
59.0422015352523
 30
0.0
 10
357.3662658700936
 20
57.90642801382041
 30
0.0
 10
355.5736986904388
 20
56.78728432186757
 30
0.0
 10
354.8669118519416
 20
56.34601994927544
 30
0.0
  0
LINE
  5
286
330
1F
100
AcDbEntity
  8
0
  6
Continuous
 62
     7
370
     0
100
AcDbLine
 10
343.3642398651
 20
14.6772006857
 30
0.0
 11
343.3642398651
 21
26.6860911953
 31
0.0
  0
SPLINE
  5
287
330
1F
100
AcDbEntity
  8
0
  6
Continuous
 62
     7
370
     0
100
AcDbSpline
210
0.0
220
0.0
230
1.0
 70
     8
 71
     3
 72
    20
 73
    16
 74
     0
 42
0.00000001
 43
0.00000001
 12
1.0
 22
0.0
 32
0.0
 13
1.0
 23
0.0
 33
0.0
 40
0.0
 40
0.0
 40
0.0
 40
0.0
 40
0.1794752703477644
 40
0.1794752703477644
 40
0.1794752703477644
 40
0.3582936636535298
 40
0.3582936636535298
 40
0.3582936636535298
 40
0.5464876235590279
 40
0.5464876235590279
 40
0.5464876235590279
 40
0.7591752932445047
 40
0.7591752932445047
 40
0.7591752932445047
 40
1.0
 40
1.0
 40
1.0
 40
1.0
 10
343.3642394776236
 20
14.67720158322473
 30
0.0
 10
343.3642394776236
 20
14.65298678562759
 30
0.0
 10
343.3684856840398
 20
14.62843655065519
 30
0.0
 10
343.3764356261368
 20
14.6056613475159
 30
0.0
 10
343.384369204045
 20
14.58293302493426
 30
0.0
 10
343.3961572330757
 20
14.56136242660525
 30
0.0
 10
343.4105818798606
 20
14.5423570897105
 30
0.0
 10
343.4257740591753
 20
14.52234048269436
 30
0.0
 10
343.4442207151198
 20
14.50466575837029
 30
0.0
 10
343.4644135307945
 20
14.49013572539383
 30
0.0
 10
343.4872146483043
 20
14.47372885105524
 30
0.0
 10
343.5127595872941
 20
14.4609266028041
 30
0.0
 10
343.5392000739374
 20
14.45215125906782
 30
0.0
 10
343.5690911331362
 20
14.4422307034196
 30
0.0
 10
343.6008627697975
 20
14.43720158322473
 30
0.0
 10
343.6322456871321
 20
14.43720158322473
 30
0.0
  0
SPLINE
  5
288
330
1F
100
AcDbEntity
  8
0
  6
Continuous
 62
     7
370
     0
100
AcDbSpline
210
0.0
220
0.0
230
1.0
 70
     8
 71
     3
 72
    11
 73
     7
 74
     0
 42
0.00000001
 43
0.00000001
 12
1.0
 22
0.0
 32
0.0
 13
1.0
 23
0.0
 33
0.0
 40
0.0
 40
0.0
 40
0.0
 40
0.0
 40
0.1437694541032885
 40
0.4286783324118962
 40
0.7140240829954889
 40
1.0
 40
1.0
 40
1.0
 40
1.0
 10
350.3860097463717
 20
17.16339982624669
 30
0.0
 10
350.867255084754
 20
16.97538911906201
 30
0.0
 10
352.3021874939051
 20
16.41479634965769
 30
0.0
 10
354.6571873309614
 20
15.46663643104954
 30
0.0
 10
357.4558763080632
 20
14.32079296675157
 30
0.0
 10
359.2916332478025
 20
13.54631907879414
 30
0.0
 10
360.2105241354098
 20
13.15865501340051
 30
0.0
  0
SPLINE
  5
289
330
1F
100
AcDbEntity
  8
0
  6
Continuous
 62
     7
370
     0
100
AcDbSpline
210
0.0
220
0.0
230
1.0
 70
     8
 71
     3
 72
     9
 73
     5
 74
     0
 42
0.00000001
 43
0.00000001
 12
1.0
 22
0.0
 32
0.0
 13
1.0
 23
0.0
 33
0.0
 40
0.0
 40
0.0
 40
0.0
 40
0.0
 40
0.915289098925778
 40
1.0
 40
1.0
 40
1.0
 40
1.0
 10
360.2105241354098
 20
13.15865501340051
 30
0.0
 10
360.2375955191537
 20
13.14796134937184
 30
0.0
 10
360.2671723859336
 20
13.13627797628106
 30
0.0
 10
360.2972216864742
 20
13.14124849515228
 30
0.0
 10
360.2997671897998
 20
13.14166955228466
 30
0.0
  0
SPLINE
  5
28A
330
1F
100
AcDbEntity
  8
0
  6
Continuous
 62
     7
370
     0
100
AcDbSpline
210
0.0
220
0.0
230
1.0
 70
     8
 71
     3
 72
     9
 73
     5
 74
     0
 42
0.00000001
 43
0.00000001
 12
1.0
 22
0.0
 32
0.0
 13
1.0
 23
0.0
 33
0.0
 40
0.0
 40
0.0
 40
0.0
 40
0.0
 40
0.157194868653961
 40
0.9999999999999999
 40
0.9999999999999999
 40
0.9999999999999999
 40
0.9999999999999999
 10
360.2996889587035
 20
33.54676555420775
 30
0.0
 10
360.2949428316862
 20
33.54743749796405
 30
0.0
 10
360.2647501984415
 20
33.55171208887178
 30
0.0
 10
360.235324372504
 20
33.54025186944164
 30
0.0
 10
360.2105241354098
 20
33.53059313769955
 30
0.0
  0
SPLINE
  5
28B
330
1F
100
AcDbEntity
  8
0
  6
Continuous
 62
     7
370
     0
100
AcDbSpline
210
0.0
220
0.0
230
1.0
 70
     8
 71
     3
 72
    21
 73
    17
 74
     0
 42
0.00000001
 43
0.00000001
 12
1.0
 22
0.0
 32
0.0
 13
1.0
 23
0.0
 33
0.0
 40
0.0
 40
0.0
 40
0.0
 40
0.0
 40
0.0558166076658251
 40
0.1115913724534508
 40
0.1673282969840685
 40
0.2230313920360584
 40
0.2787046756991631
 40
0.3343521725208211
 40
0.389977912645541
 40
0.4455859309482249
 40
0.5011802661623703
 40
0.6011553810866467
 40
0.701001141010977
 40
0.8007412808040225
 40
0.9003996107987103
 40
1.0
 40
1.0
 40
1.0
 40
1.0
 10
360.2105255618023
 20
33.53059296698002
 30
0.0
 10
359.9107354375442
 20
33.40358144496637
 30
0.0
 10
359.3113799264706
 20
33.1496536150316
 30
0.0
 10
358.4076200027024
 20
32.77035709353774
 30
0.0
 10
357.5008586698767
 20
32.39242386567141
 30
0.0
 10
356.5907301320964
 20
32.01595667664493
 30
0.0
 10
355.6773323467244
 20
31.64092803055413
 30
0.0
 10
354.7606390194177
 20
31.2673452977998
 30
0.0
 10
353.8406575280092
 20
30.89520650747877
 30
0.0
 10
352.9173847169623
 20
30.52451221523259
 30
0.0
 10
351.7442220205688
 20
30.05698620766155
 30
0.0
 10
350.3178780240594
 20
29.49448110434702
 30
0.0
 10
348.6342625092524
 20
28.83936199566587
 30
0.0
 10
346.9418362036064
 20
28.18983250055661
 30
0.0
 10
345.241442122422
 20
27.54541283366059
 30
0.0
 10
344.1002047226727
 20
27.12031140566724
 30
0.0
 10
343.5297519482859
 20
26.90782249753309
 30
0.0
  0
SPLINE
  5
28C
330
1F
100
AcDbEntity
  8
0
  6
Continuous
 62
     7
370
     0
100
AcDbSpline
210
0.0
220
0.0
230
1.0
 70
     8
 71
     3
 72
    17
 73
    13
 74
     0
 42
0.00000001
 43
0.00000001
 12
1.0
 22
0.0
 32
0.0
 13
1.0
 23
0.0
 33
0.0
 40
0.0
 40
0.0
 40
0.0
 40
0.0
 40
0.3153725247568784
 40
0.3153725247568784
 40
0.3153725247568784
 40
0.6332746188973369
 40
0.6332746188973369
 40
0.6332746188973369
 40
0.9132927023718137
 40
0.9132927023718137
 40
0.9132927023718137
 40
1.0
 40
1.0
 40
1.0
 40
1.0
 10
343.5297519482859
 20
26.9078224975331
 30
0.0
 10
343.5013360152847
 20
26.89727955322948
 30
0.0
 10
343.4741036364371
 20
26.88192991685505
 30
0.0
 10
343.4505116161241
 20
26.86243312651205
 30
0.0
 10
343.4268112404409
 20
26.84284678970777
 30
0.0
 10
343.4060880012556
 20
26.81836087787115
 30
0.0
 10
343.3912258457582
 20
26.79099986711308
 30
0.0
 10
343.3781158259422
 20
26.76686451250116
 30
0.0
 10
343.3691937235198
 20
26.73967384432992
 30
0.0
 10
343.365832652157
 20
26.71220752430929
 30
0.0
 10
343.3647737029432
 20
26.70355390323063
 30
0.0
 10
343.3642394776236
 20
26.69481410046286
 30
0.0
 10
343.3642394776236
 20
26.68609140973038
 30
0.0
  0
LINE
  5
28D
330
1F
100
AcDbEntity
  8
0
  6
Continuous
 62
     7
370
     0
100
AcDbLine
 10
362.3015966352
 20
35.7455622735
 30
0.0
 11
362.3015966352
 21
39.8328408929
 31
0.0
  0
SPLINE
  5
28E
330
1F
100
AcDbEntity
  8
0
  6
Continuous
 62
     7
370
     0
100
AcDbSpline
210
0.0
220
0.0
230
1.0
 70
     8
 71
     3
 72
    20
 73
    16
 74
     0
 42
0.00000001
 43
0.00000001
 12
1.0
 22
0.0
 32
0.0
 13
1.0
 23
0.0
 33
0.0
 40
0.0
 40
0.0
 40
0.0
 40
0.0
 40
0.1248373376559401
 40
0.2498800959417739
 40
0.3744221221105403
 40
0.4994634234190944
 40
0.5244618272940798
 40
0.5618890660515408
 40
0.6240953061537943
 40
0.6954794827750622
 40
0.7491507758843545
 40
0.8308127307856227
 40
0.8919492388703266
 40
0.9536999243024846
 40
1.0
 40
1.0
 40
1.0
 40
1.0
 10
362.1573613651892
 20
35.52383128419519
 30
0.0
 10
362.1674444398579
 20
35.52863728249796
 30
0.0
 10
362.1876271809588
 20
35.53825718740416
 30
0.0
 10
362.2152464091777
 20
35.55823532063906
 30
0.0
 10
362.2401353739167
 20
35.58205207379078
 30
0.0
 10
362.2558382726119
 20
35.60232637739036
 30
0.0
 10
362.2653634031406
 20
35.61708583968436
 30
0.0
 10
362.2713560216586
 20
35.62715724797819
 30
0.0
 10
362.2787872145352
 20
35.64151959095529
 30
0.0
 10
362.2856892669222
 20
35.65795081318282
 30
0.0
 10
362.2920042510783
 20
35.67666432130597
 30
0.0
 10
362.296641560888
 20
35.69496560408832
 30
0.0
 10
362.2998260624198
 20
35.71440537348976
 30
0.0
 10
362.3013574177507
 20
35.73066786466382
 30
0.0
 10
362.3015256662264
 20
35.74109451920733
 30
0.0
 10
362.3015977612037
 20
35.7455623719979
 30
0.0
  0
SPLINE
  5
28F
330
1F
100
AcDbEntity
  8
0
  6
Continuous
 62
     7
370
     0
100
AcDbSpline
210
0.0
220
0.0
230
1.0
 70
     8
 71
     3
 72
    19
 73
    15
 74
     0
 42
0.00000001
 43
0.00000001
 12
1.0
 22
0.0
 32
0.0
 13
1.0
 23
0.0
 33
0.0
 40
0.0
 40
0.0
 40
0.0
 40
0.0
 40
0.0491815435384217
 40
0.0986559518164827
 40
0.1484233649961187
 40
0.1984839207776237
 40
0.2488377544558221
 40
0.3727322953291792
 40
0.4986533583030102
 40
0.6227754614965939
 40
0.7491446556801392
 40
0.8316455012814494
 40
0.9152638320644393
 40
1.0
 40
1.0
 40
1.0
 40
1.0
 10
343.3043126170193
 20
28.09131233591411
 30
0.0
 10
343.6238232812375
 20
28.20824244553853
 30
0.0
 10
344.2647472219297
 20
28.44279895660026
 30
0.0
 10
345.225443227506
 20
28.79781821301328
 30
0.0
 10
346.1891136904129
 20
29.15648719255366
 30
0.0
 10
347.1553915669759
 20
29.51896280430871
 30
0.0
 10
348.5939869183653
 20
30.06278395733868
 30
0.0
 10
350.508147299979
 20
30.79613487377208
 30
0.0
 10
352.8720234864688
 20
31.71918301076468
 30
0.0
 10
355.2296189324853
 20
32.65744305497853
 30
0.0
 10
357.295079747353
 20
33.49507696116085
 30
0.0
 10
359.0934943973127
 20
34.23617163006666
 30
0.0
 10
360.6258801434694
 20
34.87501598251511
 30
0.0
 10
361.6446129035039
 20
35.30660429953731
 30
0.0
 10
362.1573613651892
 20
35.52383128419519
 30
0.0
  0
SPLINE
  5
290
330
1F
100
AcDbEntity
  8
0
  6
Continuous
 62
     7
370
     0
100
AcDbSpline
210
0.0
220
0.0
230
1.0
 70
     8
 71
     3
 72
    22
 73
    18
 74
     0
 42
0.00000001
 43
0.00000001
 12
1.0
 22
0.0
 32
0.0
 13
1.0
 23
0.0
 33
0.0
 40
0.0
 40
0.0
 40
0.0
 40
0.0
 40
0.0155544025872355
 40
0.0311337902340253
 40
0.0623528427317582
 40
0.1249257335903079
 40
0.1964072815570793
 40
0.2498091392132403
 40
0.3211847086678576
 40
0.3748722164966951
 40
0.4106671531291026
 40
0.4374833950078412
 40
0.4998628867272696
 40
0.624897717859415
 40
0.7498540852317365
 40
0.8749340967425421
 40
1.0
 40
1.0
 40
1.0
 40
1.0
 10
343.1361387060849
 20
27.86958124811143
 30
0.0
 10
343.1361490183393
 20
27.87113594479203
 30
0.0
 10
343.1361696594125
 20
27.87424783546479
 30
0.0
 10
343.1363891803893
 20
27.88047667652513
 30
0.0
 10
343.1371234395471
 20
27.89138539781739
 30
0.0
 10
343.1393278427582
 20
27.90777110265724
 30
0.0
 10
343.1435193471812
 20
27.92603805507574
 30
0.0
 10
343.149533533374
 20
27.9446690197867
 30
0.0
 10
343.1564489095697
 20
27.96105842732038
 30
0.0
 10
343.1638455682346
 20
27.97523201166513
 30
0.0
 10
343.1697587265542
 20
27.98513877356094
 30
0.0
 10
343.1765209087289
 20
27.99551395102279
 30
0.0
 10
343.189091840519
 20
28.01259618238205
 30
0.0
 10
343.2101667415371
 20
28.03522652051903
 30
0.0
 10
343.2389484325222
 20
28.05833463656556
 30
0.0
 10
343.2704047187293
 20
28.07751786696589
 30
0.0
 10
343.2930104092432
 20
28.08671435249291
 30
0.0
 10
343.3043126170186
 20
28.09131233591509
 30
0.0
  0
LINE
  5
291
330
1F
100
AcDbEntity
  8
0
  6
Continuous
 62
     7
370
     0
100
AcDbLine
 10
343.1361384775
 20
14.6772006857
 30
0.0
 11
343.1361384775
 21
27.8695814642
 31
0.0
  0
SPLINE
  5
292
330
1F
100
AcDbEntity
  8
0
  6
Continuous
 62
     7
370
     0
100
AcDbSpline
210
0.0
220
0.0
230
1.0
 70
     8
 71
     3
 72
    25
 73
    21
 74
     0
 42
0.00000001
 43
0.00000001
 12
1.0
 22
0.0
 32
0.0
 13
1.0
 23
0.0
 33
0.0
 40
0.0
 40
0.0
 40
0.0
 40
0.0
 40
0.1245374729631974
 40
0.2493505094961783
 40
0.3737188330692766
 40
0.4987299974679118
 40
0.6234526366070136
 40
0.7488262935130896
 40
0.7800478408818344
 40
0.7956962209491836
 40
0.8113724284088982
 40
0.8364913884867837
 40
0.8515751341014002
 40
0.8741986371235387
 40
0.8993106120218899
 40
0.9143552820179324
 40
0.9368743237001181
 40
0.9511372904459549
 40
0.9728275590676055
 40
0.9999999999999999
 40
0.9999999999999999
 40
0.9999999999999999
 40
0.9999999999999999
 10
342.8632299723464
 20
14.43720158322471
 30
0.0
 10
342.8797576499764
 20
14.43797899990679
 30
0.0
 10
342.9128495759629
 20
14.43953555345774
 30
0.0
 10
342.9612586012028
 20
14.45181944574413
 30
0.0
 10
343.007192521009
 20
14.47159805131301
 30
0.0
 10
343.0491252500918
 20
14.49939938818169
 30
0.0
 10
343.0853308620066
 20
14.53492780943819
 30
0.0
 10
343.1065986136168
 20
14.56688537919893
 30
0.0
 10
343.1166752695639
 20
14.58798097921103
 30
0.0
 10
343.1199962670241
 20
14.59580112730585
 30
0.0
 10
343.1227904766054
 20
14.60294543534752
 30
0.0
 10
343.1252924945646
 20
14.61012438071632
 30
0.0
 10
343.1278067756423
 20
14.6182967800731
 30
0.0
 10
343.1300372288907
 20
14.62655692162471
 30
0.0
 10
343.1318992055953
 20
14.63490880336191
 30
0.0
 10
343.1334394862811
 20
14.6433124965866
 30
0.0
 10
343.1344642851066
 20
14.65030730536268
 30
0.0
 10
343.1353276709613
 20
14.65823570978133
 30
0.0
 10
343.1359831105833
 20
14.66682646021088
 30
0.0
 10
343.1360831014133
 20
14.67349385837041
 30
0.0
 10
343.1361387060849
 20
14.67720158322473
 30
0.0
  0
LINE
  5
293
330
1F
100
AcDbEntity
  8
0
  6
Continuous
 62
     7
370
     0
100
AcDbLine
 10
337.8457829441
 20
14.4372007209
 30
0.0
 11
342.8632292982
 21
14.4372007209
 31
0.0
  0
SPLINE
  5
294
330
1F
100
AcDbEntity
  8
0
  6
Continuous
 62
     7
370
     0
100
AcDbSpline
210
0.0
220
0.0
230
1.0
 70
     8
 71
     3
 72
    26
 73
    22
 74
     0
 42
0.00000001
 43
0.00000001
 12
1.0
 22
0.0
 32
0.0
 13
1.0
 23
0.0
 33
0.0
 40
0.0
 40
0.0
 40
0.0
 40
0.0
 40
0.0089011391085977
 40
0.0133563221085909
 40
0.0178143623845563
 40
0.0356711530818479
 40
0.0499814625117756
 40
0.0714738731966683
 40
0.087861160526294
 40
0.1124371059947259
 40
0.1247155684988143
 40
0.1431079547909552
 40
0.1698492204778949
 40
0.1966258337369584
 40
0.2503436521281674
 40
0.3753513944770664
 40
0.5005904984399641
 40
0.6255888912022475
 40
0.7505281328699015
 40
0.8753078104546234
 40
1.0
 40
1.0
 40
1.0
 40
1.0
 10
337.5609989566652
 20
14.67720158322473
 30
0.0
 10
337.5610054483459
 20
14.67596522066119
 30
0.0
 10
337.5610151892315
 20
14.67411003601121
 30
0.0
 10
337.5610755051945
 20
14.67163636055478
 30
0.0
 10
337.5611978631698
 20
14.66792017518083
 30
0.0
 10
337.5614853988438
 20
14.66284000133641
 30
0.0
 10
337.562151750827
 20
14.65541694708409
 30
0.0
 10
337.5630623358966
 20
14.64822470038955
 30
0.0
 10
337.564477343326
 20
14.63966897752998
 30
0.0
 10
337.5659802210276
 20
14.63243019141272
 30
0.0
 10
337.5678121927481
 20
14.62498606446035
 30
0.0
 10
337.56995064482
 20
14.61731269960358
 30
0.0
 10
337.5730604475807
 20
14.60783398228443
 30
0.0
 10
337.5784518847462
 20
14.59398003814623
 30
0.0
 10
337.5908047545321
 20
14.56830665777141
 30
0.0
 10
337.6151714967864
 20
14.53366518082068
 30
0.0
 10
337.6532678471724
 20
14.49836167081027
 30
0.0
 10
337.6970958576013
 20
14.47089336292245
 30
0.0
 10
337.7447232802001
 20
14.45149326185116
 30
0.0
 10
337.7947108264066
 20
14.43946106326949
 30
0.0
 10
337.8287630381568
 20
14.43795456713375
 30
0.0
 10
337.8457831730955
 20
14.43720158322471
 30
0.0
  0
LINE
  5
295
330
1F
100
AcDbEntity
  8
0
  6
Continuous
 62
     7
370
     0
100
AcDbLine
 10
337.560999402
 20
14.6772006857
 30
0.0
 11
337.560999402
 21
31.0768384817
 31
0.0
  0
SPLINE
  5
296
330
1F
100
AcDbEntity
  8
0
  6
Continuous
 62
     7
370
     0
100
AcDbSpline
210
0.0
220
0.0
230
1.0
 70
     8
 71
     3
 72
    21
 73
    17
 74
     0
 42
0.00000001
 43
0.00000001
 12
1.0
 22
0.0
 32
0.0
 13
1.0
 23
0.0
 33
0.0
 40
0.0
 40
0.0
 40
0.0
 40
0.0
 40
0.1247734956603249
 40
0.2497880955810181
 40
0.4159743193028027
 40
0.49950407364875
 40
0.6241785521644584
 40
0.6553344624710414
 40
0.6865743486428537
 40
0.7491493665235737
 40
0.7818360061084966
 40
0.8307509634475717
 40
0.855137927401417
 40
0.8918396155632327
 40
0.9536578857250176
 40
1.0
 40
1.0
 40
1.0
 40
1.0
 10
337.7368784486476
 20
31.29856979792679
 30
0.0
 10
337.7252625863074
 20
31.29405612161345
 30
0.0
 10
337.7020084158835
 20
31.28502004704962
 30
0.0
 10
337.6658878248303
 20
31.26412380148181
 30
0.0
 10
337.6362959204419
 20
31.2406375908379
 30
0.0
 10
337.6105735061145
 20
31.21312084236268
 30
0.0
 10
337.5963718797623
 20
31.19348374736296
 30
0.0
 10
337.5870085236779
 20
31.17709295660692
 30
0.0
 10
337.5812154879359
 20
31.16588188920181
 30
0.0
 10
337.5760729543478
 20
31.15415901028399
 30
0.0
 10
337.5711057552602
 20
31.14044754241266
 30
0.0
 10
337.5680376039797
 20
31.1301598018198
 30
0.0
 10
337.5654302491999
 20
31.11933021975895
 30
0.0
 10
337.5630956335118
 20
31.10709991629383
 30
0.0
 10
337.5613234610056
 20
31.0924980977783
 30
0.0
 10
337.5610962898303
 20
31.08153565119753
 30
0.0
 10
337.5609989566651
 20
31.0768387101241
 30
0.0
  0
SPLINE
  5
297
330
1F
100
AcDbEntity
  8
0
  6
Continuous
 62
     7
370
     0
100
AcDbSpline
210
0.0
220
0.0
230
1.0
 70
     8
 71
     3
 72
    19
 73
    15
 74
     0
 42
0.00000001
 43
0.00000001
 12
1.0
 22
0.0
 32
0.0
 13
1.0
 23
0.0
 33
0.0
 40
0.0
 40
0.0
 40
0.0
 40
0.0
 40
0.0507613404445954
 40
0.1012275480401437
 40
0.1513987028644764
 40
0.2012748864170164
 40
0.2508561816522141
 40
0.3769183465083962
 40
0.5012941032695687
 40
0.6269664675018211
 40
0.7510837532745016
 40
0.8346938657173648
 40
0.9176657514442027
 40
1.0
 40
1.0
 40
1.0
 40
1.0
 10
354.5096899992528
 20
37.56747049542201
 30
0.0
 10
354.2338253303996
 20
37.45749026217909
 30
0.0
 10
353.6836999047442
 20
37.2381692346697
 30
0.0
 10
352.8574403075608
 20
36.9115319215069
 30
0.0
 10
352.0335541312199
 20
36.58783045397143
 30
0.0
 10
351.211877013431
 20
36.2671621059263
 30
0.0
 10
349.9696698128491
 20
35.78553934033958
 30
0.0
 10
348.308271791873
 20
35.14885550011948
 30
0.0
 10
346.2105291527018
 20
34.35824676512685
 30
0.0
 10
344.1094033744126
 20
33.57955482504585
 30
0.0
 10
342.2252200022911
 20
32.8929007840222
 30
0.0
 10
340.5740174740333
 20
32.29974320415414
 30
0.0
 10
339.1550498460338
 20
31.79539411049827
 30
0.0
 10
338.2083850542697
 20
31.46375148586866
 30
0.0
 10
337.7368784486476
 20
31.29856979792679
 30
0.0
  0
SPLINE
  5
298
330
1F
100
AcDbEntity
  8
0
  6
Continuous
 62
     7
370
     0
100
AcDbSpline
210
0.0
220
0.0
230
1.0
 70
     8
 71
     3
 72
    61
 73
    57
 74
     0
 42
0.00000001
 43
0.00000001
 12
1.0
 22
0.0
 32
0.0
 13
1.0
 23
0.0
 33
0.0
 40
0.0
 40
0.0
 40
0.0
 40
0.0
 40
0.0624119301157334
 40
0.1249298136653894
 40
0.1871695742000697
 40
0.2496617331421528
 40
0.3119073618659444
 40
0.3743376193751953
 40
0.4056270141992854
 40
0.4134387768994706
 40
0.4212425214557838
 40
0.4274788597119676
 40
0.4321517905918972
 40
0.4368206969602959
 40
0.4445924801761745
 40
0.4523753771902025
 40
0.4586126615833203
 40
0.4632954009041597
 40
0.4679818389125879
 40
0.4757997570115934
 40
0.4797117536083469
 40
0.4836254618300517
 40
0.4898903832060615
 40
0.4945910923578185
 40
0.4992930962009759
 40
0.5032121580907591
 40
0.507131638946738
 40
0.5110513191950379
 40
0.5149709788254191
 40
0.518890397669096
 40
0.5228093556762972
 40
0.5267276331941104
 40
0.5306450112447633
 40
0.5345612718042009
 40
0.5384761980819207
 40
0.5423895748017739
 40
0.5463011884837851
 40
0.550210827727983
 40
0.5541182834996797
 40
0.5580233494167461
 40
0.5619258220393799
 40
0.5658255011619979
 40
0.5697221901078963
 40
0.5736156960267405
 40
0.5775103977352201
 40
0.5814098988778019
 40
0.5853121180234915
 40
0.5892169044274119
 40
0.5931241016495648
 40
0.6244393729197526
 40
0.6959540201763182
 40
0.7495356334121444
 40
0.8210880096891958
 40
0.8746331632761486
 40
0.9372784209833297
 40
1.0
 40
1.0
 40
1.0
 40
1.0
 10
354.5096899992527
 20
38.01093267102744
 30
0.0
 10
354.5202656278985
 20
38.0062066540488
 30
0.0
 10
354.5414348388755
 20
37.99674659698236
 30
0.0
 10
354.5705728510765
 20
37.97708036248152
 30
0.0
 10
354.5969929058334
 20
37.95354336649571
 30
0.0
 10
354.6198418332664
 20
37.92611873108711
 30
0.0
 10
354.6386461613128
 20
37.89536432528601
 30
0.0
 10
354.6502186968062
 20
37.86734848675217
 30
0.0
 10
354.6556381073284
 20
37.84835803952987
 30
0.0
 10
354.6577136960525
 20
37.83946770865461
 30
0.0
 10
354.6586000588098
 20
37.8353054625274
 30
0.0
 10
354.6592960978527
 20
37.83172665461078
 30
0.0
 10
354.6598342936712
 20
37.82873867936696
 30
0.0
 10
354.6603863717343
 20
37.82544848472109
 30
0.0
 10
354.6609765941081
 20
37.82154890338553
 30
0.0
 10
354.6615273077987
 20
37.81733328765701
 30
0.0
 10
354.6619343883255
 20
37.81370632701082
 30
0.0
 10
354.6622317069052
 20
37.81067486193247
 30
0.0
 10
354.6625192543539
 20
37.80733222152195
 30
0.0
 10
354.6627432525188
 20
37.80413479268091
 30
0.0
 10
354.6629116486653
 20
37.80108489094862
 30
0.0
 10
354.6630363163182
 20
37.7983362172063
 30
0.0
 10
354.663130941213
 20
37.7954319521908
 30
0.0
 10
354.6631887009663
 20
37.79237268619796
 30
0.0
 10
354.6632073351205
 20
37.78977101350564
 30
0.0
 10
354.6631986098675
 20
37.78732188190904
 30
0.0
 10
354.6631680583354
 20
37.78502574736808
 30
0.0
 10
354.6631151487428
 20
37.78272995738054
 30
0.0
 10
354.6630398944819
 20
37.78043488647201
 30
0.0
 10
354.6629423089382
 20
37.77814091018162
 30
0.0
 10
354.6628224054887
 20
37.775848403777
 30
0.0
 10
354.6626801975025
 20
37.77355774259861
 30
0.0
 10
354.6625156983405
 20
37.77126930196746
 30
0.0
 10
354.6623289213559
 20
37.76898345720983
 30
0.0
 10
354.6621198798934
 20
37.7667005836506
 30
0.0
 10
354.66188858729
 20
37.764421056615
 30
0.0
 10
354.6616350568734
 20
37.76214525142843
 30
0.0
 10
354.6613593019674
 20
37.75987354341533
 30
0.0
 10
354.6610613358718
 20
37.75760630790388
 30
0.0
 10
354.6607411719367
 20
37.75534392020837
 30
0.0
 10
354.6603988232855
 20
37.75308675569502
 30
0.0
 10
354.6600343038468
 20
37.75083518953653
 30
0.0
 10
354.6596476245076
 20
37.74858959762744
 30
0.0
 10
354.6592386475876
 20
37.74634947752559
 30
0.0
 10
354.6588070137017
 20
37.74411362062752
 30
0.0
 10
354.6583527201836
 20
37.74188111765604
 30
0.0
 10
354.6578758407265
 20
37.739651940682
 30
0.0
 10
354.6573766061549
 20
37.73742677292262
 30
0.0
 10
354.6556360118082
 20
37.73001339066814
 30
0.0
 10
354.649995891745
 20
37.71003235955936
 30
0.0
 10
354.6381173864613
 20
37.68200457846945
 30
0.0
 10
354.6181520129022
 20
37.64990772778084
 30
0.0
 10
354.5960637558055
 20
37.62385798484576
 30
0.0
 10
354.5693884165731
 20
37.60056388084141
 30
0.0
 10
354.5415691377033
 20
37.58169704226779
 30
0.0
 10
354.5203206906403
 20
37.57221460195621
 30
0.0
 10
354.5096899992527
 20
37.56747049542201
 30
0.0
  0
SPLINE
  5
299
330
1F
100
AcDbEntity
  8
0
  6
Continuous
 62
     7
370
     0
100
AcDbSpline
210
0.0
220
0.0
230
1.0
 70
     8
 71
     3
 72
    19
 73
    15
 74
     0
 42
0.00000001
 43
0.00000001
 12
1.0
 22
0.0
 32
0.0
 13
1.0
 23
0.0
 33
0.0
 40
0.0
 40
0.0
 40
0.0
 40
0.0
 40
0.0493226044876558
 40
0.0988755112624375
 40
0.1486588494537755
 40
0.1986727464060749
 40
0.2489173277105056
 40
0.3730292495916664
 40
0.4987069714870583
 40
0.6230773518417864
 40
0.7491448868593521
 40
0.8319413928752148
 40
0.9155596381854915
 40
1.0
 40
1.0
 40
1.0
 40
1.0
 10
337.7368784486476
 20
44.27983336852266
 30
0.0
 10
338.0194485421399
 20
44.18097251158012
 30
0.0
 10
338.5859081350939
 20
43.98278918619467
 30
0.0
 10
339.4352812551932
 20
43.68303340918384
 30
0.0
 10
340.2868464599659
 20
43.38058746180454
 30
0.0
 10
341.140371323532
 20
43.07532081421826
 30
0.0
 10
342.413728442846
 20
42.61678049453362
 30
0.0
 10
344.1093811406674
 20
41.99886448990792
 30
0.0
 10
346.2104694144437
 20
41.22017869585684
 30
0.0
 10
348.3082327479032
 20
40.42955467169823
 30
0.0
 10
350.1536057641086
 20
39.72240318276202
 30
0.0
 10
351.7629220499902
 20
39.09697763868686
 30
0.0
 10
353.1365794424631
 20
38.55765832819948
 30
0.0
 10
354.0504962341704
 20
38.19376792179625
 30
0.0
 10
354.5096899992528
 20
38.01093267102744
 30
0.0
  0
SPLINE
  5
29A
330
1F
100
AcDbEntity
  8
0
  6
Continuous
 62
     7
370
     0
100
AcDbSpline
210
0.0
220
0.0
230
1.0
 70
     8
 71
     3
 72
    22
 73
    18
 74
     0
 42
0.00000001
 43
0.00000001
 12
1.0
 22
0.0
 32
0.0
 13
1.0
 23
0.0
 33
0.0
 40
0.0
 40
0.0
 40
0.0
 40
0.0
 40
0.0155580903450377
 40
0.0311421988715246
 40
0.0623727545339226
 40
0.1249681053090144
 40
0.1536000952312429
 40
0.196474246233356
 40
0.2498828298623399
 40
0.3123928798218127
 40
0.3482011017913815
 40
0.3750673204538477
 40
0.499953823243862
 40
0.6251145543189259
 40
0.7500092095371526
 40
0.8750512691286532
 40
1.0
 40
1.0
 40
1.0
 40
1.0
 10
337.5609989566652
 20
44.50156445632538
 30
0.0
 10
337.5610100694839
 20
44.49998765982571
 30
0.0
 10
337.5610323137054
 20
44.49683142991037
 30
0.0
 10
337.5612687320413
 20
44.49051383069934
 30
0.0
 10
337.5620588619707
 20
44.47945161333202
 30
0.0
 10
337.5638138986316
 20
44.46714777947395
 30
0.0
 10
337.5666142907232
 20
44.45385692018531
 30
0.0
 10
337.5698594990193
 20
44.44162641638802
 30
0.0
 10
337.5750723423145
 20
44.42641590133983
 30
0.0
 10
337.5812498834496
 20
44.412359605298
 30
0.0
 10
337.5870964861899
 20
44.40115016781063
 30
0.0
 10
337.5965378976701
 20
44.38474823671347
 30
0.0
 10
337.612890831814
 20
44.36198270005436
 30
0.0
 10
337.6394132155593
 20
44.33504784687438
 30
0.0
 10
337.6694080790704
 20
44.31224505943376
 30
0.0
 10
337.7019704005539
 20
44.2933897103636
 30
0.0
 10
337.7252453290154
 20
44.2843510243362
 30
0.0
 10
337.7368784486476
 20
44.27983336852266
 30
0.0
  0
LINE
  5
29B
330
1F
100
AcDbEntity
  8
0
  6
Continuous
 62
     7
370
     0
100
AcDbLine
 10
337.560999402
 20
44.5015646848
 30
0.0
 11
337.560999402
 21
62.1972011733
 31
0.0
  0
SPLINE
  5
29C
330
1F
100
AcDbEntity
  8
0
  6
Continuous
 62
     7
370
     0
100
AcDbSpline
210
0.0
220
0.0
230
1.0
 70
     8
 71
     3
 72
    26
 73
    22
 74
     0
 42
0.00000001
 43
0.00000001
 12
1.0
 22
0.0
 32
0.0
 13
1.0
 23
0.0
 33
0.0
 40
0.0
 40
0.0
 40
0.0
 40
0.0
 40
0.1246655110475157
 40
0.2495453154142194
 40
0.3739281685715898
 40
0.4988463173387747
 40
0.6234595715723035
 40
0.7488510656583098
 40
0.8113534593158664
 40
0.8270483403606155
 40
0.8427559698771335
 40
0.8553257986374934
 40
0.8741761522571163
 40
0.8885284017347611
 40
0.9100261005589979
 40
0.9207576456386684
 40
0.936826777302581
 40
0.9510786724731061
 40
0.9728172162526336
 40
0.9836924239013031
 40
1.0
 40
1.0
 40
1.0
 40
1.0
 10
337.8457831730955
 20
62.43720158322473
 30
0.0
 10
337.8287675691305
 20
62.43644584921097
 30
0.0
 10
337.794707112291
 20
62.43493308211727
 30
0.0
 10
337.7447828577599
 20
62.4229236205022
 30
0.0
 10
337.6972288119474
 20
62.40354828255795
 30
0.0
 10
337.6535306792323
 20
62.376204123255
 30
0.0
 10
337.615428715745
 20
62.34098882444624
 30
0.0
 10
337.5902618240895
 20
62.30545992118171
 30
0.0
 10
337.5782258371125
 20
62.27989959966138
 30
0.0
 10
337.5735926043301
 20
62.26773806181674
 30
0.0
 10
337.5715941504482
 20
62.26197828066821
 30
0.0
 10
337.5696211820592
 20
62.25574776497532
 30
0.0
 10
337.5678892340797
 20
62.2496379227543
 30
0.0
 10
337.5660581098552
 20
62.24227184515085
 30
0.0
 10
337.5647221217602
 20
62.2359440641842
 30
0.0
 10
337.5635522135149
 20
62.2293419554908
 30
0.0
 10
337.5627123534858
 20
62.22370327422348
 30
0.0
 10
337.5618754337486
 20
62.21652191934188
 30
0.0
 10
337.561370540459
 20
62.21003056886257
 30
0.0
 10
337.5610562799879
 20
62.20324244852003
 30
0.0
 10
337.5610204511861
 20
62.19946672591047
 30
0.0
 10
337.5609989566652
 20
62.19720158322474
 30
0.0
  0
LINE
  5
29D
330
1F
100
AcDbEntity
  8
0
  6
Continuous
 62
     7
370
     0
100
AcDbLine
 10
342.8632292982
 20
62.4372011381
 30
0.0
 11
337.8457829441
 21
62.4372011381
 31
0.0
  0
SPLINE
  5
29E
330
1F
100
AcDbEntity
  8
0
  6
Continuous
 62
     7
370
     0
100
AcDbSpline
210
0.0
220
0.0
230
1.0
 70
     8
 71
     3
 72
    26
 73
    22
 74
     0
 42
0.00000001
 43
0.00000001
 12
1.0
 22
0.0
 32
0.0
 13
1.0
 23
0.0
 33
0.0
 40
0.0
 40
0.0
 40
0.0
 40
0.0
 40
0.0088994897814476
 40
0.0133536447267546
 40
0.017810535772314
 40
0.0356618145721846
 40
0.0499668932683896
 40
0.0714513234923391
 40
0.0878332955840924
 40
0.1124048763466768
 40
0.1246835259769169
 40
0.1430805034209429
 40
0.1698404673396154
 40
0.1965784175468388
 40
0.2502468532825509
 40
0.3752355508762154
 40
0.5004166599798293
 40
0.6253287124793583
 40
0.7503910493988002
 40
0.8751807452972945
 40
1.0
 40
1.0
 40
1.0
 40
1.0
 10
343.1361387060849
 20
62.19720158322474
 30
0.0
 10
343.1361327298997
 20
62.19841581549578
 30
0.0
 10
343.1361237626605
 20
62.20023776560318
 30
0.0
 10
343.1360682065252
 20
62.20266716342139
 30
0.0
 10
343.135955483472
 20
62.20631666941692
 30
0.0
 10
343.1356904908751
 20
62.2113059025729
 30
0.0
 10
343.1350758415725
 20
62.21859779109738
 30
0.0
 10
343.1342352299644
 20
62.22566548847531
 30
0.0
 10
343.1329276892799
 20
62.23407836938102
 30
0.0
 10
343.1315376462945
 20
62.241202037215
 30
0.0
 10
343.1298416986056
 20
62.24853525249355
 30
0.0
 10
343.1278599716792
 20
62.25610294855208
 30
0.0
 10
343.1249791426699
 20
62.26545780910718
 30
0.0
 10
343.1199769545562
 20
62.27914897998075
 30
0.0
 10
343.10846532032
 20
62.30458690677769
 30
0.0
 10
343.0856228673139
 20
62.33917219529269
 30
0.0
 10
343.049456658668
 20
62.37475794045848
 30
0.0
 10
343.0074448613183
 20
62.40269409434732
 30
0.0
 10
342.9614494570261
 20
62.42253390623082
 30
0.0
 10
342.9129243633612
 20
62.43488283325521
 30
0.0
 10
342.8797960770402
 20
62.43642860555121
 30
0.0
 10
342.8632299723463
 20
62.43720158322473
 30
0.0
  0
LINE
  5
29F
330
1F
100
AcDbEntity
  8
0
  6
Continuous
 62
     7
370
     0
100
AcDbLine
 10
343.1361384775
 20
47.7088217023
 30
0.0
 11
343.1361384775
 21
62.1972011733
 31
0.0
  0
SPLINE
  5
2A0
330
1F
100
AcDbEntity
  8
0
  6
Continuous
 62
     7
370
     0
100
AcDbSpline
210
0.0
220
0.0
230
1.0
 70
     8
 71
     3
 72
    21
 73
    17
 74
     0
 42
0.00000001
 43
0.00000001
 12
1.0
 22
0.0
 32
0.0
 13
1.0
 23
0.0
 33
0.0
 40
0.0
 40
0.0
 40
0.0
 40
0.0
 40
0.1249862430843504
 40
0.2502012042886164
 40
0.4991679358600424
 40
0.5616807013086788
 40
0.5928577629711482
 40
0.6239583241453652
 40
0.6523656864566607
 40
0.695159867698318
 40
0.7488476378878038
 40
0.7816196232832787
 40
0.8307416145430578
 40
0.891937469116799
 40
0.9534930685150541
 40
1.0
 40
1.0
 40
1.0
 40
1.0
 10
343.3043126170193
 20
47.4870908305353
 30
0.0
 10
343.2930249203641
 20
47.49168950278283
 30
0.0
 10
343.2704288711744
 20
47.50089526260141
 30
0.0
 10
343.2286181464473
 20
47.52632674073313
 30
0.0
 10
343.1965144012158
 20
47.55584853363371
 30
0.0
 10
343.176381273325
 20
47.58311156870143
 30
0.0
 10
343.1696300985759
 20
47.59346207688263
 30
0.0
 10
343.1650250662187
 20
47.60118298715474
 30
0.0
 10
343.1601735077857
 20
47.6100999305117
 30
0.0
 10
343.1547752346873
 20
47.62127553699884
 30
0.0
 10
343.1499321542979
 20
47.6331979554735
 30
0.0
 10
343.1455779754391
 20
47.64598057539484
 30
0.0
 10
343.141718971563
 20
47.65972252845814
 30
0.0
 10
343.1383598821239
 20
47.67655708053746
 30
0.0
 10
343.1364397984765
 20
47.69338050358876
 30
0.0
 10
343.1362292989033
 20
47.70417589831068
 30
0.0
 10
343.1361387060849
 20
47.70882191833799
 30
0.0
  0
SPLINE
  5
2A1
330
1F
100
AcDbEntity
  8
0
  6
Continuous
 62
     7
370
     0
100
AcDbSpline
210
0.0
220
0.0
230
1.0
 70
     8
 71
     3
 72
    19
 73
    15
 74
     0
 42
0.00000001
 43
0.00000001
 12
1.0
 22
0.0
 32
0.0
 13
1.0
 23
0.0
 33
0.0
 40
0.0
 40
0.0
 40
0.0
 40
0.0
 40
0.0509745941499094
 40
0.1015474887610893
 40
0.1517187581325857
 40
0.2014884783637242
 40
0.2508567274123248
 40
0.3772212606367354
 40
0.501348033185287
 40
0.6272644481039208
 40
0.751163645404609
 40
0.8349212793026711
 40
0.9178665183692479
 40
1.0
 40
1.0
 40
1.0
 40
1.0
 10
362.1573613651892
 20
40.05457188225424
 30
0.0
 10
361.8491823486004
 20
40.18532405321694
 30
0.0
 10
361.2352528853972
 20
40.44579801740929
 30
0.0
 10
360.3126963714269
 20
40.83343641575157
 30
0.0
 10
359.3937302141572
 20
41.21686060130873
 30
0.0
 10
358.4781264021848
 20
41.59596419204226
 30
0.0
 10
357.0895536016429
 20
42.16664342533954
 30
0.0
 10
355.2296620120039
 20
42.92095335311013
 30
0.0
 10
352.8720816172308
 20
43.8591972702181
 30
0.0
 10
350.5081645551844
 20
44.78225090960153
 30
0.0
 10
348.3810451361542
 20
45.59723750820403
 30
0.0
 10
346.5151031723705
 20
46.30067207561941
 30
0.0
 10
344.9094663404084
 20
46.89878470819959
 30
0.0
 10
343.8376069391157
 20
47.2916327194992
 30
0.0
 10
343.3043126170193
 20
47.4870908305353
 30
0.0
  0
SPLINE
  5
2A2
330
1F
100
AcDbEntity
  8
0
  6
Continuous
 62
     7
370
     0
100
AcDbSpline
210
0.0
220
0.0
230
1.0
 70
     8
 71
     3
 72
    22
 73
    18
 74
     0
 42
0.00000001
 43
0.00000001
 12
1.0
 22
0.0
 32
0.0
 13
1.0
 23
0.0
 33
0.0
 40
0.0
 40
0.0
 40
0.0
 40
0.0
 40
0.015552287582163
 40
0.0311271361215748
 40
0.0623321824091789
 40
0.1248766438992886
 40
0.1963765436356895
 40
0.2498534631938502
 40
0.3210498101314475
 40
0.3746543597241214
 40
0.437257980288515
 40
0.4730021030697423
 40
0.4997665102919622
 40
0.6244400923826054
 40
0.74951376474525
 40
0.87455417613167
 40
1.0
 40
1.0
 40
1.0
 40
1.0
 10
362.3015977612038
 20
39.83284079445156
 30
0.0
 10
362.3015895703723
 20
39.83434146133543
 30
0.0
 10
362.3015731768273
 20
39.83734497204865
 30
0.0
 10
362.3013985397112
 20
39.84335693144787
 30
0.0
 10
362.3008133161397
 20
39.85388847088579
 30
0.0
 10
362.2990502754366
 20
39.86973322909292
 30
0.0
 10
362.2956764231802
 20
39.88747017970677
 30
0.0
 10
362.2908280998814
 20
39.90564847767316
 30
0.0
 10
362.2852144950279
 20
39.92173681322732
 30
0.0
 10
362.2781336610469
 20
39.93807549421526
 30
0.0
 10
362.2715485577799
 20
39.95084891988289
 30
0.0
 10
362.2655709236516
 20
39.960985768329
 30
0.0
 10
362.2561144472384
 20
39.97576629131505
 30
0.0
 10
362.240286048211
 20
39.99617295311375
 30
0.0
 10
362.2154108797479
 20
40.02002618353112
 30
0.0
 10
362.1877361625179
 20
40.04011885362349
 30
0.0
 10
362.1674972165572
 20
40.04974901056789
 30
0.0
 10
362.1573613651893
 20
40.05457188225441
 30
0.0
  0
LINE
  5
2A3
330
1F
100
AcDbEntity
  8
0
  6
Continuous
 62
     7
370
     0
100
AcDbLine
 10
336.0780153509
 20
62.4372011381
 30
0.0
 11
337.8457829441
 21
62.4372011381
 31
0.0
  0
LINE
  5
2A4
330
1F
100
AcDbEntity
  8
0
  6
Continuous
 62
     7
370
     0
100
AcDbLine
 10
336.0780153509
 20
14.4372007209
 30
0.0
 11
337.8457829441
 21
14.4372007209
 31
0.0
  0
LINE
  5
2A5
330
1F
100
AcDbEntity
  8
0
  6
Continuous
 62
     7
370
     0
100
AcDbLine
 10
345.1320055957
 20
57.633340578
 30
0.0
 11
345.1320055957
 21
62.1972011733
 31
0.0
  0
LINE
  5
2A6
330
1F
100
AcDbEntity
  8
0
  6
Continuous
 62
     7
370
     0
100
AcDbLine
 10
343.6322465624
 20
62.4372011381
 30
0.0
 11
345.400012293
 21
62.4372011381
 31
0.0
  0
SPLINE
  5
2A7
330
1F
100
AcDbEntity
  8
0
  6
Continuous
 62
     7
370
     0
100
AcDbSpline
210
0.0
220
0.0
230
1.0
 70
     8
 71
     3
 72
    25
 73
    21
 74
     0
 42
0.00000001
 43
0.00000001
 12
1.0
 22
0.0
 32
0.0
 13
1.0
 23
0.0
 33
0.0
 40
0.0
 40
0.0
 40
0.0
 40
0.0
 40
0.1246608180780601
 40
0.2496281564868476
 40
0.374175760723132
 40
0.4994179065416013
 40
0.6240922110139586
 40
0.7493659407258361
 40
0.7805833618149669
 40
0.7961513696831698
 40
0.8117589613422624
 40
0.836808120406001
 40
0.851874166529852
 40
0.8745051538016857
 40
0.8909407871596314
 40
0.9155936787841111
 40
0.9463715461897363
 40
0.9678682897893267
 40
0.9807397333982004
 40
0.9999999999999999
 40
0.9999999999999999
 40
0.9999999999999999
 40
0.9999999999999999
 10
345.4000126400985
 20
62.43720158322473
 30
0.0
 10
345.3836855819596
 20
62.43640966504564
 30
0.0
 10
345.3509913201467
 20
62.43482388149166
 30
0.0
 10
345.3031942297331
 20
62.4223613648543
 30
0.0
 10
345.2579119440247
 20
62.40233984223075
 30
0.0
 10
345.2167156043223
 20
62.37429552085968
 30
0.0
 10
345.1813118546626
 20
62.33861345212208
 30
0.0
 10
345.1606508894002
 20
62.30667902856607
 30
0.0
 10
345.1508358120838
 20
62.28569285320812
 30
0.0
 10
345.1476051020598
 20
62.27792876706678
 30
0.0
 10
345.1448988848832
 20
62.27084510179091
 30
0.0
 10
345.1424820663521
 20
62.26371976806004
 30
0.0
 10
345.1400569755438
 20
62.25559831675758
 30
0.0
 10
345.13820555551
 20
62.2485177057203
 30
0.0
 10
345.1363231364941
 20
62.24010791252148
 30
0.0
 10
345.1345557206691
 20
62.23054297228678
 30
0.0
 10
345.1331834956304
 20
62.22021308951115
 30
0.0
 10
345.1324570248848
 20
62.211418593015
 30
0.0
 10
345.1320811625193
 20
62.20416342689826
 30
0.0
 10
345.132034438014
 20
62.19981068630867
 30
0.0
 10
345.13200643059
 20
62.19720158322471
 30
0.0
  0
SPLINE
  5
2A8
330
1F
100
AcDbEntity
  8
0
  6
Continuous
 62
     7
370
     0
100
AcDbSpline
210
0.0
220
0.0
230
1.0
 70
     8
 71
     3
 72
    13
 73
     9
 74
     0
 42
0.00000001
 43
0.00000001
 12
1.0
 22
0.0
 32
0.0
 13
1.0
 23
0.0
 33
0.0
 40
0.0
 40
0.0
 40
0.0
 40
0.0
 40
0.1234128807296114
 40
0.2477354036282197
 40
0.3729678839872402
 40
0.4991106302731748
 40
0.7475756560281283
 40
1.0
 40
1.0
 40
1.0
 40
1.0
 10
355.4429236418456
 20
50.35364224274121
 30
0.0
 10
355.7250448822514
 20
50.52862213425357
 30
0.0
 10
356.2913668006025
 20
50.87987164560413
 30
0.0
 10
357.1395443718669
 20
51.41054269587181
 30
0.0
 10
357.9906236799808
 20
51.94643026147148
 30
0.0
 10
359.117855583066
 20
52.66136953532156
 30
0.0
 10
360.5237244297654
 20
53.56140053386802
 30
0.0
 10
361.6339852754497
 20
54.28482146398019
 30
0.0
 10
362.193503769049
 20
54.64939109698853
 30
0.0
  0
SPLINE
  5
2A9
330
1F
100
AcDbEntity
  8
0
  6
Continuous
 62
     7
370
     0
100
AcDbSpline
210
0.0
220
0.0
230
1.0
 70
     8
 71
     3
 72
    58
 73
    54
 74
     0
 42
0.00000001
 43
0.00000001
 12
1.0
 22
0.0
 32
0.0
 13
1.0
 23
0.0
 33
0.0
 40
0.0
 40
0.0
 40
0.0
 40
0.0
 40
0.0624060629841086
 40
0.1249529486710332
 40
0.2493897491801055
 40
0.2993603024625822
 40
0.3740275601622346
 40
0.4053245022537485
 40
0.4209795505683464
 40
0.4288035089439694
 40
0.4366230832016197
 40
0.4423390627203586
 40
0.4509061923147241
 40
0.4594638142713213
 40
0.472278863795597
 40
0.4829371348016945
 40
0.4893441108418779
 40
0.4941544872373683
 40
0.4989689218629518
 40
0.5067778409005383
 40
0.5145952688893154
 40
0.5224198251921209
 40
0.5263343806427967
 40
0.5302501854286018
 40
0.542786600834959
 40
0.5465488949168128
 40
0.5503114692642236
 40
0.5615989178240828
 40
0.5673313384643538
 40
0.5716297461429775
 40
0.5759270917613392
 40
0.5812968970212
 40
0.5866641934603247
 40
0.5920285152625947
 40
0.5947094312089614
 40
0.5973894314376222
 40
0.6080988572978845
 40
0.6145156955153517
 40
0.6193233928091206
 40
0.6241280482691405
 40
0.6280260899319725
 40
0.6319266954553865
 40
0.6358297392984193
 40
0.6397350914205191
 40
0.6436426174810148
 40
0.6475521790364059
 40
0.6553767472288414
 40
0.6867194607371946
 40
0.7493276145702551
 40
0.8118135905425858
 40
0.8744786247707199
 40
0.9371433558758685
 40
1.0
 40
1.0
 40
1.0
 40
1.0
 10
355.4811087332153
 20
49.92949720794341
 30
0.0
 10
355.471394852512
 20
49.93383943915873
 30
0.0
 10
355.4519451712009
 20
49.94253370007219
 30
0.0
 10
355.4160106024997
 20
49.96607247058505
 30
0.0
 10
355.386026025739
 20
49.99510197623703
 30
0.0
 10
355.360892396747
 20
50.03108231100739
 30
0.0
 10
355.348278385619
 20
50.05589807434357
 30
0.0
 10
355.3408498618288
 20
50.07631153894167
 30
0.0
 10
355.3379830792638
 20
50.08568363260221
 30
0.0
 10
355.3364864011389
 20
50.0910844991504
 30
0.0
 10
355.3355297096687
 20
50.09479008708703
 30
0.0
 10
355.3345984479686
 20
50.09864116230947
 30
0.0
 10
355.3337006377504
 20
50.10263820593656
 30
0.0
 10
355.3326267331999
 20
50.10790260576976
 30
0.0
 10
355.3316172390069
 20
50.1135657433468
 30
0.0
 10
355.3308219063642
 20
50.11887565234531
 30
0.0
 10
355.3303190204737
 20
50.12277536165474
 30
0.0
 10
355.3299884118127
 20
50.12563853579143
 30
0.0
 10
355.3296641761584
 20
50.1287564888988
 30
0.0
 10
355.3293380572504
 20
50.13241835282032
 30
0.0
 10
355.329040262875
 20
50.13662638012492
 30
0.0
 10
355.3288553491417
 20
50.14014008470911
 30
0.0
 10
355.3287452810417
 20
50.14295462421915
 30
0.0
 10
355.3286349626196
 20
50.14661755986863
 30
0.0
 10
355.3285939129586
 20
50.15025542817747
 30
0.0
 10
355.3286202182471
 20
50.15386517463297
 30
0.0
 10
355.328673890825
 20
50.15724981324348
 30
0.0
 10
355.3287972355872
 20
50.16098766713781
 30
0.0
 10
355.3289979938327
 20
50.16481778865403
 30
0.0
 10
355.329162341782
 20
50.16739007973184
 30
0.0
 10
355.3293471108572
 20
50.16989533933876
 30
0.0
 10
355.3295758027168
 20
50.172589689471
 30
0.0
 10
355.3298561877228
 20
50.17547156929797
 30
0.0
 10
355.3301193202588
 20
50.17786870485261
 30
0.0
 10
355.3303474894853
 20
50.17978319537349
 30
0.0
 10
355.3307071187593
 20
50.18264931812953
 30
0.0
 10
355.3312050738648
 20
50.18617393486893
 30
0.0
 10
355.3318343836963
 20
50.19006331357041
 30
0.0
 10
355.3323317121405
 20
50.19289842361541
 30
0.0
 10
355.3327780430454
 20
50.1952824236317
 30
0.0
 10
355.3332172340124
 20
50.19750133101487
 30
0.0
 10
355.3336437964572
 20
50.19955716553137
 30
0.0
 10
355.3340893120491
 20
50.20160976549363
 30
0.0
 10
355.3345536567622
 20
50.20365888714246
 30
0.0
 10
355.3350367115029
 20
50.20570428561332
 30
0.0
 10
355.3357057255366
 20
50.20842681609107
 30
0.0
 10
355.3376485598174
 20
50.21589600493168
 30
0.0
 10
355.3430206277006
 20
50.23330523342523
 30
0.0
 10
355.3540213298482
 20
50.25901000986861
 30
0.0
 10
355.3713347117667
 20
50.28743896819311
 30
0.0
 10
355.3921983884169
 20
50.31297159772574
 30
0.0
 10
355.4160212610911
 20
50.33555432147589
 30
0.0
 10
355.4339470458554
 20
50.34760679320297
 30
0.0
 10
355.4429236418457
 20
50.35364224274121
 30
0.0
  0
SPLINE
  5
2AA
330
1F
100
AcDbEntity
  8
0
  6
Continuous
 62
     7
370
     0
100
AcDbSpline
210
0.0
220
0.0
230
1.0
 70
     8
 71
     3
 72
    13
 73
     9
 74
     0
 42
0.00000001
 43
0.00000001
 12
1.0
 22
0.0
 32
0.0
 13
1.0
 23
0.0
 33
0.0
 40
0.0
 40
0.0
 40
0.0
 40
0.0
 40
0.1264920285039298
 40
0.2520624927516105
 40
0.3767115413791265
 40
0.5004393263458178
 40
0.7519002083458711
 40
1.0
 40
1.0
 40
1.0
 40
1.0
 10
362.1573613651892
 20
47.16720668033798
 30
0.0
 10
361.8799384723046
 20
47.28493615200353
 30
0.0
 10
361.3271138654586
 20
47.51953737114223
 30
0.0
 10
360.4965950673388
 20
47.86891484001469
 30
0.0
 10
359.669144393413
 20
48.21481834507183
 30
0.0
 10
358.5586410008721
 20
48.6757701289106
 30
0.0
 10
357.166596344921
 20
49.24827275112171
 30
0.0
 10
356.040412246913
 20
49.70344319860443
 30
0.0
 10
355.4811087332153
 20
49.92949720794336
 30
0.0
  0
SPLINE
  5
2AB
330
1F
100
AcDbEntity
  8
0
  6
Continuous
 62
     7
370
     0
100
AcDbSpline
210
0.0
220
0.0
230
1.0
 70
     8
 71
     3
 72
    22
 73
    18
 74
     0
 42
0.00000001
 43
0.00000001
 12
1.0
 22
0.0
 32
0.0
 13
1.0
 23
0.0
 33
0.0
 40
0.0
 40
0.0
 40
0.0
 40
0.0
 40
0.0155522875820678
 40
0.0311271361215752
 40
0.0623321824091854
 40
0.1248766438991889
 40
0.1963765436355963
 40
0.2498534631937586
 40
0.321049810131358
 40
0.37465435972412
 40
0.4372579802885048
 40
0.4730021030697105
 40
0.4997665102919551
 40
0.6244400923825429
 40
0.7495137647452544
 40
0.8745541761316257
 40
1.0
 40
1.0
 40
1.0
 40
1.0
 10
362.3015977612037
 20
46.9454755925353
 30
0.0
 10
362.3015895703723
 20
46.94697625941917
 30
0.0
 10
362.3015731768273
 20
46.94997977013238
 30
0.0
 10
362.3013985397112
 20
46.95599172953161
 30
0.0
 10
362.3008133161396
 20
46.96652326896952
 30
0.0
 10
362.2990502754366
 20
46.98236802717665
 30
0.0
 10
362.2956764231802
 20
47.00010497779047
 30
0.0
 10
362.2908280998814
 20
47.01828327575688
 30
0.0
 10
362.2852144950279
 20
47.03437161131104
 30
0.0
 10
362.278133661047
 20
47.050710292299
 30
0.0
 10
362.2715485577799
 20
47.06348371796663
 30
0.0
 10
362.2655709236516
 20
47.07362056641276
 30
0.0
 10
362.2561144472384
 20
47.08840108939877
 30
0.0
 10
362.240286048211
 20
47.10880775119747
 30
0.0
 10
362.2154108797479
 20
47.13266098161488
 30
0.0
 10
362.1877361625179
 20
47.15275365170719
 30
0.0
 10
362.1674972165572
 20
47.16238380865162
 30
0.0
 10
362.1573613651893
 20
47.16720668033815
 30
0.0
  0
LINE
  5
2AC
330
1F
100
AcDbEntity
  8
0
  6
Continuous
 62
     7
370
     0
100
AcDbLine
 10
362.3015966352
 20
42.26954117
 30
0.0
 11
362.3015966352
 21
46.9454752612
 31
0.0
  0
SPLINE
  5
2AD
330
1F
100
AcDbEntity
  8
0
  6
Continuous
 62
     7
370
     0
100
AcDbSpline
210
0.0
220
0.0
230
1.0
 70
     8
 71
     3
 72
    31
 73
    27
 74
     0
 42
0.00000001
 43
0.00000001
 12
1.0
 22
0.0
 32
0.0
 13
1.0
 23
0.0
 33
0.0
 40
0.0
 40
0.0
 40
0.0
 40
0.0
 40
0.0622605175877419
 40
0.1250256861668159
 40
0.2496664998510807
 40
0.3122826578492512
 40
0.3746963376509843
 40
0.4370852886263584
 40
0.4996807631570048
 40
0.6242106665140292
 40
0.6868122189129814
 40
0.7491467769178176
 40
0.8116417391221474
 40
0.842988988605217
 40
0.858654346462756
 40
0.8743015050856549
 40
0.8906230721467832
 40
0.9003991221607691
 40
0.9150765221685914
 40
0.9274204469390942
 40
0.9459534808127653
 40
0.9583146550766732
 40
0.976852519215801
 40
0.9814851763846885
 40
0.9861165283708578
 40
1.0
 40
1.0
 40
1.0
 40
1.0
 10
361.9782925147687
 20
42.04781019946945
 30
0.0
 10
361.9870609440226
 20
42.04445524952115
 30
0.0
 10
362.0046688748037
 20
42.0377181561658
 30
0.0
 10
362.0412638150344
 20
42.02986005674471
 30
0.0
 10
362.0788216317622
 20
42.0284712059108
 30
0.0
 10
362.1157155173968
 20
42.03406199402772
 30
0.0
 10
362.142830198013
 20
42.04157798830353
 30
0.0
 10
362.168959138224
 20
42.05251394367779
 30
0.0
 10
362.2019925978018
 20
42.0712906053412
 30
0.0
 10
362.2317981824473
 20
42.09645584135192
 30
0.0
 10
362.2565854585042
 20
42.12690420673569
 30
0.0
 10
362.2724869042837
 20
42.15216630367092
 30
0.0
 10
362.2830660656527
 20
42.17497269588034
 30
0.0
 10
362.2890180742693
 20
42.19163752694425
 30
0.0
 10
362.2919887979195
 20
42.20134210094417
 30
0.0
 10
362.2940226538912
 20
42.20879785782539
 30
0.0
 10
362.295599553616
 20
42.21539551851836
 30
0.0
 10
362.2969718933685
 20
42.22188435076698
 30
0.0
 10
362.2980651158891
 20
42.22777580960031
 30
0.0
 10
362.2992205561146
 20
42.23510946122561
 30
0.0
 10
362.3001044433154
 20
42.24210817697327
 30
0.0
 10
362.3008701587128
 20
42.25014030062524
 30
0.0
 10
362.3012450280751
 20
42.25593220204188
 30
0.0
 10
362.3014329311124
 20
42.26046927770039
 30
0.0
 10
362.3015581192894
 20
42.26424836555943
 30
0.0
 10
362.301580773662
 20
42.2672731392761
 30
0.0
 10
362.3015977612039
 20
42.26954128727213
 30
0.0
  0
SPLINE
  5
2AE
330
1F
100
AcDbEntity
  8
0
  6
Continuous
 62
     7
370
     0
100
AcDbSpline
210
0.0
220
0.0
230
1.0
 70
     8
 71
     3
 72
    19
 73
    15
 74
     0
 42
0.00000001
 43
0.00000001
 12
1.0
 22
0.0
 32
0.0
 13
1.0
 23
0.0
 33
0.0
 40
0.0
 40
0.0
 40
0.0
 40
0.0
 40
0.0492621498114899
 40
0.0987927379791455
 40
0.1485918681413002
 40
0.1986596422683401
 40
0.2489961606976873
 40
0.3729881869653078
 40
0.4988219601913657
 40
0.6230194502310525
 40
0.7492384450358613
 40
0.8318316631453521
 40
0.9154187561310415
 40
1.0
 40
1.0
 40
1.0
 40
1.0
 10
345.2975189012523
 20
48.67058066891634
 30
0.0
 10
345.5798825314751
 20
48.56561211784004
 30
0.0
 10
346.1461484423658
 20
48.35510302308443
 30
0.0
 10
346.9949221830449
 20
48.03685027214101
 30
0.0
 10
347.8460648503793
 20
47.71569149157818
 30
0.0
 10
348.699284728935
 20
47.39150730121693
 30
0.0
 10
349.9701827306557
 20
46.90533210594637
 30
0.0
 10
351.661268241089
 20
46.25070816767651
 30
0.0
 10
353.7517724082562
 20
45.42771553374557
 30
0.0
 10
355.8371597620178
 20
44.5927946065683
 30
0.0
 10
357.6668038299939
 20
43.84792235979766
 30
0.0
 10
359.260803403692
 20
43.1897114740383
 30
0.0
 10
360.6198772133602
 20
42.62269154490308
 30
0.0
 10
361.5237063763671
 20
42.24019104985356
 30
0.0
 10
361.9782925147687
 20
42.04781019946945
 30
0.0
  0
SPLINE
  5
2AF
330
1F
100
AcDbEntity
  8
0
  6
Continuous
 62
     7
370
     0
100
AcDbSpline
210
0.0
220
0.0
230
1.0
 70
     8
 71
     3
 72
    22
 73
    18
 74
     0
 42
0.00000001
 43
0.00000001
 12
1.0
 22
0.0
 32
0.0
 13
1.0
 23
0.0
 33
0.0
 40
0.0
 40
0.0
 40
0.0
 40
0.0
 40
0.0155537540913564
 40
0.0311321658520076
 40
0.0623486090387414
 40
0.1249163685301397
 40
0.1963995530355609
 40
0.2498045656175732
 40
0.3211568450850169
 40
0.3748348858106814
 40
0.4106293173392824
 40
0.4374492192071437
 40
0.4998330455216816
 40
0.6248236846520463
 40
0.749795049449021
 40
0.8748900328650335
 40
1.0
 40
1.0
 40
1.0
 40
1.0
 10
345.13200643059
 20
48.89231175671905
 30
0.0
 10
345.1320164809495
 20
48.89076418671728
 30
0.0
 10
345.1320365976015
 20
48.88766659332085
 30
0.0
 10
345.1322505870759
 20
48.88146635772433
 30
0.0
 10
345.1329665224342
 20
48.87060733507219
 30
0.0
 10
345.1351168651978
 20
48.85429254581785
 30
0.0
 10
345.1392089633942
 20
48.83609494106452
 30
0.0
 10
345.1450810975442
 20
48.8175216398302
 30
0.0
 10
345.1518414088304
 20
48.80117002891406
 30
0.0
 10
345.1590815033947
 20
48.7870163803895
 30
0.0
 10
345.164875064423
 20
48.77711467479716
 30
0.0
 10
345.1715049780021
 20
48.76673801633864
 30
0.0
 10
345.1838342572177
 20
48.74964114191879
 30
0.0
 10
345.2045526162415
 20
48.72695859212661
 30
0.0
 10
345.2329089481827
 20
48.70374966811882
 30
0.0
 10
345.2639705599475
 20
48.68445604212855
 30
0.0
 10
345.2863356743662
 20
48.67520597796896
 30
0.0
 10
345.2975189012517
 20
48.67058066891551
 30
0.0
  0
LINE
  5
2B0
330
1F
100
AcDbEntity
  8
0
  6
Continuous
 62
     7
370
     0
100
AcDbLine
 10
345.1320055957
 20
48.8923119711
 30
0.0
 11
345.1320055957
 21
53.5682460624
 31
0.0
  0
SPLINE
  5
2B1
330
1F
100
AcDbEntity
  8
0
  6
Continuous
 62
     7
370
     0
100
AcDbSpline
210
0.0
220
0.0
230
1.0
 70
     8
 71
     3
 72
    36
 73
    32
 74
     0
 42
0.00000001
 43
0.00000001
 12
1.0
 22
0.0
 32
0.0
 13
1.0
 23
0.0
 33
0.0
 40
0.0
 40
0.0
 40
0.0
 40
0.0
 40
0.061941097223823
 40
0.124691905088491
 40
0.2492197764296796
 40
0.3117496084190852
 40
0.3744319775765929
 40
0.4990956233631477
 40
0.5617279287659287
 40
0.6242222258811109
 40
0.748881439747338
 40
0.7989617019955257
 40
0.8739442203773676
 40
0.8818155018683893
 40
0.8896904226991884
 40
0.8959920068173481
 40
0.905445186791904
 40
0.9180470192677518
 40
0.9256049140826491
 40
0.9312707922426481
 40
0.9369339088148073
 40
0.9447938064050704
 40
0.952646201187222
 40
0.9604899085096275
 40
0.9683238115343658
 40
0.9761987000187408
 40
0.980165494786896
 40
0.9841325842821864
 40
0.9904800219314944
 40
0.9952403224496034
 40
1.0
 40
1.0
 40
1.0
 40
1.0
 10
345.5024224919472
 20
53.78997714978491
 30
0.0
 10
345.4926562587046
 20
53.7932543010163
 30
0.0
 10
345.4729961253983
 20
53.79985144327923
 30
0.0
 10
345.4323241517695
 20
53.80762072553395
 30
0.0
 10
345.3906849246969
 20
53.80938984592756
 30
0.0
 10
345.3495268471613
 20
53.80446648094556
 30
0.0
 10
345.3090376043403
 20
53.79532118696429
 30
0.0
 10
345.2700817497231
 20
53.77965401536294
 30
0.0
 10
345.2344882757419
 20
53.75764707062952
 30
0.0
 10
345.2015306795467
 20
53.7316221785216
 30
0.0
 10
345.1749528926235
 20
53.70089399618988
 30
0.0
 10
345.1535447479265
 20
53.66419714523173
 30
0.0
 10
345.1449344286078
 20
53.64304976603475
 30
0.0
 10
345.1405156124612
 20
53.62818184185775
 30
0.0
 10
345.139506610492
 20
53.62454832405007
 30
0.0
 10
345.1384889274173
 20
53.62063603224977
 30
0.0
 10
345.1373528030054
 20
53.61591801742938
 30
0.0
 10
345.1362920409381
 20
53.61095995248161
 30
0.0
 10
345.1354686133676
 20
53.60661457928099
 30
0.0
 10
345.1349156320485
 20
53.60342720255619
 30
0.0
 10
345.1343969595733
 20
53.60018117196594
 30
0.0
 10
345.1338769982051
 20
53.59655575383438
 30
0.0
 10
345.1333788546548
 20
53.59254977810682
 30
0.0
 10
345.132956877863
 20
53.58853892547638
 30
0.0
 10
345.1326109233513
 20
53.58451641894932
 30
0.0
 10
345.132387079151
 20
53.58115070414093
 30
0.0
 10
345.1322455636356
 20
53.57844417124714
 30
0.0
 10
345.1321408201575
 20
53.5759979596785
 30
0.0
 10
345.1320627732294
 20
53.57341450209176
 30
0.0
 10
345.1320145122161
 20
53.57069436120668
 30
0.0
 10
345.1320091243478
 20
53.56906212612032
 30
0.0
 10
345.13200643059
 20
53.56824606198219
 30
0.0
  0
SPLINE
  5
2B2
330
1F
100
AcDbEntity
  8
0
  6
Continuous
 62
     7
370
     0
100
AcDbSpline
210
0.0
220
0.0
230
1.0
 70
     8
 71
     3
 72
    13
 73
     9
 74
     0
 42
0.00000001
 43
0.00000001
 12
1.0
 22
0.0
 32
0.0
 13
1.0
 23
0.0
 33
0.0
 40
0.0
 40
0.0
 40
0.0
 40
0.0
 40
0.1691437100151299
 40
0.3372960926749627
 40
0.5044575253782313
 40
0.6706283922772156
 40
0.835809084437108
 40
0.9999999999999999
 40
0.9999999999999999
 40
0.9999999999999999
 40
0.9999999999999999
 10
351.0174253767866
 20
51.69459203141728
 30
0.0
 10
350.7091842555687
 20
51.81405291550902
 30
0.0
 10
350.094508570737
 20
52.05227454035121
 30
0.0
 10
349.1712710360022
 20
52.40673563167285
 30
0.0
 10
348.2507249082039
 20
52.75776784175633
 30
0.0
 10
347.3326293133871
 20
53.1052055617109
 30
0.0
 10
346.4174115484287
 20
53.44922108349125
 30
0.0
 10
345.8068072128811
 20
53.67661957527557
 30
0.0
 10
345.5024224919473
 20
53.78997714978488
 30
0.0
  0
SPLINE
  5
2B3
330
1F
100
AcDbEntity
  8
0
  6
Continuous
 62
     7
370
     0
100
AcDbSpline
210
0.0
220
0.0
230
1.0
 70
     8
 71
     3
 72
    71
 73
    67
 74
     0
 42
0.00000001
 43
0.00000001
 12
1.0
 22
0.0
 32
0.0
 13
1.0
 23
0.0
 33
0.0
 40
0.0
 40
0.0
 40
0.0
 40
0.0
 40
0.0077878083647567
 40
0.0155857146874222
 40
0.0194881951641744
 40
0.0233928330561091
 40
0.031207981926128
 40
0.0437261474201823
 40
0.0512439552668488
 40
0.0568848912920421
 40
0.0625275175392661
 40
0.0664467762878643
 40
0.0703664771938562
 40
0.0742864648830152
 40
0.0782065827523359
 40
0.0821266731142226
 40
0.0860465773399224
 40
0.0899661360029129
 40
0.0938851890215063
 40
0.0958444804249515
 40
0.0978035851612262
 40
0.0997624830998323
 40
0.1017211540961076
 40
0.1036795779955626
 40
0.1056377346385087
 40
0.1075956038643453
 40
0.1095531655161257
 40
0.1115103994450315
 40
0.1134672855148216
 40
0.1154238036062283
 40
0.1173799336215197
 40
0.1193356554890135
 40
0.1212909491675126
 40
0.1232457946507826
 40
0.1252001719721744
 40
0.1271540612090267
 40
0.1291074424872066
 40
0.1310602959857848
 40
0.1330126019413064
 40
0.1349643406528303
 40
0.1369154924859179
 40
0.1388660378776352
 40
0.140815957341105
 40
0.142765231469899
 40
0.1447138409429834
 40
0.1466617665290433
 40
0.1486089890915454
 40
0.1505554895930168
 40
0.1515284637521177
 40
0.1525022548006047
 40
0.153476611065866
 40
0.154451107767702
 40
0.1554257436376714
 40
0.1564005173912457
 40
0.1642034140779713
 40
0.1720143470428353
 40
0.1876566445478856
 40
0.2503275133611673
 40
0.3751664739097914
 40
0.5000455619254479
 40
0.5626695282746615
 40
0.6252276929678643
 40
0.7500110897615562
 40
0.8747863411608648
 40
0.9375679129533557
 40
1.0
 40
1.0
 40
1.0
 40
1.0
 10
351.3706331825794
 20
51.90675747807695
 30
0.0
 10
351.3705722020355
 20
51.90547403089737
 30
0.0
 10
351.3704501618781
 20
51.90290547237355
 30
0.0
 10
351.3702259003826
 20
51.89969822993339
 30
0.0
 10
351.3700162095487
 20
51.89713281756885
 30
0.0
 10
351.3697835418841
 20
51.89456671385675
 30
0.0
 10
351.3693714104608
 20
51.89059077766695
 30
0.0
 10
351.3687962938986
 20
51.88603459177951
 30
0.0
 10
351.3681753379139
 20
51.88184838197268
 30
0.0
 10
351.3676773412122
 20
51.87879063978796
 30
0.0
 10
351.3672448011993
 20
51.87632373824098
 30
0.0
 10
351.3668389175291
 20
51.87414064080406
 30
0.0
 10
351.3664689947204
 20
51.8722398452417
 30
0.0
 10
351.3660831952282
 20
51.87034240793115
 30
0.0
 10
351.3656815833391
 20
51.86844854572612
 30
0.0
 10
351.3652642235482
 20
51.86655847664768
 30
0.0
 10
351.3648311802172
 20
51.86467241810698
 30
0.0
 10
351.3643825180154
 20
51.86279058878867
 30
0.0
 10
351.3639956541167
 20
51.86122603597431
 30
0.0
 10
351.3636784130728
 20
51.85997671102088
 30
0.0
 10
351.3634366269138
 20
51.8590409469389
 30
0.0
 10
351.3631909842366
 20
51.85810640348281
 30
0.0
 10
351.3629414930343
 20
51.85717310763736
 30
0.0
 10
351.3626881613764
 20
51.85624108668532
 30
0.0
 10
351.3624309973118
 20
51.85531036782969
 30
0.0
 10
351.3621700088952
 20
51.85438097829483
 30
0.0
 10
351.361905204179
 20
51.85345294529939
 30
0.0
 10
351.3616365912166
 20
51.85252629606353
 30
0.0
 10
351.3613641780604
 20
51.85160105780702
 30
0.0
 10
351.3610879727634
 20
51.85067725774974
 30
0.0
 10
351.3608079833779
 20
51.84975492311155
 30
0.0
 10
351.3605242179564
 20
51.84883408111233
 30
0.0
 10
351.3602366845515
 20
51.8479147589719
 30
0.0
 10
351.3599453912151
 20
51.84699698391019
 30
0.0
 10
351.3596503459993
 20
51.84608078314704
 30
0.0
 10
351.3593515569562
 20
51.84516618390234
 30
0.0
 10
351.3590490321375
 20
51.84425321339594
 30
0.0
 10
351.358742779595
 20
51.8433418988478
 30
0.0
 10
351.3584328073803
 20
51.84243226747774
 30
0.0
 10
351.3581191235448
 20
51.84152434650569
 30
0.0
 10
351.3578017361399
 20
51.84061816315152
 30
0.0
 10
351.3574806532169
 20
51.83971374463502
 30
0.0
 10
351.357155882827
 20
51.83881111817672
 30
0.0
 10
351.3568274330208
 20
51.8379103109941
 30
0.0
 10
351.3564953118509
 20
51.83701135031605
 30
0.0
 10
351.3561595273616
 20
51.83611426332907
 30
0.0
 10
351.355820087628
 20
51.83521907737769
 30
0.0
 10
351.3555341546503
 20
51.83447462494421
 30
0.0
 10
351.3553035278973
 20
51.83387988588108
 30
0.0
 10
351.35512954516
 20
51.83343405918519
 30
0.0
 10
351.3549545386252
 20
51.83298840507113
 30
0.0
 10
351.3547785482695
 20
51.83254302969535
 30
0.0
 10
351.3546016018225
 20
51.83209799961384
 30
0.0
 10
351.3540083227869
 20
51.83061503161714
 30
0.0
 10
351.3529754543518
 20
51.8281029982879
 30
0.0
 10
351.3509515226898
 20
51.82340619836727
 30
0.0
 10
351.3450571821387
 20
51.81061991399161
 30
0.0
 10
351.3287609962879
 20
51.78171009918027
 30
0.0
 10
351.2956634628725
 20
51.74293910944627
 30
0.0
 10
351.2548237836536
 20
51.71364853064432
 30
0.0
 10
351.2191320452658
 20
51.69641563435243
 30
0.0
 10
351.1819122713352
 20
51.68328468560435
 30
0.0
 10
351.1332453683979
 20
51.67478658547662
 30
0.0
 10
351.0839741219802
 20
51.67697110320292
 30
0.0
 10
351.0453711618772
 20
51.6847676662136
 30
0.0
 10
351.0267232890794
 20
51.69132334221425
 30
0.0
 10
351.0174253767865
 20
51.69459203141731
 30
0.0
  0
SPLINE
  5
2B4
330
1F
100
AcDbEntity
  8
0
  6
Continuous
 62
     7
370
     0
100
AcDbSpline
210
0.0
220
0.0
230
1.0
 70
     8
 71
     3
 72
    29
 73
    25
 74
     0
 42
0.00000001
 43
0.00000001
 12
1.0
 22
0.0
 32
0.0
 13
1.0
 23
0.0
 33
0.0
 40
0.0
 40
0.0
 40
0.0
 40
0.0
 40
0.0210094922431436
 40
0.0419705704938927
 40
0.0628991447364422
 40
0.0942758596011981
 40
0.1255454382403195
 40
0.1879482572275223
 40
0.2501660999415865
 40
0.3122762227441411
 40
0.3743973993587483
 40
0.4366981958893801
 40
0.4994040346158566
 40
0.5621527573364602
 40
0.6245302193524684
 40
0.6867727336646674
 40
0.749187647381311
 40
0.7700631037239647
 40
0.8117650762688371
 40
0.8742797313237199
 40
0.9056385815376157
 40
0.9369593346645544
 40
0.9684758782523816
 40
1.0
 40
1.0
 40
1.0
 40
1.0
 10
345.41002261657
 20
57.39350928276131
 30
0.0
 10
345.472994967078
 20
57.39510577109463
 30
0.0
 10
345.5987945554533
 20
57.39829506883498
 30
0.0
 10
345.7872805723065
 20
57.39627686675588
 30
0.0
 10
346.0065798611906
 20
57.38808863063912
 30
0.0
 10
346.2561722959492
 20
57.36963661370207
 30
0.0
 10
346.6278726601772
 20
57.32585644180051
 30
0.0
 10
347.0869748380034
 20
57.24077953273744
 30
0.0
 10
347.6254915450227
 20
57.08971901093011
 30
0.0
 10
348.147414737184
 20
56.88954981822733
 30
0.0
 10
348.6489900795947
 20
56.64005220853342
 30
0.0
 10
349.1264539528253
 20
56.34093622104064
 30
0.0
 10
349.5746253085191
 20
55.99333825716986
 30
0.0
 10
349.9866340719806
 20
55.59989307633453
 30
0.0
 10
350.355065518131
 20
55.16373951087608
 30
0.0
 10
350.6747112341919
 20
54.68861277811485
 30
0.0
 10
350.8817897686761
 20
54.29145732872627
 30
0.0
 10
351.0333527631067
 20
53.93764166322777
 30
0.0
 10
351.1647556471451
 20
53.57434710356871
 30
0.0
 10
351.2692101447699
 20
53.16691254274658
 30
0.0
 10
351.3327107006305
 20
52.78386523143883
 30
0.0
 10
351.363290246276
 20
52.49308913699524
 30
0.0
 10
351.3780148418084
 20
52.20029764171864
 30
0.0
 10
351.3730939328376
 20
52.00461204045573
 30
0.0
 10
351.3706331825794
 20
51.90675747807695
 30
0.0
  0
SPLINE
  5
2B5
330
1F
100
AcDbEntity
  8
0
  6
Continuous
 62
     7
370
     0
100
AcDbSpline
210
0.0
220
0.0
230
1.0
 70
     8
 71
     3
 72
    26
 73
    22
 74
     0
 42
0.00000001
 43
0.00000001
 12
1.0
 22
0.0
 32
0.0
 13
1.0
 23
0.0
 33
0.0
 40
0.0
 40
0.0
 40
0.0
 40
0.0
 40
0.0089038514824168
 40
0.0133602235329036
 40
0.017819350457098
 40
0.0356796727601959
 40
0.0499920030304754
 40
0.07148703605608
 40
0.0878766712115793
 40
0.112458652978257
 40
0.124741901780127
 40
0.1431448460331464
 40
0.1699112262624021
 40
0.1966660640113072
 40
0.2503652287917343
 40
0.3753862721916189
 40
0.5006145010345967
 40
0.6255766965548236
 40
0.75059046420663
 40
0.8753162185487866
 40
1.0
 40
1.0
 40
1.0
 40
1.0
 10
345.13200643059
 20
57.63334145092207
 30
0.0
 10
345.1320125297393
 20
57.63210464004219
 30
0.0
 10
345.1320216815088
 20
57.63024880609712
 30
0.0
 10
345.1320783825614
 20
57.62777423074395
 30
0.0
 10
345.1321934315976
 20
57.62405683604096
 30
0.0
 10
345.1324639011629
 20
57.61897483348549
 30
0.0
 10
345.1330912972801
 20
57.61154764725676
 30
0.0
 10
345.133949402392
 20
57.60434925645722
 30
0.0
 10
345.1352842629885
 20
57.59578175594306
 30
0.0
 10
345.1367034765353
 20
57.58852816775666
 30
0.0
 10
345.1384351799383
 20
57.58106255605985
 30
0.0
 10
345.1404587119545
 20
57.57335982830682
 30
0.0
 10
345.1434013373151
 20
57.56383916532818
 30
0.0
 10
345.1485116109844
 20
57.54990863169797
 30
0.0
 10
345.1602670169922
 20
57.52404213123042
 30
0.0
 10
345.1836056580054
 20
57.48894090949003
 30
0.0
 10
345.220553097362
 20
57.45301102790187
 30
0.0
 10
345.2634574556371
 20
57.42511149408539
 30
0.0
 10
345.3103547177618
 20
57.40573578044044
 30
0.0
 10
345.3597253527333
 20
57.39430269218937
 30
0.0
 10
345.3932587430584
 20
57.39377372289741
 30
0.0
 10
345.41002261657
 20
57.39350928276131
 30
0.0
  0
LINE
  5
2B6
330
1F
100
AcDbEntity
  8
0
  6
Continuous
 62
     7
370
     0
100
AcDbLine
 10
350.1284841533
 20
62.4372011381
 30
0.0
 11
345.400012293
 21
62.4372011381
 31
0.0
  0
SPLINE
  5
2B7
330
1F
100
AcDbEntity
  8
0
  6
Continuous
 62
     7
370
     0
100
AcDbSpline
210
0.0
220
0.0
230
1.0
 70
     8
 71
     3
 72
    27
 73
    23
 74
     0
 42
0.00000001
 43
0.00000001
 12
1.0
 22
0.0
 32
0.0
 13
1.0
 23
0.0
 33
0.0
 40
0.0
 40
0.0
 40
0.0
 40
0.0
 40
0.0088960933999593
 40
0.0133483258742174
 40
0.0178031610105627
 40
0.0356452040504048
 40
0.0499419835452497
 40
0.0714137509452298
 40
0.0877868093396845
 40
0.1123486572687549
 40
0.1430195958387403
 40
0.1644454991777098
 40
0.1965011752573407
 40
0.2232767655272231
 40
0.2501116300862355
 40
0.3217207080659101
 40
0.3752634078249703
 40
0.5003021719994859
 40
0.6251297497727369
 40
0.7502051450207239
 40
0.8750379003470239
 40
1.0
 40
1.0
 40
1.0
 40
1.0
 10
350.3860081942589
 20
62.19720158322474
 30
0.0
 10
350.3860028037848
 20
62.19838987327085
 30
0.0
 10
350.3859947155374
 20
62.20017286745217
 30
0.0
 10
350.3859445755124
 20
62.20255035669479
 30
0.0
 10
350.38584282166
 20
62.20612170471207
 30
0.0
 10
350.3856035214283
 20
62.21100429238727
 30
0.0
 10
350.3850479436201
 20
62.2181420639897
 30
0.0
 10
350.3842874789262
 20
62.22506293750941
 30
0.0
 10
350.383103348132
 20
62.23330663228943
 30
0.0
 10
350.3814078568397
 20
62.2427073914775
 30
0.0
 10
350.379111521526
 20
62.25266512168151
 30
0.0
 10
350.3760982586936
 20
62.2634538601789
 30
0.0
 10
350.3727388974834
 20
62.2735847301506
 30
0.0
 10
350.3685999851012
 20
62.2841754666242
 30
0.0
 10
350.3618533114196
 20
62.2993326096105
 30
0.0
 10
350.3521683213759
 20
62.31697593519771
 30
0.0
 10
350.3334220054802
 20
62.34402878133702
 30
0.0
 10
350.3061131832367
 20
62.3731042682286
 30
0.0
 10
350.2665261192849
 20
62.4015970792769
 30
0.0
 10
350.2227436268399
 20
62.42199776535372
 30
0.0
 10
350.1762574613626
 20
62.43479992008952
 30
0.0
 10
350.1444146396681
 20
62.43640075254146
 30
0.0
 10
350.1284849846792
 20
62.43720158322473
 30
0.0
  0
LINE
  5
2B8
330
1F
100
AcDbEntity
  8
0
  6
Continuous
 62
     7
370
     0
100
AcDbLine
 10
350.3860097464
 20
60.8191809016
 30
0.0
 11
350.3860097464
 21
62.1972011733
 31
0.0
  0
SPLINE
  5
2B9
330
1F
100
AcDbEntity
  8
0
  6
Continuous
 62
     7
370
     0
100
AcDbSpline
210
0.0
220
0.0
230
1.0
 70
     8
 71
     3
 72
    19
 73
    15
 74
     0
 42
0.00000001
 43
0.00000001
 12
1.0
 22
0.0
 32
0.0
 13
1.0
 23
0.0
 33
0.0
 40
0.0
 40
0.0
 40
0.0
 40
0.0
 40
0.1250006416628563
 40
0.2502623960966813
 40
0.499421620974718
 40
0.5244775300516055
 40
0.5620243107174561
 40
0.6244263663797656
 40
0.6742016968146897
 40
0.7492038498809189
 40
0.8208546615626593
 40
0.8745610378735048
 40
0.9245456457139801
 40
1.0
 40
1.0
 40
1.0
 40
1.0
 10
350.5230953058564
 20
60.60693722232986
 30
0.0
 10
350.5135356465262
 20
60.61209274530042
 30
0.0
 10
350.4943963587752
 20
60.6224145605694
 30
0.0
 10
350.4595948873496
 20
60.64894163920746
 30
0.0
 10
350.4357418984263
 20
60.67556180590876
 30
0.0
 10
350.4206844234681
 20
60.69880212480848
 30
0.0
 10
350.41496026035
 20
60.7083407704017
 30
0.0
 10
350.4087390478601
 20
60.72016997178567
 30
0.0
 10
350.4019383351021
 20
60.73547164071577
 30
0.0
 10
350.3960029158419
 20
60.7520769102783
 30
0.0
 10
350.3913964789606
 20
60.76950746315471
 30
0.0
 10
350.3885144192639
 20
60.78503196293605
 30
0.0
 10
350.3864699735345
 20
60.80105952296606
 30
0.0
 10
350.3861816358531
 20
60.81237443779558
 30
0.0
 10
350.3860081942589
 20
60.81918061330747
 30
0.0
  0
SPLINE
  5
2BA
330
1F
100
AcDbEntity
  8
0
  6
Continuous
 62
     7
370
     0
100
AcDbSpline
210
0.0
220
0.0
230
1.0
 70
     8
 71
     3
 72
    20
 73
    16
 74
     0
 42
0.00000001
 43
0.00000001
 12
1.0
 22
0.0
 32
0.0
 13
1.0
 23
0.0
 33
0.0
 40
0.0
 40
0.0
 40
0.0
 40
0.0
 40
0.0418126887407174
 40
0.0836810764860845
 40
0.125649151687862
 40
0.1879450543345465
 40
0.2505154491165214
 40
0.3749880897618789
 40
0.4994116289502549
 40
0.6240041223416165
 40
0.748908124456947
 40
0.8114610061062881
 40
0.8742349045046561
 40
0.9370343431632534
 40
1.0
 40
1.0
 40
1.0
 40
1.0
 10
355.1507255155993
 20
55.75322005489365
 30
0.0
 10
355.1121600501712
 20
55.84230426147395
 30
0.0
 10
355.0349777459615
 20
56.02059134439214
 30
0.0
 10
354.9087560671298
 20
56.28302518298337
 30
0.0
 10
354.7533747336125
 20
56.58335522968537
 30
0.0
 10
354.5629008970287
 20
56.91839283285199
 30
0.0
 10
354.2561848921096
 20
57.40420750908751
 30
0.0
 10
353.8330608259518
 20
57.98180922405814
 30
0.0
 10
353.2679505343684
 20
58.62271612456689
 30
0.0
 10
352.6501133516151
 20
59.20924423024951
 30
0.0
 10
352.0956359278483
 20
59.65026753677535
 30
0.0
 10
351.6306670389597
 20
59.97359336419235
 30
0.0
 10
351.2712574345842
 20
60.20087313902171
 30
0.0
 10
350.902601480436
 20
60.41403033098051
 30
0.0
 10
350.6497087764261
 20
60.54257829315665
 30
0.0
 10
350.5230953058563
 20
60.60693722232986
 30
0.0
  0
SPLINE
  5
2BB
330
1F
100
AcDbEntity
  8
0
  6
Continuous
 62
     7
370
     0
100
AcDbSpline
210
0.0
220
0.0
230
1.0
 70
     8
 71
     3
 72
    17
 73
    13
 74
     0
 42
0.00000001
 43
0.00000001
 12
1.0
 22
0.0
 32
0.0
 13
1.0
 23
0.0
 33
0.0
 40
0.0
 40
0.0
 40
0.0
 40
0.0
 40
0.0621723318235631
 40
0.1251049378623834
 40
0.2499151775045554
 40
0.3750727763728038
 40
0.4998271154341076
 40
0.6247872804329342
 40
0.7495635288832965
 40
0.8743572754732749
 40
0.9373792576051546
 40
1.0
 40
1.0
 40
1.0
 40
1.0
 10
355.5123695377948
 20
55.64170656969026
 30
0.0
 10
355.5046780675024
 20
55.63727568327823
 30
0.0
 10
355.4892010717912
 20
55.62835972736995
 30
0.0
 10
355.4563443548081
 20
55.61493434375731
 30
0.0
 10
355.41320960117
 20
55.60447033881118
 30
0.0
 10
355.3602385807668
 20
55.60304173485929
 30
0.0
 10
355.3079853438333
 20
55.61253623630433
 30
0.0
 10
355.2584860065502
 20
55.63272445321056
 30
0.0
 10
355.2139048667266
 20
55.66339883801204
 30
0.0
 10
355.1827541286144
 20
55.69702424164149
 30
0.0
 10
355.1624771597639
 20
55.72788007453973
 30
0.0
 10
355.1546343816898
 20
55.74479139686466
 30
0.0
 10
355.1507255155993
 20
55.75322005489362
 30
0.0
  0
SPLINE
  5
2BC
330
1F
100
AcDbEntity
  8
0
  6
Continuous
 62
     7
370
     0
100
AcDbSpline
210
0.0
220
0.0
230
1.0
 70
     8
 71
     3
 72
    13
 73
     9
 74
     0
 42
0.00000001
 43
0.00000001
 12
1.0
 22
0.0
 32
0.0
 13
1.0
 23
0.0
 33
0.0
 40
0.0
 40
0.0
 40
0.0
 40
0.0
 40
0.1266167745159731
 40
0.252297479005167
 40
0.3770423511981333
 40
0.5008516342179488
 40
0.7521519037574755
 40
1.0
 40
1.0
 40
1.0
 40
1.0
 10
361.9420854246316
 20
59.7301532962418
 30
0.0
 10
361.6749024874525
 20
59.55606439887898
 30
0.0
 10
361.1425118801167
 20
59.20917363266466
 30
0.0
 10
360.3424963316592
 20
58.69227306517501
 30
0.0
 10
359.5453378369357
 20
58.18032912125572
 30
0.0
 10
358.4759792838466
 20
57.49824557183723
 30
0.0
 10
357.1357823687948
 20
56.65096997001167
 30
0.0
 10
356.0510063319886
 20
55.97657296477193
 30
0.0
 10
355.5123695377948
 20
55.64170656969029
 30
0.0
  0
SPLINE
  5
2BD
330
1F
100
AcDbEntity
  8
0
  6
Continuous
 62
     7
370
     0
100
AcDbSpline
210
0.0
220
0.0
230
1.0
 70
     8
 71
     3
 72
    40
 73
    36
 74
     0
 42
0.00000001
 43
0.00000001
 12
1.0
 22
0.0
 32
0.0
 13
1.0
 23
0.0
 33
0.0
 40
0.0
 40
0.0
 40
0.0
 40
0.0
 40
0.0077881213502354
 40
0.011686244239343
 40
0.0155868609333497
 40
0.0218326414430786
 40
0.0265205842676588
 40
0.0312113140385898
 40
0.0351221991512614
 40
0.0390346790140474
 40
0.0429485952022597
 40
0.0468637873047982
 40
0.0546972662155683
 40
0.0586153063075978
 40
0.0625339642333031
 40
0.0750754590063253
 40
0.0826004286329105
 40
0.0882432361186456
 40
0.0938846607032567
 40
0.097801247923597
 40
0.101716751644736
 40
0.1095437476185504
 40
0.1251766544068135
 40
0.1875809507659406
 40
0.2502289975089567
 40
0.3749775706639354
 40
0.499715975183956
 40
0.5712429669418503
 40
0.6246904751396702
 40
0.6872594477173333
 40
0.749749056783901
 40
0.8120849858315782
 40
0.8746463011136685
 40
0.9374030406596023
 40
1.0
 40
1.0
 40
1.0
 40
1.0
 10
362.3015977612037
 20
59.52773934924672
 30
0.0
 10
362.3015911189635
 20
59.52912592972534
 30
0.0
 10
362.3015811521387
 20
59.53120652367118
 30
0.0
 10
362.3015193477752
 20
59.53398077598082
 30
0.0
 10
362.3014441888284
 20
59.53647984246906
 30
0.0
 10
362.3013348428536
 20
59.5391182552486
 30
0.0
 10
362.3011867676399
 20
59.54189524209988
 30
0.0
 10
362.3010367465523
 20
59.54425555364429
 30
0.0
 10
362.3008748324467
 20
59.54647642049796
 30
0.0
 10
362.3007054120571
 20
59.54855779485722
 30
0.0
 10
362.300518426115
 20
59.55063812751912
 30
0.0
 10
362.3002457233886
 20
59.55341051546835
 30
0.0
 10
362.2999381215268
 20
59.55617939332971
 30
0.0
 10
362.299595837083
 20
59.558943828739
 30
0.0
 10
362.2991207769171
 20
59.56253418501358
 30
0.0
 10
362.2984877750386
 20
59.56674816508949
 30
0.0
 10
362.297713565244
 20
59.57124586816204
 30
0.0
 10
362.2971013379237
 20
59.57452648735583
 30
0.0
 10
362.2965749111532
 20
59.57717039184471
 30
0.0
 10
362.2960845848141
 20
59.57950797864039
 30
0.0
 10
362.295492178892
 20
59.58221892094767
 30
0.0
 10
362.2943972533973
 20
59.5869424367903
 30
0.0
 10
362.2905965200333
 20
59.60165045139482
 30
0.0
 10
362.2823035172167
 20
59.62509579407446
 30
0.0
 10
362.2623871986449
 20
59.66396193075739
 30
0.0
 10
362.2284055194735
 20
59.70617283848619
 30
0.0
 10
362.1843400515824
 20
59.73785031698446
 30
0.0
 10
362.1466221538927
 20
59.75445454986351
 30
0.0
 10
362.1171347981837
 20
59.76295203526696
 30
0.0
 10
362.0883852660577
 20
59.76746491749779
 30
0.0
 10
362.0579048194458
 20
59.76820784303635
 30
0.0
 10
362.0275583667391
 20
59.76483211389733
 30
0.0
 10
361.9978032243122
 20
59.75737697251763
 30
0.0
 10
361.9689054167736
 20
59.74622395686918
 30
0.0
 10
361.951017821961
 20
59.73550562913258
 30
0.0
 10
361.9420854246315
 20
59.73015329624183
 30
0.0
  0
LINE
  5
2BE
330
1F
100
AcDbEntity
  8
0
  6
Continuous
 62
     7
370
     0
100
AcDbLine
 10
362.3015966352
 20
54.8518041479
 30
0.0
 11
362.3015966352
 21
59.5277401018
 31
0.0
  0
SPLINE
  5
2BF
330
1F
100
AcDbEntity
  8
0
  6
Continuous
 62
     7
370
     0
100
AcDbSpline
210
0.0
220
0.0
230
1.0
 70
     8
 71
     3
 72
    17
 73
    13
 74
     0
 42
0.00000001
 43
0.00000001
 12
1.0
 22
0.0
 32
0.0
 13
1.0
 23
0.0
 33
0.0
 40
0.0
 40
0.0
 40
0.0
 40
0.0
 40
0.1253292819827427
 40
0.2501900092005667
 40
0.3126685577458751
 40
0.3749528748183385
 40
0.4999899402998063
 40
0.5817742126744734
 40
0.6429595014113998
 40
0.7498151516487161
 40
0.8750742076898578
 40
1.0
 40
1.0
 40
1.0
 40
1.0
 10
362.193503769049
 20
54.64939109698851
 30
0.0
 10
362.201363941696
 20
54.6549460855905
 30
0.0
 10
362.2170549010293
 20
54.66603529497123
 30
0.0
 10
362.2345531077932
 20
54.68306580094702
 30
0.0
 10
362.2473978677601
 20
54.69783309161132
 30
0.0
 10
362.2593491575595
 20
54.71350742189675
 30
0.0
 10
362.2707147400364
 20
54.731716943016
 30
0.0
 10
362.2802076223709
 20
54.75102165939399
 30
0.0
 10
362.2878185009226
 20
54.76968096997174
 30
0.0
 10
362.2948488898744
 20
54.7924319370552
 30
0.0
 10
362.3004625875888
 20
54.82110988626931
 30
0.0
 10
362.301219706177
 20
54.84158241502596
 30
0.0
 10
362.3015977612037
 20
54.85180504398358
 30
0.0
  0
SPLINE
  5
2C0
330
1F
100
AcDbEntity
  8
0
  6
Continuous
 62
     7
370
     0
100
AcDbSpline
210
0.0
220
0.0
230
1.0
 70
     8
 71
     3
 72
    11
 73
     7
 74
     0
 42
0.00000001
 43
0.00000001
 12
1.0
 22
0.0
 32
0.0
 13
1.0
 23
0.0
 33
0.0
 40
0.0
 40
0.0
 40
0.0
 40
0.0
 40
0.2474762470424408
 40
0.4966348299329926
 40
0.7474759991093447
 40
0.9999999999999999
 40
0.9999999999999999
 40
0.9999999999999999
 40
0.9999999999999999
 10
359.135489453761
 20
27.142175345942
 30
0.0
 10
359.3863219123879
 20
27.24639057724425
 30
0.0
 10
359.8896919809121
 20
27.45552949175731
 30
0.0
 10
360.6438531534158
 20
27.77136951033567
 30
0.0
 10
361.4007387966143
 20
28.09004772442233
 30
0.0
 10
361.9045923541731
 20
28.30390857500129
 30
0.0
 10
362.1573613651891
 20
28.41119648611141
 30
0.0
  0
SPLINE
  5
2C1
330
1F
100
AcDbEntity
  8
0
  6
Continuous
 62
     7
370
     0
100
AcDbSpline
210
0.0
220
0.0
230
1.0
 70
     8
 71
     3
 72
    22
 73
    18
 74
     0
 42
0.00000001
 43
0.00000001
 12
1.0
 22
0.0
 32
0.0
 13
1.0
 23
0.0
 33
0.0
 40
0.0
 40
0.0
 40
0.0
 40
0.0
 40
0.0155520851384165
 40
0.0311270433554302
 40
0.0623329566598027
 40
0.1248793871112215
 40
0.196375668892419
 40
0.2498399714686795
 40
0.3210551715807844
 40
0.3746722311416653
 40
0.4104563627347665
 40
0.4372890081146235
 40
0.4997700659542693
 40
0.6244830128103637
 40
0.7495507511454943
 40
0.8746105829060523
 40
1.0
 40
1.0
 40
1.0
 40
1.0
 10
358.9874333594425
 20
26.92044425813931
 30
0.0
 10
358.9874418624235
 20
26.92195193782097
 30
0.0
 10
358.9874588808911
 20
26.92496951458958
 30
0.0
 10
358.9876401325656
 20
26.9310096260905
 30
0.0
 10
358.9882473674041
 20
26.94159016542926
 30
0.0
 10
358.9900758029448
 20
26.95750547856855
 30
0.0
 10
358.993571712678
 20
26.97531182664529
 30
0.0
 10
358.9985933529111
 20
26.99355030399795
 30
0.0
 10
359.0044038015852
 20
27.00967862805973
 30
0.0
 10
359.0106744193564
 20
27.0237037049438
 30
0.0
 10
359.0157191858966
 20
27.03356392691337
 30
0.0
 10
359.0215189230207
 20
27.04394157804825
 30
0.0
 10
359.0323232715486
 20
27.06110025761422
 30
0.0
 10
359.0507046276075
 20
27.08408383515827
 30
0.0
 10
359.0762127847898
 20
27.10784387556117
 30
0.0
 10
359.1045177546836
 20
27.12781083091657
 30
0.0
 10
359.1251565007
 20
27.13738297536121
 30
0.0
 10
359.1354894537608
 20
27.14217534594225
 30
0.0
  0
LINE
  5
2C2
330
1F
100
AcDbEntity
  8
0
  6
Continuous
 62
     7
370
     0
100
AcDbLine
 10
358.9874330993
 20
19.7688045311
 30
0.0
 11
358.9874330993
 21
26.9204445514
 31
0.0
  0
SPLINE
  5
2C3
330
1F
100
AcDbEntity
  8
0
  6
Continuous
 62
     7
370
     0
100
AcDbSpline
210
0.0
220
0.0
230
1.0
 70
     8
 71
     3
 72
    20
 73
    16
 74
     0
 42
0.00000001
 43
0.00000001
 12
1.0
 22
0.0
 32
0.0
 13
1.0
 23
0.0
 33
0.0
 40
0.0
 40
0.0
 40
0.0
 40
0.0
 40
0.1248466390527492
 40
0.2499018537218946
 40
0.3744340808409843
 40
0.4994690648009617
 40
0.5618928201037214
 40
0.5930085189054161
 40
0.6241016880764633
 40
0.6954634403904659
 40
0.7491355012712554
 40
0.8308162168380469
 40
0.8919060215697294
 40
0.9536785982841942
 40
1.0
 40
1.0
 40
1.0
 40
1.0
 10
359.135489453761
 20
19.54707349949973
 30
0.0
 10
359.125204452637
 20
19.55185094613774
 30
0.0
 10
359.104617267704
 20
19.56141382087714
 30
0.0
 10
359.076371558859
 20
19.58127883126517
 30
0.0
 10
359.0508500386864
 20
19.60499388954927
 30
0.0
 10
359.0325056035014
 20
19.62797232093138
 30
0.0
 10
359.0214137268107
 20
19.64544997964225
 30
0.0
 10
359.0156381250766
 20
19.65579195540586
 30
0.0
 10
359.0098600651742
 20
19.66713188617224
 30
0.0
 10
359.0039112307936
 20
19.68085525536608
 30
0.0
 10
358.9973794287734
 20
19.69961683095539
 30
0.0
 10
358.9925769724134
 20
19.71797902801985
 30
0.0
 10
358.9892711572426
 20
19.73749784220318
 30
0.0
 10
358.9876829390587
 20
19.75383403347272
 30
0.0
 10
358.9875082281354
 20
19.76431373258835
 30
0.0
 10
358.9874333594425
 20
19.76880458730241
 30
0.0
  0
SPLINE
  5
2C4
330
1F
100
AcDbEntity
  8
0
  6
Continuous
 62
     7
370
     0
100
AcDbSpline
210
0.0
220
0.0
230
1.0
 70
     8
 71
     3
 72
    11
 73
     7
 74
     0
 42
0.00000001
 43
0.00000001
 12
1.0
 22
0.0
 32
0.0
 13
1.0
 23
0.0
 33
0.0
 40
0.0
 40
0.0
 40
0.0
 40
0.0
 40
0.2525240008907028
 40
0.5033651700670676
 40
0.7525237529576062
 40
1.0
 40
1.0
 40
1.0
 40
1.0
 10
362.1573613651892
 20
18.27805235933031
 30
0.0
 10
361.9045923541731
 20
18.38534027044047
 30
0.0
 10
361.4007387966143
 20
18.59920112101948
 30
0.0
 10
360.6438531534157
 20
18.91787933510611
 30
0.0
 10
359.889691980912
 20
19.23371935368446
 30
0.0
 10
359.3863219123879
 20
19.44285826819749
 30
0.0
 10
359.1354894537611
 20
19.54707349949972
 30
0.0
  0
SPLINE
  5
2C5
330
1F
100
AcDbEntity
  8
0
  6
Continuous
 62
     7
370
     0
100
AcDbSpline
210
0.0
220
0.0
230
1.0
 70
     8
 71
     3
 72
    22
 73
    18
 74
     0
 42
0.00000001
 43
0.00000001
 12
1.0
 22
0.0
 32
0.0
 13
1.0
 23
0.0
 33
0.0
 40
0.0
 40
0.0
 40
0.0
 40
0.0
 40
0.0155522875821646
 40
0.031127136121577
 40
0.0623321824091877
 40
0.1248766438992924
 40
0.1963765436355966
 40
0.2498534631938478
 40
0.3210498101313694
 40
0.3746543597241344
 40
0.4372579802885334
 40
0.4730021030696832
 40
0.4997665102919838
 40
0.6244400923825646
 40
0.7495137647452034
 40
0.874554176131579
 40
1.0
 40
1.0
 40
1.0
 40
1.0
 10
362.3015977612037
 20
18.05632127152758
 30
0.0
 10
362.3015895703722
 20
18.05782193841146
 30
0.0
 10
362.3015731768273
 20
18.06082544912467
 30
0.0
 10
362.3013985397112
 20
18.0668374085239
 30
0.0
 10
362.3008133161396
 20
18.07736894796181
 30
0.0
 10
362.2990502754366
 20
18.09321370616894
 30
0.0
 10
362.2956764231802
 20
18.11095065678277
 30
0.0
 10
362.2908280998814
 20
18.12912895474917
 30
0.0
 10
362.2852144950279
 20
18.14521729030333
 30
0.0
 10
362.2781336610469
 20
18.16155597129128
 30
0.0
 10
362.2715485577799
 20
18.17432939695892
 30
0.0
 10
362.2655709236516
 20
18.18446624540501
 30
0.0
 10
362.2561144472385
 20
18.19924676839109
 30
0.0
 10
362.240286048211
 20
18.21965343018973
 30
0.0
 10
362.2154108797479
 20
18.24350666060712
 30
0.0
 10
362.1877361625179
 20
18.26359933069948
 30
0.0
 10
362.1674972165572
 20
18.2732294876439
 30
0.0
 10
362.1573613651893
 20
18.27805235933043
 30
0.0
  0
LINE
  5
2C6
330
1F
100
AcDbEntity
  8
0
  6
Continuous
 62
     7
370
     0
100
AcDbLine
 10
362.3015966352
 20
13.3803861546
 30
0.0
 11
362.3015966352
 21
18.0563221085
 31
0.0
  0
SPLINE
  5
2C7
330
1F
100
AcDbEntity
  8
0
  6
Continuous
 62
     7
370
     0
100
AcDbSpline
210
0.0
220
0.0
230
1.0
 70
     8
 71
     3
 72
    31
 73
    27
 74
     0
 42
0.00000001
 43
0.00000001
 12
1.0
 22
0.0
 32
0.0
 13
1.0
 23
0.0
 33
0.0
 40
0.0
 40
0.0
 40
0.0
 40
0.0
 40
0.0622605175902843
 40
0.1250256861668586
 40
0.2496664998511164
 40
0.3122826578492913
 40
0.3746963376510049
 40
0.4370852886263821
 40
0.4996807631570533
 40
0.6242106665140736
 40
0.6868122189130124
 40
0.7491467769178191
 40
0.8116417391222023
 40
0.8429889886052596
 40
0.8586543464627416
 40
0.8743015050856483
 40
0.8906230721467745
 40
0.9003991221607639
 40
0.9150765221685868
 40
0.9274204469391525
 40
0.9459534808127615
 40
0.9583146550766714
 40
0.9768525192157982
 40
0.9814851763846865
 40
0.9861165283708566
 40
1.0
 40
1.0
 40
1.0
 40
1.0
 10
361.9782925147687
 20
13.15865587846172
 30
0.0
 10
361.9870609440229
 20
13.15530092851322
 30
0.0
 10
362.0046688748041
 20
13.14856383515774
 30
0.0
 10
362.0412638150349
 20
13.14070573573712
 30
0.0
 10
362.0788216317623
 20
13.13931688490306
 30
0.0
 10
362.1157155173968
 20
13.14490767302
 30
0.0
 10
362.142830198013
 20
13.15242366729585
 30
0.0
 10
362.168959138224
 20
13.1633596226701
 30
0.0
 10
362.2019925978017
 20
13.18213628433351
 30
0.0
 10
362.2317981824473
 20
13.20730152034422
 30
0.0
 10
362.2565854585042
 20
13.23774988572801
 30
0.0
 10
362.2724869042837
 20
13.26301198266321
 30
0.0
 10
362.2830660656527
 20
13.28581837487264
 30
0.0
 10
362.2890180742693
 20
13.30248320593655
 30
0.0
 10
362.2919887979194
 20
13.31218777993647
 30
0.0
 10
362.2940226538912
 20
13.31964353681766
 30
0.0
 10
362.295599553616
 20
13.32624119751064
 30
0.0
 10
362.2969718933685
 20
13.33273002975926
 30
0.0
 10
362.2980651158891
 20
13.3386214885926
 30
0.0
 10
362.2992205561146
 20
13.3459551402179
 30
0.0
 10
362.3001044433153
 20
13.35295385596555
 30
0.0
 10
362.3008701587128
 20
13.36098597961752
 30
0.0
 10
362.3012450280751
 20
13.36677788103414
 30
0.0
 10
362.3014329311123
 20
13.37131495669268
 30
0.0
 10
362.3015581192894
 20
13.37509404455171
 30
0.0
 10
362.301580773662
 20
13.37811881826838
 30
0.0
 10
362.3015977612039
 20
13.3803869662644
 30
0.0
  0
SPLINE
  5
2C8
330
1F
100
AcDbEntity
  8
0
  6
Continuous
 62
     7
370
     0
100
AcDbSpline
210
0.0
220
0.0
230
1.0
 70
     8
 71
     3
 72
    16
 73
    12
 74
     0
 42
0.00000001
 43
0.00000001
 12
1.0
 22
0.0
 32
0.0
 13
1.0
 23
0.0
 33
0.0
 40
0.0
 40
0.0
 40
0.0
 40
0.0
 40
0.081764420801657
 40
0.1641053442059131
 40
0.2470229468937994
 40
0.3305174018838629
 40
0.4145888786315794
 40
0.499237543125476
 40
0.6635129085595396
 40
0.83043337525457
 40
1.0
 40
1.0
 40
1.0
 40
1.0
 10
350.7412087482413
 20
17.71711516798289
 30
0.0
 10
351.0543260496142
 20
17.59550898274815
 30
0.0
 10
351.6827683722627
 20
17.35143919432607
 30
0.0
 10
352.6245033931364
 20
16.98218053441537
 30
0.0
 10
353.569598999834
 20
16.60898778641017
 30
0.0
 10
354.517619516627
 20
16.23172479065448
 30
0.0
 10
355.46849736608
 20
15.85042543776847
 30
0.0
 10
356.7189432907463
 20
15.34514359476305
 30
0.0
 10
358.2708520357735
 20
14.71069475506197
 30
0.0
 10
360.1253271685864
 20
13.94189924482912
 30
0.0
 10
361.357407676909
 20
13.42110219540647
 30
0.0
 10
361.9782925147687
 20
13.15865587846178
 30
0.0
  0
SPLINE
  5
2C9
330
1F
100
AcDbEntity
  8
0
  6
Continuous
 62
     7
370
     0
100
AcDbSpline
210
0.0
220
0.0
230
1.0
 70
     8
 71
     3
 72
    41
 73
    37
 74
     0
 42
0.00000001
 43
0.00000001
 12
1.0
 22
0.0
 32
0.0
 13
1.0
 23
0.0
 33
0.0
 40
0.0
 40
0.0
 40
0.0
 40
0.0
 40
0.0077909115776798
 40
0.0116903899284346
 40
0.0155923483917407
 40
0.0312214094834155
 40
0.043745838692417
 40
0.0512673438263451
 40
0.056910959331823
 40
0.0625561458108967
 40
0.0664770954963784
 40
0.0703984026611906
 40
0.0743199010178697
 40
0.0782414232048937
 40
0.0821628009489949
 40
0.0841233878560193
 40
0.0860838752165527
 40
0.0880442418124011
 40
0.0900044663989265
 40
0.0919645277096264
 40
0.0939244044614703
 40
0.1118297958968875
 40
0.1252381935890023
 40
0.1408483080903761
 40
0.156441169760246
 40
0.1877212701956519
 40
0.2504166065563911
 40
0.3752965120950723
 40
0.5001874178299662
 40
0.5628545144256429
 40
0.6253309534063642
 40
0.6878120885951442
 40
0.7504226377993838
 40
0.8750654003834164
 40
0.9377753621101752
 40
1.0
 40
1.0
 40
1.0
 40
1.0
 10
350.3860081942589
 20
17.49538408018015
 30
0.0
 10
350.3860147749406
 20
17.49669698748919
 30
0.0
 10
350.386024649361
 20
17.49866702632606
 30
0.0
 10
350.3860858291993
 20
17.50129386382061
 30
0.0
 10
350.3862099739597
 20
17.50524010355547
 30
0.0
 10
350.3865018455211
 20
17.51063471648603
 30
0.0
 10
350.387016223542
 20
17.51662300292361
 30
0.0
 10
350.3874829595927
 20
17.52092447561922
 30
0.0
 10
350.3878706498079
 20
17.52406814155642
 30
0.0
 10
350.3882158405787
 20
17.52660554276307
 30
0.0
 10
350.3885456564021
 20
17.52885187901445
 30
0.0
 10
350.3888502296703
 20
17.53080831941397
 30
0.0
 10
350.3891716792352
 20
17.53276187931386
 30
0.0
 10
350.389509948114
 20
17.53471231842118
 30
0.0
 10
350.3898058135423
 20
17.53633491684043
 30
0.0
 10
350.3900508622368
 20
17.53763121142677
 30
0.0
 10
350.3902388151723
 20
17.538602486451
 30
0.0
 10
350.3904309303524
 20
17.53957280117608
 30
0.0
 10
350.3906272005822
 20
17.54054212515243
 30
0.0
 10
350.3908276191763
 20
17.541510430795
 30
0.0
 10
350.391586946727
 20
17.54510089132908
 30
0.0
 10
350.3928639106941
 20
17.55054742206101
 30
0.0
 10
350.3949278884622
 20
17.55815324463613
 30
0.0
 10
350.3971215428338
 20
17.56531142093365
 30
0.0
 10
350.4005433591411
 20
17.57521128724119
 30
0.0
 10
350.407438285675
 20
17.59221377572972
 30
0.0
 10
350.424514031283
 20
17.62456915125363
 30
0.0
 10
350.4575550598241
 20
17.66502290832332
 30
0.0
 10
350.498909395866
 20
17.69569541376721
 30
0.0
 10
350.5351978289347
 20
17.7138295523816
 30
0.0
 10
350.5636863458491
 20
17.72424989614236
 30
0.0
 10
350.5930707098053
 20
17.73134101493773
 30
0.0
 10
350.6328943955645
 20
17.73649128508922
 30
0.0
 10
350.6732778251711
 20
17.73489488851358
 30
0.0
 10
350.7127037229679
 20
17.72708997070943
 30
0.0
 10
350.7317317120057
 20
17.72043148031643
 30
0.0
 10
350.7412087482413
 20
17.71711516798286
 30
0.0
  0
LINE
  5
2CA
330
1F
100
AcDbEntity
  8
0
  6
Continuous
 62
     7
370
     0
100
AcDbLine
 10
350.3860097464
 20
14.6772006857
 30
0.0
 11
350.3860097464
 21
17.4953846591
 31
0.0
  0
SPLINE
  5
2CB
330
1F
100
AcDbEntity
  8
0
  6
Continuous
 62
     7
370
     0
100
AcDbSpline
210
0.0
220
0.0
230
1.0
 70
     8
 71
     3
 72
    26
 73
    22
 74
     0
 42
0.00000001
 43
0.00000001
 12
1.0
 22
0.0
 32
0.0
 13
1.0
 23
0.0
 33
0.0
 40
0.0
 40
0.0
 40
0.0
 40
0.0
 40
0.1249375112674168
 40
0.2498538541306494
 40
0.3746698359440723
 40
0.4994292369911305
 40
0.6242333403219703
 40
0.7488767914289606
 40
0.7801293217551452
 40
0.7957958025738496
 40
0.8114789905365706
 40
0.8365886409321238
 40
0.8516560504428742
 40
0.8742425746178883
 40
0.8906129746550956
 40
0.9151208848463577
 40
0.9273492665027779
 40
0.9457328774305477
 40
0.9674397812722937
 40
0.9804668420477091
 40
1.0
 40
1.0
 40
1.0
 40
1.0
 10
350.1284849846792
 20
14.43720158322471
 30
0.0
 10
350.1444072212627
 20
14.43800775152137
 30
0.0
 10
350.1762489966945
 20
14.43961995152403
 30
0.0
 10
350.2227159297241
 20
14.45237549049188
 30
0.0
 10
350.2664282893664
 20
14.472811012683
 30
0.0
 10
350.3060311366223
 20
14.50116525438861
 30
0.0
 10
350.3395930438007
 20
14.53704788801501
 30
0.0
 10
350.3591652137652
 20
14.56879433269447
 30
0.0
 10
350.3683143209518
 20
14.58960509925119
 30
0.0
 10
350.3713478448258
 20
14.59733655222142
 30
0.0
 10
350.3738969216846
 20
14.60438661111637
 30
0.0
 10
350.376176815594
 20
14.61145533603311
 30
0.0
 10
350.3784642920141
 20
14.61948666852957
 30
0.0
 10
350.3802094815184
 20
14.62646740280618
 30
0.0
 10
350.3819806552687
 20
14.63473746895373
 30
0.0
 10
350.3832134011898
 20
14.64171362277094
 30
0.0
 10
350.384252688702
 20
14.64899388270935
 30
0.0
 10
350.3850454044053
 20
14.65593278476661
 30
0.0
 10
350.3855911526412
 20
14.66300510878969
 30
0.0
 10
350.3859395886159
 20
14.67024420349624
 30
0.0
 10
350.3859824695901
 20
14.67459281401391
 30
0.0
 10
350.3860081942589
 20
14.67720158322473
 30
0.0
  0
LINE
  5
2CC
330
1F
100
AcDbEntity
  8
0
  6
Continuous
 62
     7
370
     0
100
AcDbLine
 10
345.400012293
 20
14.4372007209
 30
0.0
 11
350.1284841533
 21
14.4372007209
 31
0.0
  0
SPLINE
  5
2CD
330
1F
100
AcDbEntity
  8
0
  6
Continuous
 62
     7
370
     0
100
AcDbSpline
210
0.0
220
0.0
230
1.0
 70
     8
 71
     3
 72
    27
 73
    23
 74
     0
 42
0.00000001
 43
0.00000001
 12
1.0
 22
0.0
 32
0.0
 13
1.0
 23
0.0
 33
0.0
 40
0.0
 40
0.0
 40
0.0
 40
0.0
 40
0.0088986642598488
 40
0.0133523345595945
 40
0.01780869851493
 40
0.0356575523202553
 40
0.0499604154732304
 40
0.0714414957108387
 40
0.0878211941940455
 40
0.1123906136929622
 40
0.1430638936348309
 40
0.1644846193824979
 40
0.1773078714206706
 40
0.1965597631748474
 40
0.2233651666922324
 40
0.2502241759380002
 40
0.3752115492990389
 40
0.5003595164810275
 40
0.6252443248213374
 40
0.7503227269953833
 40
0.8751319615200555
 40
1.0
 40
1.0
 40
1.0
 40
1.0
 10
345.13200643059
 20
14.67720158322473
 30
0.0
 10
345.1320122244037
 20
14.67599612880966
 30
0.0
 10
345.1320209179487
 20
14.67418735951842
 30
0.0
 10
345.1320747876592
 20
14.67177552571564
 30
0.0
 10
345.1321840949467
 20
14.6681524623575
 30
0.0
 10
345.1324410862272
 20
14.66319931201987
 30
0.0
 10
345.1330373371916
 20
14.6559595818124
 30
0.0
 10
345.1338529756015
 20
14.64894162505106
 30
0.0
 10
345.1351220697027
 20
14.64058602570312
 30
0.0
 10
345.1369378350047
 20
14.63106387188342
 30
0.0
 10
345.1393944117166
 20
14.62098816997774
 30
0.0
 10
345.1418799312876
 20
14.61257615143642
 30
0.0
 10
345.144147343115
 20
14.60571892588357
 30
0.0
 10
345.146868604954
 20
14.59825440238157
 30
0.0
 10
345.1506232424356
 20
14.5891675973064
 30
0.0
 10
345.1608600681782
 20
14.56740320910358
 30
0.0
 10
345.1811673741925
 20
14.53590196216543
 30
0.0
 10
345.2165577486065
 20
14.50023059053331
 30
0.0
 10
345.2578026511943
 20
14.47210391961417
 30
0.0
 10
345.3030859250768
 20
14.45206710083506
 30
0.0
 10
345.3509519940424
 20
14.43955361714068
 30
0.0
 10
345.383656523891
 20
14.43798571762052
 30
0.0
 10
345.4000126400985
 20
14.43720158322471
 30
0.0
  0
LINE
  5
2CE
330
1F
100
AcDbEntity
  8
0
  6
Continuous
 62
     7
370
     0
100
AcDbLine
 10
345.1320055957
 20
14.6772006857
 30
0.0
 11
345.1320055957
 21
26.6860911953
 31
0.0
  0
SPLINE
  5
2CF
330
1F
100
AcDbEntity
  8
0
  6
Continuous
 62
     7
370
     0
100
AcDbSpline
210
0.0
220
0.0
230
1.0
 70
     8
 71
     3
 72
    20
 73
    16
 74
     0
 42
0.00000001
 43
0.00000001
 12
1.0
 22
0.0
 32
0.0
 13
1.0
 23
0.0
 33
0.0
 40
0.0
 40
0.0
 40
0.0
 40
0.0
 40
0.1249788024373204
 40
0.2501828332585156
 40
0.4991663214718849
 40
0.5616727532136218
 40
0.5928443025394075
 40
0.6239379179519762
 40
0.6951621252714584
 40
0.7488574676803563
 40
0.7816251795609848
 40
0.830731885080342
 40
0.891899263731169
 40
0.9535183949157569
 40
1.0
 40
1.0
 40
1.0
 40
1.0
 10
345.2975189012523
 20
26.90782249753311
 30
0.0
 10
345.2863550588605
 20
26.90319824119328
 30
0.0
 10
345.2640072553519
 20
26.89394139499018
 30
0.0
 10
345.2227272089879
 20
26.8683736421499
 30
0.0
 10
345.1911308760755
 20
26.83874248585753
 30
0.0
 10
345.1713726873144
 20
26.8114580085892
 30
0.0
 10
345.1647552849143
 20
26.80110788550068
 30
0.0
 10
345.1581145234335
 20
26.78974865653991
 30
0.0
 10
345.1512493766994
 20
26.7759272282066
 30
0.0
 10
345.1454725928774
 20
26.7614180483959
 30
0.0
 10
345.1412164629741
 20
26.74867410884003
 30
0.0
 10
345.1374478267485
 20
26.7349840555969
 30
0.0
 10
345.1341710626844
 20
26.71821395302641
 30
0.0
 10
345.1323004189771
 20
26.70146354727414
 30
0.0
 10
345.1320948304162
 20
26.69071368172055
 30
0.0
 10
345.13200643059
 20
26.68609140973039
 30
0.0
  0
SPLINE
  5
2D0
330
1F
100
AcDbEntity
  8
0
  6
Continuous
 62
     7
370
     0
100
AcDbSpline
210
0.0
220
0.0
230
1.0
 70
     8
 71
     3
 72
    19
 73
    15
 74
     0
 42
0.00000001
 43
0.00000001
 12
1.0
 22
0.0
 32
0.0
 13
1.0
 23
0.0
 33
0.0
 40
0.0
 40
0.0
 40
0.0
 40
0.0
 40
0.0508665406097119
 40
0.1013760161055711
 40
0.1515284848924873
 40
0.2013240066324329
 40
0.2507626422805292
 40
0.3769763785398035
 40
0.5011791328985726
 40
0.6270076606964013
 40
0.751004938151481
 40
0.8347471869793507
 40
0.917745383588795
 40
1.0
 40
1.0
 40
1.0
 40
1.0
 10
361.9782925147687
 20
33.53059296698
 30
0.0
 10
361.7051222849084
 20
33.41483705640692
 30
0.0
 10
361.1606993835288
 20
33.18413780078797
 30
0.0
 10
360.3427808766114
 20
32.84051031833181
 30
0.0
 10
359.5277007445342
 20
32.5002045470326
 30
0.0
 10
358.7152673215385
 20
32.16330454996093
 30
0.0
 10
357.4846388446866
 20
31.65634468884229
 30
0.0
 10
355.8371999266844
 20
30.98561644781916
 30
0.0
 10
353.7518305568466
 20
30.15071069789289
 30
0.0
 10
351.6612877509355
 20
29.3277110535663
 30
0.0
 10
349.7820419337788
 20
28.60021255958604
 30
0.0
 10
348.1336380755465
 20
27.97115203695744
 30
0.0
 10
346.7154694228419
 20
27.43563671049788
 30
0.0
 10
345.7687491043664
 20
27.08323200230416
 30
0.0
 10
345.2975189012523
 20
26.90782249753311
 30
0.0
  0
SPLINE
  5
2D1
330
1F
100
AcDbEntity
  8
0
  6
Continuous
 62
     7
370
     0
100
AcDbSpline
210
0.0
220
0.0
230
1.0
 70
     8
 71
     3
 72
    31
 73
    27
 74
     0
 42
0.00000001
 43
0.00000001
 12
1.0
 22
0.0
 32
0.0
 13
1.0
 23
0.0
 33
0.0
 40
0.0
 40
0.0
 40
0.0
 40
0.0
 40
0.0077888198876474
 40
0.0116869802036604
 40
0.0155874609839364
 40
0.0312094447351653
 40
0.0437272204548441
 40
0.0625262907357968
 40
0.0768601382346414
 40
0.0854617302997017
 40
0.098361448957572
 40
0.1091058105305885
 40
0.1252056762632215
 40
0.1408313831654305
 40
0.1564215907895413
 40
0.1876380216855807
 40
0.2502830382061221
 40
0.3750655843481145
 40
0.437733491655578
 40
0.5001579734696581
 40
0.5627521539298712
 40
0.625347759017523
 40
0.7501131969869126
 40
0.8748517544054883
 40
0.9375034102827764
 40
1.0
 40
1.0
 40
1.0
 40
1.0
 10
362.3015977612037
 20
33.30886187917729
 30
0.0
 10
362.3015921686879
 20
33.31013402666863
 30
0.0
 10
362.3015837772214
 20
33.31204286045373
 30
0.0
 10
362.3015317418506
 20
33.31458814675013
 30
0.0
 10
362.3014261228672
 20
33.31841162206343
 30
0.0
 10
362.3011776662024
 20
33.32363881823117
 30
0.0
 10
362.3006004910367
 20
33.33127972519581
 30
0.0
 10
362.2998100120838
 20
33.33868732195081
 30
0.0
 10
362.2988690829908
 20
33.34542602353616
 30
0.0
 10
362.2979324837208
 20
33.35118810572418
 30
0.0
 10
362.2969815454318
 20
33.35635092871393
 30
0.0
 10
362.2956637047927
 20
33.36267937083967
 30
0.0
 10
362.2940790098116
 20
33.36939561422079
 30
0.0
 10
362.2920817932679
 20
33.37680745991668
 30
0.0
 10
362.2891459360362
 20
33.38648329344028
 30
0.0
 10
362.2832047425887
 20
33.40314227381502
 30
0.0
 10
362.2683888422784
 20
33.43503000015455
 30
0.0
 10
362.2450874125199
 20
33.46754288076867
 30
0.0
 10
362.2170341855422
 20
33.49443883352279
 30
0.0
 10
362.1938872825758
 20
33.51173339529474
 30
0.0
 10
362.1690353776228
 20
33.52585787751496
 30
0.0
 10
362.1342080911234
 20
33.5404234305338
 30
0.0
 10
362.0881700418313
 20
33.55024960868008
 30
0.0
 10
362.0413394601615
 20
33.54856869760181
 30
0.0
 10
362.0047144673473
 20
33.54069586724101
 30
0.0
 10
361.9870925540934
 20
33.53395781745147
 30
0.0
 10
361.9782925147687
 20
33.53059296698001
 30
0.0
  0
LINE
  5
2D2
330
1F
100
AcDbEntity
  8
0
  6
Continuous
 62
     7
370
     0
100
AcDbLine
 10
362.3015966352
 20
28.6329279053
 30
0.0
 11
362.3015966352
 21
33.3088619965
 31
0.0
  0
SPLINE
  5
2D3
330
1F
100
AcDbEntity
  8
0
  6
Continuous
 62
     7
370
     0
100
AcDbSpline
210
0.0
220
0.0
230
1.0
 70
     8
 71
     3
 72
    20
 73
    16
 74
     0
 42
0.00000001
 43
0.00000001
 12
1.0
 22
0.0
 32
0.0
 13
1.0
 23
0.0
 33
0.0
 40
0.0
 40
0.0
 40
0.0
 40
0.0
 40
0.1248373376559766
 40
0.2498800959417884
 40
0.3744221221105526
 40
0.4994634234191474
 40
0.5244618272941103
 40
0.5618890660515525
 40
0.6240953061537501
 40
0.695479482775035
 40
0.7491507758843331
 40
0.830812730785605
 40
0.8919492388703195
 40
0.9536999243024777
 40
1.0
 40
1.0
 40
1.0
 40
1.0
 10
362.1573613651892
 20
28.41119648611144
 30
0.0
 10
362.1674444398579
 20
28.41600248441423
 30
0.0
 10
362.1876271809588
 20
28.42562238932045
 30
0.0
 10
362.2152464091778
 20
28.4456005225553
 30
0.0
 10
362.2401353739166
 20
28.46941727570708
 30
0.0
 10
362.2558382726119
 20
28.48969157930662
 30
0.0
 10
362.2653634031406
 20
28.50445104160064
 30
0.0
 10
362.2713560216585
 20
28.51452244989447
 30
0.0
 10
362.2787872145352
 20
28.52888479287154
 30
0.0
 10
362.2856892669222
 20
28.54531601509908
 30
0.0
 10
362.2920042510783
 20
28.56402952322223
 30
0.0
 10
362.296641560888
 20
28.58233080600458
 30
0.0
 10
362.2998260624198
 20
28.60177057540602
 30
0.0
 10
362.3013574177506
 20
28.61803306658007
 30
0.0
 10
362.3015256662264
 20
28.62845972112358
 30
0.0
 10
362.3015977612037
 20
28.63292757391415
 30
0.0
  0
SPLINE
  5
2D4
330
1F
100
AcDbEntity
  8
0
  6
Continuous
 62
     7
370
     0
100
AcDbSpline
210
0.0
220
0.0
230
1.0
 70
     8
 71
     3
 72
    14
 73
    10
 74
     0
 42
0.00000001
 43
0.00000001
 12
1.0
 22
0.0
 32
0.0
 13
1.0
 23
0.0
 33
0.0
 40
0.0
 40
0.0
 40
0.0
 40
0.0
 40
0.25
 40
0.25
 40
0.5
 40
0.5
 40
0.75
 40
0.75
 40
1.0
 40
1.0
 40
1.0
 40
1.0
 10
350.1973659923011
 20
23.56635551052357
 30
0.0
 10
350.1529707405586
 20
23.5492259028777
 30
0.0
 10
350.1132479070714
 20
23.52013854946197
 30
0.0
 10
350.0556764485657
 20
23.44325654171379
 30
0.0
 10
350.0383120473695
 20
23.3941700570838
 30
0.0
 10
350.0381704483307
 20
23.29601872157897
 30
0.0
 10
350.055220278388
 20
23.24681417785122
 30
0.0
 10
350.1129191361897
 20
23.16928291679493
 30
0.0
 10
350.1529230765216
 20
23.14004133341038
 30
0.0
 10
350.1973659923011
 20
23.12289333491816
 30
0.0
  0
SPLINE
  5
2D5
330
1F
100
AcDbEntity
  8
0
  6
Continuous
 62
     7
370
     0
100
AcDbSpline
210
0.0
220
0.0
230
1.0
 70
     8
 71
     3
 72
    11
 73
     7
 74
     0
 42
0.00000001
 43
0.00000001
 12
1.0
 22
0.0
 32
0.0
 13
1.0
 23
0.0
 33
0.0
 40
0.0
 40
0.0
 40
0.0
 40
0.0
 40
0.2502224471591569
 40
0.5002831262792261
 40
0.7502022336750568
 40
1.0
 40
1.0
 40
1.0
 40
1.0
 10
354.1207690135611
 20
21.58500422637533
 30
0.0
 10
353.7956574043526
 20
21.7141703521424
 30
0.0
 10
353.1456443695864
 20
21.97241909817528
 30
0.0
 10
352.1660537573167
 20
22.35769589624261
 30
0.0
 10
351.1838530980436
 20
22.74140110113559
 30
0.0
 10
350.5261417924747
 20
22.99574984394728
 30
0.0
 10
350.1973659923011
 20
23.12289333491817
 30
0.0
  0
SPLINE
  5
2D6
330
1F
100
AcDbEntity
  8
0
  6
Continuous
 62
     7
370
     0
100
AcDbSpline
210
0.0
220
0.0
230
1.0
 70
     8
 71
     3
 72
    23
 73
    19
 74
     0
 42
0.00000001
 43
0.00000001
 12
1.0
 22
0.0
 32
0.0
 13
1.0
 23
0.0
 33
0.0
 40
0.0
 40
0.0
 40
0.0
 40
0.0
 40
0.0634795960524255
 40
0.0634795960524255
 40
0.0634795960524255
 40
0.2290583593855843
 40
0.2290583593855843
 40
0.2290583593855843
 40
0.4131309431659799
 40
0.4131309431659799
 40
0.4131309431659799
 40
0.6092501334209492
 40
0.6092501334209492
 40
0.6092501334209492
 40
0.8045732488779723
 40
0.8045732488779723
 40
0.8045732488779723
 40
1.0
 40
1.0
 40
1.0
 40
1.0
 10
354.4654850675997
 20
21.80673531417803
 30
0.0
 10
354.4654850675997
 20
21.79604253657505
 30
0.0
 10
354.4647390642039
 20
21.78532107043419
 30
0.0
 10
354.4632633560886
 20
21.77474419050365
 30
0.0
 10
354.4594707401774
 20
21.74756127899157
 30
0.0
 10
354.4506232835314
 20
21.72074923637505
 30
0.0
 10
354.4378581731537
 20
21.69685836206031
 30
0.0
 10
354.423690179694
 20
21.67034188542801
 30
0.0
 10
354.4042379284671
 20
21.64649002244026
 30
0.0
 10
354.3819016474192
 20
21.62736205218803
 30
0.0
 10
354.3580975785221
 20
21.60697712236149
 30
0.0
 10
354.3302402661289
 20
21.59120750978683
 30
0.0
 10
354.3011928802342
 20
21.58107937493971
 30
0.0
 10
354.2722217326674
 20
21.5709778225902
 30
0.0
 10
354.2411959412262
 20
21.56614021554101
 30
0.0
 10
354.2107035541513
 20
21.56679509998798
 30
0.0
 10
354.1801972770712
 20
21.56745028275034
 30
0.0
 10
354.1493504425485
 20
21.57362331508759
 30
0.0
 10
354.1207690135611
 20
21.58500422637533
 30
0.0
  0
LINE
  5
2D7
330
1F
100
AcDbEntity
  8
0
  6
Continuous
 62
     7
370
     0
100
AcDbLine
 10
354.4654857453
 20
21.8067357647
 30
0.0
 11
354.4654857453
 21
24.8825133177
 31
0.0
  0
SPLINE
  5
2D8
330
1F
100
AcDbEntity
  8
0
  6
Continuous
 62
     7
370
     0
100
AcDbSpline
210
0.0
220
0.0
230
1.0
 70
     8
 71
     3
 72
    23
 73
    19
 74
     0
 42
0.00000001
 43
0.00000001
 12
1.0
 22
0.0
 32
0.0
 13
1.0
 23
0.0
 33
0.0
 40
0.0
 40
0.0
 40
0.0
 40
0.0
 40
0.1879765485128114
 40
0.1879765485128114
 40
0.1879765485128114
 40
0.373422133550014
 40
0.373422133550014
 40
0.373422133550014
 40
0.5433719215628574
 40
0.5433719215628574
 40
0.5433719215628574
 40
0.699250146428267
 40
0.699250146428267
 40
0.699250146428267
 40
0.8494340021312803
 40
0.8494340021312803
 40
0.8494340021312803
 40
1.0
 40
1.0
 40
1.0
 40
1.0
 10
354.1207690135611
 20
25.1042446190664
 30
0.0
 10
354.1482599220161
 20
25.11519129323317
 30
0.0
 10
354.1778315591046
 20
25.12132273866065
 30
0.0
 10
354.20716419976
 20
25.122353552467
 30
0.0
 10
354.2361148431335
 20
25.12337094204481
 30
0.0
 10
354.2655834409585
 20
25.11945118937679
 30
0.0
 10
354.2933632531081
 20
25.11075864906979
 30
0.0
 10
354.3188534423778
 20
25.10278255130259
 30
0.0
 10
354.343520694196
 20
25.09059483121494
 30
0.0
 10
354.365519813718
 20
25.07475868213221
 30
0.0
 10
354.3857110712286
 20
25.06022392933064
 30
0.0
 10
354.404100214796
 20
25.04227441421807
 30
0.0
 10
354.4191828313841
 20
25.02190277318691
 30
0.0
 10
354.433706885539
 20
25.00228556579893
 30
0.0
 10
354.4454895448443
 20
24.9799357154946
 30
0.0
 10
354.4533858878702
 20
24.95642037200758
 30
0.0
 10
354.4612934799186
 20
24.93287152888324
 30
0.0
 10
354.4654850675997
 20
24.90752003185537
 30
0.0
 10
354.4654850675997
 20
24.88251353126369
 30
0.0
  0
SPLINE
  5
2D9
330
1F
100
AcDbEntity
  8
0
  6
Continuous
 62
     7
370
     0
100
AcDbSpline
210
0.0
220
0.0
230
1.0
 70
     8
 71
     3
 72
    11
 73
     7
 74
     0
 42
0.00000001
 43
0.00000001
 12
1.0
 22
0.0
 32
0.0
 13
1.0
 23
0.0
 33
0.0
 40
0.0
 40
0.0
 40
0.0
 40
0.0
 40
0.2497977663250348
 40
0.4997168737208964
 40
0.7497775528409347
 40
0.9999999999999999
 40
0.9999999999999999
 40
0.9999999999999999
 40
0.9999999999999999
 10
350.1973659923011
 20
23.56635551052356
 30
0.0
 10
350.5261417924748
 20
23.69349900149449
 30
0.0
 10
351.1838530980438
 20
23.94784774430624
 30
0.0
 10
352.166053757317
 20
24.33155294919927
 30
0.0
 10
353.1456443695866
 20
24.71682974726655
 30
0.0
 10
353.7956574043527
 20
24.97507849329936
 30
0.0
 10
354.1207690135611
 20
25.10424461906638
 30
0.0
  0
LINE
  5
2DA
330
1F
100
AcDbEntity
  8
0
  6
Continuous
 62
     7
370
     0
100
AcDbLine
 10
343.6322465624
 20
14.4372007209
 30
0.0
 11
345.400012293
 21
14.4372007209
 31
0.0
  0
LINE
  5
2DB
330
1F
100
AcDbEntity
  8
0
  6
Continuous
 62
     7
370
     0
100
AcDbLine
 10
352.6977162893
 20
22.1472142595
 30
0.0
 11
352.6977162893
 21
24.5420338916
 31
0.0
  0
LINE
  5
2DC
330
1F
100
AcDbEntity
  8
0
  6
Continuous
 62
     7
370
     0
100
AcDbLine
 10
79.3075274761
 20
24.1430310863
 30
0.0
 11
79.3075274761
 21
105.2021442312
 31
0.0
  0
ELLIPSE
  5
2DD
330
1F
100
AcDbEntity
  8
0
  6
Continuous
 62
     7
370
     0
100
AcDbEllipse
 10
168.9818660548
 20
37.7892015832
 30
0.0
 11
147.2243186433545
 21
4.760636329592671E-13
 31
0.0
210
0.0
220
0.0
230
1.0
 40
0.5773502692
 41
2.22144647923145
 42
2.22572166552893
  0
LINE
  5
2DE
330
1F
100
AcDbEntity
  8
0
  6
Continuous
 62
     7
370
     0
100
AcDbLine
 10
79.3075274761
 20
115.7892031926
 30
0.0
 11
79.3075274761
 21
122.7892024773
 31
0.0
  0
LINE
  5
2DF
330
1F
100
AcDbEntity
  8
0
  6
Continuous
 62
     7
370
     0
100
AcDbLine
 10
108.3075266417
 20
-7.0277357144
 30
0.0
 11
108.3075266417
 21
2.7310310262
 31
0.0
  0
LINE
  5
2E0
330
1F
100
AcDbEntity
  8
0
  6
Continuous
 62
     7
370
     0
100
AcDbLine
 10
108.3075266417
 20
12.0385794299
 30
0.0
 11
108.3075266417
 21
122.7892024773
 31
0.0
  0
LINE
  5
2E1
330
1F
100
AcDbEntity
  8
0
  6
Continuous
 62
     7
370
     0
100
AcDbLine
 10
46.8075286682
 20
82.0095187383
 30
0.0
 11
46.8075286682
 21
20.242173444
 31
0.0
  0
LINE
  5
2E2
330
1F
100
AcDbEntity
  8
0
  6
Continuous
 62
     7
370
     0
100
AcDbLine
 10
497.98224979
 20
-24.2591665727
 30
0.0
 11
497.807533675
 21
-24.2591665727
 31
0.0
  0
LINE
  5
2E3
330
1F
100
AcDbEntity
  8
0
  6
Continuous
 62
     7
370
     0
100
AcDbLine
 10
497.807533675
 20
99.8375697392
 30
0.0
 11
497.807533675
 21
-24.2591665727
 31
0.0
  0
LINE
  5
2E4
330
1F
100
AcDbEntity
  8
0
  6
Continuous
 62
     7
370
     0
100
AcDbLine
 10
497.807533675
 20
99.8375697392
 30
0.0
 11
497.98224979
 21
99.8375697392
 31
0.0
  0
LINE
  5
2E5
330
1F
100
AcDbEntity
  8
0
  6
Continuous
 62
     7
370
     0
100
AcDbLine
 10
542.3075269993
 20
37.7892015832
 30
0.0
 11
542.3075269993
 21
-24.7107984168
 31
0.0
  0
LINE
  5
2E6
330
1F
100
AcDbEntity
  8
0
  6
Continuous
 62
     7
370
     0
100
AcDbLine
 10
542.3075269993
 20
100.2892015832
 30
0.0
 11
542.3075269993
 21
37.7892015832
 31
0.0
  0
LINE
  5
2E7
330
1F
100
AcDbEntity
  8
0
  6
Continuous
 62
     7
370
     0
100
AcDbLine
 10
115.3075259264
 20
74.3429532605
 30
0.0
 11
115.3075259264
 21
5.8800151902
 31
0.0
  0
LINE
  5
2E8
330
1F
100
AcDbEntity
  8
0
  6
Continuous
 62
     7
370
     0
100
AcDbLine
 10
115.3075259264
 20
100.2892015832
 30
0.0
 11
115.3075259264
 21
97.4197594779
 31
0.0
  0
LINE
  5
2E9
330
1F
100
AcDbEntity
  8
0
  6
Continuous
 62
     7
370
     0
100
AcDbLine
 10
132.8075241383
 20
99.8375697392
 30
0.0
 11
132.6328080233
 21
99.8375697392
 31
0.0
  0
LINE
  5
2EA
330
1F
100
AcDbEntity
  8
0
  6
Continuous
 62
     7
370
     0
100
AcDbLine
 10
132.6328080233
 20
-24.2591665727
 30
0.0
 11
132.8075241383
 21
-24.2591665727
 31
0.0
  0
LINE
  5
2EB
330
1F
100
AcDbEntity
  8
0
  6
Continuous
 62
     7
370
     0
100
AcDbLine
 10
132.8075241383
 20
99.8375697392
 30
0.0
 11
132.8075241383
 21
-24.2591665727
 31
0.0
  0
LINE
  5
2EC
330
1F
100
AcDbEntity
  8
0
  6
Continuous
 62
     7
370
     0
100
AcDbLine
 10
46.8075286682
 20
82.0095187383
 30
0.0
 11
46.8075286682
 21
83.7783312755
 31
0.0
  0
LINE
  5
2ED
330
1F
100
AcDbEntity
  8
0
  6
Continuous
 62
     7
370
     0
100
AcDbLine
 10
46.8075286682
 20
93.7892033118
 30
0.0
 11
79.3075274761
 21
93.7892033118
 31
0.0
  0
LINE
  5
2EE
330
1F
100
AcDbEntity
  8
0
  6
Continuous
 62
     7
370
     0
100
AcDbLine
 10
46.8075286682
 20
90.7892009574
 30
0.0
 11
46.8075286682
 21
93.7892033118
 31
0.0
  0
LINE
  5
2EF
330
1F
100
AcDbEntity
  8
0
  6
Continuous
 62
     7
370
     0
100
AcDbLine
 10
46.8075286682
 20
90.7892009574
 30
0.0
 11
46.8075286682
 21
83.7783312755
 31
0.0
  0
LINE
  5
2F0
330
1F
100
AcDbEntity
  8
0
  6
Continuous
 62
     7
370
     0
100
AcDbLine
 10
115.3075259264
 20
97.4197594779
 30
0.0
 11
108.3075266417
 21
97.4197594779
 31
0.0
  0
LINE
  5
2F1
330
1F
100
AcDbEntity
  8
0
  6
Continuous
 62
     7
370
     0
100
AcDbLine
 10
115.3075259264
 20
97.4197594779
 30
0.0
 11
115.3075259264
 21
83.2776224571
 31
0.0
  0
LINE
  5
2F2
330
1F
100
AcDbEntity
  8
0
  6
Continuous
 62
     7
370
     0
100
AcDbLine
 10
115.3075259264
 20
83.2776224571
 30
0.0
 11
108.3075266417
 21
83.2776224571
 31
0.0
  0
LINE
  5
2F3
330
1F
100
AcDbEntity
  8
0
  6
Continuous
 62
     7
370
     0
100
AcDbLine
 10
115.3075259264
 20
58.1042619752
 30
0.0
 11
108.3075266417
 21
58.1042619752
 31
0.0
  0
LINE
  5
2F4
330
1F
100
AcDbEntity
  8
0
  6
Continuous
 62
     7
370
     0
100
AcDbLine
 10
115.3075259264
 20
83.2776224571
 30
0.0
 11
115.3075259264
 21
74.3429532605
 31
0.0
  0
LINE
  5
2F5
330
1F
100
AcDbEntity
  8
0
  6
Continuous
 62
     7
370
     0
100
AcDbLine
 10
115.3075259264
 20
17.4741411912
 30
0.0
 11
108.3075266417
 21
17.4741411912
 31
0.0
  0
LINE
  5
2F6
330
1F
100
AcDbEntity
  8
0
  6
Continuous
 62
     7
370
     0
100
AcDbLine
 10
60.8075272377
 20
115.7892031926
 30
0.0
 11
60.8075272377
 21
93.7892033118
 31
0.0
  0
LINE
  5
2F7
330
1F
100
AcDbEntity
  8
0
  6
Continuous
 62
     7
370
     0
100
AcDbLine
 10
60.8075272377
 20
115.7892031926
 30
0.0
 11
70.3075241383
 21
115.7892031926
 31
0.0
  0
LINE
  5
2F8
330
1F
100
AcDbEntity
  8
0
  6
Continuous
 62
     7
370
     0
100
AcDbLine
 10
70.3075241383
 20
115.7892031926
 30
0.0
 11
70.3075241383
 21
93.7892033118
 31
0.0
  0
LINE
  5
2F9
330
1F
100
AcDbEntity
  8
0
  6
Continuous
 62
     7
370
     0
100
AcDbLine
 10
79.80753594
 20
115.7892031926
 30
0.0
 11
79.80753594
 21
105.4228676813
 31
0.0
  0
LINE
  5
2FA
330
1F
100
AcDbEntity
  8
0
  6
Continuous
 62
     7
370
     0
100
AcDbLine
 10
70.3075241383
 20
115.7892031926
 30
0.0
 11
79.80753594
 21
115.7892031926
 31
0.0
  0
LINE
  5
2FB
330
1F
100
AcDbEntity
  8
0
  6
Continuous
 62
     7
370
     0
100
AcDbLine
 10
38.8075422581
 20
-4.7457718891
 30
0.0
 11
38.8075422581
 21
0.449067201
 31
0.0
  0
LINE
  5
2FC
330
1F
100
AcDbEntity
  8
0
  6
Continuous
 62
     7
370
     0
100
AcDbLine
 10
38.8075422581
 20
16.3488017726
 30
0.0
 11
38.8075422581
 21
81.2892003315
 31
0.0
  0
LINE
  5
2FD
330
1F
100
AcDbEntity
  8
0
  6
Continuous
 62
     7
370
     0
100
AcDbLine
 10
132.8075241383
 20
45.2892014156
 30
0.0
 11
216.6464936073
 21
45.2892014156
 31
0.0
  0
LINE
  5
2FE
330
1F
100
AcDbEntity
  8
0
  6
Continuous
 62
     7
370
     0
100
AcDbLine
 10
132.8075241383
 20
30.2892017509
 30
0.0
 11
216.6464936073
 21
30.2892017509
 31
0.0
  0
LINE
  5
2FF
330
1F
100
AcDbEntity
  8
0
  6
Continuous
 62
     7
370
     0
100
AcDbLine
 10
28.3575367268
 20
31.2892014491
 30
0.0
 11
28.3575367268
 21
44.2892017173
 31
0.0
  0
LINE
  5
300
330
1F
100
AcDbEntity
  8
0
  6
Continuous
 62
     7
370
     0
100
AcDbLine
 10
497.807533675
 20
45.2892014156
 30
0.0
 11
413.9685642059
 21
45.2892014156
 31
0.0
  0
LINE
  5
301
330
1F
100
AcDbEntity
  8
0
  6
Continuous
 62
     7
370
     0
100
AcDbLine
 10
497.807533675
 20
30.2892017509
 30
0.0
 11
413.9685642059
 21
30.2892017509
 31
0.0
  0
LINE
  5
302
330
1F
100
AcDbEntity
  8
0
  6
Continuous
 62
     7
370
     0
100
AcDbLine
 10
481.9592695768
 20
45.2892014156
 30
0.0
 11
481.9592695768
 21
66.8365771281
 31
0.0
  0
SPLINE
  5
303
330
1F
100
AcDbEntity
  8
0
  6
Continuous
 62
     7
370
     0
100
AcDbSpline
210
0.0
220
0.0
230
1.0
 70
     8
 71
     3
 72
     8
 73
     4
 74
     0
 42
0.00000001
 43
0.00000001
 12
1.0
 22
0.0
 32
0.0
 13
1.0
 23
0.0
 33
0.0
 40
0.0
 40
0.0
 40
0.0
 40
0.0
 40
1.0
 40
1.0
 40
1.0
 40
1.0
 10
481.9592640173872
 20
66.83657667978032
 30
0.0
 10
487.2313883060677
 20
69.98026422519831
 30
0.0
 10
492.5167817394449
 20
73.10183876103598
 30
0.0
 10
497.8075289066423
 20
76.2140958576401
 30
0.0
  0
SPLINE
  5
304
330
1F
100
AcDbEntity
  8
0
  6
Continuous
 62
     7
370
     0
100
AcDbSpline
210
0.0
220
0.0
230
1.0
 70
     8
 71
     3
 72
    10
 73
     6
 74
     0
 42
0.00000001
 43
0.00000001
 12
1.0
 22
0.0
 32
0.0
 13
1.0
 23
0.0
 33
0.0
 40
0.0
 40
0.0
 40
0.0
 40
0.0
 40
0.5
 40
0.5
 40
1.0
 40
1.0
 40
1.0
 40
1.0
 10
497.8075289066423
 20
64.27608808037947
 30
0.0
 10
497.6386823305612
 20
64.60275616497094
 30
0.0
 10
497.5478113133544
 20
64.96420072677842
 30
0.0
 10
497.5476313905855
 20
65.76734461397703
 30
0.0
 10
497.638665855751
 20
66.18663444805044
 30
0.0
 10
497.8075289066423
 20
66.61917459200293
 30
0.0
  0
SPLINE
  5
305
330
1F
100
AcDbEntity
  8
0
  6
Continuous
 62
     7
370
     0
100
AcDbSpline
210
0.0
220
0.0
230
1.0
 70
     8
 71
     3
 72
     8
 73
     4
 74
     0
 42
0.00000001
 43
0.00000001
 12
1.0
 22
0.0
 32
0.0
 13
1.0
 23
0.0
 33
0.0
 40
0.0
 40
0.0
 40
0.0
 40
0.0
 40
1.0
 40
1.0
 40
1.0
 40
1.0
 10
132.8075289066423
 20
76.21409585764009
 30
0.0
 10
138.0984156809296
 20
73.10175663782309
 30
0.0
 10
143.383946260869
 20
69.98009920120394
 30
0.0
 10
148.6557937958975
 20
66.83657667978035
 30
0.0
  0
LINE
  5
306
330
1F
100
AcDbEntity
  8
0
  6
Continuous
 62
     7
370
     0
100
AcDbLine
 10
148.6557882364
 20
66.8365771281
 30
0.0
 11
148.6557882364
 21
45.2892014156
 31
0.0
  0
SPLINE
  5
307
330
1F
100
AcDbEntity
  8
0
  6
Continuous
 62
     7
370
     0
100
AcDbSpline
210
0.0
220
0.0
230
1.0
 70
     8
 71
     3
 72
    10
 73
     6
 74
     0
 42
0.00000001
 43
0.00000001
 12
1.0
 22
0.0
 32
0.0
 13
1.0
 23
0.0
 33
0.0
 40
0.0
 40
0.0
 40
0.0
 40
0.0
 40
0.5
 40
0.5
 40
1.0
 40
1.0
 40
1.0
 40
1.0
 10
132.8075289066423
 20
64.27608808037947
 30
0.0
 10
132.9763754827235
 20
64.60275616497094
 30
0.0
 10
133.0672464999303
 20
64.96420072677842
 30
0.0
 10
133.0674264226991
 20
65.76734461397703
 30
0.0
 10
132.9763919575337
 20
66.18663444805044
 30
0.0
 10
132.8075289066423
 20
66.61917459200293
 30
0.0
  0
LINE
  5
308
330
1F
100
AcDbEntity
  8
0
  6
Continuous
 62
     7
370
     0
100
AcDbLine
 10
148.6557882364
 20
30.2892017509
 30
0.0
 11
148.6557882364
 21
8.7418260383
 31
0.0
  0
SPLINE
  5
309
330
1F
100
AcDbEntity
  8
0
  6
Continuous
 62
     7
370
     0
100
AcDbSpline
210
0.0
220
0.0
230
1.0
 70
     8
 71
     3
 72
     8
 73
     4
 74
     0
 42
0.00000001
 43
0.00000001
 12
1.0
 22
0.0
 32
0.0
 13
1.0
 23
0.0
 33
0.0
 40
0.0
 40
0.0
 40
0.0
 40
0.0
 40
1.0
 40
1.0
 40
1.0
 40
1.0
 10
148.6557937958975
 20
8.7418264866691
 30
0.0
 10
143.3837225669555
 20
5.598170579966342
 30
0.0
 10
138.0983225664052
 20
2.476591754446065
 30
0.0
 10
132.8075289066423
 20
-0.635692691190657
 30
0.0
  0
SPLINE
  5
30A
330
1F
100
AcDbEntity
  8
0
  6
Continuous
 62
     7
370
     0
100
AcDbSpline
210
0.0
220
0.0
230
1.0
 70
     8
 71
     3
 72
    10
 73
     6
 74
     0
 42
0.00000001
 43
0.00000001
 12
1.0
 22
0.0
 32
0.0
 13
1.0
 23
0.0
 33
0.0
 40
0.0
 40
0.0
 40
0.0
 40
0.0
 40
0.5
 40
0.5
 40
1.0
 40
1.0
 40
1.0
 40
1.0
 10
132.8075289066423
 20
8.959228574447076
 30
0.0
 10
132.9763754827235
 20
9.391726518422992
 30
0.0
 10
133.0672464999303
 20
9.809815582663791
 30
0.0
 10
133.0674264226991
 20
10.6130718099938
 30
0.0
 10
132.9763919575337
 20
10.97561512760383
 30
0.0
 10
132.8075289066423
 20
11.3023150860706
 30
0.0
  0
SPLINE
  5
30B
330
1F
100
AcDbEntity
  8
0
  6
Continuous
 62
     7
370
     0
100
AcDbSpline
210
0.0
220
0.0
230
1.0
 70
     8
 71
     3
 72
     8
 73
     4
 74
     0
 42
0.00000001
 43
0.00000001
 12
1.0
 22
0.0
 32
0.0
 13
1.0
 23
0.0
 33
0.0
 40
0.0
 40
0.0
 40
0.0
 40
0.0
 40
1.0
 40
1.0
 40
1.0
 40
1.0
 10
497.8075289066423
 20
-0.635692691190657
 30
0.0
 10
492.5167689960461
 20
2.476571901657783
 30
0.0
 10
487.2312552612827
 20
5.598218273833337
 30
0.0
 10
481.9592640173872
 20
8.741826486669096
 30
0.0
  0
LINE
  5
30C
330
1F
100
AcDbEntity
  8
0
  6
Continuous
 62
     7
370
     0
100
AcDbLine
 10
481.9592695768
 20
8.7418260383
 30
0.0
 11
481.9592695768
 21
30.2892017509
 31
0.0
  0
SPLINE
  5
30D
330
1F
100
AcDbEntity
  8
0
  6
Continuous
 62
     7
370
     0
100
AcDbSpline
210
0.0
220
0.0
230
1.0
 70
     8
 71
     3
 72
    10
 73
     6
 74
     0
 42
0.00000001
 43
0.00000001
 12
1.0
 22
0.0
 32
0.0
 13
1.0
 23
0.0
 33
0.0
 40
0.0
 40
0.0
 40
0.0
 40
0.0
 40
0.5
 40
0.5
 40
1.0
 40
1.0
 40
1.0
 40
1.0
 10
497.8075289066423
 20
8.959228574447076
 30
0.0
 10
497.6386823305612
 20
9.391726518422992
 30
0.0
 10
497.5478113133544
 20
9.809815582663791
 30
0.0
 10
497.5476313905855
 20
10.6130718099938
 30
0.0
 10
497.638665855751
 20
10.97561512760383
 30
0.0
 10
497.8075289066423
 20
11.3023150860706
 30
0.0
  0
LINE
  5
30E
330
1F
100
AcDbEntity
  8
0
  6
Continuous
 62
     7
370
     0
100
AcDbLine
 10
424.091720217
 20
66.8365771281
 30
0.0
 11
481.9592695768
 21
66.8365771281
 31
0.0
  0
LINE
  5
30F
330
1F
100
AcDbEntity
  8
0
  6
Continuous
 62
     7
370
     0
100
AcDbLine
 10
148.6557882364
 20
66.8365771281
 30
0.0
 11
206.5233375962
 21
66.8365771281
 31
0.0
  0
LINE
  5
310
330
1F
100
AcDbEntity
  8
0
  6
Continuous
 62
     7
370
     0
100
AcDbLine
 10
206.5233375962
 20
8.7418260383
 30
0.0
 11
148.6557882364
 21
8.7418260383
 31
0.0
  0
LINE
  5
311
330
1F
100
AcDbEntity
  8
0
  6
Continuous
 62
     7
370
     0
100
AcDbLine
 10
481.9592695768
 20
8.7418260383
 30
0.0
 11
424.091720217
 21
8.7418260383
 31
0.0
  0
LINE
  5
312
330
1F
100
AcDbEntity
  8
0
  6
Continuous
 62
     7
370
     0
100
AcDbLine
 10
484.8473530348
 20
133.7885765689
 30
0.0
 11
497.98224979
 21
99.8375697392
 31
0.0
  0
CIRCLE
  5
313
330
1F
100
AcDbEntity
  8
0
  6
Continuous
 62
     7
370
     0
100
AcDbCircle
 10
465.3075289066
 20
95.7892015832
 30
0.0
 40
18.1561649764444
  0
LINE
  5
314
330
1F
100
AcDbEntity
  8
0
  6
Continuous
 62
     7
370
     0
100
AcDbLine
 10
145.7677047785
 20
133.7885765689
 30
0.0
 11
132.6328080233
 21
99.8375697392
 31
0.0
  0
CIRCLE
  5
315
330
1F
100
AcDbEntity
  8
0
  6
Continuous
 62
     7
370
     0
100
AcDbCircle
 10
165.3075289066
 20
95.7892015832
 30
0.0
 40
18.1561649764444
  0
CIRCLE
  5
316
330
1F
100
AcDbEntity
  8
0
  6
Continuous
 62
     7
370
     0
100
AcDbCircle
 10
465.3075289066
 20
95.7892015832
 30
0.0
 40
17.50000000000001
  0
CIRCLE
  5
317
330
1F
100
AcDbEntity
  8
0
  6
Continuous
 62
     7
370
     0
100
AcDbCircle
 10
165.3075289066
 20
95.7892015832
 30
0.0
 40
17.50000000000001
  0
LINE
  5
318
330
1F
100
AcDbEntity
  8
0
  6
Continuous
 62
     7
370
     0
100
AcDbLine
 10
145.7677047785
 20
-58.2101734025
 30
0.0
 11
132.6328080233
 21
-24.2591665727
 31
0.0
  0
CIRCLE
  5
319
330
1F
100
AcDbEntity
  8
0
  6
Continuous
 62
     7
370
     0
100
AcDbCircle
 10
165.3075289066
 20
-20.2107984168
 30
0.0
 40
18.1561649764444
  0
LINE
  5
31A
330
1F
100
AcDbEntity
  8
0
  6
Continuous
 62
     7
370
     0
100
AcDbLine
 10
484.8473530348
 20
-58.2101734025
 30
0.0
 11
497.98224979
 21
-24.2591665727
 31
0.0
  0
CIRCLE
  5
31B
330
1F
100
AcDbEntity
  8
0
  6
Continuous
 62
     7
370
     0
100
AcDbCircle
 10
465.3075289066
 20
-20.2107984168
 30
0.0
 40
18.1561649764444
  0
CIRCLE
  5
31C
330
1F
100
AcDbEntity
  8
0
  6
Continuous
 62
     7
370
     0
100
AcDbCircle
 10
465.3075289066
 20
-20.2107984168
 30
0.0
 40
17.50000000000001
  0
CIRCLE
  5
31D
330
1F
100
AcDbEntity
  8
0
  6
Continuous
 62
     7
370
     0
100
AcDbCircle
 10
165.3075289066
 20
-20.2107984168
 30
0.0
 40
17.50000000000001
  0
LINE
  5
31E
330
1F
100
AcDbEntity
  8
0
  6
Continuous
 62
     7
370
     0
100
AcDbLine
 10
28.3575367268
 20
67.289201762
 30
0.0
 11
28.3575367268
 21
80.2892020303
 31
0.0
  0
LINE
  5
31F
330
1F
100
AcDbEntity
  8
0
  6
Continuous
 62
     8
370
     0
100
AcDbLine
 10
335.7932318087
 20
62.1972011733
 30
0.0
 11
337.560999402
 21
62.1972011733
 31
0.0
  0
LINE
  5
320
330
1F
100
AcDbEntity
  8
0
  6
Continuous
 62
     8
370
     0
100
AcDbLine
 10
335.7932318087
 20
44.5015646848
 30
0.0
 11
337.560999402
 21
44.5015646848
 31
0.0
  0
LINE
  5
321
330
1F
100
AcDbEntity
  8
0
  6
Continuous
 62
     8
370
     0
100
AcDbLine
 10
335.9691120769
 20
44.2798335436
 30
0.0
 11
337.7368778076
 21
44.2798335436
 31
0.0
  0
LINE
  5
322
330
1F
100
AcDbEntity
  8
0
  6
Continuous
 62
     8
370
     0
100
AcDbLine
 10
335.7932318087
 20
14.6772006857
 30
0.0
 11
337.560999402
 21
14.6772006857
 31
0.0
  0
LINE
  5
323
330
1F
100
AcDbEntity
  8
0
  6
Continuous
 62
     8
370
     0
100
AcDbLine
 10
335.7932318087
 20
31.0768384817
 30
0.0
 11
337.560999402
 21
31.0768384817
 31
0.0
  0
LINE
  5
324
330
1F
100
AcDbEntity
  8
0
  6
Continuous
 62
     8
370
     0
100
AcDbLine
 10
335.9691120769
 20
31.2985696229
 30
0.0
 11
337.7368778076
 21
31.2985696229
 31
0.0
  0
LINE
  5
325
330
1F
100
AcDbEntity
  8
0
  6
Continuous
 62
     8
370
     0
100
AcDbLine
 10
352.7419243093
 20
38.0109326662
 30
0.0
 11
354.5096900399
 21
38.0109326662
 31
0.0
  0
LINE
  5
326
330
1F
100
AcDbEntity
  8
0
  6
Continuous
 62
     8
370
     0
100
AcDbLine
 10
352.7419243093
 20
37.5674705002
 30
0.0
 11
354.5096900399
 21
37.5674705002
 31
0.0
  0
LINE
  5
327
330
1F
100
AcDbEntity
  8
0
  6
Continuous
 62
     8
370
     0
100
AcDbLine
 10
343.3642398651
 20
57.633340578
 30
0.0
 11
345.1320055957
 21
57.633340578
 31
0.0
  0
LINE
  5
328
330
1F
100
AcDbEntity
  8
0
  6
Continuous
 62
     8
370
     0
100
AcDbLine
 10
343.3642398651
 20
62.1972011733
 30
0.0
 11
345.1320055957
 21
62.1972011733
 31
0.0
  0
LINE
  5
329
330
1F
100
AcDbEntity
  8
0
  6
Continuous
 62
     8
370
     0
100
AcDbLine
 10
343.3642398651
 20
53.5682460624
 30
0.0
 11
345.1320055957
 21
53.5682460624
 31
0.0
  0
LINE
  5
32A
330
1F
100
AcDbEntity
  8
0
  6
Continuous
 62
     8
370
     0
100
AcDbLine
 10
343.3642398651
 20
48.8923119711
 30
0.0
 11
345.1320055957
 21
48.8923119711
 31
0.0
  0
LINE
  5
32B
330
1F
100
AcDbEntity
  8
0
  6
Continuous
 62
     8
370
     0
100
AcDbLine
 10
343.5297526504
 20
48.6705808299
 30
0.0
 11
345.2975183811
 21
48.6705808299
 31
0.0
  0
LINE
  5
32C
330
1F
100
AcDbEntity
  8
0
  6
Continuous
 62
     8
370
     0
100
AcDbLine
 10
343.3642398651
 20
14.6772006857
 30
0.0
 11
345.1320055957
 21
14.6772006857
 31
0.0
  0
LINE
  5
32D
330
1F
100
AcDbEntity
  8
0
  6
Continuous
 62
     8
370
     0
100
AcDbLine
 10
343.3642398651
 20
26.6860911953
 30
0.0
 11
345.1320055957
 21
26.6860911953
 31
0.0
  0
LINE
  5
32E
330
1F
100
AcDbEntity
  8
0
  6
Continuous
 62
     8
370
     0
100
AcDbLine
 10
343.5297526504
 20
26.9078223365
 30
0.0
 11
345.2975183811
 21
26.9078223365
 31
0.0
  0
LINE
  5
32F
330
1F
100
AcDbEntity
  8
0
  6
Continuous
 62
     8
370
     0
100
AcDbLine
 10
360.2105241354
 20
42.0478100287
 30
0.0
 11
361.9782935913
 21
42.0478100287
 31
0.0
  0
LINE
  5
330
330
1F
100
AcDbEntity
  8
0
  6
Continuous
 62
     8
370
     0
100
AcDbLine
 10
360.2105241354
 20
33.5305931377
 30
0.0
 11
361.9782935913
 21
33.5305931377
 31
0.0
  0
LINE
  5
331
330
1F
100
AcDbEntity
  8
0
  6
Continuous
 62
     8
370
     0
100
AcDbLine
 10
350.4650715824
 20
51.906757276
 30
0.0
 11
351.3706337746
 21
51.906757276
 31
0.0
  0
LINE
  5
332
330
1F
100
AcDbEntity
  8
0
  6
Continuous
 62
     8
370
     0
100
AcDbLine
 10
350.5486000414
 20
17.7171158003
 30
0.0
 11
350.7412087257
 21
17.7171158003
 31
0.0
  0
LINE
  5
333
330
1F
100
AcDbEntity
  8
0
  6
Continuous
 62
     8
370
     0
100
AcDbLine
 10
360.2105241354
 20
13.1586550134
 30
0.0
 11
361.9782935913
 21
13.1586550134
 31
0.0
  0
LINE
  5
334
330
1F
100
AcDbEntity
  8
0
  6
Continuous
 62
     8
370
     0
100
AcDbLine
 10
353.5595286723
 20
24.8825133177
 30
0.0
 11
354.4654857453
 21
24.8825133177
 31
0.0
  0
LINE
  5
335
330
1F
100
AcDbEntity
  8
0
  6
Continuous
 62
     8
370
     0
100
AcDbLine
 10
353.5595286723
 20
21.8067357647
 30
0.0
 11
354.4654857453
 21
21.8067357647
 31
0.0
  0
LINE
  5
336
330
1F
100
AcDbEntity
  8
0
  6
Continuous
 62
     8
370
     0
100
AcDbLine
 10
355.2488286133
 20
55.6417072522
 30
0.0
 11
355.5123705502
 21
55.6417072522
 31
0.0
  0
LINE
  5
337
330
1F
100
AcDbEntity
  8
0
  6
Continuous
 62
     8
370
     0
100
AcDbLine
 10
360.174318039
 20
59.7301537501
 30
0.0
 11
361.9420837696
 21
59.7301537501
 31
0.0
  0
LINE
  5
338
330
1F
100
AcDbEntity
  8
0
  6
Continuous
 62
     8
370
     0
100
AcDbLine
 10
79.3075274761
 20
82.0095187383
 30
0.0
 11
46.8075286682
 21
82.0095187383
 31
0.0
  0
LINE
  5
339
330
1F
100
AcDbEntity
  8
0
  6
Continuous
 62
     8
370
     0
100
AcDbLine
 10
46.8075286682
 20
83.7783312755
 30
0.0
 11
79.3075274761
 21
83.7783312755
 31
0.0
  0
LINE
  5
33A
330
1F
100
AcDbEntity
  8
0
  6
Continuous
 62
     8
370
     0
100
AcDbLine
 10
79.3075274761
 20
90.7892009574
 30
0.0
 11
46.8075286682
 21
90.7892009574
 31
0.0
  0
INSERT
  5
346
330
1F
100
AcDbEntity
  8
FORMAT
 62
     7
100
AcDbBlockReference
  2
SW_CENTERMARKSYMBOL_6
 10
315.3075289066
 20
37.7892015832
 30
0.0
  0
INSERT
  5
352
330
1F
100
AcDbEntity
  8
FORMAT
 62
     7
100
AcDbBlockReference
  2
SW_CENTERMARKSYMBOL_7
 10
465.3075289066
 20
95.7892015832
 30
0.0
  0
INSERT
  5
35E
330
1F
100
AcDbEntity
  8
FORMAT
 62
     7
100
AcDbBlockReference
  2
SW_CENTERMARKSYMBOL_8
 10
465.3075289066
 20
-20.2107984168
 30
0.0
  0
INSERT
  5
36A
330
1F
100
AcDbEntity
  8
FORMAT
 62
     7
100
AcDbBlockReference
  2
SW_CENTERMARKSYMBOL_9
 10
165.3075289066
 20
95.7892015832
 30
0.0
  0
INSERT
  5
376
330
1F
100
AcDbEntity
  8
FORMAT
 62
     7
100
AcDbBlockReference
  2
SW_CENTERMARKSYMBOL_10
 10
165.3075289066
 20
-20.2107984168
 30
0.0
  0
INSERT
  5
39E
330
1F
100
AcDbEntity
  8
FORMAT
 62
     7
100
AcDbBlockReference
  2
SW_CENTERMARKSYMBOL_11
 10
106.3699747472
 20
-2.1483525763
 30
0.0
  0
ENDSEC
  0
SECTION
  2
OBJECTS
  0
DICTIONARY
  5
C
330
0
100
AcDbDictionary
281
     1
  3
ACAD_GROUP
350
D
  3
ACAD_LAYOUT
350
1A
  3
ACAD_MLINESTYLE
350
17
  3
ACAD_PLOTSETTINGS
350
19
  3
ACAD_PLOTSTYLENAME
350
E
  0
DICTIONARY
  5
D
102
{ACAD_REACTORS
330
C
102
}
330
C
100
AcDbDictionary
281
     1
  0
DICTIONARY
  5
1A
102
{ACAD_REACTORS
330
C
102
}
330
C
100
AcDbDictionary
281
     1
  3
Layout1
350
1E
  3
Layout2
350
26
  3
Model
350
22
  0
DICTIONARY
  5
17
102
{ACAD_REACTORS
330
C
102
}
330
C
100
AcDbDictionary
281
     1
  3
Standard
350
18
  0
DICTIONARY
  5
19
102
{ACAD_REACTORS
330
C
102
}
330
C
100
AcDbDictionary
281
     1
  0
ACDBDICTIONARYWDFLT
  5
E
102
{ACAD_REACTORS
330
C
102
}
330
C
100
AcDbDictionary
281
     1
  3
Normal
350
F
100
AcDbDictionaryWithDefault
340
F
  0
LAYOUT
  5
1E
102
{ACAD_REACTORS
330
1A
102
}
330
1A
100
AcDbPlotSettings
  1

  2
none_device
  4

  6

 40
0.0
 41
0.0
 42
0.0
 43
0.0
 44
0.0
 45
0.0
 46
0.0
 47
0.0
 48
0.0
 49
0.0
140
0.0
141
0.0
142
1.0
143
1.0
 70
   688
 72
     0
 73
     0
 74
     5
  7

 75
    16
147
1.0
148
0.0
149
0.0
100
AcDbLayout
  1
Layout1
 70
     1
 71
     1
 10
0.0
 20
0.0
 11
420.0
 21
297.0
 12
0.0
 22
0.0
 32
0.0
 14
1.0000000000E+20
 24
1.0000000000E+20
 34
1.0000000000E+20
 15
-1.0000000000E+20
 25
-1.0000000000E+20
 35
-1.0000000000E+20
146
0.0
 13
0.0
 23
0.0
 33
0.0
 16
1.0
 26
0.0
 36
0.0
 17
0.0
 27
1.0
 37
0.0
 76
     0
330
1B
  0
LAYOUT
  5
26
102
{ACAD_REACTORS
330
1A
102
}
330
1A
100
AcDbPlotSettings
  1

  2
none_device
  4

  6

 40
0.0
 41
0.0
 42
0.0
 43
0.0
 44
0.0
 45
0.0
 46
0.0
 47
0.0
 48
0.0
 49
0.0
140
0.0
141
0.0
142
1.0
143
1.0
 70
   688
 72
     0
 73
     0
 74
     5
  7

 75
    16
147
1.0
148
0.0
149
0.0
100
AcDbLayout
  1
Layout2
 70
     1
 71
     2
 10
0.0
 20
0.0
 11
0.0
 21
0.0
 12
0.0
 22
0.0
 32
0.0
 14
0.0
 24
0.0
 34
0.0
 15
0.0
 25
0.0
 35
0.0
146
0.0
 13
0.0
 23
0.0
 33
0.0
 16
1.0
 26
0.0
 36
0.0
 17
0.0
 27
1.0
 37
0.0
 76
     0
330
23
  0
LAYOUT
  5
22
102
{ACAD_REACTORS
330
1A
102
}
330
1A
100
AcDbPlotSettings
  1

  2
none_device
  4

  6

 40
0.0
 41
0.0
 42
0.0
 43
0.0
 44
0.0
 45
0.0
 46
0.0
 47
0.0
 48
0.0
 49
0.0
140
0.0
141
0.0
142
1.0
143
1.0
 70
  1712
 72
     0
 73
     0
 74
     0
  7

 75
     0
147
1.0
148
0.0
149
0.0
100
AcDbLayout
  1
Model
 70
     1
 71
     0
 10
0.0
 20
0.0
 11
841.0
 21
594.0
 12
0.0
 22
0.0
 32
0.0
 14
0.0
 24
0.0
 34
0.0
 15
841.0
 25
594.0
 35
0.0
146
0.0
 13
0.0
 23
0.0
 33
0.0
 16
1.0
 26
0.0
 36
0.0
 17
0.0
 27
1.0
 37
0.0
 76
     0
330
1F
331
29
  0
MLINESTYLE
  5
18
102
{ACAD_REACTORS
330
17
102
}
330
17
100
AcDbMlineStyle
  2
Standard
 70
     0
  3

 62
   256
 51
90.0
 52
90.0
 71
     2
 49
0.5
 62
   256
  6
BYLAYER
 49
-0.5
 62
   256
  6
BYLAYER
  0
ACDBPLACEHOLDER
  5
F
102
{ACAD_REACTORS
330
E
102
}
330
E
  0
ENDSEC
  0
EOF
