  0
SECTION
  2
HEADER
  9
$ACADVER
  1
AC1009
  9
$DWGCODEPAGE
  3
ansi_1252
  9
$INSBASE
 10
0.0
 20
0.0
 30
0.0
  9
$EXTMIN
 10
0.0
 20
0.0
 30
0.0
  9
$EXTMAX
 10
594.0
 20
420.0
 30
0.0
  9
$LIMMIN
 10
0.0
 20
0.0
  9
$LIMMAX
 10
594.0
 20
420.0
  9
$ORTHOMODE
 70
     0
  9
$REGENMODE
 70
     1
  9
$FILLMODE
 70
     1
  9
$QTEXTMODE
 70
     0
  9
$MIRRTEXT
 70
     1
  9
$DRAGMODE
 70
     2
  9
$LTSCALE
 40
1.0
  9
$OSMODE
 70
    37
  9
$ATTMODE
 70
     1
  9
$TEXTSIZE
 40
3.5
  9
$TRACEWID
 40
1.0
  9
$TEXTSTYLE
  7
STANDARD
  9
$CLAYER
  8
0
  9
$CELTYPE
  6
BYLAYER
  9
$CECOLOR
 62
   256
  9
$DIMSCALE
 40
1.0
  9
$DIMASZ
 40
3.302
  9
$DIMEXO
 40
1.0
  9
$DIMDLI
 40
3.75
  9
$DIMRND
 40
0.0
  9
$DIMDLE
 40
0.0
  9
$DIMEXE
 40
1.0
  9
$DIMTP
 40
0.0
  9
$DIMTM
 40
0.0
  9
$DIMTXT
 40
3.5
  9
$DIMCEN
 40
2.5
  9
$DIMTSZ
 40
0.0
  9
$DIMTOL
 70
     0
  9
$DIMLIM
 70
     0
  9
$DIMTIH
 70
     1
  9
$DIMTOH
 70
     1
  9
$DIMSE1
 70
     0
  9
$DIMSE2
 70
     0
  9
$DIMTAD
 70
     1
  9
$DIMZIN
 70
     0
  9
$DIMBLK
  1

  9
$DIMASO
 70
     1
  9
$DIMSHO
 70
     1
  9
$DIMPOST
  1

  9
$DIMAPOST
  1

  9
$DIMALT
 70
     0
  9
$DIMALTD
 70
     3
  9
$DIMALTF
 40
0.0393700787
  9
$DIMLFAC
 40
1.0
  9
$DIMTOFL
 70
     1
  9
$DIMTVP
 40
0.0
  9
$DIMTIX
 70
     0
  9
$DIMSOXD
 70
     0
  9
$DIMSAH
 70
     0
  9
$DIMBLK1
  1

  9
$DIMBLK2
  1

  9
$DIMSTYLE
  2
ISO-25
  9
$DIMCLRD
 70
     0
  9
$DIMCLRE
 70
     0
  9
$DIMCLRT
 70
     0
  9
$DIMTFAC
 40
1.0
  9
$DIMGAP
 40
1.524
  9
$LUNITS
 70
     2
  9
$LUPREC
 70
     2
  9
$SKETCHINC
 40
1.0
  9
$FILLETRAD
 40
10.0
  9
$AUNITS
 70
     0
  9
$AUPREC
 70
     2
  9
$MENU
  1
.
  9
$ELEVATION
 40
0.0
  9
$PELEVATION
 40
0.0
  9
$THICKNESS
 40
0.0
  9
$LIMCHECK
 70
     0
  9
$CHAMFERA
 40
10.0
  9
$CHAMFERB
 40
10.0
  9
$SKPOLY
 70
     0
  9
$TDCREATE
 40
2457864.411700648
  9
$TDUPDATE
 40
2457864.411701551
  9
$TDINDWG
 40
0.0000000116
  9
$TDUSRTIMER
 40
0.0000000116
  9
$USRTIMER
 70
     1
  9
$ANGBASE
 50
0.0
  9
$ANGDIR
 70
     0
  9
$PDMODE
 70
     0
  9
$PDSIZE
 40
-1.0
  9
$PLINEWID
 40
0.0
  9
$COORDS
 70
     1
  9
$SPLFRAME
 70
     0
  9
$SPLINETYPE
 70
     6
  9
$SPLINESEGS
 70
     8
  9
$ATTDIA
 70
     0
  9
$ATTREQ
 70
     1
  9
$HANDLING
 70
     1
  9
$HANDSEED
  5
7A6
  9
$SURFTAB1
 70
     6
  9
$SURFTAB2
 70
     6
  9
$SURFTYPE
 70
     6
  9
$SURFU
 70
     6
  9
$SURFV
 70
     6
  9
$UCSNAME
  2

  9
$UCSORG
 10
0.0
 20
0.0
 30
0.0
  9
$UCSXDIR
 10
1.0
 20
0.0
 30
0.0
  9
$UCSYDIR
 10
0.0
 20
1.0
 30
0.0
  9
$PUCSNAME
  2

  9
$PUCSORG
 10
0.0
 20
0.0
 30
0.0
  9
$PUCSXDIR
 10
1.0
 20
0.0
 30
0.0
  9
$PUCSYDIR
 10
0.0
 20
1.0
 30
0.0
  9
$USERI1
 70
     0
  9
$USERI2
 70
     0
  9
$USERI3
 70
     0
  9
$USERI4
 70
     0
  9
$USERI5
 70
     0
  9
$USERR1
 40
0.0
  9
$USERR2
 40
0.0
  9
$USERR3
 40
0.0
  9
$USERR4
 40
0.0
  9
$USERR5
 40
0.0
  9
$WORLDVIEW
 70
     1
  9
$SHADEDGE
 70
     3
  9
$SHADEDIF
 70
    70
  9
$TILEMODE
 70
     1
  9
$MAXACTVP
 70
    64
  9
$PLIMCHECK
 70
     0
  9
$PEXTMIN
 10
1.0000000000E+20
 20
1.0000000000E+20
 30
1.0000000000E+20
  9
$PEXTMAX
 10
-1.0000000000E+20
 20
-1.0000000000E+20
 30
-1.0000000000E+20
  9
$PLIMMIN
 10
0.0
 20
0.0
  9
$PLIMMAX
 10
420.0
 20
297.0
  9
$UNITMODE
 70
     0
  9
$VISRETAIN
 70
     1
  9
$PLINEGEN
 70
     0
  9
$PSLTSCALE
 70
     1
  0
ENDSEC
  0
SECTION
  2
TABLES
  0
TABLE
  2
VPORT
 70
     1
  0
VPORT
  2
*ACTIVE
 70
     0
 10
0.0
 20
0.0
 11
1.0
 21
1.0
 12
297.0
 22
210.0
 13
0.0
 23
0.0
 14
10.0
 24
10.0
 15
10.0
 25
10.0
 16
0.0
 26
0.0
 36
1.0
 17
0.0
 27
0.0
 37
0.0
 40
420.0
 41
1.4142857143
 42
50.0
 43
0.0
 44
0.0
 50
0.0
 51
0.0
 71
     0
 72
  2000
 73
     1
 74
     3
 75
     0
 76
     0
 77
     0
 78
     0
  0
ENDTAB
  0
TABLE
  2
LTYPE
 70
     6
  0
LTYPE
  2
CONTINUOUS
 70
     0
  3
Solid line
 72
    65
 73
     0
 40
0.0
  0
LTYPE
  2
HIDDEN
 70
     0
  3
Hidden __ __ __ __ __ __ __ __ __ __ __ __ __ __
 72
    65
 73
     2
 40
1.905
 49
1.27
 49
-0.635
  0
LTYPE
  2
PHANTOM
 70
     0
  3
Phantom ______  __  __  ______  __  __  ______
 72
    65
 73
     6
 40
12.7
 49
6.35
 49
-1.27
 49
1.27
 49
-1.27
 49
1.27
 49
-1.27
  0
LTYPE
  2
CENTER
 70
     0
  3
Center ____ _ ____ _ ____ _ ____ _ ____ _ ____
 72
    65
 73
     4
 40
10.16
 49
6.35
 49
-1.27
 49
1.27
 49
-1.27
  0
LTYPE
  2
CENTERX2
 70
     0
  3
Center (2x) ________  __  ________  __  _____
 72
    65
 73
     4
 40
20.32
 49
12.7
 49
-2.54
 49
2.54
 49
-2.54
  0
LTYPE
  2
DOT2
 70
     0
  3
Dot (.5x) ........................................
 72
    65
 73
     2
 40
0.635
 49
0.0
 49
-0.635
  0
ENDTAB
  0
TABLE
  2
LAYER
 70
     3
  0
LAYER
  2
0
 70
     0
 62
     7
  6
CONTINUOUS
  0
LAYER
  2
FORMAT
 70
     0
 62
     7
  6
CONTINUOUS
  0
LAYER
  2
PROTOTYPE
 70
     0
 62
    -7
  6
CONTINUOUS
  0
ENDTAB
  0
TABLE
  2
STYLE
 70
     1
  0
STYLE
  2
STANDARD
 70
     0
 40
0.0
 41
1.0
 50
0.0
 71
     0
 42
3.5
  3
txt
  4

  0
ENDTAB
  0
TABLE
  2
VIEW
 70
     0
  0
ENDTAB
  0
TABLE
  2
UCS
 70
     0
  0
ENDTAB
  0
TABLE
  2
APPID
 70
     1
  0
APPID
  2
ACAD
 70
     0
  0
ENDTAB
  0
TABLE
  2
DIMSTYLE
 70
     1
  0
DIMSTYLE
  2
ISO-25
 70
     0
  3

  4

  5

  6

  7

 40
1.0
 41
2.5
 42
0.625
 43
3.75
 44
1.25
 45
0.0
 46
0.0
 47
0.0
 48
0.0
140
2.5
141
2.5
142
0.0
143
0.0393700787
144
1.0
145
0.0
146
1.0
147
0.625
 71
     0
 72
     0
 73
     0
 74
     0
 75
     0
 76
     0
 77
     1
 78
     8
170
     0
171
     3
172
     1
173
     0
174
     0
175
     0
176
     0
177
     0
178
     0
  0
ENDTAB
  0
ENDSEC
  0
SECTION
  2
BLOCKS
  0
BLOCK
  8
0
  2
$MODEL_SPACE
 70
     0
 10
0.0
 20
0.0
 30
0.0
  3
$MODEL_SPACE
  1

  0
ENDBLK
  5
21
  8
0
  0
BLOCK
 67
     1
  8
0
  2
$PAPER_SPACE
 70
     0
 10
0.0
 20
0.0
 30
0.0
  3
$PAPER_SPACE
  1

  0
ENDBLK
  5
1D
 67
     1
  8
0
  0
BLOCK
  8
0
  2
SW_CENTERMARKSYMBOL_0
 70
     0
 10
0.0
 20
0.0
 30
0.0
  3
SW_CENTERMARKSYMBOL_0
  1

  0
LINE
  5
171
  8
FORMAT
 62
     0
 10
0.0
 20
0.0
 30
0.0
 11
0.0
 21
2.5
 31
0.0
  0
LINE
  5
172
  8
FORMAT
 62
     0
 10
0.0
 20
0.0
 30
0.0
 11
-2.5
 21
0.0
 31
0.0
  0
LINE
  5
173
  8
FORMAT
 62
     0
 10
0.0
 20
0.0
 30
0.0
 11
0.0
 21
-2.5
 31
0.0
  0
LINE
  5
174
  8
FORMAT
 62
     0
 10
0.0
 20
0.0
 30
0.0
 11
2.5
 21
0.0
 31
0.0
  0
LINE
  5
175
  8
FORMAT
 62
     0
 10
0.0
 20
5.0
 30
0.0
 11
0.0
 21
500.7856501704
 31
0.0
  0
LINE
  5
176
  8
FORMAT
 62
     0
 10
-5.0
 20
0.0
 30
0.0
 11
-178.7544008456
 21
0.0
 31
0.0
  0
LINE
  5
177
  8
FORMAT
 62
     0
 10
0.0
 20
-5.0
 30
0.0
 11
0.0
 21
-177.9667842797
 31
0.0
  0
LINE
  5
178
  8
FORMAT
 62
     0
 10
5.0
 20
0.0
 30
0.0
 11
176.8707466662
 21
0.0
 31
0.0
  0
ENDBLK
  5
170
  8
0
  0
BLOCK
  8
0
  2
SW_CENTERMARKSYMBOL_1
 70
     0
 10
0.0
 20
0.0
 30
0.0
  3
SW_CENTERMARKSYMBOL_1
  1

  0
LINE
  5
412
  8
FORMAT
 62
     0
 10
0.0
 20
0.0
 30
0.0
 11
0.0
 21
2.5
 31
0.0
  0
LINE
  5
413
  8
FORMAT
 62
     0
 10
0.0
 20
0.0
 30
0.0
 11
-2.5
 21
0.0
 31
0.0
  0
LINE
  5
414
  8
FORMAT
 62
     0
 10
0.0
 20
0.0
 30
0.0
 11
0.0
 21
-2.5
 31
0.0
  0
LINE
  5
415
  8
FORMAT
 62
     0
 10
0.0
 20
0.0
 30
0.0
 11
2.5
 21
0.0
 31
0.0
  0
LINE
  5
416
  8
FORMAT
 62
     0
 10
0.0
 20
5.0
 30
0.0
 11
0.0
 21
122.6937194541
 31
0.0
  0
LINE
  5
417
  8
FORMAT
 62
     0
 10
-5.0
 20
0.0
 30
0.0
 11
-175.730243462
 21
0.0
 31
0.0
  0
LINE
  5
418
  8
FORMAT
 62
     0
 10
0.0
 20
-5.0
 30
0.0
 11
0.0
 21
-120.6268650083
 31
0.0
  0
LINE
  5
419
  8
FORMAT
 62
     0
 10
5.0
 20
0.0
 30
0.0
 11
176.0733219824
 21
0.0
 31
0.0
  0
ENDBLK
  5
411
  8
0
  0
ENDSEC
  0
SECTION
  2
ENTITIES
  0
LINE
  5
46
  8
0
  6
CONTINUOUS
 62
     7
 10
-97.1762856747
 20
662.8656997634
 30
0.0
 11
-98.0056247021
 21
647.0409645987
 31
0.0
  0
LINE
  5
47
  8
0
  6
CONTINUOUS
 62
     7
 10
213.2947126125
 20
647.0409645987
 30
0.0
 11
212.4653735851
 21
662.8656997634
 31
0.0
  0
LINE
  5
48
  8
0
  6
CONTINUOUS
 62
     7
 10
102.674903134
 20
760.4814037038
 30
0.0
 11
102.0398119186
 21
796.8656882001
 31
0.0
  0
LINE
  5
49
  8
0
  6
CONTINUOUS
 62
     7
 10
13.2492759918
 20
796.8656882001
 30
0.0
 11
12.6134620701
 21
760.4399486733
 31
0.0
  0
LINE
  5
4A
  8
0
  6
CONTINUOUS
 62
     7
 10
224.6445396637
 20
635.865704651
 30
0.0
 11
224.2252805923
 21
643.8657059623
 31
0.0
  0
LINE
  5
4B
  8
0
  6
CONTINUOUS
 62
     7
 10
-108.9361926819
 20
643.8657059623
 30
0.0
 11
-109.3554517533
 21
635.865704651
 31
0.0
  0
LINE
  5
4C
  8
0
  6
CONTINUOUS
 62
     7
 10
-98.3555784727
 20
645.7313462449
 30
0.0
 11
-108.9361926819
 21
643.8657059623
 31
0.0
  0
LINE
  5
4D
  8
0
  6
CONTINUOUS
 62
     7
 10
224.2252805923
 20
643.8657059623
 30
0.0
 11
213.6446663831
 21
645.7313462449
 31
0.0
  0
LINE
  5
4E
  8
0
  6
CONTINUOUS
 62
     7
 10
223.2478240226
 20
628.0957474662
 30
0.0
 11
223.6445376371
 21
635.6657012654
 31
0.0
  0
LINE
  5
4F
  8
0
  6
CONTINUOUS
 62
     7
 10
-108.3554497267
 20
635.6657012654
 30
0.0
 11
-107.9587361123
 21
628.0957474662
 31
0.0
  0
LINE
  5
50
  8
0
  6
CONTINUOUS
 62
     7
 10
-107.9587361123
 20
628.0957474662
 30
0.0
 11
-100.0490209366
 21
626.7010583831
 31
0.0
  0
LINE
  5
51
  8
0
  6
CONTINUOUS
 62
     7
 10
215.338108847
 20
626.7010583831
 30
0.0
 11
223.2478240226
 21
628.0957474662
 31
0.0
  0
LINE
  5
52
  8
0
  6
CONTINUOUS
 62
     7
 10
90.1445427631
 20
796.8656882001
 30
0.0
 11
85.9391798918
 21
857.0052250577
 31
0.0
  0
ARC
  5
53
  8
0
  6
CONTINUOUS
 62
     7
 10
83.9440514424
 20
856.8657024575
 30
0.0
 40
2.0
 50
4.0
 51
90.0
  0
LINE
  5
54
  8
0
  6
CONTINUOUS
 62
     7
 10
43.6445435231
 20
871.2101741982
 30
0.0
 11
43.6445435231
 21
858.8656946374
 31
0.0
  0
LINE
  5
55
  8
0
  6
CONTINUOUS
 62
     7
 10
71.6445443873
 20
858.8656946374
 30
0.0
 11
71.6445443873
 21
871.2101741982
 31
0.0
  0
LINE
  5
56
  8
0
  6
CONTINUOUS
 62
     7
 10
43.6445435231
 20
635.865704651
 30
0.0
 11
43.6445435231
 21
635.6657012654
 31
0.0
  0
LINE
  5
57
  8
0
  6
CONTINUOUS
 62
     7
 10
71.6445443873
 20
635.6657012654
 30
0.0
 11
71.6445443873
 21
635.865704651
 31
0.0
  0
CIRCLE
  5
58
  8
0
  6
CONTINUOUS
 62
     7
 10
57.6445439552
 20
415.6657024575
 30
0.0
 40
131.5000000000001
  0
CIRCLE
  5
59
  8
0
  6
CONTINUOUS
 62
     7
 10
57.6445439552
 20
415.6657024575
 30
0.0
 40
134.5000000000001
  0
CIRCLE
  5
5A
  8
0
  6
CONTINUOUS
 62
     7
 10
57.6445439552
 20
415.6657024575
 30
0.0
 40
100.0
  0
CIRCLE
  5
5B
  8
0
  6
CONTINUOUS
 62
     7
 10
57.6445439552
 20
415.6657024575
 30
0.0
 40
170.0000000000001
  0
CIRCLE
  5
5C
  8
0
  6
CONTINUOUS
 62
     7
 10
19.4687348026
 20
558.1397618351
 30
0.0
 40
11.5
  0
CIRCLE
  5
5D
  8
0
  6
CONTINUOUS
 62
     7
 10
-84.8295154224
 20
377.4898933049
 30
0.0
 40
11.50000000000001
  0
CIRCLE
  5
5E
  8
0
  6
CONTINUOUS
 62
     7
 10
95.8203531078
 20
558.1397618351
 30
0.0
 40
11.5
  0
CIRCLE
  5
5F
  8
0
  6
CONTINUOUS
 62
     7
 10
161.9427941802
 20
311.3674522325
 30
0.0
 40
11.5
  0
CIRCLE
  5
60
  8
0
  6
CONTINUOUS
 62
     7
 10
-46.6537062698
 20
519.9639526825
 30
0.0
 40
11.49999999999995
  0
CIRCLE
  5
61
  8
0
  6
CONTINUOUS
 62
     7
 10
95.8203531078
 20
273.1916430799
 30
0.0
 40
11.5
  0
CIRCLE
  5
62
  8
0
  6
CONTINUOUS
 62
     7
 10
19.4687348026
 20
273.1916430799
 30
0.0
 40
11.5
  0
CIRCLE
  5
63
  8
0
  6
CONTINUOUS
 62
     7
 10
200.1186033328
 20
377.4898933049
 30
0.0
 40
11.50000000000003
  0
CIRCLE
  5
64
  8
0
  6
CONTINUOUS
 62
     7
 10
200.1186033328
 20
453.8415116101
 30
0.0
 40
11.5
  0
CIRCLE
  5
65
  8
0
  6
CONTINUOUS
 62
     7
 10
161.9427941802
 20
519.9639526825
 30
0.0
 40
11.49999999999997
  0
CIRCLE
  5
66
  8
0
  6
CONTINUOUS
 62
     7
 10
-46.6537062698
 20
311.3674522325
 30
0.0
 40
11.49999999999998
  0
CIRCLE
  5
67
  8
0
  6
CONTINUOUS
 62
     7
 10
-84.8295154224
 20
453.8415116101
 30
0.0
 40
11.5
  0
LINE
  5
68
  8
0
  6
CONTINUOUS
 62
     7
 10
-22.7745270635
 20
265.889958973
 30
0.0
 11
-17.355459025
 21
245.6657006694
 31
0.0
  0
LINE
  5
69
  8
0
  6
CONTINUOUS
 62
     7
 10
-17.355459025
 20
245.6657006694
 30
0.0
 11
57.6445439552
 21
245.6657006694
 31
0.0
  0
LINE
  5
6A
  8
0
  6
CONTINUOUS
 62
     7
 10
138.0636149739
 20
265.889958973
 30
0.0
 11
132.6445469354
 21
245.6657006694
 31
0.0
  0
LINE
  5
6B
  8
0
  6
CONTINUOUS
 62
     7
 10
132.6445469354
 20
245.6657006694
 30
0.0
 11
57.6445439552
 21
245.6657006694
 31
0.0
  0
LINE
  5
6C
  8
0
  6
CONTINUOUS
 62
     7
 10
-91.3627317454
 20
635.865704651
 30
0.0
 11
-91.2242105509
 21
643.8657059623
 31
0.0
  0
LINE
  5
6D
  8
0
  6
CONTINUOUS
 62
     7
 10
-91.2242105509
 20
643.8657059623
 30
0.0
 11
206.5132984613
 21
643.8657059623
 31
0.0
  0
LINE
  5
6E
  8
0
  6
CONTINUOUS
 62
     7
 10
206.6518196558
 20
635.865704651
 30
0.0
 11
206.5132984613
 21
643.8657059623
 31
0.0
  0
LINE
  5
6F
  8
0
  6
CONTINUOUS
 62
     7
 10
206.6518196558
 20
635.865704651
 30
0.0
 11
-91.3627317454
 21
635.865704651
 31
0.0
  0
LINE
  5
70
  8
0
  6
CONTINUOUS
 62
     7
 10
-87.6528641488
 20
645.7716985894
 30
0.0
 11
-91.2242105509
 21
643.8657059623
 31
0.0
  0
ARC
  5
71
  8
0
  6
CONTINUOUS
 62
     7
 10
-86.3102756093
 20
704.4619544553
 30
0.0
 40
58.70561027355888
 50
268.6895398275
 51
285.6727460834
  0
POLYLINE
  5
72
  8
0
  6
CONTINUOUS
 62
     7
 66
     1
 10
0.0
 20
0.0
 30
0.0
  0
VERTEX
  5
41B
  8
0
  6
CONTINUOUS
 62
     7
 10
-12.8736367728
 20
648.6789896441
 30
0.0
  0
VERTEX
  5
41C
  8
0
  6
CONTINUOUS
 62
     7
 10
-27.3334032203
 20
648.5338225318
 30
0.0
  0
VERTEX
  5
41D
  8
0
  6
CONTINUOUS
 62
     7
 10
-41.7441597487
 20
648.362086649
 30
0.0
  0
VERTEX
  5
41E
  8
0
  6
CONTINUOUS
 62
     7
 10
-56.1307465936
 20
648.1635882808
 30
0.0
  0
VERTEX
  5
41F
  8
0
  6
CONTINUOUS
 62
     7
 10
-70.4513958002
 20
647.9389979792
 30
0.0
  0
SEQEND
  5
7A5
  8
0
  6
CONTINUOUS
 62
     7
  0
LINE
  5
73
  8
0
  6
CONTINUOUS
 62
     7
 10
-12.0117610599
 20
646.2408467484
 30
0.0
 11
-12.8736367728
 21
648.6789896441
 31
0.0
  0
POLYLINE
  5
74
  8
0
  6
CONTINUOUS
 62
     7
 66
     1
 10
0.0
 20
0.0
 30
0.0
  0
VERTEX
  5
420
  8
0
  6
CONTINUOUS
 62
     7
 10
17.0005948936
 20
646.5332373334
 30
0.0
  0
VERTEX
  5
421
  8
0
  6
CONTINUOUS
 62
     7
 10
16.1453352963
 20
646.0325285149
 30
0.0
  0
VERTEX
  5
422
  8
0
  6
CONTINUOUS
 62
     7
 10
14.97690917
 20
645.6232830239
 30
0.0
  0
VERTEX
  5
423
  8
0
  6
CONTINUOUS
 62
     7
 10
13.4463848268
 20
645.2469840003
 30
0.0
  0
VERTEX
  5
424
  8
0
  6
CONTINUOUS
 62
     7
 10
11.6040760373
 20
644.9167891694
 30
0.0
  0
VERTEX
  5
425
  8
0
  6
CONTINUOUS
 62
     7
 10
9.4967724477
 20
644.6387633038
 30
0.0
  0
VERTEX
  5
426
  8
0
  6
CONTINUOUS
 62
     7
 10
7.2139890586
 20
644.424216385
 30
0.0
  0
VERTEX
  5
427
  8
0
  6
CONTINUOUS
 62
     7
 10
4.7964023148
 20
644.2742063952
 30
0.0
  0
VERTEX
  5
428
  8
0
  6
CONTINUOUS
 62
     7
 10
2.3461857532
 20
644.1946192933
 30
0.0
  0
VERTEX
  5
429
  8
0
  6
CONTINUOUS
 62
     7
 10
-0.0974109675
 20
644.1843076897
 30
0.0
  0
VERTEX
  5
42A
  8
0
  6
CONTINUOUS
 62
     7
 10
-2.4459941591
 20
644.2438080264
 30
0.0
  0
VERTEX
  5
42B
  8
0
  6
CONTINUOUS
 62
     7
 10
-4.6533031668
 20
644.3701847745
 30
0.0
  0
VERTEX
  5
42C
  8
0
  6
CONTINUOUS
 62
     7
 10
-6.6576322819
 20
644.5610984517
 30
0.0
  0
VERTEX
  5
42D
  8
0
  6
CONTINUOUS
 62
     7
 10
-8.4046593214
 20
644.8103352738
 30
0.0
  0
VERTEX
  5
42E
  8
0
  6
CONTINUOUS
 62
     7
 10
-9.8559430148
 20
645.1149597121
 30
0.0
  0
VERTEX
  5
42F
  8
0
  6
CONTINUOUS
 62
     7
 10
-10.9603053237
 20
645.4640045119
 30
0.0
  0
VERTEX
  5
430
  8
0
  6
CONTINUOUS
 62
     7
 10
-11.6738101746
 20
645.8402886344
 30
0.0
  0
VERTEX
  5
431
  8
0
  6
CONTINUOUS
 62
     7
 10
-12.0117610599
 20
646.2408467484
 30
0.0
  0
SEQEND
  5
7A4
  8
0
  6
CONTINUOUS
 62
     7
  0
LINE
  5
75
  8
0
  6
CONTINUOUS
 62
     7
 10
19.6940282081
 20
648.906753893
 30
0.0
 11
17.0005948936
 21
646.5332373334
 31
0.0
  0
POLYLINE
  5
76
  8
0
  6
CONTINUOUS
 62
     7
 66
     1
 10
0.0
 20
0.0
 30
0.0
  0
VERTEX
  5
432
  8
0
  6
CONTINUOUS
 62
     7
 10
95.5950597023
 20
648.906753893
 30
0.0
  0
VERTEX
  5
433
  8
0
  6
CONTINUOUS
 62
     7
 10
76.6384785716
 20
648.9762827111
 30
0.0
  0
VERTEX
  5
434
  8
0
  6
CONTINUOUS
 62
     7
 10
57.6447439552
 20
648.9994987202
 30
0.0
  0
VERTEX
  5
435
  8
0
  6
CONTINUOUS
 62
     7
 10
38.6693866645
 20
648.9763274146
 30
0.0
  0
VERTEX
  5
436
  8
0
  6
CONTINUOUS
 62
     7
 10
19.6940282081
 20
648.906753893
 30
0.0
  0
SEQEND
  5
7A3
  8
0
  6
CONTINUOUS
 62
     7
  0
LINE
  5
77
  8
0
  6
CONTINUOUS
 62
     7
 10
95.5950597023
 20
648.906753893
 30
0.0
 11
98.2884930168
 21
646.5332373334
 31
0.0
  0
POLYLINE
  5
78
  8
0
  6
CONTINUOUS
 62
     7
 66
     1
 10
0.0
 20
0.0
 30
0.0
  0
VERTEX
  5
437
  8
0
  6
CONTINUOUS
 62
     7
 10
98.2884930168
 20
646.5332373334
 30
0.0
  0
VERTEX
  5
438
  8
0
  6
CONTINUOUS
 62
     7
 10
99.1437526141
 20
646.0325285149
 30
0.0
  0
VERTEX
  5
439
  8
0
  6
CONTINUOUS
 62
     7
 10
100.3121787404
 20
645.6232830239
 30
0.0
  0
VERTEX
  5
43A
  8
0
  6
CONTINUOUS
 62
     7
 10
101.8427030836
 20
645.2469840003
 30
0.0
  0
VERTEX
  5
43B
  8
0
  6
CONTINUOUS
 62
     7
 10
103.6850118731
 20
644.9167891694
 30
0.0
  0
VERTEX
  5
43C
  8
0
  6
CONTINUOUS
 62
     7
 10
105.7923154627
 20
644.6387633038
 30
0.0
  0
VERTEX
  5
43D
  8
0
  6
CONTINUOUS
 62
     7
 10
108.0750988518
 20
644.424216385
 30
0.0
  0
VERTEX
  5
43E
  8
0
  6
CONTINUOUS
 62
     7
 10
110.4926855956
 20
644.2742063952
 30
0.0
  0
VERTEX
  5
43F
  8
0
  6
CONTINUOUS
 62
     7
 10
112.9429021572
 20
644.1946192933
 30
0.0
  0
VERTEX
  5
440
  8
0
  6
CONTINUOUS
 62
     7
 10
115.3864988779
 20
644.1843076897
 30
0.0
  0
VERTEX
  5
441
  8
0
  6
CONTINUOUS
 62
     7
 10
117.7350820695
 20
644.2438080264
 30
0.0
  0
VERTEX
  5
442
  8
0
  6
CONTINUOUS
 62
     7
 10
119.9423910771
 20
644.3701847745
 30
0.0
  0
VERTEX
  5
443
  8
0
  6
CONTINUOUS
 62
     7
 10
121.9467201923
 20
644.5610984517
 30
0.0
  0
VERTEX
  5
444
  8
0
  6
CONTINUOUS
 62
     7
 10
123.6937472318
 20
644.8103352738
 30
0.0
  0
VERTEX
  5
445
  8
0
  6
CONTINUOUS
 62
     7
 10
125.1450309251
 20
645.1149597121
 30
0.0
  0
VERTEX
  5
446
  8
0
  6
CONTINUOUS
 62
     7
 10
126.2493932341
 20
645.4640045119
 30
0.0
  0
VERTEX
  5
447
  8
0
  6
CONTINUOUS
 62
     7
 10
126.962898085
 20
645.8402886344
 30
0.0
  0
VERTEX
  5
448
  8
0
  6
CONTINUOUS
 62
     7
 10
127.3008489703
 20
646.2408467484
 30
0.0
  0
SEQEND
  5
7A2
  8
0
  6
CONTINUOUS
 62
     7
  0
LINE
  5
79
  8
0
  6
CONTINUOUS
 62
     7
 10
127.3008489703
 20
646.2408467484
 30
0.0
 11
128.1627246832
 21
648.6789896441
 31
0.0
  0
POLYLINE
  5
7A
  8
0
  6
CONTINUOUS
 62
     7
 66
     1
 10
0.0
 20
0.0
 30
0.0
  0
VERTEX
  5
449
  8
0
  6
CONTINUOUS
 62
     7
 10
128.1627246832
 20
648.6789896441
 30
0.0
  0
VERTEX
  5
44A
  8
0
  6
CONTINUOUS
 62
     7
 10
142.6224911307
 20
648.5338225318
 30
0.0
  0
VERTEX
  5
44B
  8
0
  6
CONTINUOUS
 62
     7
 10
157.0332476591
 20
648.362086649
 30
0.0
  0
VERTEX
  5
44C
  8
0
  6
CONTINUOUS
 62
     7
 10
171.419834504
 20
648.1635882808
 30
0.0
  0
VERTEX
  5
44D
  8
0
  6
CONTINUOUS
 62
     7
 10
185.7404837106
 20
647.9389979792
 30
0.0
  0
SEQEND
  5
7A1
  8
0
  6
CONTINUOUS
 62
     7
  0
ARC
  5
7B
  8
0
  6
CONTINUOUS
 62
     7
 10
201.5993635196
 20
704.4619544553
 30
0.0
 40
58.70561027355888
 50
254.3272539166
 51
271.3104601725
  0
LINE
  5
7C
  8
0
  6
CONTINUOUS
 62
     7
 10
202.9419520591
 20
645.7716985894
 30
0.0
 11
206.5132984613
 21
643.8657059623
 31
0.0
  0
LINE
  5
7D
  8
0
  6
CONTINUOUS
 62
     7
 10
-89.6259120013
 20
628.0957474662
 30
0.0
 11
-89.7558501269
 21
635.6657012654
 31
0.0
  0
LINE
  5
7E
  8
0
  6
CONTINUOUS
 62
     7
 10
204.9149999117
 20
628.0957474662
 30
0.0
 11
205.0449380373
 21
635.6657012654
 31
0.0
  0
LINE
  5
7F
  8
0
  6
CONTINUOUS
 62
     7
 10
204.9149999117
 20
628.0957474662
 30
0.0
 11
-89.6259120013
 21
628.0957474662
 31
0.0
  0
LINE
  5
80
  8
0
  6
CONTINUOUS
 62
     7
 10
-89.7558501269
 20
635.6657012654
 30
0.0
 11
205.0449380373
 21
635.6657012654
 31
0.0
  0
POLYLINE
  5
81
  8
0
  6
CONTINUOUS
 62
     7
 66
     1
 10
0.0
 20
0.0
 30
0.0
  0
VERTEX
  5
44E
  8
0
  6
CONTINUOUS
 62
     7
 10
-9.4594454671
 20
625.6493940306
 30
0.0
  0
VERTEX
  5
44F
  8
0
  6
CONTINUOUS
 62
     7
 10
-8.4697252418
 20
626.303644414
 30
0.0
  0
VERTEX
  5
450
  8
0
  6
CONTINUOUS
 62
     7
 10
-7.4767863656
 20
626.5937849236
 30
0.0
  0
VERTEX
  5
451
  8
0
  6
CONTINUOUS
 62
     7
 10
-6.1888044979
 20
626.8439307166
 30
0.0
  0
VERTEX
  5
452
  8
0
  6
CONTINUOUS
 62
     7
 10
-4.6541078295
 20
627.0444854451
 30
0.0
  0
VERTEX
  5
453
  8
0
  6
CONTINUOUS
 62
     7
 10
-2.9076395835
 20
627.1930947257
 30
0.0
  0
VERTEX
  5
454
  8
0
  6
CONTINUOUS
 62
     7
 10
-1.0247251297
 20
627.2837533904
 30
0.0
  0
VERTEX
  5
455
  8
0
  6
CONTINUOUS
 62
     7
 10
0.9621137475
 20
627.3171170903
 30
0.0
  0
VERTEX
  5
456
  8
0
  6
CONTINUOUS
 62
     7
 10
2.3249739503
 20
627.30646276
 30
0.0
  0
SEQEND
  5
7A0
  8
0
  6
CONTINUOUS
 62
     7
  0
LINE
  5
82
  8
0
  6
CONTINUOUS
 62
     7
 10
-10.240668645
 20
624.0008636666
 30
0.0
 11
-9.4594454671
 21
625.6493940306
 31
0.0
  0
POLYLINE
  5
83
  8
0
  6
CONTINUOUS
 62
     7
 66
     1
 10
0.0
 20
0.0
 30
0.0
  0
VERTEX
  5
457
  8
0
  6
CONTINUOUS
 62
     7
 10
-16.3062608148
 20
622.8952720118
 30
0.0
  0
VERTEX
  5
458
  8
0
  6
CONTINUOUS
 62
     7
 10
-15.6790187861
 20
622.9116036845
 30
0.0
  0
VERTEX
  5
459
  8
0
  6
CONTINUOUS
 62
     7
 10
-13.276109686
 20
623.0791970444
 30
0.0
  0
VERTEX
  5
45A
  8
0
  6
CONTINUOUS
 62
     7
 10
-11.4550387765
 20
623.3893051101
 30
0.0
  0
VERTEX
  5
45B
  8
0
  6
CONTINUOUS
 62
     7
 10
-10.4088878538
 20
623.8103821231
 30
0.0
  0
VERTEX
  5
45C
  8
0
  6
CONTINUOUS
 62
     7
 10
-10.240668645
 20
624.0008636666
 30
0.0
  0
SEQEND
  5
79F
  8
0
  6
CONTINUOUS
 62
     7
  0
LINE
  5
84
  8
0
  6
CONTINUOUS
 62
     7
 10
-16.3062608148
 20
622.8952720118
 30
0.0
 11
-18.4448531176
 21
622.9070886327
 31
0.0
  0
POLYLINE
  5
85
  8
0
  6
CONTINUOUS
 62
     7
 66
     1
 10
0.0
 20
0.0
 30
0.0
  0
VERTEX
  5
45D
  8
0
  6
CONTINUOUS
 62
     7
 10
-83.6341550852
 20
625.5536093665
 30
0.0
  0
VERTEX
  5
45E
  8
0
  6
CONTINUOUS
 62
     7
 10
-51.050419202
 20
624.0217401934
 30
0.0
  0
VERTEX
  5
45F
  8
0
  6
CONTINUOUS
 62
     7
 10
-18.4448531176
 20
622.9070886327
 30
0.0
  0
SEQEND
  5
79E
  8
0
  6
CONTINUOUS
 62
     7
  0
LINE
  5
86
  8
0
  6
CONTINUOUS
 62
     7
 10
-85.0122889782
 20
625.6121858311
 30
0.0
 11
-83.6341550852
 21
625.5536093665
 31
0.0
  0
LINE
  5
87
  8
0
  6
CONTINUOUS
 62
     7
 10
-85.0122889782
 20
625.6121858311
 30
0.0
 11
-89.6259120013
 21
628.0957474662
 31
0.0
  0
LINE
  5
88
  8
0
  6
CONTINUOUS
 62
     7
 10
200.3013768886
 20
625.6121858311
 30
0.0
 11
204.9149999117
 21
628.0957474662
 31
0.0
  0
LINE
  5
89
  8
0
  6
CONTINUOUS
 62
     7
 10
200.3013768886
 20
625.6121858311
 30
0.0
 11
198.9232429956
 21
625.5536093665
 31
0.0
  0
POLYLINE
  5
8A
  8
0
  6
CONTINUOUS
 62
     7
 66
     1
 10
0.0
 20
0.0
 30
0.0
  0
VERTEX
  5
460
  8
0
  6
CONTINUOUS
 62
     7
 10
198.9232429956
 20
625.5536093665
 30
0.0
  0
VERTEX
  5
461
  8
0
  6
CONTINUOUS
 62
     7
 10
166.3395071124
 20
624.0217401934
 30
0.0
  0
VERTEX
  5
462
  8
0
  6
CONTINUOUS
 62
     7
 10
133.733941028
 20
622.9070886327
 30
0.0
  0
SEQEND
  5
79D
  8
0
  6
CONTINUOUS
 62
     7
  0
LINE
  5
8B
  8
0
  6
CONTINUOUS
 62
     7
 10
131.5953487252
 20
622.8952720118
 30
0.0
 11
133.733941028
 21
622.9070886327
 31
0.0
  0
POLYLINE
  5
8C
  8
0
  6
CONTINUOUS
 62
     7
 66
     1
 10
0.0
 20
0.0
 30
0.0
  0
VERTEX
  5
463
  8
0
  6
CONTINUOUS
 62
     7
 10
131.5953487252
 20
622.8952720118
 30
0.0
  0
VERTEX
  5
464
  8
0
  6
CONTINUOUS
 62
     7
 10
130.9681066965
 20
622.9116036845
 30
0.0
  0
VERTEX
  5
465
  8
0
  6
CONTINUOUS
 62
     7
 10
128.5651975964
 20
623.0791970444
 30
0.0
  0
VERTEX
  5
466
  8
0
  6
CONTINUOUS
 62
     7
 10
126.7441266869
 20
623.3893051101
 30
0.0
  0
VERTEX
  5
467
  8
0
  6
CONTINUOUS
 62
     7
 10
125.6979757641
 20
623.8103821231
 30
0.0
  0
VERTEX
  5
468
  8
0
  6
CONTINUOUS
 62
     7
 10
125.5297565554
 20
624.0008636666
 30
0.0
  0
SEQEND
  5
79C
  8
0
  6
CONTINUOUS
 62
     7
  0
LINE
  5
8D
  8
0
  6
CONTINUOUS
 62
     7
 10
125.5297565554
 20
624.0008636666
 30
0.0
 11
124.7485333775
 21
625.6493940306
 31
0.0
  0
POLYLINE
  5
8E
  8
0
  6
CONTINUOUS
 62
     7
 66
     1
 10
0.0
 20
0.0
 30
0.0
  0
VERTEX
  5
469
  8
0
  6
CONTINUOUS
 62
     7
 10
124.7485333775
 20
625.6493940306
 30
0.0
  0
VERTEX
  5
46A
  8
0
  6
CONTINUOUS
 62
     7
 10
123.7588131522
 20
626.303644414
 30
0.0
  0
VERTEX
  5
46B
  8
0
  6
CONTINUOUS
 62
     7
 10
122.765874276
 20
626.5937849236
 30
0.0
  0
VERTEX
  5
46C
  8
0
  6
CONTINUOUS
 62
     7
 10
121.4778924082
 20
626.8439307166
 30
0.0
  0
VERTEX
  5
46D
  8
0
  6
CONTINUOUS
 62
     7
 10
119.9431957399
 20
627.0444854451
 30
0.0
  0
VERTEX
  5
46E
  8
0
  6
CONTINUOUS
 62
     7
 10
118.1967274939
 20
627.1930947257
 30
0.0
  0
VERTEX
  5
46F
  8
0
  6
CONTINUOUS
 62
     7
 10
116.3138130401
 20
627.2837533904
 30
0.0
  0
VERTEX
  5
470
  8
0
  6
CONTINUOUS
 62
     7
 10
114.3269741629
 20
627.3171170903
 30
0.0
  0
VERTEX
  5
471
  8
0
  6
CONTINUOUS
 62
     7
 10
112.9641139601
 20
627.30646276
 30
0.0
  0
SEQEND
  5
79B
  8
0
  6
CONTINUOUS
 62
     7
  0
LINE
  5
8F
  8
0
  6
CONTINUOUS
 62
     7
 10
112.9641139601
 20
627.30646276
 30
0.0
 11
57.6445439552
 21
626.9512190772
 31
0.0
  0
LINE
  5
90
  8
0
  6
CONTINUOUS
 62
     7
 10
2.3249739503
 20
627.30646276
 30
0.0
 11
57.6445439552
 21
626.9512190772
 31
0.0
  0
LINE
  5
91
  8
0
  6
CONTINUOUS
 62
     7
 10
99.1257371102
 20
662.8656997634
 30
0.0
 11
98.2884930168
 21
646.5332373334
 31
0.0
  0
LINE
  5
92
  8
0
  6
CONTINUOUS
 62
     7
 10
126.4317014907
 20
662.8656997634
 30
0.0
 11
99.1257371102
 21
662.8656997634
 31
0.0
  0
LINE
  5
93
  8
0
  6
CONTINUOUS
 62
     7
 10
126.4317014907
 20
662.8656997634
 30
0.0
 11
127.3008489703
 21
646.2408467484
 31
0.0
  0
LINE
  5
94
  8
0
  6
CONTINUOUS
 62
     7
 10
-11.1426135804
 20
662.8656997634
 30
0.0
 11
-12.0117610599
 21
646.2408467484
 31
0.0
  0
LINE
  5
95
  8
0
  6
CONTINUOUS
 62
     7
 10
-11.1426135804
 20
662.8656997634
 30
0.0
 11
16.1633508001
 21
662.8656997634
 31
0.0
  0
LINE
  5
96
  8
0
  6
CONTINUOUS
 62
     7
 10
16.1633508001
 20
662.8656997634
 30
0.0
 11
17.0005948936
 21
646.5332373334
 31
0.0
  0
LINE
  5
97
  8
0
  6
CONTINUOUS
 62
     7
 10
112.9397617375
 20
600.6657048417
 30
0.0
 11
112.9641139601
 21
627.30646276
 31
0.0
  0
LINE
  5
98
  8
0
  6
CONTINUOUS
 62
     7
 10
57.6445439552
 20
600.6657048417
 30
0.0
 11
112.9397617375
 21
600.6657048417
 31
0.0
  0
LINE
  5
99
  8
0
  6
CONTINUOUS
 62
     7
 10
57.6445439552
 20
626.9512190772
 30
0.0
 11
57.6445439552
 21
600.6657048417
 31
0.0
  0
LINE
  5
9A
  8
0
  6
CONTINUOUS
 62
     7
 10
57.6445439552
 20
600.6657048417
 30
0.0
 11
2.3493261729
 21
600.6657048417
 31
0.0
  0
LINE
  5
9B
  8
0
  6
CONTINUOUS
 62
     7
 10
2.3493261729
 20
600.6657048417
 30
0.0
 11
2.3249739503
 21
627.30646276
 31
0.0
  0
LINE
  5
9C
  8
0
  6
CONTINUOUS
 62
     7
 10
123.8794007991
 20
600.6657048417
 30
0.0
 11
124.7485333775
 21
625.6493940306
 31
0.0
  0
LINE
  5
9D
  8
0
  6
CONTINUOUS
 62
     7
 10
112.9397617375
 20
600.6657048417
 30
0.0
 11
123.8794007991
 21
600.6657048417
 31
0.0
  0
LINE
  5
9E
  8
0
  6
CONTINUOUS
 62
     7
 10
2.3493261729
 20
600.6657048417
 30
0.0
 11
-8.5903128888
 21
600.6657048417
 31
0.0
  0
LINE
  5
9F
  8
0
  6
CONTINUOUS
 62
     7
 10
-8.5903128888
 20
600.6657048417
 30
0.0
 11
-9.4594454671
 21
625.6493940306
 31
0.0
  0
LINE
  5
A0
  8
0
  6
CONTINUOUS
 62
     7
 10
12.5449651574
 20
592.6373317195
 30
0.0
 11
14.2296792661
 21
591.9526084615
 31
0.0
  0
LINE
  5
A1
  8
0
  6
CONTINUOUS
 62
     7
 10
12.5449651574
 20
592.6373317195
 30
0.0
 11
2.6445442532
 21
596.5609266711
 31
0.0
  0
LINE
  5
A2
  8
0
  6
CONTINUOUS
 62
     7
 10
2.6445442532
 20
596.5609266711
 30
0.0
 11
2.3493261729
 21
600.6657048417
 31
0.0
  0
LINE
  5
A3
  8
0
  6
CONTINUOUS
 62
     7
 10
57.6445439552
 20
592.2165378285
 30
0.0
 11
57.6445439552
 21
600.6657048417
 31
0.0
  0
POLYLINE
  5
A4
  8
0
  6
CONTINUOUS
 62
     7
 66
     1
 10
0.0
 20
0.0
 30
0.0
  0
VERTEX
  5
472
  8
0
  6
CONTINUOUS
 62
     7
 10
57.6445439552
 20
592.2165378285
 30
0.0
  0
VERTEX
  5
473
  8
0
  6
CONTINUOUS
 62
     7
 10
43.1571498235
 20
592.2792419148
 30
0.0
  0
VERTEX
  5
474
  8
0
  6
CONTINUOUS
 62
     7
 10
28.6815872137
 20
592.1912356568
 30
0.0
  0
VERTEX
  5
475
  8
0
  6
CONTINUOUS
 62
     7
 10
14.2296792661
 20
591.9526084615
 30
0.0
  0
SEQEND
  5
79A
  8
0
  6
CONTINUOUS
 62
     7
  0
LINE
  5
A5
  8
0
  6
CONTINUOUS
 62
     7
 10
112.6445436572
 20
596.5609266711
 30
0.0
 11
112.9397617375
 21
600.6657048417
 31
0.0
  0
LINE
  5
A6
  8
0
  6
CONTINUOUS
 62
     7
 10
102.744122753
 20
592.6373317195
 30
0.0
 11
112.6445436572
 21
596.5609266711
 31
0.0
  0
LINE
  5
A7
  8
0
  6
CONTINUOUS
 62
     7
 10
102.744122753
 20
592.6373317195
 30
0.0
 11
101.0594086443
 21
591.9526084615
 31
0.0
  0
POLYLINE
  5
A8
  8
0
  6
CONTINUOUS
 62
     7
 66
     1
 10
0.0
 20
0.0
 30
0.0
  0
VERTEX
  5
476
  8
0
  6
CONTINUOUS
 62
     7
 10
57.6445439552
 20
592.2165378285
 30
0.0
  0
VERTEX
  5
477
  8
0
  6
CONTINUOUS
 62
     7
 10
72.1319380869
 20
592.2792419148
 30
0.0
  0
VERTEX
  5
478
  8
0
  6
CONTINUOUS
 62
     7
 10
86.6075006966
 20
592.1912356568
 30
0.0
  0
VERTEX
  5
479
  8
0
  6
CONTINUOUS
 62
     7
 10
101.0594086443
 20
591.9526084615
 30
0.0
  0
SEQEND
  5
799
  8
0
  6
CONTINUOUS
 62
     7
  0
LINE
  5
A9
  8
0
  6
CONTINUOUS
 62
     7
 10
112.6445436572
 20
596.5609266711
 30
0.0
 11
123.8794007991
 21
600.6657048417
 31
0.0
  0
LINE
  5
AA
  8
0
  6
CONTINUOUS
 62
     7
 10
2.6445442532
 20
596.5609266711
 30
0.0
 11
-8.5903128888
 21
600.6657048417
 31
0.0
  0
LINE
  5
AB
  8
0
  6
CONTINUOUS
 62
     7
 10
19.6023674403
 20
651.3506933404
 30
0.0
 11
19.0366150533
 21
662.8656997634
 31
0.0
  0
POLYLINE
  5
AC
  8
0
  6
CONTINUOUS
 62
     7
 66
     1
 10
0.0
 20
0.0
 30
0.0
  0
VERTEX
  5
47A
  8
0
  6
CONTINUOUS
 62
     7
 10
19.6023674403
 20
651.3506933404
 30
0.0
  0
VERTEX
  5
47B
  8
0
  6
CONTINUOUS
 62
     7
 10
19.6137109493
 20
651.0452344371
 30
0.0
  0
VERTEX
  5
47C
  8
0
  6
CONTINUOUS
 62
     7
 10
19.6250842606
 20
650.7397755338
 30
0.0
  0
VERTEX
  5
47D
  8
0
  6
CONTINUOUS
 62
     7
 10
19.6364910995
 20
650.4342868281
 30
0.0
  0
VERTEX
  5
47E
  8
0
  6
CONTINUOUS
 62
     7
 10
19.6479351913
 20
650.1287981225
 30
0.0
  0
VERTEX
  5
47F
  8
0
  6
CONTINUOUS
 62
     7
 10
19.6594090854
 20
649.8233094168
 30
0.0
  0
VERTEX
  5
480
  8
0
  6
CONTINUOUS
 62
     7
 10
19.6709127818
 20
649.5178058101
 30
0.0
  0
VERTEX
  5
481
  8
0
  6
CONTINUOUS
 62
     7
 10
19.6824537312
 20
649.2122873021
 30
0.0
  0
VERTEX
  5
482
  8
0
  6
CONTINUOUS
 62
     7
 10
19.6940282081
 20
648.906753893
 30
0.0
  0
SEQEND
  5
798
  8
0
  6
CONTINUOUS
 62
     7
  0
LINE
  5
AD
  8
0
  6
CONTINUOUS
 62
     7
 10
16.1633508001
 20
662.8656997634
 30
0.0
 11
19.0366150533
 21
662.8656997634
 31
0.0
  0
LINE
  5
AE
  8
0
  6
CONTINUOUS
 62
     7
 10
95.6867204701
 20
651.3506933404
 30
0.0
 11
96.2524728571
 21
662.8656997634
 31
0.0
  0
POLYLINE
  5
AF
  8
0
  6
CONTINUOUS
 62
     7
 66
     1
 10
0.0
 20
0.0
 30
0.0
  0
VERTEX
  5
483
  8
0
  6
CONTINUOUS
 62
     7
 10
95.6867204701
 20
651.3506933404
 30
0.0
  0
VERTEX
  5
484
  8
0
  6
CONTINUOUS
 62
     7
 10
95.6753769611
 20
651.0452344371
 30
0.0
  0
VERTEX
  5
485
  8
0
  6
CONTINUOUS
 62
     7
 10
95.6640036498
 20
650.7397755338
 30
0.0
  0
VERTEX
  5
486
  8
0
  6
CONTINUOUS
 62
     7
 10
95.6525968109
 20
650.4342868281
 30
0.0
  0
VERTEX
  5
487
  8
0
  6
CONTINUOUS
 62
     7
 10
95.6411527191
 20
650.1287981225
 30
0.0
  0
VERTEX
  5
488
  8
0
  6
CONTINUOUS
 62
     7
 10
95.629678825
 20
649.8233094168
 30
0.0
  0
VERTEX
  5
489
  8
0
  6
CONTINUOUS
 62
     7
 10
95.6181751286
 20
649.5178058101
 30
0.0
  0
VERTEX
  5
48A
  8
0
  6
CONTINUOUS
 62
     7
 10
95.6066341792
 20
649.2122873021
 30
0.0
  0
VERTEX
  5
48B
  8
0
  6
CONTINUOUS
 62
     7
 10
95.5950597023
 20
648.906753893
 30
0.0
  0
SEQEND
  5
797
  8
0
  6
CONTINUOUS
 62
     7
  0
LINE
  5
B0
  8
0
  6
CONTINUOUS
 62
     7
 10
99.1257371102
 20
662.8656997634
 30
0.0
 11
96.2524728571
 21
662.8656997634
 31
0.0
  0
LINE
  5
B1
  8
0
  6
CONTINUOUS
 62
     7
 10
127.4591887091
 20
662.8656997634
 30
0.0
 11
127.8170847987
 21
655.952261324
 31
0.0
  0
POLYLINE
  5
B2
  8
0
  6
CONTINUOUS
 62
     7
 66
     1
 10
0.0
 20
0.0
 30
0.0
  0
VERTEX
  5
48C
  8
0
  6
CONTINUOUS
 62
     7
 10
128.1627246832
 20
648.6789896441
 30
0.0
  0
VERTEX
  5
48D
  8
0
  6
CONTINUOUS
 62
     7
 10
128.1191611384
 20
649.5884820176
 30
0.0
  0
VERTEX
  5
48E
  8
0
  6
CONTINUOUS
 62
     7
 10
128.0757019018
 20
650.4978700829
 30
0.0
  0
VERTEX
  5
48F
  8
0
  6
CONTINUOUS
 62
     7
 10
128.0323395227
 20
651.4071687413
 30
0.0
  0
VERTEX
  5
490
  8
0
  6
CONTINUOUS
 62
     7
 10
127.9890889023
 20
652.3163928939
 30
0.0
  0
VERTEX
  5
491
  8
0
  6
CONTINUOUS
 62
     7
 10
127.9459351395
 20
653.2254978371
 30
0.0
  0
VERTEX
  5
492
  8
0
  6
CONTINUOUS
 62
     7
 10
127.9028856848
 20
654.1345282746
 30
0.0
  0
VERTEX
  5
493
  8
0
  6
CONTINUOUS
 62
     7
 10
127.8599330877
 20
655.0434395028
 30
0.0
  0
VERTEX
  5
494
  8
0
  6
CONTINUOUS
 62
     7
 10
127.8170847987
 20
655.952261324
 30
0.0
  0
SEQEND
  5
796
  8
0
  6
CONTINUOUS
 62
     7
  0
LINE
  5
B3
  8
0
  6
CONTINUOUS
 62
     7
 10
127.4591887091
 20
662.8656997634
 30
0.0
 11
126.4317014907
 21
662.8656997634
 31
0.0
  0
LINE
  5
B4
  8
0
  6
CONTINUOUS
 62
     7
 10
-12.1701007987
 20
662.8656997634
 30
0.0
 11
-12.5279968883
 21
655.952261324
 31
0.0
  0
POLYLINE
  5
B5
  8
0
  6
CONTINUOUS
 62
     7
 66
     1
 10
0.0
 20
0.0
 30
0.0
  0
VERTEX
  5
495
  8
0
  6
CONTINUOUS
 62
     7
 10
-12.8736367728
 20
648.6789896441
 30
0.0
  0
VERTEX
  5
496
  8
0
  6
CONTINUOUS
 62
     7
 10
-12.830073228
 20
649.5884820176
 30
0.0
  0
VERTEX
  5
497
  8
0
  6
CONTINUOUS
 62
     7
 10
-12.7866139914
 20
650.4978700829
 30
0.0
  0
VERTEX
  5
498
  8
0
  6
CONTINUOUS
 62
     7
 10
-12.7432516123
 20
651.4071687413
 30
0.0
  0
VERTEX
  5
499
  8
0
  6
CONTINUOUS
 62
     7
 10
-12.700000992
 20
652.3163928939
 30
0.0
  0
VERTEX
  5
49A
  8
0
  6
CONTINUOUS
 62
     7
 10
-12.6568472291
 20
653.2254978371
 30
0.0
  0
VERTEX
  5
49B
  8
0
  6
CONTINUOUS
 62
     7
 10
-12.6137977744
 20
654.1345282746
 30
0.0
  0
VERTEX
  5
49C
  8
0
  6
CONTINUOUS
 62
     7
 10
-12.5708451773
 20
655.0434395028
 30
0.0
  0
VERTEX
  5
49D
  8
0
  6
CONTINUOUS
 62
     7
 10
-12.5279968883
 20
655.952261324
 30
0.0
  0
SEQEND
  5
795
  8
0
  6
CONTINUOUS
 62
     7
  0
LINE
  5
B6
  8
0
  6
CONTINUOUS
 62
     7
 10
-12.1701007987
 20
662.8656997634
 30
0.0
 11
-11.1426135804
 21
662.8656997634
 31
0.0
  0
LINE
  5
B7
  8
0
  6
CONTINUOUS
 62
     7
 10
124.7179710959
 20
600.6657048417
 30
0.0
 11
125.5297565554
 21
624.0008636666
 31
0.0
  0
LINE
  5
B8
  8
0
  6
CONTINUOUS
 62
     7
 10
123.8794007991
 20
600.6657048417
 30
0.0
 11
124.7179710959
 21
600.6657048417
 31
0.0
  0
LINE
  5
B9
  8
0
  6
CONTINUOUS
 62
     7
 10
-8.5903128888
 20
600.6657048417
 30
0.0
 11
-9.4288831855
 21
600.6657048417
 31
0.0
  0
LINE
  5
BA
  8
0
  6
CONTINUOUS
 62
     7
 10
-9.4288831855
 20
600.6657048417
 30
0.0
 11
-10.240668645
 21
624.0008636666
 31
0.0
  0
LINE
  5
BB
  8
0
  6
CONTINUOUS
 62
     7
 10
12.5449651574
 20
592.6373317195
 30
0.0
 11
-9.4288831855
 21
600.6657048417
 31
0.0
  0
LINE
  5
BC
  8
0
  6
CONTINUOUS
 62
     7
 10
102.744122753
 20
592.6373317195
 30
0.0
 11
124.7179710959
 21
600.6657048417
 31
0.0
  0
LINE
  5
BD
  8
0
  6
CONTINUOUS
 62
     7
 10
222.1828976368
 20
643.8657059623
 30
0.0
 11
206.5132984613
 21
643.8657059623
 31
0.0
  0
LINE
  5
BE
  8
0
  6
CONTINUOUS
 62
     7
 10
222.6000258421
 20
635.865704651
 30
0.0
 11
222.1828976368
 21
643.8657059623
 31
0.0
  0
LINE
  5
BF
  8
0
  6
CONTINUOUS
 62
     7
 10
206.6518196558
 20
635.865704651
 30
0.0
 11
222.6000258421
 21
635.865704651
 31
0.0
  0
LINE
  5
C0
  8
0
  6
CONTINUOUS
 62
     7
 10
-107.3109379317
 20
635.865704651
 30
0.0
 11
-106.8938097264
 21
643.8657059623
 31
0.0
  0
LINE
  5
C1
  8
0
  6
CONTINUOUS
 62
     7
 10
-106.8938097264
 20
643.8657059623
 30
0.0
 11
-91.2242105509
 21
643.8657059623
 31
0.0
  0
LINE
  5
C2
  8
0
  6
CONTINUOUS
 62
     7
 10
-91.3627317454
 20
635.865704651
 30
0.0
 11
-107.3109379317
 21
635.865704651
 31
0.0
  0
LINE
  5
C3
  8
0
  6
CONTINUOUS
 62
     7
 10
-97.6731648947
 20
645.4998865081
 30
0.0
 11
-106.8938097264
 21
643.8657059623
 31
0.0
  0
ARC
  5
C4
  8
0
  6
CONTINUOUS
 62
     7
 10
-88.4133901661
 20
488.9741979241
 30
0.0
 40
156.7993450710555
 50
89.7220964039
 51
93.3855681888
  0
ARC
  5
C5
  8
0
  6
CONTINUOUS
 62
     7
 10
203.7024780765
 20
488.9741979241
 30
0.0
 40
156.7993450710555
 50
86.6144318112
 51
90.2779035961
  0
LINE
  5
C6
  8
0
  6
CONTINUOUS
 62
     7
 10
212.9622528051
 20
645.4998865081
 30
0.0
 11
222.1828976368
 21
643.8657059623
 31
0.0
  0
LINE
  5
C7
  8
0
  6
CONTINUOUS
 62
     7
 10
221.3419655059
 20
628.0957474662
 30
0.0
 11
221.7368015741
 21
635.6657012654
 31
0.0
  0
LINE
  5
C8
  8
0
  6
CONTINUOUS
 62
     7
 10
204.9149999117
 20
628.0957474662
 30
0.0
 11
221.3419655059
 21
628.0957474662
 31
0.0
  0
LINE
  5
C9
  8
0
  6
CONTINUOUS
 62
     7
 10
221.7368015741
 20
635.6657012654
 30
0.0
 11
205.0449380373
 21
635.6657012654
 31
0.0
  0
LINE
  5
CA
  8
0
  6
CONTINUOUS
 62
     7
 10
-106.0528775956
 20
628.0957474662
 30
0.0
 11
-106.4477136637
 21
635.6657012654
 31
0.0
  0
LINE
  5
CB
  8
0
  6
CONTINUOUS
 62
     7
 10
-89.6259120013
 20
628.0957474662
 30
0.0
 11
-106.0528775956
 21
628.0957474662
 31
0.0
  0
LINE
  5
CC
  8
0
  6
CONTINUOUS
 62
     7
 10
-106.4477136637
 20
635.6657012654
 30
0.0
 11
-89.7558501269
 21
635.6657012654
 31
0.0
  0
LINE
  5
CD
  8
0
  6
CONTINUOUS
 62
     7
 10
-96.4168777968
 20
626.3885214282
 30
0.0
 11
-106.0528775956
 21
628.0957474662
 31
0.0
  0
POLYLINE
  5
CE
  8
0
  6
CONTINUOUS
 62
     7
 66
     1
 10
0.0
 20
0.0
 30
0.0
  0
VERTEX
  5
49E
  8
0
  6
CONTINUOUS
 62
     7
 10
-90.8902308251
 20
625.8083447171
 30
0.0
  0
VERTEX
  5
49F
  8
0
  6
CONTINUOUS
 62
     7
 10
-88.8192674424
 20
625.7363423062
 30
0.0
  0
VERTEX
  5
4A0
  8
0
  6
CONTINUOUS
 62
     7
 10
-85.4833891894
 20
625.6271763993
 30
0.0
  0
VERTEX
  5
4A1
  8
0
  6
CONTINUOUS
 62
     7
 10
-85.0122889782
 20
625.6121858311
 30
0.0
  0
SEQEND
  5
794
  8
0
  6
CONTINUOUS
 62
     7
  0
LINE
  5
CF
  8
0
  6
CONTINUOUS
 62
     7
 10
-96.4168777968
 20
626.3885214282
 30
0.0
 11
-90.8902308251
 21
625.8083447171
 31
0.0
  0
POLYLINE
  5
D0
  8
0
  6
CONTINUOUS
 62
     7
 66
     1
 10
0.0
 20
0.0
 30
0.0
  0
VERTEX
  5
4A2
  8
0
  6
CONTINUOUS
 62
     7
 10
206.1793187355
 20
625.8083447171
 30
0.0
  0
VERTEX
  5
4A3
  8
0
  6
CONTINUOUS
 62
     7
 10
204.1083553527
 20
625.7363423062
 30
0.0
  0
VERTEX
  5
4A4
  8
0
  6
CONTINUOUS
 62
     7
 10
200.7724770998
 20
625.6271763993
 30
0.0
  0
VERTEX
  5
4A5
  8
0
  6
CONTINUOUS
 62
     7
 10
200.3013768886
 20
625.6121858311
 30
0.0
  0
SEQEND
  5
793
  8
0
  6
CONTINUOUS
 62
     7
  0
LINE
  5
D1
  8
0
  6
CONTINUOUS
 62
     7
 10
211.7059657072
 20
626.3885214282
 30
0.0
 11
221.3419655059
 21
628.0957474662
 31
0.0
  0
LINE
  5
D2
  8
0
  6
CONTINUOUS
 62
     7
 10
211.7059657072
 20
626.3885214282
 30
0.0
 11
206.1793187355
 21
625.8083447171
 31
0.0
  0
LINE
  5
D3
  8
0
  6
CONTINUOUS
 62
     7
 10
-43.8246598746
 20
730.8657034589
 30
0.0
 11
159.113747785
 21
730.8657034589
 31
0.0
  0
ARC
  5
D4
  8
0
  6
CONTINUOUS
 62
     7
 10
57.6192142276
 20
605.8417822972
 30
0.0
 40
161.0345341988861
 50
35.7371311814
 51
50.9302763988
  0
LINE
  5
D5
  8
0
  6
CONTINUOUS
 62
     7
 10
188.3317807411
 20
699.8967989636
 30
0.0
 11
188.5326930975
 21
669.1683098031
 31
0.0
  0
POLYLINE
  5
D6
  8
0
  6
CONTINUOUS
 62
     7
 66
     1
 10
0.0
 20
0.0
 30
0.0
  0
VERTEX
  5
4A6
  8
0
  6
CONTINUOUS
 62
     7
 10
127.8170847987
 20
655.952261324
 30
0.0
  0
VERTEX
  5
4A7
  8
0
  6
CONTINUOUS
 62
     7
 10
143.1627923344
 20
658.8392271949
 30
0.0
  0
VERTEX
  5
4A8
  8
0
  6
CONTINUOUS
 62
     7
 10
158.37786139
 20
662.0423957063
 30
0.0
  0
VERTEX
  5
4A9
  8
0
  6
CONTINUOUS
 62
     7
 10
173.5239827727
 20
665.5071541024
 30
0.0
  0
VERTEX
  5
4AA
  8
0
  6
CONTINUOUS
 62
     7
 10
188.5326930975
 20
669.1683098031
 30
0.0
  0
SEQEND
  5
792
  8
0
  6
CONTINUOUS
 62
     7
  0
ARC
  5
D7
  8
0
  6
CONTINUOUS
 62
     7
 10
57.6445439552
 20
997.5161199727
 30
0.0
 40
348.2494935954924
 50
263.7285922406
 51
276.2714077594
  0
POLYLINE
  5
D8
  8
0
  6
CONTINUOUS
 62
     7
 66
     1
 10
0.0
 20
0.0
 30
0.0
  0
VERTEX
  5
4AB
  8
0
  6
CONTINUOUS
 62
     7
 10
-12.5279968883
 20
655.952261324
 30
0.0
  0
VERTEX
  5
4AC
  8
0
  6
CONTINUOUS
 62
     7
 10
-27.873704424
 20
658.8392271949
 30
0.0
  0
VERTEX
  5
4AD
  8
0
  6
CONTINUOUS
 62
     7
 10
-43.0887734796
 20
662.0423957063
 30
0.0
  0
VERTEX
  5
4AE
  8
0
  6
CONTINUOUS
 62
     7
 10
-58.2348948623
 20
665.5071541024
 30
0.0
  0
VERTEX
  5
4AF
  8
0
  6
CONTINUOUS
 62
     7
 10
-73.2436051871
 20
669.1683098031
 30
0.0
  0
SEQEND
  5
791
  8
0
  6
CONTINUOUS
 62
     7
  0
LINE
  5
D9
  8
0
  6
CONTINUOUS
 62
     7
 10
-73.0426928307
 20
699.8967989636
 30
0.0
 11
-73.2436051871
 21
669.1683098031
 31
0.0
  0
ARC
  5
DA
  8
0
  6
CONTINUOUS
 62
     7
 10
57.6698736828
 20
605.8417822972
 30
0.0
 40
161.034534198886
 50
129.0697236012
 51
144.2628688186
  0
LINE
  5
DB
  8
0
  6
CONTINUOUS
 62
     7
 10
-9.4288831855
 20
600.6657048417
 30
0.0
 11
-13.5874619986
 21
600.6657048417
 31
0.0
  0
ARC
  5
DC
  8
0
  6
CONTINUOUS
 62
     7
 10
-173.3172258832
 20
592.4109183328
 30
0.0
 40
159.9429241039924
 50
2.9583968985
 51
10.9875214456
  0
ARC
  5
DD
  8
0
  6
CONTINUOUS
 62
     7
 10
288.6063137936
 20
592.4109183328
 30
0.0
 40
159.9429241039924
 50
169.0124785544
 51
177.0416031015
  0
LINE
  5
DE
  8
0
  6
CONTINUOUS
 62
     7
 10
124.7179710959
 20
600.6657048417
 30
0.0
 11
128.876549909
 21
600.6657048417
 31
0.0
  0
POLYLINE
  5
DF
  8
0
  6
CONTINUOUS
 62
     7
 66
     1
 10
0.0
 20
0.0
 30
0.0
  0
VERTEX
  5
4B0
  8
0
  6
CONTINUOUS
 62
     7
 10
101.0594086443
 20
591.9526084615
 30
0.0
  0
VERTEX
  5
4B1
  8
0
  6
CONTINUOUS
 62
     7
 10
114.828808019
 20
596.7506184531
 30
0.0
  0
VERTEX
  5
4B2
  8
0
  6
CONTINUOUS
 62
     7
 10
121.7867264246
 20
599.0097238971
 30
0.0
  0
VERTEX
  5
4B3
  8
0
  6
CONTINUOUS
 62
     7
 10
128.876549909
 20
600.6657048417
 30
0.0
  0
SEQEND
  5
790
  8
0
  6
CONTINUOUS
 62
     7
  0
POLYLINE
  5
E0
  8
0
  6
CONTINUOUS
 62
     7
 66
     1
 10
0.0
 20
0.0
 30
0.0
  0
VERTEX
  5
4B4
  8
0
  6
CONTINUOUS
 62
     7
 10
14.2296792661
 20
591.9526084615
 30
0.0
  0
VERTEX
  5
4B5
  8
0
  6
CONTINUOUS
 62
     7
 10
0.4602798914
 20
596.7506184531
 30
0.0
  0
VERTEX
  5
4B6
  8
0
  6
CONTINUOUS
 62
     7
 10
-6.4976385142
 20
599.0097238971
 30
0.0
  0
VERTEX
  5
4B7
  8
0
  6
CONTINUOUS
 62
     7
 10
-13.5874619986
 20
600.6657048417
 30
0.0
  0
SEQEND
  5
78F
  8
0
  6
CONTINUOUS
 62
     7
  0
ARC
  5
E1
  8
0
  6
CONTINUOUS
 62
     7
 10
57.6445439552
 20
605.8657016815
 30
0.0
 40
160.9999992862919
 50
50.9319098328
 51
129.0680901672
  0
LINE
  5
E2
  8
0
  6
CONTINUOUS
 62
     7
 10
-90.5465653445
 20
367.5116538358
 30
0.0
 11
-84.8675241972
 21
365.9899547053
 31
0.0
  0
LINE
  5
E3
  8
0
  6
CONTINUOUS
 62
     7
 10
-95.2558091189
 20
372.637839551
 30
0.0
 11
-88.9266005064
 21
388.2353059305
 31
0.0
  0
POLYLINE
  5
E4
  8
0
  6
CONTINUOUS
 62
     7
 66
     1
 10
0.0
 20
0.0
 30
0.0
  0
VERTEX
  5
4B8
  8
0
  6
CONTINUOUS
 62
     7
 10
15.5280137156
 20
547.336028452
 30
0.0
  0
VERTEX
  5
4B9
  8
0
  6
CONTINUOUS
 62
     7
 10
17.1958932375
 20
548.0963751031
 30
0.0
  0
VERTEX
  5
4BA
  8
0
  6
CONTINUOUS
 62
     7
 10
29.4822675829
 20
552.4847521735
 30
0.0
  0
SEQEND
  5
78E
  8
0
  6
CONTINUOUS
 62
     7
  0
LINE
  5
E5
  8
0
  6
CONTINUOUS
 62
     7
 10
139.6358290409
 20
600.6657048417
 30
0.0
 11
133.733941028
 21
622.9070886327
 31
0.0
  0
POLYLINE
  5
E6
  8
0
  6
CONTINUOUS
 62
     7
 66
     1
 10
0.0
 20
0.0
 30
0.0
  0
VERTEX
  5
4BB
  8
0
  6
CONTINUOUS
 62
     7
 10
139.6358290409
 20
600.6657048417
 30
0.0
  0
VERTEX
  5
4BC
  8
0
  6
CONTINUOUS
 62
     7
 10
156.892215619
 20
599.6893509579
 30
0.0
  0
VERTEX
  5
4BD
  8
0
  6
CONTINUOUS
 62
     7
 10
174.0298324917
 20
598.495365615
 30
0.0
  0
VERTEX
  5
4BE
  8
0
  6
CONTINUOUS
 62
     7
 10
191.0281756614
 20
597.0852091265
 30
0.0
  0
SEQEND
  5
78D
  8
0
  6
CONTINUOUS
 62
     7
  0
LINE
  5
E7
  8
0
  6
CONTINUOUS
 62
     7
 10
191.0281756614
 20
597.0852091265
 30
0.0
 11
191.0281756614
 21
521.0640370203
 31
0.0
  0
LINE
  5
E8
  8
0
  6
CONTINUOUS
 62
     7
 10
191.0281756614
 20
460.8852318776
 30
0.0
 11
191.0281756614
 21
446.797789569
 31
0.0
  0
POLYLINE
  5
E9
  8
0
  6
CONTINUOUS
 62
     7
 66
     1
 10
0.0
 20
0.0
 30
0.0
  0
VERTEX
  5
4BF
  8
0
  6
CONTINUOUS
 62
     7
 10
99.7610741948
 20
547.336028452
 30
0.0
  0
VERTEX
  5
4C0
  8
0
  6
CONTINUOUS
 62
     7
 10
98.0931946729
 20
548.0963751031
 30
0.0
  0
VERTEX
  5
4C1
  8
0
  6
CONTINUOUS
 62
     7
 10
85.8068203275
 20
552.4847521735
 30
0.0
  0
SEQEND
  5
78C
  8
0
  6
CONTINUOUS
 62
     7
  0
LINE
  5
EA
  8
0
  6
CONTINUOUS
 62
     7
 10
-75.739087751
 20
597.0852091265
 30
0.0
 11
-75.739087751
 21
521.0640370203
 31
0.0
  0
LINE
  5
EB
  8
0
  6
CONTINUOUS
 62
     7
 10
-75.739087751
 20
460.8852318776
 30
0.0
 11
-75.739087751
 21
446.797789569
 31
0.0
  0
POLYLINE
  5
EC
  8
0
  6
CONTINUOUS
 62
     7
 66
     1
 10
0.0
 20
0.0
 30
0.0
  0
VERTEX
  5
4C2
  8
0
  6
CONTINUOUS
 62
     7
 10
-24.3467411305
 20
600.6657048417
 30
0.0
  0
VERTEX
  5
4C3
  8
0
  6
CONTINUOUS
 62
     7
 10
-41.6031277086
 20
599.6893509579
 30
0.0
  0
VERTEX
  5
4C4
  8
0
  6
CONTINUOUS
 62
     7
 10
-58.7407445814
 20
598.495365615
 30
0.0
  0
VERTEX
  5
4C5
  8
0
  6
CONTINUOUS
 62
     7
 10
-75.739087751
 20
597.0852091265
 30
0.0
  0
SEQEND
  5
78B
  8
0
  6
CONTINUOUS
 62
     7
  0
LINE
  5
ED
  8
0
  6
CONTINUOUS
 62
     7
 10
-24.3467411305
 20
600.6657048417
 30
0.0
 11
-18.4448531176
 21
622.9070886327
 31
0.0
  0
LINE
  5
EE
  8
0
  6
CONTINUOUS
 62
     7
 10
210.5448970293
 20
372.637839551
 30
0.0
 11
204.2156884168
 21
388.2353059305
 31
0.0
  0
LINE
  5
EF
  8
0
  6
CONTINUOUS
 62
     7
 10
205.8356532549
 20
367.5116538358
 30
0.0
 11
200.1566121076
 21
365.9899547053
 31
0.0
  0
LINE
  5
F0
  8
0
  6
CONTINUOUS
 62
     7
 10
185.9798857664
 20
662.8656997634
 30
0.0
 11
185.7404837106
 21
647.9389979792
 31
0.0
  0
POLYLINE
  5
F1
  8
0
  6
CONTINUOUS
 62
     7
 66
     1
 10
0.0
 20
0.0
 30
0.0
  0
VERTEX
  5
4C6
  8
0
  6
CONTINUOUS
 62
     7
 10
188.8027468418
 20
662.8656997634
 30
0.0
  0
VERTEX
  5
4C7
  8
0
  6
CONTINUOUS
 62
     7
 10
188.5489502643
 20
668.781803484
 30
0.0
  0
VERTEX
  5
4C8
  8
0
  6
CONTINUOUS
 62
     7
 10
188.5326930975
 20
669.1683098031
 30
0.0
  0
SEQEND
  5
78A
  8
0
  6
CONTINUOUS
 62
     7
  0
LINE
  5
F2
  8
0
  6
CONTINUOUS
 62
     7
 10
-70.690797856
 20
662.8656997634
 30
0.0
 11
-70.4513958002
 21
647.9389979792
 31
0.0
  0
POLYLINE
  5
F3
  8
0
  6
CONTINUOUS
 62
     7
 66
     1
 10
0.0
 20
0.0
 30
0.0
  0
VERTEX
  5
4C9
  8
0
  6
CONTINUOUS
 62
     7
 10
-73.5136589314
 20
662.8656997634
 30
0.0
  0
VERTEX
  5
4CA
  8
0
  6
CONTINUOUS
 62
     7
 10
-73.2598623539
 20
668.781803484
 30
0.0
  0
VERTEX
  5
4CB
  8
0
  6
CONTINUOUS
 62
     7
 10
-73.2436051871
 20
669.1683098031
 30
0.0
  0
SEQEND
  5
789
  8
0
  6
CONTINUOUS
 62
     7
  0
LINE
  5
F4
  8
0
  6
CONTINUOUS
 62
     7
 10
-97.6731648947
 20
645.4998865081
 30
0.0
 11
-98.0833342577
 21
645.4811855508
 31
0.0
  0
LINE
  5
F5
  8
0
  6
CONTINUOUS
 62
     7
 10
-98.0833342577
 20
645.4811855508
 30
0.0
 11
-98.0038663651
 21
647.0309212161
 31
0.0
  0
LINE
  5
F6
  8
0
  6
CONTINUOUS
 62
     7
 10
-97.1762856747
 20
662.8656997634
 30
0.0
 11
-70.690797856
 21
662.8656997634
 31
0.0
  0
LINE
  5
F7
  8
0
  6
CONTINUOUS
 62
     7
 10
212.4653735851
 20
662.8656997634
 30
0.0
 11
185.9798857664
 21
662.8656997634
 31
0.0
  0
LINE
  5
F8
  8
0
  6
CONTINUOUS
 62
     7
 10
213.3724221681
 20
645.4811855508
 30
0.0
 11
213.2929542755
 21
647.0309212161
 31
0.0
  0
LINE
  5
F9
  8
0
  6
CONTINUOUS
 62
     7
 10
212.9622528051
 20
645.4998865081
 30
0.0
 11
213.3724221681
 21
645.4811855508
 31
0.0
  0
LINE
  5
FA
  8
0
  6
CONTINUOUS
 62
     7
 10
-24.3467411305
 20
600.6657048417
 30
0.0
 11
-83.6114010121
 21
600.6657048417
 31
0.0
  0
LINE
  5
FB
  8
0
  6
CONTINUOUS
 62
     7
 10
-83.6114010121
 20
600.6657048417
 30
0.0
 11
-83.6341550852
 21
625.5536093665
 31
0.0
  0
LINE
  5
FC
  8
0
  6
CONTINUOUS
 62
     7
 10
198.9004889225
 20
600.6657048417
 30
0.0
 11
198.9232429956
 21
625.5536093665
 31
0.0
  0
LINE
  5
FD
  8
0
  6
CONTINUOUS
 62
     7
 10
139.6358290409
 20
600.6657048417
 30
0.0
 11
198.9004889225
 21
600.6657048417
 31
0.0
  0
LINE
  5
FE
  8
0
  6
CONTINUOUS
 62
     7
 10
57.6445439552
 20
796.8656882001
 30
0.0
 11
102.0398119186
 21
796.8656882001
 31
0.0
  0
LINE
  5
FF
  8
0
  6
CONTINUOUS
 62
     7
 10
13.2492759918
 20
796.8656882001
 30
0.0
 11
57.6445439552
 21
796.8656882001
 31
0.0
  0
LINE
  5
100
  8
0
  6
CONTINUOUS
 62
     7
 10
198.6445465778
 20
597.1068903161
 30
0.0
 11
198.9004889225
 21
600.6657048417
 31
0.0
  0
LINE
  5
101
  8
0
  6
CONTINUOUS
 62
     7
 10
196.4428553079
 20
595.2213569833
 30
0.0
 11
198.6445465778
 21
597.1068903161
 31
0.0
  0
LINE
  5
102
  8
0
  6
CONTINUOUS
 62
     7
 10
195.9083804582
 20
595.2870413018
 30
0.0
 11
196.4428553079
 21
595.2213569833
 31
0.0
  0
ARC
  5
103
  8
0
  6
CONTINUOUS
 62
     7
 10
196.2897684927
 20
603.8436146628
 30
0.0
 40
8.565068856408192
 50
232.0983231711
 51
267.447871958
  0
ARC
  5
104
  8
0
  6
CONTINUOUS
 62
     7
 10
-81.0006805824
 20
603.8436146628
 30
0.0
 40
8.5650688564082
 50
272.552128042
 51
307.9016768289
  0
LINE
  5
105
  8
0
  6
CONTINUOUS
 62
     7
 10
-80.6192925478
 20
595.2870413018
 30
0.0
 11
-81.1537673975
 21
595.2213569833
 31
0.0
  0
LINE
  5
106
  8
0
  6
CONTINUOUS
 62
     7
 10
-81.1537673975
 20
595.2213569833
 30
0.0
 11
-83.3554586674
 21
597.1068903161
 31
0.0
  0
LINE
  5
107
  8
0
  6
CONTINUOUS
 62
     7
 10
-83.3554586674
 20
597.1068903161
 30
0.0
 11
-83.6114010121
 21
600.6657048417
 31
0.0
  0
LINE
  5
108
  8
0
  6
CONTINUOUS
 62
     7
 10
205.5584767555
 20
600.6657048417
 30
0.0
 11
206.1793187355
 21
625.8083447171
 31
0.0
  0
LINE
  5
109
  8
0
  6
CONTINUOUS
 62
     7
 10
198.9004889225
 20
600.6657048417
 30
0.0
 11
205.5584767555
 21
600.6657048417
 31
0.0
  0
LINE
  5
10A
  8
0
  6
CONTINUOUS
 62
     7
 10
-83.6114010121
 20
600.6657048417
 30
0.0
 11
-90.2693888451
 21
600.6657048417
 31
0.0
  0
LINE
  5
10B
  8
0
  6
CONTINUOUS
 62
     7
 10
-90.2693888451
 20
600.6657048417
 30
0.0
 11
-90.8902308251
 21
625.8083447171
 31
0.0
  0
LINE
  5
10C
  8
0
  6
CONTINUOUS
 62
     7
 10
-83.3554586674
 20
597.1068903161
 30
0.0
 11
-90.2693888451
 21
600.6657048417
 31
0.0
  0
LINE
  5
10D
  8
0
  6
CONTINUOUS
 62
     7
 10
198.6445465778
 20
597.1068903161
 30
0.0
 11
205.5584767555
 21
600.6657048417
 31
0.0
  0
LINE
  5
10E
  8
0
  6
CONTINUOUS
 62
     7
 10
212.4371507858
 20
600.6657048417
 30
0.0
 11
213.0776921009
 21
626.6063317014
 31
0.0
  0
LINE
  5
10F
  8
0
  6
CONTINUOUS
 62
     7
 10
205.5584767555
 20
600.6657048417
 30
0.0
 11
212.4371507858
 21
600.6657048417
 31
0.0
  0
LINE
  5
110
  8
0
  6
CONTINUOUS
 62
     7
 10
213.0776921009
 20
626.6063317014
 30
0.0
 11
211.7059657072
 21
626.3885214282
 31
0.0
  0
LINE
  5
111
  8
0
  6
CONTINUOUS
 62
     7
 10
-90.2693888451
 20
600.6657048417
 30
0.0
 11
-97.1480628754
 21
600.6657048417
 31
0.0
  0
LINE
  5
112
  8
0
  6
CONTINUOUS
 62
     7
 10
-97.1480628754
 20
600.6657048417
 30
0.0
 11
-97.7886041905
 21
626.6063317014
 31
0.0
  0
LINE
  5
113
  8
0
  6
CONTINUOUS
 62
     7
 10
-97.7886041905
 20
626.6063317014
 30
0.0
 11
-96.4168777968
 21
626.3885214282
 31
0.0
  0
LINE
  5
114
  8
0
  6
CONTINUOUS
 62
     7
 10
-86.6443237568
 20
596.1201056195
 30
0.0
 11
-92.3554620053
 21
598.1987878037
 31
0.0
  0
LINE
  5
115
  8
0
  6
CONTINUOUS
 62
     7
 10
-92.3554620053
 20
598.1987878037
 30
0.0
 11
-97.1480628754
 21
600.6657048417
 31
0.0
  0
LINE
  5
116
  8
0
  6
CONTINUOUS
 62
     7
 10
-81.1537673975
 20
595.2213569833
 30
0.0
 11
-86.6443237568
 21
596.1201056195
 31
0.0
  0
LINE
  5
117
  8
0
  6
CONTINUOUS
 62
     7
 10
207.6445499157
 20
598.1987878037
 30
0.0
 11
212.4371507858
 21
600.6657048417
 31
0.0
  0
LINE
  5
118
  8
0
  6
CONTINUOUS
 62
     7
 10
201.9334116672
 20
596.1201056195
 30
0.0
 11
207.6445499157
 21
598.1987878037
 31
0.0
  0
LINE
  5
119
  8
0
  6
CONTINUOUS
 62
     7
 10
196.4428553079
 20
595.2213569833
 30
0.0
 11
201.9334116672
 21
596.1201056195
 31
0.0
  0
ARC
  5
11A
  8
0
  6
CONTINUOUS
 62
     7
 10
57.5367956943
 20
605.9184182744
 30
0.0
 40
160.8805651699288
 50
144.2579388529
 51
159.26952105
  0
ARC
  5
11B
  8
0
  6
CONTINUOUS
 62
     7
 10
57.7522922161
 20
605.9184182744
 30
0.0
 40
160.8805651699288
 50
20.73047895
 51
35.7420611471
  0
LINE
  5
11C
  8
0
  6
CONTINUOUS
 62
     7
 10
222.1828976368
 20
643.8657059623
 30
0.0
 11
224.2252805923
 21
643.8657059623
 31
0.0
  0
LINE
  5
11D
  8
0
  6
CONTINUOUS
 62
     7
 10
224.6445396637
 20
635.865704651
 30
0.0
 11
222.6000258421
 21
635.865704651
 31
0.0
  0
LINE
  5
11E
  8
0
  6
CONTINUOUS
 62
     7
 10
-108.9361926819
 20
643.8657059623
 30
0.0
 11
-106.8938097264
 21
643.8657059623
 31
0.0
  0
LINE
  5
11F
  8
0
  6
CONTINUOUS
 62
     7
 10
-107.3109379317
 20
635.865704651
 30
0.0
 11
-109.3554517533
 21
635.865704651
 31
0.0
  0
LINE
  5
120
  8
0
  6
CONTINUOUS
 62
     7
 10
-98.0833342577
 20
645.4811855508
 30
0.0
 11
-98.420130303
 21
645.4234584523
 31
0.0
  0
LINE
  5
121
  8
0
  6
CONTINUOUS
 62
     7
 10
213.3724221681
 20
645.4811855508
 30
0.0
 11
213.7092182134
 21
645.4234584523
 31
0.0
  0
LINE
  5
122
  8
0
  6
CONTINUOUS
 62
     7
 10
221.3419655059
 20
628.0957474662
 30
0.0
 11
223.2478240226
 21
628.0957474662
 31
0.0
  0
LINE
  5
123
  8
0
  6
CONTINUOUS
 62
     7
 10
223.6445376371
 20
635.6657012654
 30
0.0
 11
221.7368015741
 21
635.6657012654
 31
0.0
  0
LINE
  5
124
  8
0
  6
CONTINUOUS
 62
     7
 10
-106.0528775956
 20
628.0957474662
 30
0.0
 11
-107.9587361123
 21
628.0957474662
 31
0.0
  0
LINE
  5
125
  8
0
  6
CONTINUOUS
 62
     7
 10
-108.3554497267
 20
635.6657012654
 30
0.0
 11
-106.4477136637
 21
635.6657012654
 31
0.0
  0
ARC
  5
126
  8
0
  6
CONTINUOUS
 62
     7
 10
-103.3836944848
 20
594.6378509421
 30
0.0
 40
32.45441106313672
 50
80.0727003811
 51
84.1043319339
  0
ARC
  5
127
  8
0
  6
CONTINUOUS
 62
     7
 10
218.6727823952
 20
594.6378509421
 30
0.0
 40
32.45441106313671
 50
95.8956680661
 51
99.9272996189
  0
LINE
  5
128
  8
0
  6
CONTINUOUS
 62
     7
 10
214.4223132824
 20
600.6657048417
 30
0.0
 11
215.3391519283
 21
626.9205971909
 31
0.0
  0
LINE
  5
129
  8
0
  6
CONTINUOUS
 62
     7
 10
212.4371507858
 20
600.6657048417
 30
0.0
 11
214.4223132824
 21
600.6657048417
 31
0.0
  0
LINE
  5
12A
  8
0
  6
CONTINUOUS
 62
     7
 10
-97.1480628754
 20
600.6657048417
 30
0.0
 11
-99.133225372
 21
600.6657048417
 31
0.0
  0
LINE
  5
12B
  8
0
  6
CONTINUOUS
 62
     7
 10
-99.133225372
 20
600.6657048417
 30
0.0
 11
-100.0500640179
 21
626.9205971909
 31
0.0
  0
ARC
  5
12C
  8
0
  6
CONTINUOUS
 62
     7
 10
57.6445439552
 20
605.8657024575
 30
0.0
 40
161.0000000000001
 50
165.1858486384
 51
165.7767764516
  0
ARC
  5
12D
  8
0
  6
CONTINUOUS
 62
     7
 10
57.6445439552
 20
605.8657024575
 30
0.0
 40
161.0000000000001
 50
14.2232235484
 51
14.8141513616
  0
LINE
  5
12E
  8
0
  6
CONTINUOUS
 62
     7
 10
-92.3554620053
 20
598.1987878037
 30
0.0
 11
-99.133225372
 21
600.6657048417
 31
0.0
  0
LINE
  5
12F
  8
0
  6
CONTINUOUS
 62
     7
 10
207.6445499157
 20
598.1987878037
 30
0.0
 11
214.4223132824
 21
600.6657048417
 31
0.0
  0
POLYLINE
  5
130
  8
0
  6
CONTINUOUS
 62
     7
 66
     1
 10
0.0
 20
0.0
 30
0.0
  0
VERTEX
  5
4CC
  8
0
  6
CONTINUOUS
 62
     7
 10
25.5314612483
 20
796.8656882001
 30
0.0
  0
VERTEX
  5
4CD
  8
0
  6
CONTINUOUS
 62
     7
 10
26.0840037559
 20
804.6717210961
 30
0.0
  0
VERTEX
  5
4CE
  8
0
  6
CONTINUOUS
 62
     7
 10
29.7951919679
 20
857.0052250577
 30
0.0
  0
SEQEND
  5
788
  8
0
  6
CONTINUOUS
 62
     7
  0
LINE
  5
131
  8
0
  6
CONTINUOUS
 62
     7
 10
67.2390924488
 20
857.0052250577
 30
0.0
 11
29.7951919679
 21
857.0052250577
 31
0.0
  0
LINE
  5
132
  8
0
  6
CONTINUOUS
 62
     7
 10
69.3709578087
 20
796.8656882001
 30
0.0
 11
67.2390924488
 21
857.0052250577
 31
0.0
  0
LINE
  5
133
  8
0
  6
CONTINUOUS
 62
     7
 10
77.9746712838
 20
855.9180661393
 30
0.0
 11
69.3144172152
 21
855.9180661393
 31
0.0
  0
LINE
  5
134
  8
0
  6
CONTINUOUS
 62
     7
 10
77.9746712838
 20
855.9180661393
 30
0.0
 11
78.4900521581
 21
796.8656882001
 31
0.0
  0
LINE
  5
135
  8
0
  6
CONTINUOUS
 62
     7
 10
69.3144172152
 20
855.9180661393
 30
0.0
 11
69.8297980894
 21
796.8656882001
 31
0.0
  0
LINE
  5
136
  8
0
  6
CONTINUOUS
 62
     7
 10
66.22433641
 20
858.8656946374
 30
0.0
 11
67.8146451433
 21
858.8656946374
 31
0.0
  0
POLYLINE
  5
137
  8
0
  6
CONTINUOUS
 62
     7
 66
     1
 10
0.0
 20
0.0
 30
0.0
  0
VERTEX
  5
4CF
  8
0
  6
CONTINUOUS
 62
     7
 10
67.8146451433
 20
858.8656946374
 30
0.0
  0
VERTEX
  5
4D0
  8
0
  6
CONTINUOUS
 62
     7
 10
68.1040703972
 20
858.8093384457
 30
0.0
  0
VERTEX
  5
4D1
  8
0
  6
CONTINUOUS
 62
     7
 10
68.3826187347
 20
858.6423262311
 30
0.0
  0
VERTEX
  5
4D2
  8
0
  6
CONTINUOUS
 62
     7
 10
68.6398202275
 20
858.3709760857
 30
0.0
  0
VERTEX
  5
4D3
  8
0
  6
CONTINUOUS
 62
     7
 10
68.8660096099
 20
858.0054506017
 30
0.0
  0
VERTEX
  5
4D4
  8
0
  6
CONTINUOUS
 62
     7
 10
69.052684838
 20
857.5595184518
 30
0.0
  0
VERTEX
  5
4D5
  8
0
  6
CONTINUOUS
 62
     7
 10
69.1928321217
 20
857.0499285413
 30
0.0
  0
VERTEX
  5
4D6
  8
0
  6
CONTINUOUS
 62
     7
 10
69.2811829691
 20
856.4958437634
 30
0.0
  0
VERTEX
  5
4D7
  8
0
  6
CONTINUOUS
 62
     7
 10
69.3144172152
 20
855.9180661393
 30
0.0
  0
SEQEND
  5
787
  8
0
  6
CONTINUOUS
 62
     7
  0
POLYLINE
  5
138
  8
0
  6
CONTINUOUS
 62
     7
 66
     1
 10
0.0
 20
0.0
 30
0.0
  0
VERTEX
  5
4D8
  8
0
  6
CONTINUOUS
 62
     7
 10
67.2390924488
 20
857.0052250577
 30
0.0
  0
VERTEX
  5
4D9
  8
0
  6
CONTINUOUS
 62
     7
 10
67.1600511019
 20
857.650594349
 30
0.0
  0
VERTEX
  5
4DA
  8
0
  6
CONTINUOUS
 62
     7
 10
66.9788697456
 20
858.2075699521
 30
0.0
  0
VERTEX
  5
4DB
  8
0
  6
CONTINUOUS
 62
     7
 10
66.7144812365
 20
858.6185737801
 30
0.0
  0
VERTEX
  5
4DC
  8
0
  6
CONTINUOUS
 62
     7
 10
66.3925537561
 20
858.8382168961
 30
0.0
  0
VERTEX
  5
4DD
  8
0
  6
CONTINUOUS
 62
     7
 10
66.22433641
 20
858.8656946374
 30
0.0
  0
SEQEND
  5
786
  8
0
  6
CONTINUOUS
 62
     7
  0
LINE
  5
139
  8
0
  6
CONTINUOUS
 62
     7
 10
-99.35546129
 20
607.0294543458
 30
0.0
 11
-99.35546129
 21
480.8653979851
 31
0.0
  0
LINE
  5
13A
  8
0
  6
CONTINUOUS
 62
     7
 10
214.6445492004
 20
607.0294543458
 30
0.0
 11
214.6445492004
 21
480.8653979851
 31
0.0
  0
LINE
  5
13B
  8
0
  6
CONTINUOUS
 62
     7
 10
76.474899212
 20
858.8656946374
 30
0.0
 11
67.8146451433
 21
858.8656946374
 31
0.0
  0
POLYLINE
  5
13C
  8
0
  6
CONTINUOUS
 62
     7
 66
     1
 10
0.0
 20
0.0
 30
0.0
  0
VERTEX
  5
4DE
  8
0
  6
CONTINUOUS
 62
     7
 10
76.474899212
 20
858.8656946374
 30
0.0
  0
VERTEX
  5
4DF
  8
0
  6
CONTINUOUS
 62
     7
 10
76.7643244659
 20
858.8093384457
 30
0.0
  0
VERTEX
  5
4E0
  8
0
  6
CONTINUOUS
 62
     7
 10
77.0428718721
 20
858.6423262311
 30
0.0
  0
VERTEX
  5
4E1
  8
0
  6
CONTINUOUS
 62
     7
 10
77.3000733648
 20
858.3709760857
 30
0.0
  0
VERTEX
  5
4E2
  8
0
  6
CONTINUOUS
 62
     7
 10
77.5262636785
 20
858.0054506017
 30
0.0
  0
VERTEX
  5
4E3
  8
0
  6
CONTINUOUS
 62
     7
 10
77.712939838
 20
857.5595184518
 30
0.0
  0
VERTEX
  5
4E4
  8
0
  6
CONTINUOUS
 62
     7
 10
77.8530871217
 20
857.0499285413
 30
0.0
  0
VERTEX
  5
4E5
  8
0
  6
CONTINUOUS
 62
     7
 10
77.9414361064
 20
856.4958437634
 30
0.0
  0
VERTEX
  5
4E6
  8
0
  6
CONTINUOUS
 62
     7
 10
77.9746712838
 20
855.9180661393
 30
0.0
  0
SEQEND
  5
785
  8
0
  6
CONTINUOUS
 62
     7
  0
ARC
  5
13D
  8
0
  6
CONTINUOUS
 62
     7
 10
31.8101485594
 20
856.844380948
 30
0.0
 40
2.021366095743412
 50
89.5874200459
 51
175.4360362325
  0
LINE
  5
13E
  8
0
  6
CONTINUOUS
 62
     7
 10
66.22433641
 20
858.8656946374
 30
0.0
 11
31.8247040455
 21
858.8656946374
 31
0.0
  0
LINE
  5
13F
  8
0
  6
CONTINUOUS
 62
     7
 10
-100.8554568793
 20
620.4656972838
 30
0.0
 11
-99.8246541525
 21
620.4656972838
 31
0.0
  0
LINE
  5
140
  8
0
  6
CONTINUOUS
 62
     7
 10
-100.8554568793
 20
616.1457016421
 30
0.0
 11
-99.6738096978
 21
616.1457016421
 31
0.0
  0
LINE
  5
141
  8
0
  6
CONTINUOUS
 62
     7
 10
-100.8554568793
 20
620.4656972838
 30
0.0
 11
-100.8554568793
 21
616.1457016421
 31
0.0
  0
LINE
  5
142
  8
0
  6
CONTINUOUS
 62
     7
 10
-100.8554568793
 20
620.705695386
 30
0.0
 11
-99.8330435063
 21
620.705695386
 31
0.0
  0
LINE
  5
143
  8
0
  6
CONTINUOUS
 62
     7
 10
-100.8554568793
 20
620.705695386
 30
0.0
 11
-100.8554568793
 21
620.4656972838
 31
0.0
  0
LINE
  5
144
  8
0
  6
CONTINUOUS
 62
     7
 10
-100.8554568793
 20
614.1344919158
 30
0.0
 11
-100.8554568793
 21
613.8944789124
 31
0.0
  0
LINE
  5
145
  8
0
  6
CONTINUOUS
 62
     7
 10
-100.8554568793
 20
614.1344919158
 30
0.0
 11
-99.6035656239
 21
614.1344919158
 31
0.0
  0
LINE
  5
146
  8
0
  6
CONTINUOUS
 62
     7
 10
-100.8554568793
 20
613.8944789124
 30
0.0
 11
-99.5951911713
 21
613.8944789124
 31
0.0
  0
LINE
  5
147
  8
0
  6
CONTINUOUS
 62
     7
 10
-100.8554568793
 20
613.8944789124
 30
0.0
 11
-100.8554568793
 21
609.5744832707
 31
0.0
  0
LINE
  5
148
  8
0
  6
CONTINUOUS
 62
     7
 10
-100.8554568793
 20
609.5744832707
 30
0.0
 11
-99.4443318154
 21
609.5744832707
 31
0.0
  0
LINE
  5
149
  8
0
  6
CONTINUOUS
 62
     7
 10
-100.8554568793
 20
615.9057035399
 30
0.0
 11
-99.665420344
 21
615.9057035399
 31
0.0
  0
LINE
  5
14A
  8
0
  6
CONTINUOUS
 62
     7
 10
-100.8554568793
 20
616.1457016421
 30
0.0
 11
-100.8554568793
 21
615.9057035399
 31
0.0
  0
LINE
  5
14B
  8
0
  6
CONTINUOUS
 62
     7
 10
-100.8554568793
 20
609.3344851685
 30
0.0
 11
-99.4359424616
 21
609.3344851685
 31
0.0
  0
LINE
  5
14C
  8
0
  6
CONTINUOUS
 62
     7
 10
-100.8554568793
 20
609.5744832707
 30
0.0
 11
-100.8554568793
 21
609.3344851685
 31
0.0
  0
LINE
  5
14D
  8
0
  6
CONTINUOUS
 62
     7
 10
-100.8554568793
 20
609.2065288974
 30
0.0
 11
-99.4314870144
 21
609.2065288974
 31
0.0
  0
LINE
  5
14E
  8
0
  6
CONTINUOUS
 62
     7
 10
-100.8554568793
 20
609.3344851685
 30
0.0
 11
-100.8554568793
 21
609.2065288974
 31
0.0
  0
LINE
  5
14F
  8
0
  6
CONTINUOUS
 62
     7
 10
-100.8554568793
 20
604.8032953692
 30
0.0
 11
-99.35546129
 21
604.8032953692
 31
0.0
  0
LINE
  5
150
  8
0
  6
CONTINUOUS
 62
     7
 10
-100.8554568793
 20
609.2065288974
 30
0.0
 11
-100.8554568793
 21
604.8032953692
 31
0.0
  0
LINE
  5
151
  8
0
  6
CONTINUOUS
 62
     7
 10
-100.8554568793
 20
597.665698762
 30
0.0
 11
-99.35546129
 21
597.665698762
 31
0.0
  0
LINE
  5
152
  8
0
  6
CONTINUOUS
 62
     7
 10
-100.8554568793
 20
598.0346515132
 30
0.0
 11
-99.35546129
 21
598.0346515132
 31
0.0
  0
LINE
  5
153
  8
0
  6
CONTINUOUS
 62
     7
 10
-100.8554568793
 20
598.0346515132
 30
0.0
 11
-100.8554568793
 21
597.665698762
 31
0.0
  0
LINE
  5
154
  8
0
  6
CONTINUOUS
 62
     7
 10
-100.8554568793
 20
604.4522240115
 30
0.0
 11
-99.35546129
 21
604.4522240115
 31
0.0
  0
LINE
  5
155
  8
0
  6
CONTINUOUS
 62
     7
 10
-100.8554568793
 20
604.4522240115
 30
0.0
 11
-100.8554568793
 21
598.0346515132
 31
0.0
  0
LINE
  5
156
  8
0
  6
CONTINUOUS
 62
     7
 10
83.9440522437
 20
858.8656946374
 30
0.0
 11
76.474899212
 21
858.8656946374
 31
0.0
  0
LINE
  5
157
  8
0
  6
CONTINUOUS
 62
     7
 10
-100.8554568793
 20
604.8032953692
 30
0.0
 11
-100.8554568793
 21
604.4522240115
 31
0.0
  0
ARC
  5
158
  8
0
  6
CONTINUOUS
 62
     7
 10
57.6445439552
 20
885.2106568791
 30
0.0
 40
14.00047197694078
 50
254.4035246079
 51
285.5964753921
  0
LINE
  5
159
  8
0
  6
CONTINUOUS
 62
     7
 10
61.4087188338
 20
871.7256947709
 30
0.0
 11
53.8803690766
 21
871.7256947709
 31
0.0
  0
ARC
  5
15A
  8
0
  6
CONTINUOUS
 62
     7
 10
499.6865411281
 20
934.0963436422
 30
0.0
 40
450.1480210772906
 50
183.6134691254
 51
187.9642890497
  0
ARC
  5
15B
  8
0
  6
CONTINUOUS
 62
     7
 10
-384.3974532177
 20
934.0963436422
 30
0.0
 40
450.1480210772905
 50
352.0357109503
 51
356.3865308746
  0
LINE
  5
15C
  8
0
  6
CONTINUOUS
 62
     7
 10
64.8556465936
 20
905.7257040692
 30
0.0
 11
69.6445440595
 21
905.7257040692
 31
0.0
  0
POLYLINE
  5
15D
  8
0
  6
CONTINUOUS
 62
     7
 66
     1
 10
0.0
 20
0.0
 30
0.0
  0
VERTEX
  5
4E7
  8
0
  6
CONTINUOUS
 62
     7
 10
71.1290163641
 20
871.7256947709
 30
0.0
  0
VERTEX
  5
4E8
  8
0
  6
CONTINUOUS
 62
     7
 10
70.99491057
 20
874.7972413255
 30
0.0
  0
VERTEX
  5
4E9
  8
0
  6
CONTINUOUS
 62
     7
 10
70.8457248007
 20
878.2141371918
 30
0.0
  0
VERTEX
  5
4EA
  8
0
  6
CONTINUOUS
 62
     7
 10
70.681628557
 20
881.9725676728
 30
0.0
  0
VERTEX
  5
4EB
  8
0
  6
CONTINUOUS
 62
     7
 10
70.5028062408
 20
886.0682710362
 30
0.0
  0
VERTEX
  5
4EC
  8
0
  6
CONTINUOUS
 62
     7
 10
70.309459949
 20
890.4966279221
 30
0.0
  0
VERTEX
  5
4ED
  8
0
  6
CONTINUOUS
 62
     7
 10
70.1018085425
 20
895.2526017381
 30
0.0
  0
VERTEX
  5
4EE
  8
0
  6
CONTINUOUS
 62
     7
 10
69.8800867145
 20
900.3308876706
 30
0.0
  0
VERTEX
  5
4EF
  8
0
  6
CONTINUOUS
 62
     7
 10
69.6445440595
 20
905.7257040692
 30
0.0
  0
SEQEND
  5
784
  8
0
  6
CONTINUOUS
 62
     7
  0
POLYLINE
  5
15E
  8
0
  6
CONTINUOUS
 62
     7
 66
     1
 10
0.0
 20
0.0
 30
0.0
  0
VERTEX
  5
4F0
  8
0
  6
CONTINUOUS
 62
     7
 10
71.6445443873
 20
871.2101741982
 30
0.0
  0
VERTEX
  5
4F1
  8
0
  6
CONTINUOUS
 62
     7
 10
71.5150635411
 20
871.339665289
 30
0.0
  0
VERTEX
  5
4F2
  8
0
  6
CONTINUOUS
 62
     7
 10
71.1290163641
 20
871.7256947709
 30
0.0
  0
SEQEND
  5
783
  8
0
  6
CONTINUOUS
 62
     7
  0
POLYLINE
  5
15F
  8
0
  6
CONTINUOUS
 62
     7
 66
     1
 10
0.0
 20
0.0
 30
0.0
  0
VERTEX
  5
4F3
  8
0
  6
CONTINUOUS
 62
     7
 10
44.1600715463
 20
871.7256947709
 30
0.0
  0
VERTEX
  5
4F4
  8
0
  6
CONTINUOUS
 62
     7
 10
43.7740243693
 20
871.339665289
 30
0.0
  0
VERTEX
  5
4F5
  8
0
  6
CONTINUOUS
 62
     7
 10
43.6445435231
 20
871.2101741982
 30
0.0
  0
SEQEND
  5
782
  8
0
  6
CONTINUOUS
 62
     7
  0
POLYLINE
  5
160
  8
0
  6
CONTINUOUS
 62
     7
 66
     1
 10
0.0
 20
0.0
 30
0.0
  0
VERTEX
  5
4F6
  8
0
  6
CONTINUOUS
 62
     7
 10
45.6445438509
 20
905.7257040692
 30
0.0
  0
VERTEX
  5
4F7
  8
0
  6
CONTINUOUS
 62
     7
 10
45.4090011959
 20
900.3308876706
 30
0.0
  0
VERTEX
  5
4F8
  8
0
  6
CONTINUOUS
 62
     7
 10
45.1872793679
 20
895.2526017381
 30
0.0
  0
VERTEX
  5
4F9
  8
0
  6
CONTINUOUS
 62
     7
 10
44.9796279614
 20
890.4966279221
 30
0.0
  0
VERTEX
  5
4FA
  8
0
  6
CONTINUOUS
 62
     7
 10
44.7862816696
 20
886.0682710362
 30
0.0
  0
VERTEX
  5
4FB
  8
0
  6
CONTINUOUS
 62
     7
 10
44.6074593534
 20
881.9725676728
 30
0.0
  0
VERTEX
  5
4FC
  8
0
  6
CONTINUOUS
 62
     7
 10
44.4433631097
 20
878.2141371918
 30
0.0
  0
VERTEX
  5
4FD
  8
0
  6
CONTINUOUS
 62
     7
 10
44.2941773404
 20
874.7972413255
 30
0.0
  0
VERTEX
  5
4FE
  8
0
  6
CONTINUOUS
 62
     7
 10
44.1600715463
 20
871.7256947709
 30
0.0
  0
SEQEND
  5
781
  8
0
  6
CONTINUOUS
 62
     7
  0
LINE
  5
161
  8
0
  6
CONTINUOUS
 62
     7
 10
45.6445438509
 20
905.7257040692
 30
0.0
 11
50.4334413168
 21
905.7257040692
 31
0.0
  0
LINE
  5
162
  8
0
  6
CONTINUOUS
 62
     7
 10
64.8556465936
 20
905.7257040692
 30
0.0
 11
50.4334413168
 21
905.7257040692
 31
0.0
  0
LINE
  5
163
  8
0
  6
CONTINUOUS
 62
     7
 10
-100.8554568793
 20
615.7575412942
 30
0.0
 11
-99.6602496411
 21
615.7575412942
 31
0.0
  0
LINE
  5
164
  8
0
  6
CONTINUOUS
 62
     7
 10
-100.8554568793
 20
615.9057035399
 30
0.0
 11
-100.8554568793
 21
615.7575412942
 31
0.0
  0
LINE
  5
165
  8
0
  6
CONTINUOUS
 62
     7
 10
-100.8554568793
 20
615.7575412942
 30
0.0
 11
-100.8554568793
 21
614.1344919158
 31
0.0
  0
LINE
  5
166
  8
0
  6
CONTINUOUS
 62
     7
 10
25.6445424353
 20
855.9180661393
 30
0.0
 11
24.6137806867
 21
796.8656882001
 31
0.0
  0
ARC
  5
167
  8
0
  6
CONTINUOUS
 62
     7
 10
28.6440870407
 20
855.8657024575
 30
0.0
 40
3.0
 50
90.0
 51
179.0
  0
LINE
  5
168
  8
0
  6
CONTINUOUS
 62
     7
 10
31.8247040455
 20
858.8656946374
 30
0.0
 11
28.644086579
 21
858.8656946374
 31
0.0
  0
LINE
  5
169
  8
0
  6
CONTINUOUS
 62
     8
 10
-80.6192925478
 20
595.2870413018
 30
0.0
 11
-80.6192925478
 21
514.5753114773
 31
0.0
  0
LINE
  5
16A
  8
0
  6
CONTINUOUS
 62
     8
 10
-80.6192925478
 20
464.5431018723
 30
0.0
 11
-80.6192925478
 21
443.139921437
 31
0.0
  0
LINE
  5
16B
  8
0
  6
CONTINUOUS
 62
     8
 10
195.9083804582
 20
595.2870413018
 30
0.0
 11
195.9083804582
 21
514.5753114773
 31
0.0
  0
LINE
  5
16C
  8
0
  6
CONTINUOUS
 62
     8
 10
195.9083804582
 20
464.5431018723
 30
0.0
 11
195.9083804582
 21
443.139921437
 31
0.0
  0
LINE
  5
16D
  8
0
  6
CONTINUOUS
 62
     8
 10
85.9391798918
 20
857.0052250577
 30
0.0
 11
77.8624785786
 21
857.0052250577
 31
0.0
  0
INSERT
  5
179
  8
FORMAT
  2
SW_CENTERMARKSYMBOL_0
 10
57.6445439552
 20
415.6657024575
 30
0.0
  0
LINE
  5
17A
  8
0
  6
CONTINUOUS
 62
     7
 10
459.7183083529
 20
245.6657006694
 30
0.0
 11
466.7183150882
 21
245.6657006694
 31
0.0
  0
LINE
  5
17B
  8
0
  6
CONTINUOUS
 62
     7
 10
476.718313002
 20
585.6657042456
 30
0.0
 11
459.7183083529
 21
585.6657042456
 31
0.0
  0
LINE
  5
17C
  8
0
  6
CONTINUOUS
 62
     7
 10
683.718315267
 20
585.6657042456
 30
0.0
 11
666.7183106178
 21
585.6657042456
 31
0.0
  0
LINE
  5
17D
  8
0
  6
CONTINUOUS
 62
     7
 10
676.7183085317
 20
245.6657006694
 30
0.0
 11
683.718315267
 21
245.6657006694
 31
0.0
  0
LINE
  5
17E
  8
0
  6
CONTINUOUS
 62
     7
 10
526.8783186907
 20
766.8657168103
 30
0.0
 11
516.6955841119
 21
766.8657168103
 31
0.0
  0
LINE
  5
17F
  8
0
  6
CONTINUOUS
 62
     7
 10
626.741039508
 20
766.8657168103
 30
0.0
 11
616.6103248829
 21
766.8657168103
 31
0.0
  0
LINE
  5
180
  8
0
  6
CONTINUOUS
 62
     7
 10
521.8974863524
 20
662.8656997634
 30
0.0
 11
521.0094926292
 21
645.9217830849
 31
0.0
  0
LINE
  5
181
  8
0
  6
CONTINUOUS
 62
     7
 10
622.4271309907
 20
645.9217830849
 30
0.0
 11
621.5391372675
 21
662.8656997634
 31
0.0
  0
LINE
  5
182
  8
0
  6
CONTINUOUS
 62
     7
 10
486.1375754112
 20
643.8657059623
 30
0.0
 11
485.7183088893
 21
635.865704651
 31
0.0
  0
LINE
  5
183
  8
0
  6
CONTINUOUS
 62
     7
 10
657.7183147306
 20
635.865704651
 30
0.0
 11
657.2990482086
 21
643.8657059623
 31
0.0
  0
LINE
  5
184
  8
0
  6
CONTINUOUS
 62
     7
 10
491.4508377547
 20
644.8025717688
 30
0.0
 11
486.1375754112
 21
643.8657059623
 31
0.0
  0
LINE
  5
185
  8
0
  6
CONTINUOUS
 62
     7
 10
657.2990482086
 20
643.8657059623
 30
0.0
 11
651.9857858652
 21
644.8025717688
 31
0.0
  0
LINE
  5
186
  8
0
  6
CONTINUOUS
 62
     7
 10
486.6905351514
 20
635.6657012654
 30
0.0
 11
487.0872562165
 21
628.0957474662
 31
0.0
  0
LINE
  5
187
  8
0
  6
CONTINUOUS
 62
     7
 10
656.3493674034
 20
628.0957474662
 30
0.0
 11
656.7460884685
 21
635.6657012654
 31
0.0
  0
LINE
  5
188
  8
0
  6
CONTINUOUS
 62
     7
 10
487.0872562165
 20
628.0957474662
 30
0.0
 11
493.5782243842
 21
626.9512190772
 31
0.0
  0
LINE
  5
189
  8
0
  6
CONTINUOUS
 62
     7
 10
649.8583992357
 20
626.9512190772
 30
0.0
 11
656.3493674034
 21
628.0957474662
 31
0.0
  0
LINE
  5
18A
  8
0
  6
CONTINUOUS
 62
     7
 10
459.7183083529
 20
550.1656993581
 30
0.0
 11
456.7183097238
 21
547.1657081795
 31
0.0
  0
LINE
  5
18B
  8
0
  6
CONTINUOUS
 62
     7
 10
456.7183097238
 20
284.1656967355
 30
0.0
 11
459.7183083529
 21
281.1657055569
 31
0.0
  0
LINE
  5
18C
  8
0
  6
CONTINUOUS
 62
     7
 10
683.718315267
 20
281.1657055569
 30
0.0
 11
686.7183138961
 21
284.1656967355
 31
0.0
  0
LINE
  5
18D
  8
0
  6
CONTINUOUS
 62
     7
 10
686.7183138961
 20
547.1657081795
 30
0.0
 11
683.718315267
 21
550.1656993581
 31
0.0
  0
LINE
  5
18E
  8
0
  6
CONTINUOUS
 62
     7
 10
517.7183104092
 20
592.2165378285
 30
0.0
 11
517.7183104092
 21
554.522322054
 31
0.0
  0
LINE
  5
18F
  8
0
  6
CONTINUOUS
 62
     7
 10
625.7183132107
 20
554.522322054
 30
0.0
 11
625.7183132107
 21
592.2165378285
 31
0.0
  0
LINE
  5
190
  8
0
  6
CONTINUOUS
 62
     7
 10
516.6955841119
 20
730.8657034589
 30
0.0
 11
515.5086395675
 21
662.8656997634
 31
0.0
  0
LINE
  5
191
  8
0
  6
CONTINUOUS
 62
     7
 10
627.9279840523
 20
662.8656997634
 30
0.0
 11
626.741039508
 21
730.8657034589
 31
0.0
  0
ARC
  5
192
  8
0
  6
CONTINUOUS
 62
     7
 10
482.7183118099
 20
297.1657024575
 30
0.0
 40
6.0
 50
101.0
 51
180.0
  0
ARC
  5
193
  8
0
  6
CONTINUOUS
 62
     7
 10
482.7183118099
 20
534.1657024575
 30
0.0
 40
6.0
 50
180.0
 51
259.0
  0
ARC
  5
194
  8
0
  6
CONTINUOUS
 62
     7
 10
660.7183118099
 20
534.1657024575
 30
0.0
 40
6.0
 50
281.0
 51
0.0
  0
ARC
  5
195
  8
0
  6
CONTINUOUS
 62
     7
 10
660.7183118099
 20
297.1657024575
 30
0.0
 40
6.0
 50
0.0
 51
79.0
  0
LINE
  5
196
  8
0
  6
CONTINUOUS
 62
     7
 10
481.5734614963
 20
303.0554666472
 30
0.0
 11
510.4356249208
 21
308.6657016826
 31
0.0
  0
LINE
  5
197
  8
0
  6
CONTINUOUS
 62
     7
 10
510.4356249208
 20
522.6657032324
 30
0.0
 11
481.5734614963
 21
528.2759382678
 31
0.0
  0
LINE
  5
198
  8
0
  6
CONTINUOUS
 62
     7
 10
661.8631621236
 20
528.2759382678
 30
0.0
 11
633.0009986991
 21
522.6657032324
 31
0.0
  0
LINE
  5
199
  8
0
  6
CONTINUOUS
 62
     7
 10
633.0009986991
 20
308.6657016826
 30
0.0
 11
661.8631621236
 21
303.0554666472
 31
0.0
  0
LINE
  5
19A
  8
0
  6
CONTINUOUS
 62
     7
 10
522.1954685981
 20
522.6657032324
 30
0.0
 11
510.4356249208
 21
522.6657032324
 31
0.0
  0
LINE
  5
19B
  8
0
  6
CONTINUOUS
 62
     7
 10
633.0009986991
 20
522.6657032324
 30
0.0
 11
621.2411550218
 21
522.6657032324
 31
0.0
  0
LINE
  5
19C
  8
0
  6
CONTINUOUS
 62
     7
 10
510.4356249208
 20
308.6657016826
 30
0.0
 11
633.0009986991
 21
308.6657016826
 31
0.0
  0
LINE
  5
19D
  8
0
  6
CONTINUOUS
 62
     7
 10
516.6955841119
 20
766.8657168103
 30
0.0
 11
516.6955841119
 21
730.8657034589
 31
0.0
  0
LINE
  5
19E
  8
0
  6
CONTINUOUS
 62
     7
 10
626.741039508
 20
730.8657034589
 30
0.0
 11
626.741039508
 21
766.8657168103
 31
0.0
  0
LINE
  5
19F
  8
0
  6
CONTINUOUS
 62
     7
 10
492.3974861736
 20
662.8656997634
 30
0.0
 11
491.4195453161
 21
644.2054673386
 31
0.0
  0
LINE
  5
1A0
  8
0
  6
CONTINUOUS
 62
     7
 10
652.0170783037
 20
644.2054673386
 30
0.0
 11
651.0391374463
 21
662.8656997634
 31
0.0
  0
LINE
  5
1A1
  8
0
  6
CONTINUOUS
 62
     7
 10
616.6373555893
 20
766.8586536599
 30
0.0
 11
616.1135797734
 21
796.8656882001
 31
0.0
  0
LINE
  5
1A2
  8
0
  6
CONTINUOUS
 62
     7
 10
527.3230438465
 20
796.8656882001
 30
0.0
 11
526.7993909651
 21
766.8657168103
 31
0.0
  0
LINE
  5
1A3
  8
0
  6
CONTINUOUS
 62
     7
 10
543.4236758733
 20
857.0052250577
 30
0.0
 11
539.218313002
 21
796.8656882001
 31
0.0
  0
LINE
  5
1A4
  8
0
  6
CONTINUOUS
 62
     7
 10
604.2183106178
 20
796.8656882001
 30
0.0
 11
600.0129477466
 21
857.0052250577
 31
0.0
  0
ARC
  5
1A5
  8
0
  6
CONTINUOUS
 62
     7
 10
545.4188043227
 20
856.8657024575
 30
0.0
 40
2.000000000000001
 50
90.0
 51
176.0
  0
ARC
  5
1A6
  8
0
  6
CONTINUOUS
 62
     7
 10
598.0178192972
 20
856.8657024575
 30
0.0
 40
2.000000000000115
 50
4.0
 51
90.0
  0
LINE
  5
1A7
  8
0
  6
CONTINUOUS
 62
     7
 10
557.7183113778
 20
871.2101741982
 30
0.0
 11
557.7183113778
 21
858.8656946374
 31
0.0
  0
LINE
  5
1A8
  8
0
  6
CONTINUOUS
 62
     7
 10
585.7183122421
 20
858.8656946374
 30
0.0
 11
585.7183122421
 21
871.2101741982
 31
0.0
  0
LINE
  5
1A9
  8
0
  6
CONTINUOUS
 62
     7
 10
557.7183113778
 20
635.865704651
 30
0.0
 11
557.7183113778
 21
635.6657012654
 31
0.0
  0
LINE
  5
1AA
  8
0
  6
CONTINUOUS
 62
     7
 10
585.7183122421
 20
635.6657012654
 30
0.0
 11
585.7183122421
 21
635.865704651
 31
0.0
  0
LINE
  5
1AB
  8
0
  6
CONTINUOUS
 62
     7
 10
476.718313002
 20
585.6657042456
 30
0.0
 11
476.718313002
 21
265.889958973
 31
0.0
  0
LINE
  5
1AC
  8
0
  6
CONTINUOUS
 62
     7
 10
466.7183150882
 20
265.889958973
 30
0.0
 11
476.718313002
 21
265.889958973
 31
0.0
  0
LINE
  5
1AD
  8
0
  6
CONTINUOUS
 62
     7
 10
459.7183083529
 20
585.6657042456
 30
0.0
 11
459.7183083529
 21
245.6657006694
 31
0.0
  0
LINE
  5
1AE
  8
0
  6
CONTINUOUS
 62
     7
 10
683.718315267
 20
585.6657042456
 30
0.0
 11
683.718315267
 21
245.6657006694
 31
0.0
  0
LINE
  5
1AF
  8
0
  6
CONTINUOUS
 62
     7
 10
676.7183085317
 20
265.889958973
 30
0.0
 11
666.7183106178
 21
265.889958973
 31
0.0
  0
LINE
  5
1B0
  8
0
  6
CONTINUOUS
 62
     7
 10
666.7183106178
 20
585.6657042456
 30
0.0
 11
666.7183106178
 21
265.889958973
 31
0.0
  0
LINE
  5
1B1
  8
0
  6
CONTINUOUS
 62
     7
 10
612.159895652
 20
635.865704651
 30
0.0
 11
612.1176136071
 21
643.8657059623
 31
0.0
  0
LINE
  5
1B2
  8
0
  6
CONTINUOUS
 62
     7
 10
531.2767279679
 20
635.865704651
 30
0.0
 11
531.3190100128
 21
643.8657059623
 31
0.0
  0
LINE
  5
1B3
  8
0
  6
CONTINUOUS
 62
     7
 10
531.3190100128
 20
643.8657059623
 30
0.0
 11
612.1176136071
 21
643.8657059623
 31
0.0
  0
LINE
  5
1B4
  8
0
  6
CONTINUOUS
 62
     7
 10
612.159895652
 20
635.865704651
 30
0.0
 11
531.2767279679
 21
635.865704651
 31
0.0
  0
LINE
  5
1B5
  8
0
  6
CONTINUOUS
 62
     7
 10
611.1829270953
 20
645.4998865081
 30
0.0
 11
608.0630337233
 21
645.4811855508
 31
0.0
  0
LINE
  5
1B6
  8
0
  6
CONTINUOUS
 62
     7
 10
611.1829270953
 20
645.4998865081
 30
0.0
 11
612.1176136071
 21
643.8657059623
 31
0.0
  0
LINE
  5
1B7
  8
0
  6
CONTINUOUS
 62
     7
 10
532.2536965245
 20
645.4998865081
 30
0.0
 11
531.3190100128
 21
643.8657059623
 31
0.0
  0
LINE
  5
1B8
  8
0
  6
CONTINUOUS
 62
     7
 10
532.2536965245
 20
645.4998865081
 30
0.0
 11
535.3735898966
 21
645.4811855508
 31
0.0
  0
LINE
  5
1B9
  8
0
  6
CONTINUOUS
 62
     7
 10
535.3735898966
 20
645.4811855508
 30
0.0
 11
535.459394508
 21
645.4234584523
 31
0.0
  0
POLYLINE
  5
1BA
  8
0
  6
CONTINUOUS
 62
     7
 66
     1
 10
0.0
 20
0.0
 30
0.0
  0
VERTEX
  5
4FF
  8
0
  6
CONTINUOUS
 62
     7
 10
607.9772291118
 20
645.4234584523
 30
0.0
  0
VERTEX
  5
500
  8
0
  6
CONTINUOUS
 62
     7
 10
567.6781813959
 20
645.7300349427
 30
0.0
  0
VERTEX
  5
501
  8
0
  6
CONTINUOUS
 62
     7
 10
535.459394508
 20
645.4234584523
 30
0.0
  0
SEQEND
  5
780
  8
0
  6
CONTINUOUS
 62
     7
  0
LINE
  5
1BB
  8
0
  6
CONTINUOUS
 62
     7
 10
608.0630337233
 20
645.4811855508
 30
0.0
 11
607.9772291118
 21
645.4234584523
 31
0.0
  0
LINE
  5
1BC
  8
0
  6
CONTINUOUS
 62
     7
 10
610.6995744044
 20
628.0957474662
 30
0.0
 11
610.73827272
 21
635.6657012654
 31
0.0
  0
LINE
  5
1BD
  8
0
  6
CONTINUOUS
 62
     7
 10
610.6995744044
 20
628.0957474662
 30
0.0
 11
532.7370492155
 21
628.0957474662
 31
0.0
  0
LINE
  5
1BE
  8
0
  6
CONTINUOUS
 62
     7
 10
532.7370492155
 20
628.0957474662
 30
0.0
 11
532.6983508999
 21
635.6657012654
 31
0.0
  0
LINE
  5
1BF
  8
0
  6
CONTINUOUS
 62
     7
 10
532.6983508999
 20
635.6657012654
 30
0.0
 11
610.73827272
 21
635.6657012654
 31
0.0
  0
LINE
  5
1C0
  8
0
  6
CONTINUOUS
 62
     7
 10
609.7550792033
 20
626.3885214282
 30
0.0
 11
610.6995744044
 21
628.0957474662
 31
0.0
  0
LINE
  5
1C1
  8
0
  6
CONTINUOUS
 62
     7
 10
608.3941077227
 20
626.6063317014
 30
0.0
 11
609.7550792033
 21
626.3885214282
 31
0.0
  0
ARC
  5
1C2
  8
0
  6
CONTINUOUS
 62
     7
 10
603.8512670977
 20
595.1902540271
 30
0.0
 40
31.74283127544289
 50
81.7719250232
 51
91.6072277577
  0
POLYLINE
  5
1C3
  8
0
  6
CONTINUOUS
 62
     7
 66
     1
 10
0.0
 20
0.0
 30
0.0
  0
VERTEX
  5
502
  8
0
  6
CONTINUOUS
 62
     7
 10
540.4756711209
 20
626.9205971909
 30
0.0
  0
VERTEX
  5
503
  8
0
  6
CONTINUOUS
 62
     7
 10
567.1148364777
 20
626.7046793652
 30
0.0
  0
VERTEX
  5
504
  8
0
  6
CONTINUOUS
 62
     7
 10
602.960952499
 20
626.9205971909
 30
0.0
  0
SEQEND
  5
77F
  8
0
  6
CONTINUOUS
 62
     7
  0
ARC
  5
1C4
  8
0
  6
CONTINUOUS
 62
     7
 10
539.5853565222
 20
595.1902540271
 30
0.0
 40
31.7428312754429
 50
88.3927722423
 51
98.2280749768
  0
LINE
  5
1C5
  8
0
  6
CONTINUOUS
 62
     7
 10
535.0425158972
 20
626.6063317014
 30
0.0
 11
533.6815444166
 21
626.3885214282
 31
0.0
  0
LINE
  5
1C6
  8
0
  6
CONTINUOUS
 62
     7
 10
533.6815444166
 20
626.3885214282
 30
0.0
 11
532.7370492155
 21
628.0957474662
 31
0.0
  0
LINE
  5
1C7
  8
0
  6
CONTINUOUS
 62
     7
 10
531.3190100128
 20
643.8657059623
 30
0.0
 11
511.4406449134
 21
643.8657059623
 31
0.0
  0
LINE
  5
1C8
  8
0
  6
CONTINUOUS
 62
     7
 10
511.0449296767
 20
635.865704651
 30
0.0
 11
511.4406449134
 21
643.8657059623
 31
0.0
  0
LINE
  5
1C9
  8
0
  6
CONTINUOUS
 62
     7
 10
511.0449296767
 20
635.865704651
 30
0.0
 11
531.2767279679
 21
635.865704651
 31
0.0
  0
LINE
  5
1CA
  8
0
  6
CONTINUOUS
 62
     7
 10
612.1176136071
 20
643.8657059623
 30
0.0
 11
631.9959787065
 21
643.8657059623
 31
0.0
  0
LINE
  5
1CB
  8
0
  6
CONTINUOUS
 62
     7
 10
632.3916939432
 20
635.865704651
 30
0.0
 11
631.9959787065
 21
643.8657059623
 31
0.0
  0
LINE
  5
1CC
  8
0
  6
CONTINUOUS
 62
     7
 10
632.3916939432
 20
635.865704651
 30
0.0
 11
612.159895652
 21
635.865704651
 31
0.0
  0
POLYLINE
  5
1CD
  8
0
  6
CONTINUOUS
 62
     7
 66
     1
 10
0.0
 20
0.0
 30
0.0
  0
VERTEX
  5
505
  8
0
  6
CONTINUOUS
 62
     7
 10
521.6430452997
 20
645.7716985894
 30
0.0
  0
VERTEX
  5
506
  8
0
  6
CONTINUOUS
 62
     7
 10
521.8586315746
 20
645.7663341714
 30
0.0
  0
VERTEX
  5
507
  8
0
  6
CONTINUOUS
 62
     7
 10
522.8875418538
 20
645.7399740172
 30
0.0
  0
VERTEX
  5
508
  8
0
  6
CONTINUOUS
 62
     7
 10
524.2783827121
 20
645.7037939978
 30
0.0
  0
VERTEX
  5
509
  8
0
  6
CONTINUOUS
 62
     7
 10
525.9967995221
 20
645.6590905143
 30
0.0
  0
VERTEX
  5
50A
  8
0
  6
CONTINUOUS
 62
     7
 10
527.9895951385
 20
645.6076815081
 30
0.0
  0
VERTEX
  5
50B
  8
0
  6
CONTINUOUS
 62
     7
 10
530.0517295832
 20
645.5551549149
 30
0.0
  0
VERTEX
  5
50C
  8
0
  6
CONTINUOUS
 62
     7
 10
532.2536965245
 20
645.4998865081
 30
0.0
  0
SEQEND
  5
77E
  8
0
  6
CONTINUOUS
 62
     7
  0
LINE
  5
1CE
  8
0
  6
CONTINUOUS
 62
     7
 10
521.6430452997
 20
645.7716985894
 30
0.0
 11
511.4406449134
 21
643.8657059623
 31
0.0
  0
POLYLINE
  5
1CF
  8
0
  6
CONTINUOUS
 62
     7
 66
     1
 10
0.0
 20
0.0
 30
0.0
  0
VERTEX
  5
50D
  8
0
  6
CONTINUOUS
 62
     7
 10
621.7935783202
 20
645.7716985894
 30
0.0
  0
VERTEX
  5
50E
  8
0
  6
CONTINUOUS
 62
     7
 10
621.5779920453
 20
645.7663341714
 30
0.0
  0
VERTEX
  5
50F
  8
0
  6
CONTINUOUS
 62
     7
 10
620.5490817661
 20
645.7399740172
 30
0.0
  0
VERTEX
  5
510
  8
0
  6
CONTINUOUS
 62
     7
 10
619.1582409078
 20
645.7037939978
 30
0.0
  0
VERTEX
  5
511
  8
0
  6
CONTINUOUS
 62
     7
 10
617.4398240978
 20
645.6590905143
 30
0.0
  0
VERTEX
  5
512
  8
0
  6
CONTINUOUS
 62
     7
 10
615.4470284814
 20
645.6076815081
 30
0.0
  0
VERTEX
  5
513
  8
0
  6
CONTINUOUS
 62
     7
 10
613.3848940367
 20
645.5551549149
 30
0.0
  0
VERTEX
  5
514
  8
0
  6
CONTINUOUS
 62
     7
 10
611.1829270953
 20
645.4998865081
 30
0.0
  0
SEQEND
  5
77D
  8
0
  6
CONTINUOUS
 62
     7
  0
LINE
  5
1D0
  8
0
  6
CONTINUOUS
 62
     7
 10
621.7935783202
 20
645.7716985894
 30
0.0
 11
631.9959787065
 21
643.8657059623
 31
0.0
  0
LINE
  5
1D1
  8
0
  6
CONTINUOUS
 62
     7
 10
511.8911442692
 20
628.0957474662
 30
0.0
 11
511.5163055593
 21
635.6657012654
 31
0.0
  0
LINE
  5
1D2
  8
0
  6
CONTINUOUS
 62
     7
 10
511.8911442692
 20
628.0957474662
 30
0.0
 11
532.7370492155
 21
628.0957474662
 31
0.0
  0
LINE
  5
1D3
  8
0
  6
CONTINUOUS
 62
     7
 10
532.6983508999
 20
635.6657012654
 30
0.0
 11
511.5163055593
 21
635.6657012654
 31
0.0
  0
LINE
  5
1D4
  8
0
  6
CONTINUOUS
 62
     7
 10
631.5454793507
 20
628.0957474662
 30
0.0
 11
631.9203180606
 21
635.6657012654
 31
0.0
  0
LINE
  5
1D5
  8
0
  6
CONTINUOUS
 62
     7
 10
631.5454793507
 20
628.0957474662
 30
0.0
 11
610.6995744044
 21
628.0957474662
 31
0.0
  0
LINE
  5
1D6
  8
0
  6
CONTINUOUS
 62
     7
 10
610.73827272
 20
635.6657012654
 30
0.0
 11
631.9203180606
 21
635.6657012654
 31
0.0
  0
ARC
  5
1D7
  8
0
  6
CONTINUOUS
 62
     7
 10
528.2013193718
 20
602.7360632948
 30
0.0
 40
23.07228827171905
 50
90.0441488156
 51
97.476736193
  0
LINE
  5
1D8
  8
0
  6
CONTINUOUS
 62
     7
 10
525.1990695829
 20
625.6121858311
 30
0.0
 11
511.8911442692
 21
628.0957474662
 31
0.0
  0
LINE
  5
1D9
  8
0
  6
CONTINUOUS
 62
     7
 10
533.6815444166
 20
626.3885214282
 30
0.0
 11
528.183541202
 21
625.8083447171
 31
0.0
  0
LINE
  5
1DA
  8
0
  6
CONTINUOUS
 62
     7
 10
618.237554037
 20
625.6121858311
 30
0.0
 11
631.5454793507
 21
628.0957474662
 31
0.0
  0
ARC
  5
1DB
  8
0
  6
CONTINUOUS
 62
     7
 10
615.2353042481
 20
602.7360632948
 30
0.0
 40
23.07228827171905
 50
82.523263807
 51
89.9558511844
  0
LINE
  5
1DC
  8
0
  6
CONTINUOUS
 62
     7
 10
609.7550792033
 20
626.3885214282
 30
0.0
 11
615.2530824179
 21
625.8083447171
 31
0.0
  0
ARC
  5
1DD
  8
0
  6
CONTINUOUS
 62
     7
 10
565.0059489368
 20
620.4657024575
 30
0.0
 40
0.240000000000049
 50
22.5
 51
90.0
  0
LINE
  5
1DE
  8
0
  6
CONTINUOUS
 62
     7
 10
565.2276798496
 20
620.5575480414
 30
0.0
 11
571.4965807269
 21
605.4230793668
 31
0.0
  0
ARC
  5
1DF
  8
0
  6
CONTINUOUS
 62
     7
 10
571.7183118099
 20
605.51492542
 30
0.0
 40
0.239999999999962
 50
202.5
 51
337.5
  0
LINE
  5
1E0
  8
0
  6
CONTINUOUS
 62
     7
 10
571.9400428929
 20
605.4230793668
 30
0.0
 11
578.2089437703
 21
620.5575480414
 31
0.0
  0
ARC
  5
1E1
  8
0
  6
CONTINUOUS
 62
     7
 10
578.430674683
 20
620.4657024575
 30
0.0
 40
0.2400000000000055
 50
90.0
 51
157.5
  0
LINE
  5
1E2
  8
0
  6
CONTINUOUS
 62
     7
 10
578.4306749115
 20
620.705695386
 30
0.0
 11
596.1263114
 21
620.705695386
 31
0.0
  0
ARC
  5
1E3
  8
0
  6
CONTINUOUS
 62
     7
 10
596.1263118099
 20
620.4657024575
 30
0.0
 40
0.2400000000000091
 50
0.0
 51
90.0
  0
LINE
  5
1E4
  8
0
  6
CONTINUOUS
 62
     7
 10
596.3663113648
 20
620.4656972838
 30
0.0
 11
596.3663113648
 21
616.1457016421
 31
0.0
  0
ARC
  5
1E5
  8
0
  6
CONTINUOUS
 62
     7
 10
596.1263118099
 20
616.1457024575
 30
0.0
 40
0.2400000000000091
 50
270.0
 51
0.0
  0
LINE
  5
1E6
  8
0
  6
CONTINUOUS
 62
     7
 10
596.1263114
 20
615.9057035399
 30
0.0
 11
581.637931929
 21
615.9057035399
 31
0.0
  0
ARC
  5
1E7
  8
0
  6
CONTINUOUS
 62
     7
 10
581.6379321451
 20
615.6657024575
 30
0.0
 40
0.2400000000001228
 50
90.0
 51
157.5
  0
LINE
  5
1E8
  8
0
  6
CONTINUOUS
 62
     7
 10
581.4162007878
 20
615.7575412942
 30
0.0
 11
573.983682028
 21
597.8138610078
 31
0.0
  0
ARC
  5
1E9
  8
0
  6
CONTINUOUS
 62
     7
 10
573.7619510212
 20
597.9057024575
 30
0.0
 40
0.240000000000067
 50
270.0
 51
337.5
  0
LINE
  5
1EA
  8
0
  6
CONTINUOUS
 62
     7
 10
573.7619511196
 20
597.665698762
 30
0.0
 11
569.6746725002
 21
597.665698762
 31
0.0
  0
ARC
  5
1EB
  8
0
  6
CONTINUOUS
 62
     7
 10
569.6746725987
 20
597.9057024575
 30
0.0
 40
0.240000000000067
 50
202.5
 51
270.0
  0
LINE
  5
1EC
  8
0
  6
CONTINUOUS
 62
     7
 10
569.4529415919
 20
597.8138610078
 30
0.0
 11
562.0204228321
 21
615.7575412942
 31
0.0
  0
ARC
  5
1ED
  8
0
  6
CONTINUOUS
 62
     7
 10
561.7986914748
 20
615.6657024575
 30
0.0
 40
0.2400000000000091
 50
22.5
 51
90.0
  0
LINE
  5
1EE
  8
0
  6
CONTINUOUS
 62
     7
 10
561.7986916909
 20
615.9057035399
 30
0.0
 11
548.6063109124
 21
615.9057035399
 31
0.0
  0
ARC
  5
1EF
  8
0
  6
CONTINUOUS
 62
     7
 10
548.6063118099
 20
616.1457024575
 30
0.0
 40
0.2400000000000091
 50
180.0
 51
270.0
  0
LINE
  5
1F0
  8
0
  6
CONTINUOUS
 62
     7
 10
548.3663109476
 20
616.1457016421
 30
0.0
 11
548.3663109476
 21
620.4656972838
 31
0.0
  0
ARC
  5
1F1
  8
0
  6
CONTINUOUS
 62
     7
 10
548.6063118099
 20
620.4657024575
 30
0.0
 40
0.2400000000000091
 50
90.0
 51
180.0
  0
LINE
  5
1F2
  8
0
  6
CONTINUOUS
 62
     7
 10
548.6063109124
 20
620.705695386
 30
0.0
 11
565.0059487084
 21
620.705695386
 31
0.0
  0
LINE
  5
1F3
  8
0
  6
CONTINUOUS
 62
     7
 10
548.6063109124
 20
614.1344919158
 30
0.0
 11
560.615201422
 21
614.1344919158
 31
0.0
  0
ARC
  5
1F4
  8
0
  6
CONTINUOUS
 62
     7
 10
560.6152016364
 20
613.8944847453
 30
0.0
 40
0.2400000000000091
 50
22.5
 51
90.0
  0
LINE
  5
1F5
  8
0
  6
CONTINUOUS
 62
     7
 10
560.8369325632
 20
613.98632967
 30
0.0
 11
567.4597033644
 21
597.9975476218
 31
0.0
  0
ARC
  5
1F6
  8
0
  6
CONTINUOUS
 62
     7
 10
567.2379721059
 20
597.9057024575
 30
0.0
 40
0.2400000000001106
 50
270.0
 51
22.5
  0
LINE
  5
1F7
  8
0
  6
CONTINUOUS
 62
     7
 10
567.2379722232
 20
597.665698762
 30
0.0
 11
562.562038132
 21
597.665698762
 31
0.0
  0
ARC
  5
1F8
  8
0
  6
CONTINUOUS
 62
     7
 10
562.5620378006
 20
597.9057024575
 30
0.0
 40
0.2399999999998954
 50
202.5
 51
270.0
  0
LINE
  5
1F9
  8
0
  6
CONTINUOUS
 62
     7
 10
562.3403069908
 20
597.8138610078
 30
0.0
 11
561.0712859193
 21
600.8775397492
 31
0.0
  0
ARC
  5
1FA
  8
0
  6
CONTINUOUS
 62
     7
 10
560.8495544849
 20
600.7857024575
 30
0.0
 40
0.2399999999999005
 50
22.5
 51
90.0
  0
LINE
  5
1FB
  8
0
  6
CONTINUOUS
 62
     7
 10
560.8495547781
 20
601.025701995
 30
0.0
 11
553.6979147578
 21
601.025701995
 31
0.0
  0
ARC
  5
1FC
  8
0
  6
CONTINUOUS
 62
     7
 10
553.697914814
 20
600.7857024575
 30
0.0
 40
0.2400000000001106
 50
90.0
 51
157.5
  0
LINE
  5
1FD
  8
0
  6
CONTINUOUS
 62
     7
 10
553.4761836166
 20
600.8775397492
 30
0.0
 11
552.2071634764
 21
597.8138610078
 31
0.0
  0
ARC
  5
1FE
  8
0
  6
CONTINUOUS
 62
     7
 10
551.9854314982
 20
597.9057024575
 30
0.0
 40
0.2400000000000091
 50
270.0
 51
337.5
  0
LINE
  5
1FF
  8
0
  6
CONTINUOUS
 62
     7
 10
551.9854323352
 20
597.665698762
 30
0.0
 11
547.3094963813
 21
597.665698762
 31
0.0
  0
ARC
  5
200
  8
0
  6
CONTINUOUS
 62
     7
 10
547.309497193
 20
597.9057024575
 30
0.0
 40
0.2400000000001541
 50
157.5
 51
270.0
  0
LINE
  5
201
  8
0
  6
CONTINUOUS
 62
     7
 10
547.0877652401
 20
597.9975476218
 30
0.0
 11
551.6462260271
 21
609.0026363087
 31
0.0
  0
ARC
  5
202
  8
0
  6
CONTINUOUS
 62
     7
 10
551.4244943069
 20
609.0944847453
 30
0.0
 40
0.2400000000000091
 50
337.5
 51
90.0
  0
LINE
  5
203
  8
0
  6
CONTINUOUS
 62
     7
 10
551.4244948858
 20
609.3344851685
 30
0.0
 11
548.6063109124
 21
609.3344851685
 31
0.0
  0
ARC
  5
204
  8
0
  6
CONTINUOUS
 62
     7
 10
548.6063118099
 20
609.5744847453
 30
0.0
 40
0.2400000000000091
 50
180.0
 51
270.0
  0
LINE
  5
205
  8
0
  6
CONTINUOUS
 62
     7
 10
548.3663109476
 20
609.5744832707
 30
0.0
 11
548.3663109476
 21
613.8944789124
 31
0.0
  0
ARC
  5
206
  8
0
  6
CONTINUOUS
 62
     7
 10
548.6063118099
 20
613.8944847453
 30
0.0
 40
0.2400000000000091
 50
90.0
 51
180.0
  0
ARC
  5
207
  8
0
  6
CONTINUOUS
 62
     7
 10
555.7358455409
 20
605.7057024575
 30
0.0
 40
0.2400000000001106
 50
157.5
 51
270.0
  0
LINE
  5
208
  8
0
  6
CONTINUOUS
 62
     7
 10
558.8116235444
 20
605.4656966878
 30
0.0
 11
555.7358459914
 21
605.4656966878
 31
0.0
  0
ARC
  5
209
  8
0
  6
CONTINUOUS
 62
     7
 10
558.811623758
 20
605.7057024575
 30
0.0
 40
0.240000000000049
 50
270.0
 51
22.5
  0
LINE
  5
20A
  8
0
  6
CONTINUOUS
 62
     7
 10
557.4954654435
 20
609.5103337718
 30
0.0
 11
559.0333546856
 21
605.7975455476
 31
0.0
  0
ARC
  5
20B
  8
0
  6
CONTINUOUS
 62
     7
 10
557.2737346494
 20
609.4184952008
 30
0.0
 40
0.2400000000000055
 50
22.5
 51
157.5
  0
LINE
  5
20C
  8
0
  6
CONTINUOUS
 62
     7
 10
555.5141148502
 20
605.7975455476
 30
0.0
 11
557.0520031611
 21
609.5103337718
 31
0.0
  0
ARC
  5
20D
  8
0
  6
CONTINUOUS
 62
     7
 10
586.0463118099
 20
613.6880847453
 30
0.0
 40
9.600000000000101
 50
292.256395374
 51
332.171326468
  0
ARC
  5
20E
  8
0
  6
CONTINUOUS
 62
     7
 10
589.7732307434
 20
604.581182129
 30
0.0
 40
0.2400000000000196
 50
112.2563953739
 51
212.5
  0
LINE
  5
20F
  8
0
  6
CONTINUOUS
 62
     7
 10
589.5708174789
 20
604.4522240115
 30
0.0
 11
593.6592639769
 21
598.0346515132
 31
0.0
  0
ARC
  5
210
  8
0
  6
CONTINUOUS
 62
     7
 10
593.456849576
 20
597.9057024575
 30
0.0
 40
0.2400000000000091
 50
270.0
 51
32.5
  0
LINE
  5
211
  8
0
  6
CONTINUOUS
 62
     7
 10
593.4568503285
 20
597.665698762
 30
0.0
 11
588.7809143746
 21
597.665698762
 31
0.0
  0
ARC
  5
212
  8
0
  6
CONTINUOUS
 62
     7
 10
588.7809152707
 20
597.9057024575
 30
0.0
 40
0.2400000000000544
 50
212.5
 51
270.0
  0
LINE
  5
213
  8
0
  6
CONTINUOUS
 62
     7
 10
588.5785007263
 20
597.7767571164
 30
0.0
 11
584.2827520678
 21
604.5197262717
 31
0.0
  0
ARC
  5
214
  8
0
  6
CONTINUOUS
 62
     7
 10
584.0803385225
 20
604.3907736649
 30
0.0
 40
0.2400000000000196
 50
32.5
 51
157.5
  0
LINE
  5
215
  8
0
  6
CONTINUOUS
 62
     7
 10
583.8586072782
 20
604.4826223803
 30
0.0
 11
581.0963166291
 21
597.8138610078
 31
0.0
  0
ARC
  5
216
  8
0
  6
CONTINUOUS
 62
     7
 10
580.8745858193
 20
597.9057024575
 30
0.0
 40
0.2400000000000091
 50
270.0
 51
337.5
  0
LINE
  5
217
  8
0
  6
CONTINUOUS
 62
     7
 10
580.8745854879
 20
597.665698762
 30
0.0
 11
576.1986513967
 21
597.665698762
 31
0.0
  0
ARC
  5
218
  8
0
  6
CONTINUOUS
 62
     7
 10
576.198651514
 20
597.9057024575
 30
0.0
 40
0.2400000000000091
 50
157.5
 51
270.0
  0
LINE
  5
219
  8
0
  6
CONTINUOUS
 62
     7
 10
575.9769202555
 20
597.9975476218
 30
0.0
 11
582.5996910567
 21
613.98632967
 31
0.0
  0
ARC
  5
21A
  8
0
  6
CONTINUOUS
 62
     7
 10
582.8214219834
 20
613.8944847453
 30
0.0
 40
0.2400000000001106
 50
90.0
 51
157.5
  0
ARC
  5
21B
  8
0
  6
CONTINUOUS
 62
     7
 10
587.4973562887
 20
613.8944847453
 30
0.0
 40
0.2400000000000091
 50
337.5
 51
90.0
  0
LINE
  5
21C
  8
0
  6
CONTINUOUS
 62
     7
 10
587.7190874303
 20
613.802643056
 30
0.0
 11
585.6237019757
 21
608.7439372493
 31
0.0
  0
ARC
  5
21D
  8
0
  6
CONTINUOUS
 62
     7
 10
585.8454333459
 20
608.6520895266
 30
0.0
 40
0.2399999999999721
 50
157.5
 51
267.7157663434
  0
ARC
  5
21E
  8
0
  6
CONTINUOUS
 62
     7
 10
586.0463118099
 20
613.6880847453
 30
0.0
 40
5.280000000000103
 50
267.7157663434
 51
2.1428634539
  0
ARC
  5
21F
  8
0
  6
CONTINUOUS
 62
     7
 10
591.5624516776
 20
613.8944847453
 30
0.0
 40
0.2399999999999081
 50
90.0
 51
182.1428634539
  0
LINE
  5
220
  8
0
  6
CONTINUOUS
 62
     7
 10
591.5624508048
 20
614.1344919158
 30
0.0
 11
596.1263114
 21
614.1344919158
 31
0.0
  0
ARC
  5
221
  8
0
  6
CONTINUOUS
 62
     7
 10
596.1263118099
 20
613.8944847453
 30
0.0
 40
0.2400000000000091
 50
0.0
 51
90.0
  0
LINE
  5
222
  8
0
  6
CONTINUOUS
 62
     7
 10
596.3663113648
 20
613.8944789124
 30
0.0
 11
596.3663113648
 21
609.5744832707
 31
0.0
  0
ARC
  5
223
  8
0
  6
CONTINUOUS
 62
     7
 10
596.1263118099
 20
609.5744847453
 30
0.0
 40
0.2400000000000091
 50
270.0
 51
0.0
  0
LINE
  5
224
  8
0
  6
CONTINUOUS
 62
     7
 10
596.1263114
 20
609.3344851685
 30
0.0
 11
594.7482911283
 21
609.3344851685
 31
0.0
  0
ARC
  5
225
  8
0
  6
CONTINUOUS
 62
     7
 10
594.74829084
 20
609.0944847453
 30
0.0
 40
0.2400000000000091
 50
90.0
 51
152.171326468
  0
LINE
  5
226
  8
0
  6
CONTINUOUS
 62
     7
 10
582.8214221979
 20
614.1344919158
 30
0.0
 11
587.4973562891
 21
614.1344919158
 31
0.0
  0
LINE
  5
227
  8
0
  6
CONTINUOUS
 62
     7
 10
540.4756711209
 20
600.6657048417
 30
0.0
 11
540.4756711209
 21
626.9205971909
 31
0.0
  0
LINE
  5
228
  8
0
  6
CONTINUOUS
 62
     7
 10
535.6830609376
 20
600.6657048417
 30
0.0
 11
540.4756711209
 21
600.6657048417
 31
0.0
  0
LINE
  5
229
  8
0
  6
CONTINUOUS
 62
     7
 10
535.6830609376
 20
600.6657048417
 30
0.0
 11
535.0425158972
 21
626.6063317014
 31
0.0
  0
LINE
  5
22A
  8
0
  6
CONTINUOUS
 62
     7
 10
607.7535626823
 20
600.6657048417
 30
0.0
 11
608.3941077227
 21
626.6063317014
 31
0.0
  0
LINE
  5
22B
  8
0
  6
CONTINUOUS
 62
     7
 10
607.7535626823
 20
600.6657048417
 30
0.0
 11
602.960952499
 21
600.6657048417
 31
0.0
  0
LINE
  5
22C
  8
0
  6
CONTINUOUS
 62
     7
 10
602.960952499
 20
600.6657048417
 30
0.0
 11
602.960952499
 21
626.9205971909
 31
0.0
  0
LINE
  5
22D
  8
0
  6
CONTINUOUS
 62
     7
 10
547.4677727902
 20
607.0294543458
 30
0.0
 11
550.8289029235
 21
607.0294543458
 31
0.0
  0
LINE
  5
22E
  8
0
  6
CONTINUOUS
 62
     7
 10
547.4677727902
 20
607.0294543458
 30
0.0
 11
547.3868892873
 21
600.6657048417
 31
0.0
  0
LINE
  5
22F
  8
0
  6
CONTINUOUS
 62
     7
 10
540.4756711209
 20
600.6657048417
 30
0.0
 11
547.3868892873
 21
600.6657048417
 31
0.0
  0
LINE
  5
230
  8
0
  6
CONTINUOUS
 62
     7
 10
602.960952499
 20
600.6657048417
 30
0.0
 11
596.0497343326
 21
600.6657048417
 31
0.0
  0
LINE
  5
231
  8
0
  6
CONTINUOUS
 62
     7
 10
595.9688508296
 20
607.0294543458
 30
0.0
 11
596.0497343326
 21
600.6657048417
 31
0.0
  0
LINE
  5
232
  8
0
  6
CONTINUOUS
 62
     7
 10
592.9616977805
 20
607.0294543458
 30
0.0
 11
595.9688508296
 21
607.0294543458
 31
0.0
  0
LINE
  5
233
  8
0
  6
CONTINUOUS
 62
     7
 10
577.8009048076
 20
607.0294543458
 30
0.0
 11
579.7180570075
 21
607.0294543458
 31
0.0
  0
LINE
  5
234
  8
0
  6
CONTINUOUS
 62
     7
 10
570.831201388
 20
607.0294543458
 30
0.0
 11
572.6054222318
 21
607.0294543458
 31
0.0
  0
LINE
  5
235
  8
0
  6
CONTINUOUS
 62
     7
 10
563.7185666123
 20
607.0294543458
 30
0.0
 11
565.6357188122
 21
607.0294543458
 31
0.0
  0
LINE
  5
236
  8
0
  6
CONTINUOUS
 62
     7
 10
556.0243846262
 20
607.0294543458
 30
0.0
 11
558.5230839783
 21
607.0294543458
 31
0.0
  0
LINE
  5
237
  8
0
  6
CONTINUOUS
 62
     7
 10
547.4677727902
 20
597.665698762
 30
0.0
 11
547.4677727902
 21
369.8719865931
 31
0.0
  0
LINE
  5
238
  8
0
  6
CONTINUOUS
 62
     7
 10
546.490392589
 20
369.1524542225
 30
0.0
 11
547.4677727902
 21
369.8719865931
 31
0.0
  0
LINE
  5
239
  8
0
  6
CONTINUOUS
 62
     7
 10
546.490392589
 20
369.1524542225
 30
0.0
 11
540.6483681286
 21
408.7075218847
 31
0.0
  0
LINE
  5
23A
  8
0
  6
CONTINUOUS
 62
     7
 10
540.6483681286
 20
595.2870413018
 30
0.0
 11
540.6483681286
 21
408.7075218847
 31
0.0
  0
LINE
  5
23B
  8
0
  6
CONTINUOUS
 62
     7
 10
540.6483681286
 20
595.2870413018
 30
0.0
 11
540.8428972
 21
595.2213569833
 31
0.0
  0
LINE
  5
23C
  8
0
  6
CONTINUOUS
 62
     7
 10
540.8428972
 20
595.2213569833
 30
0.0
 11
542.8412993783
 21
596.1201056195
 31
0.0
  0
LINE
  5
23D
  8
0
  6
CONTINUOUS
 62
     7
 10
542.8412993783
 20
596.1201056195
 30
0.0
 11
547.3868892873
 21
600.6657048417
 31
0.0
  0
LINE
  5
23E
  8
0
  6
CONTINUOUS
 62
     7
 10
547.4677727902
 20
607.0294543458
 30
0.0
 11
547.4677727902
 21
598.914967413
 31
0.0
  0
LINE
  5
23F
  8
0
  6
CONTINUOUS
 62
     7
 10
596.4538221592
 20
362.5656902147
 30
0.0
 11
596.7047688896
 21
358.7134680999
 31
0.0
  0
LINE
  5
240
  8
0
  6
CONTINUOUS
 62
     7
 10
596.7047688896
 20
358.7134680999
 30
0.0
 11
546.7318547303
 21
358.7134680999
 31
0.0
  0
LINE
  5
241
  8
0
  6
CONTINUOUS
 62
     7
 10
546.9828014607
 20
362.5656902147
 30
0.0
 11
546.7318547303
 21
358.7134680999
 31
0.0
  0
LINE
  5
242
  8
0
  6
CONTINUOUS
 62
     7
 10
546.490392589
 20
369.1524542225
 30
0.0
 11
546.9828014607
 21
362.5656902147
 31
0.0
  0
LINE
  5
243
  8
0
  6
CONTINUOUS
 62
     7
 10
595.9688508296
 20
369.8719865931
 30
0.0
 11
547.4677727902
 21
369.8719865931
 31
0.0
  0
LINE
  5
244
  8
0
  6
CONTINUOUS
 62
     7
 10
596.9462310309
 20
369.1524542225
 30
0.0
 11
595.9688508296
 21
369.8719865931
 31
0.0
  0
LINE
  5
245
  8
0
  6
CONTINUOUS
 62
     7
 10
596.9462310309
 20
369.1524542225
 30
0.0
 11
596.4538221592
 21
362.5656902147
 31
0.0
  0
LINE
  5
246
  8
0
  6
CONTINUOUS
 62
     7
 10
595.9688508296
 20
607.0294543458
 30
0.0
 11
595.9688508296
 21
369.8719865931
 31
0.0
  0
LINE
  5
247
  8
0
  6
CONTINUOUS
 62
     7
 10
600.5953242416
 20
596.1201056195
 30
0.0
 11
596.0497343326
 21
600.6657048417
 31
0.0
  0
LINE
  5
248
  8
0
  6
CONTINUOUS
 62
     7
 10
602.5937264199
 20
595.2213569833
 30
0.0
 11
600.5953242416
 21
596.1201056195
 31
0.0
  0
LINE
  5
249
  8
0
  6
CONTINUOUS
 62
     7
 10
602.7882554913
 20
595.2870413018
 30
0.0
 11
602.5937264199
 21
595.2213569833
 31
0.0
  0
LINE
  5
24A
  8
0
  6
CONTINUOUS
 62
     7
 10
602.7882554913
 20
595.2870413018
 30
0.0
 11
602.7882554913
 21
408.7075218847
 31
0.0
  0
LINE
  5
24B
  8
0
  6
CONTINUOUS
 62
     7
 10
596.9462310309
 20
369.1524542225
 30
0.0
 11
602.7882554913
 21
408.7075218847
 31
0.0
  0
LINE
  5
24C
  8
0
  6
CONTINUOUS
 62
     7
 10
542.8412993783
 20
596.1201056195
 30
0.0
 11
540.4756711209
 21
598.1987878037
 31
0.0
  0
LINE
  5
24D
  8
0
  6
CONTINUOUS
 62
     7
 10
540.4756711209
 20
598.1987878037
 30
0.0
 11
540.4756711209
 21
600.6657048417
 31
0.0
  0
LINE
  5
24E
  8
0
  6
CONTINUOUS
 62
     7
 10
540.4756711209
 20
598.1987878037
 30
0.0
 11
535.6830609376
 21
600.6657048417
 31
0.0
  0
LINE
  5
24F
  8
0
  6
CONTINUOUS
 62
     7
 10
602.960952499
 20
598.1987878037
 30
0.0
 11
602.960952499
 21
600.6657048417
 31
0.0
  0
LINE
  5
250
  8
0
  6
CONTINUOUS
 62
     7
 10
600.5953242416
 20
596.1201056195
 30
0.0
 11
602.960952499
 21
598.1987878037
 31
0.0
  0
LINE
  5
251
  8
0
  6
CONTINUOUS
 62
     7
 10
602.960952499
 20
598.1987878037
 30
0.0
 11
607.7535626823
 21
600.6657048417
 31
0.0
  0
POLYLINE
  5
252
  8
0
  6
CONTINUOUS
 62
     7
 66
     1
 10
0.0
 20
0.0
 30
0.0
  0
VERTEX
  5
515
  8
0
  6
CONTINUOUS
 62
     7
 10
571.7181118099
 20
760.4399486733
 30
0.0
  0
VERTEX
  5
516
  8
0
  6
CONTINUOUS
 62
     7
 10
578.968652931
 20
760.6107755852
 30
0.0
  0
VERTEX
  5
517
  8
0
  6
CONTINUOUS
 62
     7
 10
586.2191998744
 20
761.1220940305
 30
0.0
  0
VERTEX
  5
518
  8
0
  6
CONTINUOUS
 62
     7
 10
592.8537351424
 20
761.8855103207
 30
0.0
  0
VERTEX
  5
519
  8
0
  6
CONTINUOUS
 62
     7
 10
599.0800810391
 20
762.855069275
 30
0.0
  0
VERTEX
  5
51A
  8
0
  6
CONTINUOUS
 62
     7
 10
603.8089049393
 20
763.7524172021
 30
0.0
  0
VERTEX
  5
51B
  8
0
  6
CONTINUOUS
 62
     7
 10
607.9774302775
 20
764.656589861
 30
0.0
  0
VERTEX
  5
51C
  8
0
  6
CONTINUOUS
 62
     7
 10
611.7228743965
 20
765.5579312993
 30
0.0
  0
VERTEX
  5
51D
  8
0
  6
CONTINUOUS
 62
     7
 10
614.5728853876
 20
766.2992342664
 30
0.0
  0
VERTEX
  5
51E
  8
0
  6
CONTINUOUS
 62
     7
 10
615.5770150358
 20
766.571627493
 30
0.0
  0
VERTEX
  5
51F
  8
0
  6
CONTINUOUS
 62
     7
 10
616.2530807192
 20
766.7584284497
 30
0.0
  0
VERTEX
  5
520
  8
0
  6
CONTINUOUS
 62
     7
 10
616.6346324021
 20
766.8649717522
 30
0.0
  0
VERTEX
  5
521
  8
0
  6
CONTINUOUS
 62
     7
 10
616.6103248829
 20
766.8581768227
 30
0.0
  0
SEQEND
  5
77C
  8
0
  6
CONTINUOUS
 62
     7
  0
ARC
  5
253
  8
0
  6
CONTINUOUS
 62
     7
 10
572.6337039372
 20
927.0404861937
 30
0.0
 40
166.6030534264257
 50
254.0596090585
 51
269.6851208448
  0
ARC
  5
254
  8
0
  6
CONTINUOUS
 62
     7
 10
535.634177106
 20
650.8933917524
 30
0.0
 40
3.866423101567003
 50
267.4090473796
 51
312.6371870129
  0
ARC
  5
255
  8
0
  6
CONTINUOUS
 62
     7
 10
631.3054513
 20
529.9558657278
 30
0.0
 40
150.3487038264069
 50
117.8700010399
 51
128.2365913751
  0
POLYLINE
  5
256
  8
0
  6
CONTINUOUS
 62
     7
 66
     1
 10
0.0
 20
0.0
 30
0.0
  0
VERTEX
  5
522
  8
0
  6
CONTINUOUS
 62
     7
 10
531.8911736244
 20
699.8967989636
 30
0.0
  0
VERTEX
  5
523
  8
0
  6
CONTINUOUS
 62
     7
 10
532.5551060373
 20
700.2054318143
 30
0.0
  0
VERTEX
  5
524
  8
0
  6
CONTINUOUS
 62
     7
 10
534.7938564951
 20
700.7913752747
 30
0.0
  0
VERTEX
  5
525
  8
0
  6
CONTINUOUS
 62
     7
 10
537.1535745794
 20
700.7157965852
 30
0.0
  0
VERTEX
  5
526
  8
0
  6
CONTINUOUS
 62
     7
 10
539.1995040113
 20
700.0659271432
 30
0.0
  0
VERTEX
  5
527
  8
0
  6
CONTINUOUS
 62
     7
 10
541.6659833277
 20
698.4066828442
 30
0.0
  0
VERTEX
  5
528
  8
0
  6
CONTINUOUS
 62
     7
 10
543.1349453861
 20
696.7777773095
 30
0.0
  0
VERTEX
  5
529
  8
0
  6
CONTINUOUS
 62
     7
 10
544.2845401699
 20
694.9632927132
 30
0.0
  0
VERTEX
  5
52A
  8
0
  6
CONTINUOUS
 62
     7
 10
545.6637953753
 20
691.567765112
 30
0.0
  0
VERTEX
  5
52B
  8
0
  6
CONTINUOUS
 62
     7
 10
546.4280107403
 20
687.9732176019
 30
0.0
  0
VERTEX
  5
52C
  8
0
  6
CONTINUOUS
 62
     7
 10
546.7183114374
 20
683.5831268979
 30
0.0
  0
VERTEX
  5
52D
  8
0
  6
CONTINUOUS
 62
     7
 10
546.4142960841
 20
678.6193116856
 30
0.0
  0
VERTEX
  5
52E
  8
0
  6
CONTINUOUS
 62
     7
 10
545.5046789134
 20
673.6114188386
 30
0.0
  0
VERTEX
  5
52F
  8
0
  6
CONTINUOUS
 62
     7
 10
543.993099534
 20
668.6641439153
 30
0.0
  0
VERTEX
  5
530
  8
0
  6
CONTINUOUS
 62
     7
 10
542.7431491548
 20
665.6976207448
 30
0.0
  0
VERTEX
  5
531
  8
0
  6
CONTINUOUS
 62
     7
 10
541.1379234279
 20
662.8656997634
 30
0.0
  0
SEQEND
  5
77B
  8
0
  6
CONTINUOUS
 62
     7
  0
POLYLINE
  5
257
  8
0
  6
CONTINUOUS
 62
     7
 66
     1
 10
0.0
 20
0.0
 30
0.0
  0
VERTEX
  5
532
  8
0
  6
CONTINUOUS
 62
     7
 10
526.1366133923
 20
730.8657034589
 30
0.0
  0
VERTEX
  5
533
  8
0
  6
CONTINUOUS
 62
     7
 10
527.5743146772
 20
723.9316269112
 30
0.0
  0
VERTEX
  5
534
  8
0
  6
CONTINUOUS
 62
     7
 10
529.0222009057
 20
716.489241953
 30
0.0
  0
VERTEX
  5
535
  8
0
  6
CONTINUOUS
 62
     7
 10
530.4788303906
 20
708.4244354916
 30
0.0
  0
VERTEX
  5
536
  8
0
  6
CONTINUOUS
 62
     7
 10
531.8911736244
 20
699.8967989636
 30
0.0
  0
SEQEND
  5
77A
  8
0
  6
CONTINUOUS
 62
     7
  0
POLYLINE
  5
258
  8
0
  6
CONTINUOUS
 62
     7
 66
     1
 10
0.0
 20
0.0
 30
0.0
  0
VERTEX
  5
537
  8
0
  6
CONTINUOUS
 62
     7
 10
526.1366133923
 20
730.8657034589
 30
0.0
  0
VERTEX
  5
538
  8
0
  6
CONTINUOUS
 62
     7
 10
524.2627625698
 20
738.7355729295
 30
0.0
  0
VERTEX
  5
539
  8
0
  6
CONTINUOUS
 62
     7
 10
522.5079906518
 20
745.7268401337
 30
0.0
  0
VERTEX
  5
53A
  8
0
  6
CONTINUOUS
 62
     7
 10
520.876633876
 20
751.9460781766
 30
0.0
  0
VERTEX
  5
53B
  8
0
  6
CONTINUOUS
 62
     7
 10
519.4643018181
 20
757.137225504
 30
0.0
  0
VERTEX
  5
53C
  8
0
  6
CONTINUOUS
 62
     7
 10
518.3398341173
 20
761.1565455151
 30
0.0
  0
VERTEX
  5
53D
  8
0
  6
CONTINUOUS
 62
     7
 10
517.4903114671
 20
764.1295059872
 30
0.0
  0
VERTEX
  5
53E
  8
0
  6
CONTINUOUS
 62
     7
 10
516.9289921755
 20
766.0674616051
 30
0.0
  0
VERTEX
  5
53F
  8
0
  6
CONTINUOUS
 62
     7
 10
516.7004716927
 20
766.8489977074
 30
0.0
  0
VERTEX
  5
540
  8
0
  6
CONTINUOUS
 62
     7
 10
516.7061229581
 20
766.8296858025
 30
0.0
  0
SEQEND
  5
779
  8
0
  6
CONTINUOUS
 62
     7
  0
POLYLINE
  5
259
  8
0
  6
CONTINUOUS
 62
     7
 66
     1
 10
0.0
 20
0.0
 30
0.0
  0
VERTEX
  5
541
  8
0
  6
CONTINUOUS
 62
     7
 10
617.3000102276
 20
730.8657034589
 30
0.0
  0
VERTEX
  5
542
  8
0
  6
CONTINUOUS
 62
     7
 10
619.1738610501
 20
738.7355729295
 30
0.0
  0
VERTEX
  5
543
  8
0
  6
CONTINUOUS
 62
     7
 10
620.9286329681
 20
745.7268401337
 30
0.0
  0
VERTEX
  5
544
  8
0
  6
CONTINUOUS
 62
     7
 10
622.5599897439
 20
751.9460781766
 30
0.0
  0
VERTEX
  5
545
  8
0
  6
CONTINUOUS
 62
     7
 10
623.9723218018
 20
757.137225504
 30
0.0
  0
VERTEX
  5
546
  8
0
  6
CONTINUOUS
 62
     7
 10
625.0967895025
 20
761.1565455151
 30
0.0
  0
VERTEX
  5
547
  8
0
  6
CONTINUOUS
 62
     7
 10
625.9463121528
 20
764.1295059872
 30
0.0
  0
VERTEX
  5
548
  8
0
  6
CONTINUOUS
 62
     7
 10
626.5076314444
 20
766.0674616051
 30
0.0
  0
VERTEX
  5
549
  8
0
  6
CONTINUOUS
 62
     7
 10
626.7361519272
 20
766.8489977074
 30
0.0
  0
VERTEX
  5
54A
  8
0
  6
CONTINUOUS
 62
     7
 10
626.7305006618
 20
766.8296858025
 30
0.0
  0
SEQEND
  5
778
  8
0
  6
CONTINUOUS
 62
     7
  0
POLYLINE
  5
25A
  8
0
  6
CONTINUOUS
 62
     7
 66
     1
 10
0.0
 20
0.0
 30
0.0
  0
VERTEX
  5
54B
  8
0
  6
CONTINUOUS
 62
     7
 10
617.3000102276
 20
730.8657034589
 30
0.0
  0
VERTEX
  5
54C
  8
0
  6
CONTINUOUS
 62
     7
 10
615.8623089427
 20
723.9316269112
 30
0.0
  0
VERTEX
  5
54D
  8
0
  6
CONTINUOUS
 62
     7
 10
614.4144227142
 20
716.489241953
 30
0.0
  0
VERTEX
  5
54E
  8
0
  6
CONTINUOUS
 62
     7
 10
612.9577932293
 20
708.4244354916
 30
0.0
  0
VERTEX
  5
54F
  8
0
  6
CONTINUOUS
 62
     7
 10
611.5454499954
 20
699.8967989636
 30
0.0
  0
SEQEND
  5
777
  8
0
  6
CONTINUOUS
 62
     7
  0
POLYLINE
  5
25B
  8
0
  6
CONTINUOUS
 62
     7
 66
     1
 10
0.0
 20
0.0
 30
0.0
  0
VERTEX
  5
550
  8
0
  6
CONTINUOUS
 62
     7
 10
611.5454499954
 20
699.8967989636
 30
0.0
  0
VERTEX
  5
551
  8
0
  6
CONTINUOUS
 62
     7
 10
610.8815175826
 20
700.2054318143
 30
0.0
  0
VERTEX
  5
552
  8
0
  6
CONTINUOUS
 62
     7
 10
608.6427671248
 20
700.7913752747
 30
0.0
  0
VERTEX
  5
553
  8
0
  6
CONTINUOUS
 62
     7
 10
606.2830490405
 20
700.7157965852
 30
0.0
  0
VERTEX
  5
554
  8
0
  6
CONTINUOUS
 62
     7
 10
604.2371196086
 20
700.0659271432
 30
0.0
  0
VERTEX
  5
555
  8
0
  6
CONTINUOUS
 62
     7
 10
601.7706402922
 20
698.4066828442
 30
0.0
  0
VERTEX
  5
556
  8
0
  6
CONTINUOUS
 62
     7
 10
600.3016782338
 20
696.7777773095
 30
0.0
  0
VERTEX
  5
557
  8
0
  6
CONTINUOUS
 62
     7
 10
599.15208345
 20
694.9632927132
 30
0.0
  0
VERTEX
  5
558
  8
0
  6
CONTINUOUS
 62
     7
 10
597.7728282446
 20
691.567765112
 30
0.0
  0
VERTEX
  5
559
  8
0
  6
CONTINUOUS
 62
     7
 10
597.0086128796
 20
687.9732176019
 30
0.0
  0
VERTEX
  5
55A
  8
0
  6
CONTINUOUS
 62
     7
 10
596.7183121825
 20
683.5831268979
 30
0.0
  0
VERTEX
  5
55B
  8
0
  6
CONTINUOUS
 62
     7
 10
597.0223275358
 20
678.6193116856
 30
0.0
  0
VERTEX
  5
55C
  8
0
  6
CONTINUOUS
 62
     7
 10
597.9319447065
 20
673.6114188386
 30
0.0
  0
VERTEX
  5
55D
  8
0
  6
CONTINUOUS
 62
     7
 10
599.4435240859
 20
668.6641439153
 30
0.0
  0
VERTEX
  5
55E
  8
0
  6
CONTINUOUS
 62
     7
 10
600.6934744651
 20
665.6976207448
 30
0.0
  0
VERTEX
  5
55F
  8
0
  6
CONTINUOUS
 62
     7
 10
602.298700192
 20
662.8656997634
 30
0.0
  0
SEQEND
  5
776
  8
0
  6
CONTINUOUS
 62
     7
  0
ARC
  5
25C
  8
0
  6
CONTINUOUS
 62
     7
 10
512.1311723199
 20
529.9558657278
 30
0.0
 40
150.3487038264069
 50
51.7634086249
 51
62.1299989601
  0
ARC
  5
25D
  8
0
  6
CONTINUOUS
 62
     7
 10
607.8024465138
 20
650.8933917524
 30
0.0
 40
3.866423101567079
 50
227.3628129871
 51
272.5909526204
  0
LINE
  5
25E
  8
0
  6
CONTINUOUS
 62
     7
 10
607.9772291118
 20
647.0309212161
 30
0.0
 11
607.9772291118
 21
645.4234584523
 31
0.0
  0
LINE
  5
25F
  8
0
  6
CONTINUOUS
 62
     7
 10
535.459394508
 20
647.0309212161
 30
0.0
 11
535.459394508
 21
645.4234584523
 31
0.0
  0
LINE
  5
260
  8
0
  6
CONTINUOUS
 62
     7
 10
538.1182720298
 20
662.8656997634
 30
0.0
 11
521.8974863524
 21
662.8656997634
 31
0.0
  0
LINE
  5
261
  8
0
  6
CONTINUOUS
 62
     7
 10
538.1182720298
 20
662.8656997634
 30
0.0
 11
538.2531126374
 21
648.0490281535
 31
0.0
  0
LINE
  5
262
  8
0
  6
CONTINUOUS
 62
     7
 10
535.3735898966
 20
645.4811855508
 30
0.0
 11
535.459394508
 21
647.0309212161
 31
0.0
  0
POLYLINE
  5
263
  8
0
  6
CONTINUOUS
 62
     7
 66
     1
 10
0.0
 20
0.0
 30
0.0
  0
VERTEX
  5
560
  8
0
  6
CONTINUOUS
 62
     7
 10
521.0511413748
 20
645.9196075154
 30
0.0
  0
VERTEX
  5
561
  8
0
  6
CONTINUOUS
 62
     7
 10
521.0222591991
 20
645.8772733165
 30
0.0
  0
VERTEX
  5
562
  8
0
  6
CONTINUOUS
 62
     7
 10
521.6430452997
 20
645.7716985894
 30
0.0
  0
SEQEND
  5
775
  8
0
  6
CONTINUOUS
 62
     7
  0
POLYLINE
  5
264
  8
0
  6
CONTINUOUS
 62
     7
 66
     1
 10
0.0
 20
0.0
 30
0.0
  0
VERTEX
  5
563
  8
0
  6
CONTINUOUS
 62
     7
 10
622.3854822451
 20
645.9196075154
 30
0.0
  0
VERTEX
  5
564
  8
0
  6
CONTINUOUS
 62
     7
 10
622.4143644208
 20
645.8772733165
 30
0.0
  0
VERTEX
  5
565
  8
0
  6
CONTINUOUS
 62
     7
 10
621.7935783202
 20
645.7716985894
 30
0.0
  0
SEQEND
  5
774
  8
0
  6
CONTINUOUS
 62
     7
  0
LINE
  5
265
  8
0
  6
CONTINUOUS
 62
     7
 10
608.0630337233
 20
645.4811855508
 30
0.0
 11
607.9772291118
 21
647.0309212161
 31
0.0
  0
LINE
  5
266
  8
0
  6
CONTINUOUS
 62
     7
 10
605.3183515901
 20
662.8656997634
 30
0.0
 11
605.1835109824
 21
648.0490281535
 31
0.0
  0
LINE
  5
267
  8
0
  6
CONTINUOUS
 62
     7
 10
605.3183515901
 20
662.8656997634
 30
0.0
 11
621.5391372675
 21
662.8656997634
 31
0.0
  0
LINE
  5
268
  8
0
  6
CONTINUOUS
 62
     7
 10
528.804383182
 20
600.6657048417
 30
0.0
 11
535.6830609376
 21
600.6657048417
 31
0.0
  0
LINE
  5
269
  8
0
  6
CONTINUOUS
 62
     7
 10
528.804383182
 20
600.6657048417
 30
0.0
 11
528.183541202
 21
625.8083447171
 31
0.0
  0
LINE
  5
26A
  8
0
  6
CONTINUOUS
 62
     7
 10
614.6322404379
 20
600.6657048417
 30
0.0
 11
615.2530824179
 21
625.8083447171
 31
0.0
  0
LINE
  5
26B
  8
0
  6
CONTINUOUS
 62
     7
 10
614.6322404379
 20
600.6657048417
 30
0.0
 11
607.7535626823
 21
600.6657048417
 31
0.0
  0
LINE
  5
26C
  8
0
  6
CONTINUOUS
 62
     7
 10
561.0223896215
 20
662.8656997634
 30
0.0
 11
538.1182720298
 21
662.8656997634
 31
0.0
  0
LINE
  5
26D
  8
0
  6
CONTINUOUS
 62
     7
 10
582.4142339984
 20
662.8656997634
 30
0.0
 11
605.3183515901
 21
662.8656997634
 31
0.0
  0
LINE
  5
26E
  8
0
  6
CONTINUOUS
 62
     7
 10
540.8428972
 20
595.2213569833
 30
0.0
 11
535.7183133597
 21
597.1068903161
 31
0.0
  0
LINE
  5
26F
  8
0
  6
CONTINUOUS
 62
     7
 10
535.7183133597
 20
597.1068903161
 30
0.0
 11
528.804383182
 21
600.6657048417
 31
0.0
  0
LINE
  5
270
  8
0
  6
CONTINUOUS
 62
     7
 10
607.7183102602
 20
597.1068903161
 30
0.0
 11
614.6322404379
 21
600.6657048417
 31
0.0
  0
LINE
  5
271
  8
0
  6
CONTINUOUS
 62
     7
 10
602.5937264199
 20
595.2213569833
 30
0.0
 11
607.7183102602
 21
597.1068903161
 31
0.0
  0
LINE
  5
272
  8
0
  6
CONTINUOUS
 62
     7
 10
522.1954685981
 20
522.6657032324
 30
0.0
 11
517.7183104092
 21
554.522322054
 31
0.0
  0
POLYLINE
  5
273
  8
0
  6
CONTINUOUS
 62
     7
 66
     1
 10
0.0
 20
0.0
 30
0.0
  0
VERTEX
  5
566
  8
0
  6
CONTINUOUS
 62
     7
 10
535.5784473354
 20
444.1698170555
 30
0.0
  0
VERTEX
  5
567
  8
0
  6
CONTINUOUS
 62
     7
 10
532.20128169
 20
466.5606743944
 30
0.0
  0
VERTEX
  5
568
  8
0
  6
CONTINUOUS
 62
     7
 10
529.1731496686
 20
486.4573269439
 30
0.0
  0
VERTEX
  5
569
  8
0
  6
CONTINUOUS
 62
     7
 10
526.4962007636
 20
503.845670755
 30
0.0
  0
VERTEX
  5
56A
  8
0
  6
CONTINUOUS
 62
     7
 10
524.1723274225
 20
518.7133937431
 30
0.0
  0
VERTEX
  5
56B
  8
0
  6
CONTINUOUS
 62
     7
 10
522.203179949
 20
531.0499458862
 30
0.0
  0
VERTEX
  5
56C
  8
0
  6
CONTINUOUS
 62
     7
 10
520.5901553268
 20
540.8465876532
 30
0.0
  0
VERTEX
  5
56D
  8
0
  6
CONTINUOUS
 62
     7
 10
519.3343934948
 20
548.0963751031
 30
0.0
  0
VERTEX
  5
56E
  8
0
  6
CONTINUOUS
 62
     7
 10
518.4367810721
 20
552.7941896869
 30
0.0
  0
VERTEX
  5
56F
  8
0
  6
CONTINUOUS
 62
     7
 10
517.8979625339
 20
554.9366786433
 30
0.0
  0
VERTEX
  5
570
  8
0
  6
CONTINUOUS
 62
     7
 10
517.7183104092
 20
554.522322054
 30
0.0
  0
SEQEND
  5
773
  8
0
  6
CONTINUOUS
 62
     7
  0
POLYLINE
  5
274
  8
0
  6
CONTINUOUS
 62
     7
 66
     1
 10
0.0
 20
0.0
 30
0.0
  0
VERTEX
  5
571
  8
0
  6
CONTINUOUS
 62
     7
 10
540.6483681286
 20
408.7075218847
 30
0.0
  0
VERTEX
  5
572
  8
0
  6
CONTINUOUS
 62
     7
 10
540.3963205749
 20
410.4241323946
 30
0.0
  0
VERTEX
  5
573
  8
0
  6
CONTINUOUS
 62
     7
 10
540.0944901044
 20
412.4978354955
 30
0.0
  0
VERTEX
  5
574
  8
0
  6
CONTINUOUS
 62
     7
 10
539.7449461157
 20
414.914422872
 30
0.0
  0
VERTEX
  5
575
  8
0
  6
CONTINUOUS
 62
     7
 10
539.3500876958
 20
417.6573367146
 30
0.0
  0
VERTEX
  5
576
  8
0
  6
CONTINUOUS
 62
     7
 10
538.9126119549
 20
420.7077827593
 30
0.0
  0
VERTEX
  5
577
  8
0
  6
CONTINUOUS
 62
     7
 10
538.4355214769
 20
424.0448600901
 30
0.0
  0
VERTEX
  5
578
  8
0
  6
CONTINUOUS
 62
     7
 10
537.9220833415
 20
427.6457042722
 30
0.0
  0
VERTEX
  5
579
  8
0
  6
CONTINUOUS
 62
     7
 10
537.375817948
 20
431.4856431735
 30
0.0
  0
VERTEX
  5
57A
  8
0
  6
CONTINUOUS
 62
     7
 10
536.8004654879
 20
435.5383641375
 30
0.0
  0
VERTEX
  5
57B
  8
0
  6
CONTINUOUS
 62
     7
 10
536.1999710435
 20
439.7761016441
 30
0.0
  0
VERTEX
  5
57C
  8
0
  6
CONTINUOUS
 62
     7
 10
535.5784473354
 20
444.1698170555
 30
0.0
  0
SEQEND
  5
772
  8
0
  6
CONTINUOUS
 62
     7
  0
LINE
  5
275
  8
0
  6
CONTINUOUS
 62
     7
 10
546.9828014607
 20
362.5656902147
 30
0.0
 11
546.3393413806
 21
362.5206961585
 31
0.0
  0
POLYLINE
  5
276
  8
0
  6
CONTINUOUS
 62
     7
 66
     1
 10
0.0
 20
0.0
 30
0.0
  0
VERTEX
  5
57D
  8
0
  6
CONTINUOUS
 62
     7
 10
522.1954685981
 20
522.6657032324
 30
0.0
  0
VERTEX
  5
57E
  8
0
  6
CONTINUOUS
 62
     7
 10
522.3302794034
 20
522.4853395773
 30
0.0
  0
VERTEX
  5
57F
  8
0
  6
CONTINUOUS
 62
     7
 10
522.5153369242
 20
521.9448446585
 30
0.0
  0
VERTEX
  5
580
  8
0
  6
CONTINUOUS
 62
     7
 10
522.7500115866
 20
521.0460513187
 30
0.0
  0
VERTEX
  5
581
  8
0
  6
CONTINUOUS
 62
     7
 10
523.0335136289
 20
519.7919844938
 30
0.0
  0
VERTEX
  5
582
  8
0
  6
CONTINUOUS
 62
     7
 10
523.3648893768
 20
518.1868761135
 30
0.0
  0
VERTEX
  5
583
  8
0
  6
CONTINUOUS
 62
     7
 10
523.7430212433
 20
516.2361352993
 30
0.0
  0
VERTEX
  5
584
  8
0
  6
CONTINUOUS
 62
     7
 10
524.1666314537
 20
513.9463334633
 30
0.0
  0
VERTEX
  5
585
  8
0
  6
CONTINUOUS
 62
     7
 10
524.6342932219
 20
511.3251968575
 30
0.0
  0
VERTEX
  5
586
  8
0
  6
CONTINUOUS
 62
     7
 10
525.1444344753
 20
508.3815618707
 30
0.0
  0
VERTEX
  5
587
  8
0
  6
CONTINUOUS
 62
     7
 10
525.6953266794
 20
505.1253452254
 30
0.0
  0
VERTEX
  5
588
  8
0
  6
CONTINUOUS
 62
     7
 10
526.28512209
 20
501.5675365282
 30
0.0
  0
VERTEX
  5
589
  8
0
  6
CONTINUOUS
 62
     7
 10
526.9118239516
 20
497.7201237632
 30
0.0
  0
VERTEX
  5
58A
  8
0
  6
CONTINUOUS
 62
     7
 10
527.5733237499
 20
493.5960783912
 30
0.0
  0
VERTEX
  5
58B
  8
0
  6
CONTINUOUS
 62
     7
 10
528.2673937613
 20
489.209295745
 30
0.0
  0
VERTEX
  5
58C
  8
0
  6
CONTINUOUS
 62
     7
 10
528.9916870529
 20
484.5745801283
 30
0.0
  0
VERTEX
  5
58D
  8
0
  6
CONTINUOUS
 62
     7
 10
529.7437672848
 20
479.707547958
 30
0.0
  0
VERTEX
  5
58E
  8
0
  6
CONTINUOUS
 62
     7
 10
530.5210975343
 20
474.6246128631
 30
0.0
  0
VERTEX
  5
58F
  8
0
  6
CONTINUOUS
 62
     7
 10
531.3210551972
 20
469.3429037286
 30
0.0
  0
VERTEX
  5
590
  8
0
  6
CONTINUOUS
 62
     7
 10
532.1409468884
 20
463.8802348924
 30
0.0
  0
VERTEX
  5
591
  8
0
  6
CONTINUOUS
 62
     7
 10
532.9780047173
 20
458.2550130142
 30
0.0
  0
VERTEX
  5
592
  8
0
  6
CONTINUOUS
 62
     7
 10
533.8294123644
 20
452.4862109972
 30
0.0
  0
VERTEX
  5
593
  8
0
  6
CONTINUOUS
 62
     7
 10
534.6922939057
 20
446.5932767195
 30
0.0
  0
VERTEX
  5
594
  8
0
  6
CONTINUOUS
 62
     7
 10
535.5637398893
 20
440.5960734291
 30
0.0
  0
VERTEX
  5
595
  8
0
  6
CONTINUOUS
 62
     7
 10
536.4408185119
 20
434.5148220015
 30
0.0
  0
VERTEX
  5
596
  8
0
  6
CONTINUOUS
 62
     7
 10
537.3205681676
 20
428.3700236408
 30
0.0
  0
VERTEX
  5
597
  8
0
  6
CONTINUOUS
 62
     7
 10
538.2000198001
 20
422.1823946861
 30
0.0
  0
VERTEX
  5
598
  8
0
  6
CONTINUOUS
 62
     7
 10
539.0762155289
 20
415.9727960357
 30
0.0
  0
VERTEX
  5
599
  8
0
  6
CONTINUOUS
 62
     7
 10
539.9462011987
 20
409.7621618127
 30
0.0
  0
VERTEX
  5
59A
  8
0
  6
CONTINUOUS
 62
     7
 10
540.807035693
 20
403.5714301569
 30
0.0
  0
VERTEX
  5
59B
  8
0
  6
CONTINUOUS
 62
     7
 10
541.655824461
 20
397.4214732004
 30
0.0
  0
VERTEX
  5
59C
  8
0
  6
CONTINUOUS
 62
     7
 10
542.4897046173
 20
391.3330226494
 30
0.0
  0
VERTEX
  5
59D
  8
0
  6
CONTINUOUS
 62
     7
 10
543.305861705
 20
385.326606716
 30
0.0
  0
VERTEX
  5
59E
  8
0
  6
CONTINUOUS
 62
     7
 10
544.1015464598
 20
379.4224723531
 30
0.0
  0
VERTEX
  5
59F
  8
0
  6
CONTINUOUS
 62
     7
 10
544.8740766728
 20
373.6405275119
 30
0.0
  0
VERTEX
  5
5A0
  8
0
  6
CONTINUOUS
 62
     7
 10
545.6208483661
 20
368.0002629114
 30
0.0
  0
VERTEX
  5
5A1
  8
0
  6
CONTINUOUS
 62
     7
 10
546.3393413806
 20
362.5206961585
 30
0.0
  0
SEQEND
  5
771
  8
0
  6
CONTINUOUS
 62
     7
  0
LINE
  5
277
  8
0
  6
CONTINUOUS
 62
     7
 10
596.4538221592
 20
362.5656902147
 30
0.0
 11
597.0972822392
 21
362.5206961585
 31
0.0
  0
POLYLINE
  5
278
  8
0
  6
CONTINUOUS
 62
     7
 66
     1
 10
0.0
 20
0.0
 30
0.0
  0
VERTEX
  5
5A2
  8
0
  6
CONTINUOUS
 62
     7
 10
602.7882554913
 20
408.7075218847
 30
0.0
  0
VERTEX
  5
5A3
  8
0
  6
CONTINUOUS
 62
     7
 10
603.040303045
 20
410.4241323946
 30
0.0
  0
VERTEX
  5
5A4
  8
0
  6
CONTINUOUS
 62
     7
 10
603.3421335155
 20
412.4978354955
 30
0.0
  0
VERTEX
  5
5A5
  8
0
  6
CONTINUOUS
 62
     7
 10
603.6916775042
 20
414.914422872
 30
0.0
  0
VERTEX
  5
5A6
  8
0
  6
CONTINUOUS
 62
     7
 10
604.0865359241
 20
417.6573367146
 30
0.0
  0
VERTEX
  5
5A7
  8
0
  6
CONTINUOUS
 62
     7
 10
604.524011665
 20
420.7077827593
 30
0.0
  0
VERTEX
  5
5A8
  8
0
  6
CONTINUOUS
 62
     7
 10
605.001102143
 20
424.0448600901
 30
0.0
  0
VERTEX
  5
5A9
  8
0
  6
CONTINUOUS
 62
     7
 10
605.5145402784
 20
427.6457042722
 30
0.0
  0
VERTEX
  5
5AA
  8
0
  6
CONTINUOUS
 62
     7
 10
606.0608056719
 20
431.4856431735
 30
0.0
  0
VERTEX
  5
5AB
  8
0
  6
CONTINUOUS
 62
     7
 10
606.636158132
 20
435.5383641375
 30
0.0
  0
VERTEX
  5
5AC
  8
0
  6
CONTINUOUS
 62
     7
 10
607.2366525764
 20
439.7761016441
 30
0.0
  0
VERTEX
  5
5AD
  8
0
  6
CONTINUOUS
 62
     7
 10
607.8581762845
 20
444.1698170555
 30
0.0
  0
SEQEND
  5
770
  8
0
  6
CONTINUOUS
 62
     7
  0
POLYLINE
  5
279
  8
0
  6
CONTINUOUS
 62
     7
 66
     1
 10
0.0
 20
0.0
 30
0.0
  0
VERTEX
  5
5AE
  8
0
  6
CONTINUOUS
 62
     7
 10
607.8581762845
 20
444.1698170555
 30
0.0
  0
VERTEX
  5
5AF
  8
0
  6
CONTINUOUS
 62
     7
 10
611.2353419298
 20
466.5606743944
 30
0.0
  0
VERTEX
  5
5B0
  8
0
  6
CONTINUOUS
 62
     7
 10
614.2634739513
 20
486.4573269439
 30
0.0
  0
VERTEX
  5
5B1
  8
0
  6
CONTINUOUS
 62
     7
 10
616.9404228563
 20
503.845670755
 30
0.0
  0
VERTEX
  5
5B2
  8
0
  6
CONTINUOUS
 62
     7
 10
619.2642961973
 20
518.7133937431
 30
0.0
  0
VERTEX
  5
5B3
  8
0
  6
CONTINUOUS
 62
     7
 10
621.2334436709
 20
531.0499458862
 30
0.0
  0
VERTEX
  5
5B4
  8
0
  6
CONTINUOUS
 62
     7
 10
622.8464682931
 20
540.8465876532
 30
0.0
  0
VERTEX
  5
5B5
  8
0
  6
CONTINUOUS
 62
     7
 10
624.1022301251
 20
548.0963751031
 30
0.0
  0
VERTEX
  5
5B6
  8
0
  6
CONTINUOUS
 62
     7
 10
624.9998425478
 20
552.7941896869
 30
0.0
  0
VERTEX
  5
5B7
  8
0
  6
CONTINUOUS
 62
     7
 10
625.538661086
 20
554.9366786433
 30
0.0
  0
VERTEX
  5
5B8
  8
0
  6
CONTINUOUS
 62
     7
 10
625.7183132107
 20
554.522322054
 30
0.0
  0
SEQEND
  5
76F
  8
0
  6
CONTINUOUS
 62
     7
  0
LINE
  5
27A
  8
0
  6
CONTINUOUS
 62
     7
 10
621.2411550218
 20
522.6657032324
 30
0.0
 11
625.7183132107
 21
554.522322054
 31
0.0
  0
POLYLINE
  5
27B
  8
0
  6
CONTINUOUS
 62
     7
 66
     1
 10
0.0
 20
0.0
 30
0.0
  0
VERTEX
  5
5B9
  8
0
  6
CONTINUOUS
 62
     7
 10
621.2411550218
 20
522.6657032324
 30
0.0
  0
VERTEX
  5
5BA
  8
0
  6
CONTINUOUS
 62
     7
 10
621.1063442165
 20
522.4853395773
 30
0.0
  0
VERTEX
  5
5BB
  8
0
  6
CONTINUOUS
 62
     7
 10
620.9212866956
 20
521.9448446585
 30
0.0
  0
VERTEX
  5
5BC
  8
0
  6
CONTINUOUS
 62
     7
 10
620.6866120333
 20
521.0460513187
 30
0.0
  0
VERTEX
  5
5BD
  8
0
  6
CONTINUOUS
 62
     7
 10
620.403109991
 20
519.7919844938
 30
0.0
  0
VERTEX
  5
5BE
  8
0
  6
CONTINUOUS
 62
     7
 10
620.0717342431
 20
518.1868761135
 30
0.0
  0
VERTEX
  5
5BF
  8
0
  6
CONTINUOUS
 62
     7
 10
619.6936023766
 20
516.2361352993
 30
0.0
  0
VERTEX
  5
5C0
  8
0
  6
CONTINUOUS
 62
     7
 10
619.2699921662
 20
513.9463334633
 30
0.0
  0
VERTEX
  5
5C1
  8
0
  6
CONTINUOUS
 62
     7
 10
618.802330398
 20
511.3251968575
 30
0.0
  0
VERTEX
  5
5C2
  8
0
  6
CONTINUOUS
 62
     7
 10
618.2921891445
 20
508.3815618707
 30
0.0
  0
VERTEX
  5
5C3
  8
0
  6
CONTINUOUS
 62
     7
 10
617.7412969405
 20
505.1253452254
 30
0.0
  0
VERTEX
  5
5C4
  8
0
  6
CONTINUOUS
 62
     7
 10
617.1515015299
 20
501.5675365282
 30
0.0
  0
VERTEX
  5
5C5
  8
0
  6
CONTINUOUS
 62
     7
 10
616.5247996682
 20
497.7201237632
 30
0.0
  0
VERTEX
  5
5C6
  8
0
  6
CONTINUOUS
 62
     7
 10
615.8632998699
 20
493.5960783912
 30
0.0
  0
VERTEX
  5
5C7
  8
0
  6
CONTINUOUS
 62
     7
 10
615.1692298586
 20
489.209295745
 30
0.0
  0
VERTEX
  5
5C8
  8
0
  6
CONTINUOUS
 62
     7
 10
614.444936567
 20
484.5745801283
 30
0.0
  0
VERTEX
  5
5C9
  8
0
  6
CONTINUOUS
 62
     7
 10
613.6928563351
 20
479.707547958
 30
0.0
  0
VERTEX
  5
5CA
  8
0
  6
CONTINUOUS
 62
     7
 10
612.9155260855
 20
474.6246128631
 30
0.0
  0
VERTEX
  5
5CB
  8
0
  6
CONTINUOUS
 62
     7
 10
612.1155684227
 20
469.3429037286
 30
0.0
  0
VERTEX
  5
5CC
  8
0
  6
CONTINUOUS
 62
     7
 10
611.2956767315
 20
463.8802348924
 30
0.0
  0
VERTEX
  5
5CD
  8
0
  6
CONTINUOUS
 62
     7
 10
610.4586189026
 20
458.2550130142
 30
0.0
  0
VERTEX
  5
5CE
  8
0
  6
CONTINUOUS
 62
     7
 10
609.6072112555
 20
452.4862109972
 30
0.0
  0
VERTEX
  5
5CF
  8
0
  6
CONTINUOUS
 62
     7
 10
608.7443297142
 20
446.5932767195
 30
0.0
  0
VERTEX
  5
5D0
  8
0
  6
CONTINUOUS
 62
     7
 10
607.8728837306
 20
440.5960734291
 30
0.0
  0
VERTEX
  5
5D1
  8
0
  6
CONTINUOUS
 62
     7
 10
606.995805108
 20
434.5148220015
 30
0.0
  0
VERTEX
  5
5D2
  8
0
  6
CONTINUOUS
 62
     7
 10
606.1160554523
 20
428.3700236408
 30
0.0
  0
VERTEX
  5
5D3
  8
0
  6
CONTINUOUS
 62
     7
 10
605.2366038198
 20
422.1823946861
 30
0.0
  0
VERTEX
  5
5D4
  8
0
  6
CONTINUOUS
 62
     7
 10
604.360408091
 20
415.9727960357
 30
0.0
  0
VERTEX
  5
5D5
  8
0
  6
CONTINUOUS
 62
     7
 10
603.4904224211
 20
409.7621618127
 30
0.0
  0
VERTEX
  5
5D6
  8
0
  6
CONTINUOUS
 62
     7
 10
602.6295879269
 20
403.5714301569
 30
0.0
  0
VERTEX
  5
5D7
  8
0
  6
CONTINUOUS
 62
     7
 10
601.7807991589
 20
397.4214732004
 30
0.0
  0
VERTEX
  5
5D8
  8
0
  6
CONTINUOUS
 62
     7
 10
600.9469190026
 20
391.3330226494
 30
0.0
  0
VERTEX
  5
5D9
  8
0
  6
CONTINUOUS
 62
     7
 10
600.1307619149
 20
385.326606716
 30
0.0
  0
VERTEX
  5
5DA
  8
0
  6
CONTINUOUS
 62
     7
 10
599.33507716
 20
379.4224723531
 30
0.0
  0
VERTEX
  5
5DB
  8
0
  6
CONTINUOUS
 62
     7
 10
598.562546947
 20
373.6405275119
 30
0.0
  0
VERTEX
  5
5DC
  8
0
  6
CONTINUOUS
 62
     7
 10
597.8157752538
 20
368.0002629114
 30
0.0
  0
VERTEX
  5
5DD
  8
0
  6
CONTINUOUS
 62
     7
 10
597.0972822392
 20
362.5206961585
 30
0.0
  0
SEQEND
  5
76E
  8
0
  6
CONTINUOUS
 62
     7
  0
POLYLINE
  5
27C
  8
0
  6
CONTINUOUS
 62
     7
 66
     1
 10
0.0
 20
0.0
 30
0.0
  0
VERTEX
  5
5DE
  8
0
  6
CONTINUOUS
 62
     7
 10
530.8051620955
 20
662.8656997634
 30
0.0
  0
VERTEX
  5
5DF
  8
0
  6
CONTINUOUS
 62
     7
 10
531.3503434295
 20
668.781803484
 30
0.0
  0
VERTEX
  5
5E0
  8
0
  6
CONTINUOUS
 62
     7
 10
531.3881253237
 20
669.1683098031
 30
0.0
  0
SEQEND
  5
76D
  8
0
  6
CONTINUOUS
 62
     7
  0
LINE
  5
27D
  8
0
  6
CONTINUOUS
 62
     7
 10
531.8911736244
 20
699.8967989636
 30
0.0
 11
531.3881253237
 21
669.1683098031
 31
0.0
  0
LINE
  5
27E
  8
0
  6
CONTINUOUS
 62
     7
 10
611.5454499954
 20
699.8967989636
 30
0.0
 11
612.0484982962
 21
669.1683098031
 31
0.0
  0
POLYLINE
  5
27F
  8
0
  6
CONTINUOUS
 62
     7
 66
     1
 10
0.0
 20
0.0
 30
0.0
  0
VERTEX
  5
5E1
  8
0
  6
CONTINUOUS
 62
     7
 10
612.6314615244
 20
662.8656997634
 30
0.0
  0
VERTEX
  5
5E2
  8
0
  6
CONTINUOUS
 62
     7
 10
612.0862801904
 20
668.781803484
 30
0.0
  0
VERTEX
  5
5E3
  8
0
  6
CONTINUOUS
 62
     7
 10
612.0484982962
 20
669.1683098031
 30
0.0
  0
SEQEND
  5
76C
  8
0
  6
CONTINUOUS
 62
     7
  0
LINE
  5
280
  8
0
  6
CONTINUOUS
 62
     7
 10
511.4406449134
 20
643.8657059623
 30
0.0
 11
486.1375754112
 21
643.8657059623
 31
0.0
  0
LINE
  5
281
  8
0
  6
CONTINUOUS
 62
     7
 10
485.7183088893
 20
635.865704651
 30
0.0
 11
511.0449296767
 21
635.865704651
 31
0.0
  0
LINE
  5
282
  8
0
  6
CONTINUOUS
 62
     7
 10
631.9959787065
 20
643.8657059623
 30
0.0
 11
657.2990482086
 21
643.8657059623
 31
0.0
  0
LINE
  5
283
  8
0
  6
CONTINUOUS
 62
     7
 10
657.7183147306
 20
635.865704651
 30
0.0
 11
632.3916939432
 21
635.865704651
 31
0.0
  0
POLYLINE
  5
284
  8
0
  6
CONTINUOUS
 62
     7
 66
     1
 10
0.0
 20
0.0
 30
0.0
  0
VERTEX
  5
5E4
  8
0
  6
CONTINUOUS
 62
     7
 10
491.4425154561
 20
644.2042603446
 30
0.0
  0
VERTEX
  5
5E5
  8
0
  6
CONTINUOUS
 62
     7
 10
491.4234941239
 20
644.1946192933
 30
0.0
  0
VERTEX
  5
5E6
  8
0
  6
CONTINUOUS
 62
     7
 10
491.6746531958
 20
644.1843076897
 30
0.0
  0
VERTEX
  5
5E7
  8
0
  6
CONTINUOUS
 62
     7
 10
492.3263182277
 20
644.2438080264
 30
0.0
  0
VERTEX
  5
5E8
  8
0
  6
CONTINUOUS
 62
     7
 10
493.3540364141
 20
644.3701847745
 30
0.0
  0
VERTEX
  5
5E9
  8
0
  6
CONTINUOUS
 62
     7
 10
494.7344054813
 20
644.5610984517
 30
0.0
  0
VERTEX
  5
5EA
  8
0
  6
CONTINUOUS
 62
     7
 10
496.4213063354
 20
644.8103352738
 30
0.0
  0
VERTEX
  5
5EB
  8
0
  6
CONTINUOUS
 62
     7
 10
498.3893995518
 20
645.1149597121
 30
0.0
  0
VERTEX
  5
5EC
  8
0
  6
CONTINUOUS
 62
     7
 10
500.5646636123
 20
645.4640045119
 30
0.0
  0
VERTEX
  5
5ED
  8
0
  6
CONTINUOUS
 62
     7
 10
502.8383870954
 20
645.8402886344
 30
0.0
  0
VERTEX
  5
5EE
  8
0
  6
CONTINUOUS
 62
     7
 10
505.1934411163
 20
646.2408467484
 30
0.0
  0
SEQEND
  5
76B
  8
0
  6
CONTINUOUS
 62
     7
  0
LINE
  5
285
  8
0
  6
CONTINUOUS
 62
     7
 10
505.1934411163
 20
646.2408467484
 30
0.0
 11
519.3505314523
 21
648.6789896441
 31
0.0
  0
LINE
  5
286
  8
0
  6
CONTINUOUS
 62
     7
 10
519.3505314523
 20
648.6789896441
 30
0.0
 11
521.1466540927
 21
648.5389634324
 31
0.0
  0
LINE
  5
287
  8
0
  6
CONTINUOUS
 62
     7
 10
624.0860921675
 20
648.6789896441
 30
0.0
 11
622.2899695272
 21
648.5389634324
 31
0.0
  0
LINE
  5
288
  8
0
  6
CONTINUOUS
 62
     7
 10
638.2431825036
 20
646.2408467484
 30
0.0
 11
624.0860921675
 21
648.6789896441
 31
0.0
  0
POLYLINE
  5
289
  8
0
  6
CONTINUOUS
 62
     7
 66
     1
 10
0.0
 20
0.0
 30
0.0
  0
VERTEX
  5
5EF
  8
0
  6
CONTINUOUS
 62
     7
 10
651.9941081638
 20
644.2042603446
 30
0.0
  0
VERTEX
  5
5F0
  8
0
  6
CONTINUOUS
 62
     7
 10
652.013129496
 20
644.1946192933
 30
0.0
  0
VERTEX
  5
5F1
  8
0
  6
CONTINUOUS
 62
     7
 10
651.7619704241
 20
644.1843076897
 30
0.0
  0
VERTEX
  5
5F2
  8
0
  6
CONTINUOUS
 62
     7
 10
651.1103053922
 20
644.2438080264
 30
0.0
  0
VERTEX
  5
5F3
  8
0
  6
CONTINUOUS
 62
     7
 10
650.0825872058
 20
644.3701847745
 30
0.0
  0
VERTEX
  5
5F4
  8
0
  6
CONTINUOUS
 62
     7
 10
648.7022181386
 20
644.5610984517
 30
0.0
  0
VERTEX
  5
5F5
  8
0
  6
CONTINUOUS
 62
     7
 10
647.0153172845
 20
644.8103352738
 30
0.0
  0
VERTEX
  5
5F6
  8
0
  6
CONTINUOUS
 62
     7
 10
645.0472240681
 20
645.1149597121
 30
0.0
  0
VERTEX
  5
5F7
  8
0
  6
CONTINUOUS
 62
     7
 10
642.8719600076
 20
645.4640045119
 30
0.0
  0
VERTEX
  5
5F8
  8
0
  6
CONTINUOUS
 62
     7
 10
640.5982365245
 20
645.8402886344
 30
0.0
  0
VERTEX
  5
5F9
  8
0
  6
CONTINUOUS
 62
     7
 10
638.2431825036
 20
646.2408467484
 30
0.0
  0
SEQEND
  5
76A
  8
0
  6
CONTINUOUS
 62
     7
  0
LINE
  5
28A
  8
0
  6
CONTINUOUS
 62
     7
 10
525.943889224
 20
600.6657048417
 30
0.0
 11
528.804383182
 21
600.6657048417
 31
0.0
  0
LINE
  5
28B
  8
0
  6
CONTINUOUS
 62
     7
 10
525.943889224
 20
600.6657048417
 30
0.0
 11
525.0750807459
 21
625.5536093665
 31
0.0
  0
LINE
  5
28C
  8
0
  6
CONTINUOUS
 62
     7
 10
525.1990695829
 20
625.6121858311
 30
0.0
 11
525.0750807459
 21
625.5536093665
 31
0.0
  0
LINE
  5
28D
  8
0
  6
CONTINUOUS
 62
     7
 10
618.237554037
 20
625.6121858311
 30
0.0
 11
618.361542874
 21
625.5536093665
 31
0.0
  0
LINE
  5
28E
  8
0
  6
CONTINUOUS
 62
     7
 10
617.4927343959
 20
600.6657048417
 30
0.0
 11
618.361542874
 21
625.5536093665
 31
0.0
  0
LINE
  5
28F
  8
0
  6
CONTINUOUS
 62
     7
 10
617.4927343959
 20
600.6657048417
 30
0.0
 11
614.6322404379
 21
600.6657048417
 31
0.0
  0
LINE
  5
290
  8
0
  6
CONTINUOUS
 62
     7
 10
535.7183133597
 20
597.1068903161
 30
0.0
 11
525.943889224
 21
600.6657048417
 31
0.0
  0
LINE
  5
291
  8
0
  6
CONTINUOUS
 62
     7
 10
607.7183102602
 20
597.1068903161
 30
0.0
 11
617.4927343959
 21
600.6657048417
 31
0.0
  0
LINE
  5
292
  8
0
  6
CONTINUOUS
 62
     7
 10
487.0872562165
 20
628.0957474662
 30
0.0
 11
511.8911442692
 21
628.0957474662
 31
0.0
  0
LINE
  5
293
  8
0
  6
CONTINUOUS
 62
     7
 10
511.5163055593
 20
635.6657012654
 30
0.0
 11
486.6905351514
 21
635.6657012654
 31
0.0
  0
LINE
  5
294
  8
0
  6
CONTINUOUS
 62
     7
 10
656.3493674034
 20
628.0957474662
 30
0.0
 11
631.5454793507
 21
628.0957474662
 31
0.0
  0
LINE
  5
295
  8
0
  6
CONTINUOUS
 62
     7
 10
631.9203180606
 20
635.6657012654
 30
0.0
 11
656.7460884685
 21
635.6657012654
 31
0.0
  0
POLYLINE
  5
296
  8
0
  6
CONTINUOUS
 62
     7
 66
     1
 10
0.0
 20
0.0
 30
0.0
  0
VERTEX
  5
5FA
  8
0
  6
CONTINUOUS
 62
     7
 10
525.0750807459
 20
625.5536093665
 30
0.0
  0
VERTEX
  5
5FB
  8
0
  6
CONTINUOUS
 62
     7
 10
524.2753615016
 20
624.0217401934
 30
0.0
  0
VERTEX
  5
5FC
  8
0
  6
CONTINUOUS
 62
     7
 10
523.4604915017
 20
622.9070886327
 30
0.0
  0
SEQEND
  5
769
  8
0
  6
CONTINUOUS
 62
     7
  0
LINE
  5
297
  8
0
  6
CONTINUOUS
 62
     7
 10
523.1405225927
 20
622.8952720118
 30
0.0
 11
523.4604915017
 21
622.9070886327
 31
0.0
  0
ARC
  5
298
  8
0
  6
CONTINUOUS
 62
     7
 10
536.1272220431
 20
734.9747418079
 30
0.0
 40
112.829348630505
 50
259.5947964659
 51
263.3905858972
  0
LINE
  5
299
  8
0
  6
CONTINUOUS
 62
     7
 10
515.7492858702
 20
624.0008636666
 30
0.0
 11
506.159349286
 21
625.6493940306
 31
0.0
  0
ARC
  5
29A
  8
0
  6
CONTINUOUS
 62
     7
 10
484.41279097
 20
517.6959098114
 30
0.0
 40
110.1220575255528
 50
78.6105485902
 51
84.4754935987
  0
LINE
  5
29B
  8
0
  6
CONTINUOUS
 62
     7
 10
495.0144057507
 20
627.30646276
 30
0.0
 11
493.5782243842
 21
626.9512190772
 31
0.0
  0
ARC
  5
29C
  8
0
  6
CONTINUOUS
 62
     7
 10
659.0238326499
 20
517.6959098114
 30
0.0
 40
110.1220575255528
 50
95.5245064013
 51
101.3894514098
  0
LINE
  5
29D
  8
0
  6
CONTINUOUS
 62
     7
 10
627.6873377496
 20
624.0008636666
 30
0.0
 11
637.2772743339
 21
625.6493940306
 31
0.0
  0
ARC
  5
29E
  8
0
  6
CONTINUOUS
 62
     7
 10
607.3094015768
 20
734.9747418079
 30
0.0
 40
112.829348630505
 50
276.6094141028
 51
280.4052035341
  0
LINE
  5
29F
  8
0
  6
CONTINUOUS
 62
     7
 10
620.2961010272
 20
622.8952720118
 30
0.0
 11
619.9761321182
 21
622.9070886327
 31
0.0
  0
POLYLINE
  5
2A0
  8
0
  6
CONTINUOUS
 62
     7
 66
     1
 10
0.0
 20
0.0
 30
0.0
  0
VERTEX
  5
5FD
  8
0
  6
CONTINUOUS
 62
     7
 10
618.361542874
 20
625.5536093665
 30
0.0
  0
VERTEX
  5
5FE
  8
0
  6
CONTINUOUS
 62
     7
 10
619.1612621183
 20
624.0217401934
 30
0.0
  0
VERTEX
  5
5FF
  8
0
  6
CONTINUOUS
 62
     7
 10
619.9761321182
 20
622.9070886327
 30
0.0
  0
SEQEND
  5
768
  8
0
  6
CONTINUOUS
 62
     7
  0
LINE
  5
2A1
  8
0
  6
CONTINUOUS
 62
     7
 10
648.4222178692
 20
627.30646276
 30
0.0
 11
649.8583992357
 21
626.9512190772
 31
0.0
  0
LINE
  5
2A2
  8
0
  6
CONTINUOUS
 62
     7
 10
524.391989165
 20
600.6657048417
 30
0.0
 11
525.943889224
 21
600.6657048417
 31
0.0
  0
LINE
  5
2A3
  8
0
  6
CONTINUOUS
 62
     7
 10
524.391989165
 20
600.6657048417
 30
0.0
 11
523.4604915017
 21
622.9070886327
 31
0.0
  0
LINE
  5
2A4
  8
0
  6
CONTINUOUS
 62
     7
 10
619.0446344549
 20
600.6657048417
 30
0.0
 11
619.9761321182
 21
622.9070886327
 31
0.0
  0
LINE
  5
2A5
  8
0
  6
CONTINUOUS
 62
     7
 10
619.0446344549
 20
600.6657048417
 30
0.0
 11
617.4927343959
 21
600.6657048417
 31
0.0
  0
ARC
  5
2A6
  8
0
  6
CONTINUOUS
 62
     7
 10
647.3344248895
 20
904.1339698582
 30
0.0
 40
326.7542501421145
 50
250.0001041072
 51
250.943375859
  0
POLYLINE
  5
2A7
  8
0
  6
CONTINUOUS
 62
     7
 66
     1
 10
0.0
 20
0.0
 30
0.0
  0
VERTEX
  5
600
  8
0
  6
CONTINUOUS
 62
     7
 10
524.391989165
 20
600.6657048417
 30
0.0
  0
VERTEX
  5
601
  8
0
  6
CONTINUOUS
 62
     7
 10
527.5273015136
 20
599.6893509579
 30
0.0
  0
VERTEX
  5
602
  8
0
  6
CONTINUOUS
 62
     7
 10
531.2576097781
 20
598.495365615
 30
0.0
  0
VERTEX
  5
603
  8
0
  6
CONTINUOUS
 62
     7
 10
535.5784473354
 20
597.0852091265
 30
0.0
  0
SEQEND
  5
767
  8
0
  6
CONTINUOUS
 62
     7
  0
ARC
  5
2A8
  8
0
  6
CONTINUOUS
 62
     7
 10
496.1021987304
 20
904.1339698582
 30
0.0
 40
326.7542501421145
 50
289.056624141
 51
289.9998958928
  0
POLYLINE
  5
2A9
  8
0
  6
CONTINUOUS
 62
     7
 66
     1
 10
0.0
 20
0.0
 30
0.0
  0
VERTEX
  5
604
  8
0
  6
CONTINUOUS
 62
     7
 10
619.0446344549
 20
600.6657048417
 30
0.0
  0
VERTEX
  5
605
  8
0
  6
CONTINUOUS
 62
     7
 10
615.9093221063
 20
599.6893509579
 30
0.0
  0
VERTEX
  5
606
  8
0
  6
CONTINUOUS
 62
     7
 10
612.1790138418
 20
598.495365615
 30
0.0
  0
VERTEX
  5
607
  8
0
  6
CONTINUOUS
 62
     7
 10
607.8581762845
 20
597.0852091265
 30
0.0
  0
SEQEND
  5
766
  8
0
  6
CONTINUOUS
 62
     7
  0
LINE
  5
2AA
  8
0
  6
CONTINUOUS
 62
     7
 10
535.5784473354
 20
597.0852091265
 30
0.0
 11
535.5784473354
 21
444.1698170555
 31
0.0
  0
LINE
  5
2AB
  8
0
  6
CONTINUOUS
 62
     7
 10
607.8581762845
 20
597.0852091265
 30
0.0
 11
607.8581762845
 21
444.1698170555
 31
0.0
  0
LINE
  5
2AC
  8
0
  6
CONTINUOUS
 62
     7
 10
456.7183097238
 20
547.1657081795
 30
0.0
 11
456.7183097238
 21
284.1656967355
 31
0.0
  0
LINE
  5
2AD
  8
0
  6
CONTINUOUS
 62
     7
 10
686.7183138961
 20
547.1657081795
 30
0.0
 11
686.7183138961
 21
284.1656967355
 31
0.0
  0
ARC
  5
2AE
  8
0
  6
CONTINUOUS
 62
     7
 10
518.1934273965
 20
588.8670407292
 30
0.0
 40
3.38302630349133
 50
65.7934476424
 51
98.0733895928
  0
ARC
  5
2AF
  8
0
  6
CONTINUOUS
 62
     7
 10
545.2479440896
 20
587.5561905999
 30
0.0
 40
26.04118010434883
 50
149.773823454
 51
170.2804560022
  0
POLYLINE
  5
2B0
  8
0
  6
CONTINUOUS
 62
     7
 66
     1
 10
0.0
 20
0.0
 30
0.0
  0
VERTEX
  5
608
  8
0
  6
CONTINUOUS
 62
     7
 10
523.1405225927
 20
622.8952720118
 30
0.0
  0
VERTEX
  5
609
  8
0
  6
CONTINUOUS
 62
     7
 10
523.0514471764
 20
619.9776395512
 30
0.0
  0
VERTEX
  5
60A
  8
0
  6
CONTINUOUS
 62
     7
 10
522.9858559901
 20
617.0175238801
 30
0.0
  0
VERTEX
  5
60B
  8
0
  6
CONTINUOUS
 62
     7
 10
522.8514475161
 20
608.8556214524
 30
0.0
  0
VERTEX
  5
60C
  8
0
  6
CONTINUOUS
 62
     7
 10
522.7471952671
 20
600.6657048417
 30
0.0
  0
SEQEND
  5
765
  8
0
  6
CONTINUOUS
 62
     7
  0
ARC
  5
2B1
  8
0
  6
CONTINUOUS
 62
     7
 10
598.1886795303
 20
587.5561905999
 30
0.0
 40
26.04118010434883
 50
9.7195439978
 51
30.226176546
  0
ARC
  5
2B2
  8
0
  6
CONTINUOUS
 62
     7
 10
625.2431962233
 20
588.8670407292
 30
0.0
 40
3.38302630349133
 50
81.9266104072
 51
114.2065523576
  0
POLYLINE
  5
2B3
  8
0
  6
CONTINUOUS
 62
     7
 66
     1
 10
0.0
 20
0.0
 30
0.0
  0
VERTEX
  5
60D
  8
0
  6
CONTINUOUS
 62
     7
 10
620.2961010272
 20
622.8952720118
 30
0.0
  0
VERTEX
  5
60E
  8
0
  6
CONTINUOUS
 62
     7
 10
620.3851764435
 20
619.9776395512
 30
0.0
  0
VERTEX
  5
60F
  8
0
  6
CONTINUOUS
 62
     7
 10
620.4507676298
 20
617.0175238801
 30
0.0
  0
VERTEX
  5
610
  8
0
  6
CONTINUOUS
 62
     7
 10
620.5851761038
 20
608.8556214524
 30
0.0
  0
VERTEX
  5
611
  8
0
  6
CONTINUOUS
 62
     7
 10
620.6894283528
 20
600.6657048417
 30
0.0
  0
SEQEND
  5
764
  8
0
  6
CONTINUOUS
 62
     7
  0
POLYLINE
  5
2B4
  8
0
  6
CONTINUOUS
 62
     7
 66
     1
 10
0.0
 20
0.0
 30
0.0
  0
VERTEX
  5
612
  8
0
  6
CONTINUOUS
 62
     7
 10
519.3505314523
 20
648.6789896441
 30
0.0
  0
VERTEX
  5
613
  8
0
  6
CONTINUOUS
 62
     7
 10
519.4108625287
 20
649.5884820176
 30
0.0
  0
VERTEX
  5
614
  8
0
  6
CONTINUOUS
 62
     7
 10
519.4725868637
 20
650.4978700829
 30
0.0
  0
VERTEX
  5
615
  8
0
  6
CONTINUOUS
 62
     7
 10
519.5357007319
 20
651.4071687413
 30
0.0
  0
VERTEX
  5
616
  8
0
  6
CONTINUOUS
 62
     7
 10
519.6002041334
 20
652.3163928939
 30
0.0
  0
VERTEX
  5
617
  8
0
  6
CONTINUOUS
 62
     7
 10
519.6660970682
 20
653.2254978371
 30
0.0
  0
VERTEX
  5
618
  8
0
  6
CONTINUOUS
 62
     7
 10
519.7333795363
 20
654.1345282746
 30
0.0
  0
VERTEX
  5
619
  8
0
  6
CONTINUOUS
 62
     7
 10
519.802055263
 20
655.0434395028
 30
0.0
  0
VERTEX
  5
61A
  8
0
  6
CONTINUOUS
 62
     7
 10
519.8721167976
 20
655.952261324
 30
0.0
  0
SEQEND
  5
763
  8
0
  6
CONTINUOUS
 62
     7
  0
LINE
  5
2B5
  8
0
  6
CONTINUOUS
 62
     7
 10
519.8721167976
 20
655.952261324
 30
0.0
 11
521.6556330556
 21
658.2508846474
 31
0.0
  0
POLYLINE
  5
2B6
  8
0
  6
CONTINUOUS
 62
     7
 66
     1
 10
0.0
 20
0.0
 30
0.0
  0
VERTEX
  5
61B
  8
0
  6
CONTINUOUS
 62
     7
 10
525.5130780274
 20
662.8656997634
 30
0.0
  0
VERTEX
  5
61C
  8
0
  6
CONTINUOUS
 62
     7
 10
527.8744911188
 20
665.5071541024
 30
0.0
  0
VERTEX
  5
61D
  8
0
  6
CONTINUOUS
 62
     7
 10
531.3881253237
 20
669.1683098031
 30
0.0
  0
SEQEND
  5
762
  8
0
  6
CONTINUOUS
 62
     7
  0
LINE
  5
2B7
  8
0
  6
CONTINUOUS
 62
     7
 10
623.5645068223
 20
655.952261324
 30
0.0
 11
621.7809905643
 21
658.2508846474
 31
0.0
  0
POLYLINE
  5
2B8
  8
0
  6
CONTINUOUS
 62
     7
 66
     1
 10
0.0
 20
0.0
 30
0.0
  0
VERTEX
  5
61E
  8
0
  6
CONTINUOUS
 62
     7
 10
617.9235455925
 20
662.8656997634
 30
0.0
  0
VERTEX
  5
61F
  8
0
  6
CONTINUOUS
 62
     7
 10
615.5621325011
 20
665.5071541024
 30
0.0
  0
VERTEX
  5
620
  8
0
  6
CONTINUOUS
 62
     7
 10
612.0484982962
 20
669.1683098031
 30
0.0
  0
SEQEND
  5
761
  8
0
  6
CONTINUOUS
 62
     7
  0
POLYLINE
  5
2B9
  8
0
  6
CONTINUOUS
 62
     7
 66
     1
 10
0.0
 20
0.0
 30
0.0
  0
VERTEX
  5
621
  8
0
  6
CONTINUOUS
 62
     7
 10
624.0860921675
 20
648.6789896441
 30
0.0
  0
VERTEX
  5
622
  8
0
  6
CONTINUOUS
 62
     7
 10
624.0257610912
 20
649.5884820176
 30
0.0
  0
VERTEX
  5
623
  8
0
  6
CONTINUOUS
 62
     7
 10
623.9640367562
 20
650.4978700829
 30
0.0
  0
VERTEX
  5
624
  8
0
  6
CONTINUOUS
 62
     7
 10
623.900922888
 20
651.4071687413
 30
0.0
  0
VERTEX
  5
625
  8
0
  6
CONTINUOUS
 62
     7
 10
623.8364194864
 20
652.3163928939
 30
0.0
  0
VERTEX
  5
626
  8
0
  6
CONTINUOUS
 62
     7
 10
623.7705265516
 20
653.2254978371
 30
0.0
  0
VERTEX
  5
627
  8
0
  6
CONTINUOUS
 62
     7
 10
623.7032440836
 20
654.1345282746
 30
0.0
  0
VERTEX
  5
628
  8
0
  6
CONTINUOUS
 62
     7
 10
623.6345683569
 20
655.0434395028
 30
0.0
  0
VERTEX
  5
629
  8
0
  6
CONTINUOUS
 62
     7
 10
623.5645068223
 20
655.952261324
 30
0.0
  0
SEQEND
  5
760
  8
0
  6
CONTINUOUS
 62
     7
  0
LINE
  5
2BA
  8
0
  6
CONTINUOUS
 62
     7
 10
519.9479599828
 20
662.8656997634
 30
0.0
 11
519.8721167976
 21
655.952261324
 31
0.0
  0
LINE
  5
2BB
  8
0
  6
CONTINUOUS
 62
     7
 10
526.1366133923
 20
730.8657034589
 30
0.0
 11
516.6955841119
 21
730.8657034589
 31
0.0
  0
LINE
  5
2BC
  8
0
  6
CONTINUOUS
 62
     7
 10
617.3000102276
 20
730.8657034589
 30
0.0
 11
626.741039508
 21
730.8657034589
 31
0.0
  0
LINE
  5
2BD
  8
0
  6
CONTINUOUS
 62
     7
 10
623.4886636371
 20
662.8656997634
 30
0.0
 11
623.5645068223
 21
655.952261324
 31
0.0
  0
LINE
  5
2BE
  8
0
  6
CONTINUOUS
 62
     7
 10
546.7318547303
 20
358.7134680999
 30
0.0
 11
545.6521575684
 21
323.0009838296
 31
0.0
  0
POLYLINE
  5
2BF
  8
0
  6
CONTINUOUS
 62
     7
 66
     1
 10
0.0
 20
0.0
 30
0.0
  0
VERTEX
  5
62A
  8
0
  6
CONTINUOUS
 62
     7
 10
546.3393413806
 20
362.5206961585
 30
0.0
  0
VERTEX
  5
62B
  8
0
  6
CONTINUOUS
 62
     7
 10
546.2822270924
 20
357.172669406
 30
0.0
  0
VERTEX
  5
62C
  8
0
  6
CONTINUOUS
 62
     7
 10
546.2197427983
 20
352.025465603
 30
0.0
  0
VERTEX
  5
62D
  8
0
  6
CONTINUOUS
 62
     7
 10
546.1521045649
 20
347.0967575265
 30
0.0
  0
VERTEX
  5
62E
  8
0
  6
CONTINUOUS
 62
     7
 10
546.0795433605
 20
342.4034728957
 30
0.0
  0
VERTEX
  5
62F
  8
0
  6
CONTINUOUS
 62
     7
 10
546.0023087794
 20
337.9617198659
 30
0.0
  0
VERTEX
  5
630
  8
0
  6
CONTINUOUS
 62
     7
 10
545.9206653172
 20
333.7867423249
 30
0.0
  0
VERTEX
  5
631
  8
0
  6
CONTINUOUS
 62
     7
 10
545.8348942334
 20
329.892890091
 30
0.0
  0
VERTEX
  5
632
  8
0
  6
CONTINUOUS
 62
     7
 10
545.7452879632
 20
326.2935146046
 30
0.0
  0
VERTEX
  5
633
  8
0
  6
CONTINUOUS
 62
     7
 10
545.6521575684
 20
323.0009838296
 30
0.0
  0
SEQEND
  5
75F
  8
0
  6
CONTINUOUS
 62
     7
  0
LINE
  5
2C0
  8
0
  6
CONTINUOUS
 62
     7
 10
596.7047688896
 20
358.7134680999
 30
0.0
 11
597.7844660515
 21
323.0009838296
 31
0.0
  0
POLYLINE
  5
2C1
  8
0
  6
CONTINUOUS
 62
     7
 66
     1
 10
0.0
 20
0.0
 30
0.0
  0
VERTEX
  5
634
  8
0
  6
CONTINUOUS
 62
     7
 10
597.0972822392
 20
362.5206961585
 30
0.0
  0
VERTEX
  5
635
  8
0
  6
CONTINUOUS
 62
     7
 10
597.1543965275
 20
357.172669406
 30
0.0
  0
VERTEX
  5
636
  8
0
  6
CONTINUOUS
 62
     7
 10
597.2168808216
 20
352.025465603
 30
0.0
  0
VERTEX
  5
637
  8
0
  6
CONTINUOUS
 62
     7
 10
597.2845190549
 20
347.0967575265
 30
0.0
  0
VERTEX
  5
638
  8
0
  6
CONTINUOUS
 62
     7
 10
597.3570802594
 20
342.4034728957
 30
0.0
  0
VERTEX
  5
639
  8
0
  6
CONTINUOUS
 62
     7
 10
597.4343148405
 20
337.9617198659
 30
0.0
  0
VERTEX
  5
63A
  8
0
  6
CONTINUOUS
 62
     7
 10
597.5159583027
 20
333.7867423249
 30
0.0
  0
VERTEX
  5
63B
  8
0
  6
CONTINUOUS
 62
     7
 10
597.6017293865
 20
329.892890091
 30
0.0
  0
VERTEX
  5
63C
  8
0
  6
CONTINUOUS
 62
     7
 10
597.6913356567
 20
326.2935146046
 30
0.0
  0
VERTEX
  5
63D
  8
0
  6
CONTINUOUS
 62
     7
 10
597.7844660515
 20
323.0009838296
 30
0.0
  0
SEQEND
  5
75E
  8
0
  6
CONTINUOUS
 62
     7
  0
LINE
  5
2C2
  8
0
  6
CONTINUOUS
 62
     7
 10
597.7844660515
 20
323.0009838296
 30
0.0
 11
545.6521575684
 21
323.0009838296
 31
0.0
  0
LINE
  5
2C3
  8
0
  6
CONTINUOUS
 62
     7
 10
510.4356249208
 20
522.6657032324
 30
0.0
 11
510.4356249208
 21
308.6657016826
 31
0.0
  0
LINE
  5
2C4
  8
0
  6
CONTINUOUS
 62
     7
 10
633.0009986991
 20
522.6657032324
 30
0.0
 11
633.0009986991
 21
308.6657016826
 31
0.0
  0
LINE
  5
2C5
  8
0
  6
CONTINUOUS
 62
     7
 10
466.7183150882
 20
245.6657006694
 30
0.0
 11
476.718313002
 21
245.6657006694
 31
0.0
  0
LINE
  5
2C6
  8
0
  6
CONTINUOUS
 62
     7
 10
466.7183150882
 20
265.889958973
 30
0.0
 11
466.7183150882
 21
245.6657006694
 31
0.0
  0
LINE
  5
2C7
  8
0
  6
CONTINUOUS
 62
     7
 10
476.718313002
 20
265.889958973
 30
0.0
 11
476.718313002
 21
245.6657006694
 31
0.0
  0
LINE
  5
2C8
  8
0
  6
CONTINUOUS
 62
     7
 10
676.7183085317
 20
265.889958973
 30
0.0
 11
676.7183085317
 21
245.6657006694
 31
0.0
  0
LINE
  5
2C9
  8
0
  6
CONTINUOUS
 62
     7
 10
676.7183085317
 20
245.6657006694
 30
0.0
 11
666.7183106178
 21
245.6657006694
 31
0.0
  0
LINE
  5
2CA
  8
0
  6
CONTINUOUS
 62
     7
 10
666.7183106178
 20
265.889958973
 30
0.0
 11
666.7183106178
 21
245.6657006694
 31
0.0
  0
LINE
  5
2CB
  8
0
  6
CONTINUOUS
 62
     7
 10
515.8203085298
 20
600.6657048417
 30
0.0
 11
522.7471952671
 21
600.6657048417
 31
0.0
  0
LINE
  5
2CC
  8
0
  6
CONTINUOUS
 62
     7
 10
515.8203085298
 20
600.6657048417
 30
0.0
 11
515.7492858702
 21
624.0008636666
 31
0.0
  0
LINE
  5
2CD
  8
0
  6
CONTINUOUS
 62
     7
 10
627.6163150901
 20
600.6657048417
 30
0.0
 11
627.6873377496
 21
624.0008636666
 31
0.0
  0
LINE
  5
2CE
  8
0
  6
CONTINUOUS
 62
     7
 10
627.6163150901
 20
600.6657048417
 30
0.0
 11
620.6894283528
 21
600.6657048417
 31
0.0
  0
LINE
  5
2CF
  8
0
  6
CONTINUOUS
 62
     7
 10
517.7427706653
 20
592.6373317195
 30
0.0
 11
519.5805606777
 21
591.9526084615
 31
0.0
  0
LINE
  5
2D0
  8
0
  6
CONTINUOUS
 62
     7
 10
517.7427706653
 20
592.6373317195
 30
0.0
 11
515.8203085298
 21
600.6657048417
 31
0.0
  0
LINE
  5
2D1
  8
0
  6
CONTINUOUS
 62
     7
 10
625.6938529546
 20
592.6373317195
 30
0.0
 11
627.6163150901
 21
600.6657048417
 31
0.0
  0
LINE
  5
2D2
  8
0
  6
CONTINUOUS
 62
     7
 10
625.6938529546
 20
592.6373317195
 30
0.0
 11
623.8560629422
 21
591.9526084615
 31
0.0
  0
LINE
  5
2D3
  8
0
  6
CONTINUOUS
 62
     7
 10
505.2542229528
 20
662.8656997634
 30
0.0
 11
505.1934411163
 21
646.2408467484
 31
0.0
  0
LINE
  5
2D4
  8
0
  6
CONTINUOUS
 62
     7
 10
519.9479599828
 20
662.8656997634
 30
0.0
 11
505.2542229528
 21
662.8656997634
 31
0.0
  0
LINE
  5
2D5
  8
0
  6
CONTINUOUS
 62
     7
 10
623.4886636371
 20
662.8656997634
 30
0.0
 11
638.1824006671
 21
662.8656997634
 31
0.0
  0
LINE
  5
2D6
  8
0
  6
CONTINUOUS
 62
     7
 10
638.1824006671
 20
662.8656997634
 30
0.0
 11
638.2431825036
 21
646.2408467484
 31
0.0
  0
LINE
  5
2D7
  8
0
  6
CONTINUOUS
 62
     7
 10
505.2542229528
 20
662.8656997634
 30
0.0
 11
492.3974861736
 21
662.8656997634
 31
0.0
  0
LINE
  5
2D8
  8
0
  6
CONTINUOUS
 62
     7
 10
638.1824006671
 20
662.8656997634
 30
0.0
 11
651.0391374463
 21
662.8656997634
 31
0.0
  0
LINE
  5
2D9
  8
0
  6
CONTINUOUS
 62
     7
 10
506.2353899116
 20
600.6657048417
 30
0.0
 11
515.8203085298
 21
600.6657048417
 31
0.0
  0
LINE
  5
2DA
  8
0
  6
CONTINUOUS
 62
     7
 10
506.2353899116
 20
600.6657048417
 30
0.0
 11
506.159349286
 21
625.6493940306
 31
0.0
  0
LINE
  5
2DB
  8
0
  6
CONTINUOUS
 62
     7
 10
637.2012337083
 20
600.6657048417
 30
0.0
 11
637.2772743339
 21
625.6493940306
 31
0.0
  0
LINE
  5
2DC
  8
0
  6
CONTINUOUS
 62
     7
 10
637.2012337083
 20
600.6657048417
 30
0.0
 11
627.6163150901
 21
600.6657048417
 31
0.0
  0
LINE
  5
2DD
  8
0
  6
CONTINUOUS
 62
     7
 10
495.9444021219
 20
600.6657048417
 30
0.0
 11
506.2353899116
 21
600.6657048417
 31
0.0
  0
LINE
  5
2DE
  8
0
  6
CONTINUOUS
 62
     7
 10
495.9444021219
 20
600.6657048417
 30
0.0
 11
495.0144057507
 21
627.30646276
 31
0.0
  0
LINE
  5
2DF
  8
0
  6
CONTINUOUS
 62
     7
 10
647.4922214979
 20
600.6657048417
 30
0.0
 11
648.4222178692
 21
627.30646276
 31
0.0
  0
LINE
  5
2E0
  8
0
  6
CONTINUOUS
 62
     7
 10
647.4922214979
 20
600.6657048417
 30
0.0
 11
637.2012337083
 21
600.6657048417
 31
0.0
  0
LINE
  5
2E1
  8
0
  6
CONTINUOUS
 62
     7
 10
517.7427706653
 20
592.6373317195
 30
0.0
 11
507.2183152074
 21
596.5609266711
 31
0.0
  0
LINE
  5
2E2
  8
0
  6
CONTINUOUS
 62
     7
 10
507.2183152074
 20
596.5609266711
 30
0.0
 11
506.2353899116
 21
600.6657048417
 31
0.0
  0
LINE
  5
2E3
  8
0
  6
CONTINUOUS
 62
     7
 10
636.2183084125
 20
596.5609266711
 30
0.0
 11
637.2012337083
 21
600.6657048417
 31
0.0
  0
LINE
  5
2E4
  8
0
  6
CONTINUOUS
 62
     7
 10
625.6938529546
 20
592.6373317195
 30
0.0
 11
636.2183084125
 21
596.5609266711
 31
0.0
  0
LINE
  5
2E5
  8
0
  6
CONTINUOUS
 62
     7
 10
507.2183152074
 20
596.5609266711
 30
0.0
 11
495.9444021219
 21
600.6657048417
 31
0.0
  0
LINE
  5
2E6
  8
0
  6
CONTINUOUS
 62
     7
 10
636.2183084125
 20
596.5609266711
 30
0.0
 11
647.4922214979
 21
600.6657048417
 31
0.0
  0
LINE
  5
2E7
  8
0
  6
CONTINUOUS
 62
     7
 10
494.4964488382
 20
600.6657048417
 30
0.0
 11
495.9444021219
 21
600.6657048417
 31
0.0
  0
LINE
  5
2E8
  8
0
  6
CONTINUOUS
 62
     7
 10
493.5782243842
 20
626.9512190772
 30
0.0
 11
494.4964488382
 21
600.6657048417
 31
0.0
  0
LINE
  5
2E9
  8
0
  6
CONTINUOUS
 62
     7
 10
648.9401747817
 20
600.6657048417
 30
0.0
 11
647.4922214979
 21
600.6657048417
 31
0.0
  0
LINE
  5
2EA
  8
0
  6
CONTINUOUS
 62
     7
 10
649.8583992357
 20
626.9512190772
 30
0.0
 11
648.9401747817
 21
600.6657048417
 31
0.0
  0
LINE
  5
2EB
  8
0
  6
CONTINUOUS
 62
     7
 10
517.7183104092
 20
592.2165378285
 30
0.0
 11
494.4964488382
 21
600.6657048417
 31
0.0
  0
LINE
  5
2EC
  8
0
  6
CONTINUOUS
 62
     7
 10
625.7183132107
 20
592.2165378285
 30
0.0
 11
648.9401747817
 21
600.6657048417
 31
0.0
  0
LINE
  5
2ED
  8
0
  6
CONTINUOUS
 62
     7
 10
527.3230438465
 20
796.8656882001
 30
0.0
 11
616.1135797734
 21
796.8656882001
 31
0.0
  0
LINE
  5
2EE
  8
0
  6
CONTINUOUS
 62
     7
 10
576.7183116982
 20
855.9180661393
 30
0.0
 11
566.7183119217
 21
855.9180661393
 31
0.0
  0
LINE
  5
2EF
  8
0
  6
CONTINUOUS
 62
     7
 10
576.7183116982
 20
855.9180661393
 30
0.0
 11
576.7183116982
 21
796.8656882001
 31
0.0
  0
LINE
  5
2F0
  8
0
  6
CONTINUOUS
 62
     7
 10
566.7183119217
 20
855.9180661393
 30
0.0
 11
566.7183119217
 21
796.8656882001
 31
0.0
  0
LINE
  5
2F1
  8
0
  6
CONTINUOUS
 62
     7
 10
576.7183116982
 20
858.8656946374
 30
0.0
 11
566.7183119217
 21
858.8656946374
 31
0.0
  0
LINE
  5
2F2
  8
0
  6
CONTINUOUS
 62
     7
 10
576.7183116982
 20
858.8656946374
 30
0.0
 11
576.7183116982
 21
855.9180661393
 31
0.0
  0
LINE
  5
2F3
  8
0
  6
CONTINUOUS
 62
     7
 10
566.7183119217
 20
858.8656946374
 30
0.0
 11
566.7183119217
 21
855.9180661393
 31
0.0
  0
LINE
  5
2F4
  8
0
  6
CONTINUOUS
 62
     7
 10
566.7183119217
 20
858.8656946374
 30
0.0
 11
545.4188035214
 21
858.8656946374
 31
0.0
  0
LINE
  5
2F5
  8
0
  6
CONTINUOUS
 62
     7
 10
598.0178200984
 20
858.8656946374
 30
0.0
 11
576.7183116982
 21
858.8656946374
 31
0.0
  0
POLYLINE
  5
2F6
  8
0
  6
CONTINUOUS
 62
     7
 66
     1
 10
0.0
 20
0.0
 30
0.0
  0
VERTEX
  5
63E
  8
0
  6
CONTINUOUS
 62
     7
 10
585.2027842188
 20
871.7256947709
 30
0.0
  0
VERTEX
  5
63F
  8
0
  6
CONTINUOUS
 62
     7
 10
585.0686784247
 20
874.7972413255
 30
0.0
  0
VERTEX
  5
640
  8
0
  6
CONTINUOUS
 62
     7
 10
584.9194926554
 20
878.2141371918
 30
0.0
  0
VERTEX
  5
641
  8
0
  6
CONTINUOUS
 62
     7
 10
584.7553964118
 20
881.9725676728
 30
0.0
  0
VERTEX
  5
642
  8
0
  6
CONTINUOUS
 62
     7
 10
584.5765740955
 20
886.0682710362
 30
0.0
  0
VERTEX
  5
643
  8
0
  6
CONTINUOUS
 62
     7
 10
584.3832278038
 20
890.4966279221
 30
0.0
  0
VERTEX
  5
644
  8
0
  6
CONTINUOUS
 62
     7
 10
584.1755763972
 20
895.2526017381
 30
0.0
  0
VERTEX
  5
645
  8
0
  6
CONTINUOUS
 62
     7
 10
583.9538545692
 20
900.3308876706
 30
0.0
  0
VERTEX
  5
646
  8
0
  6
CONTINUOUS
 62
     7
 10
583.7183119142
 20
905.7257040692
 30
0.0
  0
SEQEND
  5
75D
  8
0
  6
CONTINUOUS
 62
     7
  0
POLYLINE
  5
2F7
  8
0
  6
CONTINUOUS
 62
     7
 66
     1
 10
0.0
 20
0.0
 30
0.0
  0
VERTEX
  5
647
  8
0
  6
CONTINUOUS
 62
     7
 10
585.7183122421
 20
871.2101741982
 30
0.0
  0
VERTEX
  5
648
  8
0
  6
CONTINUOUS
 62
     7
 10
585.5888313958
 20
871.339665289
 30
0.0
  0
VERTEX
  5
649
  8
0
  6
CONTINUOUS
 62
     7
 10
585.2027842188
 20
871.7256947709
 30
0.0
  0
SEQEND
  5
75C
  8
0
  6
CONTINUOUS
 62
     7
  0
POLYLINE
  5
2F8
  8
0
  6
CONTINUOUS
 62
     7
 66
     1
 10
0.0
 20
0.0
 30
0.0
  0
VERTEX
  5
64A
  8
0
  6
CONTINUOUS
 62
     7
 10
558.2338394011
 20
871.7256947709
 30
0.0
  0
VERTEX
  5
64B
  8
0
  6
CONTINUOUS
 62
     7
 10
557.847792224
 20
871.339665289
 30
0.0
  0
VERTEX
  5
64C
  8
0
  6
CONTINUOUS
 62
     7
 10
557.7183113778
 20
871.2101741982
 30
0.0
  0
SEQEND
  5
75B
  8
0
  6
CONTINUOUS
 62
     7
  0
POLYLINE
  5
2F9
  8
0
  6
CONTINUOUS
 62
     7
 66
     1
 10
0.0
 20
0.0
 30
0.0
  0
VERTEX
  5
64D
  8
0
  6
CONTINUOUS
 62
     7
 10
559.7183117056
 20
905.7257040692
 30
0.0
  0
VERTEX
  5
64E
  8
0
  6
CONTINUOUS
 62
     7
 10
559.4827690506
 20
900.3308876706
 30
0.0
  0
VERTEX
  5
64F
  8
0
  6
CONTINUOUS
 62
     7
 10
559.2610472227
 20
895.2526017381
 30
0.0
  0
VERTEX
  5
650
  8
0
  6
CONTINUOUS
 62
     7
 10
559.0533958161
 20
890.4966279221
 30
0.0
  0
VERTEX
  5
651
  8
0
  6
CONTINUOUS
 62
     7
 10
558.8600495244
 20
886.0682710362
 30
0.0
  0
VERTEX
  5
652
  8
0
  6
CONTINUOUS
 62
     7
 10
558.6812272081
 20
881.9725676728
 30
0.0
  0
VERTEX
  5
653
  8
0
  6
CONTINUOUS
 62
     7
 10
558.5171309644
 20
878.2141371918
 30
0.0
  0
VERTEX
  5
654
  8
0
  6
CONTINUOUS
 62
     7
 10
558.3679451952
 20
874.7972413255
 30
0.0
  0
VERTEX
  5
655
  8
0
  6
CONTINUOUS
 62
     7
 10
558.2338394011
 20
871.7256947709
 30
0.0
  0
SEQEND
  5
75A
  8
0
  6
CONTINUOUS
 62
     7
  0
LINE
  5
2FA
  8
0
  6
CONTINUOUS
 62
     7
 10
559.7183117056
 20
905.7257040692
 30
0.0
 11
564.5072091715
 21
905.7257040692
 31
0.0
  0
ARC
  5
2FB
  8
0
  6
CONTINUOUS
 62
     7
 10
1013.7603089828
 20
934.0963436422
 30
0.0
 40
450.1480210772907
 50
183.6134691254
 51
187.9642890497
  0
ARC
  5
2FC
  8
0
  6
CONTINUOUS
 62
     7
 10
571.7183118099
 20
885.2106568791
 30
0.0
 40
14.00047197694078
 50
254.4035246079
 51
285.5964753921
  0
ARC
  5
2FD
  8
0
  6
CONTINUOUS
 62
     7
 10
129.6763146371
 20
934.0963436422
 30
0.0
 40
450.1480210772905
 50
352.0357109503
 51
356.3865308746
  0
LINE
  5
2FE
  8
0
  6
CONTINUOUS
 62
     7
 10
578.9294144483
 20
905.7257040692
 30
0.0
 11
583.7183119142
 21
905.7257040692
 31
0.0
  0
LINE
  5
2FF
  8
0
  6
CONTINUOUS
 62
     7
 10
575.4824866885
 20
871.7256947709
 30
0.0
 11
567.9541369313
 21
871.7256947709
 31
0.0
  0
LINE
  5
300
  8
0
  6
CONTINUOUS
 62
     7
 10
578.9294144483
 20
905.7257040692
 30
0.0
 11
564.5072091715
 21
905.7257040692
 31
0.0
  0
ARC
  5
301
  8
0
  6
CONTINUOUS
 62
     7
 10
599.1220201351
 20
856.0609181797
 30
0.0
 40
2.812733700105195
 50
357.0888315065
 51
85.6892081347
  0
LINE
  5
302
  8
0
  6
CONTINUOUS
 62
     7
 10
601.9311239356
 20
855.9180661393
 30
0.0
 11
602.4391864771
 21
822.3083778573
 31
0.0
  0
LINE
  5
303
  8
0
  6
CONTINUOUS
 62
     7
 10
598.0178200984
 20
858.8656946374
 30
0.0
 11
599.3334436202
 21
858.8656946374
 31
0.0
  0
LINE
  5
304
  8
0
  6
CONTINUOUS
 62
     7
 10
541.5054996843
 20
855.9180661393
 30
0.0
 11
540.9974371428
 21
822.3083778573
 31
0.0
  0
ARC
  5
305
  8
0
  6
CONTINUOUS
 62
     7
 10
544.3146034848
 20
856.0609181797
 30
0.0
 40
2.812733700105304
 50
94.3107918653
 51
182.9111684935
  0
LINE
  5
306
  8
0
  6
CONTINUOUS
 62
     7
 10
545.4188035214
 20
858.8656946374
 30
0.0
 11
544.1031799996
 21
858.8656946374
 31
0.0
  0
LINE
  5
307
  8
0
  6
CONTINUOUS
 62
     8
 10
481.5734614963
 20
528.2759382678
 30
0.0
 11
481.5734614963
 21
303.0554666472
 31
0.0
  0
LINE
  5
308
  8
0
  6
CONTINUOUS
 62
     8
 10
661.8631621236
 20
528.2759382678
 30
0.0
 11
661.8631621236
 21
303.0554666472
 31
0.0
  0
LINE
  5
309
  8
0
  6
CONTINUOUS
 62
     8
 10
566.7183119217
 20
857.0052250577
 30
0.0
 11
543.4236758733
 21
857.0052250577
 31
0.0
  0
LINE
  5
30A
  8
0
  6
CONTINUOUS
 62
     8
 10
600.0129477466
 20
857.0052250577
 30
0.0
 11
576.7183116982
 21
857.0052250577
 31
0.0
  0
LINE
  5
30B
  8
FORMAT
  6
CENTERX2
 10
571.7183118099
 20
914.2016468386
 30
0.0
 11
571.7183118099
 21
295.2084812594
 31
0.0
  0
LINE
  5
30C
  8
FORMAT
  6
CENTERX2
 10
448.7969783127
 20
415.6657024575
 30
0.0
 11
700.1107299951
 21
415.6657024575
 31
0.0
  0
LINE
  5
30D
  8
0
  6
CONTINUOUS
 62
     7
 10
-112.3554578329
 20
73.1481369281
 30
0.0
 11
-112.3554578329
 21
56.1481322789
 31
0.0
  0
LINE
  5
30E
  8
0
  6
CONTINUOUS
 62
     7
 10
227.6445457433
 20
56.1481322789
 30
0.0
 11
227.6445457433
 21
73.1481369281
 31
0.0
  0
LINE
  5
30F
  8
0
  6
CONTINUOUS
 62
     7
 10
227.6445457433
 20
-150.8518699861
 30
0.0
 11
227.6445457433
 21
-133.8518653369
 31
0.0
  0
LINE
  5
310
  8
0
  6
CONTINUOUS
 62
     7
 10
-112.3554578329
 20
-133.8518653369
 30
0.0
 11
-112.3554578329
 21
-150.8518699861
 31
0.0
  0
LINE
  5
311
  8
0
  6
CONTINUOUS
 62
     7
 10
192.1445408558
 20
73.1481369281
 30
0.0
 11
189.1445496772
 21
76.1481355572
 31
0.0
  0
LINE
  5
312
  8
0
  6
CONTINUOUS
 62
     7
 10
-73.8554617669
 20
76.1481355572
 30
0.0
 11
-76.8554529454
 21
73.1481369281
 31
0.0
  0
LINE
  5
313
  8
0
  6
CONTINUOUS
 62
     7
 10
-76.8554529454
 20
-150.8518699861
 30
0.0
 11
-73.8554617669
 21
-153.8518686152
 31
0.0
  0
LINE
  5
314
  8
0
  6
CONTINUOUS
 62
     7
 10
189.1445496772
 20
-153.8518686152
 30
0.0
 11
192.1445408558
 21
-150.8518699861
 31
0.0
  0
ARC
  5
315
  8
0
  6
CONTINUOUS
 62
     7
 10
-60.8554560448
 20
50.148133471
 30
0.0
 40
6.0
 50
11.0
 51
90.0
  0
ARC
  5
316
  8
0
  6
CONTINUOUS
 62
     7
 10
176.1445439552
 20
50.148133471
 30
0.0
 40
6.0
 50
90.0
 51
169.0
  0
ARC
  5
317
  8
0
  6
CONTINUOUS
 62
     7
 10
176.1445439552
 20
-127.851866529
 30
0.0
 40
6.0
 50
191.0
 51
270.0
  0
ARC
  5
318
  8
0
  6
CONTINUOUS
 62
     7
 10
-60.8554560448
 20
-127.851866529
 30
0.0
 40
6.000000000000002
 50
270.0
 51
349.0
  0
LINE
  5
319
  8
0
  6
CONTINUOUS
 62
     7
 10
-54.9656918551
 20
51.2929837847
 30
0.0
 11
-51.5516421105
 21
33.7292011523
 31
0.0
  0
LINE
  5
31A
  8
0
  6
CONTINUOUS
 62
     7
 10
166.8407300209
 20
33.7292011523
 30
0.0
 11
170.2547797655
 21
51.2929837847
 31
0.0
  0
LINE
  5
31B
  8
0
  6
CONTINUOUS
 62
     7
 10
170.2547797655
 20
-128.9967168427
 30
0.0
 11
166.8407300209
 21
-111.4329342103
 31
0.0
  0
LINE
  5
31C
  8
0
  6
CONTINUOUS
 62
     7
 10
-51.5516421105
 20
-111.4329342103
 30
0.0
 11
-54.9656918551
 21
-128.9967168427
 31
0.0
  0
LINE
  5
31D
  8
0
  6
CONTINUOUS
 62
     7
 10
69.6445440595
 20
-46.0629691674
 30
0.0
 11
69.6445440595
 21
-31.6407638906
 31
0.0
  0
ARC
  5
31E
  8
0
  6
CONTINUOUS
 62
     7
 10
57.6445439552
 20
-38.851866529
 30
0.0
 40
14.00000000000001
 50
301.0027191339
 51
328.9972808661
  0
LINE
  5
31F
  8
0
  6
CONTINUOUS
 62
     7
 10
64.8556465936
 20
-50.8518666333
 30
0.0
 11
50.4334413168
 21
-50.8518666333
 31
0.0
  0
ARC
  5
320
  8
0
  6
CONTINUOUS
 62
     7
 10
57.6445439552
 20
-38.851866529
 30
0.0
 40
14.00000000000001
 50
211.0027191339
 51
238.9972808661
  0
LINE
  5
321
  8
0
  6
CONTINUOUS
 62
     7
 10
45.6445438509
 20
-46.0629691674
 30
0.0
 11
45.6445438509
 21
-31.6407638906
 31
0.0
  0
ARC
  5
322
  8
0
  6
CONTINUOUS
 62
     7
 10
57.6445439552
 20
-38.851866529
 30
0.0
 40
14.00000000000002
 50
121.0027191339
 51
148.9972808661
  0
LINE
  5
323
  8
0
  6
CONTINUOUS
 62
     7
 10
64.8556465936
 20
-26.8518664247
 30
0.0
 11
50.4334413168
 21
-26.8518664247
 31
0.0
  0
ARC
  5
324
  8
0
  6
CONTINUOUS
 62
     7
 10
57.6445439552
 20
-38.851866529
 30
0.0
 40
14.00000000000002
 50
31.0027191339
 51
58.9972808661
  0
ARC
  5
325
  8
0
  6
CONTINUOUS
 62
     7
 10
57.6445596638
 20
-38.8519013546
 30
0.0
 40
14.0000380761606
 50
105.5970378218
 51
121.0027009134
  0
LINE
  5
326
  8
0
  6
CONTINUOUS
 62
     7
 10
61.4087188338
 20
-25.3673941201
 30
0.0
 11
53.8803690766
 21
-25.3673941201
 31
0.0
  0
ARC
  5
327
  8
0
  6
CONTINUOUS
 62
     7
 10
57.6445282465
 20
-38.8519013546
 30
0.0
 40
14.00003807616059
 50
58.9972990866
 51
74.4029621782
  0
LINE
  5
328
  8
0
  6
CONTINUOUS
 62
     7
 10
71.1290163641
 20
-42.6160414076
 30
0.0
 11
71.1290163641
 21
-35.0876916504
 31
0.0
  0
ARC
  5
329
  8
0
  6
CONTINUOUS
 62
     7
 10
57.6445091296
 20
-38.8518508204
 30
0.0
 40
14.00003807616059
 50
328.9972990866
 51
344.4029621782
  0
ARC
  5
32A
  8
0
  6
CONTINUOUS
 62
     7
 10
57.6445091296
 20
-38.8518822377
 30
0.0
 40
14.00003807616059
 50
15.5970378218
 51
31.0027009134
  0
LINE
  5
32B
  8
0
  6
CONTINUOUS
 62
     7
 10
44.1600715463
 20
-42.6160414076
 30
0.0
 11
44.1600715463
 21
-35.0876916504
 31
0.0
  0
ARC
  5
32C
  8
0
  6
CONTINUOUS
 62
     7
 10
57.6445787808
 20
-38.8518822377
 30
0.0
 40
14.00003807616059
 50
148.9972990866
 51
164.4029621782
  0
ARC
  5
32D
  8
0
  6
CONTINUOUS
 62
     7
 10
57.6445787808
 20
-38.8518508204
 30
0.0
 40
14.00003807616059
 50
195.5970378218
 51
211.0027009134
  0
LINE
  5
32E
  8
0
  6
CONTINUOUS
 62
     7
 10
61.4087188338
 20
-52.3363389379
 30
0.0
 11
53.8803690766
 21
-52.3363389379
 31
0.0
  0
ARC
  5
32F
  8
0
  6
CONTINUOUS
 62
     7
 10
57.6445596638
 20
-38.8518317034
 30
0.0
 40
14.0000380761606
 50
238.9972990866
 51
254.4029621782
  0
ARC
  5
330
  8
0
  6
CONTINUOUS
 62
     7
 10
57.6445282465
 20
-38.8518317034
 30
0.0
 40
14.00003807616059
 50
285.5970378218
 51
301.0027009134
  0
ARC
  5
331
  8
0
  6
CONTINUOUS
 62
     7
 10
57.6445439552
 20
-38.8518649115
 30
0.0
 40
13.99999875143854
 50
74.4029839987
 51
105.5970160013
  0
ARC
  5
332
  8
0
  6
CONTINUOUS
 62
     7
 10
57.6445455727
 20
-38.851866529
 30
0.0
 40
13.99999875143852
 50
344.4029839987
 51
15.5970160013
  0
ARC
  5
333
  8
0
  6
CONTINUOUS
 62
     7
 10
57.6445423377
 20
-38.851866529
 30
0.0
 40
13.99999875143854
 50
164.4029839987
 51
195.5970160013
  0
ARC
  5
334
  8
0
  6
CONTINUOUS
 62
     7
 10
57.6445439552
 20
-38.8518681465
 30
0.0
 40
13.99999875143853
 50
254.4029839987
 51
285.5970160013
  0
ARC
  5
335
  8
0
  6
CONTINUOUS
 62
     7
 10
57.6445439552
 20
-38.851866529
 30
0.0
 40
26.29950748722701
 50
70.9596489541
 51
169.0403510459
  0
ARC
  5
336
  8
0
  6
CONTINUOUS
 62
     7
 10
57.6445439552
 20
-38.851866529
 30
0.0
 40
28.29463558774666
 50
70.1782979636
 51
169.8217020364
  0
ARC
  5
337
  8
0
  6
CONTINUOUS
 62
     7
 10
57.6445439552
 20
-38.851866529
 30
0.0
 40
26.29950748722702
 50
190.9596489541
 51
289.0403510459
  0
ARC
  5
338
  8
0
  6
CONTINUOUS
 62
     7
 10
57.6445439552
 20
-38.851866529
 30
0.0
 40
28.29463558774667
 50
190.1782979636
 51
289.8217020364
  0
ARC
  5
339
  8
0
  6
CONTINUOUS
 62
     7
 10
57.6445439552
 20
-38.851866529
 30
0.0
 40
26.29950748722703
 50
310.9596489541
 51
49.0403510459
  0
ARC
  5
33A
  8
0
  6
CONTINUOUS
 62
     7
 10
57.6445439552
 20
-38.851866529
 30
0.0
 40
28.29463558774667
 50
310.1782979636
 51
49.8217020364
  0
LINE
  5
33B
  8
0
  6
CONTINUOUS
 62
     7
 10
28.644086579
 20
-43.8518664172
 30
0.0
 11
28.644086579
 21
-33.8518666408
 31
0.0
  0
LINE
  5
33C
  8
0
  6
CONTINUOUS
 62
     7
 10
67.8146451433
 20
-11.2367347187
 30
0.0
 11
76.474899212
 21
-16.2367336756
 31
0.0
  0
LINE
  5
33D
  8
0
  6
CONTINUOUS
 62
     7
 10
76.474899212
 20
-61.4669993824
 30
0.0
 11
67.8146451433
 21
-66.4669983393
 31
0.0
  0
LINE
  5
33E
  8
0
  6
CONTINUOUS
 62
     7
 10
66.22433641
 20
-63.7125037915
 30
0.0
 11
67.8146451433
 21
-66.4669983393
 31
0.0
  0
LINE
  5
33F
  8
0
  6
CONTINUOUS
 62
     7
 10
74.88459141
 20
-58.7125029719
 30
0.0
 11
76.474899212
 21
-61.4669993824
 31
0.0
  0
LINE
  5
340
  8
0
  6
CONTINUOUS
 62
     7
 10
66.22433641
 20
-13.9912292665
 30
0.0
 11
67.8146451433
 21
-11.2367347187
 31
0.0
  0
LINE
  5
341
  8
0
  6
CONTINUOUS
 62
     7
 10
74.88459141
 20
-18.9912300861
 30
0.0
 11
76.474899212
 21
-16.2367336756
 31
0.0
  0
LINE
  5
342
  8
0
  6
CONTINUOUS
 62
     7
 10
31.8247040455
 20
-33.8518666408
 30
0.0
 11
28.644086579
 21
-33.8518666408
 31
0.0
  0
LINE
  5
343
  8
0
  6
CONTINUOUS
 62
     7
 10
31.8247040455
 20
-43.8518664172
 30
0.0
 11
28.644086579
 21
-43.8518664172
 31
0.0
  0
LINE
  5
344
  8
0
  6
CONTINUOUS
 62
     7
 10
69.3144172152
 20
-8.6390544033
 30
0.0
 11
77.9746712838
 21
-13.6390533602
 31
0.0
  0
POLYLINE
  5
345
  8
0
  6
CONTINUOUS
 62
     7
 66
     1
 10
0.0
 20
0.0
 30
0.0
  0
VERTEX
  5
656
  8
0
  6
CONTINUOUS
 62
     7
 10
67.8146451433
 20
-11.2367347187
 30
0.0
  0
VERTEX
  5
657
  8
0
  6
CONTINUOUS
 62
     7
 10
68.1040703972
 20
-10.7354354418
 30
0.0
  0
VERTEX
  5
658
  8
0
  6
CONTINUOUS
 62
     7
 10
68.3826187347
 20
-10.2529768205
 30
0.0
  0
VERTEX
  5
659
  8
0
  6
CONTINUOUS
 62
     7
 10
68.6398202275
 20
-9.8074898428
 30
0.0
  0
VERTEX
  5
65A
  8
0
  6
CONTINUOUS
 62
     7
 10
68.8660096099
 20
-9.4157178259
 30
0.0
  0
VERTEX
  5
65B
  8
0
  6
CONTINUOUS
 62
     7
 10
69.052684838
 20
-9.0923868424
 30
0.0
  0
VERTEX
  5
65C
  8
0
  6
CONTINUOUS
 62
     7
 10
69.1928321217
 20
-8.8496450639
 30
0.0
  0
VERTEX
  5
65D
  8
0
  6
CONTINUOUS
 62
     7
 10
69.2811829691
 20
-8.6966157264
 30
0.0
  0
VERTEX
  5
65E
  8
0
  6
CONTINUOUS
 62
     7
 10
69.3144172152
 20
-8.6390544033
 30
0.0
  0
SEQEND
  5
759
  8
0
  6
CONTINUOUS
 62
     7
  0
POLYLINE
  5
346
  8
0
  6
CONTINUOUS
 62
     7
 66
     1
 10
0.0
 20
0.0
 30
0.0
  0
VERTEX
  5
65F
  8
0
  6
CONTINUOUS
 62
     7
 10
76.474899212
 20
-16.2367336756
 30
0.0
  0
VERTEX
  5
660
  8
0
  6
CONTINUOUS
 62
     7
 10
76.7643244659
 20
-15.7354343987
 30
0.0
  0
VERTEX
  5
661
  8
0
  6
CONTINUOUS
 62
     7
 10
77.0428718721
 20
-15.2529757774
 30
0.0
  0
VERTEX
  5
662
  8
0
  6
CONTINUOUS
 62
     7
 10
77.3000733648
 20
-14.8074906624
 30
0.0
  0
VERTEX
  5
663
  8
0
  6
CONTINUOUS
 62
     7
 10
77.5262636785
 20
-14.4157186455
 30
0.0
  0
VERTEX
  5
664
  8
0
  6
CONTINUOUS
 62
     7
 10
77.712939838
 20
-14.0923857993
 30
0.0
  0
VERTEX
  5
665
  8
0
  6
CONTINUOUS
 62
     7
 10
77.8530871217
 20
-13.8496440208
 30
0.0
  0
VERTEX
  5
666
  8
0
  6
CONTINUOUS
 62
     7
 10
77.9414361064
 20
-13.6966165459
 30
0.0
  0
VERTEX
  5
667
  8
0
  6
CONTINUOUS
 62
     7
 10
77.9746712838
 20
-13.6390533602
 30
0.0
  0
SEQEND
  5
758
  8
0
  6
CONTINUOUS
 62
     7
  0
LINE
  5
347
  8
0
  6
CONTINUOUS
 62
     7
 10
25.6445424353
 20
-43.8518664172
 30
0.0
 11
25.6445424353
 21
-33.8518666408
 31
0.0
  0
LINE
  5
348
  8
0
  6
CONTINUOUS
 62
     7
 10
28.644086579
 20
-33.8518666408
 30
0.0
 11
25.6445424353
 21
-33.8518666408
 31
0.0
  0
LINE
  5
349
  8
0
  6
CONTINUOUS
 62
     7
 10
28.644086579
 20
-43.8518664172
 30
0.0
 11
25.6445424353
 21
-43.8518664172
 31
0.0
  0
LINE
  5
34A
  8
0
  6
CONTINUOUS
 62
     7
 10
77.9746712838
 20
-64.0646796978
 30
0.0
 11
69.3144172152
 21
-69.0646786547
 31
0.0
  0
POLYLINE
  5
34B
  8
0
  6
CONTINUOUS
 62
     7
 66
     1
 10
0.0
 20
0.0
 30
0.0
  0
VERTEX
  5
668
  8
0
  6
CONTINUOUS
 62
     7
 10
67.8146451433
 20
-66.4669983393
 30
0.0
  0
VERTEX
  5
669
  8
0
  6
CONTINUOUS
 62
     7
 10
68.1040703972
 20
-66.9682976163
 30
0.0
  0
VERTEX
  5
66A
  8
0
  6
CONTINUOUS
 62
     7
 10
68.3826187347
 20
-67.4507562375
 30
0.0
  0
VERTEX
  5
66B
  8
0
  6
CONTINUOUS
 62
     7
 10
68.6398202275
 20
-67.8962432152
 30
0.0
  0
VERTEX
  5
66C
  8
0
  6
CONTINUOUS
 62
     7
 10
68.8660096099
 20
-68.2880152321
 30
0.0
  0
VERTEX
  5
66D
  8
0
  6
CONTINUOUS
 62
     7
 10
69.052684838
 20
-68.6113462156
 30
0.0
  0
VERTEX
  5
66E
  8
0
  6
CONTINUOUS
 62
     7
 10
69.1928321217
 20
-68.8540879941
 30
0.0
  0
VERTEX
  5
66F
  8
0
  6
CONTINUOUS
 62
     7
 10
69.2811829691
 20
-69.0071173316
 30
0.0
  0
VERTEX
  5
670
  8
0
  6
CONTINUOUS
 62
     7
 10
69.3144172152
 20
-69.0646786547
 30
0.0
  0
SEQEND
  5
757
  8
0
  6
CONTINUOUS
 62
     7
  0
POLYLINE
  5
34C
  8
0
  6
CONTINUOUS
 62
     7
 66
     1
 10
0.0
 20
0.0
 30
0.0
  0
VERTEX
  5
671
  8
0
  6
CONTINUOUS
 62
     7
 10
76.474899212
 20
-61.4669993824
 30
0.0
  0
VERTEX
  5
672
  8
0
  6
CONTINUOUS
 62
     7
 10
76.7643244659
 20
-61.9682986593
 30
0.0
  0
VERTEX
  5
673
  8
0
  6
CONTINUOUS
 62
     7
 10
77.0428718721
 20
-62.4507572806
 30
0.0
  0
VERTEX
  5
674
  8
0
  6
CONTINUOUS
 62
     7
 10
77.3000733648
 20
-62.8962423957
 30
0.0
  0
VERTEX
  5
675
  8
0
  6
CONTINUOUS
 62
     7
 10
77.5262636785
 20
-63.2880144125
 30
0.0
  0
VERTEX
  5
676
  8
0
  6
CONTINUOUS
 62
     7
 10
77.712939838
 20
-63.6113472587
 30
0.0
  0
VERTEX
  5
677
  8
0
  6
CONTINUOUS
 62
     7
 10
77.8530871217
 20
-63.8540890372
 30
0.0
  0
VERTEX
  5
678
  8
0
  6
CONTINUOUS
 62
     7
 10
77.9414361064
 20
-64.0071165121
 30
0.0
  0
VERTEX
  5
679
  8
0
  6
CONTINUOUS
 62
     7
 10
77.9746712838
 20
-64.0646796978
 30
0.0
  0
SEQEND
  5
756
  8
0
  6
CONTINUOUS
 62
     7
  0
ARC
  5
34D
  8
0
  6
CONTINUOUS
 62
     7
 10
57.6445439552
 20
-38.851866529
 30
0.0
 40
32.50000000000001
 50
308.8498830984
 51
51.1501169016
  0
ARC
  5
34E
  8
0
  6
CONTINUOUS
 62
     7
 10
57.6445439552
 20
-38.851866529
 30
0.0
 40
32.5
 50
68.8498830984
 51
171.1501169016
  0
ARC
  5
34F
  8
0
  6
CONTINUOUS
 62
     7
 10
57.6445439552
 20
-38.851866529
 30
0.0
 40
32.5
 50
188.8498830984
 51
291.1501169016
  0
LINE
  5
350
  8
0
  6
CONTINUOUS
 62
     7
 10
78.4900521581
 20
-12.7463862604
 30
0.0
 11
69.8297980894
 21
-7.7463873035
 31
0.0
  0
LINE
  5
351
  8
0
  6
CONTINUOUS
 62
     7
 10
69.3144172152
 20
-8.6390544033
 30
0.0
 11
69.8297980894
 21
-7.7463873035
 31
0.0
  0
LINE
  5
352
  8
0
  6
CONTINUOUS
 62
     7
 10
77.9746712838
 20
-13.6390533602
 30
0.0
 11
78.4900521581
 21
-12.7463862604
 31
0.0
  0
LINE
  5
353
  8
0
  6
CONTINUOUS
 62
     7
 10
24.6137806867
 20
-33.8518666408
 30
0.0
 11
24.6137806867
 21
-43.8518664172
 31
0.0
  0
LINE
  5
354
  8
0
  6
CONTINUOUS
 62
     7
 10
25.6445424353
 20
-33.8518666408
 30
0.0
 11
24.6137806867
 21
-33.8518666408
 31
0.0
  0
LINE
  5
355
  8
0
  6
CONTINUOUS
 62
     7
 10
25.6445424353
 20
-43.8518664172
 30
0.0
 11
24.6137806867
 21
-43.8518664172
 31
0.0
  0
LINE
  5
356
  8
0
  6
CONTINUOUS
 62
     7
 10
69.8297980894
 20
-69.9573457545
 30
0.0
 11
78.4900521581
 21
-64.9573467976
 31
0.0
  0
LINE
  5
357
  8
0
  6
CONTINUOUS
 62
     7
 10
69.3144172152
 20
-69.0646786547
 30
0.0
 11
69.8297980894
 21
-69.9573457545
 31
0.0
  0
LINE
  5
358
  8
0
  6
CONTINUOUS
 62
     7
 10
77.9746712838
 20
-64.0646796978
 30
0.0
 11
78.4900521581
 21
-64.9573467976
 31
0.0
  0
CIRCLE
  5
359
  8
0
  6
CONTINUOUS
 62
     7
 10
57.6445439552
 20
-38.851866529
 30
0.0
 40
44.3952696104307
  0
POLYLINE
  5
35A
  8
0
  6
CONTINUOUS
 62
     7
 66
     1
 10
0.0
 20
0.0
 30
0.0
  0
VERTEX
  5
67A
  8
0
  6
CONTINUOUS
 62
     7
 10
12.6134620701
 20
-38.851666529
 30
0.0
  0
VERTEX
  5
67B
  8
0
  6
CONTINUOUS
 62
     7
 10
13.2261978184
 20
-46.2079951844
 30
0.0
  0
VERTEX
  5
67C
  8
0
  6
CONTINUOUS
 62
     7
 10
15.0247083698
 20
-53.3527545935
 30
0.0
  0
VERTEX
  5
67D
  8
0
  6
CONTINUOUS
 62
     7
 10
17.9604494666
 20
-60.0729901648
 30
0.0
  0
VERTEX
  5
67E
  8
0
  6
CONTINUOUS
 62
     7
 10
21.9326818083
 20
-66.2136357582
 30
0.0
  0
VERTEX
  5
67F
  8
0
  6
CONTINUOUS
 62
     7
 10
26.1830554997
 20
-70.9855351901
 30
0.0
  0
VERTEX
  5
680
  8
0
  6
CONTINUOUS
 62
     7
 10
31.0653874372
 20
-75.1109849966
 30
0.0
  0
VERTEX
  5
681
  8
0
  6
CONTINUOUS
 62
     7
 10
37.1653901135
 20
-78.8564291156
 30
0.0
  0
VERTEX
  5
682
  8
0
  6
CONTINUOUS
 62
     7
 10
44.2644159962
 20
-81.7366447604
 30
0.0
  0
VERTEX
  5
683
  8
0
  6
CONTINUOUS
 62
     7
 10
51.7681345996
 20
-83.3866354382
 30
0.0
  0
VERTEX
  5
684
  8
0
  6
CONTINUOUS
 62
     7
 10
57.2029963847
 20
-83.7672520733
 30
0.0
  0
VERTEX
  5
685
  8
0
  6
CONTINUOUS
 62
     7
 10
62.6447440778
 20
-83.4929850257
 30
0.0
  0
VERTEX
  5
686
  8
0
  6
CONTINUOUS
 62
     7
 10
69.9989290629
 20
-82.0422638512
 30
0.0
  0
VERTEX
  5
687
  8
0
  6
CONTINUOUS
 62
     7
 10
76.9964007382
 20
-79.4110317087
 30
0.0
  0
VERTEX
  5
688
  8
0
  6
CONTINUOUS
 62
     7
 10
83.430815274
 20
-75.6716076589
 30
0.0
  0
VERTEX
  5
689
  8
0
  6
CONTINUOUS
 62
     7
 10
89.1555191671
 20
-70.9400829232
 30
0.0
  0
VERTEX
  5
68A
  8
0
  6
CONTINUOUS
 62
     7
 10
94.11806033
 20
-65.187890113
 30
0.0
  0
VERTEX
  5
68B
  8
0
  6
CONTINUOUS
 62
     7
 10
98.0533713196
 20
-58.6742218888
 30
0.0
  0
VERTEX
  5
68C
  8
0
  6
CONTINUOUS
 62
     7
 10
100.0388877188
 20
-53.9841121367
 30
0.0
  0
VERTEX
  5
68D
  8
0
  6
CONTINUOUS
 62
     7
 10
101.4901788627
 20
-49.0724519199
 30
0.0
  0
VERTEX
  5
68E
  8
0
  6
CONTINUOUS
 62
     7
 10
102.3746261095
 20
-44.0365467525
 30
0.0
  0
VERTEX
  5
68F
  8
0
  6
CONTINUOUS
 62
     7
 10
102.6160360967
 20
-36.6380515347
 30
0.0
  0
VERTEX
  5
690
  8
0
  6
CONTINUOUS
 62
     7
 10
101.6464920436
 20
-29.3040154806
 30
0.0
  0
VERTEX
  5
691
  8
0
  6
CONTINUOUS
 62
     7
 10
99.5347404574
 20
-22.3813429779
 30
0.0
  0
VERTEX
  5
692
  8
0
  6
CONTINUOUS
 62
     7
 10
96.3551046048
 20
-15.9037690914
 30
0.0
  0
VERTEX
  5
693
  8
0
  6
CONTINUOUS
 62
     7
 10
92.0561345016
 20
-9.8853037065
 30
0.0
  0
VERTEX
  5
694
  8
0
  6
CONTINUOUS
 62
     7
 10
86.8385227119
 20
-4.652326957
 30
0.0
  0
VERTEX
  5
695
  8
0
  6
CONTINUOUS
 62
     7
 10
80.614555413
 20
-0.2219174361
 30
0.0
  0
VERTEX
  5
696
  8
0
  6
CONTINUOUS
 62
     7
 10
73.716321746
 20
3.1084548378
 30
0.0
  0
VERTEX
  5
697
  8
0
  6
CONTINUOUS
 62
     7
 10
66.3929439803
 20
5.2059311116
 30
0.0
  0
VERTEX
  5
698
  8
0
  6
CONTINUOUS
 62
     7
 10
58.8059105399
 20
6.0521121764
 30
0.0
  0
VERTEX
  5
699
  8
0
  6
CONTINUOUS
 62
     7
 10
51.4264467825
 20
5.6321005964
 30
0.0
  0
VERTEX
  5
69A
  8
0
  6
CONTINUOUS
 62
     7
 10
44.2234741245
 20
4.02543877
 30
0.0
  0
VERTEX
  5
69B
  8
0
  6
CONTINUOUS
 62
     7
 10
37.4349558447
 20
1.2846011364
 30
0.0
  0
VERTEX
  5
69C
  8
0
  6
CONTINUOUS
 62
     7
 10
31.192773739
 20
-2.5001708722
 30
0.0
  0
VERTEX
  5
69D
  8
0
  6
CONTINUOUS
 62
     7
 10
25.5085991417
 20
-7.3919091678
 30
0.0
  0
VERTEX
  5
69E
  8
0
  6
CONTINUOUS
 62
     7
 10
20.7104773913
 20
-13.155119524
 30
0.0
  0
VERTEX
  5
69F
  8
0
  6
CONTINUOUS
 62
     7
 10
16.8735624944
 20
-19.7928343272
 30
0.0
  0
VERTEX
  5
6A0
  8
0
  6
CONTINUOUS
 62
     7
 10
14.2075957452
 20
-27.006448277
 30
0.0
  0
VERTEX
  5
6A1
  8
0
  6
CONTINUOUS
 62
     7
 10
13.0163969194
 20
-32.8719364783
 30
0.0
  0
VERTEX
  5
6A2
  8
0
  6
CONTINUOUS
 62
     7
 10
12.6134620701
 20
-38.851666529
 30
0.0
  0
SEQEND
  5
755
  8
0
  6
CONTINUOUS
 62
     7
  0
ARC
  5
35B
  8
0
  6
CONTINUOUS
 62
     7
 10
-86.1948288877
 20
-2.8498364617
 30
0.0
 40
11.81183123796474
 50
178.7538160182
 51
192.4020534338
  0
POLYLINE
  5
35C
  8
0
  6
CONTINUOUS
 62
     7
 66
     1
 10
0.0
 20
0.0
 30
0.0
  0
VERTEX
  5
6A3
  8
0
  6
CONTINUOUS
 62
     7
 10
-97.7310261036
 20
-5.3866673565
 30
0.0
  0
VERTEX
  5
6A4
  8
0
  6
CONTINUOUS
 62
     7
 10
-96.2895473744
 20
-12.0557453788
 30
0.0
  0
VERTEX
  5
6A5
  8
0
  6
CONTINUOUS
 62
     7
 10
-94.6878811623
 20
-19.6481384641
 30
0.0
  0
VERTEX
  5
6A6
  8
0
  6
CONTINUOUS
 62
     7
 10
-92.9276963974
 20
-28.1559443405
 30
0.0
  0
SEQEND
  5
754
  8
0
  6
CONTINUOUS
 62
     7
  0
LINE
  5
35D
  8
0
  6
CONTINUOUS
 62
     7
 10
-92.9276963974
 20
-8.2714781469
 30
0.0
 11
-92.9276963974
 21
-28.1559443405
 31
0.0
  0
ARC
  5
35E
  8
0
  6
CONTINUOUS
 62
     7
 10
-83.351647457
 20
-2.8600516332
 30
0.0
 40
10.99928407776709
 50
209.4707969312
 51
20.4071156794
  0
POLYLINE
  5
35F
  8
0
  6
CONTINUOUS
 62
     7
 66
     1
 10
0.0
 20
0.0
 30
0.0
  0
VERTEX
  5
6A7
  8
0
  6
CONTINUOUS
 62
     7
 10
-43.8246598746
 20
6.7298318887
 30
0.0
  0
VERTEX
  5
6A8
  8
0
  6
CONTINUOUS
 62
     7
 10
-51.8147221114
 20
5.2921306038
 30
0.0
  0
VERTEX
  5
6A9
  8
0
  6
CONTINUOUS
 62
     7
 10
-59.3316575791
 20
3.8442443752
 30
0.0
  0
VERTEX
  5
6AA
  8
0
  6
CONTINUOUS
 62
     7
 10
-66.4626380707
 20
2.3876148903
 30
0.0
  0
VERTEX
  5
6AB
  8
0
  6
CONTINUOUS
 62
     7
 10
-73.0426928307
 20
0.9752716565
 30
0.0
  0
SEQEND
  5
753
  8
0
  6
CONTINUOUS
 62
     7
  0
POLYLINE
  5
360
  8
0
  6
CONTINUOUS
 62
     7
 66
     1
 10
0.0
 20
0.0
 30
0.0
  0
VERTEX
  5
6AC
  8
0
  6
CONTINUOUS
 62
     7
 10
-43.8246598746
 20
6.7298318887
 30
0.0
  0
VERTEX
  5
6AD
  8
0
  6
CONTINUOUS
 62
     7
 10
-33.1353193427
 20
8.6242053354
 30
0.0
  0
VERTEX
  5
6AE
  8
0
  6
CONTINUOUS
 62
     7
 10
-21.7704048659
 20
10.4015972161
 30
0.0
  0
VERTEX
  5
6AF
  8
0
  6
CONTINUOUS
 62
     7
 10
-9.8446628357
 20
12.0111796701
 30
0.0
  0
VERTEX
  5
6B0
  8
0
  6
CONTINUOUS
 62
     7
 10
2.5271678065
 20
13.4021434629
 30
0.0
  0
VERTEX
  5
6B1
  8
0
  6
CONTINUOUS
 62
     7
 10
15.3284163867
 20
14.5355593109
 30
0.0
  0
VERTEX
  5
6B2
  8
0
  6
CONTINUOUS
 62
     7
 10
28.4930782114
 20
15.3887923503
 30
0.0
  0
VERTEX
  5
6B3
  8
0
  6
CONTINUOUS
 62
     7
 10
41.8744122331
 20
15.939654752
 30
0.0
  0
VERTEX
  5
6B4
  8
0
  6
CONTINUOUS
 62
     7
 10
55.3256867175
 20
16.1659735882
 30
0.0
  0
VERTEX
  5
6B5
  8
0
  6
CONTINUOUS
 62
     7
 10
62.6445438434
 20
16.148133173
 30
0.0
  0
VERTEX
  5
6B6
  8
0
  6
CONTINUOUS
 62
     7
 10
75.8808625584
 20
15.8637184346
 30
0.0
  0
VERTEX
  5
6B7
  8
0
  6
CONTINUOUS
 62
     7
 10
89.0304052924
 20
15.2662452006
 30
0.0
  0
VERTEX
  5
6B8
  8
0
  6
CONTINUOUS
 62
     7
 10
101.953787515
 20
14.3784563684
 30
0.0
  0
VERTEX
  5
6B9
  8
0
  6
CONTINUOUS
 62
     7
 10
114.5116181766
 20
13.2230836594
 30
0.0
  0
VERTEX
  5
6BA
  8
0
  6
CONTINUOUS
 62
     7
 10
126.4024505113
 20
11.8532795155
 30
0.0
  0
VERTEX
  5
6BB
  8
0
  6
CONTINUOUS
 62
     7
 10
137.868201146
 20
10.2837811851
 30
0.0
  0
VERTEX
  5
6BC
  8
0
  6
CONTINUOUS
 62
     7
 10
148.8061973547
 20
8.5606183553
 30
0.0
  0
VERTEX
  5
6BD
  8
0
  6
CONTINUOUS
 62
     7
 10
159.113747785
 20
6.7298318887
 30
0.0
  0
SEQEND
  5
752
  8
0
  6
CONTINUOUS
 62
     7
  0
POLYLINE
  5
361
  8
0
  6
CONTINUOUS
 62
     7
 66
     1
 10
0.0
 20
0.0
 30
0.0
  0
VERTEX
  5
6BE
  8
0
  6
CONTINUOUS
 62
     7
 10
159.113747785
 20
6.7298318887
 30
0.0
  0
VERTEX
  5
6BF
  8
0
  6
CONTINUOUS
 62
     7
 10
167.1038100217
 20
5.2921306038
 30
0.0
  0
VERTEX
  5
6C0
  8
0
  6
CONTINUOUS
 62
     7
 10
174.6207454895
 20
3.8442443752
 30
0.0
  0
VERTEX
  5
6C1
  8
0
  6
CONTINUOUS
 62
     7
 10
181.7517259811
 20
2.3876148903
 30
0.0
  0
VERTEX
  5
6C2
  8
0
  6
CONTINUOUS
 62
     7
 10
188.3317807411
 20
0.9752716565
 30
0.0
  0
SEQEND
  5
751
  8
0
  6
CONTINUOUS
 62
     7
  0
ARC
  5
362
  8
0
  6
CONTINUOUS
 62
     7
 10
198.6407353674
 20
-2.8600516332
 30
0.0
 40
10.99928407776711
 50
159.5928843206
 51
330.5292030688
  0
LINE
  5
363
  8
0
  6
CONTINUOUS
 62
     7
 10
208.2167843078
 20
-8.2714781469
 30
0.0
 11
208.2167843078
 21
-28.1559443405
 31
0.0
  0
POLYLINE
  5
364
  8
0
  6
CONTINUOUS
 62
     7
 66
     1
 10
0.0
 20
0.0
 30
0.0
  0
VERTEX
  5
6C3
  8
0
  6
CONTINUOUS
 62
     7
 10
213.020114014
 20
-5.3866673565
 30
0.0
  0
VERTEX
  5
6C4
  8
0
  6
CONTINUOUS
 62
     7
 10
211.5786352848
 20
-12.0557453788
 30
0.0
  0
VERTEX
  5
6C5
  8
0
  6
CONTINUOUS
 62
     7
 10
209.9769690727
 20
-19.6481384641
 30
0.0
  0
VERTEX
  5
6C6
  8
0
  6
CONTINUOUS
 62
     7
 10
208.2167843078
 20
-28.1559443405
 30
0.0
  0
SEQEND
  5
750
  8
0
  6
CONTINUOUS
 62
     7
  0
ARC
  5
365
  8
0
  6
CONTINUOUS
 62
     7
 10
201.4839167981
 20
-2.8498364617
 30
0.0
 40
11.81183123796478
 50
347.5979465662
 51
1.2461839818
  0
LINE
  5
366
  8
0
  6
CONTINUOUS
 62
     7
 10
213.2929542755
 20
-2.5929492271
 30
0.0
 11
213.7092182134
 21
-2.5929492271
 31
0.0
  0
POLYLINE
  5
367
  8
0
  6
CONTINUOUS
 62
     7
 66
     1
 10
0.0
 20
0.0
 30
0.0
  0
VERTEX
  5
6C7
  8
0
  6
CONTINUOUS
 62
     7
 10
213.7092182134
 20
-2.5929492271
 30
0.0
  0
VERTEX
  5
6C8
  8
0
  6
CONTINUOUS
 62
     7
 10
213.6311957334
 20
-42.8919969431
 30
0.0
  0
VERTEX
  5
6C9
  8
0
  6
CONTINUOUS
 62
     7
 10
213.7092182134
 20
-75.1107838309
 30
0.0
  0
SEQEND
  5
74F
  8
0
  6
CONTINUOUS
 62
     7
  0
LINE
  5
368
  8
0
  6
CONTINUOUS
 62
     7
 10
213.2929542755
 20
-75.1107838309
 30
0.0
 11
213.7092182134
 21
-75.1107838309
 31
0.0
  0
ARC
  5
369
  8
0
  6
CONTINUOUS
 62
     7
 10
201.4839167981
 20
-74.8538965963
 30
0.0
 40
11.81183123796478
 50
358.7538160182
 51
12.4020534338
  0
POLYLINE
  5
36A
  8
0
  6
CONTINUOUS
 62
     7
 66
     1
 10
0.0
 20
0.0
 30
0.0
  0
VERTEX
  5
6CA
  8
0
  6
CONTINUOUS
 62
     7
 10
213.020114014
 20
-72.3170657015
 30
0.0
  0
VERTEX
  5
6CB
  8
0
  6
CONTINUOUS
 62
     7
 10
211.5786352848
 20
-65.6479876793
 30
0.0
  0
VERTEX
  5
6CC
  8
0
  6
CONTINUOUS
 62
     7
 10
209.9769690727
 20
-58.0555945939
 30
0.0
  0
VERTEX
  5
6CD
  8
0
  6
CONTINUOUS
 62
     7
 10
208.2167843078
 20
-49.5477887175
 30
0.0
  0
SEQEND
  5
74E
  8
0
  6
CONTINUOUS
 62
     7
  0
LINE
  5
36B
  8
0
  6
CONTINUOUS
 62
     7
 10
208.2167843078
 20
-69.4322549111
 30
0.0
 11
208.2167843078
 21
-49.5477887175
 31
0.0
  0
ARC
  5
36C
  8
0
  6
CONTINUOUS
 62
     7
 10
198.6407353674
 20
-74.8436814248
 30
0.0
 40
10.9992840777671
 50
29.4707969312
 51
200.4071156794
  0
POLYLINE
  5
36D
  8
0
  6
CONTINUOUS
 62
     7
 66
     1
 10
0.0
 20
0.0
 30
0.0
  0
VERTEX
  5
6CE
  8
0
  6
CONTINUOUS
 62
     7
 10
159.113747785
 20
-84.4335649467
 30
0.0
  0
VERTEX
  5
6CF
  8
0
  6
CONTINUOUS
 62
     7
 10
167.1038100217
 20
-82.9958636618
 30
0.0
  0
VERTEX
  5
6D0
  8
0
  6
CONTINUOUS
 62
     7
 10
174.6207454895
 20
-81.5479774332
 30
0.0
  0
VERTEX
  5
6D1
  8
0
  6
CONTINUOUS
 62
     7
 10
181.7517259811
 20
-80.0913479483
 30
0.0
  0
VERTEX
  5
6D2
  8
0
  6
CONTINUOUS
 62
     7
 10
188.3317807411
 20
-78.6790047145
 30
0.0
  0
SEQEND
  5
74D
  8
0
  6
CONTINUOUS
 62
     7
  0
POLYLINE
  5
36E
  8
0
  6
CONTINUOUS
 62
     7
 66
     1
 10
0.0
 20
0.0
 30
0.0
  0
VERTEX
  5
6D3
  8
0
  6
CONTINUOUS
 62
     7
 10
-43.8246598746
 20
-84.4335649467
 30
0.0
  0
VERTEX
  5
6D4
  8
0
  6
CONTINUOUS
 62
     7
 10
-33.1353193427
 20
-86.3279383934
 30
0.0
  0
VERTEX
  5
6D5
  8
0
  6
CONTINUOUS
 62
     7
 10
-21.7704048659
 20
-88.1053302741
 30
0.0
  0
VERTEX
  5
6D6
  8
0
  6
CONTINUOUS
 62
     7
 10
-9.8446628357
 20
-89.7149127281
 30
0.0
  0
VERTEX
  5
6D7
  8
0
  6
CONTINUOUS
 62
     7
 10
2.5271678065
 20
-91.1058765209
 30
0.0
  0
VERTEX
  5
6D8
  8
0
  6
CONTINUOUS
 62
     7
 10
15.3284163867
 20
-92.2392923689
 30
0.0
  0
VERTEX
  5
6D9
  8
0
  6
CONTINUOUS
 62
     7
 10
28.4930782114
 20
-93.0925254083
 30
0.0
  0
VERTEX
  5
6DA
  8
0
  6
CONTINUOUS
 62
     7
 10
41.8744122331
 20
-93.64338781
 30
0.0
  0
VERTEX
  5
6DB
  8
0
  6
CONTINUOUS
 62
     7
 10
55.3256867175
 20
-93.8697066462
 30
0.0
  0
VERTEX
  5
6DC
  8
0
  6
CONTINUOUS
 62
     7
 10
62.6445438434
 20
-93.851866231
 30
0.0
  0
VERTEX
  5
6DD
  8
0
  6
CONTINUOUS
 62
     7
 10
75.8808625584
 20
-93.5674514926
 30
0.0
  0
VERTEX
  5
6DE
  8
0
  6
CONTINUOUS
 62
     7
 10
89.0304052924
 20
-92.9699782586
 30
0.0
  0
VERTEX
  5
6DF
  8
0
  6
CONTINUOUS
 62
     7
 10
101.953787515
 20
-92.0821894264
 30
0.0
  0
VERTEX
  5
6E0
  8
0
  6
CONTINUOUS
 62
     7
 10
114.5116181766
 20
-90.9268167174
 30
0.0
  0
VERTEX
  5
6E1
  8
0
  6
CONTINUOUS
 62
     7
 10
126.4024505113
 20
-89.5570125735
 30
0.0
  0
VERTEX
  5
6E2
  8
0
  6
CONTINUOUS
 62
     7
 10
137.868201146
 20
-87.9875142431
 30
0.0
  0
VERTEX
  5
6E3
  8
0
  6
CONTINUOUS
 62
     7
 10
148.8061973547
 20
-86.2643514133
 30
0.0
  0
VERTEX
  5
6E4
  8
0
  6
CONTINUOUS
 62
     7
 10
159.113747785
 20
-84.4335649467
 30
0.0
  0
SEQEND
  5
74C
  8
0
  6
CONTINUOUS
 62
     7
  0
POLYLINE
  5
36F
  8
0
  6
CONTINUOUS
 62
     7
 66
     1
 10
0.0
 20
0.0
 30
0.0
  0
VERTEX
  5
6E5
  8
0
  6
CONTINUOUS
 62
     7
 10
-43.8246598746
 20
-84.4335649467
 30
0.0
  0
VERTEX
  5
6E6
  8
0
  6
CONTINUOUS
 62
     7
 10
-51.8147221114
 20
-82.9958636618
 30
0.0
  0
VERTEX
  5
6E7
  8
0
  6
CONTINUOUS
 62
     7
 10
-59.3316575791
 20
-81.5479774332
 30
0.0
  0
VERTEX
  5
6E8
  8
0
  6
CONTINUOUS
 62
     7
 10
-66.4626380707
 20
-80.0913479483
 30
0.0
  0
VERTEX
  5
6E9
  8
0
  6
CONTINUOUS
 62
     7
 10
-73.0426928307
 20
-78.6790047145
 30
0.0
  0
SEQEND
  5
74B
  8
0
  6
CONTINUOUS
 62
     7
  0
ARC
  5
370
  8
0
  6
CONTINUOUS
 62
     7
 10
-83.351647457
 20
-74.8436814248
 30
0.0
 40
10.99928407776709
 50
339.5928843206
 51
150.5292030688
  0
LINE
  5
371
  8
0
  6
CONTINUOUS
 62
     7
 10
-92.9276963974
 20
-69.4322549111
 30
0.0
 11
-92.9276963974
 21
-49.5477887175
 31
0.0
  0
POLYLINE
  5
372
  8
0
  6
CONTINUOUS
 62
     7
 66
     1
 10
0.0
 20
0.0
 30
0.0
  0
VERTEX
  5
6EA
  8
0
  6
CONTINUOUS
 62
     7
 10
-97.7310261036
 20
-72.3170657015
 30
0.0
  0
VERTEX
  5
6EB
  8
0
  6
CONTINUOUS
 62
     7
 10
-96.2895473744
 20
-65.6479876793
 30
0.0
  0
VERTEX
  5
6EC
  8
0
  6
CONTINUOUS
 62
     7
 10
-94.6878811623
 20
-58.0555945939
 30
0.0
  0
VERTEX
  5
6ED
  8
0
  6
CONTINUOUS
 62
     7
 10
-92.9276963974
 20
-49.5477887175
 30
0.0
  0
SEQEND
  5
74A
  8
0
  6
CONTINUOUS
 62
     7
  0
ARC
  5
373
  8
0
  6
CONTINUOUS
 62
     7
 10
-86.1948288877
 20
-74.8538965963
 30
0.0
 40
11.81183123796474
 50
167.5979465662
 51
181.2461839818
  0
LINE
  5
374
  8
0
  6
CONTINUOUS
 62
     7
 10
-98.0038663651
 20
-75.1107838309
 30
0.0
 11
-98.420130303
 21
-75.1107838309
 31
0.0
  0
POLYLINE
  5
375
  8
0
  6
CONTINUOUS
 62
     7
 66
     1
 10
0.0
 20
0.0
 30
0.0
  0
VERTEX
  5
6EE
  8
0
  6
CONTINUOUS
 62
     7
 10
-98.420130303
 20
-75.1107838309
 30
0.0
  0
VERTEX
  5
6EF
  8
0
  6
CONTINUOUS
 62
     7
 10
-98.342107823
 20
-34.8117361149
 30
0.0
  0
VERTEX
  5
6F0
  8
0
  6
CONTINUOUS
 62
     7
 10
-98.420130303
 20
-2.5929492271
 30
0.0
  0
SEQEND
  5
749
  8
0
  6
CONTINUOUS
 62
     7
  0
LINE
  5
376
  8
0
  6
CONTINUOUS
 62
     7
 10
-98.0038663651
 20
-2.5929492271
 30
0.0
 11
-98.420130303
 21
-2.5929492271
 31
0.0
  0
LINE
  5
377
  8
0
  6
CONTINUOUS
 62
     7
 10
-73.0426928307
 20
0.9752716565
 30
0.0
 11
-73.2436051871
 21
1.4783199572
 31
0.0
  0
POLYLINE
  5
378
  8
0
  6
CONTINUOUS
 62
     7
 66
     1
 10
0.0
 20
0.0
 30
0.0
  0
VERTEX
  5
6F1
  8
0
  6
CONTINUOUS
 62
     7
 10
-12.5279968883
 20
12.9943284833
 30
0.0
  0
VERTEX
  5
6F2
  8
0
  6
CONTINUOUS
 62
     7
 10
-27.873704424
 20
10.7543151521
 30
0.0
  0
VERTEX
  5
6F3
  8
0
  6
CONTINUOUS
 62
     7
 10
-43.0887734796
 20
8.089387759
 30
0.0
  0
VERTEX
  5
6F4
  8
0
  6
CONTINUOUS
 62
     7
 10
-58.2348948623
 20
4.9919541621
 30
0.0
  0
VERTEX
  5
6F5
  8
0
  6
CONTINUOUS
 62
     7
 10
-73.2436051871
 20
1.4783199572
 30
0.0
  0
SEQEND
  5
748
  8
0
  6
CONTINUOUS
 62
     7
  0
LINE
  5
379
  8
0
  6
CONTINUOUS
 62
     7
 10
-12.1701007987
 20
12.9184852981
 30
0.0
 11
-12.5279968883
 21
12.9943284833
 31
0.0
  0
ARC
  5
37A
  8
0
  6
CONTINUOUS
 62
     7
 10
57.6445439552
 20
-533.8291387867
 30
0.0
 40
551.1869444151189
 50
94.0165759046
 51
97.2767656896
  0
LINE
  5
37B
  8
0
  6
CONTINUOUS
 62
     7
 10
19.6023674403
 20
16.2449050391
 30
0.0
 11
19.0366150533
 21
16.0039942407
 31
0.0
  0
POLYLINE
  5
37C
  8
0
  6
CONTINUOUS
 62
     7
 66
     1
 10
0.0
 20
0.0
 30
0.0
  0
VERTEX
  5
6F6
  8
0
  6
CONTINUOUS
 62
     7
 10
95.6867204701
 20
16.2449050391
 30
0.0
  0
VERTEX
  5
6F7
  8
0
  6
CONTINUOUS
 62
     7
 10
76.7438502704
 20
17.2550845587
 30
0.0
  0
VERTEX
  5
6F8
  8
0
  6
CONTINUOUS
 62
     7
 10
57.6447439552
 20
17.5953823769
 30
0.0
  0
VERTEX
  5
6F9
  8
0
  6
CONTINUOUS
 62
     7
 10
38.6235562806
 20
17.2578673506
 30
0.0
  0
VERTEX
  5
6FA
  8
0
  6
CONTINUOUS
 62
     7
 10
19.6023674403
 20
16.2449050391
 30
0.0
  0
SEQEND
  5
747
  8
0
  6
CONTINUOUS
 62
     7
  0
LINE
  5
37D
  8
0
  6
CONTINUOUS
 62
     7
 10
95.6867204701
 20
16.2449050391
 30
0.0
 11
96.2524728571
 21
16.0039942407
 31
0.0
  0
ARC
  5
37E
  8
0
  6
CONTINUOUS
 62
     7
 10
57.6445439552
 20
-533.8291387867
 30
0.0
 40
551.1869444151189
 50
82.7232343104
 51
85.9834240954
  0
LINE
  5
37F
  8
0
  6
CONTINUOUS
 62
     7
 10
127.4591887091
 20
12.9184852981
 30
0.0
 11
127.8170847987
 21
12.9943284833
 31
0.0
  0
POLYLINE
  5
380
  8
0
  6
CONTINUOUS
 62
     7
 66
     1
 10
0.0
 20
0.0
 30
0.0
  0
VERTEX
  5
6FB
  8
0
  6
CONTINUOUS
 62
     7
 10
127.8170847987
 20
12.9943284833
 30
0.0
  0
VERTEX
  5
6FC
  8
0
  6
CONTINUOUS
 62
     7
 10
143.1627923344
 20
10.7543151521
 30
0.0
  0
VERTEX
  5
6FD
  8
0
  6
CONTINUOUS
 62
     7
 10
158.37786139
 20
8.089387759
 30
0.0
  0
VERTEX
  5
6FE
  8
0
  6
CONTINUOUS
 62
     7
 10
173.5239827727
 20
4.9919541621
 30
0.0
  0
VERTEX
  5
6FF
  8
0
  6
CONTINUOUS
 62
     7
 10
188.5326930975
 20
1.4783199572
 30
0.0
  0
SEQEND
  5
746
  8
0
  6
CONTINUOUS
 62
     7
  0
LINE
  5
381
  8
0
  6
CONTINUOUS
 62
     7
 10
188.3317807411
 20
0.9752716565
 30
0.0
 11
188.5326930975
 21
1.4783199572
 31
0.0
  0
LINE
  5
382
  8
0
  6
CONTINUOUS
 62
     7
 10
188.3317807411
 20
-78.6790047145
 30
0.0
 11
188.5326930975
 21
-79.1820530153
 31
0.0
  0
POLYLINE
  5
383
  8
0
  6
CONTINUOUS
 62
     7
 66
     1
 10
0.0
 20
0.0
 30
0.0
  0
VERTEX
  5
700
  8
0
  6
CONTINUOUS
 62
     7
 10
127.8170847987
 20
-90.6980615413
 30
0.0
  0
VERTEX
  5
701
  8
0
  6
CONTINUOUS
 62
     7
 10
143.1627923344
 20
-88.4580482102
 30
0.0
  0
VERTEX
  5
702
  8
0
  6
CONTINUOUS
 62
     7
 10
158.37786139
 20
-85.793120817
 30
0.0
  0
VERTEX
  5
703
  8
0
  6
CONTINUOUS
 62
     7
 10
173.5239827727
 20
-82.6956872201
 30
0.0
  0
VERTEX
  5
704
  8
0
  6
CONTINUOUS
 62
     7
 10
188.5326930975
 20
-79.1820530153
 30
0.0
  0
SEQEND
  5
745
  8
0
  6
CONTINUOUS
 62
     7
  0
LINE
  5
384
  8
0
  6
CONTINUOUS
 62
     7
 10
127.4591887091
 20
-90.6222183562
 30
0.0
 11
127.8170847987
 21
-90.6980615413
 31
0.0
  0
ARC
  5
385
  8
0
  6
CONTINUOUS
 62
     7
 10
57.6445439552
 20
456.1254057287
 30
0.0
 40
551.1869444151189
 50
274.0165759046
 51
277.2767656896
  0
LINE
  5
386
  8
0
  6
CONTINUOUS
 62
     7
 10
95.6867204701
 20
-93.9486380971
 30
0.0
 11
96.2524728571
 21
-93.7077272988
 31
0.0
  0
POLYLINE
  5
387
  8
0
  6
CONTINUOUS
 62
     7
 66
     1
 10
0.0
 20
0.0
 30
0.0
  0
VERTEX
  5
705
  8
0
  6
CONTINUOUS
 62
     7
 10
95.6867204701
 20
-93.9486380971
 30
0.0
  0
VERTEX
  5
706
  8
0
  6
CONTINUOUS
 62
     7
 10
76.7438502704
 20
-94.9588176167
 30
0.0
  0
VERTEX
  5
707
  8
0
  6
CONTINUOUS
 62
     7
 10
57.6447439552
 20
-95.2991154349
 30
0.0
  0
VERTEX
  5
708
  8
0
  6
CONTINUOUS
 62
     7
 10
38.6235562806
 20
-94.9616004086
 30
0.0
  0
VERTEX
  5
709
  8
0
  6
CONTINUOUS
 62
     7
 10
19.6023674403
 20
-93.9486380971
 30
0.0
  0
SEQEND
  5
744
  8
0
  6
CONTINUOUS
 62
     7
  0
LINE
  5
388
  8
0
  6
CONTINUOUS
 62
     7
 10
19.6023674403
 20
-93.9486380971
 30
0.0
 11
19.0366150533
 21
-93.7077272988
 31
0.0
  0
ARC
  5
389
  8
0
  6
CONTINUOUS
 62
     7
 10
57.6445439552
 20
456.1254057287
 30
0.0
 40
551.1869444151189
 50
262.7232343104
 51
265.9834240954
  0
LINE
  5
38A
  8
0
  6
CONTINUOUS
 62
     7
 10
-12.1701007987
 20
-90.6222183562
 30
0.0
 11
-12.5279968883
 21
-90.6980615413
 31
0.0
  0
POLYLINE
  5
38B
  8
0
  6
CONTINUOUS
 62
     7
 66
     1
 10
0.0
 20
0.0
 30
0.0
  0
VERTEX
  5
70A
  8
0
  6
CONTINUOUS
 62
     7
 10
-12.5279968883
 20
-90.6980615413
 30
0.0
  0
VERTEX
  5
70B
  8
0
  6
CONTINUOUS
 62
     7
 10
-27.873704424
 20
-88.4580482102
 30
0.0
  0
VERTEX
  5
70C
  8
0
  6
CONTINUOUS
 62
     7
 10
-43.0887734796
 20
-85.793120817
 30
0.0
  0
VERTEX
  5
70D
  8
0
  6
CONTINUOUS
 62
     7
 10
-58.2348948623
 20
-82.6956872201
 30
0.0
  0
VERTEX
  5
70E
  8
0
  6
CONTINUOUS
 62
     7
 10
-73.2436051871
 20
-79.1820530153
 30
0.0
  0
SEQEND
  5
743
  8
0
  6
CONTINUOUS
 62
     7
  0
LINE
  5
38C
  8
0
  6
CONTINUOUS
 62
     7
 10
-73.0426928307
 20
-78.6790047145
 30
0.0
 11
-73.2436051871
 21
-79.1820530153
 31
0.0
  0
ARC
  5
38D
  8
0
  6
CONTINUOUS
 62
     7
 10
57.6445439552
 20
-587.851866529
 30
0.0
 40
604.3177971895261
 50
102.2609248321
 51
102.5349525484
  0
LINE
  5
38E
  8
0
  6
CONTINUOUS
 62
     7
 10
-70.690797856
 20
2.6818234169
 30
0.0
 11
-70.4513958002
 21
3.9844866538
 31
0.0
  0
POLYLINE
  5
38F
  8
0
  6
CONTINUOUS
 62
     7
 66
     1
 10
0.0
 20
0.0
 30
0.0
  0
VERTEX
  5
70F
  8
0
  6
CONTINUOUS
 62
     7
 10
-12.8736367728
 20
13.5159138286
 30
0.0
  0
VERTEX
  5
710
  8
0
  6
CONTINUOUS
 62
     7
 10
-27.3334032203
 20
11.6538870776
 30
0.0
  0
VERTEX
  5
711
  8
0
  6
CONTINUOUS
 62
     7
 10
-41.7441597487
 20
9.446168288
 30
0.0
  0
VERTEX
  5
712
  8
0
  6
CONTINUOUS
 62
     7
 10
-56.1307465936
 20
6.8876091087
 30
0.0
  0
VERTEX
  5
713
  8
0
  6
CONTINUOUS
 62
     7
 10
-70.4513958002
 20
3.9844866538
 30
0.0
  0
SEQEND
  5
742
  8
0
  6
CONTINUOUS
 62
     7
  0
ARC
  5
390
  8
0
  6
CONTINUOUS
 62
     7
 10
-18.6741335318
 20
9.2967727988
 30
0.0
 40
7.172650394410669
 50
31.0313887255
 51
36.0312361812
  0
POLYLINE
  5
391
  8
0
  6
CONTINUOUS
 62
     7
 66
     1
 10
0.0
 20
0.0
 30
0.0
  0
VERTEX
  5
714
  8
0
  6
CONTINUOUS
 62
     7
 10
-73.5136589314
 20
2.0612831855
 30
0.0
  0
VERTEX
  5
715
  8
0
  6
CONTINUOUS
 62
     7
 10
-73.2598623539
 20
1.5161018514
 30
0.0
  0
VERTEX
  5
716
  8
0
  6
CONTINUOUS
 62
     7
 10
-73.2436051871
 20
1.4783199572
 30
0.0
  0
SEQEND
  5
741
  8
0
  6
CONTINUOUS
 62
     7
  0
ARC
  5
392
  8
0
  6
CONTINUOUS
 62
     7
 10
133.9632214422
 20
9.2967727988
 30
0.0
 40
7.172650394408545
 50
143.9687638188
 51
148.9686112745
  0
POLYLINE
  5
393
  8
0
  6
CONTINUOUS
 62
     7
 66
     1
 10
0.0
 20
0.0
 30
0.0
  0
VERTEX
  5
717
  8
0
  6
CONTINUOUS
 62
     7
 10
128.1627246832
 20
13.5159138286
 30
0.0
  0
VERTEX
  5
718
  8
0
  6
CONTINUOUS
 62
     7
 10
142.6224911307
 20
11.6538870776
 30
0.0
  0
VERTEX
  5
719
  8
0
  6
CONTINUOUS
 62
     7
 10
157.0332476591
 20
9.446168288
 30
0.0
  0
VERTEX
  5
71A
  8
0
  6
CONTINUOUS
 62
     7
 10
171.419834504
 20
6.8876091087
 30
0.0
  0
VERTEX
  5
71B
  8
0
  6
CONTINUOUS
 62
     7
 10
185.7404837106
 20
3.9844866538
 30
0.0
  0
SEQEND
  5
740
  8
0
  6
CONTINUOUS
 62
     7
  0
LINE
  5
394
  8
0
  6
CONTINUOUS
 62
     7
 10
185.9798857664
 20
2.6818234169
 30
0.0
 11
185.7404837106
 21
3.9844866538
 31
0.0
  0
ARC
  5
395
  8
0
  6
CONTINUOUS
 62
     7
 10
57.6445439552
 20
-587.851866529
 30
0.0
 40
604.3177971895252
 50
77.4650474516
 51
77.7390751679
  0
POLYLINE
  5
396
  8
0
  6
CONTINUOUS
 62
     7
 66
     1
 10
0.0
 20
0.0
 30
0.0
  0
VERTEX
  5
71C
  8
0
  6
CONTINUOUS
 62
     7
 10
188.8027468418
 20
2.0612831855
 30
0.0
  0
VERTEX
  5
71D
  8
0
  6
CONTINUOUS
 62
     7
 10
188.5489502643
 20
1.5161018514
 30
0.0
  0
VERTEX
  5
71E
  8
0
  6
CONTINUOUS
 62
     7
 10
188.5326930975
 20
1.4783199572
 30
0.0
  0
SEQEND
  5
73F
  8
0
  6
CONTINUOUS
 62
     7
  0
ARC
  5
397
  8
0
  6
CONTINUOUS
 62
     7
 10
-18.6741335318
 20
-87.0005058569
 30
0.0
 40
7.172650394410664
 50
323.9687638188
 51
328.9686112745
  0
POLYLINE
  5
398
  8
0
  6
CONTINUOUS
 62
     7
 66
     1
 10
0.0
 20
0.0
 30
0.0
  0
VERTEX
  5
71F
  8
0
  6
CONTINUOUS
 62
     7
 10
-12.8736367728
 20
-91.2196468866
 30
0.0
  0
VERTEX
  5
720
  8
0
  6
CONTINUOUS
 62
     7
 10
-27.3334032203
 20
-89.3576201356
 30
0.0
  0
VERTEX
  5
721
  8
0
  6
CONTINUOUS
 62
     7
 10
-41.7441597487
 20
-87.149901346
 30
0.0
  0
VERTEX
  5
722
  8
0
  6
CONTINUOUS
 62
     7
 10
-56.1307465936
 20
-84.5913421667
 30
0.0
  0
VERTEX
  5
723
  8
0
  6
CONTINUOUS
 62
     7
 10
-70.4513958002
 20
-81.6882197118
 30
0.0
  0
SEQEND
  5
73E
  8
0
  6
CONTINUOUS
 62
     7
  0
LINE
  5
399
  8
0
  6
CONTINUOUS
 62
     7
 10
-70.690797856
 20
-80.3855564749
 30
0.0
 11
-70.4513958002
 21
-81.6882197118
 31
0.0
  0
ARC
  5
39A
  8
0
  6
CONTINUOUS
 62
     7
 10
57.6445439552
 20
510.148133471
 30
0.0
 40
604.3177971895261
 50
257.4650474516
 51
257.7390751679
  0
POLYLINE
  5
39B
  8
0
  6
CONTINUOUS
 62
     7
 66
     1
 10
0.0
 20
0.0
 30
0.0
  0
VERTEX
  5
724
  8
0
  6
CONTINUOUS
 62
     7
 10
-73.5136589314
 20
-79.7650162435
 30
0.0
  0
VERTEX
  5
725
  8
0
  6
CONTINUOUS
 62
     7
 10
-73.2598623539
 20
-79.2198349095
 30
0.0
  0
VERTEX
  5
726
  8
0
  6
CONTINUOUS
 62
     7
 10
-73.2436051871
 20
-79.1820530153
 30
0.0
  0
SEQEND
  5
73D
  8
0
  6
CONTINUOUS
 62
     7
  0
ARC
  5
39C
  8
0
  6
CONTINUOUS
 62
     7
 10
57.6445439552
 20
510.148133471
 30
0.0
 40
604.3177971895254
 50
282.2609248321
 51
282.5349525484
  0
LINE
  5
39D
  8
0
  6
CONTINUOUS
 62
     7
 10
185.9798857664
 20
-80.3855564749
 30
0.0
 11
185.7404837106
 21
-81.6882197118
 31
0.0
  0
POLYLINE
  5
39E
  8
0
  6
CONTINUOUS
 62
     7
 66
     1
 10
0.0
 20
0.0
 30
0.0
  0
VERTEX
  5
727
  8
0
  6
CONTINUOUS
 62
     7
 10
128.1627246832
 20
-91.2196468866
 30
0.0
  0
VERTEX
  5
728
  8
0
  6
CONTINUOUS
 62
     7
 10
142.6224911307
 20
-89.3576201356
 30
0.0
  0
VERTEX
  5
729
  8
0
  6
CONTINUOUS
 62
     7
 10
157.0332476591
 20
-87.149901346
 30
0.0
  0
VERTEX
  5
72A
  8
0
  6
CONTINUOUS
 62
     7
 10
171.419834504
 20
-84.5913421667
 30
0.0
  0
VERTEX
  5
72B
  8
0
  6
CONTINUOUS
 62
     7
 10
185.7404837106
 20
-81.6882197118
 30
0.0
  0
SEQEND
  5
73C
  8
0
  6
CONTINUOUS
 62
     7
  0
ARC
  5
39F
  8
0
  6
CONTINUOUS
 62
     7
 10
133.9632214422
 20
-87.0005058569
 30
0.0
 40
7.172650394408548
 50
211.0313887255
 51
216.0312361812
  0
POLYLINE
  5
3A0
  8
0
  6
CONTINUOUS
 62
     7
 66
     1
 10
0.0
 20
0.0
 30
0.0
  0
VERTEX
  5
72C
  8
0
  6
CONTINUOUS
 62
     7
 10
188.8027468418
 20
-79.7650162435
 30
0.0
  0
VERTEX
  5
72D
  8
0
  6
CONTINUOUS
 62
     7
 10
188.5489502643
 20
-79.2198349095
 30
0.0
  0
VERTEX
  5
72E
  8
0
  6
CONTINUOUS
 62
     7
 10
188.5326930975
 20
-79.1820530153
 30
0.0
  0
SEQEND
  5
73B
  8
0
  6
CONTINUOUS
 62
     7
  0
LINE
  5
3A1
  8
0
  6
CONTINUOUS
 62
     7
 10
126.4317014907
 20
27.6122223282
 30
0.0
 11
127.3008489703
 21
27.6730041647
 31
0.0
  0
ARC
  5
3A2
  8
0
  6
CONTINUOUS
 62
     7
 10
112.6445439552
 20
26.648133471
 30
0.0
 40
13.82082496613157
 50
4.0
 51
168.0
  0
LINE
  5
3A3
  8
0
  6
CONTINUOUS
 62
     7
 10
99.1257371102
 20
29.5216422224
 30
0.0
 11
98.2884930168
 21
29.6996067905
 31
0.0
  0
ARC
  5
3A4
  8
0
  6
CONTINUOUS
 62
     7
 10
112.6615189747
 20
26.7801331888
 30
0.0
 40
14.66653337697968
 50
3.4902174727
 51
168.5181897124
  0
LINE
  5
3A5
  8
0
  6
CONTINUOUS
 62
     7
 10
99.1257371102
 20
29.5216422224
 30
0.0
 11
96.2524728571
 21
16.0039942407
 31
0.0
  0
LINE
  5
3A6
  8
0
  6
CONTINUOUS
 62
     7
 10
127.4591887091
 20
12.9184852981
 30
0.0
 11
126.4317014907
 21
27.6122223282
 31
0.0
  0
LINE
  5
3A7
  8
0
  6
CONTINUOUS
 62
     7
 10
-12.1701007987
 20
12.9184852981
 30
0.0
 11
-11.1426135804
 21
27.6122223282
 31
0.0
  0
ARC
  5
3A8
  8
0
  6
CONTINUOUS
 62
     7
 10
2.6445439552
 20
26.648133471
 30
0.0
 40
13.82082496613156
 50
12.0
 51
176.0
  0
LINE
  5
3A9
  8
0
  6
CONTINUOUS
 62
     7
 10
16.1633508001
 20
29.5216422224
 30
0.0
 11
19.0366150533
 21
16.0039942407
 31
0.0
  0
LINE
  5
3AA
  8
0
  6
CONTINUOUS
 62
     7
 10
16.1633508001
 20
29.5216422224
 30
0.0
 11
17.0005948936
 21
29.6996067905
 31
0.0
  0
LINE
  5
3AB
  8
0
  6
CONTINUOUS
 62
     7
 10
-11.1426135804
 20
27.6122223282
 30
0.0
 11
-12.0117610599
 21
27.6730041647
 31
0.0
  0
ARC
  5
3AC
  8
0
  6
CONTINUOUS
 62
     7
 10
2.6275689356
 20
26.7801331888
 30
0.0
 40
14.66653337697967
 50
11.4818102876
 51
176.5097825273
  0
LINE
  5
3AD
  8
0
  6
CONTINUOUS
 62
     7
 10
95.5950597023
 20
16.4297129655
 30
0.0
 11
98.2884930168
 21
29.6996067905
 31
0.0
  0
ARC
  5
3AE
  8
0
  6
CONTINUOUS
 62
     7
 10
89.5302198821
 20
13.306547641
 30
0.0
 40
6.821762506020434
 50
25.5140794207
 51
27.2467710674
  0
LINE
  5
3AF
  8
0
  6
CONTINUOUS
 62
     7
 10
19.6940282081
 20
16.4297129655
 30
0.0
 11
17.0005948936
 21
29.6996067905
 31
0.0
  0
ARC
  5
3B0
  8
0
  6
CONTINUOUS
 62
     7
 10
25.7588680283
 20
13.306547641
 30
0.0
 40
6.821762506020434
 50
152.7532289326
 51
154.4859205793
  0
LINE
  5
3B1
  8
0
  6
CONTINUOUS
 62
     7
 10
127.3008489703
 20
27.6730041647
 30
0.0
 11
128.1627246832
 21
13.5159138286
 31
0.0
  0
LINE
  5
3B2
  8
0
  6
CONTINUOUS
 62
     7
 10
-12.0117610599
 20
27.6730041647
 30
0.0
 11
-12.8736367728
 21
13.5159138286
 31
0.0
  0
ARC
  5
3B3
  8
0
  6
CONTINUOUS
 62
     7
 10
198.6913780798
 20
-2.7331251786
 30
0.0
 40
14.58944734019748
 50
73.0614566421
 51
152.5842898572
  0
ARC
  5
3B4
  8
0
  6
CONTINUOUS
 62
     7
 10
198.6337549524
 20
-2.8818232268
 30
0.0
 40
14.74848751768715
 50
13.706268093
 51
73.015612359
  0
LINE
  5
3B5
  8
0
  6
CONTINUOUS
 62
     7
 10
212.9622528051
 20
0.6127487564
 30
0.0
 11
213.3724221681
 21
-2.5071446157
 31
0.0
  0
LINE
  5
3B6
  8
0
  6
CONTINUOUS
 62
     7
 10
213.3724221681
 20
-2.5071446157
 30
0.0
 11
213.2929542755
 21
-2.5929492271
 31
0.0
  0
LINE
  5
3B7
  8
0
  6
CONTINUOUS
 62
     7
 10
212.2554013227
 20
-5.2518267489
 30
0.0
 11
213.020114014
 21
-5.3866673565
 31
0.0
  0
ARC
  5
3B8
  8
0
  6
CONTINUOUS
 62
     7
 10
198.6445439552
 20
-2.851866529
 30
0.0
 40
13.82082496613159
 50
350.0
 51
156.3975742959
  0
LINE
  5
3B9
  8
0
  6
CONTINUOUS
 62
     7
 10
208.2167843078
 20
-28.1559443405
 30
0.0
 11
212.2554013227
 21
-5.2518267489
 31
0.0
  0
LINE
  5
3BA
  8
0
  6
CONTINUOUS
 62
     7
 10
-92.9276963974
 20
-28.1559443405
 30
0.0
 11
-96.9663134123
 21
-5.2518267489
 31
0.0
  0
ARC
  5
3BB
  8
0
  6
CONTINUOUS
 62
     7
 10
-83.3554560448
 20
-2.851866529
 30
0.0
 40
13.82082496613159
 50
23.6024257041
 51
190.0
  0
LINE
  5
3BC
  8
0
  6
CONTINUOUS
 62
     7
 10
-96.9663134123
 20
-5.2518267489
 30
0.0
 11
-97.7310261036
 21
-5.3866673565
 31
0.0
  0
LINE
  5
3BD
  8
0
  6
CONTINUOUS
 62
     7
 10
-98.0833342577
 20
-2.5071446157
 30
0.0
 11
-98.0038663651
 21
-2.5929492271
 31
0.0
  0
LINE
  5
3BE
  8
0
  6
CONTINUOUS
 62
     7
 10
-97.6731648947
 20
0.6127487564
 30
0.0
 11
-98.0833342577
 21
-2.5071446157
 31
0.0
  0
ARC
  5
3BF
  8
0
  6
CONTINUOUS
 62
     7
 10
-83.3446670421
 20
-2.8818232268
 30
0.0
 40
14.74848751768713
 50
106.984387641
 51
166.293731907
  0
ARC
  5
3C0
  8
0
  6
CONTINUOUS
 62
     7
 10
-83.4022901694
 20
-2.7331251786
 30
0.0
 40
14.58944734019746
 50
27.4157101428
 51
106.9385433579
  0
ARC
  5
3C1
  8
0
  6
CONTINUOUS
 62
     7
 10
-83.3554560448
 20
-74.851866529
 30
0.0
 40
13.82082496613159
 50
170.0
 51
336.3975742959
  0
LINE
  5
3C2
  8
0
  6
CONTINUOUS
 62
     7
 10
-92.9276963974
 20
-49.5477887175
 30
0.0
 11
-96.9663134123
 21
-72.4519063091
 31
0.0
  0
LINE
  5
3C3
  8
0
  6
CONTINUOUS
 62
     7
 10
212.2554013227
 20
-72.4519063091
 30
0.0
 11
213.020114014
 21
-72.3170657015
 31
0.0
  0
LINE
  5
3C4
  8
0
  6
CONTINUOUS
 62
     7
 10
208.2167843078
 20
-49.5477887175
 30
0.0
 11
212.2554013227
 21
-72.4519063091
 31
0.0
  0
ARC
  5
3C5
  8
0
  6
CONTINUOUS
 62
     7
 10
198.6445439552
 20
-74.851866529
 30
0.0
 40
13.82082496613159
 50
203.6024257041
 51
10.0
  0
LINE
  5
3C6
  8
0
  6
CONTINUOUS
 62
     7
 10
-96.9663134123
 20
-72.4519063091
 30
0.0
 11
-97.7310261036
 21
-72.3170657015
 31
0.0
  0
ARC
  5
3C7
  8
0
  6
CONTINUOUS
 62
     7
 10
-83.4022901694
 20
-74.9706078794
 30
0.0
 40
14.58944734019747
 50
253.0614566421
 51
332.5842898572
  0
ARC
  5
3C8
  8
0
  6
CONTINUOUS
 62
     7
 10
-83.3446670421
 20
-74.8219098312
 30
0.0
 40
14.74848751768712
 50
193.706268093
 51
253.015612359
  0
LINE
  5
3C9
  8
0
  6
CONTINUOUS
 62
     7
 10
-97.6731648947
 20
-78.3164818144
 30
0.0
 11
-98.0833342577
 21
-75.1965884423
 31
0.0
  0
LINE
  5
3CA
  8
0
  6
CONTINUOUS
 62
     7
 10
-98.0833342577
 20
-75.1965884423
 30
0.0
 11
-98.0038663651
 21
-75.1107838309
 31
0.0
  0
LINE
  5
3CB
  8
0
  6
CONTINUOUS
 62
     7
 10
213.3724221681
 20
-75.1965884423
 30
0.0
 11
213.2929542755
 21
-75.1107838309
 31
0.0
  0
LINE
  5
3CC
  8
0
  6
CONTINUOUS
 62
     7
 10
212.9622528051
 20
-78.3164818144
 30
0.0
 11
213.3724221681
 21
-75.1965884423
 31
0.0
  0
ARC
  5
3CD
  8
0
  6
CONTINUOUS
 62
     7
 10
198.6337549524
 20
-74.8219098312
 30
0.0
 40
14.74848751768715
 50
286.984387641
 51
346.293731907
  0
ARC
  5
3CE
  8
0
  6
CONTINUOUS
 62
     7
 10
198.6913780798
 20
-74.9706078794
 30
0.0
 40
14.58944734019749
 50
207.4157101428
 51
286.9385433579
  0
LINE
  5
3CF
  8
0
  6
CONTINUOUS
 62
     7
 10
19.6940282081
 20
-94.1334460235
 30
0.0
 11
17.0005948936
 21
-107.4033398485
 31
0.0
  0
LINE
  5
3D0
  8
0
  6
CONTINUOUS
 62
     7
 10
16.1633508001
 20
-107.2253752804
 30
0.0
 11
17.0005948936
 21
-107.4033398485
 31
0.0
  0
LINE
  5
3D1
  8
0
  6
CONTINUOUS
 62
     7
 10
16.1633508001
 20
-107.2253752804
 30
0.0
 11
19.0366150533
 21
-93.7077272988
 31
0.0
  0
ARC
  5
3D2
  8
0
  6
CONTINUOUS
 62
     7
 10
25.7588680283
 20
-91.010280699
 30
0.0
 40
6.821762506020431
 50
205.5140794207
 51
207.2467710674
  0
LINE
  5
3D3
  8
0
  6
CONTINUOUS
 62
     7
 10
127.3008489703
 20
-105.3767372227
 30
0.0
 11
128.1627246832
 21
-91.2196468866
 31
0.0
  0
LINE
  5
3D4
  8
0
  6
CONTINUOUS
 62
     7
 10
126.4317014907
 20
-105.3159553862
 30
0.0
 11
127.3008489703
 21
-105.3767372227
 31
0.0
  0
LINE
  5
3D5
  8
0
  6
CONTINUOUS
 62
     7
 10
127.4591887091
 20
-90.6222183562
 30
0.0
 11
126.4317014907
 21
-105.3159553862
 31
0.0
  0
LINE
  5
3D6
  8
0
  6
CONTINUOUS
 62
     7
 10
99.1257371102
 20
-107.2253752804
 30
0.0
 11
96.2524728571
 21
-93.7077272988
 31
0.0
  0
LINE
  5
3D7
  8
0
  6
CONTINUOUS
 62
     7
 10
99.1257371102
 20
-107.2253752804
 30
0.0
 11
98.2884930168
 21
-107.4033398485
 31
0.0
  0
LINE
  5
3D8
  8
0
  6
CONTINUOUS
 62
     7
 10
95.5950597023
 20
-94.1334460235
 30
0.0
 11
98.2884930168
 21
-107.4033398485
 31
0.0
  0
ARC
  5
3D9
  8
0
  6
CONTINUOUS
 62
     7
 10
89.5302198821
 20
-91.010280699
 30
0.0
 40
6.821762506020431
 50
332.7532289326
 51
334.4859205793
  0
ARC
  5
3DA
  8
0
  6
CONTINUOUS
 62
     7
 10
112.6445439552
 20
-104.351866529
 30
0.0
 40
13.82082496613157
 50
192.0
 51
356.0
  0
LINE
  5
3DB
  8
0
  6
CONTINUOUS
 62
     7
 10
-12.1701007987
 20
-90.6222183562
 30
0.0
 11
-11.1426135804
 21
-105.3159553862
 31
0.0
  0
LINE
  5
3DC
  8
0
  6
CONTINUOUS
 62
     7
 10
-11.1426135804
 20
-105.3159553862
 30
0.0
 11
-12.0117610599
 21
-105.3767372227
 31
0.0
  0
LINE
  5
3DD
  8
0
  6
CONTINUOUS
 62
     7
 10
-12.0117610599
 20
-105.3767372227
 30
0.0
 11
-12.8736367728
 21
-91.2196468866
 31
0.0
  0
ARC
  5
3DE
  8
0
  6
CONTINUOUS
 62
     7
 10
2.6445439552
 20
-104.351866529
 30
0.0
 40
13.82082496613156
 50
184.0
 51
348.0
  0
ARC
  5
3DF
  8
0
  6
CONTINUOUS
 62
     7
 10
112.6615189747
 20
-104.4838662468
 30
0.0
 40
14.66653337697968
 50
191.4818102876
 51
356.5097825273
  0
ARC
  5
3E0
  8
0
  6
CONTINUOUS
 62
     7
 10
2.6275689356
 20
-104.4838662468
 30
0.0
 40
14.66653337697966
 50
183.4902174727
 51
348.5181897124
  0
POLYLINE
  5
3E1
  8
0
  6
CONTINUOUS
 62
     7
 66
     1
 10
0.0
 20
0.0
 30
0.0
  0
VERTEX
  5
72F
  8
0
  6
CONTINUOUS
 62
     7
 10
95.5950597023
 20
16.4297129655
 30
0.0
  0
VERTEX
  5
730
  8
0
  6
CONTINUOUS
 62
     7
 10
76.6384785716
 20
17.3172894561
 30
0.0
  0
VERTEX
  5
731
  8
0
  6
CONTINUOUS
 62
     7
 10
57.6447439552
 20
17.6136362994
 30
0.0
  0
VERTEX
  5
732
  8
0
  6
CONTINUOUS
 62
     7
 10
38.6693866645
 20
17.317878052
 30
0.0
  0
VERTEX
  5
733
  8
0
  6
CONTINUOUS
 62
     7
 10
19.6940282081
 20
16.4297129655
 30
0.0
  0
SEQEND
  5
73A
  8
0
  6
CONTINUOUS
 62
     7
  0
POLYLINE
  5
3E2
  8
0
  6
CONTINUOUS
 62
     7
 66
     1
 10
0.0
 20
0.0
 30
0.0
  0
VERTEX
  5
734
  8
0
  6
CONTINUOUS
 62
     7
 10
95.5950597023
 20
-94.1334460235
 30
0.0
  0
VERTEX
  5
735
  8
0
  6
CONTINUOUS
 62
     7
 10
76.6384785716
 20
-95.0210225141
 30
0.0
  0
VERTEX
  5
736
  8
0
  6
CONTINUOUS
 62
     7
 10
57.6447439552
 20
-95.3173693574
 30
0.0
  0
VERTEX
  5
737
  8
0
  6
CONTINUOUS
 62
     7
 10
38.6693866645
 20
-95.02161111
 30
0.0
  0
VERTEX
  5
738
  8
0
  6
CONTINUOUS
 62
     7
 10
19.6940282081
 20
-94.1334460235
 30
0.0
  0
SEQEND
  5
739
  8
0
  6
CONTINUOUS
 62
     7
  0
LINE
  5
3E3
  8
0
  6
CONTINUOUS
 62
     7
 10
-87.6528641488
 20
11.2233999812
 30
0.0
 11
-91.2242105509
 21
21.4258003676
 31
0.0
  0
ARC
  5
3E4
  8
0
  6
CONTINUOUS
 62
     7
 10
57.6445439552
 20
-403.851866529
 30
0.0
 40
450.5807377657358
 50
70.7073638805
 51
109.2926361195
  0
LINE
  5
3E5
  8
0
  6
CONTINUOUS
 62
     7
 10
202.9419520591
 20
11.2233999812
 30
0.0
 11
206.5132984613
 21
21.4258003676
 31
0.0
  0
LINE
  5
3E6
  8
0
  6
CONTINUOUS
 62
     7
 10
-87.6528641488
 20
-88.9271330393
 30
0.0
 11
-91.2242105509
 21
-99.1295334256
 31
0.0
  0
LINE
  5
3E7
  8
0
  6
CONTINUOUS
 62
     7
 10
202.9419520591
 20
-88.9271330393
 30
0.0
 11
206.5132984613
 21
-99.1295334256
 31
0.0
  0
ARC
  5
3E8
  8
0
  6
CONTINUOUS
 62
     7
 10
57.6445439552
 20
326.148133471
 30
0.0
 40
450.5807377657358
 50
250.7073638805
 51
289.2926361195
  0
LINE
  5
3E9
  8
0
  6
CONTINUOUS
 62
     7
 10
213.3724221681
 20
-2.5071446157
 30
0.0
 11
213.7092182134
 21
-2.5929492271
 31
0.0
  0
LINE
  5
3EA
  8
0
  6
CONTINUOUS
 62
     7
 10
-98.0833342577
 20
-2.5071446157
 30
0.0
 11
-98.420130303
 21
-2.5929492271
 31
0.0
  0
LINE
  5
3EB
  8
0
  6
CONTINUOUS
 62
     7
 10
213.3724221681
 20
-75.1965884423
 30
0.0
 11
213.7092182134
 21
-75.1107838309
 31
0.0
  0
LINE
  5
3EC
  8
0
  6
CONTINUOUS
 62
     7
 10
-98.0833342577
 20
-75.1965884423
 30
0.0
 11
-98.420130303
 21
-75.1107838309
 31
0.0
  0
LINE
  5
3ED
  8
0
  6
CONTINUOUS
 62
     7
 10
-97.6731648947
 20
0.6127487564
 30
0.0
 11
-106.8938097264
 21
1.5474352681
 31
0.0
  0
ARC
  5
3EE
  8
0
  6
CONTINUOUS
 62
     7
 10
-83.4333050257
 20
-0.8307249906
 30
0.0
 40
23.58073776573579
 50
109.2926361195
 51
174.2117750167
  0
ARC
  5
3EF
  8
0
  6
CONTINUOUS
 62
     7
 10
198.7223929361
 20
-0.8307249906
 30
0.0
 40
23.58073776573579
 50
5.7882249833
 51
70.7073638805
  0
LINE
  5
3F0
  8
0
  6
CONTINUOUS
 62
     7
 10
212.9622528051
 20
0.6127487564
 30
0.0
 11
222.1828976368
 21
1.5474352681
 31
0.0
  0
ARC
  5
3F1
  8
0
  6
CONTINUOUS
 62
     7
 10
-83.4333050257
 20
-76.8730080674
 30
0.0
 40
23.58073776573579
 50
185.7882249833
 51
250.7073638805
  0
LINE
  5
3F2
  8
0
  6
CONTINUOUS
 62
     7
 10
-97.6731648947
 20
-78.3164818144
 30
0.0
 11
-106.8938097264
 21
-79.2511683262
 31
0.0
  0
LINE
  5
3F3
  8
0
  6
CONTINUOUS
 62
     7
 10
212.9622528051
 20
-78.3164818144
 30
0.0
 11
222.1828976368
 21
-79.2511683262
 31
0.0
  0
ARC
  5
3F4
  8
0
  6
CONTINUOUS
 62
     7
 10
198.7223929361
 20
-76.8730080674
 30
0.0
 40
23.58073776573579
 50
289.2926361195
 51
354.2117750167
  0
ARC
  5
3F5
  8
0
  6
CONTINUOUS
 62
     7
 10
291.6445439552
 20
-38.851866529
 30
0.0
 40
400.5807377657358
 50
174.2117750167
 51
185.7882249833
  0
ARC
  5
3F6
  8
0
  6
CONTINUOUS
 62
     7
 10
-176.3554560448
 20
-38.851866529
 30
0.0
 40
400.5807377657358
 50
354.2117750167
 51
5.7882249833
  0
LINE
  5
3F7
  8
0
  6
CONTINUOUS
 62
     7
 10
-91.3627317454
 20
21.8215156042
 30
0.0
 11
-91.2242105509
 21
21.4258003676
 31
0.0
  0
ARC
  5
3F8
  8
0
  6
CONTINUOUS
 62
     7
 10
57.6445439552
 20
-403.851866529
 30
0.0
 40
451.0
 50
70.7073638805
 51
109.2926361195
  0
LINE
  5
3F9
  8
0
  6
CONTINUOUS
 62
     7
 10
206.6518196558
 20
21.8215156042
 30
0.0
 11
206.5132984613
 21
21.4258003676
 31
0.0
  0
LINE
  5
3FA
  8
0
  6
CONTINUOUS
 62
     7
 10
-107.3109379317
 20
1.589717313
 30
0.0
 11
-106.8938097264
 21
1.5474352681
 31
0.0
  0
ARC
  5
3FB
  8
0
  6
CONTINUOUS
 62
     7
 10
-83.4333050257
 20
-0.8307249906
 30
0.0
 40
24.00000000000009
 50
109.2926361195
 51
174.2117750167
  0
ARC
  5
3FC
  8
0
  6
CONTINUOUS
 62
     7
 10
198.7223929361
 20
-0.8307249906
 30
0.0
 40
24.00000000000009
 50
5.7882249833
 51
70.7073638805
  0
LINE
  5
3FD
  8
0
  6
CONTINUOUS
 62
     7
 10
222.6000258421
 20
1.589717313
 30
0.0
 11
222.1828976368
 21
1.5474352681
 31
0.0
  0
ARC
  5
3FE
  8
0
  6
CONTINUOUS
 62
     7
 10
-176.3554560448
 20
-38.851866529
 30
0.0
 40
401.0000000000002
 50
354.2117750167
 51
5.7882249833
  0
LINE
  5
3FF
  8
0
  6
CONTINUOUS
 62
     7
 10
222.6000258421
 20
-79.293450371
 30
0.0
 11
222.1828976368
 21
-79.2511683262
 31
0.0
  0
LINE
  5
400
  8
0
  6
CONTINUOUS
 62
     7
 10
-107.3109379317
 20
-79.293450371
 30
0.0
 11
-106.8938097264
 21
-79.2511683262
 31
0.0
  0
ARC
  5
401
  8
0
  6
CONTINUOUS
 62
     7
 10
291.6445439552
 20
-38.851866529
 30
0.0
 40
401.0000000000002
 50
174.2117750167
 51
185.7882249833
  0
ARC
  5
402
  8
0
  6
CONTINUOUS
 62
     7
 10
198.7223929361
 20
-76.8730080674
 30
0.0
 40
24.00000000000009
 50
289.2926361195
 51
354.2117750167
  0
LINE
  5
403
  8
0
  6
CONTINUOUS
 62
     7
 10
206.6518196558
 20
-99.5252486623
 30
0.0
 11
206.5132984613
 21
-99.1295334256
 31
0.0
  0
ARC
  5
404
  8
0
  6
CONTINUOUS
 62
     7
 10
-83.4333050257
 20
-76.8730080674
 30
0.0
 40
24.00000000000009
 50
185.7882249833
 51
250.7073638805
  0
LINE
  5
405
  8
0
  6
CONTINUOUS
 62
     7
 10
-91.3627317454
 20
-99.5252486623
 30
0.0
 11
-91.2242105509
 21
-99.1295334256
 31
0.0
  0
ARC
  5
406
  8
0
  6
CONTINUOUS
 62
     7
 10
57.6445439552
 20
326.148133471
 30
0.0
 40
451.0
 50
250.7073638805
 51
289.2926361195
  0
LINE
  5
407
  8
0
  6
CONTINUOUS
 62
     7
 10
227.6445457433
 20
56.1481322789
 30
0.0
 11
-112.3554578329
 21
56.1481322789
 31
0.0
  0
LINE
  5
408
  8
0
  6
CONTINUOUS
 62
     7
 10
227.6445457433
 20
73.1481369281
 30
0.0
 11
-112.3554578329
 21
73.1481369281
 31
0.0
  0
LINE
  5
409
  8
0
  6
CONTINUOUS
 62
     7
 10
227.6445457433
 20
-150.8518699861
 30
0.0
 11
-112.3554578329
 21
-150.8518699861
 31
0.0
  0
LINE
  5
40A
  8
0
  6
CONTINUOUS
 62
     7
 10
227.6445457433
 20
-133.8518653369
 30
0.0
 11
-112.3554578329
 21
-133.8518653369
 31
0.0
  0
LINE
  5
40B
  8
0
  6
CONTINUOUS
 62
     7
 10
189.1445496772
 20
76.1481355572
 30
0.0
 11
-73.8554617669
 21
76.1481355572
 31
0.0
  0
LINE
  5
40C
  8
0
  6
CONTINUOUS
 62
     7
 10
189.1445496772
 20
-153.8518686152
 30
0.0
 11
-73.8554617669
 21
-153.8518686152
 31
0.0
  0
LINE
  5
40D
  8
0
  6
CONTINUOUS
 62
     8
 10
170.2547797655
 20
51.2929837847
 30
0.0
 11
-54.9656918551
 21
51.2929837847
 31
0.0
  0
LINE
  5
40E
  8
0
  6
CONTINUOUS
 62
     8
 10
170.2547797655
 20
-128.9967168427
 30
0.0
 11
-54.9656918551
 21
-128.9967168427
 31
0.0
  0
INSERT
  5
41A
  8
FORMAT
  2
SW_CENTERMARKSYMBOL_1
 10
57.6445439552
 20
-38.851866529
 30
0.0
  0
ENDSEC
  0
EOF
