  0
SECTION
  2
HEADER
  9
$ACADVER
  1
AC1015
  9
$ACADMAINTVER
 70
     6
  9
$DWGCODEPAGE
  3
ANSI_1252
  9
$INSBASE
 10
0.0
 20
0.0
 30
0.0
  9
$EXTMIN
 10
0.0
 20
0.0
 30
0.0
  9
$EXTMAX
 10
594.0
 20
420.0
 30
0.0
  9
$LIMMIN
 10
0.0
 20
0.0
  9
$LIMMAX
 10
594.0
 20
420.0
  9
$ORTHOMODE
 70
     0
  9
$REGENMODE
 70
     1
  9
$FILLMODE
 70
     1
  9
$QTEXTMODE
 70
     0
  9
$MIRRTEXT
 70
     1
  9
$LTSCALE
 40
1.0
  9
$ATTMODE
 70
     1
  9
$TEXTSIZE
 40
2.5
  9
$TRACEWID
 40
1.0
  9
$TEXTSTYLE
  7
Standard
  9
$CLAYER
  8
0
  9
$CELTYPE
  6
ByLayer
  9
$CECOLOR
 62
   256
  9
$CELTSCALE
 40
1.0
  9
$DISPSILH
 70
     0
  9
$DIMSCALE
 40
1.0
  9
$DIMASZ
 40
2.5
  9
$DIMEXO
 40
1.0
  9
$DIMDLI
 40
3.75
  9
$DIMRND
 40
0.0
  9
$DIMDLE
 40
0.0
  9
$DIMEXE
 40
1.0
  9
$DIMTP
 40
0.0
  9
$DIMTM
 40
0.0
  9
$DIMTXT
 40
2.5
  9
$DIMCEN
 40
2.5
  9
$DIMTSZ
 40
0.0
  9
$DIMTOL
 70
     0
  9
$DIMLIM
 70
     0
  9
$DIMTIH
 70
     1
  9
$DIMTOH
 70
     1
  9
$DIMSE1
 70
     0
  9
$DIMSE2
 70
     0
  9
$DIMTAD
 70
     1
  9
$DIMZIN
 70
     0
  9
$DIMBLK
  1

  9
$DIMASO
 70
     1
  9
$DIMSHO
 70
     1
  9
$DIMPOST
  1

  9
$DIMAPOST
  1

  9
$DIMALT
 70
     0
  9
$DIMALTD
 70
     3
  9
$DIMALTF
 40
0.0393700787
  9
$DIMLFAC
 40
1.0
  9
$DIMTOFL
 70
     1
  9
$DIMTVP
 40
0.0
  9
$DIMTIX
 70
     0
  9
$DIMSOXD
 70
     0
  9
$DIMSAH
 70
     0
  9
$DIMBLK1
  1

  9
$DIMBLK2
  1

  9
$DIMSTYLE
  2
ISO-25
  9
$DIMCLRD
 70
     0
  9
$DIMCLRE
 70
     0
  9
$DIMCLRT
 70
     0
  9
$DIMTFAC
 40
1.0
  9
$DIMGAP
 40
1.524
  9
$DIMJUST
 70
     0
  9
$DIMSD1
 70
     0
  9
$DIMSD2
 70
     0
  9
$DIMTOLJ
 70
     0
  9
$DIMTZIN
 70
     0
  9
$DIMALTZ
 70
     0
  9
$DIMALTTZ
 70
     0
  9
$DIMUPT
 70
     0
  9
$DIMDEC
 70
     2
  9
$DIMTDEC
 70
     2
  9
$DIMALTU
 70
     2
  9
$DIMALTTD
 70
     3
  9
$DIMTXSTY
  7
Standard
  9
$DIMAUNIT
 70
     0
  9
$DIMADEC
 70
     2
  9
$DIMALTRND
 40
0.0
  9
$DIMAZIN
 70
     0
  9
$DIMDSEP
 70
    44
  9
$DIMATFIT
 70
     3
  9
$DIMFRAC
 70
     0
  9
$DIMLDRBLK
  1

  9
$DIMLUNIT
 70
     2
  9
$DIMLWD
 70
    -2
  9
$DIMLWE
 70
    -2
  9
$DIMTMOVE
 70
     0
  9
$LUNITS
 70
     2
  9
$LUPREC
 70
     2
  9
$SKETCHINC
 40
1.0
  9
$FILLETRAD
 40
10.0
  9
$AUNITS
 70
     0
  9
$AUPREC
 70
     2
  9
$MENU
  1
.
  9
$ELEVATION
 40
0.0
  9
$PELEVATION
 40
0.0
  9
$THICKNESS
 40
0.0
  9
$LIMCHECK
 70
     0
  9
$CHAMFERA
 40
10.0
  9
$CHAMFERB
 40
10.0
  9
$CHAMFERC
 40
20.0
  9
$CHAMFERD
 40
0.0
  9
$SKPOLY
 70
     0
  9
$TDCREATE
 40
2458052.437331528
  9
$TDUCREATE
 40
2458052.353998194
  9
$TDUPDATE
 40
2458052.437332975
  9
$TDUUPDATE
 40
2458052.353999641
  9
$TDINDWG
 40
0.0000000116
  9
$TDUSRTIMER
 40
0.0000000116
  9
$USRTIMER
 70
     1
  9
$ANGBASE
 50
0.0
  9
$ANGDIR
 70
     0
  9
$PDMODE
 70
     0
  9
$PDSIZE
 40
-1.0
  9
$PLINEWID
 40
0.0
  9
$SPLFRAME
 70
     0
  9
$SPLINETYPE
 70
     6
  9
$SPLINESEGS
 70
     8
  9
$HANDSEED
  5
3BD
  9
$SURFTAB1
 70
     6
  9
$SURFTAB2
 70
     6
  9
$SURFTYPE
 70
     6
  9
$SURFU
 70
     6
  9
$SURFV
 70
     6
  9
$UCSBASE
  2

  9
$UCSNAME
  2

  9
$UCSORG
 10
0.0
 20
0.0
 30
0.0
  9
$UCSXDIR
 10
1.0
 20
0.0
 30
0.0
  9
$UCSYDIR
 10
0.0
 20
1.0
 30
0.0
  9
$UCSORTHOREF
  2

  9
$UCSORTHOVIEW
 70
     0
  9
$UCSORGTOP
 10
0.0
 20
0.0
 30
0.0
  9
$UCSORGBOTTOM
 10
0.0
 20
0.0
 30
0.0
  9
$UCSORGLEFT
 10
0.0
 20
0.0
 30
0.0
  9
$UCSORGRIGHT
 10
0.0
 20
0.0
 30
0.0
  9
$UCSORGFRONT
 10
0.0
 20
0.0
 30
0.0
  9
$UCSORGBACK
 10
0.0
 20
0.0
 30
0.0
  9
$PUCSBASE
  2

  9
$PUCSNAME
  2

  9
$PUCSORG
 10
0.0
 20
0.0
 30
0.0
  9
$PUCSXDIR
 10
1.0
 20
0.0
 30
0.0
  9
$PUCSYDIR
 10
0.0
 20
1.0
 30
0.0
  9
$PUCSORTHOREF
  2

  9
$PUCSORTHOVIEW
 70
     0
  9
$PUCSORGTOP
 10
0.0
 20
0.0
 30
0.0
  9
$PUCSORGBOTTOM
 10
0.0
 20
0.0
 30
0.0
  9
$PUCSORGLEFT
 10
0.0
 20
0.0
 30
0.0
  9
$PUCSORGRIGHT
 10
0.0
 20
0.0
 30
0.0
  9
$PUCSORGFRONT
 10
0.0
 20
0.0
 30
0.0
  9
$PUCSORGBACK
 10
0.0
 20
0.0
 30
0.0
  9
$USERI1
 70
     0
  9
$USERI2
 70
     0
  9
$USERI3
 70
     0
  9
$USERI4
 70
     0
  9
$USERI5
 70
     0
  9
$USERR1
 40
0.0
  9
$USERR2
 40
0.0
  9
$USERR3
 40
0.0
  9
$USERR4
 40
0.0
  9
$USERR5
 40
0.0
  9
$WORLDVIEW
 70
     1
  9
$SHADEDGE
 70
     3
  9
$SHADEDIF
 70
    70
  9
$TILEMODE
 70
     1
  9
$MAXACTVP
 70
    64
  9
$PINSBASE
 10
0.0
 20
0.0
 30
0.0
  9
$PLIMCHECK
 70
     0
  9
$PEXTMIN
 10
1.0000000000E+20
 20
1.0000000000E+20
 30
1.0000000000E+20
  9
$PEXTMAX
 10
-1.0000000000E+20
 20
-1.0000000000E+20
 30
-1.0000000000E+20
  9
$PLIMMIN
 10
0.0
 20
0.0
  9
$PLIMMAX
 10
420.0
 20
297.0
  9
$UNITMODE
 70
     0
  9
$VISRETAIN
 70
     1
  9
$PLINEGEN
 70
     0
  9
$PSLTSCALE
 70
     1
  9
$TREEDEPTH
 70
  3020
  9
$CMLSTYLE
  2
Standard
  9
$CMLJUST
 70
     0
  9
$CMLSCALE
 40
20.0
  9
$PROXYGRAPHICS
 70
     1
  9
$MEASUREMENT
 70
     1
  9
$CELWEIGHT
370
    -1
  9
$ENDCAPS
280
     0
  9
$JOINSTYLE
280
     0
  9
$LWDISPLAY
290
     1
  9
$INSUNITS
 70
     4
  9
$HYPERLINKBASE
  1

  9
$STYLESHEET
  1

  9
$XEDIT
290
     1
  9
$CEPSNTYPE
380
     0
  9
$PSTYLEMODE
290
     1
  9
$FINGERPRINTGUID
  2
{87AF88C2-5BDD-4F15-B481-112AA1BD901E}
  9
$VERSIONGUID
  2
{FAEB1C32-E019-11D5-929B-00C0DF256EC4}
  9
$EXTNAMES
290
     1
  9
$PSVPSCALE
 40
0.0
  9
$OLESTARTUP
290
     0
  0
ENDSEC
  0
SECTION
  2
CLASSES
  0
CLASS
  1
ACDBDICTIONARYWDFLT
  2
AcDbDictionaryWithDefault
  3
ObjectDBX Classes
 90
        0
280
     0
281
     0
  0
CLASS
  1
VISUALSTYLE
  2
AcDbVisualStyle
  3
ObjectDBX Classes
 90
     4095
280
     0
281
     0
  0
CLASS
  1
MATERIAL
  2
AcDbMaterial
  3
ObjectDBX Classes
 90
     1153
280
     0
281
     0
  0
CLASS
  1
ACDBPLACEHOLDER
  2
AcDbPlaceHolder
  3
ObjectDBX Classes
 90
        0
280
     0
281
     0
  0
CLASS
  1
LAYOUT
  2
AcDbLayout
  3
ObjectDBX Classes
 90
        0
280
     0
281
     0
  0
ENDSEC
  0
SECTION
  2
TABLES
  0
TABLE
  2
VPORT
  5
8
330
0
100
AcDbSymbolTable
 70
     1
  0
VPORT
  5
29
330
8
100
AcDbSymbolTableRecord
100
AcDbViewportTableRecord
  2
*Active
 70
     0
 10
0.0
 20
0.0
 11
1.0
 21
1.0
 12
297.0
 22
210.0
 13
0.0
 23
0.0
 14
10.0
 24
10.0
 15
10.0
 25
10.0
 16
0.0
 26
0.0
 36
1.0
 17
0.0
 27
0.0
 37
0.0
 40
420.0
 41
1.4142857143
 42
50.0
 43
0.0
 44
0.0
 50
0.0
 51
0.0
 71
     0
 72
  2000
 73
     1
 74
     3
 75
     0
 76
     0
 77
     0
 78
     0
281
     0
 65
     1
110
0.0
120
0.0
130
0.0
111
1.0
121
0.0
131
0.0
112
0.0
122
1.0
132
0.0
 79
     0
146
0.0
  0
ENDTAB
  0
TABLE
  2
LTYPE
  5
5
330
0
100
AcDbSymbolTable
 70
     6
  0
LTYPE
  5
14
330
5
100
AcDbSymbolTableRecord
100
AcDbLinetypeTableRecord
  2
ByBlock
 70
     0
  3

 72
    65
 73
     0
 40
0.0
  0
LTYPE
  5
15
330
5
100
AcDbSymbolTableRecord
100
AcDbLinetypeTableRecord
  2
ByLayer
 70
     0
  3

 72
    65
 73
     0
 40
0.0
  0
LTYPE
  5
16
330
5
100
AcDbSymbolTableRecord
100
AcDbLinetypeTableRecord
  2
Continuous
 70
     0
  3
Solid line
 72
    65
 73
     0
 40
0.0
  0
LTYPE
  5
3F
330
5
100
AcDbSymbolTableRecord
100
AcDbLinetypeTableRecord
  2
HIDDEN
 70
     0
  3
Hidden __ __ __ __ __ __ __ __ __ __ __ __ __ __
 72
    65
 73
     2
 40
1.905
 49
1.27
 74
     0
 49
-0.635
 74
     0
  0
LTYPE
  5
40
330
5
100
AcDbSymbolTableRecord
100
AcDbLinetypeTableRecord
  2
PHANTOM
 70
     0
  3
Phantom ______  __  __  ______  __  __  ______
 72
    65
 73
     6
 40
12.7
 49
6.35
 74
     0
 49
-1.27
 74
     0
 49
1.27
 74
     0
 49
-1.27
 74
     0
 49
1.27
 74
     0
 49
-1.27
 74
     0
  0
LTYPE
  5
41
330
5
100
AcDbSymbolTableRecord
100
AcDbLinetypeTableRecord
  2
CENTER
 70
     0
  3
Center ____ _ ____ _ ____ _ ____ _ ____ _ ____
 72
    65
 73
     4
 40
10.16
 49
6.35
 74
     0
 49
-1.27
 74
     0
 49
1.27
 74
     0
 49
-1.27
 74
     0
  0
LTYPE
  5
42
330
5
100
AcDbSymbolTableRecord
100
AcDbLinetypeTableRecord
  2
CENTERX2
 70
     0
  3
Center (2x) ________  __  ________  __  _____
 72
    65
 73
     4
 40
20.32
 49
12.7
 74
     0
 49
-2.54
 74
     0
 49
2.54
 74
     0
 49
-2.54
 74
     0
  0
LTYPE
  5
43
330
5
100
AcDbSymbolTableRecord
100
AcDbLinetypeTableRecord
  2
DOT2
 70
     0
  3
Dot (.5x) ........................................
 72
    65
 73
     2
 40
0.635
 49
0.0
 74
     0
 49
-0.635
 74
     0
  0
ENDTAB
  0
TABLE
  2
LAYER
  5
2
330
0
100
AcDbSymbolTable
 70
     3
  0
LAYER
  5
10
330
2
100
AcDbSymbolTableRecord
100
AcDbLayerTableRecord
  2
0
 70
     0
 62
     7
  6
Continuous
370
    -3
390
F
  0
LAYER
  5
44
330
2
100
AcDbSymbolTableRecord
100
AcDbLayerTableRecord
  2
FORMAT
 70
     0
 62
     7
  6
Continuous
370
    -3
390
F
  0
LAYER
  5
45
330
2
100
AcDbSymbolTableRecord
100
AcDbLayerTableRecord
  2
PROTOTYPE
 70
     0
 62
     7
  6
Continuous
370
    -3
390
F
  0
ENDTAB
  0
TABLE
  2
STYLE
  5
3
330
0
100
AcDbSymbolTable
 70
     1
  0
STYLE
  5
11
330
3
100
AcDbSymbolTableRecord
100
AcDbTextStyleTableRecord
  2
Standard
 70
     0
 40
0.0
 41
1.0
 50
0.0
 71
     0
 42
2.5
  3
txt
  4

  0
ENDTAB
  0
TABLE
  2
VIEW
  5
6
330
0
100
AcDbSymbolTable
 70
     0
  0
ENDTAB
  0
TABLE
  2
UCS
  5
7
330
0
100
AcDbSymbolTable
 70
     0
  0
ENDTAB
  0
TABLE
  2
APPID
  5
9
330
0
100
AcDbSymbolTable
 70
     1
  0
APPID
  5
12
330
9
100
AcDbSymbolTableRecord
100
AcDbRegAppTableRecord
  2
ACAD
 70
     0
  0
ENDTAB
  0
TABLE
  2
DIMSTYLE
  5
A
330
0
100
AcDbSymbolTable
 70
     1
100
AcDbDimStyleTable
  0
DIMSTYLE
105
27
330
A
100
AcDbSymbolTableRecord
100
AcDbDimStyleTableRecord
  2
ISO-25
 70
     0
 41
2.5
 42
0.625
 43
3.75
 44
1.25
 73
     0
 74
     0
 77
     1
 78
     8
140
2.5
141
2.5
143
0.0393700787
147
0.625
171
     3
172
     1
178
     0
271
     2
272
     2
274
     3
278
    44
283
     0
284
     8
340
11
  0
ENDTAB
  0
TABLE
  2
BLOCK_RECORD
  5
1
330
0
100
AcDbSymbolTable
 70
     2
  0
BLOCK_RECORD
  5
1F
330
1
100
AcDbSymbolTableRecord
100
AcDbBlockTableRecord
  2
*Model_Space
340
22
  0
BLOCK_RECORD
  5
1B
330
1
100
AcDbSymbolTableRecord
100
AcDbBlockTableRecord
  2
*Paper_Space
340
1E
  0
BLOCK_RECORD
  5
23
330
1
100
AcDbSymbolTableRecord
100
AcDbBlockTableRecord
  2
*Paper_Space0
340
26
  0
BLOCK_RECORD
  5
265
330
1
100
AcDbSymbolTableRecord
100
AcDbBlockTableRecord
  2
SW_CENTERMARKSYMBOL_0
340
0
102
{BLKREFS
331
270
102
}
  0
ENDTAB
  0
ENDSEC
  0
SECTION
  2
BLOCKS
  0
BLOCK
  5
20
330
1F
100
AcDbEntity
  8
0
100
AcDbBlockBegin
  2
*Model_Space
 70
     0
 10
0.0
 20
0.0
 30
0.0
  3
*Model_Space
  1

  0
ENDBLK
  5
21
330
1F
100
AcDbEntity
  8
0
100
AcDbBlockEnd
  0
BLOCK
  5
1C
330
1B
100
AcDbEntity
 67
     1
  8
0
100
AcDbBlockBegin
  2
*Paper_Space
 70
     0
 10
0.0
 20
0.0
 30
0.0
  3
*Paper_Space
  1

  0
ENDBLK
  5
1D
330
1B
100
AcDbEntity
 67
     1
  8
0
100
AcDbBlockEnd
  0
BLOCK
  5
24
330
23
100
AcDbEntity
  8
0
100
AcDbBlockBegin
  2
*Paper_Space0
 70
     0
 10
0.0
 20
0.0
 30
0.0
  3
*Paper_Space0
  1

  0
ENDBLK
  5
25
330
23
100
AcDbEntity
  8
0
100
AcDbBlockEnd
  0
BLOCK
  5
266
330
265
100
AcDbEntity
  8
0
100
AcDbBlockBegin
  2
SW_CENTERMARKSYMBOL_0
 70
     0
 10
0.0
 20
0.0
 30
0.0
  3
SW_CENTERMARKSYMBOL_0
  1

  0
LINE
  5
268
330
265
100
AcDbEntity
  8
FORMAT
 62
     0
100
AcDbLine
 10
0.0
 20
0.0
 30
0.0
 11
0.0
 21
2.5
 31
0.0
  0
LINE
  5
269
330
265
100
AcDbEntity
  8
FORMAT
 62
     0
100
AcDbLine
 10
0.0
 20
0.0
 30
0.0
 11
-2.5
 21
0.0
 31
0.0
  0
LINE
  5
26A
330
265
100
AcDbEntity
  8
FORMAT
 62
     0
100
AcDbLine
 10
0.0
 20
0.0
 30
0.0
 11
0.0
 21
-2.5
 31
0.0
  0
LINE
  5
26B
330
265
100
AcDbEntity
  8
FORMAT
 62
     0
100
AcDbLine
 10
0.0
 20
0.0
 30
0.0
 11
2.5
 21
0.0
 31
0.0
  0
LINE
  5
26C
330
265
100
AcDbEntity
  8
FORMAT
 62
     0
100
AcDbLine
 10
0.0
 20
5.0
 30
0.0
 11
0.0
 21
129.5
 31
0.0
  0
LINE
  5
26D
330
265
100
AcDbEntity
  8
FORMAT
 62
     0
100
AcDbLine
 10
-5.0
 20
0.0
 30
0.0
 11
-129.5
 21
0.0
 31
0.0
  0
LINE
  5
26E
330
265
100
AcDbEntity
  8
FORMAT
 62
     0
100
AcDbLine
 10
0.0
 20
-5.0
 30
0.0
 11
0.0
 21
-129.5
 31
0.0
  0
LINE
  5
26F
330
265
100
AcDbEntity
  8
FORMAT
 62
     0
100
AcDbLine
 10
5.0
 20
0.0
 30
0.0
 11
129.5
 21
0.0
 31
0.0
  0
ENDBLK
  5
267
330
265
100
AcDbEntity
  8
0
100
AcDbBlockEnd
  0
ENDSEC
  0
SECTION
  2
ENTITIES
  0
LINE
  5
46
330
1F
100
AcDbEntity
  8
0
  6
Continuous
 62
     7
370
    15
100
AcDbLine
 10
673.9513229252
 20
618.7852192557
 30
0.0
 11
654.9513235362
 21
618.7852192557
 31
0.0
  0
LINE
  5
47
330
1F
100
AcDbEntity
  8
0
  6
Continuous
 62
     7
370
    15
100
AcDbLine
 10
654.9513235362
 20
364.7852111495
 30
0.0
 11
673.9513229252
 21
364.7852111495
 31
0.0
  0
LINE
  5
48
330
1F
100
AcDbEntity
  8
0
  6
Continuous
 62
     7
370
    15
100
AcDbLine
 10
473.951319945
 20
364.7852111495
 30
0.0
 11
492.9513286473
 21
364.7852111495
 31
0.0
  0
LINE
  5
49
330
1F
100
AcDbEntity
  8
0
  6
Continuous
 62
     7
370
    15
100
AcDbLine
 10
492.9513286473
 20
618.7852192557
 30
0.0
 11
473.951319945
 21
618.7852192557
 31
0.0
  0
LINE
  5
4A
330
1F
100
AcDbEntity
  8
0
  6
Continuous
 62
     7
370
    15
100
AcDbLine
 10
572.9513194085
 20
366.7852152026
 30
0.0
 11
594.9513192893
 21
366.7852152026
 31
0.0
  0
LINE
  5
4B
330
1F
100
AcDbEntity
  8
0
  6
Continuous
 62
     7
370
    15
100
AcDbLine
 10
594.9513192893
 20
616.7852152026
 30
0.0
 11
572.9513194085
 21
616.7852152026
 31
0.0
  0
LINE
  5
4C
330
1F
100
AcDbEntity
  8
0
  6
Continuous
 62
     7
370
    15
100
AcDbLine
 10
673.9513229252
 20
436.6034548617
 30
0.0
 11
675.9513230202
 21
436.6034548617
 31
0.0
  0
LINE
  5
4D
330
1F
100
AcDbEntity
  8
0
  6
Continuous
 62
     7
370
    15
100
AcDbLine
 10
675.9513230202
 20
466.6034541911
 30
0.0
 11
673.9513229252
 21
466.6034541911
 31
0.0
  0
LINE
  5
4E
330
1F
100
AcDbEntity
  8
0
  6
Continuous
 62
     7
370
    15
100
AcDbLine
 10
473.951319945
 20
466.6034541911
 30
0.0
 11
471.9513158919
 21
466.6034541911
 31
0.0
  0
LINE
  5
4F
330
1F
100
AcDbEntity
  8
0
  6
Continuous
 62
     7
370
    15
100
AcDbLine
 10
471.9513158919
 20
436.6034548617
 30
0.0
 11
473.951319945
 21
436.6034548617
 31
0.0
  0
LINE
  5
50
330
1F
100
AcDbEntity
  8
0
  6
Continuous
 62
     7
370
    15
100
AcDbLine
 10
473.951319945
 20
546.9669755435
 30
0.0
 11
471.9513158919
 21
546.9669755435
 31
0.0
  0
LINE
  5
51
330
1F
100
AcDbEntity
  8
0
  6
Continuous
 62
     7
370
    15
100
AcDbLine
 10
471.9513158919
 20
516.9669762141
 30
0.0
 11
473.951319945
 21
516.9669762141
 31
0.0
  0
LINE
  5
52
330
1F
100
AcDbEntity
  8
0
  6
Continuous
 62
     7
370
    15
100
AcDbLine
 10
673.9513229252
 20
516.9669762141
 30
0.0
 11
675.9513230202
 21
516.9669762141
 31
0.0
  0
LINE
  5
53
330
1F
100
AcDbEntity
  8
0
  6
Continuous
 62
     7
370
    15
100
AcDbLine
 10
675.9513230202
 20
546.9669755435
 30
0.0
 11
673.9513229252
 21
546.9669755435
 31
0.0
  0
LINE
  5
54
330
1F
100
AcDbEntity
  8
0
  6
Continuous
 62
     7
370
    15
100
AcDbLine
 10
460.951323402
 20
439.6034534907
 30
0.0
 11
461.1972521664
 21
439.1774963474
 31
0.0
  0
LINE
  5
55
330
1F
100
AcDbEntity
  8
0
  6
Continuous
 62
     7
370
    15
100
AcDbLine
 10
686.7053469316
 20
439.1774106658
 30
0.0
 11
686.9513231934
 21
439.6034534907
 31
0.0
  0
LINE
  5
56
330
1F
100
AcDbEntity
  8
0
  6
Continuous
 62
     7
370
    15
100
AcDbLine
 10
738.951320541
 20
459.6034530437
 30
0.0
 11
686.9513231934
 21
459.6034530437
 31
0.0
  0
LINE
  5
57
330
1F
100
AcDbEntity
  8
0
  6
Continuous
 62
     7
370
    15
100
AcDbLine
 10
686.9513231934
 20
443.6034541464
 30
0.0
 11
738.951320541
 21
443.6034541464
 31
0.0
  0
LINE
  5
58
330
1F
100
AcDbEntity
  8
0
  6
Continuous
 62
     7
370
    15
100
AcDbLine
 10
460.951323402
 20
459.6034530437
 30
0.0
 11
408.9513372303
 21
459.6034530437
 31
0.0
  0
LINE
  5
59
330
1F
100
AcDbEntity
  8
0
  6
Continuous
 62
     7
370
    15
100
AcDbLine
 10
408.9513372303
 20
443.6034541464
 30
0.0
 11
460.951323402
 21
443.6034541464
 31
0.0
  0
LINE
  5
5A
330
1F
100
AcDbEntity
  8
0
  6
Continuous
 62
     7
370
    15
100
AcDbLine
 10
572.9513194085
 20
459.6034530437
 30
0.0
 11
492.9513286473
 21
459.6034530437
 31
0.0
  0
LINE
  5
5B
330
1F
100
AcDbEntity
  8
0
  6
Continuous
 62
     7
370
    15
100
AcDbLine
 10
492.9513286473
 20
443.6034541464
 30
0.0
 11
572.9513194085
 21
443.6034541464
 31
0.0
  0
LINE
  5
5C
330
1F
100
AcDbEntity
  8
0
  6
Continuous
 62
     7
370
    15
100
AcDbLine
 10
654.9513235362
 20
459.6034530437
 30
0.0
 11
594.9513192893
 21
459.6034530437
 31
0.0
  0
LINE
  5
5D
330
1F
100
AcDbEntity
  8
0
  6
Continuous
 62
     7
370
    15
100
AcDbLine
 10
594.9513192893
 20
443.6034541464
 30
0.0
 11
654.9513235362
 21
443.6034541464
 31
0.0
  0
LINE
  5
5E
330
1F
100
AcDbEntity
  8
0
  6
Continuous
 62
     7
370
    15
100
AcDbLine
 10
572.9513194085
 20
539.9669762588
 30
0.0
 11
492.9513286473
 21
539.9669762588
 31
0.0
  0
LINE
  5
5F
330
1F
100
AcDbEntity
  8
0
  6
Continuous
 62
     7
370
    15
100
AcDbLine
 10
492.9513286473
 20
523.9669773615
 30
0.0
 11
572.9513194085
 21
523.9669773615
 31
0.0
  0
LINE
  5
60
330
1F
100
AcDbEntity
  8
0
  6
Continuous
 62
     7
370
    15
100
AcDbLine
 10
654.9513235362
 20
539.9669762588
 30
0.0
 11
594.9513192893
 21
539.9669762588
 31
0.0
  0
LINE
  5
61
330
1F
100
AcDbEntity
  8
0
  6
Continuous
 62
     7
370
    15
100
AcDbLine
 10
594.9513192893
 20
523.9669773615
 30
0.0
 11
654.9513235362
 21
523.9669773615
 31
0.0
  0
LINE
  5
62
330
1F
100
AcDbEntity
  8
0
  6
Continuous
 62
     7
370
    15
100
AcDbLine
 10
738.951320541
 20
539.9669762588
 30
0.0
 11
686.9513231934
 21
539.9669762588
 31
0.0
  0
LINE
  5
63
330
1F
100
AcDbEntity
  8
0
  6
Continuous
 62
     7
370
    15
100
AcDbLine
 10
686.9513231934
 20
523.9669773615
 30
0.0
 11
738.951320541
 21
523.9669773615
 31
0.0
  0
LINE
  5
64
330
1F
100
AcDbEntity
  8
0
  6
Continuous
 62
     7
370
    15
100
AcDbLine
 10
460.951323402
 20
539.9669762588
 30
0.0
 11
408.9513372303
 21
539.9669762588
 31
0.0
  0
LINE
  5
65
330
1F
100
AcDbEntity
  8
0
  6
Continuous
 62
     7
370
    15
100
AcDbLine
 10
408.9513372303
 20
523.9669773615
 30
0.0
 11
460.951323402
 21
523.9669773615
 31
0.0
  0
LINE
  5
66
330
1F
100
AcDbEntity
  8
0
  6
Continuous
 62
     7
370
    15
100
AcDbLine
 10
686.9513231934
 20
543.9669769144
 30
0.0
 11
685.8795264409
 21
545.8233822024
 31
0.0
  0
LINE
  5
67
330
1F
100
AcDbEntity
  8
0
  6
Continuous
 62
     7
370
    15
100
AcDbLine
 10
685.8795264409
 20
518.1105695552
 30
0.0
 11
686.9513231934
 21
519.9669748432
 31
0.0
  0
LINE
  5
68
330
1F
100
AcDbEntity
  8
0
  6
Continuous
 62
     7
370
    15
100
AcDbLine
 10
460.951323402
 20
519.9669748432
 30
0.0
 11
462.0231192232
 21
518.1105695552
 31
0.0
  0
LINE
  5
69
330
1F
100
AcDbEntity
  8
0
  6
Continuous
 62
     7
370
    15
100
AcDbLine
 10
462.0231192232
 20
545.8233822024
 30
0.0
 11
460.951323402
 21
543.9669769144
 31
0.0
  0
LINE
  5
6A
330
1F
100
AcDbEntity
  8
0
  6
Continuous
 62
     7
370
    15
100
AcDbLine
 10
686.9513231934
 20
463.603455562
 30
0.0
 11
686.7053469316
 21
464.029498387
 31
0.0
  0
LINE
  5
6B
330
1F
100
AcDbEntity
  8
0
  6
Continuous
 62
     7
370
    15
100
AcDbLine
 10
461.1972521664
 20
464.0294127053
 30
0.0
 11
460.951323402
 21
463.603455562
 31
0.0
  0
LINE
  5
6C
330
1F
100
AcDbEntity
  8
0
  6
Continuous
 62
     7
370
    15
100
AcDbLine
 10
568.1277986289
 20
403.2852146661
 30
0.0
 11
572.9513194085
 21
403.2852146661
 31
0.0
  0
LINE
  5
6D
330
1F
100
AcDbEntity
  8
0
  6
Continuous
 62
     7
370
    15
100
AcDbLine
 10
572.9513194085
 20
580.285215739
 30
0.0
 11
568.1277986289
 21
580.285215739
 31
0.0
  0
ARC
  5
6E
330
1F
100
AcDbEntity
  8
0
  6
Continuous
 62
     7
370
    15
100
AcDbCircle
 10
568.1277991769
 20
420.7852152026
 30
0.0
 40
17.50000000000006
100
AcDbArc
 50
225.303956884
 51
270.0
  0
ARC
  5
6F
330
1F
100
AcDbEntity
  8
0
  6
Continuous
 62
     7
370
    15
100
AcDbCircle
 10
568.1277991769
 20
562.7852152026
 30
0.0
 40
17.50000000000011
100
AcDbArc
 50
90.0
 51
134.696043116
  0
ARC
  5
70
330
1F
100
AcDbEntity
  8
0
  6
Continuous
 62
     7
370
    15
100
AcDbCircle
 10
552.2081780997
 20
407.7852152026
 30
0.0
 40
1.999999999999974
100
AcDbArc
 50
222.0
 51
312.0
  0
ARC
  5
71
330
1F
100
AcDbEntity
  8
0
  6
Continuous
 62
     7
370
    15
100
AcDbCircle
 10
552.2081780997
 20
575.7852152026
 30
0.0
 40
1.999999999999974
100
AcDbArc
 50
48.0
 51
138.0
  0
LINE
  5
72
330
1F
100
AcDbEntity
  8
0
  6
Continuous
 62
     7
370
    15
100
AcDbLine
 10
553.546438706
 20
406.2989223635
 30
0.0
 11
555.8192532183
 21
408.3453733361
 31
0.0
  0
LINE
  5
73
330
1F
100
AcDbEntity
  8
0
  6
Continuous
 62
     7
370
    15
100
AcDbLine
 10
555.8192532183
 20
575.2250570691
 30
0.0
 11
553.546438706
 21
577.2715080416
 31
0.0
  0
LINE
  5
74
330
1F
100
AcDbEntity
  8
0
  6
Continuous
 62
     7
370
    15
100
AcDbLine
 10
550.7218863488
 20
577.1234799063
 30
0.0
 11
542.3842023731
 21
567.8635407126
 31
0.0
  0
LINE
  5
75
330
1F
100
AcDbEntity
  8
0
  6
Continuous
 62
     7
370
    15
100
AcDbLine
 10
542.3842023731
 20
415.7068896926
 30
0.0
 11
550.7218863488
 21
406.4469504988
 31
0.0
  0
LINE
  5
76
330
1F
100
AcDbEntity
  8
0
  6
Continuous
 62
     7
370
    15
100
AcDbLine
 10
492.9513286473
 20
413.9806572235
 30
0.0
 11
542.3842023731
 21
415.7068896926
 31
0.0
  0
LINE
  5
77
330
1F
100
AcDbEntity
  8
0
  6
Continuous
 62
     7
370
    15
100
AcDbLine
 10
542.3842023731
 20
567.8635407126
 30
0.0
 11
492.9513286473
 21
569.5897731817
 31
0.0
  0
LINE
  5
78
330
1F
100
AcDbEntity
  8
0
  6
Continuous
 62
     7
370
    15
100
AcDbLine
 10
654.9513235362
 20
559.7852188981
 30
0.0
 11
594.9513192893
 21
559.7852188981
 31
0.0
  0
LINE
  5
79
330
1F
100
AcDbEntity
  8
0
  6
Continuous
 62
     7
370
    15
100
AcDbLine
 10
594.9513192893
 20
423.7852115071
 30
0.0
 11
654.9513235362
 21
423.7852115071
 31
0.0
  0
LINE
  5
7A
330
1F
100
AcDbEntity
  8
0
  6
Continuous
 62
     7
370
    15
100
AcDbLine
 10
673.9513229252
 20
379.777865473
 30
0.0
 11
675.9513230202
 21
379.777865473
 31
0.0
  0
LINE
  5
7B
330
1F
100
AcDbEntity
  8
0
  6
Continuous
 62
     7
370
    15
100
AcDbLine
 10
675.9513230202
 20
409.7778666651
 30
0.0
 11
673.9513229252
 21
409.7778666651
 31
0.0
  0
LINE
  5
7C
330
1F
100
AcDbEntity
  8
0
  6
Continuous
 62
     7
370
    15
100
AcDbLine
 10
473.951319945
 20
409.7778666651
 30
0.0
 11
471.9513158919
 21
409.7778666651
 31
0.0
  0
LINE
  5
7D
330
1F
100
AcDbEntity
  8
0
  6
Continuous
 62
     7
370
    15
100
AcDbLine
 10
471.9513158919
 20
379.777865473
 30
0.0
 11
473.951319945
 21
379.777865473
 31
0.0
  0
LINE
  5
7E
330
1F
100
AcDbEntity
  8
0
  6
Continuous
 62
     7
370
    15
100
AcDbLine
 10
473.951319945
 20
603.7925649321
 30
0.0
 11
471.9513158919
 21
603.7925649321
 31
0.0
  0
LINE
  5
7F
330
1F
100
AcDbEntity
  8
0
  6
Continuous
 62
     7
370
    15
100
AcDbLine
 10
471.9513158919
 20
573.79256374
 30
0.0
 11
473.951319945
 21
573.79256374
 31
0.0
  0
LINE
  5
80
330
1F
100
AcDbEntity
  8
0
  6
Continuous
 62
     7
370
    15
100
AcDbLine
 10
673.9513229252
 20
573.79256374
 30
0.0
 11
675.9513230202
 21
573.79256374
 31
0.0
  0
LINE
  5
81
330
1F
100
AcDbEntity
  8
0
  6
Continuous
 62
     7
370
    15
100
AcDbLine
 10
675.9513230202
 20
603.7925649321
 30
0.0
 11
673.9513229252
 21
603.7925649321
 31
0.0
  0
LINE
  5
82
330
1F
100
AcDbEntity
  8
0
  6
Continuous
 62
     7
370
    15
100
AcDbLine
 10
686.9513231934
 20
600.792566303
 30
0.0
 11
686.7053962917
 21
601.2185234463
 31
0.0
  0
LINE
  5
83
330
1F
100
AcDbEntity
  8
0
  6
Continuous
 62
     7
370
    15
100
AcDbLine
 10
461.1972968699
 20
601.2186128533
 30
0.0
 11
460.951323402
 21
600.792566303
 31
0.0
  0
LINE
  5
84
330
1F
100
AcDbEntity
  8
0
  6
Continuous
 62
     7
370
    15
100
AcDbLine
 10
738.951320541
 20
402.7778673804
 30
0.0
 11
686.9513231934
 21
402.7778673804
 31
0.0
  0
LINE
  5
85
330
1F
100
AcDbEntity
  8
0
  6
Continuous
 62
     7
370
    15
100
AcDbLine
 10
686.9513231934
 20
386.7778647578
 30
0.0
 11
738.951320541
 21
386.7778647578
 31
0.0
  0
LINE
  5
86
330
1F
100
AcDbEntity
  8
0
  6
Continuous
 62
     7
370
    15
100
AcDbLine
 10
460.951323402
 20
402.7778673804
 30
0.0
 11
408.9513372303
 21
402.7778673804
 31
0.0
  0
LINE
  5
87
330
1F
100
AcDbEntity
  8
0
  6
Continuous
 62
     7
370
    15
100
AcDbLine
 10
408.9513372303
 20
386.7778647578
 30
0.0
 11
460.951323402
 21
386.7778647578
 31
0.0
  0
LINE
  5
88
330
1F
100
AcDbEntity
  8
0
  6
Continuous
 62
     7
370
    15
100
AcDbLine
 10
654.9513235362
 20
402.7778673804
 30
0.0
 11
594.9513192893
 21
402.7778673804
 31
0.0
  0
LINE
  5
89
330
1F
100
AcDbEntity
  8
0
  6
Continuous
 62
     7
370
    15
100
AcDbLine
 10
594.9513192893
 20
386.7778647578
 30
0.0
 11
654.9513235362
 21
386.7778647578
 31
0.0
  0
LINE
  5
8A
330
1F
100
AcDbEntity
  8
0
  6
Continuous
 62
     7
370
    15
100
AcDbLine
 10
572.9513194085
 20
402.7778673804
 30
0.0
 11
492.9513286473
 21
402.7778673804
 31
0.0
  0
LINE
  5
8B
330
1F
100
AcDbEntity
  8
0
  6
Continuous
 62
     7
370
    15
100
AcDbLine
 10
492.9513286473
 20
386.7778647578
 30
0.0
 11
572.9513194085
 21
386.7778647578
 31
0.0
  0
LINE
  5
8C
330
1F
100
AcDbEntity
  8
0
  6
Continuous
 62
     7
370
    15
100
AcDbLine
 10
654.9513235362
 20
596.7925656474
 30
0.0
 11
594.9513192893
 21
596.7925656474
 31
0.0
  0
LINE
  5
8D
330
1F
100
AcDbEntity
  8
0
  6
Continuous
 62
     7
370
    15
100
AcDbLine
 10
594.9513192893
 20
580.7925630248
 30
0.0
 11
654.9513235362
 21
580.7925630248
 31
0.0
  0
LINE
  5
8E
330
1F
100
AcDbEntity
  8
0
  6
Continuous
 62
     7
370
    15
100
AcDbLine
 10
460.951323402
 20
596.7925656474
 30
0.0
 11
408.9513372303
 21
596.7925656474
 31
0.0
  0
LINE
  5
8F
330
1F
100
AcDbEntity
  8
0
  6
Continuous
 62
     7
370
    15
100
AcDbLine
 10
408.9513372303
 20
580.7925630248
 30
0.0
 11
460.951323402
 21
580.7925630248
 31
0.0
  0
LINE
  5
90
330
1F
100
AcDbEntity
  8
0
  6
Continuous
 62
     7
370
    15
100
AcDbLine
 10
572.9513194085
 20
596.7925656474
 30
0.0
 11
492.9513286473
 21
596.7925656474
 31
0.0
  0
LINE
  5
91
330
1F
100
AcDbEntity
  8
0
  6
Continuous
 62
     7
370
    15
100
AcDbLine
 10
492.9513286473
 20
580.7925630248
 30
0.0
 11
572.9513194085
 21
580.7925630248
 31
0.0
  0
LINE
  5
92
330
1F
100
AcDbEntity
  8
0
  6
Continuous
 62
     7
370
    15
100
AcDbLine
 10
738.951320541
 20
596.7925656474
 30
0.0
 11
686.9513231934
 21
596.7925656474
 31
0.0
  0
LINE
  5
93
330
1F
100
AcDbEntity
  8
0
  6
Continuous
 62
     7
370
    15
100
AcDbLine
 10
686.9513231934
 20
580.7925630248
 30
0.0
 11
738.951320541
 21
580.7925630248
 31
0.0
  0
LINE
  5
94
330
1F
100
AcDbEntity
  8
0
  6
Continuous
 62
     7
370
    15
100
AcDbLine
 10
460.951323402
 20
576.7925698197
 30
0.0
 11
461.1972968699
 21
576.3665232694
 31
0.0
  0
LINE
  5
95
330
1F
100
AcDbEntity
  8
0
  6
Continuous
 62
     7
370
    15
100
AcDbLine
 10
686.7053962917
 20
576.3666052258
 30
0.0
 11
686.9513231934
 21
576.7925698197
 31
0.0
  0
LINE
  5
96
330
1F
100
AcDbEntity
  8
0
  6
Continuous
 62
     7
370
    15
100
AcDbLine
 10
686.9513231934
 20
406.7778605855
 30
0.0
 11
686.7053962917
 21
407.2038251794
 31
0.0
  0
LINE
  5
97
330
1F
100
AcDbEntity
  8
0
  6
Continuous
 62
     7
370
    15
100
AcDbLine
 10
461.1972968699
 20
407.2039071357
 30
0.0
 11
460.951323402
 21
406.7778605855
 31
0.0
  0
LINE
  5
98
330
1F
100
AcDbEntity
  8
0
  6
Continuous
 62
     7
370
    15
100
AcDbLine
 10
460.951323402
 20
382.7778641021
 30
0.0
 11
461.1972968699
 21
382.3518175519
 31
0.0
  0
LINE
  5
99
330
1F
100
AcDbEntity
  8
0
  6
Continuous
 62
     7
370
    15
100
AcDbLine
 10
686.7053962917
 20
382.3519069588
 30
0.0
 11
686.9513231934
 21
382.7778641021
 31
0.0
  0
LINE
  5
9A
330
1F
100
AcDbEntity
  8
0
  6
Continuous
 62
     7
370
    15
100
AcDbLine
 10
461.1972521664
 20
439.1774963474
 30
0.0
 11
462.0231192232
 21
437.7470482028
 31
0.0
  0
LINE
  5
9B
330
1F
100
AcDbEntity
  8
0
  6
Continuous
 62
     7
370
    15
100
AcDbLine
 10
462.0231192232
 20
465.45986085
 30
0.0
 11
461.2205277802
 21
464.0697240716
 31
0.0
  0
LINE
  5
9C
330
1F
100
AcDbEntity
  8
0
  6
Continuous
 62
     7
370
    15
100
AcDbLine
 10
686.6681014792
 20
464.0940092391
 30
0.0
 11
685.8795264409
 21
465.45986085
 31
0.0
  0
LINE
  5
9D
330
1F
100
AcDbEntity
  8
0
  6
Continuous
 62
     7
370
    15
100
AcDbLine
 10
685.8795264409
 20
437.7470482028
 30
0.0
 11
686.7053469316
 21
439.1774106658
 31
0.0
  0
LINE
  5
9E
330
1F
100
AcDbEntity
  8
0
  6
Continuous
 62
     7
370
    15
100
AcDbLine
 10
662.522751619
 20
509.7852144277
 30
0.0
 11
662.522751619
 21
512.0335612333
 31
0.0
  0
LINE
  5
9F
330
1F
100
AcDbEntity
  8
0
  6
Continuous
 62
     7
370
    15
100
AcDbLine
 10
660.2370373578
 20
509.7852144277
 30
0.0
 11
662.522751619
 21
509.7852144277
 31
0.0
  0
LINE
  5
A0
330
1F
100
AcDbEntity
  8
0
  6
Continuous
 62
     7
370
    15
100
AcDbLine
 10
660.2370373578
 20
516.2873733676
 30
0.0
 11
660.2370373578
 21
509.7852144277
 31
0.0
  0
SPLINE
  5
A1
330
1F
100
AcDbEntity
  8
0
  6
Continuous
 62
     7
370
    15
100
AcDbSpline
210
0.0
220
0.0
230
1.0
 70
     8
 71
     3
 72
    11
 73
     7
 74
     0
 42
0.00000001
 43
0.00000001
 12
1.0
 22
0.0
 32
0.0
 13
1.0
 23
0.0
 33
0.0
 40
0.0
 40
0.0
 40
0.0
 40
0.0
 40
0.2455919697490634
 40
0.4941225846964375
 40
0.745591907841859
 40
1.0
 40
1.0
 40
1.0
 40
1.0
 10
668.3798943537793
 20
519.6026789999332
 30
0.0
 10
667.7135287594922
 20
519.3313733064318
 30
0.0
 10
666.3728241340991
 20
518.7855155951529
 30
0.0
 10
664.3492515951921
 20
517.9616334577033
 30
0.0
 10
662.3013884249671
 20
517.1278596178804
 30
0.0
 10
660.927814095073
 20
516.5686180492124
 30
0.0
 10
660.237037210922
 20
516.2873728774844
 30
0.0
  0
LINE
  5
A2
330
1F
100
AcDbEntity
  8
0
  6
Continuous
 62
     7
370
    15
100
AcDbLine
 10
668.3798942388
 20
517.042232666
 30
0.0
 11
668.3798942388
 21
519.6026787049
 31
0.0
  0
LINE
  5
A3
330
1F
100
AcDbEntity
  8
0
  6
Continuous
 62
     7
370
    15
100
AcDbLine
 10
667.1227517211
 20
516.5303964055
 30
0.0
 11
668.3798942388
 21
517.042232666
 31
0.0
  0
LINE
  5
A4
330
1F
100
AcDbEntity
  8
0
  6
Continuous
 62
     7
370
    15
100
AcDbLine
 10
667.1227517211
 20
512.8079317397
 30
0.0
 11
667.1227517211
 21
516.5303964055
 31
0.0
  0
LINE
  5
A5
330
1F
100
AcDbEntity
  8
0
  6
Continuous
 62
     7
370
    15
100
AcDbLine
 10
668.3798942388
 20
512.3253594971
 30
0.0
 11
667.1227517211
 21
512.8079317397
 31
0.0
  0
SPLINE
  5
A6
330
1F
100
AcDbEntity
  8
0
  6
Continuous
 62
     7
370
    15
100
AcDbSpline
210
0.0
220
0.0
230
1.0
 70
    24
 71
     3
 72
     9
 73
     5
 74
     0
 42
0.00000001
 43
0.00000001
 12
1.0
 22
0.0
 32
0.0
 13
1.0
 23
0.0
 33
0.0
 40
0.0
 40
0.0
 40
0.0
 40
0.0
 40
0.5001677311395186
 40
1.0
 40
1.0
 40
1.0
 40
1.0
 10
664.9513229252076
 20
513.3966311662135
 30
0.0
 10
664.4771150280167
 20
513.5786625230749
 30
0.0
 10
663.5290172846646
 20
513.942603148446
 30
0.0
 10
662.5810645409271
 20
514.30648811368
 30
0.0
 10
662.1072471702522
 20
514.4883695614571
 30
0.0
  0
LINE
  5
A7
330
1F
100
AcDbEntity
  8
0
  6
Continuous
 62
     7
370
    15
100
AcDbLine
 10
664.9513233126
 20
513.396631915
 30
0.0
 11
664.9513233126
 21
515.6463142371
 31
0.0
  0
SPLINE
  5
A8
330
1F
100
AcDbEntity
  8
0
  6
Continuous
 62
     7
370
    15
100
AcDbSpline
210
0.0
220
0.0
230
1.0
 70
    24
 71
     3
 72
     9
 73
     5
 74
     0
 42
0.00000001
 43
0.00000001
 12
1.0
 22
0.0
 32
0.0
 13
1.0
 23
0.0
 33
0.0
 40
0.0
 40
0.0
 40
0.0
 40
0.0
 40
0.5001844188452235
 40
1.0
 40
1.0
 40
1.0
 40
1.0
 10
662.1072471702523
 20
514.488369561457
 30
0.0
 10
662.581479624996
 20
514.6814499180313
 30
0.0
 10
663.5295948338592
 20
515.0674682530683
 30
0.0
 10
664.4775301061771
 20
515.4534133282264
 30
0.0
 10
664.9513229252077
 20
515.6463146902604
 30
0.0
  0
LINE
  5
A9
330
1F
100
AcDbEntity
  8
0
  6
Continuous
 62
     7
370
    15
100
AcDbLine
 10
668.3798942388
 20
509.7852144277
 30
0.0
 11
668.3798942388
 21
512.3253594971
 31
0.0
  0
SPLINE
  5
AA
330
1F
100
AcDbEntity
  8
0
  6
Continuous
 62
     7
370
    15
100
AcDbSpline
210
0.0
220
0.0
230
1.0
 70
     8
 71
     3
 72
     9
 73
     5
 74
     0
 42
0.00000001
 43
0.00000001
 12
1.0
 22
0.0
 32
0.0
 13
1.0
 23
0.0
 33
0.0
 40
0.0
 40
0.0
 40
0.0
 40
0.0
 40
0.4948066281810017
 40
0.9999999999999999
 40
0.9999999999999999
 40
0.9999999999999999
 40
0.9999999999999999
 10
662.5227514966363
 20
512.0335616935059
 30
0.0
 10
663.4886726469875
 20
511.6627795367589
 30
0.0
 10
665.4407911016293
 20
510.9134319419015
 30
0.0
 10
667.3934327403565
 20
510.1638825747301
 30
0.0
 10
668.379894353779
 20
509.785215202584
 30
0.0
  0
LINE
  5
AB
330
1F
100
AcDbEntity
  8
0
  6
Continuous
 62
     7
370
    15
100
AcDbLine
 10
479.5227449061
 20
473.7852159774
 30
0.0
 11
479.5227449061
 21
471.2450709081
 31
0.0
  0
SPLINE
  5
AC
330
1F
100
AcDbEntity
  8
0
  6
Continuous
 62
     7
370
    15
100
AcDbSpline
210
0.0
220
0.0
230
1.0
 70
     8
 71
     3
 72
     9
 73
     5
 74
     0
 42
0.00000001
 43
0.00000001
 12
1.0
 22
0.0
 32
0.0
 13
1.0
 23
0.0
 33
0.0
 40
0.0
 40
0.0
 40
0.0
 40
0.0
 40
0.4948066281810916
 40
1.0
 40
1.0
 40
1.0
 40
1.0
 10
485.3798943537789
 20
471.53686871167
 30
0.0
 10
484.4139732034274
 20
471.907650868417
 30
0.0
 10
482.4618547487856
 20
472.6569984632744
 30
0.0
 10
480.5092131100585
 20
473.4065478304457
 30
0.0
 10
479.522751496636
 20
473.7852152025918
 30
0.0
  0
LINE
  5
AD
330
1F
100
AcDbEntity
  8
0
  6
Continuous
 62
     7
370
    15
100
AcDbLine
 10
485.379899633
 20
473.7852159774
 30
0.0
 11
485.379899633
 21
471.5368691719
 31
0.0
  0
LINE
  5
AE
330
1F
100
AcDbEntity
  8
0
  6
Continuous
 62
     7
370
    15
100
AcDbLine
 10
487.6656036497
 20
473.7852159774
 30
0.0
 11
485.379899633
 21
473.7852159774
 31
0.0
  0
LINE
  5
AF
330
1F
100
AcDbEntity
  8
0
  6
Continuous
 62
     7
370
    15
100
AcDbLine
 10
487.6656036497
 20
467.2830570376
 30
0.0
 11
487.6656036497
 21
473.7852159774
 31
0.0
  0
SPLINE
  5
B0
330
1F
100
AcDbEntity
  8
0
  6
Continuous
 62
     7
370
    15
100
AcDbSpline
210
0.0
220
0.0
230
1.0
 70
     8
 71
     3
 72
    11
 73
     7
 74
     0
 42
0.00000001
 43
0.00000001
 12
1.0
 22
0.0
 32
0.0
 13
1.0
 23
0.0
 33
0.0
 40
0.0
 40
0.0
 40
0.0
 40
0.0
 40
0.2455919697500876
 40
0.4941225846978009
 40
0.7455919078428795
 40
1.0
 40
1.0
 40
1.0
 40
1.0
 10
479.5227514966359
 20
463.9677514052425
 30
0.0
 10
480.1891170909258
 20
464.239057098745
 30
0.0
 10
481.5298217163225
 20
464.7849148100255
 30
0.0
 10
483.5533942552323
 20
465.6087969474763
 30
0.0
 10
485.6012574254545
 20
466.4425707872979
 30
0.0
 10
486.9748317553448
 20
467.0018123559645
 30
0.0
 10
487.665608639493
 20
467.2830575276914
 30
0.0
  0
LINE
  5
B1
330
1F
100
AcDbEntity
  8
0
  6
Continuous
 62
     7
370
    15
100
AcDbLine
 10
479.5227449061
 20
466.5281977391
 30
0.0
 11
479.5227449061
 21
463.9677517003
 31
0.0
  0
LINE
  5
B2
330
1F
100
AcDbEntity
  8
0
  6
Continuous
 62
     7
370
    15
100
AcDbLine
 10
480.7798962713
 20
467.0400339997
 30
0.0
 11
479.5227449061
 21
466.5281977391
 31
0.0
  0
LINE
  5
B3
330
1F
100
AcDbEntity
  8
0
  6
Continuous
 62
     7
370
    15
100
AcDbLine
 10
480.7798962713
 20
470.7624986655
 30
0.0
 11
480.7798962713
 21
467.0400339997
 31
0.0
  0
LINE
  5
B4
330
1F
100
AcDbEntity
  8
0
  6
Continuous
 62
     7
370
    15
100
AcDbLine
 10
479.5227449061
 20
471.2450709081
 30
0.0
 11
480.7798962713
 21
470.7624986655
 31
0.0
  0
LINE
  5
B5
330
1F
100
AcDbEntity
  8
0
  6
Continuous
 62
     7
370
    15
100
AcDbLine
 10
659.322751467
 20
526.6681443787
 30
0.0
 11
659.322751467
 21
533.7852146363
 31
0.0
  0
SPLINE
  5
B6
330
1F
100
AcDbEntity
  8
0
  6
Continuous
 62
     7
370
    15
100
AcDbSpline
210
0.0
220
0.0
230
1.0
 70
     8
 71
     3
 72
    11
 73
     7
 74
     0
 42
0.00000001
 43
0.00000001
 12
1.0
 22
0.0
 32
0.0
 13
1.0
 23
0.0
 33
0.0
 40
0.0
 40
0.0
 40
0.0
 40
0.0
 40
0.2541318708066133
 40
0.5055090742003151
 40
0.7541317394076001
 40
1.0
 40
1.0
 40
1.0
 40
1.0
 10
668.3798943537793
 20
522.9805915238561
 30
0.0
 10
667.6122630856804
 20
523.2931274981859
 30
0.0
 10
666.085321303714
 20
523.9148117070037
 30
0.0
 10
663.8082592146677
 20
524.8419025172366
 30
0.0
 10
661.556738406412
 20
525.7585919002545
 30
0.0
 10
660.0646433861251
 20
526.3660869489888
 30
0.0
 10
659.3227514966364
 20
526.6681425442645
 30
0.0
  0
LINE
  5
B7
330
1F
100
AcDbEntity
  8
0
  6
Continuous
 62
     7
370
    15
100
AcDbLine
 10
668.3798942388
 20
520.5898396558
 30
0.0
 11
668.3798942388
 21
522.9805912709
 31
0.0
  0
SPLINE
  5
B8
330
1F
100
AcDbEntity
  8
0
  6
Continuous
 62
     7
370
    15
100
AcDbSpline
210
0.0
220
0.0
230
1.0
 70
     8
 71
     3
 72
    11
 73
     7
 74
     0
 42
0.00000001
 43
0.00000001
 12
1.0
 22
0.0
 32
0.0
 13
1.0
 23
0.0
 33
0.0
 40
0.0
 40
0.0
 40
0.0
 40
0.0
 40
0.2547886910202167
 40
0.5063848672461834
 40
0.7547886090633751
 40
1.0
 40
1.0
 40
1.0
 40
1.0
 10
659.3227514966364
 20
516.9022878609038
 30
0.0
 10
660.0922790371684
 20
517.2155959261034
 30
0.0
 10
661.621691900409
 20
517.83828629108
 30
0.0
 10
663.900671168901
 20
518.7661578632761
 30
0.0
 10
666.1502733137119
 20
519.6820658783613
 30
0.0
 10
667.6398986186971
 20
520.2885553274996
 30
0.0
 10
668.3798943537792
 20
520.5898388813118
 30
0.0
  0
SPLINE
  5
B9
330
1F
100
AcDbEntity
  8
0
  6
Continuous
 62
     7
370
    15
100
AcDbSpline
210
0.0
220
0.0
230
1.0
 70
     8
 71
     3
 72
    10
 73
     6
 74
     0
 42
0.00000001
 43
0.00000001
 12
1.0
 22
0.0
 32
0.0
 13
1.0
 23
0.0
 33
0.0
 40
0.0
 40
0.0
 40
0.0
 40
0.0
 40
0.3285120519388914
 40
0.6618453285564034
 40
1.0
 40
1.0
 40
1.0
 40
1.0
 10
664.9513229252079
 20
521.785215202584
 30
0.0
 10
664.0756096223582
 20
521.4286752325551
 30
0.0
 10
662.3113310967301
 20
520.7103627316453
 30
0.0
 10
659.6446527723044
 20
519.6246436888182
 30
0.0
 10
657.8533867366394
 20
518.8953416298104
 30
0.0
 10
656.9513229252078
 20
518.5280723454413
 30
0.0
  0
SPLINE
  5
BA
330
1F
100
AcDbEntity
  8
0
  6
Continuous
 62
     7
370
    15
100
AcDbSpline
210
0.0
220
0.0
230
1.0
 70
     8
 71
     3
 72
    11
 73
     7
 74
     0
 42
0.00000001
 43
0.00000001
 12
1.0
 22
0.0
 32
0.0
 13
1.0
 23
0.0
 33
0.0
 40
0.0
 40
0.0
 40
0.0
 40
0.0
 40
0.246240264720443
 40
0.4949869575480704
 40
0.7462401722969086
 40
1.0
 40
1.0
 40
1.0
 40
1.0
 10
656.9513229252079
 20
525.042358059727
 30
0.0
 10
657.6076711439471
 20
524.7751308338443
 30
0.0
 10
658.9270484125453
 20
524.2379563320875
 30
0.0
 10
660.9168071287663
 20
523.4278410715661
 30
0.0
 10
662.9270560494789
 20
522.6093817834686
 30
0.0
 10
664.2743382387296
 20
522.0608449434328
 30
0.0
 10
664.9513229252077
 20
521.7852152025841
 30
0.0
  0
LINE
  5
BB
330
1F
100
AcDbEntity
  8
0
  6
Continuous
 62
     7
370
    15
100
AcDbLine
 10
656.9513220013
 20
533.7852146363
 30
0.0
 11
656.9513220013
 21
525.0423569119
 31
0.0
  0
LINE
  5
BC
330
1F
100
AcDbEntity
  8
0
  6
Continuous
 62
     7
370
    15
100
AcDbLine
 10
656.9513220013
 20
533.7852146363
 30
0.0
 11
659.322751467
 21
533.7852146363
 31
0.0
  0
LINE
  5
BD
330
1F
100
AcDbEntity
  8
0
  6
Continuous
 62
     7
370
    15
100
AcDbLine
 10
656.9513220013
 20
509.7852144277
 30
0.0
 11
659.322751467
 21
509.7852144277
 31
0.0
  0
LINE
  5
BE
330
1F
100
AcDbEntity
  8
0
  6
Continuous
 62
     7
370
    15
100
AcDbLine
 10
659.322751467
 20
509.7852144277
 30
0.0
 11
659.322751467
 21
516.9022884107
 31
0.0
  0
LINE
  5
BF
330
1F
100
AcDbEntity
  8
0
  6
Continuous
 62
     7
370
    15
100
AcDbLine
 10
656.9513220013
 20
518.5280721522
 30
0.0
 11
656.9513220013
 21
509.7852144277
 31
0.0
  0
LINE
  5
C0
330
1F
100
AcDbEntity
  8
0
  6
Continuous
 62
     7
370
    15
100
AcDbLine
 10
488.5798941971
 20
456.9022860265
 30
0.0
 11
488.5798941971
 21
449.7852157688
 31
0.0
  0
SPLINE
  5
C1
330
1F
100
AcDbEntity
  8
0
  6
Continuous
 62
     7
370
    15
100
AcDbSpline
210
0.0
220
0.0
230
1.0
 70
     8
 71
     3
 72
    11
 73
     7
 74
     0
 42
0.00000001
 43
0.00000001
 12
1.0
 22
0.0
 32
0.0
 13
1.0
 23
0.0
 33
0.0
 40
0.0
 40
0.0
 40
0.0
 40
0.0
 40
0.254131870806159
 40
0.5055090741997105
 40
0.7541317394071446
 40
1.0
 40
1.0
 40
1.0
 40
1.0
 10
479.5227514966358
 20
460.5898388813196
 30
0.0
 10
480.2903827647334
 20
460.2773029069903
 30
0.0
 10
481.8173245466979
 20
459.6556186981734
 30
0.0
 10
484.094386635743
 20
458.7285278879409
 30
0.0
 10
486.3459074439999
 20
457.8118385049225
 30
0.0
 10
487.8380024642885
 20
457.2043434561874
 30
0.0
 10
488.5798943537786
 20
456.9022878609113
 30
0.0
  0
LINE
  5
C2
330
1F
100
AcDbEntity
  8
0
  6
Continuous
 62
     7
370
    15
100
AcDbLine
 10
479.5227449061
 20
462.9805907494
 30
0.0
 11
479.5227449061
 21
460.5898391342
 31
0.0
  0
SPLINE
  5
C3
330
1F
100
AcDbEntity
  8
0
  6
Continuous
 62
     7
370
    15
100
AcDbSpline
210
0.0
220
0.0
230
1.0
 70
     8
 71
     3
 72
    11
 73
     7
 74
     0
 42
0.00000001
 43
0.00000001
 12
1.0
 22
0.0
 32
0.0
 13
1.0
 23
0.0
 33
0.0
 40
0.0
 40
0.0
 40
0.0
 40
0.0
 40
0.254788691020216
 40
0.5063848672461835
 40
0.754788609063376
 40
1.0
 40
1.0
 40
1.0
 40
1.0
 10
488.5798943537787
 20
466.6681425442719
 30
0.0
 10
487.8103668132467
 20
466.3548344790723
 30
0.0
 10
486.2809539500062
 20
465.7321441140958
 30
0.0
 10
484.0019746815142
 20
464.8042725418995
 30
0.0
 10
481.7523725367031
 20
463.8883645268144
 30
0.0
 10
480.262747231718
 20
463.2818750776761
 30
0.0
 10
479.5227514966359
 20
462.9805915238638
 30
0.0
  0
LINE
  5
C4
330
1F
100
AcDbEntity
  8
0
  6
Continuous
 62
     7
370
    15
100
AcDbLine
 10
488.5798941971
 20
473.7852159774
 30
0.0
 11
488.5798941971
 21
466.6681419945
 31
0.0
  0
LINE
  5
C5
330
1F
100
AcDbEntity
  8
0
  6
Continuous
 62
     7
370
    15
100
AcDbLine
 10
490.9513245941
 20
465.042358253
 30
0.0
 11
490.9513245941
 21
473.7852159774
 31
0.0
  0
SPLINE
  5
C6
330
1F
100
AcDbEntity
  8
0
  6
Continuous
 62
     7
370
    15
100
AcDbSpline
210
0.0
220
0.0
230
1.0
 70
     8
 71
     3
 72
    10
 73
     6
 74
     0
 42
0.00000001
 43
0.00000001
 12
1.0
 22
0.0
 32
0.0
 13
1.0
 23
0.0
 33
0.0
 40
0.0
 40
0.0
 40
0.0
 40
0.0
 40
0.3285120519388917
 40
0.6618453285564049
 40
1.0
 40
1.0
 40
1.0
 40
1.0
 10
482.9513229252073
 20
461.7852152025916
 30
0.0
 10
483.827036228057
 20
462.1417551726205
 30
0.0
 10
485.591314753685
 20
462.8600676735305
 30
0.0
 10
488.2579930781108
 20
463.9457867163575
 30
0.0
 10
490.0492591137757
 20
464.6750887753653
 30
0.0
 10
490.9513229252073
 20
465.0423580597345
 30
0.0
  0
SPLINE
  5
C7
330
1F
100
AcDbEntity
  8
0
  6
Continuous
 62
     7
370
    15
100
AcDbSpline
210
0.0
220
0.0
230
1.0
 70
     8
 71
     3
 72
    11
 73
     7
 74
     0
 42
0.00000001
 43
0.00000001
 12
1.0
 22
0.0
 32
0.0
 13
1.0
 23
0.0
 33
0.0
 40
0.0
 40
0.0
 40
0.0
 40
0.0
 40
0.2462402647205278
 40
0.4949869575481856
 40
0.746240172296998
 40
0.9999999999999999
 40
0.9999999999999999
 40
0.9999999999999999
 40
0.9999999999999999
 10
490.9513229252071
 20
458.5280723454487
 30
0.0
 10
490.2949747064679
 20
458.7952995713314
 30
0.0
 10
488.9755974378694
 20
459.3324740730883
 30
0.0
 10
486.985838721648
 20
460.1425893336099
 30
0.0
 10
484.9755898009358
 20
460.9610486217073
 30
0.0
 10
483.6283076116853
 20
461.509585461743
 30
0.0
 10
482.9513229252074
 20
461.7852152025916
 30
0.0
  0
LINE
  5
C8
330
1F
100
AcDbEntity
  8
0
  6
Continuous
 62
     7
370
    15
100
AcDbLine
 10
490.9513245941
 20
449.7852157688
 30
0.0
 11
490.9513245941
 21
458.5280734933
 31
0.0
  0
LINE
  5
C9
330
1F
100
AcDbEntity
  8
0
  6
Continuous
 62
     7
370
    15
100
AcDbLine
 10
490.9513245941
 20
449.7852157688
 30
0.0
 11
488.5798941971
 21
449.7852157688
 31
0.0
  0
LINE
  5
CA
330
1F
100
AcDbEntity
  8
0
  6
Continuous
 62
     7
370
    15
100
AcDbLine
 10
490.9513245941
 20
473.7852159774
 30
0.0
 11
488.5798941971
 21
473.7852159774
 31
0.0
  0
LINE
  5
CB
330
1F
100
AcDbEntity
  8
0
  6
Continuous
 62
     7
370
    15
100
AcDbLine
 10
673.9513229252
 20
491.7852152026
 30
0.0
 11
673.9513229252
 21
618.7852192557
 31
0.0
  0
LINE
  5
CC
330
1F
100
AcDbEntity
  8
0
  6
Continuous
 62
     7
370
    15
100
AcDbLine
 10
673.9513229252
 20
364.7852111495
 30
0.0
 11
673.9513229252
 21
491.7852152026
 31
0.0
  0
LINE
  5
CD
330
1F
100
AcDbEntity
  8
0
  6
Continuous
 62
     7
370
    15
100
AcDbLine
 10
654.9513235362
 20
491.7852152026
 30
0.0
 11
654.9513235362
 21
618.7852192557
 31
0.0
  0
LINE
  5
CE
330
1F
100
AcDbEntity
  8
0
  6
Continuous
 62
     7
370
    15
100
AcDbLine
 10
654.9513235362
 20
364.7852111495
 30
0.0
 11
654.9513235362
 21
491.7852152026
 31
0.0
  0
LINE
  5
CF
330
1F
100
AcDbEntity
  8
0
  6
Continuous
 62
     7
370
    15
100
AcDbLine
 10
492.9513286473
 20
491.7852152026
 30
0.0
 11
492.9513286473
 21
364.7852111495
 31
0.0
  0
LINE
  5
D0
330
1F
100
AcDbEntity
  8
0
  6
Continuous
 62
     7
370
    15
100
AcDbLine
 10
492.9513286473
 20
618.7852192557
 30
0.0
 11
492.9513286473
 21
491.7852152026
 31
0.0
  0
LINE
  5
D1
330
1F
100
AcDbEntity
  8
0
  6
Continuous
 62
     7
370
    15
100
AcDbLine
 10
473.951319945
 20
491.7852152026
 30
0.0
 11
473.951319945
 21
364.7852111495
 31
0.0
  0
LINE
  5
D2
330
1F
100
AcDbEntity
  8
0
  6
Continuous
 62
     7
370
    15
100
AcDbLine
 10
473.951319945
 20
618.7852192557
 30
0.0
 11
473.951319945
 21
491.7852152026
 31
0.0
  0
LINE
  5
D3
330
1F
100
AcDbEntity
  8
0
  6
Continuous
 62
     7
370
    15
100
AcDbLine
 10
594.9513192893
 20
580.1735613382
 30
0.0
 11
594.9513192893
 21
616.7852152026
 31
0.0
  0
LINE
  5
D4
330
1F
100
AcDbEntity
  8
0
  6
Continuous
 62
     7
370
    15
100
AcDbLine
 10
594.9513192893
 20
366.7852152026
 30
0.0
 11
594.9513192893
 21
580.1735613382
 31
0.0
  0
LINE
  5
D5
330
1F
100
AcDbEntity
  8
0
  6
Continuous
 62
     7
370
    15
100
AcDbLine
 10
572.9513194085
 20
580.1735613382
 30
0.0
 11
572.9513194085
 21
616.7852152026
 31
0.0
  0
LINE
  5
D6
330
1F
100
AcDbEntity
  8
0
  6
Continuous
 62
     7
370
    15
100
AcDbLine
 10
572.9513194085
 20
366.7852152026
 30
0.0
 11
572.9513194085
 21
580.1735613382
 31
0.0
  0
LINE
  5
D7
330
1F
100
AcDbEntity
  8
0
  6
Continuous
 62
     7
370
    15
100
AcDbLine
 10
662.522751619
 20
533.0995004511
 30
0.0
 11
662.522751619
 21
533.7852146363
 31
0.0
  0
SPLINE
  5
D8
330
1F
100
AcDbEntity
  8
0
  6
Continuous
 62
     7
370
    15
100
AcDbSpline
210
0.0
220
0.0
230
1.0
 70
     8
 71
     3
 72
    20
 73
    16
 74
     0
 42
0.00000001
 43
0.00000001
 12
1.0
 22
0.0
 32
0.0
 13
1.0
 23
0.0
 33
0.0
 40
0.0
 40
0.0
 40
0.0
 40
0.0
 40
0.0419016017859196
 40
0.0838414792280272
 40
0.1258876723608698
 40
0.1885282286207199
 40
0.2512739508982971
 40
0.3762244317801485
 40
0.500859543865133
 40
0.6252692736263579
 40
0.7496376957938198
 40
0.8121566331750367
 40
0.8743767771071488
 40
0.9372853198614853
 40
0.9999999999999999
 40
0.9999999999999999
 40
0.9999999999999999
 40
0.9999999999999999
 10
664.7584844361389
 20
530.484858520635
 30
0.0
 10
664.7476670350113
 20
530.5328847414605
 30
0.0
 10
664.7260223514364
 20
530.6289810533942
 30
0.0
 10
664.6858047358894
 20
530.7714690380241
 30
0.0
 10
664.6324949078768
 20
530.9355526285224
 30
0.0
 10
664.5617263330131
 20
531.1197625466622
 30
0.0
 10
664.438975189585
 20
531.3885318754752
 30
0.0
 10
664.2548341655734
 20
531.7100674859383
 30
0.0
 10
663.9880714099922
 20
532.0672122739031
 30
0.0
 10
663.6786700248264
 20
532.3907549357575
 30
0.0
 10
663.3876128549427
 20
532.6282843487337
 30
0.0
 10
663.1372664579263
 20
532.7961329726369
 30
0.0
 10
662.9402905708645
 20
532.9104580975109
 30
0.0
 10
662.7359851664137
 20
533.0133385836267
 30
0.0
 10
662.5937562236702
 20
533.0708097023966
 30
0.0
 10
662.5227514966365
 20
533.0995009168698
 30
0.0
  0
SPLINE
  5
D9
330
1F
100
AcDbEntity
  8
0
  6
Continuous
 62
     7
370
    15
100
AcDbSpline
210
0.0
220
0.0
230
1.0
 70
     8
 71
     3
 72
    10
 73
     6
 74
     0
 42
0.00000001
 43
0.00000001
 12
1.0
 22
0.0
 32
0.0
 13
1.0
 23
0.0
 33
0.0
 40
0.0
 40
0.0
 40
0.0
 40
0.0
 40
0.3302985632438524
 40
0.6636317307222682
 40
1.0
 40
1.0
 40
1.0
 40
1.0
 10
668.3798943537794
 20
533.2137866311555
 30
0.0
 10
667.9816477957992
 20
532.9136865830181
 30
0.0
 10
667.1814958062446
 20
532.3107293301035
 30
0.0
 10
665.9743480115862
 20
531.401078209375
 30
0.0
 10
665.1649949632905
 20
530.7911864312473
 30
0.0
 10
664.7584844361389
 20
530.484858520635
 30
0.0
  0
LINE
  5
DA
330
1F
100
AcDbEntity
  8
0
  6
Continuous
 62
     7
370
    15
100
AcDbLine
 10
668.3798942388
 20
530.2444379664
 30
0.0
 11
668.3798942388
 21
533.2137849069
 31
0.0
  0
SPLINE
  5
DB
330
1F
100
AcDbEntity
  8
0
  6
Continuous
 62
     7
370
    15
100
AcDbSpline
210
0.0
220
0.0
230
1.0
 70
     8
 71
     3
 72
     9
 73
     5
 74
     0
 42
0.00000001
 43
0.00000001
 12
1.0
 22
0.0
 32
0.0
 13
1.0
 23
0.0
 33
0.0
 40
0.0
 40
0.0
 40
0.0
 40
0.0
 40
0.5031676464430976
 40
1.0
 40
1.0
 40
1.0
 40
1.0
 10
665.1781635786391
 20
527.8317591631536
 30
0.0
 10
665.7156355013841
 20
528.2367735849817
 30
0.0
 10
666.7838121350457
 20
529.0417029652613
 30
0.0
 10
667.8501187357422
 20
529.8452220687734
 30
0.0
 10
668.3798943537794
 20
530.2444363560993
 30
0.0
  0
SPLINE
  5
DC
330
1F
100
AcDbEntity
  8
0
  6
Continuous
 62
     7
370
    15
100
AcDbSpline
210
0.0
220
0.0
230
1.0
 70
     8
 71
     3
 72
     9
 73
     5
 74
     0
 42
0.00000001
 43
0.00000001
 12
1.0
 22
0.0
 32
0.0
 13
1.0
 23
0.0
 33
0.0
 40
0.0
 40
0.0
 40
0.0
 40
0.0
 40
0.5018623825891427
 40
1.0
 40
1.0
 40
1.0
 40
1.0
 10
668.3798943537794
 20
526.5281973475609
 30
0.0
 10
667.8441901757138
 20
526.746305547924
 30
0.0
 10
666.7767577546946
 20
527.1809031745438
 30
0.0
 10
665.7097034617664
 20
527.6153465668235
 30
0.0
 10
665.1781635786391
 20
527.8317591631536
 30
0.0
  0
LINE
  5
DD
330
1F
100
AcDbEntity
  8
0
  6
Continuous
 62
     7
370
    15
100
AcDbLine
 10
660.2370373578
 20
529.843503598
 30
0.0
 11
660.2370373578
 21
527.2830556965
 31
0.0
  0
SPLINE
  5
DE
330
1F
100
AcDbEntity
  8
0
  6
Continuous
 62
     7
370
    15
100
AcDbSpline
210
0.0
220
0.0
230
1.0
 70
     8
 71
     3
 72
     9
 73
     5
 74
     0
 42
0.00000001
 43
0.00000001
 12
1.0
 22
0.0
 32
0.0
 13
1.0
 23
0.0
 33
0.0
 40
0.0
 40
0.0
 40
0.0
 40
0.0
 40
0.5016695610270353
 40
1.0
 40
1.0
 40
1.0
 40
1.0
 10
663.2065598002978
 20
528.6344835586212
 30
0.0
 10
662.7098989022338
 20
528.8366955622306
 30
0.0
 10
661.7198828904052
 20
529.2397736425416
 30
0.0
 10
660.7302175663132
 20
529.6427086772741
 30
0.0
 10
660.2370372109223
 20
529.8435034700099
 30
0.0
  0
SPLINE
  5
DF
330
1F
100
AcDbEntity
  8
0
  6
Continuous
 62
     7
370
    15
100
AcDbSpline
210
0.0
220
0.0
230
1.0
 70
     8
 71
     3
 72
    26
 73
    22
 74
     0
 42
0.00000001
 43
0.00000001
 12
1.0
 22
0.0
 32
0.0
 13
1.0
 23
0.0
 33
0.0
 40
0.0
 40
0.0
 40
0.0
 40
0.0
 40
0.0210112334427494
 40
0.0419792184780036
 40
0.0838079111092957
 40
0.1255412990305901
 40
0.1880208728367642
 40
0.2504332194753431
 40
0.3128068451959789
 40
0.3751449305691373
 40
0.4374423431877174
 40
0.4997027061239226
 40
0.5619379285150974
 40
0.6242018441983672
 40
0.6865504854824585
 40
0.7490078769162226
 40
0.8115785283256131
 40
0.8742598897372007
 40
0.9370547062633848
 40
0.968557382762386
 40
1.0
 40
1.0
 40
1.0
 40
1.0
 10
660.2370372109223
 20
531.4995009168698
 30
0.0
 10
660.2697171165029
 20
531.4991750744263
 30
0.0
 10
660.3350096610811
 20
531.4985240602357
 30
0.0
 10
660.465185071549
 20
531.4916075023378
 30
0.0
 10
660.6269709781253
 20
531.4751740672658
 30
0.0
 10
660.8507188026028
 20
531.4371508420344
 30
0.0
 10
661.1014694544809
 20
531.3732597250342
 30
0.0
 10
661.3742838932309
 20
531.2751060983251
 30
0.0
 10
661.6354836047338
 20
531.152116326311
 30
0.0
 10
661.8827378448019
 20
531.005654906336
 30
0.0
 10
662.1137573346641
 20
530.837110241291
 30
0.0
 10
662.3261087239974
 20
530.6477518685289
 30
0.0
 10
662.5177444816154
 20
530.4393224070619
 30
0.0
 10
662.6879652840223
 20
530.2144164785459
 30
0.0
 10
662.8358224008318
 20
529.9750700669383
 30
0.0
 10
662.960533101798
 20
529.7233766060233
 30
0.0
 10
663.0612353238761
 20
529.4613898750005
 30
0.0
 10
663.1372148124228
 20
529.1911980384164
 30
0.0
 10
663.1788520001371
 20
528.9608978428614
 30
0.0
 10
663.199553813298
 20
528.774818514022
 30
0.0
 10
663.2042259572735
 20
528.6812321119284
 30
0.0
 10
663.2065598002978
 20
528.6344835586212
 30
0.0
  0
LINE
  5
E0
330
1F
100
AcDbEntity
  8
0
  6
Continuous
 62
     7
370
    15
100
AcDbLine
 10
660.2370373578
 20
533.7852146363
 30
0.0
 11
660.2370373578
 21
531.4994994438
 31
0.0
  0
LINE
  5
E1
330
1F
100
AcDbEntity
  8
0
  6
Continuous
 62
     7
370
    15
100
AcDbLine
 10
660.2370373578
 20
533.7852146363
 30
0.0
 11
662.522751619
 21
533.7852146363
 31
0.0
  0
SPLINE
  5
E2
330
1F
100
AcDbEntity
  8
0
  6
Continuous
 62
     7
370
    15
100
AcDbSpline
210
0.0
220
0.0
230
1.0
 70
     8
 71
     3
 72
    11
 73
     7
 74
     0
 42
0.00000001
 43
0.00000001
 12
1.0
 22
0.0
 32
0.0
 13
1.0
 23
0.0
 33
0.0
 40
0.0
 40
0.0
 40
0.0
 40
0.0
 40
0.2463436930914157
 40
0.4951248485667943
 40
0.7463435805817604
 40
1.0
 40
1.0
 40
1.0
 40
1.0
 10
660.2370372109219
 20
527.2830575276839
 30
0.0
 10
660.9053543157366
 20
527.0109572661934
 30
0.0
 10
662.2486012288742
 20
526.4640644309239
 30
0.0
 10
664.2741482045344
 20
525.6393782552252
 30
0.0
 10
666.3200383030528
 20
524.8064078964344
 30
0.0
 10
667.6910690887244
 20
524.2482019637273
 30
0.0
 10
668.3798943537793
 20
523.9677514052348
 30
0.0
  0
LINE
  5
E3
330
1F
100
AcDbEntity
  8
0
  6
Continuous
 62
     7
370
    15
100
AcDbLine
 10
668.3798942388
 20
523.9677522218
 30
0.0
 11
668.3798942388
 21
526.528196398
 31
0.0
  0
LINE
  5
E4
330
1F
100
AcDbEntity
  8
0
  6
Continuous
 62
     7
370
    15
100
AcDbLine
 10
485.379899633
 20
450.4709299541
 30
0.0
 11
485.379899633
 21
449.7852157688
 31
0.0
  0
SPLINE
  5
E5
330
1F
100
AcDbEntity
  8
0
  6
Continuous
 62
     7
370
    15
100
AcDbSpline
210
0.0
220
0.0
230
1.0
 70
     8
 71
     3
 72
    20
 73
    16
 74
     0
 42
0.00000001
 43
0.00000001
 12
1.0
 22
0.0
 32
0.0
 13
1.0
 23
0.0
 33
0.0
 40
0.0
 40
0.0
 40
0.0
 40
0.0
 40
0.0419016017859185
 40
0.0838414792280245
 40
0.1258876723608687
 40
0.1885282286207171
 40
0.2512739508982966
 40
0.3762244317801467
 40
0.5008595438651338
 40
0.6252692736263602
 40
0.7496376957938223
 40
0.8121566331742791
 40
0.8743767771071472
 40
0.9372853198607439
 40
1.0
 40
1.0
 40
1.0
 40
1.0
 10
483.1441614142763
 20
453.0855718845406
 30
0.0
 10
483.1549788154038
 20
453.0375456637151
 30
0.0
 10
483.1766234989787
 20
452.9414493517814
 30
0.0
 10
483.2168411145257
 20
452.7989613671515
 30
0.0
 10
483.2701509425383
 20
452.6348777766533
 30
0.0
 10
483.3409195174021
 20
452.4506678585135
 30
0.0
 10
483.4636706608301
 20
452.1818985297004
 30
0.0
 10
483.6478116848418
 20
451.8603629192373
 30
0.0
 10
483.9145744404228
 20
451.5032181312725
 30
0.0
 10
484.2239758255889
 20
451.1796754694181
 30
0.0
 10
484.5150329954716
 20
450.9421460564424
 30
0.0
 10
484.7653793924881
 20
450.7742974325394
 30
0.0
 10
484.962355279549
 20
450.6599723076657
 30
0.0
 10
485.1666606840006
 20
450.5570918215489
 30
0.0
 10
485.308889626744
 20
450.4996207027793
 30
0.0
 10
485.3798943537785
 20
450.4709294883057
 30
0.0
  0
SPLINE
  5
E6
330
1F
100
AcDbEntity
  8
0
  6
Continuous
 62
     7
370
    15
100
AcDbSpline
210
0.0
220
0.0
230
1.0
 70
     8
 71
     3
 72
    10
 73
     6
 74
     0
 42
0.00000001
 43
0.00000001
 12
1.0
 22
0.0
 32
0.0
 13
1.0
 23
0.0
 33
0.0
 40
0.0
 40
0.0
 40
0.0
 40
0.0
 40
0.3302985632438522
 40
0.6636317307222674
 40
1.0
 40
1.0
 40
1.0
 40
1.0
 10
479.5227514966357
 20
450.3566437740201
 30
0.0
 10
479.9209980546158
 20
450.6567438221574
 30
0.0
 10
480.7211500441705
 20
451.2597010750721
 30
0.0
 10
481.9282978388288
 20
452.1693521958006
 30
0.0
 10
482.7376508871246
 20
452.7792439739283
 30
0.0
 10
483.1441614142762
 20
453.0855718845406
 30
0.0
  0
LINE
  5
E7
330
1F
100
AcDbEntity
  8
0
  6
Continuous
 62
     7
370
    15
100
AcDbLine
 10
479.5227449061
 20
453.3259924388
 30
0.0
 11
479.5227449061
 21
450.3566454983
 31
0.0
  0
SPLINE
  5
E8
330
1F
100
AcDbEntity
  8
0
  6
Continuous
 62
     7
370
    15
100
AcDbSpline
210
0.0
220
0.0
230
1.0
 70
     8
 71
     3
 72
     9
 73
     5
 74
     0
 42
0.00000001
 43
0.00000001
 12
1.0
 22
0.0
 32
0.0
 13
1.0
 23
0.0
 33
0.0
 40
0.0
 40
0.0
 40
0.0
 40
0.0
 40
0.5031676464431002
 40
1.0
 40
1.0
 40
1.0
 40
1.0
 10
482.724482271776
 20
455.7386712420221
 30
0.0
 10
482.187010349031
 20
455.3336568201939
 30
0.0
 10
481.1188337153695
 20
454.5287274399143
 30
0.0
 10
480.052527114673
 20
453.7252083364022
 30
0.0
 10
479.5227514966357
 20
453.3259940490764
 30
0.0
  0
SPLINE
  5
E9
330
1F
100
AcDbEntity
  8
0
  6
Continuous
 62
     7
370
    15
100
AcDbSpline
210
0.0
220
0.0
230
1.0
 70
     8
 71
     3
 72
     9
 73
     5
 74
     0
 42
0.00000001
 43
0.00000001
 12
1.0
 22
0.0
 32
0.0
 13
1.0
 23
0.0
 33
0.0
 40
0.0
 40
0.0
 40
0.0
 40
0.0
 40
0.5018623825891448
 40
0.9999999999999999
 40
0.9999999999999999
 40
0.9999999999999999
 40
0.9999999999999999
 10
479.5227514966357
 20
457.0422330576149
 30
0.0
 10
480.0584556747013
 20
456.8241248572518
 30
0.0
 10
481.1258880957206
 20
456.3895272306319
 30
0.0
 10
482.1929423886488
 20
455.9550838383522
 30
0.0
 10
482.724482271776
 20
455.738671242022
 30
0.0
  0
LINE
  5
EA
330
1F
100
AcDbEntity
  8
0
  6
Continuous
 62
     7
370
    15
100
AcDbLine
 10
487.6656036497
 20
453.7269268072
 30
0.0
 11
487.6656036497
 21
456.2873747087
 31
0.0
  0
SPLINE
  5
EB
330
1F
100
AcDbEntity
  8
0
  6
Continuous
 62
     7
370
    15
100
AcDbSpline
210
0.0
220
0.0
230
1.0
 70
     8
 71
     3
 72
     9
 73
     5
 74
     0
 42
0.00000001
 43
0.00000001
 12
1.0
 22
0.0
 32
0.0
 13
1.0
 23
0.0
 33
0.0
 40
0.0
 40
0.0
 40
0.0
 40
0.0
 40
0.5016695610270304
 40
1.0
 40
1.0
 40
1.0
 40
1.0
 10
484.6960860501174
 20
454.9359468465544
 30
0.0
 10
485.1927469481813
 20
454.7337348429451
 30
0.0
 10
486.18276296001
 20
454.330656762634
 30
0.0
 10
487.1724282841019
 20
453.9277217279016
 30
0.0
 10
487.6656086394929
 20
453.7269269351658
 30
0.0
  0
SPLINE
  5
EC
330
1F
100
AcDbEntity
  8
0
  6
Continuous
 62
     7
370
    15
100
AcDbSpline
210
0.0
220
0.0
230
1.0
 70
     8
 71
     3
 72
    26
 73
    22
 74
     0
 42
0.00000001
 43
0.00000001
 12
1.0
 22
0.0
 32
0.0
 13
1.0
 23
0.0
 33
0.0
 40
0.0
 40
0.0
 40
0.0
 40
0.0
 40
0.0210112334427489
 40
0.041979218478003
 40
0.0838079111092967
 40
0.1255412990305897
 40
0.188020872836765
 40
0.2504332194753474
 40
0.3128068451959786
 40
0.3751449305691377
 40
0.437442343187721
 40
0.499702706123928
 40
0.5619379285151026
 40
0.6242018441983722
 40
0.6865504854824657
 40
0.7490078769162283
 40
0.8115785283256218
 40
0.8742598897372105
 40
0.9370547062633959
 40
0.9685573827671156
 40
1.0
 40
1.0
 40
1.0
 40
1.0
 10
487.6656086394928
 20
452.0709294883058
 30
0.0
 10
487.6329287339123
 20
452.0712553307494
 30
0.0
 10
487.5676361893338
 20
452.0719063449399
 30
0.0
 10
487.4374607788662
 20
452.0788229028378
 30
0.0
 10
487.2756748722899
 20
452.0952563379097
 30
0.0
 10
487.0519270478123
 20
452.1332795631412
 30
0.0
 10
486.8011763959343
 20
452.1971706801414
 30
0.0
 10
486.5283619571843
 20
452.2953243068505
 30
0.0
 10
486.2671622456813
 20
452.4183140788647
 30
0.0
 10
486.0199080056132
 20
452.5647754988396
 30
0.0
 10
485.788888515751
 20
452.7333201638846
 30
0.0
 10
485.5765371264177
 20
452.9226785366467
 30
0.0
 10
485.3849013687998
 20
453.1311079981137
 30
0.0
 10
485.2146805663929
 20
453.3560139266296
 30
0.0
 10
485.0668234495832
 20
453.5953603382372
 30
0.0
 10
484.9421127486171
 20
453.8470537991523
 30
0.0
 10
484.8414105265389
 20
454.1090405301752
 30
0.0
 10
484.7654310379925
 20
454.3792323667593
 30
0.0
 10
484.7237938502759
 20
454.6095325623211
 30
0.0
 10
484.703092037118
 20
454.7956118911607
 30
0.0
 10
484.6984198931417
 20
454.8891982932544
 30
0.0
 10
484.6960860501174
 20
454.9359468465544
 30
0.0
  0
LINE
  5
ED
330
1F
100
AcDbEntity
  8
0
  6
Continuous
 62
     7
370
    15
100
AcDbLine
 10
487.6656036497
 20
449.7852157688
 30
0.0
 11
487.6656036497
 21
452.0709309614
 31
0.0
  0
LINE
  5
EE
330
1F
100
AcDbEntity
  8
0
  6
Continuous
 62
     7
370
    15
100
AcDbLine
 10
487.6656036497
 20
449.7852157688
 30
0.0
 11
485.379899633
 21
449.7852157688
 31
0.0
  0
LINE
  5
EF
330
1F
100
AcDbEntity
  8
0
  6
Continuous
 62
     7
370
    15
100
AcDbLine
 10
479.5227449061
 20
459.6026781833
 30
0.0
 11
479.5227449061
 21
457.0422340071
 31
0.0
  0
SPLINE
  5
F0
330
1F
100
AcDbEntity
  8
0
  6
Continuous
 62
     7
370
    15
100
AcDbSpline
210
0.0
220
0.0
230
1.0
 70
     8
 71
     3
 72
    11
 73
     7
 74
     0
 42
0.00000001
 43
0.00000001
 12
1.0
 22
0.0
 32
0.0
 13
1.0
 23
0.0
 33
0.0
 40
0.0
 40
0.0
 40
0.0
 40
0.0
 40
0.2463436930915723
 40
0.4951248485669988
 40
0.7463435805819154
 40
0.9999999999999999
 40
0.9999999999999999
 40
0.9999999999999999
 40
0.9999999999999999
 10
487.665608639493
 20
456.2873728774917
 30
0.0
 10
486.997291534678
 20
456.5594731389825
 30
0.0
 10
485.6540446215399
 20
457.1063659742521
 30
0.0
 10
483.6284976458792
 20
457.9310521499509
 30
0.0
 10
481.5826075473614
 20
458.7640225087418
 30
0.0
 10
480.2115767616904
 20
459.3222284414485
 30
0.0
 10
479.5227514966358
 20
459.6026789999408
 30
0.0
  0
LINE
  5
F1
330
1F
100
AcDbEntity
  8
0
  6
Continuous
 62
     7
370
    15
100
AcDbLine
 10
675.9513230202
 20
436.6034548617
 30
0.0
 11
675.9513230202
 21
466.6034541911
 31
0.0
  0
LINE
  5
F2
330
1F
100
AcDbEntity
  8
0
  6
Continuous
 62
     7
370
    15
100
AcDbLine
 10
471.9513158919
 20
466.6034541911
 30
0.0
 11
471.9513158919
 21
436.6034548617
 31
0.0
  0
LINE
  5
F3
330
1F
100
AcDbEntity
  8
0
  6
Continuous
 62
     7
370
    15
100
AcDbLine
 10
471.9513158919
 20
546.9669755435
 30
0.0
 11
471.9513158919
 21
516.9669762141
 31
0.0
  0
LINE
  5
F4
330
1F
100
AcDbEntity
  8
0
  6
Continuous
 62
     7
370
    15
100
AcDbLine
 10
675.9513230202
 20
516.9669762141
 30
0.0
 11
675.9513230202
 21
546.9669755435
 31
0.0
  0
SPLINE
  5
F5
330
1F
100
AcDbEntity
  8
0
  6
Continuous
 62
     7
370
    15
100
AcDbSpline
210
0.0
220
0.0
230
1.0
 70
     8
 71
     3
 72
    10
 73
     6
 74
     0
 42
0.00000001
 43
0.00000001
 12
1.0
 22
0.0
 32
0.0
 13
1.0
 23
0.0
 33
0.0
 40
0.0
 40
0.0
 40
0.0
 40
0.0
 40
0.5
 40
0.5
 40
1.0
 40
1.0
 40
1.0
 40
1.0
 10
685.879526155483
 20
448.0171529155764
 30
0.0
 10
686.2066999165946
 20
449.1118976568765
 30
0.0
 10
686.4762424605132
 20
450.2146388348202
 30
0.0
 10
686.849174968772
 20
452.4431751645861
 30
0.0
 10
686.9513229252084
 20
453.5691426472734
 30
0.0
 10
686.9513229252085
 20
454.7092833454797
 30
0.0
  0
LINE
  5
F6
330
1F
100
AcDbEntity
  8
0
  6
Continuous
 62
     7
370
    15
100
AcDbLine
 10
686.9513231934
 20
443.1181717551
 30
0.0
 11
686.9513231934
 21
454.7092821336
 31
0.0
  0
SPLINE
  5
F7
330
1F
100
AcDbEntity
  8
0
  6
Continuous
 62
     7
370
    15
100
AcDbSpline
210
0.0
220
0.0
230
1.0
 70
     8
 71
     3
 72
    10
 73
     6
 74
     0
 42
0.00000001
 43
0.00000001
 12
1.0
 22
0.0
 32
0.0
 13
1.0
 23
0.0
 33
0.0
 40
0.0
 40
0.0
 40
0.0
 40
0.0
 40
0.5
 40
0.5
 40
1.0
 40
1.0
 40
1.0
 40
1.0
 10
685.8795261554831
 20
448.0171529155768
 30
0.0
 10
686.2048099522204
 20
447.2203735919746
 30
0.0
 10
686.4776369094192
 20
446.4043152564394
 30
0.0
 10
686.8506898719617
 20
444.7685039234954
 30
0.0
 10
686.9513229252065
 20
443.9460203960508
 30
0.0
 10
686.9513229252062
 20
443.1181734300105
 30
0.0
  0
SPLINE
  5
F8
330
1F
100
AcDbEntity
  8
0
  6
Continuous
 62
     7
370
    15
100
AcDbSpline
210
0.0
220
0.0
230
1.0
 70
     8
 71
     3
 72
    12
 73
     8
 74
     0
 42
0.00000001
 43
0.00000001
 12
1.0
 22
0.0
 32
0.0
 13
1.0
 23
0.0
 33
0.0
 40
0.0
 40
0.0
 40
0.0
 40
0.0
 40
0.2499999999999993
 40
0.2499999999999993
 40
0.4999999999999987
 40
0.4999999999999987
 40
1.0
 40
1.0
 40
1.0
 40
1.0
 10
686.9513229252085
 20
454.7092833454797
 30
0.0
 10
686.9513229252086
 20
455.2772220977658
 30
0.0
 10
686.9259896719157
 20
455.8477089032314
 30
0.0
 10
686.827952784839
 20
456.976250636399
 30
0.0
 10
686.7553434159101
 20
457.5367469913611
 30
0.0
 10
686.4752967169763
 20
459.2082811776127
 30
0.0
 10
686.2058828880706
 20
460.3094028648126
 30
0.0
 10
685.8795261554849
 20
461.4014137753832
 30
0.0
  0
LINE
  5
F9
330
1F
100
AcDbEntity
  8
0
  6
Continuous
 62
     7
370
    15
100
AcDbLine
 10
685.8795264409
 20
448.017152015
 30
0.0
 11
675.9513230202
 21
448.017152015
 31
0.0
  0
LINE
  5
FA
330
1F
100
AcDbEntity
  8
0
  6
Continuous
 62
     7
370
    15
100
AcDbLine
 10
685.8795264409
 20
461.4014141148
 30
0.0
 11
675.9513230202
 21
461.4014141148
 31
0.0
  0
SPLINE
  5
FB
330
1F
100
AcDbEntity
  8
0
  6
Continuous
 62
     7
370
    15
100
AcDbSpline
210
0.0
220
0.0
230
1.0
 70
     8
 71
     3
 72
    12
 73
     8
 74
     0
 42
0.00000001
 43
0.00000001
 12
1.0
 22
0.0
 32
0.0
 13
1.0
 23
0.0
 33
0.0
 40
0.0
 40
0.0
 40
0.0
 40
0.0
 40
0.2500000000000001
 40
0.2500000000000001
 40
0.5000000000000002
 40
0.5000000000000002
 40
1.0
 40
1.0
 40
1.0
 40
1.0
 10
460.9513229252061
 20
454.7092833454839
 30
0.0
 10
460.9513229252061
 20
454.141344593198
 30
0.0
 10
460.9766561784992
 20
453.5708577877326
 30
0.0
 10
461.074693065576
 20
452.4423160545651
 30
0.0
 10
461.1473024345049
 20
451.8818196996031
 30
0.0
 10
461.4273491334387
 20
450.2102855133521
 30
0.0
 10
461.6967629623445
 20
449.1091638261523
 30
0.0
 10
462.0231196949302
 20
448.017152915582
 30
0.0
  0
SPLINE
  5
FC
330
1F
100
AcDbEntity
  8
0
  6
Continuous
 62
     7
370
    15
100
AcDbSpline
210
0.0
220
0.0
230
1.0
 70
     8
 71
     3
 72
    10
 73
     6
 74
     0
 42
0.00000001
 43
0.00000001
 12
1.0
 22
0.0
 32
0.0
 13
1.0
 23
0.0
 33
0.0
 40
0.0
 40
0.0
 40
0.0
 40
0.0
 40
0.5
 40
0.5
 40
1.0
 40
1.0
 40
1.0
 40
1.0
 10
462.023119694931
 20
448.0171529155829
 30
0.0
 10
461.6978358981935
 20
447.2203735919807
 30
0.0
 10
461.4250089409942
 20
446.4043152564453
 30
0.0
 10
461.0519559784515
 20
444.7685039235014
 30
0.0
 10
460.9513229252064
 20
443.946020396057
 30
0.0
 10
460.9513229252064
 20
443.1181734300167
 30
0.0
  0
LINE
  5
FD
330
1F
100
AcDbEntity
  8
0
  6
Continuous
 62
     7
370
    15
100
AcDbLine
 10
460.951323402
 20
454.7092821336
 30
0.0
 11
460.951323402
 21
443.1181717551
 31
0.0
  0
SPLINE
  5
FE
330
1F
100
AcDbEntity
  8
0
  6
Continuous
 62
     7
370
    15
100
AcDbSpline
210
0.0
220
0.0
230
1.0
 70
     8
 71
     3
 72
    10
 73
     6
 74
     0
 42
0.00000001
 43
0.00000001
 12
1.0
 22
0.0
 32
0.0
 13
1.0
 23
0.0
 33
0.0
 40
0.0
 40
0.0
 40
0.0
 40
0.0
 40
0.5
 40
0.5
 40
1.0
 40
1.0
 40
1.0
 40
1.0
 10
462.023119694931
 20
461.4014137753871
 30
0.0
 10
461.6959459338194
 20
460.306669034087
 30
0.0
 10
461.4264033899009
 20
459.2039278561433
 30
0.0
 10
461.0534708816425
 20
456.9753915263775
 30
0.0
 10
460.9513229252062
 20
455.8494240436902
 30
0.0
 10
460.9513229252061
 20
454.7092833454839
 30
0.0
  0
LINE
  5
FF
330
1F
100
AcDbEntity
  8
0
  6
Continuous
 62
     7
370
    15
100
AcDbLine
 10
462.0231192232
 20
461.4014141148
 30
0.0
 11
471.9513158919
 21
461.4014141148
 31
0.0
  0
LINE
  5
100
330
1F
100
AcDbEntity
  8
0
  6
Continuous
 62
     7
370
    15
100
AcDbLine
 10
462.0231192232
 20
448.017152015
 30
0.0
 11
471.9513158919
 21
448.017152015
 31
0.0
  0
SPLINE
  5
101
330
1F
100
AcDbEntity
  8
0
  6
Continuous
 62
     7
370
    15
100
AcDbSpline
210
0.0
220
0.0
230
1.0
 70
     8
 71
     3
 72
    12
 73
     8
 74
     0
 42
0.00000001
 43
0.00000001
 12
1.0
 22
0.0
 32
0.0
 13
1.0
 23
0.0
 33
0.0
 40
0.0
 40
0.0
 40
0.0
 40
0.0
 40
0.2500000000000001
 40
0.2500000000000001
 40
0.5000000000000001
 40
0.5000000000000001
 40
1.0
 40
1.0
 40
1.0
 40
1.0
 10
686.9513229252062
 20
443.1181734300105
 30
0.0
 10
686.9513229252061
 20
442.7040040204516
 30
0.0
 10
686.9264315177459
 20
442.2885079738568
 30
0.0
 10
686.827508393462
 20
441.454896850206
 30
0.0
 10
686.7539878762719
 20
441.0411394980785
 30
0.0
 10
686.4722332281184
 20
439.8138598894454
 30
0.0
 10
686.2029150053568
 20
439.0113316151455
 30
0.0
 10
685.8795261554809
 20
438.2191939444442
 30
0.0
  0
LINE
  5
102
330
1F
100
AcDbEntity
  8
0
  6
Continuous
 62
     7
370
    15
100
AcDbLine
 10
685.8795264409
 20
438.2191952205
 30
0.0
 11
675.9513230202
 21
438.2191952205
 31
0.0
  0
SPLINE
  5
103
330
1F
100
AcDbEntity
  8
0
  6
Continuous
 62
     7
370
    15
100
AcDbSpline
210
0.0
220
0.0
230
1.0
 70
     8
 71
     3
 72
    12
 73
     8
 74
     0
 42
0.00000001
 43
0.00000001
 12
1.0
 22
0.0
 32
0.0
 13
1.0
 23
0.0
 33
0.0
 40
0.0
 40
0.0
 40
0.0
 40
0.0
 40
0.2500000000000016
 40
0.2500000000000016
 40
0.5000000000000031
 40
0.5000000000000031
 40
1.0
 40
1.0
 40
1.0
 40
1.0
 10
460.9513229252064
 20
443.1181734300167
 30
0.0
 10
460.9513229252063
 20
442.7040040204577
 30
0.0
 10
460.9762143326665
 20
442.2885079738627
 30
0.0
 10
461.0751374569502
 20
441.4548968502117
 30
0.0
 10
461.1486579741403
 20
441.0411394980835
 30
0.0
 10
461.4304126222939
 20
439.81385988945
 30
0.0
 10
461.6997308450556
 20
439.0113316151499
 30
0.0
 10
462.0231196949316
 20
438.2191939444485
 30
0.0
  0
LINE
  5
104
330
1F
100
AcDbEntity
  8
0
  6
Continuous
 62
     7
370
    15
100
AcDbLine
 10
462.0231192232
 20
438.2191952205
 30
0.0
 11
471.9513158919
 21
438.2191952205
 31
0.0
  0
LINE
  5
105
330
1F
100
AcDbEntity
  8
0
  6
Continuous
 62
     7
370
    15
100
AcDbLine
 10
460.951323402
 20
463.1945639736
 30
0.0
 11
460.951323402
 21
454.7092821336
 31
0.0
  0
SPLINE
  5
106
330
1F
100
AcDbEntity
  8
0
  6
Continuous
 62
     7
370
    15
100
AcDbSpline
210
0.0
220
0.0
230
1.0
 70
     8
 71
     3
 72
    12
 73
     8
 74
     0
 42
0.00000001
 43
0.00000001
 12
1.0
 22
0.0
 32
0.0
 13
1.0
 23
0.0
 33
0.0
 40
0.0
 40
0.0
 40
0.0
 40
0.0
 40
0.2499999999999981
 40
0.2499999999999981
 40
0.4999999999999962
 40
0.4999999999999962
 40
1.0
 40
1.0
 40
1.0
 40
1.0
 10
460.9513229252066
 20
463.1945647197215
 30
0.0
 10
460.9513229252063
 20
463.0423859896961
 30
0.0
 10
460.9766561784995
 20
462.889524510879
 30
0.0
 10
461.0746930655762
 20
462.5871326648519
 30
0.0
 10
461.1473024345049
 20
462.4369481191792
 30
0.0
 10
461.4273491334387
 20
461.9890618838521
 30
0.0
 10
461.6967629623446
 20
461.6940172169985
 30
0.0
 10
462.0231196949302
 20
461.4014137753852
 30
0.0
  0
SPLINE
  5
107
330
1F
100
AcDbEntity
  8
0
  6
Continuous
 62
     7
370
    15
100
AcDbSpline
210
0.0
220
0.0
230
1.0
 70
     8
 71
     3
 72
    10
 73
     6
 74
     0
 42
0.00000001
 43
0.00000001
 12
1.0
 22
0.0
 32
0.0
 13
1.0
 23
0.0
 33
0.0
 40
0.0
 40
0.0
 40
0.0
 40
0.0
 40
0.5
 40
0.5
 40
1.0
 40
1.0
 40
1.0
 40
1.0
 10
685.8795261554841
 20
461.4014137753834
 30
0.0
 10
686.2066999165958
 20
461.694749744733
 30
0.0
 10
686.4762424605142
 20
461.9902283528236
 30
0.0
 10
686.8491749687728
 20
462.5873628626877
 30
0.0
 10
686.9513229252088
 20
462.8890649403774
 30
0.0
 10
686.951322925209
 20
463.1945647197197
 30
0.0
  0
LINE
  5
108
330
1F
100
AcDbEntity
  8
0
  6
Continuous
 62
     7
370
    15
100
AcDbLine
 10
686.9513231934
 20
454.7092821336
 30
0.0
 11
686.9513231934
 21
463.1945639736
 31
0.0
  0
SPLINE
  5
109
330
1F
100
AcDbEntity
  8
0
  6
Continuous
 62
     7
370
    15
100
AcDbSpline
210
0.0
220
0.0
230
1.0
 70
     8
 71
     3
 72
    10
 73
     6
 74
     0
 42
0.00000001
 43
0.00000001
 12
1.0
 22
0.0
 32
0.0
 13
1.0
 23
0.0
 33
0.0
 40
0.0
 40
0.0
 40
0.0
 40
0.0
 40
0.5
 40
0.5
 40
1.0
 40
1.0
 40
1.0
 40
1.0
 10
685.8795261554831
 20
538.8951788311914
 30
0.0
 10
686.2048099522204
 20
537.7683627055346
 30
0.0
 10
686.4776369094192
 20
536.6142819397332
 30
0.0
 10
686.8506898719617
 20
534.3008953672002
 30
0.0
 10
686.9513229252065
 20
533.1377280078597
 30
0.0
 10
686.9513229252062
 20
531.966975600916
 30
0.0
  0
SPLINE
  5
10A
330
1F
100
AcDbEntity
  8
0
  6
Continuous
 62
     7
370
    15
100
AcDbSpline
210
0.0
220
0.0
230
1.0
 70
     8
 71
     3
 72
    12
 73
     8
 74
     0
 42
0.00000001
 43
0.00000001
 12
1.0
 22
0.0
 32
0.0
 13
1.0
 23
0.0
 33
0.0
 40
0.0
 40
0.0
 40
0.0
 40
0.0
 40
0.25
 40
0.25
 40
0.5
 40
0.5
 40
1.0
 40
1.0
 40
1.0
 40
1.0
 10
686.9513229252062
 20
531.966975600916
 30
0.0
 10
686.9513229252061
 20
531.3812516047977
 30
0.0
 10
686.9264315177459
 20
530.7936514605909
 30
0.0
 10
686.827508393462
 20
529.6147473037789
 30
0.0
 10
686.7539878762719
 20
529.0296060448686
 30
0.0
 10
686.4722332281184
 20
527.2939705775158
 30
0.0
 10
686.2029150053568
 20
526.159024207813
 30
0.0
 10
685.8795261554809
 20
525.0387723706407
 30
0.0
  0
LINE
  5
10B
330
1F
100
AcDbEntity
  8
0
  6
Continuous
 62
     7
370
    15
100
AcDbLine
 10
685.8795264409
 20
525.0387731826
 30
0.0
 11
675.9513230202
 21
525.0387731826
 31
0.0
  0
LINE
  5
10C
330
1F
100
AcDbEntity
  8
0
  6
Continuous
 62
     7
370
    15
100
AcDbLine
 10
685.8795264409
 20
538.8951804376
 30
0.0
 11
675.9513230202
 21
538.8951804376
 31
0.0
  0
SPLINE
  5
10D
330
1F
100
AcDbEntity
  8
0
  6
Continuous
 62
     7
370
    15
100
AcDbSpline
210
0.0
220
0.0
230
1.0
 70
     8
 71
     3
 72
    12
 73
     8
 74
     0
 42
0.00000001
 43
0.00000001
 12
1.0
 22
0.0
 32
0.0
 13
1.0
 23
0.0
 33
0.0
 40
0.0
 40
0.0
 40
0.0
 40
0.0
 40
0.2499999999999988
 40
0.2499999999999988
 40
0.4999999999999976
 40
0.4999999999999976
 40
1.0
 40
1.0
 40
1.0
 40
1.0
 10
686.9513229252088
 20
521.5746707555086
 30
0.0
 10
686.9513229252088
 20
521.8686574865952
 30
0.0
 10
686.9259896719157
 20
522.1639631870636
 30
0.0
 10
686.8279527848389
 20
522.7481393745371
 30
0.0
 10
686.7553434159099
 20
523.0382736372865
 30
0.0
 10
686.4752967169759
 20
523.9035234011701
 30
0.0
 10
686.2058828880702
 20
524.4735059284154
 30
0.0
 10
685.8795261554843
 20
525.0387723706463
 30
0.0
  0
SPLINE
  5
10E
330
1F
100
AcDbEntity
  8
0
  6
Continuous
 62
     7
370
    15
100
AcDbSpline
210
0.0
220
0.0
230
1.0
 70
     8
 71
     3
 72
    10
 73
     6
 74
     0
 42
0.00000001
 43
0.00000001
 12
1.0
 22
0.0
 32
0.0
 13
1.0
 23
0.0
 33
0.0
 40
0.0
 40
0.0
 40
0.0
 40
0.0
 40
0.5
 40
0.5
 40
1.0
 40
1.0
 40
1.0
 40
1.0
 10
685.8795261554833
 20
518.1105691403684
 30
0.0
 10
686.2066999165952
 20
518.6772507175174
 30
0.0
 10
686.4762424605138
 20
519.2480715548588
 30
0.0
 10
686.8491749687727
 20
520.4016468445521
 30
0.0
 10
686.9513229252088
 20
520.9844905019237
 30
0.0
 10
686.9513229252088
 20
521.5746707555086
 30
0.0
  0
LINE
  5
10F
330
1F
100
AcDbEntity
  8
0
  6
Continuous
 62
     7
370
    15
100
AcDbLine
 10
685.8795264409
 20
518.1105695552
 30
0.0
 11
675.9513230202
 21
518.1105695552
 31
0.0
  0
SPLINE
  5
110
330
1F
100
AcDbEntity
  8
0
  6
Continuous
 62
     7
370
    15
100
AcDbSpline
210
0.0
220
0.0
230
1.0
 70
     8
 71
     3
 72
    10
 73
     6
 74
     0
 42
0.00000001
 43
0.00000001
 12
1.0
 22
0.0
 32
0.0
 13
1.0
 23
0.0
 33
0.0
 40
0.0
 40
0.0
 40
0.0
 40
0.0
 40
0.5
 40
0.5
 40
1.0
 40
1.0
 40
1.0
 40
1.0
 10
685.879526155483
 20
538.8951788311914
 30
0.0
 10
686.2066999165946
 20
539.46186040834
 30
0.0
 10
686.4762424605132
 20
540.0326812456813
 30
0.0
 10
686.849174968772
 20
541.1862565353739
 30
0.0
 10
686.9513229252083
 20
541.7691001927451
 30
0.0
 10
686.9513229252085
 20
542.3592804463296
 30
0.0
  0
LINE
  5
111
330
1F
100
AcDbEntity
  8
0
  6
Continuous
 62
     7
370
    15
100
AcDbLine
 10
686.9513231934
 20
531.9669749475
 30
0.0
 11
686.9513231934
 21
542.3592794573
 31
0.0
  0
SPLINE
  5
112
330
1F
100
AcDbEntity
  8
0
  6
Continuous
 62
     7
370
    15
100
AcDbSpline
210
0.0
220
0.0
230
1.0
 70
     8
 71
     3
 72
    12
 73
     8
 74
     0
 42
0.00000001
 43
0.00000001
 12
1.0
 22
0.0
 32
0.0
 13
1.0
 23
0.0
 33
0.0
 40
0.0
 40
0.0
 40
0.0
 40
0.0
 40
0.2499999999999991
 40
0.2499999999999991
 40
0.4999999999999982
 40
0.4999999999999982
 40
1.0
 40
1.0
 40
1.0
 40
1.0
 10
686.9513229252085
 20
542.3592804463296
 30
0.0
 10
686.9513229252086
 20
542.6532671774164
 30
0.0
 10
686.9259896719157
 20
542.9485728778848
 30
0.0
 10
686.827952784839
 20
543.5327490653583
 30
0.0
 10
686.7553434159101
 20
543.8228833281078
 30
0.0
 10
686.4752967169763
 20
544.6881330919915
 30
0.0
 10
686.2058828880706
 20
545.258115619237
 30
0.0
 10
685.8795261554849
 20
545.8233820614679
 30
0.0
  0
LINE
  5
113
330
1F
100
AcDbEntity
  8
0
  6
Continuous
 62
     7
370
    15
100
AcDbLine
 10
685.8795264409
 20
545.8233822024
 30
0.0
 11
675.9513230202
 21
545.8233822024
 31
0.0
  0
LINE
  5
114
330
1F
100
AcDbEntity
  8
0
  6
Continuous
 62
     7
370
    15
100
AcDbLine
 10
686.9513231934
 20
521.5746704376
 30
0.0
 11
686.9513231934
 21
531.9669749475
 31
0.0
  0
SPLINE
  5
115
330
1F
100
AcDbEntity
  8
0
  6
Continuous
 62
     7
370
    15
100
AcDbSpline
210
0.0
220
0.0
230
1.0
 70
     8
 71
     3
 72
    12
 73
     8
 74
     0
 42
0.00000001
 43
0.00000001
 12
1.0
 22
0.0
 32
0.0
 13
1.0
 23
0.0
 33
0.0
 40
0.0
 40
0.0
 40
0.0
 40
0.0
 40
0.2500000000000001
 40
0.2500000000000001
 40
0.5000000000000002
 40
0.5000000000000002
 40
1.0
 40
1.0
 40
1.0
 40
1.0
 10
460.9513229252061
 20
542.3592804463314
 30
0.0
 10
460.9513229252061
 20
542.0652937152446
 30
0.0
 10
460.9766561784992
 20
541.7699880147762
 30
0.0
 10
461.074693065576
 20
541.1858118273028
 30
0.0
 10
461.1473024345049
 20
540.8956775645534
 30
0.0
 10
461.4273491334387
 20
540.03042780067
 30
0.0
 10
461.6967629623445
 20
539.4604452734245
 30
0.0
 10
462.0231196949302
 20
538.8951788311939
 30
0.0
  0
SPLINE
  5
116
330
1F
100
AcDbEntity
  8
0
  6
Continuous
 62
     7
370
    15
100
AcDbSpline
210
0.0
220
0.0
230
1.0
 70
     8
 71
     3
 72
    10
 73
     6
 74
     0
 42
0.00000001
 43
0.00000001
 12
1.0
 22
0.0
 32
0.0
 13
1.0
 23
0.0
 33
0.0
 40
0.0
 40
0.0
 40
0.0
 40
0.0
 40
0.5
 40
0.5
 40
1.0
 40
1.0
 40
1.0
 40
1.0
 10
462.023119694931
 20
538.8951788311955
 30
0.0
 10
461.6978358981935
 20
537.768362705539
 30
0.0
 10
461.4250089409942
 20
536.6142819397371
 30
0.0
 10
461.0519559784515
 20
534.3008953672044
 30
0.0
 10
460.9513229252065
 20
533.137728007864
 30
0.0
 10
460.9513229252065
 20
531.9669756009205
 30
0.0
  0
LINE
  5
117
330
1F
100
AcDbEntity
  8
0
  6
Continuous
 62
     7
370
    15
100
AcDbLine
 10
460.951323402
 20
542.3592794573
 30
0.0
 11
460.951323402
 21
531.9669749475
 31
0.0
  0
SPLINE
  5
118
330
1F
100
AcDbEntity
  8
0
  6
Continuous
 62
     7
370
    15
100
AcDbSpline
210
0.0
220
0.0
230
1.0
 70
     8
 71
     3
 72
    12
 73
     8
 74
     0
 42
0.00000001
 43
0.00000001
 12
1.0
 22
0.0
 32
0.0
 13
1.0
 23
0.0
 33
0.0
 40
0.0
 40
0.0
 40
0.0
 40
0.0
 40
0.25
 40
0.25
 40
0.5
 40
0.5
 40
1.0
 40
1.0
 40
1.0
 40
1.0
 10
460.9513229252065
 20
531.9669756009205
 30
0.0
 10
460.9513229252065
 20
531.381251604802
 30
0.0
 10
460.9762143326665
 20
530.7936514605951
 30
0.0
 10
461.0751374569501
 20
529.6147473037827
 30
0.0
 10
461.1486579741404
 20
529.0296060448713
 30
0.0
 10
461.4304126222939
 20
527.293970577518
 30
0.0
 10
461.6997308450556
 20
526.159024207815
 30
0.0
 10
462.0231196949316
 20
525.0387723706424
 30
0.0
  0
SPLINE
  5
119
330
1F
100
AcDbEntity
  8
0
  6
Continuous
 62
     7
370
    15
100
AcDbSpline
210
0.0
220
0.0
230
1.0
 70
     8
 71
     3
 72
    10
 73
     6
 74
     0
 42
0.00000001
 43
0.00000001
 12
1.0
 22
0.0
 32
0.0
 13
1.0
 23
0.0
 33
0.0
 40
0.0
 40
0.0
 40
0.0
 40
0.0
 40
0.4999999999999996
 40
0.4999999999999996
 40
1.0
 40
1.0
 40
1.0
 40
1.0
 10
462.0231196949319
 20
525.0387723706424
 30
0.0
 10
461.6959459338204
 20
524.472090793494
 30
0.0
 10
461.4264033899023
 20
523.901269956153
 30
0.0
 10
461.0534708816443
 20
522.7476946664607
 30
0.0
 10
460.9513229252082
 20
522.1648510090897
 30
0.0
 10
460.9513229252082
 20
521.5746707555053
 30
0.0
  0
LINE
  5
11A
330
1F
100
AcDbEntity
  8
0
  6
Continuous
 62
     7
370
    15
100
AcDbLine
 10
460.951323402
 20
531.9669749475
 30
0.0
 11
460.951323402
 21
521.5746704376
 31
0.0
  0
LINE
  5
11B
330
1F
100
AcDbEntity
  8
0
  6
Continuous
 62
     7
370
    15
100
AcDbLine
 10
462.0231192232
 20
538.8951804376
 30
0.0
 11
471.9513158919
 21
538.8951804376
 31
0.0
  0
LINE
  5
11C
330
1F
100
AcDbEntity
  8
0
  6
Continuous
 62
     7
370
    15
100
AcDbLine
 10
462.0231192232
 20
525.0387731826
 30
0.0
 11
471.9513158919
 21
525.0387731826
 31
0.0
  0
SPLINE
  5
11D
330
1F
100
AcDbEntity
  8
0
  6
Continuous
 62
     7
370
    15
100
AcDbSpline
210
0.0
220
0.0
230
1.0
 70
     8
 71
     3
 72
    12
 73
     8
 74
     0
 42
0.00000001
 43
0.00000001
 12
1.0
 22
0.0
 32
0.0
 13
1.0
 23
0.0
 33
0.0
 40
0.0
 40
0.0
 40
0.0
 40
0.0
 40
0.25
 40
0.25
 40
0.5
 40
0.5
 40
1.0
 40
1.0
 40
1.0
 40
1.0
 10
460.9513229252082
 20
521.5746707555053
 30
0.0
 10
460.9513229252082
 20
521.2806840244186
 30
0.0
 10
460.9766561785013
 20
520.9853783239507
 30
0.0
 10
461.074693065578
 20
520.4012021364775
 30
0.0
 10
461.1473024345067
 20
520.1110678737283
 30
0.0
 10
461.4273491334403
 20
519.2458181098451
 30
0.0
 10
461.6967629623459
 20
518.6758355826
 30
0.0
 10
462.0231196949313
 20
518.1105691403695
 30
0.0
  0
LINE
  5
11E
330
1F
100
AcDbEntity
  8
0
  6
Continuous
 62
     7
370
    15
100
AcDbLine
 10
462.0231192232
 20
518.1105695552
 30
0.0
 11
471.9513158919
 21
518.1105695552
 31
0.0
  0
SPLINE
  5
11F
330
1F
100
AcDbEntity
  8
0
  6
Continuous
 62
     7
370
    15
100
AcDbSpline
210
0.0
220
0.0
230
1.0
 70
     8
 71
     3
 72
    10
 73
     6
 74
     0
 42
0.00000001
 43
0.00000001
 12
1.0
 22
0.0
 32
0.0
 13
1.0
 23
0.0
 33
0.0
 40
0.0
 40
0.0
 40
0.0
 40
0.0
 40
0.5
 40
0.5
 40
1.0
 40
1.0
 40
1.0
 40
1.0
 10
462.023119694931
 20
545.8233820614694
 30
0.0
 10
461.6959459338194
 20
545.2567004843207
 30
0.0
 10
461.4264033899009
 20
544.6858796469795
 30
0.0
 10
461.0534708816425
 20
543.5323043572871
 30
0.0
 10
460.9513229252062
 20
542.9494606999159
 30
0.0
 10
460.9513229252061
 20
542.3592804463314
 30
0.0
  0
LINE
  5
120
330
1F
100
AcDbEntity
  8
0
  6
Continuous
 62
     7
370
    15
100
AcDbLine
 10
462.0231192232
 20
545.8233822024
 30
0.0
 11
471.9513158919
 21
545.8233822024
 31
0.0
  0
SPLINE
  5
121
330
1F
100
AcDbEntity
  8
0
  6
Continuous
 62
     7
370
    15
100
AcDbSpline
210
0.0
220
0.0
230
1.0
 70
     8
 71
     3
 72
    12
 73
     8
 74
     0
 42
0.00000001
 43
0.00000001
 12
1.0
 22
0.0
 32
0.0
 13
1.0
 23
0.0
 33
0.0
 40
0.0
 40
0.0
 40
0.0
 40
0.0
 40
0.2500000000000001
 40
0.2500000000000001
 40
0.5000000000000002
 40
0.5000000000000002
 40
1.0
 40
1.0
 40
1.0
 40
1.0
 10
686.951322925209
 20
463.1945647197197
 30
0.0
 10
686.951322925209
 20
463.346743449745
 30
0.0
 10
686.9259896719159
 20
463.4996049285621
 30
0.0
 10
686.8279527848391
 20
463.8019967745891
 30
0.0
 10
686.7553434159103
 20
463.9521813202617
 30
0.0
 10
686.4752967169763
 20
464.4000675555887
 30
0.0
 10
686.2058828880706
 20
464.6951122224423
 30
0.0
 10
685.8795261554849
 20
464.9877156640555
 30
0.0
  0
LINE
  5
122
330
1F
100
AcDbEntity
  8
0
  6
Continuous
 62
     7
370
    15
100
AcDbLine
 10
685.8795264409
 20
464.9877156949
 30
0.0
 11
675.9513230202
 21
464.9877156949
 31
0.0
  0
SPLINE
  5
123
330
1F
100
AcDbEntity
  8
0
  6
Continuous
 62
     7
370
    15
100
AcDbSpline
210
0.0
220
0.0
230
1.0
 70
     8
 71
     3
 72
    10
 73
     6
 74
     0
 42
0.00000001
 43
0.00000001
 12
1.0
 22
0.0
 32
0.0
 13
1.0
 23
0.0
 33
0.0
 40
0.0
 40
0.0
 40
0.0
 40
0.0
 40
0.5
 40
0.5
 40
1.0
 40
1.0
 40
1.0
 40
1.0
 10
462.0231196949322
 20
464.9877156640578
 30
0.0
 10
461.6959459338204
 20
464.6943796947082
 30
0.0
 10
461.4264033899019
 20
464.3989010866176
 30
0.0
 10
461.0534708816431
 20
463.8017665767535
 30
0.0
 10
460.9513229252067
 20
463.5000644990637
 30
0.0
 10
460.9513229252066
 20
463.1945647197215
 30
0.0
  0
LINE
  5
124
330
1F
100
AcDbEntity
  8
0
  6
Continuous
 62
     7
370
    15
100
AcDbLine
 10
462.0231192232
 20
464.9877156949
 30
0.0
 11
471.9513158919
 21
464.9877156949
 31
0.0
  0
SPLINE
  5
125
330
1F
100
AcDbEntity
  8
0
  6
Continuous
 62
     7
370
    15
100
AcDbSpline
210
0.0
220
0.0
230
1.0
 70
     8
 71
     3
 72
    11
 73
     7
 74
     0
 42
0.00000001
 43
0.00000001
 12
1.0
 22
0.0
 32
0.0
 13
1.0
 23
0.0
 33
0.0
 40
0.0
 40
0.0
 40
0.0
 40
0.0
 40
0.3051754574068093
 40
0.6104370785197314
 40
0.9155387664126662
 40
0.9999999999999999
 40
0.9999999999999999
 40
0.9999999999999999
 40
0.9999999999999999
 10
462.0231192232346
 20
438.2191952204847
 30
0.0
 10
461.9189720496261
 20
438.3157121982334
 30
0.0
 10
461.7106482973363
 20
438.5087734044822
 30
0.0
 10
461.4538755366297
 20
438.8019556838411
 30
0.0
 10
461.2807267859267
 20
439.0258267087889
 30
0.0
 10
461.2158606611473
 20
439.1526334100531
 30
0.0
 10
461.2017970205521
 20
439.1801264023923
 30
0.0
  0
LINE
  5
126
330
1F
100
AcDbEntity
  8
0
  6
Continuous
 62
     7
370
    15
100
AcDbLine
 10
460.951323402
 20
443.1181717551
 30
0.0
 11
460.951323402
 21
439.6034534907
 31
0.0
  0
SPLINE
  5
127
330
1F
100
AcDbEntity
  8
0
  6
Continuous
 62
     7
370
    15
100
AcDbSpline
210
0.0
220
0.0
230
1.0
 70
     8
 71
     3
 72
    11
 73
     7
 74
     0
 42
0.00000001
 43
0.00000001
 12
1.0
 22
0.0
 32
0.0
 13
1.0
 23
0.0
 33
0.0
 40
0.0
 40
0.0
 40
0.0
 40
0.0
 40
0.1328511788189549
 40
0.4218365596817911
 40
0.7109549207590069
 40
0.9999999999999999
 40
0.9999999999999999
 40
0.9999999999999999
 40
0.9999999999999999
 10
686.700624194858
 20
439.1801375782632
 30
0.0
 10
686.6770533712132
 20
439.1369455275109
 30
0.0
 10
686.602209961892
 20
438.999799690666
 30
0.0
 10
686.4235131232763
 20
438.7708618556589
 30
0.0
 10
686.1757761274689
 20
438.4934301323185
 30
0.0
 10
685.9782679917582
 20
438.3105991331929
 30
0.0
 10
685.879526440916
 20
438.2191952204847
 30
0.0
  0
LINE
  5
128
330
1F
100
AcDbEntity
  8
0
  6
Continuous
 62
     7
370
    15
100
AcDbLine
 10
686.9513231934
 20
439.6034534907
 30
0.0
 11
686.9513231934
 21
443.1181717551
 31
0.0
  0
LINE
  5
129
330
1F
100
AcDbEntity
  8
0
  6
Continuous
 62
     7
370
    15
100
AcDbLine
 10
738.951320541
 20
457.9345825946
 30
0.0
 11
738.951320541
 21
443.6034541464
 31
0.0
  0
LINE
  5
12A
330
1F
100
AcDbEntity
  8
0
  6
Continuous
 62
     7
370
    15
100
AcDbLine
 10
738.951320541
 20
459.6034530437
 30
0.0
 11
738.951320541
 21
457.9345825946
 31
0.0
  0
LINE
  5
12B
330
1F
100
AcDbEntity
  8
0
  6
Continuous
 62
     7
370
    15
100
AcDbLine
 10
408.9513372303
 20
457.9345825946
 30
0.0
 11
408.9513372303
 21
443.6034541464
 31
0.0
  0
LINE
  5
12C
330
1F
100
AcDbEntity
  8
0
  6
Continuous
 62
     7
370
    15
100
AcDbLine
 10
408.9513372303
 20
459.6034530437
 30
0.0
 11
408.9513372303
 21
457.9345825946
 31
0.0
  0
LINE
  5
12D
330
1F
100
AcDbEntity
  8
0
  6
Continuous
 62
     7
370
    15
100
AcDbLine
 10
738.951320541
 20
539.9669762588
 30
0.0
 11
738.951320541
 21
523.9669773615
 31
0.0
  0
LINE
  5
12E
330
1F
100
AcDbEntity
  8
0
  6
Continuous
 62
     7
370
    15
100
AcDbLine
 10
408.9513372303
 20
539.9669762588
 30
0.0
 11
408.9513372303
 21
523.9669773615
 31
0.0
  0
LINE
  5
12F
330
1F
100
AcDbEntity
  8
0
  6
Continuous
 62
     7
370
    15
100
AcDbLine
 10
686.9513231934
 20
542.3592794573
 30
0.0
 11
686.9513231934
 21
543.9669769144
 31
0.0
  0
LINE
  5
130
330
1F
100
AcDbEntity
  8
0
  6
Continuous
 62
     7
370
    15
100
AcDbLine
 10
686.9513231934
 20
519.9669748432
 30
0.0
 11
686.9513231934
 21
521.5746704376
 31
0.0
  0
LINE
  5
131
330
1F
100
AcDbEntity
  8
0
  6
Continuous
 62
     7
370
    15
100
AcDbLine
 10
460.951323402
 20
521.5746704376
 30
0.0
 11
460.951323402
 21
519.9669748432
 31
0.0
  0
LINE
  5
132
330
1F
100
AcDbEntity
  8
0
  6
Continuous
 62
     7
370
    15
100
AcDbLine
 10
460.951323402
 20
543.9669769144
 30
0.0
 11
460.951323402
 21
542.3592794573
 31
0.0
  0
LINE
  5
133
330
1F
100
AcDbEntity
  8
0
  6
Continuous
 62
     7
370
    15
100
AcDbLine
 10
686.9513231934
 20
463.1945639736
 30
0.0
 11
686.9513231934
 21
463.603455562
 31
0.0
  0
LINE
  5
134
330
1F
100
AcDbEntity
  8
0
  6
Continuous
 62
     7
370
    15
100
AcDbLine
 10
460.951323402
 20
463.603455562
 30
0.0
 11
460.951323402
 21
463.1945639736
 31
0.0
  0
LINE
  5
135
330
1F
100
AcDbEntity
  8
0
  6
Continuous
 62
     7
370
    15
100
AcDbLine
 10
555.8192532183
 20
408.3453733361
 30
0.0
 11
555.8192532183
 21
443.6034541464
 31
0.0
  0
LINE
  5
136
330
1F
100
AcDbEntity
  8
0
  6
Continuous
 62
     7
370
    15
100
AcDbLine
 10
555.8192532183
 20
459.6034530437
 30
0.0
 11
555.8192532183
 21
523.9669773615
 31
0.0
  0
LINE
  5
137
330
1F
100
AcDbEntity
  8
0
  6
Continuous
 62
     7
370
    15
100
AcDbLine
 10
555.8192532183
 20
539.9669762588
 30
0.0
 11
555.8192532183
 21
575.2250570691
 31
0.0
  0
LINE
  5
138
330
1F
100
AcDbEntity
  8
0
  6
Continuous
 62
     7
370
    15
100
AcDbLine
 10
542.3842023731
 20
415.7068896926
 30
0.0
 11
542.3842023731
 21
443.6034541464
 31
0.0
  0
LINE
  5
139
330
1F
100
AcDbEntity
  8
0
  6
Continuous
 62
     7
370
    15
100
AcDbLine
 10
542.3842023731
 20
459.6034530437
 30
0.0
 11
542.3842023731
 21
523.9669773615
 31
0.0
  0
LINE
  5
13A
330
1F
100
AcDbEntity
  8
0
  6
Continuous
 62
     7
370
    15
100
AcDbLine
 10
542.3842023731
 20
539.9669762588
 30
0.0
 11
542.3842023731
 21
567.8635407126
 31
0.0
  0
LINE
  5
13B
330
1F
100
AcDbEntity
  8
0
  6
Continuous
 62
     7
370
    15
100
AcDbLine
 10
675.9513230202
 20
379.777865473
 30
0.0
 11
675.9513230202
 21
409.7778666651
 31
0.0
  0
LINE
  5
13C
330
1F
100
AcDbEntity
  8
0
  6
Continuous
 62
     7
370
    15
100
AcDbLine
 10
471.9513158919
 20
409.7778666651
 30
0.0
 11
471.9513158919
 21
379.777865473
 31
0.0
  0
LINE
  5
13D
330
1F
100
AcDbEntity
  8
0
  6
Continuous
 62
     7
370
    15
100
AcDbLine
 10
471.9513158919
 20
578.1859625018
 30
0.0
 11
471.9513158919
 21
573.79256374
 31
0.0
  0
LINE
  5
13E
330
1F
100
AcDbEntity
  8
0
  6
Continuous
 62
     7
370
    15
100
AcDbLine
 10
471.9513158919
 20
603.7925649321
 30
0.0
 11
471.9513158919
 21
578.1859625018
 31
0.0
  0
LINE
  5
13F
330
1F
100
AcDbEntity
  8
0
  6
Continuous
 62
     7
370
    15
100
AcDbLine
 10
675.9513230202
 20
578.1859625018
 30
0.0
 11
675.9513230202
 21
603.7925649321
 31
0.0
  0
LINE
  5
140
330
1F
100
AcDbEntity
  8
0
  6
Continuous
 62
     7
370
    15
100
AcDbLine
 10
675.9513230202
 20
573.79256374
 30
0.0
 11
675.9513230202
 21
578.1859625018
 31
0.0
  0
SPLINE
  5
141
330
1F
100
AcDbEntity
  8
0
  6
Continuous
 62
     7
370
    15
100
AcDbSpline
210
0.0
220
0.0
230
1.0
 70
     8
 71
     3
 72
    12
 73
     8
 74
     0
 42
0.00000001
 43
0.00000001
 12
1.0
 22
0.0
 32
0.0
 13
1.0
 23
0.0
 33
0.0
 40
0.0
 40
0.0
 40
0.0
 40
0.0
 40
0.2500000000000016
 40
0.2500000000000016
 40
0.5000000000000032
 40
0.5000000000000032
 40
1.0
 40
1.0
 40
1.0
 40
1.0
 10
460.9513229252082
 20
585.6867375750364
 30
0.0
 10
460.9513229252082
 20
585.1187988227507
 30
0.0
 10
460.9766561785013
 20
584.5483120172862
 30
0.0
 10
461.0746930655779
 20
583.4197702841193
 30
0.0
 10
461.1473024345067
 20
582.8592739291574
 30
0.0
 10
461.4273491334404
 20
581.1877397429071
 30
0.0
 10
461.696762962346
 20
580.0866180557078
 30
0.0
 10
462.0231196949313
 20
578.9946071451379
 30
0.0
  0
SPLINE
  5
142
330
1F
100
AcDbEntity
  8
0
  6
Continuous
 62
     7
370
    15
100
AcDbSpline
210
0.0
220
0.0
230
1.0
 70
     8
 71
     3
 72
    10
 73
     6
 74
     0
 42
0.00000001
 43
0.00000001
 12
1.0
 22
0.0
 32
0.0
 13
1.0
 23
0.0
 33
0.0
 40
0.0
 40
0.0
 40
0.0
 40
0.0
 40
0.5
 40
0.5
 40
1.0
 40
1.0
 40
1.0
 40
1.0
 10
462.0231196949319
 20
592.3788680049377
 30
0.0
 10
461.6959459338204
 20
591.2841232636379
 30
0.0
 10
461.4264033899023
 20
590.1813820856945
 30
0.0
 10
461.0534708816443
 20
587.9528457559293
 30
0.0
 10
460.9513229252082
 20
586.8268782732424
 30
0.0
 10
460.9513229252082
 20
585.6867375750364
 30
0.0
  0
LINE
  5
143
330
1F
100
AcDbEntity
  8
0
  6
Continuous
 62
     7
370
    15
100
AcDbLine
 10
462.0231192232
 20
592.3788715041
 30
0.0
 11
471.9513158919
 21
592.3788715041
 31
0.0
  0
LINE
  5
144
330
1F
100
AcDbEntity
  8
0
  6
Continuous
 62
     7
370
    15
100
AcDbLine
 10
462.0231192232
 20
578.9946038163
 30
0.0
 11
471.9513158919
 21
578.9946038163
 31
0.0
  0
SPLINE
  5
145
330
1F
100
AcDbEntity
  8
0
  6
Continuous
 62
     7
370
    15
100
AcDbSpline
210
0.0
220
0.0
230
1.0
 70
     8
 71
     3
 72
    12
 73
     8
 74
     0
 42
0.00000001
 43
0.00000001
 12
1.0
 22
0.0
 32
0.0
 13
1.0
 23
0.0
 33
0.0
 40
0.0
 40
0.0
 40
0.0
 40
0.0
 40
0.2499999999999984
 40
0.2499999999999984
 40
0.4999999999999969
 40
0.4999999999999969
 40
1.0
 40
1.0
 40
1.0
 40
1.0
 10
460.9513229252064
 20
597.2778474905048
 30
0.0
 10
460.9513229252063
 20
596.8636780809458
 30
0.0
 10
460.9762143326664
 20
596.4481820343509
 30
0.0
 10
461.0751374569502
 20
595.6145709106999
 30
0.0
 10
461.1486579741404
 20
595.2008135585716
 30
0.0
 10
461.4304126222939
 20
593.9735339499382
 30
0.0
 10
461.6997308450557
 20
593.1710056756382
 30
0.0
 10
462.0231196949316
 20
592.3788680049366
 30
0.0
  0
LINE
  5
146
330
1F
100
AcDbEntity
  8
0
  6
Continuous
 62
     7
370
    15
100
AcDbLine
 10
460.951323402
 20
597.2778443134
 30
0.0
 11
460.951323402
 21
585.6867376602
 31
0.0
  0
SPLINE
  5
147
330
1F
100
AcDbEntity
  8
0
  6
Continuous
 62
     7
370
    15
100
AcDbSpline
210
0.0
220
0.0
230
1.0
 70
     8
 71
     3
 72
    12
 73
     8
 74
     0
 42
0.00000001
 43
0.00000001
 12
1.0
 22
0.0
 32
0.0
 13
1.0
 23
0.0
 33
0.0
 40
0.0
 40
0.0
 40
0.0
 40
0.0
 40
0.2500000000000001
 40
0.2500000000000001
 40
0.5000000000000001
 40
0.5000000000000001
 40
1.0
 40
1.0
 40
1.0
 40
1.0
 10
686.9513229252062
 20
597.2778474905048
 30
0.0
 10
686.9513229252061
 20
596.8636780809459
 30
0.0
 10
686.9264315177459
 20
596.448182034351
 30
0.0
 10
686.827508393462
 20
595.6145709107002
 30
0.0
 10
686.7539878762719
 20
595.2008135585728
 30
0.0
 10
686.4722332281184
 20
593.9735339499397
 30
0.0
 10
686.2029150053568
 20
593.1710056756399
 30
0.0
 10
685.8795261554809
 20
592.3788680049386
 30
0.0
  0
LINE
  5
148
330
1F
100
AcDbEntity
  8
0
  6
Continuous
 62
     7
370
    15
100
AcDbLine
 10
686.9513231934
 20
585.6867376602
 30
0.0
 11
686.9513231934
 21
597.2778443134
 31
0.0
  0
SPLINE
  5
149
330
1F
100
AcDbEntity
  8
0
  6
Continuous
 62
     7
370
    15
100
AcDbSpline
210
0.0
220
0.0
230
1.0
 70
     8
 71
     3
 72
    12
 73
     8
 74
     0
 42
0.00000001
 43
0.00000001
 12
1.0
 22
0.0
 32
0.0
 13
1.0
 23
0.0
 33
0.0
 40
0.0
 40
0.0
 40
0.0
 40
0.0
 40
0.2500000000000001
 40
0.2500000000000001
 40
0.5000000000000001
 40
0.5000000000000001
 40
1.0
 40
1.0
 40
1.0
 40
1.0
 10
686.9513229252088
 20
585.686737575038
 30
0.0
 10
686.9513229252088
 20
586.254676327324
 30
0.0
 10
686.9259896719157
 20
586.8251631327894
 30
0.0
 10
686.8279527848389
 20
587.9537048659568
 30
0.0
 10
686.7553434159099
 20
588.5142012209188
 30
0.0
 10
686.4752967169759
 20
590.18573540717
 30
0.0
 10
686.2058828880702
 20
591.2868570943698
 30
0.0
 10
685.8795261554843
 20
592.3788680049402
 30
0.0
  0
SPLINE
  5
14A
330
1F
100
AcDbEntity
  8
0
  6
Continuous
 62
     7
370
    15
100
AcDbSpline
210
0.0
220
0.0
230
1.0
 70
     8
 71
     3
 72
    10
 73
     6
 74
     0
 42
0.00000001
 43
0.00000001
 12
1.0
 22
0.0
 32
0.0
 13
1.0
 23
0.0
 33
0.0
 40
0.0
 40
0.0
 40
0.0
 40
0.0
 40
0.5
 40
0.5
 40
1.0
 40
1.0
 40
1.0
 40
1.0
 10
685.8795261554833
 20
578.9946071451309
 30
0.0
 10
686.2066999165952
 20
580.0893518864316
 30
0.0
 10
686.4762424605138
 20
581.192093064376
 30
0.0
 10
686.8491749687727
 20
583.420629394143
 30
0.0
 10
686.9513229252088
 20
584.546596876831
 30
0.0
 10
686.9513229252088
 20
585.686737575038
 30
0.0
  0
LINE
  5
14B
330
1F
100
AcDbEntity
  8
0
  6
Continuous
 62
     7
370
    15
100
AcDbLine
 10
685.8795264409
 20
578.9946038163
 30
0.0
 11
675.9513230202
 21
578.9946038163
 31
0.0
  0
LINE
  5
14C
330
1F
100
AcDbEntity
  8
0
  6
Continuous
 62
     7
370
    15
100
AcDbLine
 10
685.8795264409
 20
592.3788715041
 30
0.0
 11
675.9513230202
 21
592.3788715041
 31
0.0
  0
SPLINE
  5
14D
330
1F
100
AcDbEntity
  8
0
  6
Continuous
 62
     7
370
    15
100
AcDbSpline
210
0.0
220
0.0
230
1.0
 70
     8
 71
     3
 72
    12
 73
     8
 74
     0
 42
0.00000001
 43
0.00000001
 12
1.0
 22
0.0
 32
0.0
 13
1.0
 23
0.0
 33
0.0
 40
0.0
 40
0.0
 40
0.0
 40
0.0
 40
0.2499999999999979
 40
0.2499999999999979
 40
0.4999999999999958
 40
0.4999999999999958
 40
1.0
 40
1.0
 40
1.0
 40
1.0
 10
460.9513229252066
 20
400.7778642889057
 30
0.0
 10
460.9513229252064
 20
400.2686643339122
 30
0.0
 10
460.9766561784995
 20
399.7571798569364
 30
0.0
 10
461.0746930655761
 20
398.7453570196602
 30
0.0
 10
461.147302434505
 20
398.2428297355616
 30
0.0
 10
461.4273491334388
 20
396.7441731832781
 30
0.0
 10
461.6967629623445
 20
395.7569344866622
 30
0.0
 10
462.0231196949302
 20
394.7778642889047
 30
0.0
  0
SPLINE
  5
14E
330
1F
100
AcDbEntity
  8
0
  6
Continuous
 62
     7
370
    15
100
AcDbSpline
210
0.0
220
0.0
230
1.0
 70
     8
 71
     3
 72
    10
 73
     6
 74
     0
 42
0.00000001
 43
0.00000001
 12
1.0
 22
0.0
 32
0.0
 13
1.0
 23
0.0
 33
0.0
 40
0.0
 40
0.0
 40
0.0
 40
0.0
 40
0.5
 40
0.5
 40
1.0
 40
1.0
 40
1.0
 40
1.0
 10
462.0231196949322
 20
406.7778642889065
 30
0.0
 10
461.6959459338204
 20
405.7963430055718
 30
0.0
 10
461.4264033899019
 20
404.8076523132777
 30
0.0
 10
461.0534708816431
 20
402.8096013011742
 30
0.0
 10
460.9513229252067
 20
401.800086473738
 30
0.0
 10
460.9513229252066
 20
400.7778642889057
 30
0.0
  0
LINE
  5
14F
330
1F
100
AcDbEntity
  8
0
  6
Continuous
 62
     7
370
    15
100
AcDbLine
 10
462.0231192232
 20
406.7778605855
 30
0.0
 11
471.9513158919
 21
406.7778605855
 31
0.0
  0
LINE
  5
150
330
1F
100
AcDbEntity
  8
0
  6
Continuous
 62
     7
370
    15
100
AcDbLine
 10
462.0231192232
 20
394.7778660691
 30
0.0
 11
471.9513158919
 21
394.7778660691
 31
0.0
  0
SPLINE
  5
151
330
1F
100
AcDbEntity
  8
0
  6
Continuous
 62
     7
370
    15
100
AcDbSpline
210
0.0
220
0.0
230
1.0
 70
     8
 71
     3
 72
    12
 73
     8
 74
     0
 42
0.00000001
 43
0.00000001
 12
1.0
 22
0.0
 32
0.0
 13
1.0
 23
0.0
 33
0.0
 40
0.0
 40
0.0
 40
0.0
 40
0.0
 40
0.2499999999999983
 40
0.2499999999999983
 40
0.4999999999999967
 40
0.4999999999999967
 40
1.0
 40
1.0
 40
1.0
 40
1.0
 10
686.951322925209
 20
400.7778642889014
 30
0.0
 10
686.951322925209
 20
401.2870642438947
 30
0.0
 10
686.9259896719159
 20
401.7985487208705
 30
0.0
 10
686.8279527848391
 20
402.8103715581464
 30
0.0
 10
686.7553434159103
 20
403.312898842245
 30
0.0
 10
686.4752967169763
 20
404.8115553945281
 30
0.0
 10
686.2058828880706
 20
405.7987940911437
 30
0.0
 10
685.8795261554849
 20
406.777864288901
 30
0.0
  0
SPLINE
  5
152
330
1F
100
AcDbEntity
  8
0
  6
Continuous
 62
     7
370
    15
100
AcDbSpline
210
0.0
220
0.0
230
1.0
 70
     8
 71
     3
 72
    10
 73
     6
 74
     0
 42
0.00000001
 43
0.00000001
 12
1.0
 22
0.0
 32
0.0
 13
1.0
 23
0.0
 33
0.0
 40
0.0
 40
0.0
 40
0.0
 40
0.0
 40
0.5
 40
0.5
 40
1.0
 40
1.0
 40
1.0
 40
1.0
 10
685.8795261554841
 20
394.7778642889007
 30
0.0
 10
686.2066999165958
 20
395.7593855722354
 30
0.0
 10
686.4762424605142
 20
396.7480762645294
 30
0.0
 10
686.8491749687728
 20
398.7461272766329
 30
0.0
 10
686.9513229252088
 20
399.755642104069
 30
0.0
 10
686.951322925209
 20
400.7778642889014
 30
0.0
  0
LINE
  5
153
330
1F
100
AcDbEntity
  8
0
  6
Continuous
 62
     7
370
    15
100
AcDbLine
 10
685.8795264409
 20
394.7778660691
 30
0.0
 11
675.9513230202
 21
394.7778660691
 31
0.0
  0
LINE
  5
154
330
1F
100
AcDbEntity
  8
0
  6
Continuous
 62
     7
370
    15
100
AcDbLine
 10
685.8795264409
 20
406.7778605855
 30
0.0
 11
675.9513230202
 21
406.7778605855
 31
0.0
  0
SPLINE
  5
155
330
1F
100
AcDbEntity
  8
0
  6
Continuous
 62
     7
370
    15
100
AcDbSpline
210
0.0
220
0.0
230
1.0
 70
     8
 71
     3
 72
    10
 73
     6
 74
     0
 42
0.00000001
 43
0.00000001
 12
1.0
 22
0.0
 32
0.0
 13
1.0
 23
0.0
 33
0.0
 40
0.0
 40
0.0
 40
0.0
 40
0.0
 40
0.5
 40
0.5
 40
1.0
 40
1.0
 40
1.0
 40
1.0
 10
462.023119694931
 20
394.777864288906
 30
0.0
 10
461.6959459338194
 20
393.7963430055714
 30
0.0
 10
461.4264033899009
 20
392.8076523132773
 30
0.0
 10
461.0534708816425
 20
390.8096013011739
 30
0.0
 10
460.9513229252062
 20
389.8000864737377
 30
0.0
 10
460.9513229252061
 20
388.7778642889053
 30
0.0
  0
LINE
  5
156
330
1F
100
AcDbEntity
  8
0
  6
Continuous
 62
     7
370
    15
100
AcDbLine
 10
460.951323402
 20
400.7778633273
 30
0.0
 11
460.951323402
 21
388.7778613603
 31
0.0
  0
LINE
  5
157
330
1F
100
AcDbEntity
  8
0
  6
Continuous
 62
     7
370
    15
100
AcDbLine
 10
686.9513231934
 20
388.7778613603
 30
0.0
 11
686.9513231934
 21
400.7778633273
 31
0.0
  0
SPLINE
  5
158
330
1F
100
AcDbEntity
  8
0
  6
Continuous
 62
     7
370
    15
100
AcDbSpline
210
0.0
220
0.0
230
1.0
 70
     8
 71
     3
 72
    12
 73
     8
 74
     0
 42
0.00000001
 43
0.00000001
 12
1.0
 22
0.0
 32
0.0
 13
1.0
 23
0.0
 33
0.0
 40
0.0
 40
0.0
 40
0.0
 40
0.0
 40
0.2500000000000017
 40
0.2500000000000017
 40
0.5000000000000033
 40
0.5000000000000033
 40
1.0
 40
1.0
 40
1.0
 40
1.0
 10
686.9513229252085
 20
388.777864288901
 30
0.0
 10
686.9513229252086
 20
389.2870642438945
 30
0.0
 10
686.9259896719157
 20
389.7985487208704
 30
0.0
 10
686.827952784839
 20
390.8103715581466
 30
0.0
 10
686.7553434159101
 20
391.3128988422452
 30
0.0
 10
686.4752967169763
 20
392.8115553945287
 30
0.0
 10
686.2058828880706
 20
393.7987940911445
 30
0.0
 10
685.8795261554849
 20
394.777864288902
 30
0.0
  0
SPLINE
  5
159
330
1F
100
AcDbEntity
  8
0
  6
Continuous
 62
     7
370
    15
100
AcDbSpline
210
0.0
220
0.0
230
1.0
 70
     8
 71
     3
 72
    12
 73
     8
 74
     0
 42
0.00000001
 43
0.00000001
 12
1.0
 22
0.0
 32
0.0
 13
1.0
 23
0.0
 33
0.0
 40
0.0
 40
0.0
 40
0.0
 40
0.0
 40
0.2500000000000008
 40
0.2500000000000008
 40
0.5000000000000017
 40
0.5000000000000017
 40
1.0
 40
1.0
 40
1.0
 40
1.0
 10
460.9513229252061
 20
388.7778642889053
 30
0.0
 10
460.9513229252061
 20
388.2686643339121
 30
0.0
 10
460.9766561784992
 20
387.7571798569361
 30
0.0
 10
461.074693065576
 20
386.7453570196602
 30
0.0
 10
461.1473024345049
 20
386.2428297355617
 30
0.0
 10
461.4273491334387
 20
384.7441731832786
 30
0.0
 10
461.6967629623444
 20
383.756934486663
 30
0.0
 10
462.0231196949302
 20
382.7778642889057
 30
0.0
  0
LINE
  5
15A
330
1F
100
AcDbEntity
  8
0
  6
Continuous
 62
     7
370
    15
100
AcDbLine
 10
462.0231192232
 20
382.7778641021
 30
0.0
 11
471.9513158919
 21
382.7778641021
 31
0.0
  0
SPLINE
  5
15B
330
1F
100
AcDbEntity
  8
0
  6
Continuous
 62
     7
370
    15
100
AcDbSpline
210
0.0
220
0.0
230
1.0
 70
     8
 71
     3
 72
    10
 73
     6
 74
     0
 42
0.00000001
 43
0.00000001
 12
1.0
 22
0.0
 32
0.0
 13
1.0
 23
0.0
 33
0.0
 40
0.0
 40
0.0
 40
0.0
 40
0.0
 40
0.5
 40
0.5
 40
1.0
 40
1.0
 40
1.0
 40
1.0
 10
685.879526155483
 20
382.7778642889002
 30
0.0
 10
686.2066999165946
 20
383.7593855722349
 30
0.0
 10
686.4762424605132
 20
384.7480762645289
 30
0.0
 10
686.849174968772
 20
386.7461272766325
 30
0.0
 10
686.9513229252084
 20
387.7556421040687
 30
0.0
 10
686.9513229252085
 20
388.777864288901
 30
0.0
  0
LINE
  5
15C
330
1F
100
AcDbEntity
  8
0
  6
Continuous
 62
     7
370
    15
100
AcDbLine
 10
685.8795264409
 20
382.7778641021
 30
0.0
 11
675.9513230202
 21
382.7778641021
 31
0.0
  0
SPLINE
  5
15D
330
1F
100
AcDbEntity
  8
0
  6
Continuous
 62
     7
370
    15
100
AcDbSpline
210
0.0
220
0.0
230
1.0
 70
     8
 71
     3
 72
    10
 73
     6
 74
     0
 42
0.00000001
 43
0.00000001
 12
1.0
 22
0.0
 32
0.0
 13
1.0
 23
0.0
 33
0.0
 40
0.0
 40
0.0
 40
0.0
 40
0.0
 40
0.5
 40
0.5
 40
1.0
 40
1.0
 40
1.0
 40
1.0
 10
685.8795261554831
 20
602.176826976071
 30
0.0
 10
686.2048099522204
 20
601.3800476524688
 30
0.0
 10
686.4776369094192
 20
600.5639893169337
 30
0.0
 10
686.8506898719617
 20
598.9281779839896
 30
0.0
 10
686.9513229252065
 20
598.105694456545
 30
0.0
 10
686.9513229252062
 20
597.2778474905048
 30
0.0
  0
LINE
  5
15E
330
1F
100
AcDbEntity
  8
0
  6
Continuous
 62
     7
370
    15
100
AcDbLine
 10
685.8795264409
 20
602.1768245733
 30
0.0
 11
675.9513230202
 21
602.1768245733
 31
0.0
  0
SPLINE
  5
15F
330
1F
100
AcDbEntity
  8
0
  6
Continuous
 62
     7
370
    15
100
AcDbSpline
210
0.0
220
0.0
230
1.0
 70
     8
 71
     3
 72
    10
 73
     6
 74
     0
 42
0.00000001
 43
0.00000001
 12
1.0
 22
0.0
 32
0.0
 13
1.0
 23
0.0
 33
0.0
 40
0.0
 40
0.0
 40
0.0
 40
0.0
 40
0.5
 40
0.5
 40
1.0
 40
1.0
 40
1.0
 40
1.0
 10
462.023119694931
 20
602.1768269760707
 30
0.0
 10
461.6978358981935
 20
601.3800476524686
 30
0.0
 10
461.4250089409942
 20
600.5639893169333
 30
0.0
 10
461.0519559784515
 20
598.9281779839895
 30
0.0
 10
460.9513229252064
 20
598.105694456545
 30
0.0
 10
460.9513229252064
 20
597.2778474905048
 30
0.0
  0
LINE
  5
160
330
1F
100
AcDbEntity
  8
0
  6
Continuous
 62
     7
370
    15
100
AcDbLine
 10
462.0231192232
 20
602.1768245733
 30
0.0
 11
471.9513158919
 21
602.1768245733
 31
0.0
  0
SPLINE
  5
161
330
1F
100
AcDbEntity
  8
0
  6
Continuous
 62
     7
370
    15
100
AcDbSpline
210
0.0
220
0.0
230
1.0
 70
     8
 71
     3
 72
    12
 73
     8
 74
     0
 42
0.00000001
 43
0.00000001
 12
1.0
 22
0.0
 32
0.0
 13
1.0
 23
0.0
 33
0.0
 40
0.0
 40
0.0
 40
0.0
 40
0.0
 40
0.2499999999999993
 40
0.2499999999999993
 40
0.4999999999999986
 40
0.4999999999999986
 40
1.0
 40
1.0
 40
1.0
 40
1.0
 10
686.9513229252069
 20
577.2014562007971
 30
0.0
 10
686.9513229252069
 20
577.3536349308224
 30
0.0
 10
686.9259896719137
 20
577.5064964096392
 30
0.0
 10
686.8279527848371
 20
577.8088882556663
 30
0.0
 10
686.7553434159083
 20
577.9590728013388
 30
0.0
 10
686.4752967169748
 20
578.4069590366656
 30
0.0
 10
686.2058828880693
 20
578.702003703519
 30
0.0
 10
685.8795261554839
 20
578.9946071451322
 30
0.0
  0
LINE
  5
162
330
1F
100
AcDbEntity
  8
0
  6
Continuous
 62
     7
370
    15
100
AcDbLine
 10
686.9513231934
 20
577.2014576829
 30
0.0
 11
686.9513231934
 21
585.6867376602
 31
0.0
  0
SPLINE
  5
163
330
1F
100
AcDbEntity
  8
0
  6
Continuous
 62
     7
370
    15
100
AcDbSpline
210
0.0
220
0.0
230
1.0
 70
     8
 71
     3
 72
    10
 73
     6
 74
     0
 42
0.00000001
 43
0.00000001
 12
1.0
 22
0.0
 32
0.0
 13
1.0
 23
0.0
 33
0.0
 40
0.0
 40
0.0
 40
0.0
 40
0.0
 40
0.5
 40
0.5
 40
1.0
 40
1.0
 40
1.0
 40
1.0
 10
462.0231196949318
 20
578.9946071451377
 30
0.0
 10
461.69594593382
 20
578.701271175788
 30
0.0
 10
461.4264033899012
 20
578.4057925676972
 30
0.0
 10
461.0534708816425
 20
577.8086580578326
 30
0.0
 10
460.9513229252062
 20
577.5069559801427
 30
0.0
 10
460.9513229252062
 20
577.2014562008002
 30
0.0
  0
LINE
  5
164
330
1F
100
AcDbEntity
  8
0
  6
Continuous
 62
     7
370
    15
100
AcDbLine
 10
460.951323402
 20
585.6867376602
 30
0.0
 11
460.951323402
 21
577.2014576829
 31
0.0
  0
SPLINE
  5
165
330
1F
100
AcDbEntity
  8
0
  6
Continuous
 62
     7
370
    15
100
AcDbSpline
210
0.0
220
0.0
230
1.0
 70
    24
 71
     3
 72
    10
 73
     6
 74
     0
 42
0.00000001
 43
0.00000001
 12
1.0
 22
0.0
 32
0.0
 13
1.0
 23
0.0
 33
0.0
 40
0.0
 40
0.0
 40
0.0
 40
0.0
 40
0.5
 40
0.5
 40
1.0
 40
1.0
 40
1.0
 40
1.0
 10
462.023119694931
 20
382.7778642889053
 30
0.0
 10
461.6978358981935
 20
382.7778642889053
 30
0.0
 10
461.4250089409942
 20
382.7778642889053
 30
0.0
 10
461.0519559784515
 20
382.7778642889053
 30
0.0
 10
460.9513229252064
 20
382.7778642889053
 30
0.0
 10
460.9513229252064
 20
382.7778642889053
 30
0.0
  0
LINE
  5
166
330
1F
100
AcDbEntity
  8
0
  6
Continuous
 62
     7
370
    15
100
AcDbLine
 10
460.951323402
 20
388.7778613603
 30
0.0
 11
460.951323402
 21
382.7778641021
 31
0.0
  0
SPLINE
  5
167
330
1F
100
AcDbEntity
  8
0
  6
Continuous
 62
     7
370
    15
100
AcDbSpline
210
0.0
220
0.0
230
1.0
 70
    24
 71
     3
 72
    10
 73
     6
 74
     0
 42
0.00000001
 43
0.00000001
 12
1.0
 22
0.0
 32
0.0
 13
1.0
 23
0.0
 33
0.0
 40
0.0
 40
0.0
 40
0.0
 40
0.0
 40
0.5
 40
0.5
 40
1.0
 40
1.0
 40
1.0
 40
1.0
 10
685.8795261554841
 20
406.7778642889014
 30
0.0
 10
686.2048099522217
 20
406.7778642889014
 30
0.0
 10
686.4776369094208
 20
406.7778642889014
 30
0.0
 10
686.8506898719636
 20
406.7778642889014
 30
0.0
 10
686.9513229252086
 20
406.7778642889014
 30
0.0
 10
686.9513229252086
 20
406.7778642889014
 30
0.0
  0
LINE
  5
168
330
1F
100
AcDbEntity
  8
0
  6
Continuous
 62
     7
370
    15
100
AcDbLine
 10
686.9513231934
 20
400.7778633273
 30
0.0
 11
686.9513231934
 21
406.7778605855
 31
0.0
  0
SPLINE
  5
169
330
1F
100
AcDbEntity
  8
0
  6
Continuous
 62
     7
370
    15
100
AcDbSpline
210
0.0
220
0.0
230
1.0
 70
    24
 71
     3
 72
    10
 73
     6
 74
     0
 42
0.00000001
 43
0.00000001
 12
1.0
 22
0.0
 32
0.0
 13
1.0
 23
0.0
 33
0.0
 40
0.0
 40
0.0
 40
0.0
 40
0.0
 40
0.5
 40
0.5
 40
1.0
 40
1.0
 40
1.0
 40
1.0
 10
685.8795261554831
 20
382.7778642889009
 30
0.0
 10
686.2048099522204
 20
382.7778642889009
 30
0.0
 10
686.4776369094192
 20
382.7778642889008
 30
0.0
 10
686.8506898719617
 20
382.7778642889008
 30
0.0
 10
686.9513229252065
 20
382.7778642889008
 30
0.0
 10
686.9513229252062
 20
382.7778642889008
 30
0.0
  0
LINE
  5
16A
330
1F
100
AcDbEntity
  8
0
  6
Continuous
 62
     7
370
    15
100
AcDbLine
 10
686.9513231934
 20
382.7778641021
 30
0.0
 11
686.9513231934
 21
388.7778613603
 31
0.0
  0
SPLINE
  5
16B
330
1F
100
AcDbEntity
  8
0
  6
Continuous
 62
     7
370
    15
100
AcDbSpline
210
0.0
220
0.0
230
1.0
 70
    24
 71
     3
 72
    10
 73
     6
 74
     0
 42
0.00000001
 43
0.00000001
 12
1.0
 22
0.0
 32
0.0
 13
1.0
 23
0.0
 33
0.0
 40
0.0
 40
0.0
 40
0.0
 40
0.0
 40
0.5
 40
0.5
 40
1.0
 40
1.0
 40
1.0
 40
1.0
 10
462.0231196949321
 20
406.7778642889057
 30
0.0
 10
461.6978358981947
 20
406.7778642889057
 30
0.0
 10
461.4250089409958
 20
406.7778642889057
 30
0.0
 10
461.0519559784535
 20
406.7778642889057
 30
0.0
 10
460.9513229252087
 20
406.7778642889057
 30
0.0
 10
460.9513229252089
 20
406.7778642889057
 30
0.0
  0
LINE
  5
16C
330
1F
100
AcDbEntity
  8
0
  6
Continuous
 62
     7
370
    15
100
AcDbLine
 10
460.951323402
 20
406.7778605855
 30
0.0
 11
460.951323402
 21
400.7778633273
 31
0.0
  0
SPLINE
  5
16D
330
1F
100
AcDbEntity
  8
0
  6
Continuous
 62
     7
370
    15
100
AcDbSpline
210
0.0
220
0.0
230
1.0
 70
     8
 71
     3
 72
    12
 73
     8
 74
     0
 42
0.00000001
 43
0.00000001
 12
1.0
 22
0.0
 32
0.0
 13
1.0
 23
0.0
 33
0.0
 40
0.0
 40
0.0
 40
0.0
 40
0.0
 40
0.2499999999999993
 40
0.2499999999999993
 40
0.4999999999999986
 40
0.4999999999999986
 40
1.0
 40
1.0
 40
1.0
 40
1.0
 10
460.9513229252062
 20
577.2014562008002
 30
0.0
 10
460.9513229252062
 20
577.049277470775
 30
0.0
 10
460.9766561784995
 20
576.8964159919577
 30
0.0
 10
461.0746930655764
 20
576.5940241459308
 30
0.0
 10
461.1473024345051
 20
576.443839600258
 30
0.0
 10
461.4273491334392
 20
575.995953364931
 30
0.0
 10
461.696762962345
 20
575.7009086980775
 30
0.0
 10
462.0231196949308
 20
575.4083052564641
 30
0.0
  0
LINE
  5
16E
330
1F
100
AcDbEntity
  8
0
  6
Continuous
 62
     7
370
    15
100
AcDbLine
 10
462.0231192232
 20
575.4083040989
 30
0.0
 11
471.9513158919
 21
575.4083040989
 31
0.0
  0
SPLINE
  5
16F
330
1F
100
AcDbEntity
  8
0
  6
Continuous
 62
     7
370
    15
100
AcDbSpline
210
0.0
220
0.0
230
1.0
 70
     8
 71
     3
 72
    10
 73
     6
 74
     0
 42
0.00000001
 43
0.00000001
 12
1.0
 22
0.0
 32
0.0
 13
1.0
 23
0.0
 33
0.0
 40
0.0
 40
0.0
 40
0.0
 40
0.0
 40
0.5
 40
0.5
 40
1.0
 40
1.0
 40
1.0
 40
1.0
 10
685.8795261554832
 20
575.4083052564613
 30
0.0
 10
686.2066999165945
 20
575.7016412258108
 30
0.0
 10
686.4762424605127
 20
575.9971198339013
 30
0.0
 10
686.8491749687709
 20
576.5942543437653
 30
0.0
 10
686.9513229252069
 20
576.895956421455
 30
0.0
 10
686.9513229252069
 20
577.2014562007971
 30
0.0
  0
LINE
  5
170
330
1F
100
AcDbEntity
  8
0
  6
Continuous
 62
     7
370
    15
100
AcDbLine
 10
685.8795264409
 20
575.4083040989
 30
0.0
 11
675.9513230202
 21
575.4083040989
 31
0.0
  0
SPLINE
  5
171
330
1F
100
AcDbEntity
  8
0
  6
Continuous
 62
     7
370
    15
100
AcDbSpline
210
0.0
220
0.0
230
1.0
 70
     8
 71
     3
 72
    11
 73
     7
 74
     0
 42
0.00000001
 43
0.00000001
 12
1.0
 22
0.0
 32
0.0
 13
1.0
 23
0.0
 33
0.0
 40
0.0
 40
0.0
 40
0.0
 40
0.0
 40
0.3051758569726388
 40
0.6104375385689759
 40
0.9155398764883682
 40
1.0
 40
1.0
 40
1.0
 40
1.0
 10
685.879526440916
 20
602.1768245732927
 30
0.0
 10
685.9836749696154
 20
602.0803076831512
 30
0.0
 10
686.192001316711
 20
601.8872467594176
 30
0.0
 10
686.4487593422242
 20
601.5940631961112
 30
0.0
 10
686.6219294529515
 20
601.3701948946854
 30
0.0
 10
686.6867831985272
 20
601.2433864358954
 30
0.0
 10
686.7008439869857
 20
601.2158933913851
 30
0.0
  0
LINE
  5
172
330
1F
100
AcDbEntity
  8
0
  6
Continuous
 62
     7
370
    15
100
AcDbLine
 10
686.9513231934
 20
597.2778443134
 30
0.0
 11
686.9513231934
 21
600.792566303
 31
0.0
  0
SPLINE
  5
173
330
1F
100
AcDbEntity
  8
0
  6
Continuous
 62
     7
370
    15
100
AcDbSpline
210
0.0
220
0.0
230
1.0
 70
     8
 71
     3
 72
    11
 73
     7
 74
     0
 42
0.00000001
 43
0.00000001
 12
1.0
 22
0.0
 32
0.0
 13
1.0
 23
0.0
 33
0.0
 40
0.0
 40
0.0
 40
0.0
 40
0.0
 40
0.1328495724120808
 40
0.4218371537659604
 40
0.710955257916741
 40
0.9999999999999999
 40
0.9999999999999999
 40
0.9999999999999999
 40
0.9999999999999999
 10
461.20202053797
 20
601.2158859408045
 30
0.0
 10
461.2255917001814
 20
601.2590781210971
 30
0.0
 10
461.300437194959
 20
601.3962262207771
 30
0.0
 10
461.4791215408648
 20
601.6251609923446
 30
0.0
 10
461.7268720668176
 20
601.9025886567588
 30
0.0
 10
461.9243785248447
 20
602.0854203341781
 30
0.0
 10
462.0231192232346
 20
602.1768245732927
 30
0.0
  0
LINE
  5
174
330
1F
100
AcDbEntity
  8
0
  6
Continuous
 62
     7
370
    15
100
AcDbLine
 10
460.951323402
 20
600.792566303
 30
0.0
 11
460.951323402
 21
597.2778443134
 31
0.0
  0
LINE
  5
175
330
1F
100
AcDbEntity
  8
0
  6
Continuous
 62
     7
370
    15
100
AcDbLine
 10
738.951320541
 20
395.7965541518
 30
0.0
 11
738.951320541
 21
386.7778647578
 31
0.0
  0
LINE
  5
176
330
1F
100
AcDbEntity
  8
0
  6
Continuous
 62
     7
370
    15
100
AcDbLine
 10
738.951320541
 20
402.7778673804
 30
0.0
 11
738.951320541
 21
395.7965541518
 31
0.0
  0
LINE
  5
177
330
1F
100
AcDbEntity
  8
0
  6
Continuous
 62
     7
370
    15
100
AcDbLine
 10
408.9513372303
 20
395.7965541518
 30
0.0
 11
408.9513372303
 21
386.7778647578
 31
0.0
  0
LINE
  5
178
330
1F
100
AcDbEntity
  8
0
  6
Continuous
 62
     7
370
    15
100
AcDbLine
 10
408.9513372303
 20
402.7778673804
 30
0.0
 11
408.9513372303
 21
395.7965541518
 31
0.0
  0
LINE
  5
179
330
1F
100
AcDbEntity
  8
0
  6
Continuous
 62
     7
370
    15
100
AcDbLine
 10
408.9513372303
 20
596.7925656474
 30
0.0
 11
408.9513372303
 21
580.7925630248
 31
0.0
  0
LINE
  5
17A
330
1F
100
AcDbEntity
  8
0
  6
Continuous
 62
     7
370
    15
100
AcDbLine
 10
738.951320541
 20
596.7925656474
 30
0.0
 11
738.951320541
 21
580.7925630248
 31
0.0
  0
LINE
  5
17B
330
1F
100
AcDbEntity
  8
0
  6
Continuous
 62
     7
370
    15
100
AcDbLine
 10
460.951323402
 20
577.2014576829
 30
0.0
 11
460.951323402
 21
576.7925698197
 31
0.0
  0
LINE
  5
17C
330
1F
100
AcDbEntity
  8
0
  6
Continuous
 62
     7
370
    15
100
AcDbLine
 10
686.9513231934
 20
576.7925698197
 30
0.0
 11
686.9513231934
 21
577.2014576829
 31
0.0
  0
SPLINE
  5
17D
330
1F
100
AcDbEntity
  8
0
  6
Continuous
 62
     7
370
    15
100
AcDbSpline
210
0.0
220
0.0
230
1.0
 70
     8
 71
     3
 72
     9
 73
     5
 74
     0
 42
0.00000001
 43
0.00000001
 12
1.0
 22
0.0
 32
0.0
 13
1.0
 23
0.0
 33
0.0
 40
0.0
 40
0.0
 40
0.0
 40
0.0
 40
0.6343528820446835
 40
1.0
 40
1.0
 40
1.0
 40
1.0
 10
462.0231192232346
 20
408.1621263063096
 30
0.0
 10
461.9069340313165
 20
407.8714734198076
 30
0.0
 10
461.7237785744614
 20
407.4132854069065
 30
0.0
 10
461.5813998243796
 20
406.9479933024626
 30
0.0
 10
461.529339444754
 20
406.7778605854654
 30
0.0
  0
LINE
  5
17E
330
1F
100
AcDbEntity
  8
0
  6
Continuous
 62
     7
370
    15
100
AcDbLine
 10
462.0231192232
 20
408.1621263063
 30
0.0
 11
471.9513158919
 21
408.1621263063
 31
0.0
  0
SPLINE
  5
17F
330
1F
100
AcDbEntity
  8
0
  6
Continuous
 62
     7
370
    15
100
AcDbSpline
210
0.0
220
0.0
230
1.0
 70
     8
 71
     3
 72
     9
 73
     5
 74
     0
 42
0.00000001
 43
0.00000001
 12
1.0
 22
0.0
 32
0.0
 13
1.0
 23
0.0
 33
0.0
 40
0.0
 40
0.0
 40
0.0
 40
0.0
 40
0.3597492907880677
 40
1.0
 40
1.0
 40
1.0
 40
1.0
 10
686.3730966718173
 20
406.7778605854654
 30
0.0
 10
686.3220194165958
 20
406.9452664051739
 30
0.0
 10
686.180039275066
 20
407.410606640708
 30
0.0
 10
685.9968277498631
 20
407.8687802975649
 30
0.0
 10
685.879526440916
 20
408.1621263063096
 30
0.0
  0
LINE
  5
180
330
1F
100
AcDbEntity
  8
0
  6
Continuous
 62
     7
370
    15
100
AcDbLine
 10
685.8795264409
 20
408.1621263063
 30
0.0
 11
675.9513230202
 21
408.1621263063
 31
0.0
  0
SPLINE
  5
181
330
1F
100
AcDbEntity
  8
0
  6
Continuous
 62
     7
370
    15
100
AcDbSpline
210
0.0
220
0.0
230
1.0
 70
     8
 71
     3
 72
    12
 73
     8
 74
     0
 42
0.00000001
 43
0.00000001
 12
1.0
 22
0.0
 32
0.0
 13
1.0
 23
0.0
 33
0.0
 40
0.0
 40
0.0
 40
0.0
 40
0.0
 40
0.1966724793665861
 40
0.3947866337183347
 40
0.5964807589363555
 40
0.7982659803918638
 40
1.0
 40
1.0
 40
1.0
 40
1.0
 10
461.0115985990738
 20
382.7778641021394
 30
0.0
 10
461.0435524234949
 20
382.6856998075556
 30
0.0
 10
461.1076943045461
 20
382.5006956233152
 30
0.0
 10
461.2695457054467
 20
382.223090169236
 30
0.0
 10
461.477223283332
 20
381.945199605197
 30
0.0
 10
461.7273465799761
 20
381.6678591984326
 30
0.0
 10
461.924536682517
 20
381.4850158871726
 30
0.0
 10
462.0231192232346
 20
381.3936058318757
 30
0.0
  0
LINE
  5
182
330
1F
100
AcDbEntity
  8
0
  6
Continuous
 62
     7
370
    15
100
AcDbLine
 10
462.0231192232
 20
381.3936058319
 30
0.0
 11
471.9513158919
 21
381.3936058319
 31
0.0
  0
SPLINE
  5
183
330
1F
100
AcDbEntity
  8
0
  6
Continuous
 62
     7
370
    15
100
AcDbSpline
210
0.0
220
0.0
230
1.0
 70
     8
 71
     3
 72
    12
 73
     8
 74
     0
 42
0.00000001
 43
0.00000001
 12
1.0
 22
0.0
 32
0.0
 13
1.0
 23
0.0
 33
0.0
 40
0.0
 40
0.0
 40
0.0
 40
0.0
 40
0.2130174770298025
 40
0.4260948609768447
 40
0.6390610205682642
 40
0.8560494120817189
 40
1.0
 40
1.0
 40
1.0
 40
1.0
 10
685.879526440916
 20
381.3936058318757
 30
0.0
 10
685.9834090569595
 20
381.4901320825533
 30
0.0
 10
686.1912035039607
 20
381.6832117299912
 30
0.0
 10
686.4519509459766
 20
381.976254859678
 30
0.0
 10
686.6662991675523
 20
382.273606174055
 30
0.0
 10
686.8151028672273
 20
382.5410183166611
 30
0.0
 10
686.8642511549596
 20
382.710336285622
 30
0.0
 10
686.8838525981879
 20
382.7778641021394
 30
0.0
  0
LINE
  5
184
330
1F
100
AcDbEntity
  8
0
  6
Continuous
 62
     7
370
    15
100
AcDbLine
 10
685.8795264409
 20
381.3936058319
 30
0.0
 11
675.9513230202
 21
381.3936058319
 31
0.0
  0
SPLINE
  5
185
330
1F
100
AcDbEntity
  8
0
  6
Continuous
 62
     7
370
    15
100
AcDbSpline
210
0.0
220
0.0
230
1.0
 70
     8
 71
     3
 72
    11
 73
     7
 74
     0
 42
0.00000001
 43
0.00000001
 12
1.0
 22
0.0
 32
0.0
 13
1.0
 23
0.0
 33
0.0
 40
0.0
 40
0.0
 40
0.0
 40
0.0
 40
0.3051749368685897
 40
0.610436611137248
 40
0.9155389417327867
 40
1.0
 40
1.0
 40
1.0
 40
1.0
 10
685.879526440916
 20
408.1621263063096
 30
0.0
 10
685.9836750530975
 20
408.065609305445
 30
0.0
 10
686.1920018787769
 20
407.8725478714706
 30
0.0
 10
686.4487590805061
 20
407.5793653792794
 30
0.0
 10
686.6219301853532
 20
407.3554953177736
 30
0.0
 10
686.6867832286468
 20
407.2286881317815
 30
0.0
 10
686.7008439869857
 20
407.201195124402
 30
0.0
  0
SPLINE
  5
186
330
1F
100
AcDbEntity
  8
0
  6
Continuous
 62
     7
370
    15
100
AcDbSpline
210
0.0
220
0.0
230
1.0
 70
     8
 71
     3
 72
    11
 73
     7
 74
     0
 42
0.00000001
 43
0.00000001
 12
1.0
 22
0.0
 32
0.0
 13
1.0
 23
0.0
 33
0.0
 40
0.0
 40
0.0
 40
0.0
 40
0.0
 40
0.1328504419502803
 40
0.4218369515066653
 40
0.7109549122530702
 40
0.9999999999999999
 40
0.9999999999999999
 40
0.9999999999999999
 40
0.9999999999999999
 10
461.20202053797
 20
407.2011802232408
 30
0.0
 10
461.2255916342114
 20
407.2443723089229
 30
0.0
 10
461.300436393748
 20
407.3815191447626
 30
0.0
 10
461.4791221241333
 20
407.6104566388582
 30
0.0
 10
461.7268722557986
 20
407.8878810814533
 30
0.0
 10
461.9243785321376
 20
408.0707189131244
 30
0.0
 10
462.0231192232346
 20
408.1621263063096
 30
0.0
  0
SPLINE
  5
187
330
1F
100
AcDbEntity
  8
0
  6
Continuous
 62
     7
370
    15
100
AcDbSpline
210
0.0
220
0.0
230
1.0
 70
     8
 71
     3
 72
     9
 73
     5
 74
     0
 42
0.00000001
 43
0.00000001
 12
1.0
 22
0.0
 32
0.0
 13
1.0
 23
0.0
 33
0.0
 40
0.0
 40
0.0
 40
0.0
 40
0.0
 40
0.5749482630540486
 40
1.0
 40
1.0
 40
1.0
 40
1.0
 10
462.0231192232346
 20
465.4598608499908
 30
0.0
 10
461.9180513520882
 20
465.2735177633466
 30
0.0
 10
461.7353081769227
 20
464.9494136680418
 30
0.0
 10
461.5889858888774
 20
464.6207429034451
 30
0.0
 10
461.5267913461899
 20
464.4810408240699
 30
0.0
  0
LINE
  5
188
330
1F
100
AcDbEntity
  8
0
  6
Continuous
 62
     7
370
    15
100
AcDbLine
 10
462.0231192232
 20
465.45986085
 30
0.0
 11
471.9513158919
 21
465.45986085
 31
0.0
  0
SPLINE
  5
189
330
1F
100
AcDbEntity
  8
0
  6
Continuous
 62
     7
370
    15
100
AcDbSpline
210
0.0
220
0.0
230
1.0
 70
     8
 71
     3
 72
     9
 73
     5
 74
     0
 42
0.00000001
 43
0.00000001
 12
1.0
 22
0.0
 32
0.0
 13
1.0
 23
0.0
 33
0.0
 40
0.0
 40
0.0
 40
0.0
 40
0.0
 40
0.4577681462206278
 40
1.0
 40
1.0
 40
1.0
 40
1.0
 10
461.5232001663422
 20
438.7299027180814
 30
0.0
 10
461.5913898593448
 20
438.5789059217365
 30
0.0
 10
461.7403510606989
 20
438.2490516110083
 30
0.0
 10
461.9237010296694
 20
437.9235471111429
 30
0.0
 10
462.0231192232346
 20
437.7470482027673
 30
0.0
  0
LINE
  5
18A
330
1F
100
AcDbEntity
  8
0
  6
Continuous
 62
     7
370
    15
100
AcDbLine
 10
462.0231192232
 20
437.7470482028
 30
0.0
 11
471.9513158919
 21
437.7470482028
 31
0.0
  0
SPLINE
  5
18B
330
1F
100
AcDbEntity
  8
0
  6
Continuous
 62
     7
370
    15
100
AcDbSpline
210
0.0
220
0.0
230
1.0
 70
     8
 71
     3
 72
     9
 73
     5
 74
     0
 42
0.00000001
 43
0.00000001
 12
1.0
 22
0.0
 32
0.0
 13
1.0
 23
0.0
 33
0.0
 40
0.0
 40
0.0
 40
0.0
 40
0.0
 40
0.4555434160728625
 40
1.0
 40
1.0
 40
1.0
 40
1.0
 10
686.3775577069497
 20
464.4810408240699
 30
0.0
 10
686.3099640714859
 20
464.6306878008389
 30
0.0
 10
686.1615838445329
 20
464.9591899182859
 30
0.0
 10
685.9789581841212
 20
465.2833627936618
 30
0.0
 10
685.879526440916
 20
465.4598608499908
 30
0.0
  0
LINE
  5
18C
330
1F
100
AcDbEntity
  8
0
  6
Continuous
 62
     7
370
    15
100
AcDbLine
 10
685.8795264409
 20
465.45986085
 30
0.0
 11
675.9513230202
 21
465.45986085
 31
0.0
  0
SPLINE
  5
18D
330
1F
100
AcDbEntity
  8
0
  6
Continuous
 62
     7
370
    15
100
AcDbSpline
210
0.0
220
0.0
230
1.0
 70
     8
 71
     3
 72
     9
 73
     5
 74
     0
 42
0.00000001
 43
0.00000001
 12
1.0
 22
0.0
 32
0.0
 13
1.0
 23
0.0
 33
0.0
 40
0.0
 40
0.0
 40
0.0
 40
0.0
 40
0.5772120775508441
 40
1.0
 40
1.0
 40
1.0
 40
1.0
 10
685.879526440916
 20
437.7470482027673
 30
0.0
 10
685.9846113983184
 20
437.9333898494521
 30
0.0
 10
686.1666674596684
 20
438.256220320144
 30
0.0
 10
686.3124367030507
 20
438.5836002660487
 30
0.0
 10
686.3740661786175
 20
438.7220125532293
 30
0.0
  0
LINE
  5
18E
330
1F
100
AcDbEntity
  8
0
  6
Continuous
 62
     7
370
    15
100
AcDbLine
 10
685.8795264409
 20
437.7470482028
 30
0.0
 11
675.9513230202
 21
437.7470482028
 31
0.0
  0
LINE
  5
18F
330
1F
100
AcDbEntity
  8
0
  6
Continuous
 62
     8
370
    15
100
AcDbLine
 10
568.1277986289
 20
561.7749336994
 30
0.0
 11
568.1277986289
 21
580.285215739
 31
0.0
  0
LINE
  5
190
330
1F
100
AcDbEntity
  8
0
  6
Continuous
 62
     8
370
    15
100
AcDbLine
 10
568.1277986289
 20
403.2852146661
 30
0.0
 11
568.1277986289
 21
443.6034541464
 31
0.0
  0
LINE
  5
191
330
1F
100
AcDbEntity
  8
0
  6
Continuous
 62
     8
370
    15
100
AcDbLine
 10
568.1277986289
 20
459.6034530437
 30
0.0
 11
568.1277986289
 21
523.9669773615
 31
0.0
  0
LINE
  5
192
330
1F
100
AcDbEntity
  8
0
  6
Continuous
 62
     8
370
    15
100
AcDbLine
 10
568.1277986289
 20
539.9669762588
 30
0.0
 11
568.1277986289
 21
561.7749336994
 31
0.0
  0
LINE
  5
193
330
1F
100
AcDbEntity
  8
0
  6
Continuous
 62
     8
370
    15
100
AcDbLine
 10
550.7218863488
 20
406.4469504988
 30
0.0
 11
550.7218863488
 21
443.6034541464
 31
0.0
  0
LINE
  5
194
330
1F
100
AcDbEntity
  8
0
  6
Continuous
 62
     8
370
    15
100
AcDbLine
 10
550.7218863488
 20
459.6034530437
 30
0.0
 11
550.7218863488
 21
523.9669773615
 31
0.0
  0
LINE
  5
195
330
1F
100
AcDbEntity
  8
0
  6
Continuous
 62
     8
370
    15
100
AcDbLine
 10
550.7218863488
 20
539.9669762588
 30
0.0
 11
550.7218863488
 21
577.1234799063
 31
0.0
  0
LINE
  5
196
330
1F
100
AcDbEntity
  8
0
  6
Continuous
 62
     8
370
    15
100
AcDbLine
 10
553.546438706
 20
406.2989223635
 30
0.0
 11
553.546438706
 21
443.6034541464
 31
0.0
  0
LINE
  5
197
330
1F
100
AcDbEntity
  8
0
  6
Continuous
 62
     8
370
    15
100
AcDbLine
 10
553.546438706
 20
459.6034530437
 30
0.0
 11
553.546438706
 21
523.9669773615
 31
0.0
  0
LINE
  5
198
330
1F
100
AcDbEntity
  8
0
  6
Continuous
 62
     8
370
    15
100
AcDbLine
 10
553.546438706
 20
539.9669762588
 30
0.0
 11
553.546438706
 21
577.2715080416
 31
0.0
  0
LINE
  5
199
330
1F
100
AcDbEntity
  8
FORMAT
  6
CENTERX2
370
     0
100
AcDbLine
 10
450.0985764506
 20
491.7852152026
 30
0.0
 11
692.5196866942
 21
491.7852152026
 31
0.0
  0
CIRCLE
  5
19A
330
1F
100
AcDbEntity
  8
0
  6
Continuous
 62
     7
370
    15
100
AcDbCircle
 10
173.7431060577
 20
531.9669756009
 30
0.0
 40
8.000000000000027
  0
CIRCLE
  5
19B
330
1F
100
AcDbEntity
  8
0
  6
Continuous
 62
     7
370
    15
100
AcDbCircle
 10
173.7431060577
 20
451.6034548042
 30
0.0
 40
8.000000000000014
  0
CIRCLE
  5
19C
330
1F
100
AcDbEntity
  8
0
  6
Continuous
 62
     7
370
    15
100
AcDbCircle
 10
116.9175155424
 20
394.7778642889
 30
0.0
 40
7.999999999999974
  0
CIRCLE
  5
19D
330
1F
100
AcDbEntity
  8
0
  6
Continuous
 62
     7
370
    15
100
AcDbCircle
 10
116.9175155424
 20
588.7925661163
 30
0.0
 40
7.999999999999993
  0
CIRCLE
  5
19E
330
1F
100
AcDbEntity
  8
0
  6
Continuous
 62
     7
370
    15
100
AcDbCircle
 10
36.5539947457
 20
394.7778642889
 30
0.0
 40
8.000000000000004
  0
CIRCLE
  5
19F
330
1F
100
AcDbEntity
  8
0
  6
Continuous
 62
     7
370
    15
100
AcDbCircle
 10
36.5539947457
 20
588.7925661163
 30
0.0
 40
7.999999999999956
  0
CIRCLE
  5
1A0
330
1F
100
AcDbEntity
  8
0
  6
Continuous
 62
     7
370
    15
100
AcDbCircle
 10
-20.2715957696
 20
451.6034548043
 30
0.0
 40
7.999999999999998
  0
CIRCLE
  5
1A1
330
1F
100
AcDbEntity
  8
0
  6
Continuous
 62
     7
370
    15
100
AcDbCircle
 10
-20.2715957696
 20
531.9669756009
 30
0.0
 40
8.00000000000002
  0
SPLINE
  5
1A2
330
1F
100
AcDbEntity
  8
0
  6
Continuous
 62
     7
370
    15
100
AcDbSpline
210
0.0
220
0.0
230
1.0
 70
    24
 71
     3
 72
    10
 73
     6
 74
     0
 42
0.00000001
 43
0.00000001
 12
1.0
 22
0.0
 32
0.0
 13
1.0
 23
0.0
 33
0.0
 40
0.0
 40
0.0
 40
0.0
 40
0.0
 40
0.5
 40
0.5
 40
1.0
 40
1.0
 40
1.0
 40
1.0
 10
183.5410650288833
 20
522.1690166297858
 30
0.0
 10
182.4463202875832
 20
521.8756806604362
 30
0.0
 10
181.3435791096396
 20
521.5802020523457
 30
0.0
 10
179.1150427798737
 20
520.9830675424814
 30
0.0
 10
177.9890752971864
 20
520.6813654647917
 30
0.0
 10
176.8489345989801
 20
520.3758656854494
 30
0.0
  0
ARC
  5
1A3
330
1F
100
AcDbEntity
  8
0
  6
Continuous
 62
     7
370
    15
100
AcDbCircle
 10
173.7431060577
 20
531.9669756009
 30
0.0
 40
12.00000000000072
100
AcDbArc
 50
285.0
 51
345.0
  0
SPLINE
  5
1A4
330
1F
100
AcDbEntity
  8
0
  6
Continuous
 62
     7
370
    15
100
AcDbSpline
210
0.0
220
0.0
230
1.0
 70
    24
 71
     3
 72
    12
 73
     8
 74
     0
 42
0.00000001
 43
0.00000001
 12
1.0
 22
0.0
 32
0.0
 13
1.0
 23
0.0
 33
0.0
 40
0.0
 40
0.0
 40
0.0
 40
0.0
 40
0.25
 40
0.25
 40
0.5
 40
0.5
 40
1.0
 40
1.0
 40
1.0
 40
1.0
 10
185.3342159732178
 20
528.8611470596894
 30
0.0
 10
185.1820372431923
 20
528.2932083074035
 30
0.0
 10
185.0291757643752
 20
527.7227215019379
 30
0.0
 10
184.7267839183481
 20
526.5941797687702
 30
0.0
 10
184.5765993726754
 20
526.033683413808
 30
0.0
 10
184.1287131373483
 20
524.3621492275565
 30
0.0
 10
183.8336684704947
 20
523.2610275403565
 30
0.0
 10
183.5410650288813
 20
522.169016629786
 30
0.0
  0
SPLINE
  5
1A5
330
1F
100
AcDbEntity
  8
0
  6
Continuous
 62
     7
370
    15
100
AcDbSpline
210
0.0
220
0.0
230
1.0
 70
    24
 71
     3
 72
    10
 73
     6
 74
     0
 42
0.00000001
 43
0.00000001
 12
1.0
 22
0.0
 32
0.0
 13
1.0
 23
0.0
 33
0.0
 40
0.0
 40
0.0
 40
0.0
 40
0.0
 40
0.5
 40
0.5
 40
1.0
 40
1.0
 40
1.0
 40
1.0
 10
173.743106057751
 20
437.7470483436998
 30
0.0
 10
172.7615847744163
 20
438.3137299208484
 30
0.0
 10
171.7728940821223
 20
438.8845507581896
 30
0.0
 10
169.7748430700188
 20
440.0381260478821
 30
0.0
 10
168.7653282425826
 20
440.6209697052533
 30
0.0
 10
167.7431060577503
 20
441.211149958838
 30
0.0
  0
ARC
  5
1A6
330
1F
100
AcDbEntity
  8
0
  6
Continuous
 62
     7
370
    15
100
AcDbCircle
 10
173.7431060577
 20
451.6034548042
 30
0.0
 40
12.00000000000063
100
AcDbArc
 50
240.0
 51
300.0
  0
SPLINE
  5
1A7
330
1F
100
AcDbEntity
  8
0
  6
Continuous
 62
     7
370
    15
100
AcDbSpline
210
0.0
220
0.0
230
1.0
 70
    24
 71
     3
 72
    12
 73
     8
 74
     0
 42
0.00000001
 43
0.00000001
 12
1.0
 22
0.0
 32
0.0
 13
1.0
 23
0.0
 33
0.0
 40
0.0
 40
0.0
 40
0.0
 40
0.0
 40
0.2499999999999987
 40
0.2499999999999987
 40
0.4999999999999973
 40
0.4999999999999973
 40
1.0
 40
1.0
 40
1.0
 40
1.0
 10
179.7431060577506
 20
441.2111499588396
 30
0.0
 10
179.2339061027572
 20
440.9171632277528
 30
0.0
 10
178.7224216257813
 20
440.6218575272844
 30
0.0
 10
177.7105987885051
 20
440.0376813398108
 30
0.0
 10
177.2080715044065
 20
439.7475470770613
 30
0.0
 10
175.709414952123
 20
438.8822973131777
 30
0.0
 10
174.7221762555071
 20
438.3123147859321
 30
0.0
 10
173.7431060577497
 20
437.7470483437013
 30
0.0
  0
SPLINE
  5
1A8
330
1F
100
AcDbEntity
  8
0
  6
Continuous
 62
     7
370
    15
100
AcDbSpline
210
0.0
220
0.0
230
1.0
 70
    24
 71
     3
 72
    10
 73
     6
 74
     0
 42
0.00000001
 43
0.00000001
 12
1.0
 22
0.0
 32
0.0
 13
1.0
 23
0.0
 33
0.0
 40
0.0
 40
0.0
 40
0.0
 40
0.0
 40
0.5
 40
0.5
 40
1.0
 40
1.0
 40
1.0
 40
1.0
 10
170.156804169079
 20
518.5827147411121
 30
0.0
 10
169.3600248454768
 20
519.3794940647142
 30
0.0
 10
168.5439665099415
 20
520.1955524002495
 30
0.0
 10
166.9081551769976
 20
521.8313637331934
 30
0.0
 10
166.0856716495531
 20
522.6538472606379
 30
0.0
 10
165.2578246835129
 20
523.4816942266781
 30
0.0
  0
ARC
  5
1A9
330
1F
100
AcDbEntity
  8
0
  6
Continuous
 62
     7
370
    15
100
AcDbCircle
 10
173.7431060577
 20
531.9669756009
 30
0.0
 40
12.00000000000096
100
AcDbArc
 50
225.0
 51
285.0
  0
SPLINE
  5
1AA
330
1F
100
AcDbEntity
  8
0
  6
Continuous
 62
     7
370
    15
100
AcDbSpline
210
0.0
220
0.0
230
1.0
 70
    24
 71
     3
 72
    12
 73
     8
 74
     0
 42
0.00000001
 43
0.00000001
 12
1.0
 22
0.0
 32
0.0
 13
1.0
 23
0.0
 33
0.0
 40
0.0
 40
0.0
 40
0.0
 40
0.0
 40
0.2499999999999985
 40
0.2499999999999985
 40
0.499999999999997
 40
0.499999999999997
 40
1.0
 40
1.0
 40
1.0
 40
1.0
 10
176.8489345989801
 20
520.3758656854494
 30
0.0
 10
176.2809958466942
 20
520.2236869554241
 30
0.0
 10
175.7105090412287
 20
520.0708254766071
 30
0.0
 10
174.5819673080613
 20
519.76843363058
 30
0.0
 10
174.0214709530993
 20
519.6182490849073
 30
0.0
 10
172.3499367668482
 20
519.1703628495804
 30
0.0
 10
171.2488150796485
 20
518.8753181827268
 30
0.0
 10
170.1568041690781
 20
518.5827147411135
 30
0.0
  0
SPLINE
  5
1AB
330
1F
100
AcDbEntity
  8
0
  6
Continuous
 62
     7
370
    15
100
AcDbSpline
210
0.0
220
0.0
230
1.0
 70
    24
 71
     3
 72
    10
 73
     6
 74
     0
 42
0.00000001
 43
0.00000001
 12
1.0
 22
0.0
 32
0.0
 13
1.0
 23
0.0
 33
0.0
 40
0.0
 40
0.0
 40
0.0
 40
0.0
 40
0.5
 40
0.5
 40
1.0
 40
1.0
 40
1.0
 40
1.0
 10
161.7431060577503
 20
444.6752515739738
 30
0.0
 10
161.7431060577503
 20
445.8020676996304
 30
0.0
 10
161.7431060577503
 20
446.9561484654321
 30
0.0
 10
161.7431060577503
 20
449.2695350379649
 30
0.0
 10
161.7431060577503
 20
450.4327023973054
 30
0.0
 10
161.7431060577503
 20
451.6034548042489
 30
0.0
  0
ARC
  5
1AC
330
1F
100
AcDbEntity
  8
0
  6
Continuous
 62
     7
370
    15
100
AcDbCircle
 10
173.7431060577
 20
451.6034548042
 30
0.0
 40
12.00000000000091
100
AcDbArc
 50
180.0
 51
240.0
  0
SPLINE
  5
1AD
330
1F
100
AcDbEntity
  8
0
  6
Continuous
 62
     7
370
    15
100
AcDbSpline
210
0.0
220
0.0
230
1.0
 70
    24
 71
     3
 72
    12
 73
     8
 74
     0
 42
0.00000001
 43
0.00000001
 12
1.0
 22
0.0
 32
0.0
 13
1.0
 23
0.0
 33
0.0
 40
0.0
 40
0.0
 40
0.0
 40
0.0
 40
0.2499999999999991
 40
0.2499999999999991
 40
0.4999999999999982
 40
0.4999999999999982
 40
1.0
 40
1.0
 40
1.0
 40
1.0
 10
167.7431060577503
 20
441.211149958838
 30
0.0
 10
167.233906102757
 20
441.5051366899247
 30
0.0
 10
166.7224216257811
 20
441.800442390393
 30
0.0
 10
165.7105987885052
 20
442.3846185778664
 30
0.0
 10
165.2080715044067
 20
442.6747528406158
 30
0.0
 10
163.7094149521236
 20
443.5400026044993
 30
0.0
 10
162.7221762555079
 20
444.1099851317448
 30
0.0
 10
161.7431060577507
 20
444.6752515739755
 30
0.0
  0
SPLINE
  5
1AE
330
1F
100
AcDbEntity
  8
0
  6
Continuous
 62
     7
370
    15
100
AcDbSpline
210
0.0
220
0.0
230
1.0
 70
    24
 71
     3
 72
    12
 73
     8
 74
     0
 42
0.00000001
 43
0.00000001
 12
1.0
 22
0.0
 32
0.0
 13
1.0
 23
0.0
 33
0.0
 40
0.0
 40
0.0
 40
0.0
 40
0.0
 40
0.25
 40
0.25
 40
0.5
 40
0.5
 40
1.0
 40
1.0
 40
1.0
 40
1.0
 10
185.7431060577507
 20
451.6034548042533
 30
0.0
 10
185.7431060577507
 20
452.1891788003715
 30
0.0
 10
185.7431060577508
 20
452.7767789445783
 30
0.0
 10
185.7431060577507
 20
453.9556831013903
 30
0.0
 10
185.7431060577508
 20
454.5408243603006
 30
0.0
 10
185.7431060577508
 20
456.2764598276535
 30
0.0
 10
185.7431060577508
 20
457.4114061973562
 30
0.0
 10
185.7431060577508
 20
458.5316580345286
 30
0.0
  0
ARC
  5
1AF
330
1F
100
AcDbEntity
  8
0
  6
Continuous
 62
     7
370
    15
100
AcDbCircle
 10
173.7431060577
 20
451.6034548042
 30
0.0
 40
12.00000000000258
100
AcDbArc
 50
0.0
 51
60.0
  0
SPLINE
  5
1B0
330
1F
100
AcDbEntity
  8
0
  6
Continuous
 62
     7
370
    15
100
AcDbSpline
210
0.0
220
0.0
230
1.0
 70
    24
 71
     3
 72
    12
 73
     8
 74
     0
 42
0.00000001
 43
0.00000001
 12
1.0
 22
0.0
 32
0.0
 13
1.0
 23
0.0
 33
0.0
 40
0.0
 40
0.0
 40
0.0
 40
0.0
 40
0.2500000000000003
 40
0.2500000000000003
 40
0.5000000000000007
 40
0.5000000000000007
 40
1.0
 40
1.0
 40
1.0
 40
1.0
 10
179.7431060577477
 20
461.9957596496606
 30
0.0
 10
180.2523060127411
 20
461.7017729185739
 30
0.0
 10
180.7637904897169
 20
461.4064672181055
 30
0.0
 10
181.7756133269928
 20
460.8222910306321
 30
0.0
 10
182.2781406110913
 20
460.5321567678826
 30
0.0
 10
183.7767971633745
 20
459.6669070039991
 30
0.0
 10
184.7640358599901
 20
459.0969244767537
 30
0.0
 10
185.7431060577474
 20
458.531658034523
 30
0.0
  0
SPLINE
  5
1B1
330
1F
100
AcDbEntity
  8
0
  6
Continuous
 62
     7
370
    15
100
AcDbSpline
210
0.0
220
0.0
230
1.0
 70
    24
 71
     3
 72
    12
 73
     8
 74
     0
 42
0.00000001
 43
0.00000001
 12
1.0
 22
0.0
 32
0.0
 13
1.0
 23
0.0
 33
0.0
 40
0.0
 40
0.0
 40
0.0
 40
0.0
 40
0.2500000000000005
 40
0.2500000000000005
 40
0.500000000000001
 40
0.500000000000001
 40
1.0
 40
1.0
 40
1.0
 40
1.0
 10
182.2283874319873
 20
540.4522569751587
 30
0.0
 10
181.8142180224284
 20
540.8664263847176
 30
0.0
 10
181.3987219758336
 20
541.2819224313124
 30
0.0
 10
180.5651108521828
 20
542.1155335549632
 30
0.0
 10
180.1513535000553
 20
542.5292909070906
 30
0.0
 10
178.9240738914222
 20
543.7565705157238
 30
0.0
 10
178.1215456171223
 20
544.5590987900237
 30
0.0
 10
177.329407946421
 20
545.351236460725
 30
0.0
  0
ARC
  5
1B2
330
1F
100
AcDbEntity
  8
0
  6
Continuous
 62
     7
370
    15
100
AcDbCircle
 10
173.7431060577
 20
531.9669756009
 30
0.0
 40
12.00000000000261
100
AcDbArc
 50
45.0
 51
105.0
  0
SPLINE
  5
1B3
330
1F
100
AcDbEntity
  8
0
  6
Continuous
 62
     7
370
    15
100
AcDbSpline
210
0.0
220
0.0
230
1.0
 70
    24
 71
     3
 72
    12
 73
     8
 74
     0
 42
0.00000001
 43
0.00000001
 12
1.0
 22
0.0
 32
0.0
 13
1.0
 23
0.0
 33
0.0
 40
0.0
 40
0.0
 40
0.0
 40
0.0
 40
0.25
 40
0.25
 40
0.5
 40
0.5
 40
1.0
 40
1.0
 40
1.0
 40
1.0
 10
170.6372775165205
 20
543.5580855163827
 30
0.0
 10
171.2052162688064
 20
543.710264246408
 30
0.0
 10
171.7757030742719
 20
543.8631257252251
 30
0.0
 10
172.9042448074393
 20
544.165517571252
 30
0.0
 10
173.4647411624013
 20
544.3157021169247
 30
0.0
 10
175.1362753486525
 20
544.7635883522516
 30
0.0
 10
176.2373970358523
 20
545.0586330191053
 30
0.0
 10
177.3294079464227
 20
545.3512364607186
 30
0.0
  0
SPLINE
  5
1B4
330
1F
100
AcDbEntity
  8
0
  6
Continuous
 62
     7
370
    15
100
AcDbSpline
210
0.0
220
0.0
230
1.0
 70
    24
 71
     3
 72
    12
 73
     8
 74
     0
 42
0.00000001
 43
0.00000001
 12
1.0
 22
0.0
 32
0.0
 13
1.0
 23
0.0
 33
0.0
 40
0.0
 40
0.0
 40
0.0
 40
0.0
 40
0.2500000000000011
 40
0.2500000000000011
 40
0.5000000000000022
 40
0.5000000000000022
 40
1.0
 40
1.0
 40
1.0
 40
1.0
 10
167.7431060577479
 20
461.995759649664
 30
0.0
 10
168.252306012741
 20
462.2897463807506
 30
0.0
 10
168.7637904897161
 20
462.5850520812184
 30
0.0
 10
169.7756133269916
 20
463.1692282686916
 30
0.0
 10
170.2781406110899
 20
463.4593625314409
 30
0.0
 10
171.7767971633723
 20
464.324612295324
 30
0.0
 10
172.7640358599875
 20
464.8945948225692
 30
0.0
 10
173.7431060577444
 20
465.4598612647996
 30
0.0
  0
ARC
  5
1B5
330
1F
100
AcDbEntity
  8
0
  6
Continuous
 62
     7
370
    15
100
AcDbCircle
 10
173.7431060577
 20
451.6034548042
 30
0.0
 40
12.00000000000258
100
AcDbArc
 50
60.0
 51
120.0
  0
SPLINE
  5
1B6
330
1F
100
AcDbEntity
  8
0
  6
Continuous
 62
     7
370
    15
100
AcDbSpline
210
0.0
220
0.0
230
1.0
 70
    24
 71
     3
 72
    10
 73
     6
 74
     0
 42
0.00000001
 43
0.00000001
 12
1.0
 22
0.0
 32
0.0
 13
1.0
 23
0.0
 33
0.0
 40
0.0
 40
0.0
 40
0.0
 40
0.0
 40
0.5
 40
0.5
 40
1.0
 40
1.0
 40
1.0
 40
1.0
 10
173.7431060577435
 20
465.4598612648008
 30
0.0
 10
174.7246273410788
 20
464.8931796876518
 30
0.0
 10
175.7133180333734
 20
464.3223588503103
 30
0.0
 10
177.711369045478
 20
463.168783560617
 30
0.0
 10
178.7208838729147
 20
462.5859399032456
 30
0.0
 10
179.7431060577477
 20
461.9957596496606
 30
0.0
  0
SPLINE
  5
1B7
330
1F
100
AcDbEntity
  8
0
  6
Continuous
 62
     7
370
    15
100
AcDbSpline
210
0.0
220
0.0
230
1.0
 70
    24
 71
     3
 72
    12
 73
     8
 74
     0
 42
0.00000001
 43
0.00000001
 12
1.0
 22
0.0
 32
0.0
 13
1.0
 23
0.0
 33
0.0
 40
0.0
 40
0.0
 40
0.0
 40
0.0
 40
0.2499999999999997
 40
0.2499999999999997
 40
0.4999999999999993
 40
0.4999999999999993
 40
1.0
 40
1.0
 40
1.0
 40
1.0
 10
162.1519961422797
 20
535.0728041421465
 30
0.0
 10
162.304174872305
 20
535.6407428944322
 30
0.0
 10
162.4570363511219
 20
536.2112296998969
 30
0.0
 10
162.7594281971488
 20
537.3397714330638
 30
0.0
 10
162.9096127428214
 20
537.9002677880254
 30
0.0
 10
163.3574989781482
 20
539.5718019742759
 30
0.0
 10
163.6525436450016
 20
540.6729236614751
 30
0.0
 10
163.9451470866148
 20
541.764934572045
 30
0.0
  0
ARC
  5
1B8
330
1F
100
AcDbEntity
  8
0
  6
Continuous
 62
     7
370
    15
100
AcDbCircle
 10
173.7431060577
 20
531.9669756009
 30
0.0
 40
12.00000000000261
100
AcDbArc
 50
105.0
 51
165.0
  0
SPLINE
  5
1B9
330
1F
100
AcDbEntity
  8
0
  6
Continuous
 62
     7
370
    15
100
AcDbSpline
210
0.0
220
0.0
230
1.0
 70
    24
 71
     3
 72
    10
 73
     6
 74
     0
 42
0.00000001
 43
0.00000001
 12
1.0
 22
0.0
 32
0.0
 13
1.0
 23
0.0
 33
0.0
 40
0.0
 40
0.0
 40
0.0
 40
0.0
 40
0.5
 40
0.5
 40
1.0
 40
1.0
 40
1.0
 40
1.0
 10
163.9451470866134
 20
541.7649345720453
 30
0.0
 10
165.0398918279142
 20
542.058270541395
 30
0.0
 10
166.1426330058585
 20
542.3537491494858
 30
0.0
 10
168.3711693356256
 20
542.9508836593503
 30
0.0
 10
169.4971368183135
 20
543.2525857370401
 30
0.0
 10
170.6372775165205
 20
543.5580855163827
 30
0.0
  0
ARC
  5
1BA
330
1F
100
AcDbEntity
  8
0
  6
Continuous
 62
     7
370
    15
100
AcDbCircle
 10
116.9175155424
 20
588.7925661163
 30
0.0
 40
12.0000000000007
100
AcDbArc
 50
330.0
 51
30.0
  0
SPLINE
  5
1BB
330
1F
100
AcDbEntity
  8
0
  6
Continuous
 62
     7
370
    15
100
AcDbSpline
210
0.0
220
0.0
230
1.0
 70
    24
 71
     3
 72
    12
 73
     8
 74
     0
 42
0.00000001
 43
0.00000001
 12
1.0
 22
0.0
 32
0.0
 13
1.0
 23
0.0
 33
0.0
 40
0.0
 40
0.0
 40
0.0
 40
0.0
 40
0.2500000000000012
 40
0.2500000000000012
 40
0.5000000000000024
 40
0.5000000000000024
 40
1.0
 40
1.0
 40
1.0
 40
1.0
 10
127.3098203878116
 20
594.7925661162677
 30
0.0
 10
127.6038071188984
 20
594.2833661612743
 30
0.0
 10
127.8991128193667
 20
593.7718816842984
 30
0.0
 10
128.4832890068403
 20
592.7600588470223
 30
0.0
 10
128.7734232695898
 20
592.2575315629236
 30
0.0
 10
129.6386730334735
 20
590.7588750106402
 30
0.0
 10
130.208655560719
 20
589.7716363140242
 30
0.0
 10
130.7739220029499
 20
588.7925661162667
 30
0.0
  0
SPLINE
  5
1BC
330
1F
100
AcDbEntity
  8
0
  6
Continuous
 62
     7
370
    15
100
AcDbSpline
210
0.0
220
0.0
230
1.0
 70
    24
 71
     3
 72
    10
 73
     6
 74
     0
 42
0.00000001
 43
0.00000001
 12
1.0
 22
0.0
 32
0.0
 13
1.0
 23
0.0
 33
0.0
 40
0.0
 40
0.0
 40
0.0
 40
0.0
 40
0.5
 40
0.5
 40
1.0
 40
1.0
 40
1.0
 40
1.0
 10
130.7739220029514
 20
588.7925661162681
 30
0.0
 10
130.2072404258028
 20
587.8110448329335
 30
0.0
 10
129.6364195884616
 20
586.8223541406394
 30
0.0
 10
128.482844298769
 20
584.8243031285359
 30
0.0
 10
127.9000006413978
 20
583.8147883010998
 30
0.0
 10
127.3098203878132
 20
582.7925661162674
 30
0.0
  0
SPLINE
  5
1BD
330
1F
100
AcDbEntity
  8
0
  6
Continuous
 62
     7
370
    15
100
AcDbSpline
210
0.0
220
0.0
230
1.0
 70
    24
 71
     3
 72
    10
 73
     6
 74
     0
 42
0.00000001
 43
0.00000001
 12
1.0
 22
0.0
 32
0.0
 13
1.0
 23
0.0
 33
0.0
 40
0.0
 40
0.0
 40
0.0
 40
0.0
 40
0.5
 40
0.5
 40
1.0
 40
1.0
 40
1.0
 40
1.0
 10
123.8457187726774
 20
576.7925661162674
 30
0.0
 10
122.7189026470208
 20
576.7925661162674
 30
0.0
 10
121.5648218812191
 20
576.7925661162674
 30
0.0
 10
119.2514353086862
 20
576.7925661162674
 30
0.0
 10
118.0882679493458
 20
576.7925661162674
 30
0.0
 10
116.9175155424023
 20
576.7925661162674
 30
0.0
  0
ARC
  5
1BE
330
1F
100
AcDbEntity
  8
0
  6
Continuous
 62
     7
370
    15
100
AcDbCircle
 10
116.9175155424
 20
588.7925661163
 30
0.0
 40
12.00000000000091
100
AcDbArc
 50
270.0
 51
330.0
  0
SPLINE
  5
1BF
330
1F
100
AcDbEntity
  8
0
  6
Continuous
 62
     7
370
    15
100
AcDbSpline
210
0.0
220
0.0
230
1.0
 70
    24
 71
     3
 72
    12
 73
     8
 74
     0
 42
0.00000001
 43
0.00000001
 12
1.0
 22
0.0
 32
0.0
 13
1.0
 23
0.0
 33
0.0
 40
0.0
 40
0.0
 40
0.0
 40
0.0
 40
0.2499999999999987
 40
0.2499999999999987
 40
0.4999999999999974
 40
0.4999999999999974
 40
1.0
 40
1.0
 40
1.0
 40
1.0
 10
127.3098203878132
 20
582.7925661162674
 30
0.0
 10
127.0158336567265
 20
582.2833661612741
 30
0.0
 10
126.7205279562582
 20
581.7718816842983
 30
0.0
 10
126.1363517687847
 20
580.7600588470223
 30
0.0
 10
125.8462175060353
 20
580.2575315629238
 30
0.0
 10
124.9809677421519
 20
578.7588750106407
 30
0.0
 10
124.4109852149064
 20
577.771636314025
 30
0.0
 10
123.8457187726757
 20
576.7925661162678
 30
0.0
  0
SPLINE
  5
1C0
330
1F
100
AcDbEntity
  8
0
  6
Continuous
 62
     7
370
    15
100
AcDbSpline
210
0.0
220
0.0
230
1.0
 70
    24
 71
     3
 72
    10
 73
     6
 74
     0
 42
0.00000001
 43
0.00000001
 12
1.0
 22
0.0
 32
0.0
 13
1.0
 23
0.0
 33
0.0
 40
0.0
 40
0.0
 40
0.0
 40
0.0
 40
0.5
 40
0.5
 40
1.0
 40
1.0
 40
1.0
 40
1.0
 10
107.1195565712684
 20
384.979905317768
 30
0.0
 10
106.8262206019189
 20
386.0746500590682
 30
0.0
 10
106.5307419938283
 20
387.1773912370118
 30
0.0
 10
105.9336074839642
 20
389.4059275667777
 30
0.0
 10
105.6319054062744
 20
390.5318950494649
 30
0.0
 10
105.3264056269322
 20
391.6720357476713
 30
0.0
  0
ARC
  5
1C1
330
1F
100
AcDbEntity
  8
0
  6
Continuous
 62
     7
370
    15
100
AcDbCircle
 10
116.9175155424
 20
394.7778642889
 30
0.0
 40
12.00000000000064
100
AcDbArc
 50
195.0
 51
255.0
  0
SPLINE
  5
1C2
330
1F
100
AcDbEntity
  8
0
  6
Continuous
 62
     7
370
    15
100
AcDbSpline
210
0.0
220
0.0
230
1.0
 70
    24
 71
     3
 72
    12
 73
     8
 74
     0
 42
0.00000001
 43
0.00000001
 12
1.0
 22
0.0
 32
0.0
 13
1.0
 23
0.0
 33
0.0
 40
0.0
 40
0.0
 40
0.0
 40
0.0
 40
0.2499999999999992
 40
0.2499999999999992
 40
0.4999999999999984
 40
0.4999999999999984
 40
1.0
 40
1.0
 40
1.0
 40
1.0
 10
113.8116870011721
 20
383.1867543734336
 30
0.0
 10
113.2437482488861
 20
383.338933103459
 30
0.0
 10
112.6732614434205
 20
383.4917945822761
 30
0.0
 10
111.5447197102529
 20
383.7941864283032
 30
0.0
 10
110.9842233552907
 20
383.9443709739759
 30
0.0
 10
109.3126891690392
 20
384.392257209303
 30
0.0
 10
108.2115674818392
 20
384.6873018761567
 30
0.0
 10
107.1195565712686
 20
384.97990531777
 30
0.0
  0
SPLINE
  5
1C3
330
1F
100
AcDbEntity
  8
0
  6
Continuous
 62
     7
370
    15
100
AcDbSpline
210
0.0
220
0.0
230
1.0
 70
    24
 71
     3
 72
    12
 73
     8
 74
     0
 42
0.00000001
 43
0.00000001
 12
1.0
 22
0.0
 32
0.0
 13
1.0
 23
0.0
 33
0.0
 40
0.0
 40
0.0
 40
0.0
 40
0.0
 40
0.25
 40
0.25
 40
0.5
 40
0.5
 40
1.0
 40
1.0
 40
1.0
 40
1.0
 10
161.7431060577503
 20
451.6034548042489
 30
0.0
 10
161.7431060577503
 20
452.1891788003673
 30
0.0
 10
161.7431060577503
 20
452.7767789445742
 30
0.0
 10
161.7431060577503
 20
453.9556831013866
 30
0.0
 10
161.7431060577503
 20
454.540824360298
 30
0.0
 10
161.7431060577503
 20
456.2764598276513
 30
0.0
 10
161.7431060577503
 20
457.4114061973543
 30
0.0
 10
161.7431060577503
 20
458.531658034527
 30
0.0
  0
SPLINE
  5
1C4
330
1F
100
AcDbEntity
  8
0
  6
Continuous
 62
     7
370
    15
100
AcDbSpline
210
0.0
220
0.0
230
1.0
 70
    24
 71
     3
 72
    10
 73
     6
 74
     0
 42
0.00000001
 43
0.00000001
 12
1.0
 22
0.0
 32
0.0
 13
1.0
 23
0.0
 33
0.0
 40
0.0
 40
0.0
 40
0.0
 40
0.0
 40
0.5000000000000003
 40
0.5000000000000003
 40
1.0
 40
1.0
 40
1.0
 40
1.0
 10
161.743106057749
 20
458.5316580345269
 30
0.0
 10
162.7246273410834
 20
459.0983396116753
 30
0.0
 10
163.7133180333771
 20
459.6691604490163
 30
0.0
 10
165.71136904548
 20
460.8227357387085
 30
0.0
 10
166.7208838729159
 20
461.4055793960796
 30
0.0
 10
167.7431060577479
 20
461.995759649664
 30
0.0
  0
ARC
  5
1C5
330
1F
100
AcDbEntity
  8
0
  6
Continuous
 62
     7
370
    15
100
AcDbCircle
 10
173.7431060577
 20
451.6034548042
 30
0.0
 40
12.00000000000091
100
AcDbArc
 50
120.0
 51
180.0
  0
SPLINE
  5
1C6
330
1F
100
AcDbEntity
  8
0
  6
Continuous
 62
     7
370
    15
100
AcDbSpline
210
0.0
220
0.0
230
1.0
 70
    24
 71
     3
 72
    12
 73
     8
 74
     0
 42
0.00000001
 43
0.00000001
 12
1.0
 22
0.0
 32
0.0
 13
1.0
 23
0.0
 33
0.0
 40
0.0
 40
0.0
 40
0.0
 40
0.0
 40
0.2499999999999986
 40
0.2499999999999986
 40
0.4999999999999971
 40
0.4999999999999971
 40
1.0
 40
1.0
 40
1.0
 40
1.0
 10
105.3264056269322
 20
391.6720357476713
 30
0.0
 10
105.1742268969068
 20
392.2399744999572
 30
0.0
 10
105.0213654180897
 20
392.8104613054227
 30
0.0
 10
104.7189735720627
 20
393.9390030385901
 30
0.0
 10
104.5687890263901
 20
394.4994993935521
 30
0.0
 10
104.1209027910631
 20
396.1710335798032
 30
0.0
 10
103.8258581242095
 20
397.2721552670029
 30
0.0
 10
103.5332546825962
 20
398.3641661775733
 30
0.0
  0
SPLINE
  5
1C7
330
1F
100
AcDbEntity
  8
0
  6
Continuous
 62
     7
370
    15
100
AcDbSpline
210
0.0
220
0.0
230
1.0
 70
    24
 71
     3
 72
    10
 73
     6
 74
     0
 42
0.00000001
 43
0.00000001
 12
1.0
 22
0.0
 32
0.0
 13
1.0
 23
0.0
 33
0.0
 40
0.0
 40
0.0
 40
0.0
 40
0.0
 40
0.5
 40
0.5
 40
1.0
 40
1.0
 40
1.0
 40
1.0
 10
103.5332546825947
 20
398.3641661775724
 30
0.0
 10
104.3300340061969
 20
399.1609455011745
 30
0.0
 10
105.1460923417323
 20
399.9770038367099
 30
0.0
 10
106.7819036746761
 20
401.6128151696538
 30
0.0
 10
107.6043872021206
 20
402.4352986970983
 30
0.0
 10
108.4322341681608
 20
403.2631456631385
 30
0.0
  0
ARC
  5
1C8
330
1F
100
AcDbEntity
  8
0
  6
Continuous
 62
     7
370
    15
100
AcDbCircle
 10
116.9175155424
 20
394.7778642889
 30
0.0
 40
12.00000000000093
100
AcDbArc
 50
135.0
 51
195.0
  0
SPLINE
  5
1C9
330
1F
100
AcDbEntity
  8
0
  6
Continuous
 62
     7
370
    15
100
AcDbSpline
210
0.0
220
0.0
230
1.0
 70
    24
 71
     3
 72
    10
 73
     6
 74
     0
 42
0.00000001
 43
0.00000001
 12
1.0
 22
0.0
 32
0.0
 13
1.0
 23
0.0
 33
0.0
 40
0.0
 40
0.0
 40
0.0
 40
0.0
 40
0.5
 40
0.5
 40
1.0
 40
1.0
 40
1.0
 40
1.0
 10
160.3588451979439
 20
528.3806737122453
 30
0.0
 10
160.6521811672934
 20
529.4754184535452
 30
0.0
 10
160.9476597753839
 20
530.5781596314885
 30
0.0
 10
161.5447942852479
 20
532.8066959612536
 30
0.0
 10
161.8464963629376
 20
533.9326634439406
 30
0.0
 10
162.1519961422797
 20
535.0728041421465
 30
0.0
  0
ARC
  5
1CA
330
1F
100
AcDbEntity
  8
0
  6
Continuous
 62
     7
370
    15
100
AcDbCircle
 10
173.7431060577
 20
531.9669756009
 30
0.0
 40
12.00000000000096
100
AcDbArc
 50
165.0
 51
225.0
  0
SPLINE
  5
1CB
330
1F
100
AcDbEntity
  8
0
  6
Continuous
 62
     7
370
    15
100
AcDbSpline
210
0.0
220
0.0
230
1.0
 70
    24
 71
     3
 72
    12
 73
     8
 74
     0
 42
0.00000001
 43
0.00000001
 12
1.0
 22
0.0
 32
0.0
 13
1.0
 23
0.0
 33
0.0
 40
0.0
 40
0.0
 40
0.0
 40
0.0
 40
0.25
 40
0.25
 40
0.5
 40
0.5
 40
1.0
 40
1.0
 40
1.0
 40
1.0
 10
165.2578246835129
 20
523.4816942266781
 30
0.0
 10
164.8436552739539
 20
523.8958636362371
 30
0.0
 10
164.428159227359
 20
524.3113596828321
 30
0.0
 10
163.594548103708
 20
525.1449708064831
 30
0.0
 10
163.1807907515797
 20
525.5587281586114
 30
0.0
 10
161.9535111429463
 20
526.7860077672448
 30
0.0
 10
161.1509828686462
 20
527.5885360415448
 30
0.0
 10
160.3588451979447
 20
528.3806737122463
 30
0.0
  0
SPLINE
  5
1CC
330
1F
100
AcDbEntity
  8
0
  6
Continuous
 62
     7
370
    15
100
AcDbSpline
210
0.0
220
0.0
230
1.0
 70
    24
 71
     3
 72
    12
 73
     8
 74
     0
 42
0.00000001
 43
0.00000001
 12
1.0
 22
0.0
 32
0.0
 13
1.0
 23
0.0
 33
0.0
 40
0.0
 40
0.0
 40
0.0
 40
0.0
 40
0.25
 40
0.25
 40
0.5
 40
0.5
 40
1.0
 40
1.0
 40
1.0
 40
1.0
 10
125.4027969166414
 20
386.2925829146641
 30
0.0
 10
125.8169663262002
 20
386.7067523242229
 30
0.0
 10
126.2324623727951
 20
387.1222483708177
 30
0.0
 10
127.0660734964459
 20
387.9558594944685
 30
0.0
 10
127.4798308485733
 20
388.369616846596
 30
0.0
 10
128.7071104572065
 20
389.5968964552291
 30
0.0
 10
129.5096387315063
 20
390.399424729529
 30
0.0
 10
130.3017764022076
 20
391.1915624002302
 30
0.0
  0
ARC
  5
1CD
330
1F
100
AcDbEntity
  8
0
  6
Continuous
 62
     7
370
    15
100
AcDbCircle
 10
116.9175155424
 20
394.7778642889
 30
0.0
 40
12.00000000000258
100
AcDbArc
 50
315.0
 51
15.0
  0
SPLINE
  5
1CE
330
1F
100
AcDbEntity
  8
0
  6
Continuous
 62
     7
370
    15
100
AcDbSpline
210
0.0
220
0.0
230
1.0
 70
    24
 71
     3
 72
    12
 73
     8
 74
     0
 42
0.00000001
 43
0.00000001
 12
1.0
 22
0.0
 32
0.0
 13
1.0
 23
0.0
 33
0.0
 40
0.0
 40
0.0
 40
0.0
 40
0.0
 40
0.2500000000000002
 40
0.2500000000000002
 40
0.5000000000000003
 40
0.5000000000000003
 40
1.0
 40
1.0
 40
1.0
 40
1.0
 10
128.5086254578653
 20
397.8836928301309
 30
0.0
 10
128.6608041878907
 20
397.3157540778449
 30
0.0
 10
128.8136656667077
 20
396.7452672723795
 30
0.0
 10
129.1160575127348
 20
395.616725539212
 30
0.0
 10
129.2662420584074
 20
395.05622918425
 30
0.0
 10
129.7141282937344
 20
393.3846949979988
 30
0.0
 10
130.009172960588
 20
392.2835733107991
 30
0.0
 10
130.3017764022013
 20
391.1915624002287
 30
0.0
  0
SPLINE
  5
1CF
330
1F
100
AcDbEntity
  8
0
  6
Continuous
 62
     7
370
    15
100
AcDbSpline
210
0.0
220
0.0
230
1.0
 70
    24
 71
     3
 72
    12
 73
     8
 74
     0
 42
0.00000001
 43
0.00000001
 12
1.0
 22
0.0
 32
0.0
 13
1.0
 23
0.0
 33
0.0
 40
0.0
 40
0.0
 40
0.0
 40
0.0
 40
0.25
 40
0.25
 40
0.5
 40
0.5
 40
1.0
 40
1.0
 40
1.0
 40
1.0
 10
120.0233440836292
 20
406.3689742043716
 30
0.0
 10
120.5912828359149
 20
406.2167954743463
 30
0.0
 10
121.1617696413795
 20
406.0639339955294
 30
0.0
 10
122.2903113745464
 20
405.7615421495025
 30
0.0
 10
122.8508077295082
 20
405.61135760383
 30
0.0
 10
124.5223419157586
 20
405.1634713685032
 30
0.0
 10
125.6234636029579
 20
404.8684267016497
 30
0.0
 10
126.7154745135277
 20
404.5758232600365
 30
0.0
  0
ARC
  5
1D0
330
1F
100
AcDbEntity
  8
0
  6
Continuous
 62
     7
370
    15
100
AcDbCircle
 10
116.9175155424
 20
394.7778642889
 30
0.0
 40
12.00000000000258
100
AcDbArc
 50
15.0
 51
75.0
  0
SPLINE
  5
1D1
330
1F
100
AcDbEntity
  8
0
  6
Continuous
 62
     7
370
    15
100
AcDbSpline
210
0.0
220
0.0
230
1.0
 70
    24
 71
     3
 72
    10
 73
     6
 74
     0
 42
0.00000001
 43
0.00000001
 12
1.0
 22
0.0
 32
0.0
 13
1.0
 23
0.0
 33
0.0
 40
0.0
 40
0.0
 40
0.0
 40
0.0
 40
0.5
 40
0.5
 40
1.0
 40
1.0
 40
1.0
 40
1.0
 10
126.715474513528
 20
404.575823260038
 30
0.0
 10
127.0088104828777
 20
403.4810785187371
 30
0.0
 10
127.3042890909684
 20
402.3783373407929
 30
0.0
 10
127.901423600833
 20
400.1498010110257
 30
0.0
 10
128.2031256785229
 20
399.0238335283378
 30
0.0
 10
128.5086254578653
 20
397.8836928301309
 30
0.0
  0
SPLINE
  5
1D2
330
1F
100
AcDbEntity
  8
0
  6
Continuous
 62
     7
370
    15
100
AcDbSpline
210
0.0
220
0.0
230
1.0
 70
    24
 71
     3
 72
    12
 73
     8
 74
     0
 42
0.00000001
 43
0.00000001
 12
1.0
 22
0.0
 32
0.0
 13
1.0
 23
0.0
 33
0.0
 40
0.0
 40
0.0
 40
0.0
 40
0.0
 40
0.2500000000000001
 40
0.2500000000000001
 40
0.5000000000000001
 40
0.5000000000000001
 40
1.0
 40
1.0
 40
1.0
 40
1.0
 10
116.9175155423979
 20
600.7925661162678
 30
0.0
 10
116.3317915462796
 20
600.7925661162678
 30
0.0
 10
115.7441914020728
 20
600.7925661162678
 30
0.0
 10
114.5652872452608
 20
600.7925661162678
 30
0.0
 10
113.9801459863505
 20
600.7925661162678
 30
0.0
 10
112.2445105189977
 20
600.7925661162678
 30
0.0
 10
111.1095641492949
 20
600.7925661162678
 30
0.0
 10
109.9893123121225
 20
600.7925661162678
 30
0.0
  0
ARC
  5
1D3
330
1F
100
AcDbEntity
  8
0
  6
Continuous
 62
     7
370
    15
100
AcDbCircle
 10
116.9175155424
 20
588.7925661163
 30
0.0
 40
12.00000000000257
100
AcDbArc
 50
90.0
 51
150.0
  0
SPLINE
  5
1D4
330
1F
100
AcDbEntity
  8
0
  6
Continuous
 62
     7
370
    15
100
AcDbSpline
210
0.0
220
0.0
230
1.0
 70
    24
 71
     3
 72
    12
 73
     8
 74
     0
 42
0.00000001
 43
0.00000001
 12
1.0
 22
0.0
 32
0.0
 13
1.0
 23
0.0
 33
0.0
 40
0.0
 40
0.0
 40
0.0
 40
0.0
 40
0.2500000000000004
 40
0.2500000000000004
 40
0.5000000000000008
 40
0.5000000000000008
 40
1.0
 40
1.0
 40
1.0
 40
1.0
 10
106.5252106969905
 20
594.7925661162648
 30
0.0
 10
106.8191974280773
 20
595.301766071258
 30
0.0
 10
107.1145031285456
 20
595.813250548234
 30
0.0
 10
107.6986793160191
 20
596.8250733855099
 30
0.0
 10
107.9888135787685
 20
597.3276006696084
 30
0.0
 10
108.854063342652
 20
598.8262572218916
 30
0.0
 10
109.4240458698974
 20
599.8134959185072
 30
0.0
 10
109.9893123121281
 20
600.7925661162645
 30
0.0
  0
ARC
  5
1D5
330
1F
100
AcDbEntity
  8
0
  6
Continuous
 62
     7
370
    15
100
AcDbCircle
 10
173.7431060577
 20
531.9669756009
 30
0.0
 40
12.00000000000118
100
AcDbArc
 50
345.0
 51
45.0
  0
SPLINE
  5
1D6
330
1F
100
AcDbEntity
  8
0
  6
Continuous
 62
     7
370
    15
100
AcDbSpline
210
0.0
220
0.0
230
1.0
 70
    24
 71
     3
 72
    10
 73
     6
 74
     0
 42
0.00000001
 43
0.00000001
 12
1.0
 22
0.0
 32
0.0
 13
1.0
 23
0.0
 33
0.0
 40
0.0
 40
0.0
 40
0.0
 40
0.0
 40
0.5
 40
0.5
 40
1.0
 40
1.0
 40
1.0
 40
1.0
 10
187.1273669175536
 20
535.5532774895923
 30
0.0
 10
186.3305875939513
 20
536.3500568131946
 30
0.0
 10
185.5145292584162
 20
537.1661151487297
 30
0.0
 10
183.8787179254722
 20
538.8019264816738
 30
0.0
 10
183.0562343980276
 20
539.6244100091183
 30
0.0
 10
182.2283874319873
 20
540.4522569751587
 30
0.0
  0
SPLINE
  5
1D7
330
1F
100
AcDbEntity
  8
0
  6
Continuous
 62
     7
370
    15
100
AcDbSpline
210
0.0
220
0.0
230
1.0
 70
    24
 71
     3
 72
    10
 73
     6
 74
     0
 42
0.00000001
 43
0.00000001
 12
1.0
 22
0.0
 32
0.0
 13
1.0
 23
0.0
 33
0.0
 40
0.0
 40
0.0
 40
0.0
 40
0.0
 40
0.5
 40
0.5
 40
1.0
 40
1.0
 40
1.0
 40
1.0
 10
187.1273669175541
 20
535.5532774895929
 30
0.0
 10
186.8340309482045
 20
534.4585327482927
 30
0.0
 10
186.538552340114
 20
533.355791570349
 30
0.0
 10
185.9414178302497
 20
531.1272552405832
 30
0.0
 10
185.63971575256
 20
530.0012877578959
 30
0.0
 10
185.3342159732178
 20
528.8611470596894
 30
0.0
  0
SPLINE
  5
1D8
330
1F
100
AcDbEntity
  8
0
  6
Continuous
 62
     7
370
    15
100
AcDbSpline
210
0.0
220
0.0
230
1.0
 70
    24
 71
     3
 72
    10
 73
     6
 74
     0
 42
0.00000001
 43
0.00000001
 12
1.0
 22
0.0
 32
0.0
 13
1.0
 23
0.0
 33
0.0
 40
0.0
 40
0.0
 40
0.0
 40
0.0
 40
0.5
 40
0.5
 40
1.0
 40
1.0
 40
1.0
 40
1.0
 10
185.7431060577514
 20
444.6752515739777
 30
0.0
 10
184.7615847744167
 20
444.1085699968291
 30
0.0
 10
183.7728940821227
 20
443.5377491594879
 30
0.0
 10
181.7748430700192
 20
442.3841738697953
 30
0.0
 10
180.765328242583
 20
441.8013302124241
 30
0.0
 10
179.7431060577506
 20
441.2111499588396
 30
0.0
  0
ARC
  5
1D9
330
1F
100
AcDbEntity
  8
0
  6
Continuous
 62
     7
370
    15
100
AcDbCircle
 10
173.7431060577
 20
451.6034548042
 30
0.0
 40
12.00000000000122
100
AcDbArc
 50
300.0
 51
0.0
  0
SPLINE
  5
1DA
330
1F
100
AcDbEntity
  8
0
  6
Continuous
 62
     7
370
    15
100
AcDbSpline
210
0.0
220
0.0
230
1.0
 70
    24
 71
     3
 72
    10
 73
     6
 74
     0
 42
0.00000001
 43
0.00000001
 12
1.0
 22
0.0
 32
0.0
 13
1.0
 23
0.0
 33
0.0
 40
0.0
 40
0.0
 40
0.0
 40
0.0
 40
0.5
 40
0.5
 40
1.0
 40
1.0
 40
1.0
 40
1.0
 10
185.7431060577507
 20
444.6752515739778
 30
0.0
 10
185.7431060577507
 20
445.8020676996346
 30
0.0
 10
185.7431060577507
 20
446.9561484654359
 30
0.0
 10
185.7431060577507
 20
449.269535037969
 30
0.0
 10
185.7431060577507
 20
450.4327023973096
 30
0.0
 10
185.7431060577507
 20
451.6034548042533
 30
0.0
  0
SPLINE
  5
1DB
330
1F
100
AcDbEntity
  8
0
  6
Continuous
 62
     7
370
    15
100
AcDbSpline
210
0.0
220
0.0
230
1.0
 70
    24
 71
     3
 72
    12
 73
     8
 74
     0
 42
0.00000001
 43
0.00000001
 12
1.0
 22
0.0
 32
0.0
 13
1.0
 23
0.0
 33
0.0
 40
0.0
 40
0.0
 40
0.0
 40
0.0
 40
0.2499999999999998
 40
0.2499999999999998
 40
0.4999999999999996
 40
0.4999999999999996
 40
1.0
 40
1.0
 40
1.0
 40
1.0
 10
106.5252106969872
 20
582.792566116265
 30
0.0
 10
106.2312239659007
 20
583.301766071258
 30
0.0
 10
105.9359182654328
 20
583.8132505482332
 30
0.0
 10
105.3517420779596
 20
584.8250733855086
 30
0.0
 10
105.0616078152103
 20
585.327600669607
 30
0.0
 10
104.1963580513272
 20
586.8262572218894
 30
0.0
 10
103.626375524082
 20
587.8134959185046
 30
0.0
 10
103.0611090818516
 20
588.7925661162614
 30
0.0
  0
ARC
  5
1DC
330
1F
100
AcDbEntity
  8
0
  6
Continuous
 62
     7
370
    15
100
AcDbCircle
 10
116.9175155424
 20
588.7925661163
 30
0.0
 40
12.00000000000257
100
AcDbArc
 50
150.0
 51
210.0
  0
SPLINE
  5
1DD
330
1F
100
AcDbEntity
  8
0
  6
Continuous
 62
     7
370
    15
100
AcDbSpline
210
0.0
220
0.0
230
1.0
 70
    24
 71
     3
 72
    10
 73
     6
 74
     0
 42
0.00000001
 43
0.00000001
 12
1.0
 22
0.0
 32
0.0
 13
1.0
 23
0.0
 33
0.0
 40
0.0
 40
0.0
 40
0.0
 40
0.0
 40
0.5
 40
0.5
 40
1.0
 40
1.0
 40
1.0
 40
1.0
 10
103.0611090818504
 20
588.7925661162607
 30
0.0
 10
103.6277906589993
 20
589.7740873995958
 30
0.0
 10
104.1986114963409
 20
590.7627780918905
 30
0.0
 10
105.3521867860341
 20
592.7608291039951
 30
0.0
 10
105.9350304434056
 20
593.7703439314319
 30
0.0
 10
106.5252106969905
 20
594.7925661162648
 30
0.0
  0
SPLINE
  5
1DE
330
1F
100
AcDbEntity
  8
0
  6
Continuous
 62
     7
370
    15
100
AcDbSpline
210
0.0
220
0.0
230
1.0
 70
    24
 71
     3
 72
    12
 73
     8
 74
     0
 42
0.00000001
 43
0.00000001
 12
1.0
 22
0.0
 32
0.0
 13
1.0
 23
0.0
 33
0.0
 40
0.0
 40
0.0
 40
0.0
 40
0.0
 40
0.2500000000000001
 40
0.2500000000000001
 40
0.5000000000000001
 40
0.5000000000000001
 40
1.0
 40
1.0
 40
1.0
 40
1.0
 10
108.4322341681608
 20
403.2631456631385
 30
0.0
 10
108.8464035777199
 20
403.6773150726975
 30
0.0
 10
109.2618996243148
 20
404.0928111192924
 30
0.0
 10
110.0955107479658
 20
404.9264222429434
 30
0.0
 10
110.509268100094
 20
405.3401795950716
 30
0.0
 10
111.7365477087275
 20
406.5674592037051
 30
0.0
 10
112.5390759830276
 20
407.3699874780051
 30
0.0
 10
113.331213653729
 20
408.1621251487067
 30
0.0
  0
SPLINE
  5
1DF
330
1F
100
AcDbEntity
  8
0
  6
Continuous
 62
     7
370
    15
100
AcDbSpline
210
0.0
220
0.0
230
1.0
 70
    24
 71
     3
 72
    10
 73
     6
 74
     0
 42
0.00000001
 43
0.00000001
 12
1.0
 22
0.0
 32
0.0
 13
1.0
 23
0.0
 33
0.0
 40
0.0
 40
0.0
 40
0.0
 40
0.0
 40
0.5
 40
0.5
 40
1.0
 40
1.0
 40
1.0
 40
1.0
 10
113.331213653728
 20
408.1621251487074
 30
0.0
 10
114.4259583950278
 20
407.8687891793579
 30
0.0
 10
115.5286995729712
 20
407.5733105712674
 30
0.0
 10
117.7572359027364
 20
406.9761760614035
 30
0.0
 10
118.8832033854233
 20
406.6744739837138
 30
0.0
 10
120.0233440836292
 20
406.3689742043716
 30
0.0
  0
ARC
  5
1E0
330
1F
100
AcDbEntity
  8
0
  6
Continuous
 62
     7
370
    15
100
AcDbCircle
 10
116.9175155424
 20
394.7778642889
 30
0.0
 40
12.00000000000093
100
AcDbArc
 50
75.0
 51
135.0
  0
SPLINE
  5
1E1
330
1F
100
AcDbEntity
  8
0
  6
Continuous
 62
     7
370
    15
100
AcDbSpline
210
0.0
220
0.0
230
1.0
 70
    24
 71
     3
 72
    10
 73
     6
 74
     0
 42
0.00000001
 43
0.00000001
 12
1.0
 22
0.0
 32
0.0
 13
1.0
 23
0.0
 33
0.0
 40
0.0
 40
0.0
 40
0.0
 40
0.0
 40
0.5
 40
0.5
 40
1.0
 40
1.0
 40
1.0
 40
1.0
 10
109.9893123121243
 20
576.792566116266
 30
0.0
 10
109.4226307349759
 20
577.7740873996005
 30
0.0
 10
108.8518098976348
 20
578.7627780918942
 30
0.0
 10
107.6982346079426
 20
580.760829103997
 30
0.0
 10
107.1153909505716
 20
581.770343931433
 30
0.0
 10
106.5252106969872
 20
582.792566116265
 30
0.0
  0
ARC
  5
1E2
330
1F
100
AcDbEntity
  8
0
  6
Continuous
 62
     7
370
    15
100
AcDbCircle
 10
116.9175155424
 20
588.7925661163
 30
0.0
 40
12.00000000000091
100
AcDbArc
 50
210.0
 51
270.0
  0
SPLINE
  5
1E3
330
1F
100
AcDbEntity
  8
0
  6
Continuous
 62
     7
370
    15
100
AcDbSpline
210
0.0
220
0.0
230
1.0
 70
    24
 71
     3
 72
    12
 73
     8
 74
     0
 42
0.00000001
 43
0.00000001
 12
1.0
 22
0.0
 32
0.0
 13
1.0
 23
0.0
 33
0.0
 40
0.0
 40
0.0
 40
0.0
 40
0.0
 40
0.25
 40
0.25
 40
0.5
 40
0.5
 40
1.0
 40
1.0
 40
1.0
 40
1.0
 10
116.9175155424023
 20
576.7925661162674
 30
0.0
 10
116.3317915462839
 20
576.7925661162674
 30
0.0
 10
115.744191402077
 20
576.7925661162674
 30
0.0
 10
114.5652872452646
 20
576.7925661162674
 30
0.0
 10
113.9801459863533
 20
576.7925661162674
 30
0.0
 10
112.2445105189999
 20
576.7925661162674
 30
0.0
 10
111.1095641492969
 20
576.7925661162674
 30
0.0
 10
109.9893123121242
 20
576.7925661162674
 30
0.0
  0
SPLINE
  5
1E4
330
1F
100
AcDbEntity
  8
0
  6
Continuous
 62
     7
370
    15
100
AcDbSpline
210
0.0
220
0.0
230
1.0
 70
    24
 71
     3
 72
    10
 73
     6
 74
     0
 42
0.00000001
 43
0.00000001
 12
1.0
 22
0.0
 32
0.0
 13
1.0
 23
0.0
 33
0.0
 40
0.0
 40
0.0
 40
0.0
 40
0.0
 40
0.5
 40
0.5
 40
1.0
 40
1.0
 40
1.0
 40
1.0
 10
49.93825560554043
 20
585.2062642275963
 30
0.0
 10
49.14147628193826
 20
584.409484903994
 30
0.0
 10
48.32541794640288
 20
583.5934265684587
 30
0.0
 10
46.68960661345903
 20
581.9576152355149
 30
0.0
 10
45.86712308601452
 20
581.1351317080704
 30
0.0
 10
45.03927611997428
 20
580.3072847420302
 30
0.0
  0
ARC
  5
1E5
330
1F
100
AcDbEntity
  8
0
  6
Continuous
 62
     7
370
    15
100
AcDbCircle
 10
36.5539947457
 20
588.7925661163
 30
0.0
 40
12.00000000000089
100
AcDbArc
 50
315.0
 51
15.0
  0
SPLINE
  5
1E6
330
1F
100
AcDbEntity
  8
0
  6
Continuous
 62
     7
370
    15
100
AcDbSpline
210
0.0
220
0.0
230
1.0
 70
    24
 71
     3
 72
    12
 73
     8
 74
     0
 42
0.00000001
 43
0.00000001
 12
1.0
 22
0.0
 32
0.0
 13
1.0
 23
0.0
 33
0.0
 40
0.0
 40
0.0
 40
0.0
 40
0.0
 40
0.25
 40
0.25
 40
0.5
 40
0.5
 40
1.0
 40
1.0
 40
1.0
 40
1.0
 10
48.14510466120303
 20
591.8983946574974
 30
0.0
 10
48.29728339122838
 20
591.3304559052114
 30
0.0
 10
48.45014487004546
 20
590.759969099746
 30
0.0
 10
48.75253671607247
 20
589.6314273665786
 30
0.0
 10
48.90272126174511
 20
589.0709310116166
 30
0.0
 10
49.35060749707209
 20
587.3993968253654
 30
0.0
 10
49.64565216392564
 20
586.2982751381656
 30
0.0
 10
49.93825560553893
 20
585.2062642275954
 30
0.0
  0
ARC
  5
1E7
330
1F
100
AcDbEntity
  8
0
  6
Continuous
 62
     7
370
    15
100
AcDbCircle
 10
36.5539947457
 20
588.7925661163
 30
0.0
 40
12.00000000000082
100
AcDbArc
 50
15.0
 51
75.0
  0
SPLINE
  5
1E8
330
1F
100
AcDbEntity
  8
0
  6
Continuous
 62
     7
370
    15
100
AcDbSpline
210
0.0
220
0.0
230
1.0
 70
    24
 71
     3
 72
    12
 73
     8
 74
     0
 42
0.00000001
 43
0.00000001
 12
1.0
 22
0.0
 32
0.0
 13
1.0
 23
0.0
 33
0.0
 40
0.0
 40
0.0
 40
0.0
 40
0.0
 40
0.2499999999999997
 40
0.2499999999999997
 40
0.4999999999999993
 40
0.4999999999999993
 40
1.0
 40
1.0
 40
1.0
 40
1.0
 10
39.65982328696312
 20
600.383676031735
 30
0.0
 10
40.22776203924919
 20
600.2314973017096
 30
0.0
 10
40.79824884471472
 20
600.0786358228926
 30
0.0
 10
41.92679057788239
 20
599.7762439768654
 30
0.0
 10
42.48728693284452
 20
599.6260594311929
 30
0.0
 10
44.15882111909602
 20
599.1781731958656
 30
0.0
 10
45.25994280629604
 20
598.883128529012
 30
0.0
 10
46.35195371686662
 20
598.5905250873986
 30
0.0
  0
SPLINE
  5
1E9
330
1F
100
AcDbEntity
  8
0
  6
Continuous
 62
     7
370
    15
100
AcDbSpline
210
0.0
220
0.0
230
1.0
 70
    24
 71
     3
 72
    10
 73
     6
 74
     0
 42
0.00000001
 43
0.00000001
 12
1.0
 22
0.0
 32
0.0
 13
1.0
 23
0.0
 33
0.0
 40
0.0
 40
0.0
 40
0.0
 40
0.0
 40
0.5
 40
0.5
 40
1.0
 40
1.0
 40
1.0
 40
1.0
 10
46.35195371686679
 20
598.5905250874006
 30
0.0
 10
46.64528968621637
 20
597.4957803461004
 30
0.0
 10
46.94076829430691
 20
596.3930391681567
 30
0.0
 10
47.53790280417107
 20
594.1645028383908
 30
0.0
 10
47.8396048818608
 20
593.0385353557037
 30
0.0
 10
48.14510466120303
 20
591.8983946574974
 30
0.0
  0
SPLINE
  5
1EA
330
1F
100
AcDbEntity
  8
0
  6
Continuous
 62
     7
370
    15
100
AcDbSpline
210
0.0
220
0.0
230
1.0
 70
    24
 71
     3
 72
    12
 73
     8
 74
     0
 42
0.00000001
 43
0.00000001
 12
1.0
 22
0.0
 32
0.0
 13
1.0
 23
0.0
 33
0.0
 40
0.0
 40
0.0
 40
0.0
 40
0.0
 40
0.2499999999999983
 40
0.2499999999999983
 40
0.4999999999999967
 40
0.4999999999999967
 40
1.0
 40
1.0
 40
1.0
 40
1.0
 10
26.16168990032063
 20
400.7778642889014
 30
0.0
 10
26.45567663140737
 20
401.2870642438947
 30
0.0
 10
26.7509823318757
 20
401.7985487208705
 30
0.0
 10
27.33515851934915
 20
402.8103715581464
 30
0.0
 10
27.62529278209858
 20
403.312898842245
 30
0.0
 10
28.49054254598204
 20
404.8115553945281
 30
0.0
 10
29.06052507322748
 20
405.7987940911437
 30
0.0
 10
29.62579151545819
 20
406.777864288901
 30
0.0
  0
SPLINE
  5
1EB
330
1F
100
AcDbEntity
  8
0
  6
Continuous
 62
     7
370
    15
100
AcDbSpline
210
0.0
220
0.0
230
1.0
 70
    24
 71
     3
 72
    10
 73
     6
 74
     0
 42
0.00000001
 43
0.00000001
 12
1.0
 22
0.0
 32
0.0
 13
1.0
 23
0.0
 33
0.0
 40
0.0
 40
0.0
 40
0.0
 40
0.0
 40
0.5
 40
0.5
 40
1.0
 40
1.0
 40
1.0
 40
1.0
 10
29.62579151545651
 20
406.7778642889014
 30
0.0
 10
30.75260764111314
 20
406.7778642889014
 30
0.0
 10
31.90668840691487
 20
406.7778642889014
 30
0.0
 10
34.22007497944769
 20
406.7778642889014
 30
0.0
 10
35.38324233878811
 20
406.7778642889014
 30
0.0
 10
36.55399474573164
 20
406.7778642889014
 30
0.0
  0
ARC
  5
1EC
330
1F
100
AcDbEntity
  8
0
  6
Continuous
 62
     7
370
    15
100
AcDbCircle
 10
36.5539947457
 20
394.7778642889
 30
0.0
 40
12.00000000000085
100
AcDbArc
 50
90.0
 51
150.0
  0
ARC
  5
1ED
330
1F
100
AcDbEntity
  8
0
  6
Continuous
 62
     7
370
    15
100
AcDbCircle
 10
36.5539947457
 20
394.7778642889
 30
0.0
 40
12.00000000000067
100
AcDbArc
 50
150.0
 51
210.0
  0
SPLINE
  5
1EE
330
1F
100
AcDbEntity
  8
0
  6
Continuous
 62
     7
370
    15
100
AcDbSpline
210
0.0
220
0.0
230
1.0
 70
    24
 71
     3
 72
    12
 73
     8
 74
     0
 42
0.00000001
 43
0.00000001
 12
1.0
 22
0.0
 32
0.0
 13
1.0
 23
0.0
 33
0.0
 40
0.0
 40
0.0
 40
0.0
 40
0.0
 40
0.2500000000000017
 40
0.2500000000000017
 40
0.5000000000000033
 40
0.5000000000000033
 40
1.0
 40
1.0
 40
1.0
 40
1.0
 10
26.16168990032224
 20
388.777864288901
 30
0.0
 10
25.86770316923544
 20
389.2870642438945
 30
0.0
 10
25.57239746876712
 20
389.7985487208704
 30
0.0
 10
24.98822128129352
 20
390.8103715581466
 30
0.0
 10
24.69808701854404
 20
391.3128988422452
 30
0.0
 10
23.83283725466038
 20
392.8115553945287
 30
0.0
 10
23.26285472741481
 20
393.7987940911445
 30
0.0
 10
22.69758828518399
 20
394.777864288902
 30
0.0
  0
SPLINE
  5
1EF
330
1F
100
AcDbEntity
  8
0
  6
Continuous
 62
     7
370
    15
100
AcDbSpline
210
0.0
220
0.0
230
1.0
 70
    24
 71
     3
 72
    10
 73
     6
 74
     0
 42
0.00000001
 43
0.00000001
 12
1.0
 22
0.0
 32
0.0
 13
1.0
 23
0.0
 33
0.0
 40
0.0
 40
0.0
 40
0.0
 40
0.0
 40
0.5
 40
0.5
 40
1.0
 40
1.0
 40
1.0
 40
1.0
 10
22.69758828518244
 20
394.7778642889007
 30
0.0
 10
23.26426986233107
 20
395.7593855722354
 30
0.0
 10
23.8350906996723
 20
396.7480762645294
 30
0.0
 10
24.98866598936485
 20
398.7461272766329
 30
0.0
 10
25.57150964673605
 20
399.755642104069
 30
0.0
 10
26.16168990032063
 20
400.7778642889014
 30
0.0
  0
SPLINE
  5
1F0
330
1F
100
AcDbEntity
  8
0
  6
Continuous
 62
     7
370
    15
100
AcDbSpline
210
0.0
220
0.0
230
1.0
 70
    24
 71
     3
 72
    12
 73
     8
 74
     0
 42
0.00000001
 43
0.00000001
 12
1.0
 22
0.0
 32
0.0
 13
1.0
 23
0.0
 33
0.0
 40
0.0
 40
0.0
 40
0.0
 40
0.0
 40
0.2499999999999986
 40
0.2499999999999986
 40
0.4999999999999971
 40
0.4999999999999971
 40
1.0
 40
1.0
 40
1.0
 40
1.0
 10
46.94629959114663
 20
400.7778642889037
 30
0.0
 10
47.24028632223322
 20
400.2686643339106
 30
0.0
 10
47.5355920227011
 20
399.7571798569355
 30
0.0
 10
48.11976821017429
 20
398.74535701966
 30
0.0
 10
48.40990247292358
 20
398.2428297355617
 30
0.0
 10
49.27515223680666
 20
396.7441731832792
 30
0.0
 10
49.84513476405183
 20
395.756934486664
 30
0.0
 10
50.41040120628228
 20
394.7778642889072
 30
0.0
  0
SPLINE
  5
1F1
330
1F
100
AcDbEntity
  8
0
  6
Continuous
 62
     7
370
    15
100
AcDbSpline
210
0.0
220
0.0
230
1.0
 70
    24
 71
     3
 72
    10
 73
     6
 74
     0
 42
0.00000001
 43
0.00000001
 12
1.0
 22
0.0
 32
0.0
 13
1.0
 23
0.0
 33
0.0
 40
0.0
 40
0.0
 40
0.0
 40
0.0
 40
0.5
 40
0.5
 40
1.0
 40
1.0
 40
1.0
 40
1.0
 10
50.41040120628347
 20
394.7778642889081
 30
0.0
 10
49.84371962913451
 20
393.7963430055728
 30
0.0
 10
49.27289879179295
 20
392.8076523132782
 30
0.0
 10
48.11932350209973
 20
390.8096013011736
 30
0.0
 10
47.5364798447282
 20
389.8000864737368
 30
0.0
 10
46.94629959114328
 20
388.7778642889039
 30
0.0
  0
ARC
  5
1F2
330
1F
100
AcDbEntity
  8
0
  6
Continuous
 62
     7
370
    15
100
AcDbCircle
 10
36.5539947457
 20
394.7778642889
 30
0.0
 40
12.00000000000261
100
AcDbArc
 50
330.0
 51
30.0
  0
ARC
  5
1F3
330
1F
100
AcDbEntity
  8
0
  6
Continuous
 62
     7
370
    15
100
AcDbCircle
 10
116.9175155424
 20
588.7925661163
 30
0.0
 40
12.00000000000114
100
AcDbArc
 50
30.0
 51
90.0
  0
SPLINE
  5
1F4
330
1F
100
AcDbEntity
  8
0
  6
Continuous
 62
     7
370
    15
100
AcDbSpline
210
0.0
220
0.0
230
1.0
 70
    24
 71
     3
 72
    10
 73
     6
 74
     0
 42
0.00000001
 43
0.00000001
 12
1.0
 22
0.0
 32
0.0
 13
1.0
 23
0.0
 33
0.0
 40
0.0
 40
0.0
 40
0.0
 40
0.0
 40
0.5
 40
0.5
 40
1.0
 40
1.0
 40
1.0
 40
1.0
 10
123.8457187726733
 20
600.7925661162678
 30
0.0
 10
122.7189026470165
 20
600.7925661162678
 30
0.0
 10
121.5648218812152
 20
600.7925661162678
 30
0.0
 10
119.2514353086821
 20
600.7925661162678
 30
0.0
 10
118.0882679493415
 20
600.7925661162678
 30
0.0
 10
116.9175155423979
 20
600.7925661162678
 30
0.0
  0
SPLINE
  5
1F5
330
1F
100
AcDbEntity
  8
0
  6
Continuous
 62
     7
370
    15
100
AcDbSpline
210
0.0
220
0.0
230
1.0
 70
    24
 71
     3
 72
    10
 73
     6
 74
     0
 42
0.00000001
 43
0.00000001
 12
1.0
 22
0.0
 32
0.0
 13
1.0
 23
0.0
 33
0.0
 40
0.0
 40
0.0
 40
0.0
 40
0.0
 40
0.5
 40
0.5
 40
1.0
 40
1.0
 40
1.0
 40
1.0
 10
123.8457187726733
 20
600.7925661162686
 30
0.0
 10
124.412400349822
 20
599.8110448329339
 30
0.0
 10
124.9832211871632
 20
598.8223541406398
 30
0.0
 10
126.1367964768558
 20
596.8243031285363
 30
0.0
 10
126.719640134227
 20
595.8147883011002
 30
0.0
 10
127.3098203878116
 20
594.7925661162677
 30
0.0
  0
SPLINE
  5
1F6
330
1F
100
AcDbEntity
  8
0
  6
Continuous
 62
     7
370
    15
100
AcDbSpline
210
0.0
220
0.0
230
1.0
 70
    24
 71
     3
 72
    10
 73
     6
 74
     0
 42
0.00000001
 43
0.00000001
 12
1.0
 22
0.0
 32
0.0
 13
1.0
 23
0.0
 33
0.0
 40
0.0
 40
0.0
 40
0.0
 40
0.0
 40
0.5
 40
0.5
 40
1.0
 40
1.0
 40
1.0
 40
1.0
 10
120.5038174310755
 20
381.3936034290973
 30
0.0
 10
119.4090726897754
 20
381.6869393984468
 30
0.0
 10
118.3063315118316
 20
381.9824180065374
 30
0.0
 10
116.0777951820657
 20
382.5795525164016
 30
0.0
 10
114.9518276993785
 20
382.8812545940914
 30
0.0
 10
113.8116870011721
 20
383.1867543734336
 30
0.0
  0
ARC
  5
1F7
330
1F
100
AcDbEntity
  8
0
  6
Continuous
 62
     7
370
    15
100
AcDbCircle
 10
116.9175155424
 20
394.7778642889
 30
0.0
 40
12.0000000000012
100
AcDbArc
 50
255.0
 51
315.0
  0
SPLINE
  5
1F8
330
1F
100
AcDbEntity
  8
0
  6
Continuous
 62
     7
370
    15
100
AcDbSpline
210
0.0
220
0.0
230
1.0
 70
    24
 71
     3
 72
    10
 73
     6
 74
     0
 42
0.00000001
 43
0.00000001
 12
1.0
 22
0.0
 32
0.0
 13
1.0
 23
0.0
 33
0.0
 40
0.0
 40
0.0
 40
0.0
 40
0.0
 40
0.5
 40
0.5
 40
1.0
 40
1.0
 40
1.0
 40
1.0
 10
120.503817431075
 20
381.3936034290978
 30
0.0
 10
121.3005967546773
 20
382.1903827527
 30
0.0
 10
122.1166550902124
 20
383.0064410882351
 30
0.0
 10
123.7524664231564
 20
384.6422524211791
 30
0.0
 10
124.574949950601
 20
385.4647359486237
 30
0.0
 10
125.4027969166414
 20
386.2925829146641
 30
0.0
  0
SPLINE
  5
1F9
330
1F
100
AcDbEntity
  8
0
  6
Continuous
 62
     7
370
    15
100
AcDbSpline
210
0.0
220
0.0
230
1.0
 70
    24
 71
     3
 72
    12
 73
     8
 74
     0
 42
0.00000001
 43
0.00000001
 12
1.0
 22
0.0
 32
0.0
 13
1.0
 23
0.0
 33
0.0
 40
0.0
 40
0.0
 40
0.0
 40
0.0
 40
0.25
 40
0.25
 40
0.5
 40
0.5
 40
1.0
 40
1.0
 40
1.0
 40
1.0
 10
36.55399474573589
 20
382.7778642889008
 30
0.0
 10
37.13971874185412
 20
382.7778642889008
 30
0.0
 10
37.72731888606094
 20
382.7778642889008
 30
0.0
 10
38.90622304287298
 20
382.7778642889008
 30
0.0
 10
39.49136430178322
 20
382.7778642889008
 30
0.0
 10
41.22699976913609
 20
382.7778642889008
 30
0.0
 10
42.36194613883883
 20
382.7778642889008
 30
0.0
 10
43.48219797601122
 20
382.7778642889008
 30
0.0
  0
ARC
  5
1FA
330
1F
100
AcDbEntity
  8
0
  6
Continuous
 62
     7
370
    15
100
AcDbCircle
 10
36.5539947457
 20
394.7778642889
 30
0.0
 40
12.00000000000261
100
AcDbArc
 50
270.0
 51
330.0
  0
SPLINE
  5
1FB
330
1F
100
AcDbEntity
  8
0
  6
Continuous
 62
     7
370
    15
100
AcDbSpline
210
0.0
220
0.0
230
1.0
 70
    24
 71
     3
 72
    12
 73
     8
 74
     0
 42
0.00000001
 43
0.00000001
 12
1.0
 22
0.0
 32
0.0
 13
1.0
 23
0.0
 33
0.0
 40
0.0
 40
0.0
 40
0.0
 40
0.0
 40
0.2500000000000013
 40
0.2500000000000013
 40
0.5000000000000027
 40
0.5000000000000027
 40
1.0
 40
1.0
 40
1.0
 40
1.0
 10
46.94629959114328
 20
388.7778642889039
 30
0.0
 10
46.65231286005653
 20
388.2686643339106
 30
0.0
 10
46.35700715958821
 20
387.7571798569347
 30
0.0
 10
45.77283097211474
 20
386.7453570196588
 30
0.0
 10
45.48269670936531
 20
386.2428297355602
 30
0.0
 10
44.61744694548182
 20
384.7441731832771
 30
0.0
 10
44.04746441823636
 20
383.7569344866614
 30
0.0
 10
43.48219797600563
 20
382.7778642889041
 30
0.0
  0
SPLINE
  5
1FC
330
1F
100
AcDbEntity
  8
0
  6
Continuous
 62
     7
370
    15
100
AcDbSpline
210
0.0
220
0.0
230
1.0
 70
    24
 71
     3
 72
    12
 73
     8
 74
     0
 42
0.00000001
 43
0.00000001
 12
1.0
 22
0.0
 32
0.0
 13
1.0
 23
0.0
 33
0.0
 40
0.0
 40
0.0
 40
0.0
 40
0.0
 40
0.2499999999999993
 40
0.2499999999999993
 40
0.4999999999999986
 40
0.4999999999999986
 40
1.0
 40
1.0
 40
1.0
 40
1.0
 10
33.44816620450587
 20
577.2014562007971
 30
0.0
 10
32.88022745222018
 20
577.3536349308224
 30
0.0
 10
32.30974064675557
 20
577.5064964096392
 30
0.0
 10
31.18119891358868
 20
577.8088882556663
 30
0.0
 10
30.6207025586269
 20
577.9590728013388
 30
0.0
 10
28.94916837237654
 20
578.4069590366656
 30
0.0
 10
27.84804668517725
 20
578.702003703519
 30
0.0
 10
26.75603577460739
 20
578.9946071451322
 30
0.0
  0
SPLINE
  5
1FD
330
1F
100
AcDbEntity
  8
0
  6
Continuous
 62
     7
370
    15
100
AcDbSpline
210
0.0
220
0.0
230
1.0
 70
    24
 71
     3
 72
    10
 73
     6
 74
     0
 42
0.00000001
 43
0.00000001
 12
1.0
 22
0.0
 32
0.0
 13
1.0
 23
0.0
 33
0.0
 40
0.0
 40
0.0
 40
0.0
 40
0.0
 40
0.5
 40
0.5
 40
1.0
 40
1.0
 40
1.0
 40
1.0
 10
26.75603577460715
 20
578.9946071451309
 30
0.0
 10
26.4626998052574
 20
580.0893518864316
 30
0.0
 10
26.16722119716668
 20
581.192093064376
 30
0.0
 10
25.57008668730217
 20
583.420629394143
 30
0.0
 10
25.26838460961228
 20
584.546596876831
 30
0.0
 10
24.96288483026988
 20
585.686737575038
 30
0.0
  0
ARC
  5
1FE
330
1F
100
AcDbEntity
  8
0
  6
Continuous
 62
     7
370
    15
100
AcDbCircle
 10
36.5539947457
 20
588.7925661163
 30
0.0
 40
12.00000000000257
100
AcDbArc
 50
195.0
 51
255.0
  0
SPLINE
  5
1FF
330
1F
100
AcDbEntity
  8
0
  6
Continuous
 62
     7
370
    15
100
AcDbSpline
210
0.0
220
0.0
230
1.0
 70
    24
 71
     3
 72
    12
 73
     8
 74
     0
 42
0.00000001
 43
0.00000001
 12
1.0
 22
0.0
 32
0.0
 13
1.0
 23
0.0
 33
0.0
 40
0.0
 40
0.0
 40
0.0
 40
0.0
 40
0.2500000000000001
 40
0.2500000000000001
 40
0.5000000000000001
 40
0.5000000000000001
 40
1.0
 40
1.0
 40
1.0
 40
1.0
 10
28.06871337149389
 20
597.2778474905048
 30
0.0
 10
27.654543961935
 20
596.8636780809459
 30
0.0
 10
27.23904791534017
 20
596.448182034351
 30
0.0
 10
26.40543679168934
 20
595.6145709107002
 30
0.0
 10
25.99167943956187
 20
595.2008135585728
 30
0.0
 10
24.76439983092875
 20
593.9735339499397
 30
0.0
 10
23.96187155662887
 20
593.1710056756399
 30
0.0
 10
23.16973388592759
 20
592.3788680049386
 30
0.0
  0
ARC
  5
200
330
1F
100
AcDbEntity
  8
0
  6
Continuous
 62
     7
370
    15
100
AcDbCircle
 10
36.5539947457
 20
588.7925661163
 30
0.0
 40
12.00000000000257
100
AcDbArc
 50
135.0
 51
195.0
  0
SPLINE
  5
201
330
1F
100
AcDbEntity
  8
0
  6
Continuous
 62
     7
370
    15
100
AcDbSpline
210
0.0
220
0.0
230
1.0
 70
    24
 71
     3
 72
    12
 73
     8
 74
     0
 42
0.00000001
 43
0.00000001
 12
1.0
 22
0.0
 32
0.0
 13
1.0
 23
0.0
 33
0.0
 40
0.0
 40
0.0
 40
0.0
 40
0.0
 40
0.2500000000000001
 40
0.2500000000000001
 40
0.5000000000000001
 40
0.5000000000000001
 40
1.0
 40
1.0
 40
1.0
 40
1.0
 10
24.96288483026988
 20
585.686737575038
 30
0.0
 10
24.81070610024451
 20
586.254676327324
 30
0.0
 10
24.65784462142744
 20
586.8251631327894
 30
0.0
 10
24.35545277540043
 20
587.9537048659568
 30
0.0
 10
24.20526822972776
 20
588.5142012209188
 30
0.0
 10
23.75738199440077
 20
590.18573540717
 30
0.0
 10
23.4623373275472
 20
591.2868570943698
 30
0.0
 10
23.16973388593392
 20
592.3788680049402
 30
0.0
  0
SPLINE
  5
202
330
1F
100
AcDbEntity
  8
0
  6
Continuous
 62
     7
370
    15
100
AcDbSpline
210
0.0
220
0.0
230
1.0
 70
    24
 71
     3
 72
    10
 73
     6
 74
     0
 42
0.00000001
 43
0.00000001
 12
1.0
 22
0.0
 32
0.0
 13
1.0
 23
0.0
 33
0.0
 40
0.0
 40
0.0
 40
0.0
 40
0.0
 40
0.5
 40
0.5
 40
1.0
 40
1.0
 40
1.0
 40
1.0
 10
-8.27159576961542
 20
538.8951788311953
 30
0.0
 10
-8.27159576961542
 20
537.7683627055386
 30
0.0
 10
-8.271595769615475
 20
536.6142819397369
 30
0.0
 10
-8.27159576961546
 20
534.3008953672041
 30
0.0
 10
-8.271595769615475
 20
533.1377280078636
 30
0.0
 10
-8.27159576961549
 20
531.9669756009201
 30
0.0
  0
ARC
  5
203
330
1F
100
AcDbEntity
  8
0
  6
Continuous
 62
     7
370
    15
100
AcDbCircle
 10
-20.2715957696
 20
531.9669756009
 30
0.0
 40
12.00000000000091
100
AcDbArc
 50
0.0
 51
60.0
  0
SPLINE
  5
204
330
1F
100
AcDbEntity
  8
0
  6
Continuous
 62
     7
370
    15
100
AcDbSpline
210
0.0
220
0.0
230
1.0
 70
    24
 71
     3
 72
    12
 73
     8
 74
     0
 42
0.00000001
 43
0.00000001
 12
1.0
 22
0.0
 32
0.0
 13
1.0
 23
0.0
 33
0.0
 40
0.0
 40
0.0
 40
0.0
 40
0.0
 40
0.2499999999999988
 40
0.2499999999999988
 40
0.4999999999999976
 40
0.4999999999999976
 40
1.0
 40
1.0
 40
1.0
 40
1.0
 10
-14.2715957696154
 20
542.3592804463312
 30
0.0
 10
-13.7623958146221
 20
542.0652937152445
 30
0.0
 10
-13.25091133764626
 20
541.769988014776
 30
0.0
 10
-12.23908850037036
 20
541.1858118273026
 30
0.0
 10
-11.73656121627183
 20
540.8956775645532
 30
0.0
 10
-10.23790466398875
 20
540.0304278006698
 30
0.0
 10
-9.25066596737309
 20
539.4604452734243
 30
0.0
 10
-8.27159576961585
 20
538.8951788311936
 30
0.0
  0
SPLINE
  5
205
330
1F
100
AcDbEntity
  8
0
  6
Continuous
 62
     7
370
    15
100
AcDbSpline
210
0.0
220
0.0
230
1.0
 70
    24
 71
     3
 72
    12
 73
     8
 74
     0
 42
0.00000001
 43
0.00000001
 12
1.0
 22
0.0
 32
0.0
 13
1.0
 23
0.0
 33
0.0
 40
0.0
 40
0.0
 40
0.0
 40
0.0
 40
0.2500000000000001
 40
0.2500000000000001
 40
0.5000000000000002
 40
0.5000000000000002
 40
1.0
 40
1.0
 40
1.0
 40
1.0
 10
-23.37742431084578
 20
463.1945647197197
 30
0.0
 10
-22.80948555855981
 20
463.346743449745
 30
0.0
 10
-22.23899875309436
 20
463.4996049285621
 30
0.0
 10
-21.11045701992699
 20
463.8019967745891
 30
0.0
 10
-20.54996066496498
 20
463.9521813202617
 30
0.0
 10
-18.87842647871384
 20
464.4000675555887
 30
0.0
 10
-17.77730479151407
 20
464.6951122224423
 30
0.0
 10
-16.68529388094375
 20
464.9877156640555
 30
0.0
  0
SPLINE
  5
206
330
1F
100
AcDbEntity
  8
0
  6
Continuous
 62
     7
370
    15
100
AcDbSpline
210
0.0
220
0.0
230
1.0
 70
    24
 71
     3
 72
    10
 73
     6
 74
     0
 42
0.00000001
 43
0.00000001
 12
1.0
 22
0.0
 32
0.0
 13
1.0
 23
0.0
 33
0.0
 40
0.0
 40
0.0
 40
0.0
 40
0.0
 40
0.5
 40
0.5
 40
1.0
 40
1.0
 40
1.0
 40
1.0
 10
-16.68529388094464
 20
464.9877156640571
 30
0.0
 10
-15.8885145573425
 20
464.1909363404549
 30
0.0
 10
-15.07245622180715
 20
463.3748780049195
 30
0.0
 10
-13.43664488886329
 20
461.7390666719756
 30
0.0
 10
-12.61416136141882
 20
460.9165831445312
 30
0.0
 10
-11.78631439537858
 20
460.0887361784909
 30
0.0
  0
ARC
  5
207
330
1F
100
AcDbEntity
  8
0
  6
Continuous
 62
     7
370
    15
100
AcDbCircle
 10
-20.2715957696
 20
451.6034548043
 30
0.0
 40
12.00000000000087
100
AcDbArc
 50
45.0
 51
105.0
  0
SPLINE
  5
208
330
1F
100
AcDbEntity
  8
0
  6
Continuous
 62
     7
370
    15
100
AcDbSpline
210
0.0
220
0.0
230
1.0
 70
    24
 71
     3
 72
    10
 73
     6
 74
     0
 42
0.00000001
 43
0.00000001
 12
1.0
 22
0.0
 32
0.0
 13
1.0
 23
0.0
 33
0.0
 40
0.0
 40
0.0
 40
0.0
 40
0.0
 40
0.5
 40
0.5
 40
1.0
 40
1.0
 40
1.0
 40
1.0
 10
40.14029663440705
 20
575.4083052564613
 30
0.0
 10
39.04555189310724
 20
575.7016412258108
 30
0.0
 10
37.94281071516388
 20
575.9971198339013
 30
0.0
 10
35.71427438539872
 20
576.5942543437653
 30
0.0
 10
34.58830690271184
 20
576.895956421455
 30
0.0
 10
33.44816620450587
 20
577.2014562007971
 30
0.0
  0
ARC
  5
209
330
1F
100
AcDbEntity
  8
0
  6
Continuous
 62
     7
370
    15
100
AcDbCircle
 10
36.5539947457
 20
588.7925661163
 30
0.0
 40
12.00000000000089
100
AcDbArc
 50
255.0
 51
315.0
  0
SPLINE
  5
20A
330
1F
100
AcDbEntity
  8
0
  6
Continuous
 62
     7
370
    15
100
AcDbSpline
210
0.0
220
0.0
230
1.0
 70
    24
 71
     3
 72
    12
 73
     8
 74
     0
 42
0.00000001
 43
0.00000001
 12
1.0
 22
0.0
 32
0.0
 13
1.0
 23
0.0
 33
0.0
 40
0.0
 40
0.0
 40
0.0
 40
0.0
 40
0.2499999999999984
 40
0.2499999999999984
 40
0.4999999999999969
 40
0.4999999999999969
 40
1.0
 40
1.0
 40
1.0
 40
1.0
 10
45.03927611997428
 20
580.3072847420302
 30
0.0
 10
44.62510671041527
 20
579.8931153324712
 30
0.0
 10
44.20961066382034
 20
579.4776192858762
 30
0.0
 10
43.3759995401693
 20
578.6440081622253
 30
0.0
 10
42.96224218804107
 20
578.230250810097
 30
0.0
 10
41.73496257940763
 20
577.0029712014637
 30
0.0
 10
40.93243430510755
 20
576.2004429271635
 30
0.0
 10
40.14029663440606
 20
575.408305256462
 30
0.0
  0
SPLINE
  5
20B
330
1F
100
AcDbEntity
  8
0
  6
Continuous
 62
     7
370
    15
100
AcDbSpline
210
0.0
220
0.0
230
1.0
 70
    24
 71
     3
 72
    12
 73
     8
 74
     0
 42
0.00000001
 43
0.00000001
 12
1.0
 22
0.0
 32
0.0
 13
1.0
 23
0.0
 33
0.0
 40
0.0
 40
0.0
 40
0.0
 40
0.0
 40
0.25
 40
0.25
 40
0.5
 40
0.5
 40
1.0
 40
1.0
 40
1.0
 40
1.0
 10
36.55399474573164
 20
406.7778642889014
 30
0.0
 10
37.13971874185001
 20
406.7778642889014
 30
0.0
 10
37.72731888605697
 20
406.7778642889014
 30
0.0
 10
38.90622304286936
 20
406.7778642889014
 30
0.0
 10
39.49136430178068
 20
406.7778642889014
 30
0.0
 10
41.22699976913401
 20
406.7778642889014
 30
0.0
 10
42.36194613883703
 20
406.7778642889013
 30
0.0
 10
43.4821979760097
 20
406.7778642889013
 30
0.0
  0
SPLINE
  5
20C
330
1F
100
AcDbEntity
  8
0
  6
Continuous
 62
     7
370
    15
100
AcDbSpline
210
0.0
220
0.0
230
1.0
 70
    24
 71
     3
 72
    10
 73
     6
 74
     0
 42
0.00000001
 43
0.00000001
 12
1.0
 22
0.0
 32
0.0
 13
1.0
 23
0.0
 33
0.0
 40
0.0
 40
0.0
 40
0.0
 40
0.0
 40
0.5
 40
0.5
 40
1.0
 40
1.0
 40
1.0
 40
1.0
 10
43.48219797600959
 20
406.7778642889025
 30
0.0
 10
44.04887955315802
 20
405.7963430055682
 30
0.0
 10
44.61970039049907
 20
404.8076523132744
 30
0.0
 10
45.77327568019125
 20
402.8096013011716
 30
0.0
 10
46.35611933756226
 20
401.8000864737357
 30
0.0
 10
46.94629959114663
 20
400.7778642889037
 30
0.0
  0
ARC
  5
20D
330
1F
100
AcDbEntity
  8
0
  6
Continuous
 62
     7
370
    15
100
AcDbCircle
 10
36.5539947457
 20
394.7778642889
 30
0.0
 40
12.00000000000085
100
AcDbArc
 50
30.0
 51
90.0
  0
ARC
  5
20E
330
1F
100
AcDbEntity
  8
0
  6
Continuous
 62
     7
370
    15
100
AcDbCircle
 10
-20.2715957696
 20
531.9669756009
 30
0.0
 40
12.00000000000065
100
AcDbArc
 50
60.0
 51
120.0
  0
SPLINE
  5
20F
330
1F
100
AcDbEntity
  8
0
  6
Continuous
 62
     7
370
    15
100
AcDbSpline
210
0.0
220
0.0
230
1.0
 70
    24
 71
     3
 72
    12
 73
     8
 74
     0
 42
0.00000001
 43
0.00000001
 12
1.0
 22
0.0
 32
0.0
 13
1.0
 23
0.0
 33
0.0
 40
0.0
 40
0.0
 40
0.0
 40
0.0
 40
0.2499999999999991
 40
0.2499999999999991
 40
0.4999999999999982
 40
0.4999999999999982
 40
1.0
 40
1.0
 40
1.0
 40
1.0
 10
-26.27159576961574
 20
542.3592804463296
 30
0.0
 10
-25.76239581462233
 20
542.6532671774164
 30
0.0
 10
-25.25091133764641
 20
542.9485728778848
 30
0.0
 10
-24.23908850037025
 20
543.5327490653583
 30
0.0
 10
-23.7365612162716
 20
543.8228833281078
 30
0.0
 10
-22.23790466398815
 20
544.6881330919915
 30
0.0
 10
-21.25066596737222
 20
545.258115619237
 30
0.0
 10
-20.27159576961475
 20
545.8233820614679
 30
0.0
  0
SPLINE
  5
210
330
1F
100
AcDbEntity
  8
0
  6
Continuous
 62
     7
370
    15
100
AcDbSpline
210
0.0
220
0.0
230
1.0
 70
    24
 71
     3
 72
    10
 73
     6
 74
     0
 42
0.00000001
 43
0.00000001
 12
1.0
 22
0.0
 32
0.0
 13
1.0
 23
0.0
 33
0.0
 40
0.0
 40
0.0
 40
0.0
 40
0.0
 40
0.5
 40
0.5
 40
1.0
 40
1.0
 40
1.0
 40
1.0
 10
-20.27159576961607
 20
545.8233820614694
 30
0.0
 10
-19.29007448628139
 20
545.2567004843207
 30
0.0
 10
-18.30138379398739
 20
544.6858796469795
 30
0.0
 10
-16.30333278188391
 20
543.532304357287
 30
0.0
 10
-15.29381795444774
 20
542.9494606999158
 30
0.0
 10
-14.2715957696154
 20
542.3592804463312
 30
0.0
  0
ARC
  5
211
330
1F
100
AcDbEntity
  8
0
  6
Continuous
 62
     7
370
    15
100
AcDbCircle
 10
-20.2715957696
 20
451.6034548043
 30
0.0
 40
12.00000000000068
100
AcDbArc
 50
105.0
 51
165.0
  0
SPLINE
  5
212
330
1F
100
AcDbEntity
  8
0
  6
Continuous
 62
     7
370
    15
100
AcDbSpline
210
0.0
220
0.0
230
1.0
 70
    24
 71
     3
 72
    12
 73
     8
 74
     0
 42
0.00000001
 43
0.00000001
 12
1.0
 22
0.0
 32
0.0
 13
1.0
 23
0.0
 33
0.0
 40
0.0
 40
0.0
 40
0.0
 40
0.0
 40
0.2499999999999993
 40
0.2499999999999993
 40
0.4999999999999987
 40
0.4999999999999987
 40
1.0
 40
1.0
 40
1.0
 40
1.0
 10
-31.86270568508345
 20
454.7092833454797
 30
0.0
 10
-31.71052695505805
 20
455.2772220977658
 30
0.0
 10
-31.55766547624098
 20
455.8477089032314
 30
0.0
 10
-31.25527363021385
 20
456.976250636399
 30
0.0
 10
-31.10508908454116
 20
457.5367469913611
 30
0.0
 10
-30.65720284921406
 20
459.2082811776127
 30
0.0
 10
-30.36215818236039
 20
460.3094028648126
 30
0.0
 10
-30.06955474074701
 20
461.4014137753832
 30
0.0
  0
SPLINE
  5
213
330
1F
100
AcDbEntity
  8
0
  6
Continuous
 62
     7
370
    15
100
AcDbSpline
210
0.0
220
0.0
230
1.0
 70
    24
 71
     3
 72
    10
 73
     6
 74
     0
 42
0.00000001
 43
0.00000001
 12
1.0
 22
0.0
 32
0.0
 13
1.0
 23
0.0
 33
0.0
 40
0.0
 40
0.0
 40
0.0
 40
0.0
 40
0.5
 40
0.5
 40
1.0
 40
1.0
 40
1.0
 40
1.0
 10
-30.06955474074902
 20
461.4014137753834
 30
0.0
 10
-28.97480999944885
 20
461.694749744733
 30
0.0
 10
-27.87206882150518
 20
461.9902283528236
 30
0.0
 10
-25.64353249173931
 20
462.5873628626877
 30
0.0
 10
-24.51756500905211
 20
462.8890649403774
 30
0.0
 10
-23.37742431084578
 20
463.1945647197197
 30
0.0
  0
SPLINE
  5
214
330
1F
100
AcDbEntity
  8
0
  6
Continuous
 62
     7
370
    15
100
AcDbSpline
210
0.0
220
0.0
230
1.0
 70
    24
 71
     3
 72
    12
 73
     8
 74
     0
 42
0.00000001
 43
0.00000001
 12
1.0
 22
0.0
 32
0.0
 13
1.0
 23
0.0
 33
0.0
 40
0.0
 40
0.0
 40
0.0
 40
0.0
 40
0.2500000000000007
 40
0.2500000000000007
 40
0.5000000000000014
 40
0.5000000000000014
 40
1.0
 40
1.0
 40
1.0
 40
1.0
 10
-8.680485854145491
 20
448.4976262630225
 30
0.0
 10
-8.832664584170827
 20
447.9296875107368
 30
0.0
 10
-8.985526062987665
 20
447.3592007052723
 30
0.0
 10
-9.287917909014551
 20
446.2306589721053
 30
0.0
 10
-9.438102454687138
 20
445.6701626171436
 30
0.0
 10
-9.885988690014017
 20
443.9986284308932
 30
0.0
 10
-10.1810333568674
 20
442.897506743694
 30
0.0
 10
-10.4736367984806
 20
441.805495833124
 30
0.0
  0
SPLINE
  5
215
330
1F
100
AcDbEntity
  8
0
  6
Continuous
 62
     7
370
    15
100
AcDbSpline
210
0.0
220
0.0
230
1.0
 70
    24
 71
     3
 72
    10
 73
     6
 74
     0
 42
0.00000001
 43
0.00000001
 12
1.0
 22
0.0
 32
0.0
 13
1.0
 23
0.0
 33
0.0
 40
0.0
 40
0.0
 40
0.0
 40
0.0
 40
0.5
 40
0.5
 40
1.0
 40
1.0
 40
1.0
 40
1.0
 10
-10.47363679847919
 20
441.8054958331238
 30
0.0
 10
-11.56838153977999
 20
441.5121598637741
 30
0.0
 10
-12.67112271772428
 20
441.2166812556833
 30
0.0
 10
-14.89965904749141
 20
440.6195467458188
 30
0.0
 10
-16.02562653017929
 20
440.3178446681289
 30
0.0
 10
-17.16576722838627
 20
440.0123448887866
 30
0.0
  0
ARC
  5
216
330
1F
100
AcDbEntity
  8
0
  6
Continuous
 62
     7
370
    15
100
AcDbCircle
 10
-20.2715957696
 20
451.6034548043
 30
0.0
 40
12.00000000000259
100
AcDbArc
 50
285.0
 51
345.0
  0
SPLINE
  5
217
330
1F
100
AcDbEntity
  8
0
  6
Continuous
 62
     7
370
    15
100
AcDbSpline
210
0.0
220
0.0
230
1.0
 70
    24
 71
     3
 72
    12
 73
     8
 74
     0
 42
0.00000001
 43
0.00000001
 12
1.0
 22
0.0
 32
0.0
 13
1.0
 23
0.0
 33
0.0
 40
0.0
 40
0.0
 40
0.0
 40
0.0
 40
0.2500000000000015
 40
0.2500000000000015
 40
0.500000000000003
 40
0.500000000000003
 40
1.0
 40
1.0
 40
1.0
 40
1.0
 10
-14.27159576961319
 20
521.5746707555052
 30
0.0
 10
-14.78079572460626
 20
521.2806840244185
 30
0.0
 10
-15.29228020158137
 20
520.9853783239506
 30
0.0
 10
-16.30410303885683
 20
520.4012021364774
 30
0.0
 10
-16.80663032295514
 20
520.1110678737282
 30
0.0
 10
-18.30528687523766
 20
519.2458181098451
 30
0.0
 10
-19.29252557185282
 20
518.6758355826
 30
0.0
 10
-20.27159576960967
 20
518.1105691403695
 30
0.0
  0
SPLINE
  5
218
330
1F
100
AcDbEntity
  8
0
  6
Continuous
 62
     7
370
    15
100
AcDbSpline
210
0.0
220
0.0
230
1.0
 70
    24
 71
     3
 72
    10
 73
     6
 74
     0
 42
0.00000001
 43
0.00000001
 12
1.0
 22
0.0
 32
0.0
 13
1.0
 23
0.0
 33
0.0
 40
0.0
 40
0.0
 40
0.0
 40
0.0
 40
0.5
 40
0.5
 40
1.0
 40
1.0
 40
1.0
 40
1.0
 10
-20.27159576960884
 20
518.1105691403684
 30
0.0
 10
-21.25311705294407
 20
518.6772507175174
 30
0.0
 10
-22.24180774523868
 20
519.2480715548588
 30
0.0
 10
-24.23985875734322
 20
520.4016468445521
 30
0.0
 10
-25.24937358478005
 20
520.9844905019237
 30
0.0
 10
-26.27159576961296
 20
521.5746707555086
 30
0.0
  0
ARC
  5
219
330
1F
100
AcDbEntity
  8
0
  6
Continuous
 62
     7
370
    15
100
AcDbCircle
 10
-20.2715957696
 20
531.9669756009
 30
0.0
 40
12.00000000000257
100
AcDbArc
 50
240.0
 51
300.0
  0
SPLINE
  5
21A
330
1F
100
AcDbEntity
  8
0
  6
Continuous
 62
     7
370
    15
100
AcDbSpline
210
0.0
220
0.0
230
1.0
 70
    24
 71
     3
 72
    12
 73
     8
 74
     0
 42
0.00000001
 43
0.00000001
 12
1.0
 22
0.0
 32
0.0
 13
1.0
 23
0.0
 33
0.0
 40
0.0
 40
0.0
 40
0.0
 40
0.0
 40
0.2500000000000001
 40
0.2500000000000001
 40
0.5000000000000001
 40
0.5000000000000001
 40
1.0
 40
1.0
 40
1.0
 40
1.0
 10
-28.7568771438531
 20
443.1181734300105
 30
0.0
 10
-28.34270773429422
 20
442.7040040204516
 30
0.0
 10
-27.92721168769939
 20
442.2885079738568
 30
0.0
 10
-27.09360056404858
 20
441.454896850206
 30
0.0
 10
-26.67984321192116
 20
441.0411394980785
 30
0.0
 10
-25.45256360328803
 20
439.8138598894454
 30
0.0
 10
-24.65003532898821
 20
439.0113316151455
 30
0.0
 10
-23.8578976582869
 20
438.2191939444442
 30
0.0
  0
ARC
  5
21B
330
1F
100
AcDbEntity
  8
0
  6
Continuous
 62
     7
370
    15
100
AcDbCircle
 10
-20.2715957696
 20
451.6034548043
 30
0.0
 40
12.00000000000259
100
AcDbArc
 50
225.0
 51
285.0
  0
SPLINE
  5
21C
330
1F
100
AcDbEntity
  8
0
  6
Continuous
 62
     7
370
    15
100
AcDbSpline
210
0.0
220
0.0
230
1.0
 70
    24
 71
     3
 72
    12
 73
     8
 74
     0
 42
0.00000001
 43
0.00000001
 12
1.0
 22
0.0
 32
0.0
 13
1.0
 23
0.0
 33
0.0
 40
0.0
 40
0.0
 40
0.0
 40
0.0
 40
0.2500000000000002
 40
0.2500000000000002
 40
0.5000000000000004
 40
0.5000000000000004
 40
1.0
 40
1.0
 40
1.0
 40
1.0
 10
-17.16576722838627
 20
440.0123448887866
 30
0.0
 10
-17.73370598067227
 20
439.8601661587612
 30
0.0
 10
-18.30419278613771
 20
439.7073046799441
 30
0.0
 10
-19.43273451930511
 20
439.4049128339171
 30
0.0
 10
-19.99323087426714
 20
439.2547282882444
 30
0.0
 10
-21.66476506051833
 20
438.8068420529174
 30
0.0
 10
-22.76588674771811
 20
438.5117973860638
 30
0.0
 10
-23.85789765828848
 20
438.2191939444505
 30
0.0
  0
SPLINE
  5
21D
330
1F
100
AcDbEntity
  8
0
  6
Continuous
 62
     7
370
    15
100
AcDbSpline
210
0.0
220
0.0
230
1.0
 70
    24
 71
     3
 72
    12
 73
     8
 74
     0
 42
0.00000001
 43
0.00000001
 12
1.0
 22
0.0
 32
0.0
 13
1.0
 23
0.0
 33
0.0
 40
0.0
 40
0.0
 40
0.0
 40
0.0
 40
0.25
 40
0.25
 40
0.5
 40
0.5
 40
1.0
 40
1.0
 40
1.0
 40
1.0
 10
-32.27159576961596
 20
531.966975600916
 30
0.0
 10
-32.27159576961598
 20
531.3812516047977
 30
0.0
 10
-32.27159576961596
 20
530.7936514605909
 30
0.0
 10
-32.27159576961597
 20
529.6147473037789
 30
0.0
 10
-32.27159576961597
 20
529.0296060448686
 30
0.0
 10
-32.271595769616
 20
527.2939705775158
 30
0.0
 10
-32.27159576961601
 20
526.159024207813
 30
0.0
 10
-32.27159576961603
 20
525.0387723706407
 30
0.0
  0
ARC
  5
21E
330
1F
100
AcDbEntity
  8
0
  6
Continuous
 62
     7
370
    15
100
AcDbCircle
 10
-20.2715957696
 20
531.9669756009
 30
0.0
 40
12.00000000000257
100
AcDbArc
 50
180.0
 51
240.0
  0
SPLINE
  5
21F
330
1F
100
AcDbEntity
  8
0
  6
Continuous
 62
     7
370
    15
100
AcDbSpline
210
0.0
220
0.0
230
1.0
 70
    24
 71
     3
 72
    12
 73
     8
 74
     0
 42
0.00000001
 43
0.00000001
 12
1.0
 22
0.0
 32
0.0
 13
1.0
 23
0.0
 33
0.0
 40
0.0
 40
0.0
 40
0.0
 40
0.0
 40
0.2499999999999988
 40
0.2499999999999988
 40
0.4999999999999976
 40
0.4999999999999976
 40
1.0
 40
1.0
 40
1.0
 40
1.0
 10
-26.27159576961296
 20
521.5746707555086
 30
0.0
 10
-26.78079572460629
 20
521.8686574865952
 30
0.0
 10
-27.29228020158211
 20
522.1639631870636
 30
0.0
 10
-28.30410303885807
 20
522.7481393745371
 30
0.0
 10
-28.80663032295661
 20
523.0382736372865
 30
0.0
 10
-30.30528687523974
 20
523.9035234011701
 30
0.0
 10
-31.29252557185539
 20
524.4735059284154
 30
0.0
 10
-32.27159576961268
 20
525.0387723706463
 30
0.0
  0
SPLINE
  5
220
330
1F
100
AcDbEntity
  8
0
  6
Continuous
 62
     7
370
    15
100
AcDbSpline
210
0.0
220
0.0
230
1.0
 70
    24
 71
     3
 72
    12
 73
     8
 74
     0
 42
0.00000001
 43
0.00000001
 12
1.0
 22
0.0
 32
0.0
 13
1.0
 23
0.0
 33
0.0
 40
0.0
 40
0.0
 40
0.0
 40
0.0
 40
0.2500000000000006
 40
0.2500000000000006
 40
0.5000000000000011
 40
0.5000000000000011
 40
1.0
 40
1.0
 40
1.0
 40
1.0
 10
-11.78631439537858
 20
460.0887361784909
 30
0.0
 10
-11.37214498581961
 20
459.6745667689319
 30
0.0
 10
-10.95664893922466
 20
459.259070722337
 30
0.0
 10
-10.12303781557365
 20
458.425459598686
 30
0.0
 10
-9.709280463445422
 20
458.0117022465577
 30
0.0
 10
-8.482000854812002
 20
456.7844226379243
 30
0.0
 10
-7.679472580511937
 20
455.9818943636242
 30
0.0
 10
-6.887334909810458
 20
455.1897566929227
 30
0.0
  0
SPLINE
  5
221
330
1F
100
AcDbEntity
  8
0
  6
Continuous
 62
     7
370
    15
100
AcDbSpline
210
0.0
220
0.0
230
1.0
 70
    24
 71
     3
 72
    10
 73
     6
 74
     0
 42
0.00000001
 43
0.00000001
 12
1.0
 22
0.0
 32
0.0
 13
1.0
 23
0.0
 33
0.0
 40
0.0
 40
0.0
 40
0.0
 40
0.0
 40
0.5
 40
0.5
 40
1.0
 40
1.0
 40
1.0
 40
1.0
 10
-6.887334909809653
 20
455.1897566929237
 30
0.0
 10
-7.180670879159176
 20
454.0950119516239
 30
0.0
 10
-7.476149487249659
 20
452.9922707736806
 30
0.0
 10
-8.073283997113656
 20
450.7637344439154
 30
0.0
 10
-8.374986074803331
 20
449.6377669612285
 30
0.0
 10
-8.680485854145491
 20
448.4976262630225
 30
0.0
  0
ARC
  5
222
330
1F
100
AcDbEntity
  8
0
  6
Continuous
 62
     7
370
    15
100
AcDbCircle
 10
-20.2715957696
 20
451.6034548043
 30
0.0
 40
12.00000000000087
100
AcDbArc
 50
345.0
 51
45.0
  0
SPLINE
  5
223
330
1F
100
AcDbEntity
  8
0
  6
Continuous
 62
     7
370
    15
100
AcDbSpline
210
0.0
220
0.0
230
1.0
 70
    24
 71
     3
 72
    12
 73
     8
 74
     0
 42
0.00000001
 43
0.00000001
 12
1.0
 22
0.0
 32
0.0
 13
1.0
 23
0.0
 33
0.0
 40
0.0
 40
0.0
 40
0.0
 40
0.0
 40
0.25
 40
0.25
 40
0.5
 40
0.5
 40
1.0
 40
1.0
 40
1.0
 40
1.0
 10
-8.27159576961549
 20
531.9669756009201
 30
0.0
 10
-8.27159576961549
 20
531.3812516048017
 30
0.0
 10
-8.271595769615503
 20
530.7936514605948
 30
0.0
 10
-8.271595769615475
 20
529.6147473037825
 30
0.0
 10
-8.271595769615518
 20
529.0296060448711
 30
0.0
 10
-8.27159576961553
 20
527.2939705775178
 30
0.0
 10
-8.271595769615544
 20
526.1590242078148
 30
0.0
 10
-8.271595769615558
 20
525.0387723706422
 30
0.0
  0
SPLINE
  5
224
330
1F
100
AcDbEntity
  8
0
  6
Continuous
 62
     7
370
    15
100
AcDbSpline
210
0.0
220
0.0
230
1.0
 70
    24
 71
     3
 72
    10
 73
     6
 74
     0
 42
0.00000001
 43
0.00000001
 12
1.0
 22
0.0
 32
0.0
 13
1.0
 23
0.0
 33
0.0
 40
0.0
 40
0.0
 40
0.0
 40
0.0
 40
0.5000000000000003
 40
0.5000000000000003
 40
1.0
 40
1.0
 40
1.0
 40
1.0
 10
-8.271595769614267
 20
525.0387723706423
 30
0.0
 10
-9.253117052948664
 20
524.4720907934937
 30
0.0
 10
-10.24180774524239
 20
523.9012699561528
 30
0.0
 10
-12.23985875734526
 20
522.7476946664606
 30
0.0
 10
-13.24937358478116
 20
522.1648510090895
 30
0.0
 10
-14.27159576961319
 20
521.5746707555052
 30
0.0
  0
ARC
  5
225
330
1F
100
AcDbEntity
  8
0
  6
Continuous
 62
     7
370
    15
100
AcDbCircle
 10
-20.2715957696
 20
531.9669756009
 30
0.0
 40
12.00000000000091
100
AcDbArc
 50
300.0
 51
0.0
  0
ARC
  5
226
330
1F
100
AcDbEntity
  8
0
  6
Continuous
 62
     7
370
    15
100
AcDbCircle
 10
36.5539947457
 20
588.7925661163
 30
0.0
 40
12.00000000000128
100
AcDbArc
 50
75.0
 51
135.0
  0
SPLINE
  5
227
330
1F
100
AcDbEntity
  8
0
  6
Continuous
 62
     7
370
    15
100
AcDbSpline
210
0.0
220
0.0
230
1.0
 70
    24
 71
     3
 72
    10
 73
     6
 74
     0
 42
0.00000001
 43
0.00000001
 12
1.0
 22
0.0
 32
0.0
 13
1.0
 23
0.0
 33
0.0
 40
0.0
 40
0.0
 40
0.0
 40
0.0
 40
0.5
 40
0.5
 40
1.0
 40
1.0
 40
1.0
 40
1.0
 10
32.96769285706026
 20
602.176826976071
 30
0.0
 10
32.17091353345799
 20
601.3800476524688
 30
0.0
 10
31.35485519792286
 20
600.5639893169337
 30
0.0
 10
29.71904386497882
 20
598.9281779839896
 30
0.0
 10
28.89656033753425
 20
598.105694456545
 30
0.0
 10
28.06871337149389
 20
597.2778474905048
 30
0.0
  0
SPLINE
  5
228
330
1F
100
AcDbEntity
  8
0
  6
Continuous
 62
     7
370
    15
100
AcDbSpline
210
0.0
220
0.0
230
1.0
 70
    24
 71
     3
 72
    10
 73
     6
 74
     0
 42
0.00000001
 43
0.00000001
 12
1.0
 22
0.0
 32
0.0
 13
1.0
 23
0.0
 33
0.0
 40
0.0
 40
0.0
 40
0.0
 40
0.0
 40
0.5
 40
0.5
 40
1.0
 40
1.0
 40
1.0
 40
1.0
 10
32.96769285705976
 20
602.1768269760715
 30
0.0
 10
34.06243759835994
 20
601.8834910067219
 30
0.0
 10
35.16517877630364
 20
601.5880123986313
 30
0.0
 10
37.39371510606953
 20
600.9908778887672
 30
0.0
 10
38.51968258875678
 20
600.6891758110772
 30
0.0
 10
39.65982328696312
 20
600.383676031735
 30
0.0
  0
SPLINE
  5
229
330
1F
100
AcDbEntity
  8
0
  6
Continuous
 62
     7
370
    15
100
AcDbSpline
210
0.0
220
0.0
230
1.0
 70
    24
 71
     3
 72
    10
 73
     6
 74
     0
 42
0.00000001
 43
0.00000001
 12
1.0
 22
0.0
 32
0.0
 13
1.0
 23
0.0
 33
0.0
 40
0.0
 40
0.0
 40
0.0
 40
0.0
 40
0.5
 40
0.5
 40
1.0
 40
1.0
 40
1.0
 40
1.0
 10
29.62579151546042
 20
382.7778642889002
 30
0.0
 10
29.05910993831179
 20
383.7593855722349
 30
0.0
 10
28.48828910097057
 20
384.7480762645289
 30
0.0
 10
27.33471381127801
 20
386.7461272766325
 30
0.0
 10
26.75187015390681
 20
387.7556421040687
 30
0.0
 10
26.16168990032224
 20
388.777864288901
 30
0.0
  0
ARC
  5
22A
330
1F
100
AcDbEntity
  8
0
  6
Continuous
 62
     7
370
    15
100
AcDbCircle
 10
36.5539947457
 20
394.7778642889
 30
0.0
 40
12.00000000000125
100
AcDbArc
 50
210.0
 51
270.0
  0
SPLINE
  5
22B
330
1F
100
AcDbEntity
  8
0
  6
Continuous
 62
     7
370
    15
100
AcDbSpline
210
0.0
220
0.0
230
1.0
 70
    24
 71
     3
 72
    10
 73
     6
 74
     0
 42
0.00000001
 43
0.00000001
 12
1.0
 22
0.0
 32
0.0
 13
1.0
 23
0.0
 33
0.0
 40
0.0
 40
0.0
 40
0.0
 40
0.0
 40
0.5
 40
0.5
 40
1.0
 40
1.0
 40
1.0
 40
1.0
 10
29.62579151546046
 20
382.7778642889009
 30
0.0
 10
30.75260764111722
 20
382.7778642889009
 30
0.0
 10
31.9066884069186
 20
382.7778642889008
 30
0.0
 10
34.22007497945166
 20
382.7778642889008
 30
0.0
 10
35.38324233879224
 20
382.7778642889008
 30
0.0
 10
36.55399474573589
 20
382.7778642889008
 30
0.0
  0
ARC
  5
22C
330
1F
100
AcDbEntity
  8
0
  6
Continuous
 62
     7
370
    15
100
AcDbCircle
 10
-20.2715957696
 20
531.9669756009
 30
0.0
 40
12.00000000000122
100
AcDbArc
 50
120.0
 51
180.0
  0
SPLINE
  5
22D
330
1F
100
AcDbEntity
  8
0
  6
Continuous
 62
     7
370
    15
100
AcDbSpline
210
0.0
220
0.0
230
1.0
 70
    24
 71
     3
 72
    10
 73
     6
 74
     0
 42
0.00000001
 43
0.00000001
 12
1.0
 22
0.0
 32
0.0
 13
1.0
 23
0.0
 33
0.0
 40
0.0
 40
0.0
 40
0.0
 40
0.0
 40
0.5
 40
0.5
 40
1.0
 40
1.0
 40
1.0
 40
1.0
 10
-32.27159576961589
 20
538.8951788311914
 30
0.0
 10
-32.2715957696159
 20
537.7683627055346
 30
0.0
 10
-32.27159576961591
 20
536.6142819397332
 30
0.0
 10
-32.27159576961593
 20
534.3008953672002
 30
0.0
 10
-32.27159576961594
 20
533.1377280078597
 30
0.0
 10
-32.27159576961596
 20
531.966975600916
 30
0.0
  0
SPLINE
  5
22E
330
1F
100
AcDbEntity
  8
0
  6
Continuous
 62
     7
370
    15
100
AcDbSpline
210
0.0
220
0.0
230
1.0
 70
    24
 71
     3
 72
    10
 73
     6
 74
     0
 42
0.00000001
 43
0.00000001
 12
1.0
 22
0.0
 32
0.0
 13
1.0
 23
0.0
 33
0.0
 40
0.0
 40
0.0
 40
0.0
 40
0.0
 40
0.5
 40
0.5
 40
1.0
 40
1.0
 40
1.0
 40
1.0
 10
-32.27159576961662
 20
538.8951788311914
 30
0.0
 10
-31.29007448628191
 20
539.46186040834
 30
0.0
 10
-30.30138379398786
 20
540.0326812456813
 30
0.0
 10
-28.30333278188429
 20
541.1862565353739
 30
0.0
 10
-27.29381795444813
 20
541.7691001927451
 30
0.0
 10
-26.27159576961574
 20
542.3592804463296
 30
0.0
  0
SPLINE
  5
22F
330
1F
100
AcDbEntity
  8
0
  6
Continuous
 62
     7
370
    15
100
AcDbSpline
210
0.0
220
0.0
230
1.0
 70
    24
 71
     3
 72
    10
 73
     6
 74
     0
 42
0.00000001
 43
0.00000001
 12
1.0
 22
0.0
 32
0.0
 13
1.0
 23
0.0
 33
0.0
 40
0.0
 40
0.0
 40
0.0
 40
0.0
 40
0.5
 40
0.5
 40
1.0
 40
1.0
 40
1.0
 40
1.0
 10
-33.65585662941989
 20
448.0171529155764
 30
0.0
 10
-33.36252066007027
 20
449.1118976568765
 30
0.0
 10
-33.06704205197966
 20
450.2146388348202
 30
0.0
 10
-32.46990754211549
 20
452.4431751645861
 30
0.0
 10
-32.16820546442572
 20
453.5691426472734
 30
0.0
 10
-31.86270568508345
 20
454.7092833454797
 30
0.0
  0
ARC
  5
230
330
1F
100
AcDbEntity
  8
0
  6
Continuous
 62
     7
370
    15
100
AcDbCircle
 10
-20.2715957696
 20
451.6034548043
 30
0.0
 40
12.00000000000122
100
AcDbArc
 50
165.0
 51
225.0
  0
SPLINE
  5
231
330
1F
100
AcDbEntity
  8
0
  6
Continuous
 62
     7
370
    15
100
AcDbSpline
210
0.0
220
0.0
230
1.0
 70
    24
 71
     3
 72
    10
 73
     6
 74
     0
 42
0.00000001
 43
0.00000001
 12
1.0
 22
0.0
 32
0.0
 13
1.0
 23
0.0
 33
0.0
 40
0.0
 40
0.0
 40
0.0
 40
0.0
 40
0.5
 40
0.5
 40
1.0
 40
1.0
 40
1.0
 40
1.0
 10
-33.65585662941935
 20
448.0171529155768
 30
0.0
 10
-32.85907730581705
 20
447.2203735919746
 30
0.0
 10
-32.04301897028198
 20
446.4043152564394
 30
0.0
 10
-30.40720763733792
 20
444.7685039234954
 30
0.0
 10
-29.58472410989345
 20
443.9460203960508
 30
0.0
 10
-28.7568771438531
 20
443.1181734300105
 30
0.0
  0
CIRCLE
  5
232
330
1F
100
AcDbEntity
  8
0
  6
Continuous
 62
     7
370
    15
100
AcDbCircle
 10
173.7431060577
 20
531.9669756009
 30
0.0
 40
14.99999999999996
  0
CIRCLE
  5
233
330
1F
100
AcDbEntity
  8
0
  6
Continuous
 62
     7
370
    15
100
AcDbCircle
 10
173.7431060577
 20
451.6034548042
 30
0.0
 40
15.0
  0
CIRCLE
  5
234
330
1F
100
AcDbEntity
  8
0
  6
Continuous
 62
     7
370
    15
100
AcDbCircle
 10
116.9175155424
 20
588.7925661163
 30
0.0
 40
15.0
  0
CIRCLE
  5
235
330
1F
100
AcDbEntity
  8
0
  6
Continuous
 62
     7
370
    15
100
AcDbCircle
 10
116.9175155424
 20
394.7778642889
 30
0.0
 40
15.00000000000002
  0
CIRCLE
  5
236
330
1F
100
AcDbEntity
  8
0
  6
Continuous
 62
     7
370
    15
100
AcDbCircle
 10
36.5539947457
 20
394.7778642889
 30
0.0
 40
14.99999999999999
  0
CIRCLE
  5
237
330
1F
100
AcDbEntity
  8
0
  6
Continuous
 62
     7
370
    15
100
AcDbCircle
 10
36.5539947457
 20
588.7925661163
 30
0.0
 40
14.99999999999991
  0
CIRCLE
  5
238
330
1F
100
AcDbEntity
  8
0
  6
Continuous
 62
     7
370
    15
100
AcDbCircle
 10
-20.2715957696
 20
451.6034548043
 30
0.0
 40
15.00000000000003
  0
CIRCLE
  5
239
330
1F
100
AcDbEntity
  8
0
  6
Continuous
 62
     7
370
    15
100
AcDbCircle
 10
-20.2715957696
 20
531.9669756009
 30
0.0
 40
14.99999999999989
  0
CIRCLE
  5
23A
330
1F
100
AcDbEntity
  8
0
  6
Continuous
 62
     7
370
    15
100
AcDbCircle
 10
76.7357551441
 20
491.7852152026
 30
0.0
 40
62.99999999999999
  0
CIRCLE
  5
23B
330
1F
100
AcDbEntity
  8
0
  6
Continuous
 62
     7
370
    15
100
AcDbCircle
 10
76.7357551441
 20
491.7852152026
 30
0.0
 40
127.0
  0
LINE
  5
23C
330
1F
100
AcDbEntity
  8
0
  6
Continuous
 62
     7
370
    15
100
AcDbLine
 10
-43.3170369878
 20
533.2137849069
 30
0.0
 11
-44.8170400277
 21
533.2137849069
 31
0.0
  0
LINE
  5
23D
330
1F
100
AcDbEntity
  8
0
  6
Continuous
 62
     7
370
    15
100
AcDbLine
 10
-44.300968112
 20
530.2444379664
 30
0.0
 11
-45.8009711519
 21
530.2444379664
 31
0.0
  0
ARC
  5
23E
330
1F
100
AcDbEntity
  8
0
  6
Continuous
 62
     7
370
    15
100
AcDbCircle
 10
75.2357551441
 20
491.7852152026
 30
0.0
 40
127.0
100
AcDbArc
 50
160.9611484505
 51
162.3724303563
  0
LINE
  5
23F
330
1F
100
AcDbEntity
  8
0
  6
Continuous
 62
     7
370
    15
100
AcDbLine
 10
-45.0412801519
 20
527.8317574299
 30
0.0
 11
-46.5412831917
 21
527.8317574299
 31
0.0
  0
SPLINE
  5
240
330
1F
100
AcDbEntity
  8
0
  6
Continuous
 62
     7
370
    15
100
AcDbSpline
210
0.0
220
0.0
230
1.0
 70
     8
 71
     3
 72
     9
 73
     5
 74
     0
 42
0.00000001
 43
0.00000001
 12
1.0
 22
0.0
 32
0.0
 13
1.0
 23
0.0
 33
0.0
 40
0.0
 40
0.0
 40
0.0
 40
0.0
 40
0.5031676464430976
 40
1.0
 40
1.0
 40
1.0
 40
1.0
 10
-46.54128156030793
 20
527.8317591631536
 30
0.0
 10
-46.42029816120348
 20
528.2367735849817
 30
0.0
 10
-46.17985464310429
 20
529.0417029652613
 30
0.0
 10
-45.92672889234601
 20
529.8452220687734
 30
0.0
 10
-45.80096782985096
 20
530.2444363560993
 30
0.0
  0
LINE
  5
241
330
1F
100
AcDbEntity
  8
0
  6
Continuous
 62
     7
370
    15
100
AcDbLine
 10
-45.4195759311
 20
526.528196398
 30
0.0
 11
-46.919578971
 21
526.528196398
 31
0.0
  0
SPLINE
  5
242
330
1F
100
AcDbEntity
  8
0
  6
Continuous
 62
     7
370
    15
100
AcDbSpline
210
0.0
220
0.0
230
1.0
 70
     8
 71
     3
 72
     9
 73
     5
 74
     0
 42
0.00000001
 43
0.00000001
 12
1.0
 22
0.0
 32
0.0
 13
1.0
 23
0.0
 33
0.0
 40
0.0
 40
0.0
 40
0.0
 40
0.0
 40
0.5018623825891427
 40
1.0
 40
1.0
 40
1.0
 40
1.0
 10
-46.91957708369036
 20
526.5281973475609
 30
0.0
 10
-46.85722821047841
 20
526.746305547924
 30
0.0
 10
-46.73299321025723
 20
527.1809031745438
 30
0.0
 10
-46.60502656171887
 20
527.6153465668235
 30
0.0
 10
-46.54128156030792
 20
527.8317591631536
 30
0.0
  0
LINE
  5
243
330
1F
100
AcDbEntity
  8
0
  6
Continuous
 62
     7
370
    15
100
AcDbLine
 10
-46.1189768329
 20
523.9677522218
 30
0.0
 11
-47.6189724222
 21
523.9677522218
 31
0.0
  0
ARC
  5
244
330
1F
100
AcDbEntity
  8
0
  6
Continuous
 62
     7
370
    15
100
AcDbCircle
 10
75.2357551441
 20
491.7852152026
 30
0.0
 40
127.0
100
AcDbArc
 50
164.123377685
 51
165.3208583556
  0
LINE
  5
245
330
1F
100
AcDbEntity
  8
0
  6
Continuous
 62
     7
370
    15
100
AcDbLine
 10
-46.3733396545
 20
522.9805912709
 30
0.0
 11
-47.8733352438
 21
522.9805912709
 31
0.0
  0
LINE
  5
246
330
1F
100
AcDbEntity
  8
0
  6
Continuous
 62
     7
370
    15
100
AcDbLine
 10
-47.8733352438
 20
522.9805912709
 30
0.0
 11
-47.6178548351
 21
523.9677522218
 31
0.0
  0
LINE
  5
247
330
1F
100
AcDbEntity
  8
0
  6
Continuous
 62
     7
370
    15
100
AcDbLine
 10
-46.9001702085
 20
526.5950653589
 30
0.0
 11
-46.8796885624
 21
526.6681443787
 31
0.0
  0
LINE
  5
248
330
1F
100
AcDbEntity
  8
0
  6
Continuous
 62
     7
370
    15
100
AcDbLine
 10
-46.9545594469
 20
520.5898396558
 30
0.0
 11
-48.4545624867
 21
520.5898396558
 31
0.0
  0
ARC
  5
249
330
1F
100
AcDbEntity
  8
0
  6
Continuous
 62
     7
370
    15
100
AcDbCircle
 10
75.2357551441
 20
491.7852152026
 30
0.0
 40
127.0
100
AcDbArc
 50
165.7807616951
 51
166.8907785661
  0
LINE
  5
24A
330
1F
100
AcDbEntity
  8
0
  6
Continuous
 62
     7
370
    15
100
AcDbLine
 10
-49.2557383194
 20
516.9022884107
 30
0.0
 11
-49.2484814539
 21
516.9373247659
 31
0.0
  0
LINE
  5
24B
330
1F
100
AcDbEntity
  8
0
  6
Continuous
 62
     7
370
    15
100
AcDbLine
 10
-48.6793763056
 20
519.6026787049
 30
0.0
 11
-48.4545624867
 21
520.5898396558
 31
0.0
  0
LINE
  5
24C
330
1F
100
AcDbEntity
  8
0
  6
Continuous
 62
     7
370
    15
100
AcDbLine
 10
-47.7274230733
 20
517.042232666
 30
0.0
 11
-49.2274261132
 21
517.042232666
 31
0.0
  0
ARC
  5
24D
330
1F
100
AcDbEntity
  8
0
  6
Continuous
 62
     7
370
    15
100
AcDbCircle
 10
75.2357551441
 20
491.7852152026
 30
0.0
 40
127.0
100
AcDbArc
 50
167.3476310741
 51
168.5288695151
  0
LINE
  5
24E
330
1F
100
AcDbEntity
  8
0
  6
Continuous
 62
     7
370
    15
100
AcDbLine
 10
-47.1802971378
 20
519.6026787049
 30
0.0
 11
-48.6803001776
 21
519.6026787049
 31
0.0
  0
LINE
  5
24F
330
1F
100
AcDbEntity
  8
0
  6
Continuous
 62
     7
370
    15
100
AcDbLine
 10
-47.8301963821
 20
516.5303964055
 30
0.0
 11
-49.3301994219
 21
516.5303964055
 31
0.0
  0
LINE
  5
250
330
1F
100
AcDbEntity
  8
0
  6
Continuous
 62
     7
370
    15
100
AcDbLine
 10
-49.3301994219
 20
516.5303964055
 30
0.0
 11
-49.2274261132
 21
517.042232666
 31
0.0
  0
LINE
  5
251
330
1F
100
AcDbEntity
  8
0
  6
Continuous
 62
     7
370
    15
100
AcDbLine
 10
-48.512185277
 20
512.8079317397
 30
0.0
 11
-50.0121808663
 21
512.8079317397
 31
0.0
  0
LINE
  5
252
330
1F
100
AcDbEntity
  8
0
  6
Continuous
 62
     7
370
    15
100
AcDbLine
 10
-48.5922194138
 20
512.3253594971
 30
0.0
 11
-50.0922299042
 21
512.3253594971
 31
0.0
  0
LINE
  5
253
330
1F
100
AcDbEntity
  8
0
  6
Continuous
 62
     7
370
    15
100
AcDbLine
 10
-50.0922299042
 20
512.3253594971
 30
0.0
 11
-50.0121808663
 21
512.8079317397
 31
0.0
  0
LINE
  5
254
330
1F
100
AcDbEntity
  8
0
  6
Continuous
 62
     7
370
    15
100
AcDbLine
 10
-48.9821828023
 20
509.7852144277
 30
0.0
 11
-50.4821783915
 21
509.7852144277
 31
0.0
  0
ARC
  5
255
330
1F
100
AcDbEntity
  8
0
  6
Continuous
 62
     7
370
    15
100
AcDbCircle
 10
75.2357551441
 20
491.7852152026
 30
0.0
 40
127.0
100
AcDbArc
 50
170.6924757744
 51
171.8519015582
  0
ARC
  5
256
330
1F
100
AcDbEntity
  8
0
  6
Continuous
 62
     7
370
    15
100
AcDbCircle
 10
75.2357551441
 20
491.7852152026
 30
0.0
 40
127.0
100
AcDbArc
 50
168.7643925112
 51
170.4717897548
  0
SPLINE
  5
257
330
1F
100
AcDbEntity
  8
0
  6
Continuous
 62
     7
370
    15
100
AcDbSpline
210
0.0
220
0.0
230
1.0
 70
     8
 71
     3
 72
     9
 73
     5
 74
     0
 42
0.00000001
 43
0.00000001
 12
1.0
 22
0.0
 32
0.0
 13
1.0
 23
0.0
 33
0.0
 40
0.0
 40
0.0
 40
0.0
 40
0.0
 40
0.5016695610270353
 40
1.0
 40
1.0
 40
1.0
 40
1.0
 10
-46.30078842051159
 20
528.6344835586212
 30
0.0
 10
-46.2392035615292
 20
528.8366955622306
 30
0.0
 10
-46.11644375354663
 20
529.2397736425416
 30
0.0
 10
-45.99042984522683
 20
529.6427086772741
 30
0.0
 10
-45.92763327897715
 20
529.8435034700099
 30
0.0
  0
LINE
  5
258
330
1F
100
AcDbEntity
  8
0
  6
Continuous
 62
     7
370
    15
100
AcDbLine
 10
-43.1183225527
 20
533.7852146363
 30
0.0
 11
-44.6183255926
 21
533.7852146363
 31
0.0
  0
ARC
  5
259
330
1F
100
AcDbEntity
  8
0
  6
Continuous
 62
     7
370
    15
100
AcDbCircle
 10
75.2357551441
 20
491.7852152026
 30
0.0
 40
127.0
100
AcDbArc
 50
160.6882060109
 51
160.9611484505
  0
LINE
  5
25A
330
1F
100
AcDbEntity
  8
0
  6
Continuous
 62
     7
370
    15
100
AcDbLine
 10
-48.9821828023
 20
473.7852159774
 30
0.0
 11
-50.4821783915
 21
473.7852159774
 31
0.0
  0
LINE
  5
25B
330
1F
100
AcDbEntity
  8
0
  6
Continuous
 62
     7
370
    15
100
AcDbLine
 10
-47.4166519061
 20
465.042358253
 30
0.0
 11
-48.9166474953
 21
465.042358253
 31
0.0
  0
ARC
  5
25C
330
1F
100
AcDbEntity
  8
0
  6
Continuous
 62
     7
370
    15
100
AcDbCircle
 10
75.2357551441
 20
491.7852152026
 30
0.0
 40
127.0
100
AcDbArc
 50
188.1480984418
 51
192.1559733675
  0
LINE
  5
25D
330
1F
100
AcDbEntity
  8
0
  6
Continuous
 62
     7
370
    15
100
AcDbLine
 10
-46.6700813785
 20
461.7852158731
 30
0.0
 11
-48.1700769678
 21
461.7852158731
 31
0.0
  0
SPLINE
  5
25E
330
1F
100
AcDbEntity
  8
0
  6
Continuous
 62
     7
370
    15
100
AcDbSpline
210
0.0
220
0.0
230
1.0
 70
     8
 71
     3
 72
    10
 73
     6
 74
     0
 42
0.00000001
 43
0.00000001
 12
1.0
 22
0.0
 32
0.0
 13
1.0
 23
0.0
 33
0.0
 40
0.0
 40
0.0
 40
0.0
 40
0.0
 40
0.3285120519388917
 40
0.6618453285564049
 40
1.0
 40
1.0
 40
1.0
 40
1.0
 10
-48.17007940194861
 20
461.7852152025916
 30
0.0
 10
-48.25577168920447
 20
462.1417551726205
 30
0.0
 10
-48.42841387897764
 20
462.8600676735305
 30
0.0
 10
-48.67739202516047
 20
463.9457867163575
 30
0.0
 10
-48.83651619712401
 20
464.6750887753653
 30
0.0
 10
-48.91664955207762
 20
465.0423580597345
 30
0.0
  0
LINE
  5
25F
330
1F
100
AcDbEntity
  8
0
  6
Continuous
 62
     7
370
    15
100
AcDbLine
 10
-45.8324424043
 20
458.5280734933
 30
0.0
 11
-47.3324379936
 21
458.5280734933
 31
0.0
  0
LINE
  5
260
330
1F
100
AcDbEntity
  8
0
  6
Continuous
 62
     7
370
    15
100
AcDbLine
 10
-43.1183225527
 20
449.7852157688
 30
0.0
 11
-44.6183255926
 21
449.7852157688
 31
0.0
  0
ARC
  5
261
330
1F
100
AcDbEntity
  8
0
  6
Continuous
 62
     7
370
    15
100
AcDbCircle
 10
75.2357551441
 20
491.7852152026
 30
0.0
 40
127.0
100
AcDbArc
 50
195.1808880299
 51
199.3117939891
  0
SPLINE
  5
262
330
1F
100
AcDbEntity
  8
0
  6
Continuous
 62
     7
370
    15
100
AcDbSpline
210
0.0
220
0.0
230
1.0
 70
     8
 71
     3
 72
    11
 73
     7
 74
     0
 42
0.00000001
 43
0.00000001
 12
1.0
 22
0.0
 32
0.0
 13
1.0
 23
0.0
 33
0.0
 40
0.0
 40
0.0
 40
0.0
 40
0.0
 40
0.2462402647205278
 40
0.4949869575481856
 40
0.746240172296998
 40
0.9999999999999999
 40
0.9999999999999999
 40
0.9999999999999999
 40
0.9999999999999999
 10
-47.33243995147239
 20
458.5280723454487
 30
0.0
 10
-47.40441177019778
 20
458.7952995713314
 30
0.0
 10
-47.54908799372487
 20
459.3324740730883
 30
0.0
 10
-47.75996109882254
 20
460.1425893336099
 30
0.0
 10
-47.96805428121735
 20
460.9610486217073
 30
0.0
 10
-48.10251523110789
 20
461.509585461743
 30
0.0
 10
-48.17007940194861
 20
461.7852152025916
 30
0.0
  0
LINE
  5
263
330
1F
100
AcDbEntity
  8
0
  6
Continuous
 62
     7
370
    15
100
AcDbLine
 10
-47.4825895443
 20
459.0961839891
 30
0.0
 11
-47.6189724222
 21
459.6026781833
 31
0.0
  0
LINE
  5
264
330
1F
100
AcDbEntity
  8
0
  6
Continuous
 62
     7
370
    15
100
AcDbLine
 10
-48.6803001776
 20
463.9677517003
 30
0.0
 11
-48.9152169838
 21
465.03609604
 31
0.0
  0
INSERT
  5
270
330
1F
100
AcDbEntity
  8
FORMAT
100
AcDbBlockReference
  2
SW_CENTERMARKSYMBOL_0
 10
76.7357551441
 20
491.7852152026
 30
0.0
  0
LINE
  5
271
330
1F
100
AcDbEntity
  8
0
  6
Continuous
 62
     7
370
    15
100
AcDbLine
 10
-50.264248909
 20
181.7962907179
 30
0.0
 11
-50.264248909
 21
162.7962820156
 31
0.0
  0
LINE
  5
272
330
1F
100
AcDbEntity
  8
0
  6
Continuous
 62
     7
370
    15
100
AcDbLine
 10
203.7357591972
 20
162.7962820156
 30
0.0
 11
203.7357591972
 21
181.7962907179
 31
0.0
  0
LINE
  5
273
330
1F
100
AcDbEntity
  8
0
  6
Continuous
 62
     7
370
    15
100
AcDbLine
 10
203.7357591972
 20
-18.2037122623
 30
0.0
 11
203.7357591972
 21
0.7962871267
 31
0.0
  0
LINE
  5
274
330
1F
100
AcDbEntity
  8
0
  6
Continuous
 62
     7
370
    15
100
AcDbLine
 10
-50.264248909
 20
0.7962871267
 30
0.0
 11
-50.264248909
 21
-1.2037113385
 31
0.0
  0
LINE
  5
275
330
1F
100
AcDbEntity
  8
0
  6
Continuous
 62
     7
370
    15
100
AcDbLine
 10
-50.264248909
 20
-3.5751408042
 30
0.0
 11
-50.264248909
 21
-4.4894266949
 31
0.0
  0
LINE
  5
276
330
1F
100
AcDbEntity
  8
0
  6
Continuous
 62
     7
370
    15
100
AcDbLine
 10
-50.264248909
 20
-6.7751409562
 30
0.0
 11
-50.264248909
 21
-8.9051185252
 31
0.0
  0
LINE
  5
277
330
1F
100
AcDbEntity
  8
0
  6
Continuous
 62
     7
370
    15
100
AcDbLine
 10
-50.264248909
 20
-12.632283576
 30
0.0
 11
-50.264248909
 21
-18.2037122623
 31
0.0
  0
LINE
  5
278
330
1F
100
AcDbEntity
  8
0
  6
Continuous
 62
     7
370
    15
100
AcDbLine
 10
-48.2642448559
 20
82.7962912543
 30
0.0
 11
-48.2642448559
 21
60.7962913735
 31
0.0
  0
LINE
  5
279
330
1F
100
AcDbEntity
  8
0
  6
Continuous
 62
     7
370
    15
100
AcDbLine
 10
201.7357551441
 20
60.7962913735
 30
0.0
 11
201.7357551441
 21
82.7962912543
 31
0.0
  0
LINE
  5
27A
330
1F
100
AcDbEntity
  8
0
  6
Continuous
 62
     7
370
    15
100
AcDbLine
 10
51.5539941326
 20
181.7962907179
 30
0.0
 11
51.5539941326
 21
183.796294771
 31
0.0
  0
LINE
  5
27B
330
1F
100
AcDbEntity
  8
0
  6
Continuous
 62
     7
370
    15
100
AcDbLine
 10
21.5539948031
 20
183.796294771
 30
0.0
 11
21.5539948031
 21
181.7962907179
 31
0.0
  0
LINE
  5
27C
330
1F
100
AcDbEntity
  8
0
  6
Continuous
 62
     7
370
    15
100
AcDbLine
 10
21.5539948031
 20
-18.2037122623
 30
0.0
 11
21.5539948031
 21
-20.2037123573
 31
0.0
  0
LINE
  5
27D
330
1F
100
AcDbEntity
  8
0
  6
Continuous
 62
     7
370
    15
100
AcDbLine
 10
51.5539941326
 20
-20.2037123573
 30
0.0
 11
51.5539941326
 21
-18.2037122623
 31
0.0
  0
LINE
  5
27E
330
1F
100
AcDbEntity
  8
0
  6
Continuous
 62
     7
370
    15
100
AcDbLine
 10
131.917515485
 20
181.7962907179
 30
0.0
 11
131.917515485
 21
183.796294771
 31
0.0
  0
LINE
  5
27F
330
1F
100
AcDbEntity
  8
0
  6
Continuous
 62
     7
370
    15
100
AcDbLine
 10
101.9175161555
 20
183.796294771
 30
0.0
 11
101.9175161555
 21
181.7962907179
 31
0.0
  0
LINE
  5
280
330
1F
100
AcDbEntity
  8
0
  6
Continuous
 62
     7
370
    15
100
AcDbLine
 10
101.9175161555
 20
-18.2037122623
 30
0.0
 11
101.9175161555
 21
-20.2037123573
 31
0.0
  0
LINE
  5
281
330
1F
100
AcDbEntity
  8
0
  6
Continuous
 62
     7
370
    15
100
AcDbLine
 10
131.917515485
 20
-20.2037123573
 30
0.0
 11
131.917515485
 21
-18.2037122623
 31
0.0
  0
LINE
  5
282
330
1F
100
AcDbEntity
  8
0
  6
Continuous
 62
     7
370
    15
100
AcDbLine
 10
24.5539934322
 20
194.7962872608
 30
0.0
 11
24.1280362889
 21
194.5503584965
 31
0.0
  0
LINE
  5
283
330
1F
100
AcDbEntity
  8
0
  6
Continuous
 62
     7
370
    15
100
AcDbLine
 10
24.1279506072
 20
-30.9577362688
 30
0.0
 11
24.5539934322
 21
-31.2037125306
 31
0.0
  0
LINE
  5
284
330
1F
100
AcDbEntity
  8
0
  6
Continuous
 62
     7
370
    15
100
AcDbLine
 10
44.5539929852
 20
194.7962872608
 30
0.0
 11
44.5539929852
 21
246.7962734325
 31
0.0
  0
LINE
  5
285
330
1F
100
AcDbEntity
  8
0
  6
Continuous
 62
     7
370
    15
100
AcDbLine
 10
28.5539940879
 20
246.7962734325
 30
0.0
 11
28.5539940879
 21
194.7962872608
 31
0.0
  0
LINE
  5
286
330
1F
100
AcDbEntity
  8
0
  6
Continuous
 62
     7
370
    15
100
AcDbLine
 10
44.5539929852
 20
82.7962912543
 30
0.0
 11
44.5539929852
 21
162.7962820156
 31
0.0
  0
LINE
  5
287
330
1F
100
AcDbEntity
  8
0
  6
Continuous
 62
     7
370
    15
100
AcDbLine
 10
28.5539940879
 20
162.7962820156
 30
0.0
 11
28.5539940879
 21
82.7962912543
 31
0.0
  0
LINE
  5
288
330
1F
100
AcDbEntity
  8
0
  6
Continuous
 62
     7
370
    15
100
AcDbLine
 10
44.5539929852
 20
0.7962871267
 30
0.0
 11
44.5539929852
 21
60.7962913735
 31
0.0
  0
LINE
  5
289
330
1F
100
AcDbEntity
  8
0
  6
Continuous
 62
     7
370
    15
100
AcDbLine
 10
28.5539940879
 20
60.7962913735
 30
0.0
 11
28.5539940879
 21
0.7962871267
 31
0.0
  0
LINE
  5
28A
330
1F
100
AcDbEntity
  8
0
  6
Continuous
 62
     7
370
    15
100
AcDbLine
 10
44.5539929852
 20
-83.2037098782
 30
0.0
 11
44.5539929852
 21
-31.2037125306
 31
0.0
  0
LINE
  5
28B
330
1F
100
AcDbEntity
  8
0
  6
Continuous
 62
     7
370
    15
100
AcDbLine
 10
28.5539940879
 20
-31.2037125306
 30
0.0
 11
28.5539940879
 21
-83.2037098782
 31
0.0
  0
LINE
  5
28C
330
1F
100
AcDbEntity
  8
0
  6
Continuous
 62
     7
370
    15
100
AcDbLine
 10
124.9175162003
 20
194.7962872608
 30
0.0
 11
124.9175162003
 21
246.7962734325
 31
0.0
  0
LINE
  5
28D
330
1F
100
AcDbEntity
  8
0
  6
Continuous
 62
     7
370
    15
100
AcDbLine
 10
108.9175173029
 20
246.7962734325
 30
0.0
 11
108.9175173029
 21
194.7962872608
 31
0.0
  0
LINE
  5
28E
330
1F
100
AcDbEntity
  8
0
  6
Continuous
 62
     7
370
    15
100
AcDbLine
 10
124.9175162003
 20
82.7962912543
 30
0.0
 11
124.9175162003
 21
162.7962820156
 31
0.0
  0
LINE
  5
28F
330
1F
100
AcDbEntity
  8
0
  6
Continuous
 62
     7
370
    15
100
AcDbLine
 10
108.9175173029
 20
162.7962820156
 30
0.0
 11
108.9175173029
 21
82.7962912543
 31
0.0
  0
LINE
  5
290
330
1F
100
AcDbEntity
  8
0
  6
Continuous
 62
     7
370
    15
100
AcDbLine
 10
124.9175162003
 20
0.7962871267
 30
0.0
 11
124.9175162003
 21
60.7962913735
 31
0.0
  0
LINE
  5
291
330
1F
100
AcDbEntity
  8
0
  6
Continuous
 62
     7
370
    15
100
AcDbLine
 10
108.9175173029
 20
60.7962913735
 30
0.0
 11
108.9175173029
 21
0.7962871267
 31
0.0
  0
LINE
  5
292
330
1F
100
AcDbEntity
  8
0
  6
Continuous
 62
     7
370
    15
100
AcDbLine
 10
124.9175162003
 20
-83.2037098782
 30
0.0
 11
124.9175162003
 21
-31.2037125306
 31
0.0
  0
LINE
  5
293
330
1F
100
AcDbEntity
  8
0
  6
Continuous
 62
     7
370
    15
100
AcDbLine
 10
108.9175173029
 20
-31.2037125306
 30
0.0
 11
108.9175173029
 21
-83.2037098782
 31
0.0
  0
LINE
  5
294
330
1F
100
AcDbEntity
  8
0
  6
Continuous
 62
     7
370
    15
100
AcDbLine
 10
128.9175168559
 20
-31.2037125306
 30
0.0
 11
130.7739221439
 21
-30.131915778
 31
0.0
  0
LINE
  5
295
330
1F
100
AcDbEntity
  8
0
  6
Continuous
 62
     7
370
    15
100
AcDbLine
 10
103.0611094967
 20
-30.131915778
 30
0.0
 11
104.9175147846
 21
-31.2037125306
 31
0.0
  0
LINE
  5
296
330
1F
100
AcDbEntity
  8
0
  6
Continuous
 62
     7
370
    15
100
AcDbLine
 10
104.9175147846
 20
194.7962872608
 30
0.0
 11
103.0611094967
 21
193.7244914396
 31
0.0
  0
LINE
  5
297
330
1F
100
AcDbEntity
  8
0
  6
Continuous
 62
     7
370
    15
100
AcDbLine
 10
130.7739221439
 20
193.7244914396
 30
0.0
 11
128.9175168559
 21
194.7962872608
 31
0.0
  0
LINE
  5
298
330
1F
100
AcDbEntity
  8
0
  6
Continuous
 62
     7
370
    15
100
AcDbLine
 10
48.5539955035
 20
-31.2037125306
 30
0.0
 11
48.9800383285
 21
-30.9577362688
 31
0.0
  0
LINE
  5
299
330
1F
100
AcDbEntity
  8
0
  6
Continuous
 62
     7
370
    15
100
AcDbLine
 10
48.9799526468
 20
194.5503584965
 30
0.0
 11
48.5539955035
 21
194.7962872608
 31
0.0
  0
ARC
  5
29A
330
1F
100
AcDbEntity
  8
0
  6
Continuous
 62
     7
370
    15
100
AcDbCircle
 10
5.7357551441
 20
87.6198114859
 30
0.0
 40
17.50000000000001
100
AcDbArc
 50
135.303956884
 51
180.0
  0
ARC
  5
29B
330
1F
100
AcDbEntity
  8
0
  6
Continuous
 62
     7
370
    15
100
AcDbCircle
 10
147.7357551441
 20
87.6198114859
 30
0.0
 40
17.50000000000003
100
AcDbArc
 50
0.0
 51
44.696043116
  0
LINE
  5
29C
330
1F
100
AcDbEntity
  8
0
  6
Continuous
 62
     7
370
    15
100
AcDbLine
 10
-11.7642453924
 20
87.6198120339
 30
0.0
 11
-11.7642453924
 21
82.7962912543
 31
0.0
  0
LINE
  5
29D
330
1F
100
AcDbEntity
  8
0
  6
Continuous
 62
     7
370
    15
100
AcDbLine
 10
165.2357556805
 20
82.7962912543
 30
0.0
 11
165.2357556805
 21
87.6198120339
 31
0.0
  0
ARC
  5
29E
330
1F
100
AcDbEntity
  8
0
  6
Continuous
 62
     7
370
    15
100
AcDbCircle
 10
-7.2642448559
 20
103.5394325631
 30
0.0
 40
1.999999999999988
100
AcDbArc
 50
132.0
 51
222.0
  0
ARC
  5
29F
330
1F
100
AcDbEntity
  8
0
  6
Continuous
 62
     7
370
    15
100
AcDbCircle
 10
160.7357551441
 20
103.5394325631
 30
0.0
 40
2.000000000000007
100
AcDbArc
 50
318.0
 51
48.0
  0
LINE
  5
2A0
330
1F
100
AcDbEntity
  8
0
  6
Continuous
 62
     7
370
    15
100
AcDbLine
 10
-8.750537695
 20
102.2011719568
 30
0.0
 11
-6.7040867224
 21
99.9283574446
 31
0.0
  0
LINE
  5
2A1
330
1F
100
AcDbEntity
  8
0
  6
Continuous
 62
     7
370
    15
100
AcDbLine
 10
160.1755970106
 20
99.9283574446
 30
0.0
 11
162.2220479831
 21
102.2011719568
 31
0.0
  0
LINE
  5
2A2
330
1F
100
AcDbEntity
  8
0
  6
Continuous
 62
     7
370
    15
100
AcDbLine
 10
162.0740198478
 20
105.025724314
 30
0.0
 11
152.8140806541
 21
113.3634082897
 31
0.0
  0
LINE
  5
2A3
330
1F
100
AcDbEntity
  8
0
  6
Continuous
 62
     7
370
    15
100
AcDbLine
 10
0.657429634
 20
113.3634082897
 30
0.0
 11
-8.6025095597
 21
105.025724314
 31
0.0
  0
LINE
  5
2A4
330
1F
100
AcDbEntity
  8
0
  6
Continuous
 62
     7
370
    15
100
AcDbLine
 10
-1.068802835
 20
162.7962820156
 30
0.0
 11
0.657429634
 21
113.3634082897
 31
0.0
  0
LINE
  5
2A5
330
1F
100
AcDbEntity
  8
0
  6
Continuous
 62
     7
370
    15
100
AcDbLine
 10
152.8140806541
 20
113.3634082897
 30
0.0
 11
154.5403131232
 21
162.7962820156
 31
0.0
  0
LINE
  5
2A6
330
1F
100
AcDbEntity
  8
0
  6
Continuous
 62
     7
370
    15
100
AcDbLine
 10
144.7357588396
 20
0.7962871267
 30
0.0
 11
144.7357588396
 21
60.7962913735
 31
0.0
  0
LINE
  5
2A7
330
1F
100
AcDbEntity
  8
0
  6
Continuous
 62
     7
370
    15
100
AcDbLine
 10
8.7357514486
 20
60.7962913735
 30
0.0
 11
8.7357514486
 21
0.7962871267
 31
0.0
  0
LINE
  5
2A8
330
1F
100
AcDbEntity
  8
0
  6
Continuous
 62
     7
370
    15
100
AcDbLine
 10
-5.2715933934
 20
181.7962907179
 30
0.0
 11
-5.2715933934
 21
183.796294771
 31
0.0
  0
LINE
  5
2A9
330
1F
100
AcDbEntity
  8
0
  6
Continuous
 62
     7
370
    15
100
AcDbLine
 10
-35.2715945855
 20
183.796294771
 30
0.0
 11
-35.2715945855
 21
181.7962907179
 31
0.0
  0
LINE
  5
2AA
330
1F
100
AcDbEntity
  8
0
  6
Continuous
 62
     7
370
    15
100
AcDbLine
 10
-35.2715945855
 20
-18.2037122623
 30
0.0
 11
-35.2715945855
 21
-20.2037123573
 31
0.0
  0
LINE
  5
2AB
330
1F
100
AcDbEntity
  8
0
  6
Continuous
 62
     7
370
    15
100
AcDbLine
 10
-5.2715933934
 20
-20.2037123573
 30
0.0
 11
-5.2715933934
 21
-18.2037122623
 31
0.0
  0
LINE
  5
2AC
330
1F
100
AcDbEntity
  8
0
  6
Continuous
 62
     7
370
    15
100
AcDbLine
 10
188.7431048736
 20
181.7962907179
 30
0.0
 11
188.7431048736
 21
183.796294771
 31
0.0
  0
LINE
  5
2AD
330
1F
100
AcDbEntity
  8
0
  6
Continuous
 62
     7
370
    15
100
AcDbLine
 10
158.7431036815
 20
183.796294771
 30
0.0
 11
158.7431036815
 21
181.7962907179
 31
0.0
  0
LINE
  5
2AE
330
1F
100
AcDbEntity
  8
0
  6
Continuous
 62
     7
370
    15
100
AcDbLine
 10
158.7431036815
 20
-18.2037122623
 30
0.0
 11
158.7431036815
 21
-20.2037123573
 31
0.0
  0
LINE
  5
2AF
330
1F
100
AcDbEntity
  8
0
  6
Continuous
 62
     7
370
    15
100
AcDbLine
 10
188.7431048736
 20
-20.2037123573
 30
0.0
 11
188.7431048736
 21
-18.2037122623
 31
0.0
  0
LINE
  5
2B0
330
1F
100
AcDbEntity
  8
0
  6
Continuous
 62
     7
370
    15
100
AcDbLine
 10
185.7431062445
 20
-31.2037125306
 30
0.0
 11
186.1690633878
 21
-30.9577856289
 31
0.0
  0
LINE
  5
2B1
330
1F
100
AcDbEntity
  8
0
  6
Continuous
 62
     7
370
    15
100
AcDbLine
 10
186.1691527948
 20
194.550313793
 30
0.0
 11
185.7431062445
 21
194.7962872608
 31
0.0
  0
LINE
  5
2B2
330
1F
100
AcDbEntity
  8
0
  6
Continuous
 62
     7
370
    15
100
AcDbLine
 10
-12.2715926781
 20
194.7962872608
 30
0.0
 11
-12.2715926781
 21
246.7962734325
 31
0.0
  0
LINE
  5
2B3
330
1F
100
AcDbEntity
  8
0
  6
Continuous
 62
     7
370
    15
100
AcDbLine
 10
-28.2715953007
 20
246.7962734325
 30
0.0
 11
-28.2715953007
 21
194.7962872608
 31
0.0
  0
LINE
  5
2B4
330
1F
100
AcDbEntity
  8
0
  6
Continuous
 62
     7
370
    15
100
AcDbLine
 10
-12.2715926781
 20
82.7962912543
 30
0.0
 11
-12.2715926781
 21
162.7962820156
 31
0.0
  0
LINE
  5
2B5
330
1F
100
AcDbEntity
  8
0
  6
Continuous
 62
     7
370
    15
100
AcDbLine
 10
-28.2715953007
 20
162.7962820156
 30
0.0
 11
-28.2715953007
 21
82.7962912543
 31
0.0
  0
LINE
  5
2B6
330
1F
100
AcDbEntity
  8
0
  6
Continuous
 62
     7
370
    15
100
AcDbLine
 10
-12.2715926781
 20
0.7962871267
 30
0.0
 11
-12.2715926781
 21
60.7962913735
 31
0.0
  0
LINE
  5
2B7
330
1F
100
AcDbEntity
  8
0
  6
Continuous
 62
     7
370
    15
100
AcDbLine
 10
-28.2715953007
 20
60.7962913735
 30
0.0
 11
-28.2715953007
 21
0.7962871267
 31
0.0
  0
LINE
  5
2B8
330
1F
100
AcDbEntity
  8
0
  6
Continuous
 62
     7
370
    15
100
AcDbLine
 10
-12.2715926781
 20
-83.2037098782
 30
0.0
 11
-12.2715926781
 21
-31.2037125306
 31
0.0
  0
LINE
  5
2B9
330
1F
100
AcDbEntity
  8
0
  6
Continuous
 62
     7
370
    15
100
AcDbLine
 10
-28.2715953007
 20
-31.2037125306
 30
0.0
 11
-28.2715953007
 21
-83.2037098782
 31
0.0
  0
LINE
  5
2BA
330
1F
100
AcDbEntity
  8
0
  6
Continuous
 62
     7
370
    15
100
AcDbLine
 10
181.7431055889
 20
194.7962872608
 30
0.0
 11
181.7431055889
 21
246.7962734325
 31
0.0
  0
LINE
  5
2BB
330
1F
100
AcDbEntity
  8
0
  6
Continuous
 62
     7
370
    15
100
AcDbLine
 10
165.7431029663
 20
246.7962734325
 30
0.0
 11
165.7431029663
 21
194.7962872608
 31
0.0
  0
LINE
  5
2BC
330
1F
100
AcDbEntity
  8
0
  6
Continuous
 62
     7
370
    15
100
AcDbLine
 10
181.7431055889
 20
82.7962912543
 30
0.0
 11
181.7431055889
 21
162.7962820156
 31
0.0
  0
LINE
  5
2BD
330
1F
100
AcDbEntity
  8
0
  6
Continuous
 62
     7
370
    15
100
AcDbLine
 10
165.7431029663
 20
162.7962820156
 30
0.0
 11
165.7431029663
 21
82.7962912543
 31
0.0
  0
LINE
  5
2BE
330
1F
100
AcDbEntity
  8
0
  6
Continuous
 62
     7
370
    15
100
AcDbLine
 10
181.7431055889
 20
0.7962871267
 30
0.0
 11
181.7431055889
 21
60.7962913735
 31
0.0
  0
LINE
  5
2BF
330
1F
100
AcDbEntity
  8
0
  6
Continuous
 62
     7
370
    15
100
AcDbLine
 10
165.7431029663
 20
60.7962913735
 30
0.0
 11
165.7431029663
 21
0.7962871267
 31
0.0
  0
LINE
  5
2C0
330
1F
100
AcDbEntity
  8
0
  6
Continuous
 62
     7
370
    15
100
AcDbLine
 10
181.7431055889
 20
-83.2037098782
 30
0.0
 11
181.7431055889
 21
-31.2037125306
 31
0.0
  0
LINE
  5
2C1
330
1F
100
AcDbEntity
  8
0
  6
Continuous
 62
     7
370
    15
100
AcDbLine
 10
165.7431029663
 20
-31.2037125306
 30
0.0
 11
165.7431029663
 21
-83.2037098782
 31
0.0
  0
LINE
  5
2C2
330
1F
100
AcDbEntity
  8
0
  6
Continuous
 62
     7
370
    15
100
AcDbLine
 10
161.7431097612
 20
194.7962872608
 30
0.0
 11
161.3170632109
 21
194.550313793
 31
0.0
  0
LINE
  5
2C3
330
1F
100
AcDbEntity
  8
0
  6
Continuous
 62
     7
370
    15
100
AcDbLine
 10
161.3171451673
 20
-30.9577856289
 30
0.0
 11
161.7431097612
 21
-31.2037125306
 31
0.0
  0
LINE
  5
2C4
330
1F
100
AcDbEntity
  8
0
  6
Continuous
 62
     7
370
    15
100
AcDbLine
 10
-8.2715994731
 20
-31.2037125306
 30
0.0
 11
-7.8456348792
 21
-30.9577856289
 31
0.0
  0
LINE
  5
2C5
330
1F
100
AcDbEntity
  8
0
  6
Continuous
 62
     7
370
    15
100
AcDbLine
 10
-7.8455529228
 20
194.550313793
 30
0.0
 11
-8.2715994731
 21
194.7962872608
 31
0.0
  0
LINE
  5
2C6
330
1F
100
AcDbEntity
  8
0
  6
Continuous
 62
     7
370
    15
100
AcDbLine
 10
-32.2715959564
 20
194.7962872608
 30
0.0
 11
-32.6976425067
 21
194.550313793
 31
0.0
  0
LINE
  5
2C7
330
1F
100
AcDbEntity
  8
0
  6
Continuous
 62
     7
370
    15
100
AcDbLine
 10
-32.6975530997
 20
-30.9577856289
 30
0.0
 11
-32.2715959564
 21
-31.2037125306
 31
0.0
  0
LINE
  5
2C8
330
1F
100
AcDbEntity
  8
0
  6
Continuous
 62
     7
370
    15
100
AcDbLine
 10
24.1280362889
 20
194.5503584965
 30
0.0
 11
22.6975881443
 21
193.7244914396
 31
0.0
  0
LINE
  5
2C9
330
1F
100
AcDbEntity
  8
0
  6
Continuous
 62
     7
370
    15
100
AcDbLine
 10
50.4104007915
 20
193.7244914396
 30
0.0
 11
49.0202640131
 21
194.5270828827
 31
0.0
  0
LINE
  5
2CA
330
1F
100
AcDbEntity
  8
0
  6
Continuous
 62
     7
370
    15
100
AcDbLine
 10
49.0445491806
 20
-30.9204908164
 30
0.0
 11
50.4104007915
 21
-30.131915778
 31
0.0
  0
LINE
  5
2CB
330
1F
100
AcDbEntity
  8
0
  6
Continuous
 62
     7
370
    15
100
AcDbLine
 10
22.6975881443
 20
-30.131915778
 30
0.0
 11
24.1279506072
 21
-30.9577362688
 31
0.0
  0
LINE
  5
2CC
330
1F
100
AcDbEntity
  8
0
  6
Continuous
 62
     7
370
    15
100
AcDbLine
 10
203.7357591972
 20
162.7962820156
 30
0.0
 11
-50.264248909
 21
162.7962820156
 31
0.0
  0
LINE
  5
2CD
330
1F
100
AcDbEntity
  8
0
  6
Continuous
 62
     7
370
    15
100
AcDbLine
 10
203.7357591972
 20
181.7962907179
 30
0.0
 11
-50.264248909
 21
181.7962907179
 31
0.0
  0
LINE
  5
2CE
330
1F
100
AcDbEntity
  8
0
  6
Continuous
 62
     7
370
    15
100
AcDbLine
 10
-50.264248909
 20
-18.2037122623
 30
0.0
 11
203.7357591972
 21
-18.2037122623
 31
0.0
  0
LINE
  5
2CF
330
1F
100
AcDbEntity
  8
0
  6
Continuous
 62
     7
370
    15
100
AcDbLine
 10
-47.3775363579
 20
-1.622812085
 30
0.0
 11
-47.4166519061
 21
-1.2037113385
 31
0.0
  0
LINE
  5
2D0
330
1F
100
AcDbEntity
  8
0
  6
Continuous
 62
     7
370
    15
100
AcDbLine
 10
-45.4830027237
 20
-4.4894266949
 30
0.0
 11
-45.3796855226
 21
-3.5751408042
 31
0.0
  0
LINE
  5
2D1
330
1F
100
AcDbEntity
  8
0
  6
Continuous
 62
     7
370
    15
100
AcDbLine
 10
-43.1183225527
 20
-1.2037113385
 30
0.0
 11
-43.1183225527
 21
-3.5751408042
 31
0.0
  0
SPLINE
  5
2D2
330
1F
100
AcDbEntity
  8
0
  6
Continuous
 62
     7
370
    15
100
AcDbSpline
210
0.0
220
0.0
230
1.0
 70
     8
 71
     3
 72
    10
 73
     6
 74
     0
 42
0.00000001
 43
0.00000001
 12
1.0
 22
0.0
 32
0.0
 13
1.0
 23
0.0
 33
0.0
 40
0.0
 40
0.0
 40
0.0
 40
0.0
 40
0.3328218722630934
 40
0.6661525936997951
 40
1.0
 40
1.0
 40
1.0
 40
1.0
 10
-43.31703936479776
 20
-12.6322836909103
 30
0.0
 10
-43.42062347043075
 20
-12.23099382919472
 30
0.0
 10
-43.6279500507552
 20
-11.42780057633078
 30
0.0
 10
-43.93036815450105
 20
-10.22064333823539
 30
0.0
 10
-44.12627949318552
 20
-9.414338438007999
 30
0.0
 10
-44.22431102264597
 20
-9.010873773269756
 30
0.0
  0
SPLINE
  5
2D3
330
1F
100
AcDbEntity
  8
0
  6
Continuous
 62
     7
370
    15
100
AcDbSpline
210
0.0
220
0.0
230
1.0
 70
     8
 71
     3
 72
    16
 73
    12
 74
     0
 42
0.00000001
 43
0.00000001
 12
1.0
 22
0.0
 32
0.0
 13
1.0
 23
0.0
 33
0.0
 40
0.0
 40
0.0
 40
0.0
 40
0.0
 40
0.250000000000002
 40
0.250000000000002
 40
0.500000000000004
 40
0.500000000000004
 40
0.6250000000000024
 40
0.6250000000000024
 40
0.7500000000000009
 40
0.7500000000000009
 40
1.0
 40
1.0
 40
1.0
 40
1.0
 10
-44.22431102264596
 20
-9.01087377326977
 30
0.0
 10
-44.13154941137574
 20
-8.94929272911682
 30
0.0
 10
-44.04190662409357
 20
-8.85242670997738
 30
0.0
 10
-43.8688818173592
 20
-8.592292348172172
 30
0.0
 10
-43.78512856007035
 20
-8.426966062859323
 30
0.0
 10
-43.67147654368394
 20
-8.13980176344535
 30
0.0
 10
-43.63531377621539
 20
-8.037139394207262
 30
0.0
 10
-43.56666291389505
 20
-7.817417914157771
 30
0.0
 10
-43.5339709136896
 20
-7.699464531857103
 30
0.0
 10
-43.44391305605583
 20
-7.329864799834162
 30
0.0
 10
-43.39432852490395
 20
-7.06335441405416
 30
0.0
 10
-43.35641694020465
 20
-6.775140833767457
 30
0.0
  0
LINE
  5
2D4
330
1F
100
AcDbEntity
  8
0
  6
Continuous
 62
     7
370
    15
100
AcDbLine
 10
-43.1183225527
 20
-4.4894266949
 30
0.0
 11
-43.1183225527
 21
-6.7751409562
 31
0.0
  0
LINE
  5
2D5
330
1F
100
AcDbEntity
  8
0
  6
Continuous
 62
     7
370
    15
100
AcDbLine
 10
-50.264248909
 20
0.7962871267
 30
0.0
 11
203.7357591972
 21
0.7962871267
 31
0.0
  0
LINE
  5
2D6
330
1F
100
AcDbEntity
  8
0
  6
Continuous
 62
     7
370
    15
100
AcDbLine
 10
-11.6525909915
 20
60.7962913735
 30
0.0
 11
201.7357551441
 21
60.7962913735
 31
0.0
  0
LINE
  5
2D7
330
1F
100
AcDbEntity
  8
0
  6
Continuous
 62
     7
370
    15
100
AcDbLine
 10
-48.2642448559
 20
60.7962913735
 30
0.0
 11
-11.6525909915
 21
60.7962913735
 31
0.0
  0
LINE
  5
2D8
330
1F
100
AcDbEntity
  8
0
  6
Continuous
 62
     7
370
    15
100
AcDbLine
 10
-11.6525909915
 20
82.7962912543
 30
0.0
 11
201.7357551441
 21
82.7962912543
 31
0.0
  0
LINE
  5
2D9
330
1F
100
AcDbEntity
  8
0
  6
Continuous
 62
     7
370
    15
100
AcDbLine
 10
-48.2642448559
 20
82.7962912543
 30
0.0
 11
-11.6525909915
 21
82.7962912543
 31
0.0
  0
LINE
  5
2DA
330
1F
100
AcDbEntity
  8
0
  6
Continuous
 62
     7
370
    15
100
AcDbLine
 10
51.5539941326
 20
183.796294771
 30
0.0
 11
21.5539948031
 21
183.796294771
 31
0.0
  0
LINE
  5
2DB
330
1F
100
AcDbEntity
  8
0
  6
Continuous
 62
     7
370
    15
100
AcDbLine
 10
21.5539948031
 20
-20.2037123573
 30
0.0
 11
51.5539941326
 21
-20.2037123573
 31
0.0
  0
LINE
  5
2DC
330
1F
100
AcDbEntity
  8
0
  6
Continuous
 62
     7
370
    15
100
AcDbLine
 10
131.917515485
 20
183.796294771
 30
0.0
 11
101.9175161555
 21
183.796294771
 31
0.0
  0
LINE
  5
2DD
330
1F
100
AcDbEntity
  8
0
  6
Continuous
 62
     7
370
    15
100
AcDbLine
 10
101.9175161555
 20
-20.2037123573
 30
0.0
 11
131.917515485
 21
-20.2037123573
 31
0.0
  0
SPLINE
  5
2DE
330
1F
100
AcDbEntity
  8
0
  6
Continuous
 62
     7
370
    15
100
AcDbSpline
210
0.0
220
0.0
230
1.0
 70
     8
 71
     3
 72
    12
 73
     8
 74
     0
 42
0.00000001
 43
0.00000001
 12
1.0
 22
0.0
 32
0.0
 13
1.0
 23
0.0
 33
0.0
 40
0.0
 40
0.0
 40
0.0
 40
0.0
 40
0.2499999999999997
 40
0.2499999999999997
 40
0.4999999999999993
 40
0.4999999999999993
 40
1.0
 40
1.0
 40
1.0
 40
1.0
 10
39.65982328696314
 20
-31.20371226233945
 30
0.0
 10
40.22776203924921
 20
-31.20371226233956
 30
0.0
 10
40.79824884471473
 20
-31.17837900904648
 30
0.0
 10
41.9267905778824
 20
-31.08034212196985
 30
0.0
 10
42.48728693284453
 20
-31.00773275304107
 30
0.0
 10
44.15882111909603
 20
-30.72768605410724
 30
0.0
 10
45.25994280629605
 20
-30.45827222520152
 30
0.0
 10
46.35195371686664
 20
-30.13191549261575
 30
0.0
  0
SPLINE
  5
2DF
330
1F
100
AcDbEntity
  8
0
  6
Continuous
 62
     7
370
    15
100
AcDbSpline
210
0.0
220
0.0
230
1.0
 70
     8
 71
     3
 72
    10
 73
     6
 74
     0
 42
0.00000001
 43
0.00000001
 12
1.0
 22
0.0
 32
0.0
 13
1.0
 23
0.0
 33
0.0
 40
0.0
 40
0.0
 40
0.0
 40
0.0
 40
0.5
 40
0.5
 40
1.0
 40
1.0
 40
1.0
 40
1.0
 10
32.96769285705977
 20
-30.13191549261382
 30
0.0
 10
34.06243759835996
 20
-30.45908925372556
 30
0.0
 10
35.16517877630365
 20
-30.72863179764409
 30
0.0
 10
37.39371510606954
 20
-31.10156430590288
 30
0.0
 10
38.51968258875679
 20
-31.20371226233924
 30
0.0
 10
39.65982328696314
 20
-31.20371226233945
 30
0.0
  0
LINE
  5
2E0
330
1F
100
AcDbEntity
  8
0
  6
Continuous
 62
     7
370
    15
100
AcDbLine
 10
32.9676919565
 20
-30.131915778
 30
0.0
 11
32.9676919565
 21
-20.2037123573
 31
0.0
  0
LINE
  5
2E1
330
1F
100
AcDbEntity
  8
0
  6
Continuous
 62
     7
370
    15
100
AcDbLine
 10
46.3519540563
 20
-30.131915778
 30
0.0
 11
46.3519540563
 21
-20.2037123573
 31
0.0
  0
LINE
  5
2E2
330
1F
100
AcDbEntity
  8
0
  6
Continuous
 62
     7
370
    15
100
AcDbLine
 10
28.0687116966
 20
-31.2037125306
 30
0.0
 11
39.6598220751
 21
-31.2037125306
 31
0.0
  0
SPLINE
  5
2E3
330
1F
100
AcDbEntity
  8
0
  6
Continuous
 62
     7
370
    15
100
AcDbSpline
210
0.0
220
0.0
230
1.0
 70
     8
 71
     3
 72
    10
 73
     6
 74
     0
 42
0.00000001
 43
0.00000001
 12
1.0
 22
0.0
 32
0.0
 13
1.0
 23
0.0
 33
0.0
 40
0.0
 40
0.0
 40
0.0
 40
0.0
 40
0.5
 40
0.5
 40
1.0
 40
1.0
 40
1.0
 40
1.0
 10
32.96769285706027
 20
-30.13191549261393
 30
0.0
 10
32.17091353345801
 20
-30.45719928935131
 30
0.0
 10
31.35485519792287
 20
-30.73002624655014
 30
0.0
 10
29.71904386497883
 20
-31.10307920909247
 30
0.0
 10
28.89656033753426
 20
-31.20371226233727
 30
0.0
 10
28.06871337149391
 20
-31.20371226233706
 30
0.0
  0
SPLINE
  5
2E4
330
1F
100
AcDbEntity
  8
0
  6
Continuous
 62
     7
370
    15
100
AcDbSpline
210
0.0
220
0.0
230
1.0
 70
     8
 71
     3
 72
    12
 73
     8
 74
     0
 42
0.00000001
 43
0.00000001
 12
1.0
 22
0.0
 32
0.0
 13
1.0
 23
0.0
 33
0.0
 40
0.0
 40
0.0
 40
0.0
 40
0.0
 40
0.2500000000000001
 40
0.2500000000000001
 40
0.5000000000000002
 40
0.5000000000000002
 40
1.0
 40
1.0
 40
1.0
 40
1.0
 10
39.65982328696736
 20
194.796287737663
 30
0.0
 10
39.09188453468142
 20
194.796287737663
 30
0.0
 10
38.52139772921594
 20
194.7709544843699
 30
0.0
 10
37.39285599604855
 20
194.6729175972931
 30
0.0
 10
36.83235964108658
 20
194.6003082283643
 30
0.0
 10
35.16082545483548
 20
194.3202615294304
 30
0.0
 10
34.05970376763571
 20
194.0508477005246
 30
0.0
 10
32.96769285706537
 20
193.7244909679389
 30
0.0
  0
SPLINE
  5
2E5
330
1F
100
AcDbEntity
  8
0
  6
Continuous
 62
     7
370
    15
100
AcDbSpline
210
0.0
220
0.0
230
1.0
 70
     8
 71
     3
 72
    10
 73
     6
 74
     0
 42
0.00000001
 43
0.00000001
 12
1.0
 22
0.0
 32
0.0
 13
1.0
 23
0.0
 33
0.0
 40
0.0
 40
0.0
 40
0.0
 40
0.0
 40
0.5
 40
0.5
 40
1.0
 40
1.0
 40
1.0
 40
1.0
 10
46.35195371687055
 20
193.7244909679382
 30
0.0
 10
45.25720897557042
 20
194.0516647290498
 30
0.0
 10
44.15446779762674
 20
194.3212072729682
 30
0.0
 10
41.92593146786091
 20
194.6941397812267
 30
0.0
 10
40.79996398517368
 20
194.7962877376629
 30
0.0
 10
39.65982328696736
 20
194.796287737663
 30
0.0
  0
LINE
  5
2E6
330
1F
100
AcDbEntity
  8
0
  6
Continuous
 62
     7
370
    15
100
AcDbLine
 10
46.3519540563
 20
193.7244914396
 30
0.0
 11
46.3519540563
 21
183.796294771
 31
0.0
  0
LINE
  5
2E7
330
1F
100
AcDbEntity
  8
0
  6
Continuous
 62
     7
370
    15
100
AcDbLine
 10
32.9676919565
 20
193.7244914396
 30
0.0
 11
32.9676919565
 21
183.796294771
 31
0.0
  0
SPLINE
  5
2E8
330
1F
100
AcDbEntity
  8
0
  6
Continuous
 62
     7
370
    15
100
AcDbSpline
210
0.0
220
0.0
230
1.0
 70
     8
 71
     3
 72
    10
 73
     6
 74
     0
 42
0.00000001
 43
0.00000001
 12
1.0
 22
0.0
 32
0.0
 13
1.0
 23
0.0
 33
0.0
 40
0.0
 40
0.0
 40
0.0
 40
0.0
 40
0.5
 40
0.5
 40
1.0
 40
1.0
 40
1.0
 40
1.0
 10
32.96769285706627
 20
193.7244909679381
 30
0.0
 10
32.17091353346411
 20
194.0497747646756
 30
0.0
 10
31.35485519792872
 20
194.3226017218749
 30
0.0
 10
29.71904386498486
 20
194.6956546844176
 30
0.0
 10
28.89656033754036
 20
194.7962877376627
 30
0.0
 10
28.06871337150011
 20
194.7962877376627
 30
0.0
  0
LINE
  5
2E9
330
1F
100
AcDbEntity
  8
0
  6
Continuous
 62
     7
370
    15
100
AcDbLine
 10
39.6598220751
 20
194.7962872608
 30
0.0
 11
28.0687116966
 21
194.7962872608
 31
0.0
  0
SPLINE
  5
2EA
330
1F
100
AcDbEntity
  8
0
  6
Continuous
 62
     7
370
    15
100
AcDbSpline
210
0.0
220
0.0
230
1.0
 70
     8
 71
     3
 72
    12
 73
     8
 74
     0
 42
0.00000001
 43
0.00000001
 12
1.0
 22
0.0
 32
0.0
 13
1.0
 23
0.0
 33
0.0
 40
0.0
 40
0.0
 40
0.0
 40
0.0
 40
0.2500000000000001
 40
0.2500000000000001
 40
0.5000000000000001
 40
0.5000000000000001
 40
1.0
 40
1.0
 40
1.0
 40
1.0
 10
28.06871337149391
 20
-31.20371226233706
 30
0.0
 10
27.65454396193502
 20
-31.20371226233695
 30
0.0
 10
27.23904791534019
 20
-31.1788208548768
 30
0.0
 10
26.40543679168935
 20
-31.07989773059296
 30
0.0
 10
25.99167943956189
 20
-31.0063772134028
 30
0.0
 10
24.76439983092876
 20
-30.72462256524917
 30
0.0
 10
23.96187155662889
 20
-30.45530434248765
 30
0.0
 10
23.16973388592761
 20
-30.13191549261175
 30
0.0
  0
LINE
  5
2EB
330
1F
100
AcDbEntity
  8
0
  6
Continuous
 62
     7
370
    15
100
AcDbLine
 10
23.169735162
 20
-30.131915778
 30
0.0
 11
23.169735162
 21
-20.2037123573
 31
0.0
  0
SPLINE
  5
2EC
330
1F
100
AcDbEntity
  8
0
  6
Continuous
 62
     7
370
    15
100
AcDbSpline
210
0.0
220
0.0
230
1.0
 70
     8
 71
     3
 72
    12
 73
     8
 74
     0
 42
0.00000001
 43
0.00000001
 12
1.0
 22
0.0
 32
0.0
 13
1.0
 23
0.0
 33
0.0
 40
0.0
 40
0.0
 40
0.0
 40
0.0
 40
0.2499999999999984
 40
0.2499999999999984
 40
0.4999999999999969
 40
0.4999999999999969
 40
1.0
 40
1.0
 40
1.0
 40
1.0
 10
28.06871337150011
 20
194.7962877376627
 30
0.0
 10
27.6545439619411
 20
194.7962877376628
 30
0.0
 10
27.23904791534617
 20
194.7713963302027
 30
0.0
 10
26.40543679169511
 20
194.672473205919
 30
0.0
 10
25.99167943956688
 20
194.5989526887288
 30
0.0
 10
24.76439983093345
 20
194.3171980405752
 30
0.0
 10
23.96187155663338
 20
194.0478798178135
 30
0.0
 10
23.16973388593188
 20
193.7244909679375
 30
0.0
  0
LINE
  5
2ED
330
1F
100
AcDbEntity
  8
0
  6
Continuous
 62
     7
370
    15
100
AcDbLine
 10
23.169735162
 20
193.7244914396
 30
0.0
 11
23.169735162
 21
183.796294771
 31
0.0
  0
LINE
  5
2EE
330
1F
100
AcDbEntity
  8
0
  6
Continuous
 62
     7
370
    15
100
AcDbLine
 10
48.145103915
 20
194.7962872608
 30
0.0
 11
39.6598220751
 21
194.7962872608
 31
0.0
  0
SPLINE
  5
2EF
330
1F
100
AcDbEntity
  8
0
  6
Continuous
 62
     7
370
    15
100
AcDbSpline
210
0.0
220
0.0
230
1.0
 70
     8
 71
     3
 72
    12
 73
     8
 74
     0
 42
0.00000001
 43
0.00000001
 12
1.0
 22
0.0
 32
0.0
 13
1.0
 23
0.0
 33
0.0
 40
0.0
 40
0.0
 40
0.0
 40
0.0
 40
0.2500000000000011
 40
0.2500000000000011
 40
0.5000000000000021
 40
0.5000000000000021
 40
1.0
 40
1.0
 40
1.0
 40
1.0
 10
48.14510466120486
 20
194.7962877376626
 30
0.0
 10
47.99292593117947
 20
194.7962877376627
 30
0.0
 10
47.84006445236238
 20
194.7709544843696
 30
0.0
 10
47.53767260633529
 20
194.672917597293
 30
0.0
 10
47.38748806066262
 20
194.6003082283642
 30
0.0
 10
46.93960182533552
 20
194.3202615294304
 30
0.0
 10
46.64455715848189
 20
194.0508477005247
 30
0.0
 10
46.35195371686854
 20
193.7244909679389
 30
0.0
  0
SPLINE
  5
2F0
330
1F
100
AcDbEntity
  8
0
  6
Continuous
 62
     7
370
    15
100
AcDbSpline
210
0.0
220
0.0
230
1.0
 70
     8
 71
     3
 72
    10
 73
     6
 74
     0
 42
0.00000001
 43
0.00000001
 12
1.0
 22
0.0
 32
0.0
 13
1.0
 23
0.0
 33
0.0
 40
0.0
 40
0.0
 40
0.0
 40
0.0
 40
0.5
 40
0.5
 40
1.0
 40
1.0
 40
1.0
 40
1.0
 10
46.3519537168668
 20
-30.131915492615
 30
0.0
 10
46.64528968621638
 20
-30.45908925372666
 30
0.0
 10
46.94076829430693
 20
-30.72863179764505
 30
0.0
 10
47.53790280417108
 20
-31.10156430590358
 30
0.0
 10
47.83960488186082
 20
-31.2037122623398
 30
0.0
 10
48.14510466120304
 20
-31.20371226233984
 30
0.0
  0
LINE
  5
2F1
330
1F
100
AcDbEntity
  8
0
  6
Continuous
 62
     7
370
    15
100
AcDbLine
 10
39.6598220751
 20
-31.2037125306
 30
0.0
 11
48.145103915
 21
-31.2037125306
 31
0.0
  0
SPLINE
  5
2F2
330
1F
100
AcDbEntity
  8
0
  6
Continuous
 62
     7
370
    15
100
AcDbSpline
210
0.0
220
0.0
230
1.0
 70
     8
 71
     3
 72
    12
 73
     8
 74
     0
 42
0.00000001
 43
0.00000001
 12
1.0
 22
0.0
 32
0.0
 13
1.0
 23
0.0
 33
0.0
 40
0.0
 40
0.0
 40
0.0
 40
0.0
 40
0.2500000000000004
 40
0.2500000000000004
 40
0.5000000000000008
 40
0.5000000000000008
 40
1.0
 40
1.0
 40
1.0
 40
1.0
 10
106.5252106969905
 20
-31.20371226233974
 30
0.0
 10
106.8191974280773
 20
-31.20371226233973
 30
0.0
 10
107.1145031285456
 20
-31.17837900904653
 30
0.0
 10
107.6986793160191
 20
-31.0803421219697
 30
0.0
 10
107.9888135787685
 20
-31.00773275304085
 30
0.0
 10
108.854063342652
 20
-30.7276860541068
 30
0.0
 10
109.4240458698974
 20
-30.458272225201
 30
0.0
 10
109.9893123121281
 20
-30.13191549261519
 30
0.0
  0
SPLINE
  5
2F3
330
1F
100
AcDbEntity
  8
0
  6
Continuous
 62
     7
370
    15
100
AcDbSpline
210
0.0
220
0.0
230
1.0
 70
     8
 71
     3
 72
    10
 73
     6
 74
     0
 42
0.00000001
 43
0.00000001
 12
1.0
 22
0.0
 32
0.0
 13
1.0
 23
0.0
 33
0.0
 40
0.0
 40
0.0
 40
0.0
 40
0.0
 40
0.5
 40
0.5
 40
1.0
 40
1.0
 40
1.0
 40
1.0
 10
103.0611090818504
 20
-30.13191549261415
 30
0.0
 10
103.6277906589993
 20
-30.45908925372609
 30
0.0
 10
104.1986114963409
 20
-30.72863179764472
 30
0.0
 10
105.3521867860341
 20
-31.10156430590351
 30
0.0
 10
105.9350304434056
 20
-31.20371226233977
 30
0.0
 10
106.5252106969905
 20
-31.20371226233974
 30
0.0
  0
LINE
  5
2F4
330
1F
100
AcDbEntity
  8
0
  6
Continuous
 62
     7
370
    15
100
AcDbLine
 10
103.0611094967
 20
-30.131915778
 30
0.0
 11
103.0611094967
 21
-20.2037123573
 31
0.0
  0
LINE
  5
2F5
330
1F
100
AcDbEntity
  8
0
  6
Continuous
 62
     7
370
    15
100
AcDbLine
 10
109.9893131241
 20
-30.131915778
 30
0.0
 11
109.9893131241
 21
-20.2037123573
 31
0.0
  0
SPLINE
  5
2F6
330
1F
100
AcDbEntity
  8
0
  6
Continuous
 62
     7
370
    15
100
AcDbSpline
210
0.0
220
0.0
230
1.0
 70
     8
 71
     3
 72
    10
 73
     6
 74
     0
 42
0.00000001
 43
0.00000001
 12
1.0
 22
0.0
 32
0.0
 13
1.0
 23
0.0
 33
0.0
 40
0.0
 40
0.0
 40
0.0
 40
0.0
 40
0.5
 40
0.5
 40
1.0
 40
1.0
 40
1.0
 40
1.0
 10
123.8457187726733
 20
-30.13191549261393
 30
0.0
 10
122.7189026470165
 20
-30.45719928935131
 30
0.0
 10
121.5648218812152
 20
-30.73002624655014
 30
0.0
 10
119.2514353086821
 20
-31.10307920909247
 30
0.0
 10
118.0882679493415
 20
-31.20371226233727
 30
0.0
 10
116.9175155423979
 20
-31.20371226233706
 30
0.0
  0
SPLINE
  5
2F7
330
1F
100
AcDbEntity
  8
0
  6
Continuous
 62
     7
370
    15
100
AcDbSpline
210
0.0
220
0.0
230
1.0
 70
     8
 71
     3
 72
    12
 73
     8
 74
     0
 42
0.00000001
 43
0.00000001
 12
1.0
 22
0.0
 32
0.0
 13
1.0
 23
0.0
 33
0.0
 40
0.0
 40
0.0
 40
0.0
 40
0.0
 40
0.2500000000000001
 40
0.2500000000000001
 40
0.5000000000000001
 40
0.5000000000000001
 40
1.0
 40
1.0
 40
1.0
 40
1.0
 10
116.9175155423979
 20
-31.20371226233706
 30
0.0
 10
116.3317915462796
 20
-31.20371226233695
 30
0.0
 10
115.7441914020728
 20
-31.1788208548768
 30
0.0
 10
114.5652872452608
 20
-31.07989773059296
 30
0.0
 10
113.9801459863505
 20
-31.0063772134028
 30
0.0
 10
112.2445105189977
 20
-30.72462256524919
 30
0.0
 10
111.1095641492949
 20
-30.45530434248765
 30
0.0
 10
109.9893123121225
 20
-30.13191549261175
 30
0.0
  0
LINE
  5
2F8
330
1F
100
AcDbEntity
  8
0
  6
Continuous
 62
     7
370
    15
100
AcDbLine
 10
123.8457203791
 20
-30.131915778
 30
0.0
 11
123.8457203791
 21
-20.2037123573
 31
0.0
  0
SPLINE
  5
2F9
330
1F
100
AcDbEntity
  8
0
  6
Continuous
 62
     7
370
    15
100
AcDbSpline
210
0.0
220
0.0
230
1.0
 70
     8
 71
     3
 72
    12
 73
     8
 74
     0
 42
0.00000001
 43
0.00000001
 12
1.0
 22
0.0
 32
0.0
 13
1.0
 23
0.0
 33
0.0
 40
0.0
 40
0.0
 40
0.0
 40
0.0
 40
0.2500000000000012
 40
0.2500000000000012
 40
0.5000000000000024
 40
0.5000000000000024
 40
1.0
 40
1.0
 40
1.0
 40
1.0
 10
127.3098203878116
 20
-31.20371226233945
 30
0.0
 10
127.6038071188984
 20
-31.20371226233956
 30
0.0
 10
127.8991128193667
 20
-31.17837900904648
 30
0.0
 10
128.4832890068403
 20
-31.08034212196984
 30
0.0
 10
128.7734232695898
 20
-31.00773275304107
 30
0.0
 10
129.6386730334735
 20
-30.72768605410724
 30
0.0
 10
130.2086555607191
 20
-30.45827222520152
 30
0.0
 10
130.7739220029499
 20
-30.13191549261575
 30
0.0
  0
SPLINE
  5
2FA
330
1F
100
AcDbEntity
  8
0
  6
Continuous
 62
     7
370
    15
100
AcDbSpline
210
0.0
220
0.0
230
1.0
 70
     8
 71
     3
 72
    10
 73
     6
 74
     0
 42
0.00000001
 43
0.00000001
 12
1.0
 22
0.0
 32
0.0
 13
1.0
 23
0.0
 33
0.0
 40
0.0
 40
0.0
 40
0.0
 40
0.0
 40
0.5
 40
0.5
 40
1.0
 40
1.0
 40
1.0
 40
1.0
 10
123.8457187726734
 20
-30.13191549261382
 30
0.0
 10
124.412400349822
 20
-30.45908925372556
 30
0.0
 10
124.9832211871632
 20
-30.72863179764409
 30
0.0
 10
126.1367964768558
 20
-31.10156430590288
 30
0.0
 10
126.719640134227
 20
-31.20371226233924
 30
0.0
 10
127.3098203878116
 20
-31.20371226233945
 30
0.0
  0
LINE
  5
2FB
330
1F
100
AcDbEntity
  8
0
  6
Continuous
 62
     7
370
    15
100
AcDbLine
 10
130.7739221439
 20
-30.131915778
 30
0.0
 11
130.7739221439
 21
-20.2037123573
 31
0.0
  0
LINE
  5
2FC
330
1F
100
AcDbEntity
  8
0
  6
Continuous
 62
     7
370
    15
100
AcDbLine
 10
116.9175148889
 20
-31.2037125306
 30
0.0
 11
127.3098193988
 21
-31.2037125306
 31
0.0
  0
LINE
  5
2FD
330
1F
100
AcDbEntity
  8
0
  6
Continuous
 62
     7
370
    15
100
AcDbLine
 10
106.5252103791
 20
-31.2037125306
 30
0.0
 11
116.9175148889
 21
-31.2037125306
 31
0.0
  0
SPLINE
  5
2FE
330
1F
100
AcDbEntity
  8
0
  6
Continuous
 62
     7
370
    15
100
AcDbSpline
210
0.0
220
0.0
230
1.0
 70
     8
 71
     3
 72
    12
 73
     8
 74
     0
 42
0.00000001
 43
0.00000001
 12
1.0
 22
0.0
 32
0.0
 13
1.0
 23
0.0
 33
0.0
 40
0.0
 40
0.0
 40
0.0
 40
0.0
 40
0.2499999999999992
 40
0.2499999999999992
 40
0.4999999999999984
 40
0.4999999999999984
 40
1.0
 40
1.0
 40
1.0
 40
1.0
 10
127.3098203878133
 20
194.796287737663
 30
0.0
 10
127.0158336567265
 20
194.7962877376631
 30
0.0
 10
126.7205279562582
 20
194.7709544843699
 30
0.0
 10
126.1363517687847
 20
194.672917597293
 30
0.0
 10
125.8462175060353
 20
194.6003082283643
 30
0.0
 10
124.9809677421519
 20
194.3202615294304
 30
0.0
 10
124.4109852149065
 20
194.0508477005247
 30
0.0
 10
123.8457187726758
 20
193.7244909679389
 30
0.0
  0
SPLINE
  5
2FF
330
1F
100
AcDbEntity
  8
0
  6
Continuous
 62
     7
370
    15
100
AcDbSpline
210
0.0
220
0.0
230
1.0
 70
     8
 71
     3
 72
    10
 73
     6
 74
     0
 42
0.00000001
 43
0.00000001
 12
1.0
 22
0.0
 32
0.0
 13
1.0
 23
0.0
 33
0.0
 40
0.0
 40
0.0
 40
0.0
 40
0.0
 40
0.5
 40
0.5
 40
1.0
 40
1.0
 40
1.0
 40
1.0
 10
123.8457187726774
 20
193.7244909679381
 30
0.0
 10
122.7189026470208
 20
194.0497747646756
 30
0.0
 10
121.5648218812191
 20
194.3226017218749
 30
0.0
 10
119.2514353086863
 20
194.6956546844176
 30
0.0
 10
118.0882679493458
 20
194.7962877376626
 30
0.0
 10
116.9175155424023
 20
194.7962877376627
 30
0.0
  0
LINE
  5
300
330
1F
100
AcDbEntity
  8
0
  6
Continuous
 62
     7
370
    15
100
AcDbLine
 10
127.3098193988
 20
194.7962872608
 30
0.0
 11
116.9175148889
 21
194.7962872608
 31
0.0
  0
SPLINE
  5
301
330
1F
100
AcDbEntity
  8
0
  6
Continuous
 62
     7
370
    15
100
AcDbSpline
210
0.0
220
0.0
230
1.0
 70
     8
 71
     3
 72
    12
 73
     8
 74
     0
 42
0.00000001
 43
0.00000001
 12
1.0
 22
0.0
 32
0.0
 13
1.0
 23
0.0
 33
0.0
 40
0.0
 40
0.0
 40
0.0
 40
0.0
 40
0.25
 40
0.25
 40
0.5
 40
0.5
 40
1.0
 40
1.0
 40
1.0
 40
1.0
 10
116.9175155424023
 20
194.7962877376627
 30
0.0
 10
116.3317915462839
 20
194.7962877376627
 30
0.0
 10
115.744191402077
 20
194.7713963302026
 30
0.0
 10
114.5652872452646
 20
194.672473205919
 30
0.0
 10
113.9801459863533
 20
194.5989526887287
 30
0.0
 10
112.2445105189999
 20
194.3171980405752
 30
0.0
 10
111.1095641492969
 20
194.0478798178135
 30
0.0
 10
109.9893123121242
 20
193.7244909679375
 30
0.0
  0
SPLINE
  5
302
330
1F
100
AcDbEntity
  8
0
  6
Continuous
 62
     7
370
    15
100
AcDbSpline
210
0.0
220
0.0
230
1.0
 70
     8
 71
     3
 72
    10
 73
     6
 74
     0
 42
0.00000001
 43
0.00000001
 12
1.0
 22
0.0
 32
0.0
 13
1.0
 23
0.0
 33
0.0
 40
0.0
 40
0.0
 40
0.0
 40
0.0
 40
0.5
 40
0.5
 40
1.0
 40
1.0
 40
1.0
 40
1.0
 10
109.9893123121244
 20
193.7244909679372
 30
0.0
 10
109.4226307349759
 20
194.0516647290486
 30
0.0
 10
108.8518098976349
 20
194.3212072729668
 30
0.0
 10
107.6982346079426
 20
194.6941397812248
 30
0.0
 10
107.1153909505716
 20
194.7962877376609
 30
0.0
 10
106.5252106969873
 20
194.7962877376609
 30
0.0
  0
LINE
  5
303
330
1F
100
AcDbEntity
  8
0
  6
Continuous
 62
     7
370
    15
100
AcDbLine
 10
116.9175148889
 20
194.7962872608
 30
0.0
 11
106.5252103791
 21
194.7962872608
 31
0.0
  0
LINE
  5
304
330
1F
100
AcDbEntity
  8
0
  6
Continuous
 62
     7
370
    15
100
AcDbLine
 10
123.8457203791
 20
193.7244914396
 30
0.0
 11
123.8457203791
 21
183.796294771
 31
0.0
  0
LINE
  5
305
330
1F
100
AcDbEntity
  8
0
  6
Continuous
 62
     7
370
    15
100
AcDbLine
 10
109.9893131241
 20
193.7244914396
 30
0.0
 11
109.9893131241
 21
183.796294771
 31
0.0
  0
SPLINE
  5
306
330
1F
100
AcDbEntity
  8
0
  6
Continuous
 62
     7
370
    15
100
AcDbSpline
210
0.0
220
0.0
230
1.0
 70
     8
 71
     3
 72
    12
 73
     8
 74
     0
 42
0.00000001
 43
0.00000001
 12
1.0
 22
0.0
 32
0.0
 13
1.0
 23
0.0
 33
0.0
 40
0.0
 40
0.0
 40
0.0
 40
0.0
 40
0.2500000000000002
 40
0.2500000000000002
 40
0.5000000000000003
 40
0.5000000000000003
 40
1.0
 40
1.0
 40
1.0
 40
1.0
 10
106.5252106969873
 20
194.7962877376609
 30
0.0
 10
106.2312239659007
 20
194.7962877376608
 30
0.0
 10
105.9359182654328
 20
194.7709544843677
 30
0.0
 10
105.3517420779596
 20
194.6729175972911
 30
0.0
 10
105.0616078152103
 20
194.6003082283624
 30
0.0
 10
104.1963580513272
 20
194.3202615294288
 30
0.0
 10
103.626375524082
 20
194.0508477005232
 30
0.0
 10
103.0611090818516
 20
193.7244909679378
 30
0.0
  0
LINE
  5
307
330
1F
100
AcDbEntity
  8
0
  6
Continuous
 62
     7
370
    15
100
AcDbLine
 10
103.0611094967
 20
193.7244914396
 30
0.0
 11
103.0611094967
 21
183.796294771
 31
0.0
  0
SPLINE
  5
308
330
1F
100
AcDbEntity
  8
0
  6
Continuous
 62
     7
370
    15
100
AcDbSpline
210
0.0
220
0.0
230
1.0
 70
     8
 71
     3
 72
    10
 73
     6
 74
     0
 42
0.00000001
 43
0.00000001
 12
1.0
 22
0.0
 32
0.0
 13
1.0
 23
0.0
 33
0.0
 40
0.0
 40
0.0
 40
0.0
 40
0.0
 40
0.5
 40
0.5
 40
1.0
 40
1.0
 40
1.0
 40
1.0
 10
130.7739220029514
 20
193.7244909679381
 30
0.0
 10
130.2072404258028
 20
194.0516647290498
 30
0.0
 10
129.6364195884616
 20
194.3212072729682
 30
0.0
 10
128.482844298769
 20
194.6941397812267
 30
0.0
 10
127.9000006413978
 20
194.7962877376629
 30
0.0
 10
127.3098203878133
 20
194.796287737663
 30
0.0
  0
LINE
  5
309
330
1F
100
AcDbEntity
  8
0
  6
Continuous
 62
     7
370
    15
100
AcDbLine
 10
130.7739221439
 20
193.7244914396
 30
0.0
 11
130.7739221439
 21
183.796294771
 31
0.0
  0
SPLINE
  5
30A
330
1F
100
AcDbEntity
  8
0
  6
Continuous
 62
     7
370
    15
100
AcDbSpline
210
0.0
220
0.0
230
1.0
 70
     8
 71
     3
 72
    12
 73
     8
 74
     0
 42
0.00000001
 43
0.00000001
 12
1.0
 22
0.0
 32
0.0
 13
1.0
 23
0.0
 33
0.0
 40
0.0
 40
0.0
 40
0.0
 40
0.0
 40
0.25
 40
0.25
 40
0.5
 40
0.5
 40
1.0
 40
1.0
 40
1.0
 40
1.0
 10
48.14510466120304
 20
-31.20371226233984
 30
0.0
 10
48.2972833912284
 20
-31.20371226233987
 30
0.0
 10
48.45014487004547
 20
-31.17837900904671
 30
0.0
 10
48.75253671607248
 20
-31.08034212196996
 30
0.0
 10
48.90272126174512
 20
-31.00773275304114
 30
0.0
 10
49.3506074970721
 20
-30.72768605410721
 30
0.0
 10
49.64565216392565
 20
-30.45827222520148
 30
0.0
 10
49.93825560553895
 20
-30.13191549261574
 30
0.0
  0
LINE
  5
30B
330
1F
100
AcDbEntity
  8
0
  6
Continuous
 62
     7
370
    15
100
AcDbLine
 10
49.9382556364
 20
-30.131915778
 30
0.0
 11
49.9382556364
 21
-20.2037123573
 31
0.0
  0
SPLINE
  5
30C
330
1F
100
AcDbEntity
  8
0
  6
Continuous
 62
     7
370
    15
100
AcDbSpline
210
0.0
220
0.0
230
1.0
 70
     8
 71
     3
 72
    10
 73
     6
 74
     0
 42
0.00000001
 43
0.00000001
 12
1.0
 22
0.0
 32
0.0
 13
1.0
 23
0.0
 33
0.0
 40
0.0
 40
0.0
 40
0.0
 40
0.0
 40
0.5
 40
0.5
 40
1.0
 40
1.0
 40
1.0
 40
1.0
 10
49.93825560554114
 20
193.724490967937
 30
0.0
 10
49.64491963619155
 20
194.0516647290487
 30
0.0
 10
49.349441028101
 20
194.3212072729672
 30
0.0
 10
48.75230651823684
 20
194.6941397812261
 30
0.0
 10
48.4506044405471
 20
194.7962877376624
 30
0.0
 10
48.14510466120486
 20
194.7962877376626
 30
0.0
  0
LINE
  5
30D
330
1F
100
AcDbEntity
  8
0
  6
Continuous
 62
     7
370
    15
100
AcDbLine
 10
49.9382556364
 20
193.7244914396
 30
0.0
 11
49.9382556364
 21
183.796294771
 31
0.0
  0
SPLINE
  5
30E
330
1F
100
AcDbEntity
  8
0
  6
Continuous
 62
     7
370
    15
100
AcDbSpline
210
0.0
220
0.0
230
1.0
 70
     8
 71
     3
 72
    11
 73
     7
 74
     0
 42
0.00000001
 43
0.00000001
 12
1.0
 22
0.0
 32
0.0
 13
1.0
 23
0.0
 33
0.0
 40
0.0
 40
0.0
 40
0.0
 40
0.0
 40
0.3051754574068093
 40
0.6104370785197314
 40
0.9155387664126662
 40
0.9999999999999999
 40
0.9999999999999999
 40
0.9999999999999999
 40
0.9999999999999999
 10
23.16973516196774
 20
193.7244914396345
 30
0.0
 10
23.26625213971646
 20
193.8286386132431
 30
0.0
 10
23.45931334596522
 20
194.0369623655329
 30
0.0
 10
23.75249562532417
 20
194.2937351262395
 30
0.0
 10
23.97636665027191
 20
194.4668838769424
 30
0.0
 10
24.10317335153614
 20
194.5317500017219
 30
0.0
 10
24.1306663438754
 20
194.545813642317
 30
0.0
  0
LINE
  5
30F
330
1F
100
AcDbEntity
  8
0
  6
Continuous
 62
     7
370
    15
100
AcDbLine
 10
28.0687116966
 20
194.7962872608
 30
0.0
 11
24.5539934322
 21
194.7962872608
 31
0.0
  0
SPLINE
  5
310
330
1F
100
AcDbEntity
  8
0
  6
Continuous
 62
     7
370
    15
100
AcDbSpline
210
0.0
220
0.0
230
1.0
 70
     8
 71
     3
 72
    11
 73
     7
 74
     0
 42
0.00000001
 43
0.00000001
 12
1.0
 22
0.0
 32
0.0
 13
1.0
 23
0.0
 33
0.0
 40
0.0
 40
0.0
 40
0.0
 40
0.0
 40
0.1328511788189549
 40
0.4218365596817911
 40
0.7109549207590069
 40
0.9999999999999999
 40
0.9999999999999999
 40
0.9999999999999999
 40
0.9999999999999999
 10
24.13067751974629
 20
-30.9530135319889
 30
0.0
 10
24.08748546899395
 20
-30.92944270834413
 30
0.0
 10
23.95033963214897
 20
-30.85459929902275
 30
0.0
 10
23.72140179714197
 20
-30.67590246040715
 30
0.0
 10
23.44397007380148
 20
-30.42816546459983
 30
0.0
 10
23.26113907467597
 20
-30.23065732888905
 30
0.0
 10
23.16973516196774
 20
-30.13191577804688
 30
0.0
  0
LINE
  5
311
330
1F
100
AcDbEntity
  8
0
  6
Continuous
 62
     7
370
    15
100
AcDbLine
 10
24.5539934322
 20
-31.2037125306
 30
0.0
 11
28.0687116966
 21
-31.2037125306
 31
0.0
  0
LINE
  5
312
330
1F
100
AcDbEntity
  8
0
  6
Continuous
 62
     7
370
    15
100
AcDbLine
 10
42.8851225361
 20
246.7962734325
 30
0.0
 11
28.5539940879
 21
246.7962734325
 31
0.0
  0
LINE
  5
313
330
1F
100
AcDbEntity
  8
0
  6
Continuous
 62
     7
370
    15
100
AcDbLine
 10
44.5539929852
 20
246.7962734325
 30
0.0
 11
42.8851225361
 21
246.7962734325
 31
0.0
  0
LINE
  5
314
330
1F
100
AcDbEntity
  8
0
  6
Continuous
 62
     7
370
    15
100
AcDbLine
 10
42.8851225361
 20
-83.2037098782
 30
0.0
 11
28.5539940879
 21
-83.2037098782
 31
0.0
  0
LINE
  5
315
330
1F
100
AcDbEntity
  8
0
  6
Continuous
 62
     7
370
    15
100
AcDbLine
 10
44.5539929852
 20
-83.2037098782
 30
0.0
 11
42.8851225361
 21
-83.2037098782
 31
0.0
  0
LINE
  5
316
330
1F
100
AcDbEntity
  8
0
  6
Continuous
 62
     7
370
    15
100
AcDbLine
 10
124.9175162003
 20
246.7962734325
 30
0.0
 11
108.9175173029
 21
246.7962734325
 31
0.0
  0
LINE
  5
317
330
1F
100
AcDbEntity
  8
0
  6
Continuous
 62
     7
370
    15
100
AcDbLine
 10
124.9175162003
 20
-83.2037098782
 30
0.0
 11
108.9175173029
 21
-83.2037098782
 31
0.0
  0
LINE
  5
318
330
1F
100
AcDbEntity
  8
0
  6
Continuous
 62
     7
370
    15
100
AcDbLine
 10
127.3098193988
 20
-31.2037125306
 30
0.0
 11
128.9175168559
 21
-31.2037125306
 31
0.0
  0
LINE
  5
319
330
1F
100
AcDbEntity
  8
0
  6
Continuous
 62
     7
370
    15
100
AcDbLine
 10
104.9175147846
 20
-31.2037125306
 30
0.0
 11
106.5252103791
 21
-31.2037125306
 31
0.0
  0
LINE
  5
31A
330
1F
100
AcDbEntity
  8
0
  6
Continuous
 62
     7
370
    15
100
AcDbLine
 10
106.5252103791
 20
194.7962872608
 30
0.0
 11
104.9175147846
 21
194.7962872608
 31
0.0
  0
LINE
  5
31B
330
1F
100
AcDbEntity
  8
0
  6
Continuous
 62
     7
370
    15
100
AcDbLine
 10
128.9175168559
 20
194.7962872608
 30
0.0
 11
127.3098193988
 21
194.7962872608
 31
0.0
  0
LINE
  5
31C
330
1F
100
AcDbEntity
  8
0
  6
Continuous
 62
     7
370
    15
100
AcDbLine
 10
48.145103915
 20
-31.2037125306
 30
0.0
 11
48.5539955035
 21
-31.2037125306
 31
0.0
  0
LINE
  5
31D
330
1F
100
AcDbEntity
  8
0
  6
Continuous
 62
     7
370
    15
100
AcDbLine
 10
48.5539955035
 20
194.7962872608
 30
0.0
 11
48.145103915
 21
194.7962872608
 31
0.0
  0
LINE
  5
31E
330
1F
100
AcDbEntity
  8
0
  6
Continuous
 62
     7
370
    15
100
AcDbLine
 10
-6.7040867224
 20
99.9283574446
 30
0.0
 11
28.5539940879
 21
99.9283574446
 31
0.0
  0
LINE
  5
31F
330
1F
100
AcDbEntity
  8
0
  6
Continuous
 62
     7
370
    15
100
AcDbLine
 10
44.5539929852
 20
99.9283574446
 30
0.0
 11
108.9175173029
 21
99.9283574446
 31
0.0
  0
LINE
  5
320
330
1F
100
AcDbEntity
  8
0
  6
Continuous
 62
     7
370
    15
100
AcDbLine
 10
124.9175162003
 20
99.9283574446
 30
0.0
 11
160.1755970106
 21
99.9283574446
 31
0.0
  0
LINE
  5
321
330
1F
100
AcDbEntity
  8
0
  6
Continuous
 62
     7
370
    15
100
AcDbLine
 10
0.657429634
 20
113.3634082897
 30
0.0
 11
28.5539940879
 21
113.3634082897
 31
0.0
  0
LINE
  5
322
330
1F
100
AcDbEntity
  8
0
  6
Continuous
 62
     7
370
    15
100
AcDbLine
 10
44.5539929852
 20
113.3634082897
 30
0.0
 11
108.9175173029
 21
113.3634082897
 31
0.0
  0
LINE
  5
323
330
1F
100
AcDbEntity
  8
0
  6
Continuous
 62
     7
370
    15
100
AcDbLine
 10
124.9175162003
 20
113.3634082897
 30
0.0
 11
152.8140806541
 21
113.3634082897
 31
0.0
  0
LINE
  5
324
330
1F
100
AcDbEntity
  8
0
  6
Continuous
 62
     7
370
    15
100
AcDbLine
 10
-5.2715933934
 20
183.796294771
 30
0.0
 11
-35.2715945855
 21
183.796294771
 31
0.0
  0
LINE
  5
325
330
1F
100
AcDbEntity
  8
0
  6
Continuous
 62
     7
370
    15
100
AcDbLine
 10
-35.2715945855
 20
-20.2037123573
 30
0.0
 11
-5.2715933934
 21
-20.2037123573
 31
0.0
  0
LINE
  5
326
330
1F
100
AcDbEntity
  8
0
  6
Continuous
 62
     7
370
    15
100
AcDbLine
 10
163.1365024433
 20
183.796294771
 30
0.0
 11
158.7431036815
 21
183.796294771
 31
0.0
  0
LINE
  5
327
330
1F
100
AcDbEntity
  8
0
  6
Continuous
 62
     7
370
    15
100
AcDbLine
 10
188.7431048736
 20
183.796294771
 30
0.0
 11
163.1365024433
 21
183.796294771
 31
0.0
  0
LINE
  5
328
330
1F
100
AcDbEntity
  8
0
  6
Continuous
 62
     7
370
    15
100
AcDbLine
 10
163.1365024433
 20
-20.2037123573
 30
0.0
 11
188.7431048736
 21
-20.2037123573
 31
0.0
  0
LINE
  5
329
330
1F
100
AcDbEntity
  8
0
  6
Continuous
 62
     7
370
    15
100
AcDbLine
 10
158.7431036815
 20
-20.2037123573
 30
0.0
 11
163.1365024433
 21
-20.2037123573
 31
0.0
  0
SPLINE
  5
32A
330
1F
100
AcDbEntity
  8
0
  6
Continuous
 62
     7
370
    15
100
AcDbSpline
210
0.0
220
0.0
230
1.0
 70
     8
 71
     3
 72
    12
 73
     8
 74
     0
 42
0.00000001
 43
0.00000001
 12
1.0
 22
0.0
 32
0.0
 13
1.0
 23
0.0
 33
0.0
 40
0.0
 40
0.0
 40
0.0
 40
0.0
 40
0.2499999999999986
 40
0.2499999999999986
 40
0.4999999999999971
 40
0.4999999999999971
 40
1.0
 40
1.0
 40
1.0
 40
1.0
 10
170.637277516519
 20
194.7962877376609
 30
0.0
 10
170.0693387642333
 20
194.7962877376609
 30
0.0
 10
169.4988519587686
 20
194.7709544843678
 30
0.0
 10
168.3703102256017
 20
194.6729175972911
 30
0.0
 10
167.80981387064
 20
194.6003082283624
 30
0.0
 10
166.1382796843896
 20
194.3202615294288
 30
0.0
 10
165.0371579971904
 20
194.0508477005232
 30
0.0
 10
163.9451470866205
 20
193.7244909679378
 30
0.0
  0
SPLINE
  5
32B
330
1F
100
AcDbEntity
  8
0
  6
Continuous
 62
     7
370
    15
100
AcDbSpline
210
0.0
220
0.0
230
1.0
 70
     8
 71
     3
 72
    10
 73
     6
 74
     0
 42
0.00000001
 43
0.00000001
 12
1.0
 22
0.0
 32
0.0
 13
1.0
 23
0.0
 33
0.0
 40
0.0
 40
0.0
 40
0.0
 40
0.0
 40
0.5
 40
0.5
 40
1.0
 40
1.0
 40
1.0
 40
1.0
 10
177.3294079464202
 20
193.7244909679372
 30
0.0
 10
176.2346632051203
 20
194.0516647290486
 30
0.0
 10
175.131922027177
 20
194.3212072729668
 30
0.0
 10
172.9033856974118
 20
194.6941397812248
 30
0.0
 10
171.777418214725
 20
194.7962877376609
 30
0.0
 10
170.637277516519
 20
194.7962877376609
 30
0.0
  0
LINE
  5
32C
330
1F
100
AcDbEntity
  8
0
  6
Continuous
 62
     7
370
    15
100
AcDbLine
 10
177.3294114456
 20
193.7244914396
 30
0.0
 11
177.3294114456
 21
183.796294771
 31
0.0
  0
LINE
  5
32D
330
1F
100
AcDbEntity
  8
0
  6
Continuous
 62
     7
370
    15
100
AcDbLine
 10
163.9451437578
 20
193.7244914396
 30
0.0
 11
163.9451437578
 21
183.796294771
 31
0.0
  0
SPLINE
  5
32E
330
1F
100
AcDbEntity
  8
0
  6
Continuous
 62
     7
370
    15
100
AcDbSpline
210
0.0
220
0.0
230
1.0
 70
     8
 71
     3
 72
    12
 73
     8
 74
     0
 42
0.00000001
 43
0.00000001
 12
1.0
 22
0.0
 32
0.0
 13
1.0
 23
0.0
 33
0.0
 40
0.0
 40
0.0
 40
0.0
 40
0.0
 40
0.25
 40
0.25
 40
0.5
 40
0.5
 40
1.0
 40
1.0
 40
1.0
 40
1.0
 10
182.2283874319873
 20
194.7962877376627
 30
0.0
 10
181.8142180224283
 20
194.7962877376627
 30
0.0
 10
181.3987219758334
 20
194.7713963302027
 30
0.0
 10
180.5651108521824
 20
194.672473205919
 30
0.0
 10
180.1513535000541
 20
194.5989526887287
 30
0.0
 10
178.9240738914207
 20
194.3171980405752
 30
0.0
 10
178.1215456171207
 20
194.0478798178135
 30
0.0
 10
177.3294079464192
 20
193.7244909679375
 30
0.0
  0
LINE
  5
32F
330
1F
100
AcDbEntity
  8
0
  6
Continuous
 62
     7
370
    15
100
AcDbLine
 10
182.2283842549
 20
194.7962872608
 30
0.0
 11
170.6372776017
 21
194.7962872608
 31
0.0
  0
SPLINE
  5
330
330
1F
100
AcDbEntity
  8
0
  6
Continuous
 62
     7
370
    15
100
AcDbSpline
210
0.0
220
0.0
230
1.0
 70
     8
 71
     3
 72
    12
 73
     8
 74
     0
 42
0.00000001
 43
0.00000001
 12
1.0
 22
0.0
 32
0.0
 13
1.0
 23
0.0
 33
0.0
 40
0.0
 40
0.0
 40
0.0
 40
0.0
 40
0.25
 40
0.25
 40
0.5
 40
0.5
 40
1.0
 40
1.0
 40
1.0
 40
1.0
 10
170.6372775165205
 20
-31.20371226233974
 30
0.0
 10
171.2052162688064
 20
-31.20371226233973
 30
0.0
 10
171.7757030742719
 20
-31.17837900904653
 30
0.0
 10
172.9042448074393
 20
-31.0803421219697
 30
0.0
 10
173.4647411624013
 20
-31.00773275304085
 30
0.0
 10
175.1362753486525
 20
-30.7276860541068
 30
0.0
 10
176.2373970358523
 20
-30.458272225201
 30
0.0
 10
177.3294079464227
 20
-30.13191549261519
 30
0.0
  0
SPLINE
  5
331
330
1F
100
AcDbEntity
  8
0
  6
Continuous
 62
     7
370
    15
100
AcDbSpline
210
0.0
220
0.0
230
1.0
 70
     8
 71
     3
 72
    10
 73
     6
 74
     0
 42
0.00000001
 43
0.00000001
 12
1.0
 22
0.0
 32
0.0
 13
1.0
 23
0.0
 33
0.0
 40
0.0
 40
0.0
 40
0.0
 40
0.0
 40
0.5
 40
0.5
 40
1.0
 40
1.0
 40
1.0
 40
1.0
 10
163.9451470866134
 20
-30.13191549261415
 30
0.0
 10
165.0398918279142
 20
-30.45908925372609
 30
0.0
 10
166.1426330058585
 20
-30.72863179764472
 30
0.0
 10
168.3711693356256
 20
-31.10156430590351
 30
0.0
 10
169.4971368183135
 20
-31.20371226233977
 30
0.0
 10
170.6372775165205
 20
-31.20371226233974
 30
0.0
  0
LINE
  5
332
330
1F
100
AcDbEntity
  8
0
  6
Continuous
 62
     7
370
    15
100
AcDbLine
 10
163.9451437578
 20
-30.131915778
 30
0.0
 11
163.9451437578
 21
-20.2037123573
 31
0.0
  0
LINE
  5
333
330
1F
100
AcDbEntity
  8
0
  6
Continuous
 62
     7
370
    15
100
AcDbLine
 10
177.3294114456
 20
-30.131915778
 30
0.0
 11
177.3294114456
 21
-20.2037123573
 31
0.0
  0
SPLINE
  5
334
330
1F
100
AcDbEntity
  8
0
  6
Continuous
 62
     7
370
    15
100
AcDbSpline
210
0.0
220
0.0
230
1.0
 70
     8
 71
     3
 72
    12
 73
     8
 74
     0
 42
0.00000001
 43
0.00000001
 12
1.0
 22
0.0
 32
0.0
 13
1.0
 23
0.0
 33
0.0
 40
0.0
 40
0.0
 40
0.0
 40
0.0
 40
0.2500000000000005
 40
0.2500000000000005
 40
0.500000000000001
 40
0.500000000000001
 40
1.0
 40
1.0
 40
1.0
 40
1.0
 10
182.2283874319873
 20
-31.20371226233706
 30
0.0
 10
181.8142180224284
 20
-31.20371226233695
 30
0.0
 10
181.3987219758336
 20
-31.1788208548768
 30
0.0
 10
180.5651108521828
 20
-31.07989773059296
 30
0.0
 10
180.1513535000553
 20
-31.0063772134028
 30
0.0
 10
178.9240738914222
 20
-30.72462256524919
 30
0.0
 10
178.1215456171223
 20
-30.45530434248765
 30
0.0
 10
177.3294079464211
 20
-30.13191549261175
 30
0.0
  0
LINE
  5
335
330
1F
100
AcDbEntity
  8
0
  6
Continuous
 62
     7
370
    15
100
AcDbLine
 10
170.6372776017
 20
-31.2037125306
 30
0.0
 11
182.2283842549
 21
-31.2037125306
 31
0.0
  0
SPLINE
  5
336
330
1F
100
AcDbEntity
  8
0
  6
Continuous
 62
     7
370
    15
100
AcDbSpline
210
0.0
220
0.0
230
1.0
 70
     8
 71
     3
 72
    12
 73
     8
 74
     0
 42
0.00000001
 43
0.00000001
 12
1.0
 22
0.0
 32
0.0
 13
1.0
 23
0.0
 33
0.0
 40
0.0
 40
0.0
 40
0.0
 40
0.0
 40
0.2499999999999983
 40
0.2499999999999983
 40
0.4999999999999966
 40
0.4999999999999966
 40
1.0
 40
1.0
 40
1.0
 40
1.0
 10
-14.27159576961112
 20
194.7962877376626
 30
0.0
 10
-14.78079572460454
 20
194.7962877376627
 30
0.0
 10
-15.29228020158044
 20
194.7709544843697
 30
0.0
 10
-16.30410303885657
 20
194.672917597293
 30
0.0
 10
-16.80663032295525
 20
194.6003082283642
 30
0.0
 10
-18.30528687523872
 20
194.3202615294303
 30
0.0
 10
-19.29252557185454
 20
194.0508477005246
 30
0.0
 10
-20.27159576961204
 20
193.7244909679389
 30
0.0
  0
SPLINE
  5
337
330
1F
100
AcDbEntity
  8
0
  6
Continuous
 62
     7
370
    15
100
AcDbSpline
210
0.0
220
0.0
230
1.0
 70
     8
 71
     3
 72
    10
 73
     6
 74
     0
 42
0.00000001
 43
0.00000001
 12
1.0
 22
0.0
 32
0.0
 13
1.0
 23
0.0
 33
0.0
 40
0.0
 40
0.0
 40
0.0
 40
0.0
 40
0.5
 40
0.5
 40
1.0
 40
1.0
 40
1.0
 40
1.0
 10
-8.271595769610313
 20
193.724490967937
 30
0.0
 10
-9.253117052945015
 20
194.0516647290487
 30
0.0
 10
-10.24180774523904
 20
194.3212072729672
 30
0.0
 10
-12.23985875734257
 20
194.6941397812261
 30
0.0
 10
-13.24937358477878
 20
194.7962877376624
 30
0.0
 10
-14.27159576961112
 20
194.7962877376626
 30
0.0
  0
LINE
  5
338
330
1F
100
AcDbEntity
  8
0
  6
Continuous
 62
     7
370
    15
100
AcDbLine
 10
-8.2715994731
 20
193.7244914396
 30
0.0
 11
-8.2715994731
 21
183.796294771
 31
0.0
  0
LINE
  5
339
330
1F
100
AcDbEntity
  8
0
  6
Continuous
 62
     7
370
    15
100
AcDbLine
 10
-20.2715939894
 20
193.7244914396
 30
0.0
 11
-20.2715939894
 21
183.796294771
 31
0.0
  0
SPLINE
  5
33A
330
1F
100
AcDbEntity
  8
0
  6
Continuous
 62
     7
370
    15
100
AcDbSpline
210
0.0
220
0.0
230
1.0
 70
     8
 71
     3
 72
    10
 73
     6
 74
     0
 42
0.00000001
 43
0.00000001
 12
1.0
 22
0.0
 32
0.0
 13
1.0
 23
0.0
 33
0.0
 40
0.0
 40
0.0
 40
0.0
 40
0.0
 40
0.5
 40
0.5
 40
1.0
 40
1.0
 40
1.0
 40
1.0
 10
-20.27159576961073
 20
193.7244909679381
 30
0.0
 10
-21.25311705294541
 20
194.0516647290498
 30
0.0
 10
-22.24180774523941
 20
194.3212072729682
 30
0.0
 10
-24.23985875734292
 20
194.6941397812267
 30
0.0
 10
-25.24937358477908
 20
194.7962877376629
 30
0.0
 10
-26.27159576961145
 20
194.796287737663
 30
0.0
  0
LINE
  5
33B
330
1F
100
AcDbEntity
  8
0
  6
Continuous
 62
     7
370
    15
100
AcDbLine
 10
-14.2715967312
 20
194.7962872608
 30
0.0
 11
-26.2715986982
 21
194.7962872608
 31
0.0
  0
SPLINE
  5
33C
330
1F
100
AcDbEntity
  8
0
  6
Continuous
 62
     7
370
    15
100
AcDbSpline
210
0.0
220
0.0
230
1.0
 70
     8
 71
     3
 72
    12
 73
     8
 74
     0
 42
0.00000001
 43
0.00000001
 12
1.0
 22
0.0
 32
0.0
 13
1.0
 23
0.0
 33
0.0
 40
0.0
 40
0.0
 40
0.0
 40
0.0
 40
0.2500000000000001
 40
0.2500000000000001
 40
0.5000000000000002
 40
0.5000000000000002
 40
1.0
 40
1.0
 40
1.0
 40
1.0
 10
-26.27159576961145
 20
194.796287737663
 30
0.0
 10
-26.78079572460478
 20
194.796287737663
 30
0.0
 10
-27.29228020158062
 20
194.7709544843699
 30
0.0
 10
-28.30410303885652
 20
194.6729175972931
 30
0.0
 10
-28.80663032295507
 20
194.6003082283643
 30
0.0
 10
-30.30528687523819
 20
194.3202615294304
 30
0.0
 10
-31.29252557185377
 20
194.0508477005246
 30
0.0
 10
-32.27159576961108
 20
193.7244909679389
 30
0.0
  0
LINE
  5
33D
330
1F
100
AcDbEntity
  8
0
  6
Continuous
 62
     7
370
    15
100
AcDbLine
 10
-32.2715959564
 20
193.7244914396
 30
0.0
 11
-32.2715959564
 21
183.796294771
 31
0.0
  0
SPLINE
  5
33E
330
1F
100
AcDbEntity
  8
0
  6
Continuous
 62
     7
370
    15
100
AcDbSpline
210
0.0
220
0.0
230
1.0
 70
     8
 71
     3
 72
    12
 73
     8
 74
     0
 42
0.00000001
 43
0.00000001
 12
1.0
 22
0.0
 32
0.0
 13
1.0
 23
0.0
 33
0.0
 40
0.0
 40
0.0
 40
0.0
 40
0.0
 40
0.2499999999999991
 40
0.2499999999999991
 40
0.4999999999999982
 40
0.4999999999999982
 40
1.0
 40
1.0
 40
1.0
 40
1.0
 10
-26.27159576961573
 20
-31.20371226233945
 30
0.0
 10
-25.76239581462232
 20
-31.20371226233956
 30
0.0
 10
-25.2509113376464
 20
-31.17837900904648
 30
0.0
 10
-24.23908850037024
 20
-31.08034212196984
 30
0.0
 10
-23.73656121627159
 20
-31.00773275304107
 30
0.0
 10
-22.23790466398813
 20
-30.72768605410724
 30
0.0
 10
-21.25066596737221
 20
-30.4582722252015
 30
0.0
 10
-20.27159576961474
 20
-30.13191549261575
 30
0.0
  0
SPLINE
  5
33F
330
1F
100
AcDbEntity
  8
0
  6
Continuous
 62
     7
370
    15
100
AcDbSpline
210
0.0
220
0.0
230
1.0
 70
     8
 71
     3
 72
    10
 73
     6
 74
     0
 42
0.00000001
 43
0.00000001
 12
1.0
 22
0.0
 32
0.0
 13
1.0
 23
0.0
 33
0.0
 40
0.0
 40
0.0
 40
0.0
 40
0.0
 40
0.5
 40
0.5
 40
1.0
 40
1.0
 40
1.0
 40
1.0
 10
-32.27159576961661
 20
-30.13191549261381
 30
0.0
 10
-31.29007448628189
 20
-30.45908925372556
 30
0.0
 10
-30.30138379398785
 20
-30.72863179764409
 30
0.0
 10
-28.30333278188428
 20
-31.10156430590288
 30
0.0
 10
-27.29381795444812
 20
-31.20371226233924
 30
0.0
 10
-26.27159576961573
 20
-31.20371226233945
 30
0.0
  0
LINE
  5
340
330
1F
100
AcDbEntity
  8
0
  6
Continuous
 62
     7
370
    15
100
AcDbLine
 10
-32.2715959564
 20
-30.131915778
 30
0.0
 11
-32.2715959564
 21
-20.2037123573
 31
0.0
  0
LINE
  5
341
330
1F
100
AcDbEntity
  8
0
  6
Continuous
 62
     7
370
    15
100
AcDbLine
 10
-20.2715939894
 20
-30.131915778
 30
0.0
 11
-20.2715939894
 21
-20.2037123573
 31
0.0
  0
SPLINE
  5
342
330
1F
100
AcDbEntity
  8
0
  6
Continuous
 62
     7
370
    15
100
AcDbSpline
210
0.0
220
0.0
230
1.0
 70
     8
 71
     3
 72
    12
 73
     8
 74
     0
 42
0.00000001
 43
0.00000001
 12
1.0
 22
0.0
 32
0.0
 13
1.0
 23
0.0
 33
0.0
 40
0.0
 40
0.0
 40
0.0
 40
0.0
 40
0.2499999999999988
 40
0.2499999999999988
 40
0.4999999999999976
 40
0.4999999999999976
 40
1.0
 40
1.0
 40
1.0
 40
1.0
 10
-14.27159576961538
 20
-31.20371226233984
 30
0.0
 10
-13.76239581462209
 20
-31.20371226233987
 30
0.0
 10
-13.25091133764625
 20
-31.17837900904671
 30
0.0
 10
-12.23908850037035
 20
-31.08034212196996
 30
0.0
 10
-11.73656121627181
 20
-31.00773275304114
 30
0.0
 10
-10.23790466398873
 20
-30.72768605410722
 30
0.0
 10
-9.250665967373076
 20
-30.45827222520148
 30
0.0
 10
-8.271595769615836
 20
-30.13191549261574
 30
0.0
  0
SPLINE
  5
343
330
1F
100
AcDbEntity
  8
0
  6
Continuous
 62
     7
370
    15
100
AcDbSpline
210
0.0
220
0.0
230
1.0
 70
     8
 71
     3
 72
    10
 73
     6
 74
     0
 42
0.00000001
 43
0.00000001
 12
1.0
 22
0.0
 32
0.0
 13
1.0
 23
0.0
 33
0.0
 40
0.0
 40
0.0
 40
0.0
 40
0.0
 40
0.5
 40
0.5
 40
1.0
 40
1.0
 40
1.0
 40
1.0
 10
-20.27159576961606
 20
-30.131915492615
 30
0.0
 10
-19.29007448628138
 20
-30.45908925372666
 30
0.0
 10
-18.30138379398738
 20
-30.72863179764505
 30
0.0
 10
-16.3033327818839
 20
-31.10156430590358
 30
0.0
 10
-15.29381795444773
 20
-31.2037122623398
 30
0.0
 10
-14.27159576961538
 20
-31.20371226233984
 30
0.0
  0
LINE
  5
344
330
1F
100
AcDbEntity
  8
0
  6
Continuous
 62
     7
370
    15
100
AcDbLine
 10
-8.2715994731
 20
-30.131915778
 30
0.0
 11
-8.2715994731
 21
-20.2037123573
 31
0.0
  0
LINE
  5
345
330
1F
100
AcDbEntity
  8
0
  6
Continuous
 62
     7
370
    15
100
AcDbLine
 10
-26.2715986982
 20
-31.2037125306
 30
0.0
 11
-14.2715967312
 21
-31.2037125306
 31
0.0
  0
SPLINE
  5
346
330
1F
100
AcDbEntity
  8
0
  6
Continuous
 62
     7
370
    15
100
AcDbSpline
210
0.0
220
0.0
230
1.0
 70
     8
 71
     3
 72
    10
 73
     6
 74
     0
 42
0.00000001
 43
0.00000001
 12
1.0
 22
0.0
 32
0.0
 13
1.0
 23
0.0
 33
0.0
 40
0.0
 40
0.0
 40
0.0
 40
0.0
 40
0.5
 40
0.5
 40
1.0
 40
1.0
 40
1.0
 40
1.0
 10
187.1273669175536
 20
-30.13191549261393
 30
0.0
 10
186.3305875939513
 20
-30.45719928935131
 30
0.0
 10
185.5145292584162
 20
-30.73002624655014
 30
0.0
 10
183.8787179254722
 20
-31.10307920909247
 30
0.0
 10
183.0562343980276
 20
-31.20371226233727
 30
0.0
 10
182.2283874319873
 20
-31.20371226233706
 30
0.0
  0
LINE
  5
347
330
1F
100
AcDbEntity
  8
0
  6
Continuous
 62
     7
370
    15
100
AcDbLine
 10
187.1273645148
 20
-30.131915778
 30
0.0
 11
187.1273645148
 21
-20.2037123573
 31
0.0
  0
SPLINE
  5
348
330
1F
100
AcDbEntity
  8
0
  6
Continuous
 62
     7
370
    15
100
AcDbSpline
210
0.0
220
0.0
230
1.0
 70
     8
 71
     3
 72
    10
 73
     6
 74
     0
 42
0.00000001
 43
0.00000001
 12
1.0
 22
0.0
 32
0.0
 13
1.0
 23
0.0
 33
0.0
 40
0.0
 40
0.0
 40
0.0
 40
0.0
 40
0.5
 40
0.5
 40
1.0
 40
1.0
 40
1.0
 40
1.0
 10
187.1273669175534
 20
193.7244909679381
 30
0.0
 10
186.3305875939513
 20
194.0497747646756
 30
0.0
 10
185.5145292584159
 20
194.3226017218749
 30
0.0
 10
183.878717925472
 20
194.6956546844176
 30
0.0
 10
183.0562343980276
 20
194.7962877376627
 30
0.0
 10
182.2283874319873
 20
194.7962877376627
 30
0.0
  0
LINE
  5
349
330
1F
100
AcDbEntity
  8
0
  6
Continuous
 62
     7
370
    15
100
AcDbLine
 10
187.1273645148
 20
193.7244914396
 30
0.0
 11
187.1273645148
 21
183.796294771
 31
0.0
  0
SPLINE
  5
34A
330
1F
100
AcDbEntity
  8
0
  6
Continuous
 62
     7
370
    15
100
AcDbSpline
210
0.0
220
0.0
230
1.0
 70
     8
 71
     3
 72
    12
 73
     8
 74
     0
 42
0.00000001
 43
0.00000001
 12
1.0
 22
0.0
 32
0.0
 13
1.0
 23
0.0
 33
0.0
 40
0.0
 40
0.0
 40
0.0
 40
0.0
 40
0.2499999999999997
 40
0.2499999999999997
 40
0.4999999999999993
 40
0.4999999999999993
 40
1.0
 40
1.0
 40
1.0
 40
1.0
 10
162.1519961422797
 20
-31.20371226233777
 30
0.0
 10
162.304174872305
 20
-31.20371226233776
 30
0.0
 10
162.4570363511219
 20
-31.17837900904465
 30
0.0
 10
162.7594281971488
 20
-31.08034212196799
 30
0.0
 10
162.9096127428214
 20
-31.00773275303925
 30
0.0
 10
163.3574989781482
 20
-30.7276860541056
 30
0.0
 10
163.6525436450016
 20
-30.45827222520013
 30
0.0
 10
163.9451470866148
 20
-30.13191549261468
 30
0.0
  0
LINE
  5
34B
330
1F
100
AcDbEntity
  8
0
  6
Continuous
 62
     7
370
    15
100
AcDbLine
 10
162.1519976243
 20
-31.2037125306
 30
0.0
 11
170.6372776017
 21
-31.2037125306
 31
0.0
  0
SPLINE
  5
34C
330
1F
100
AcDbEntity
  8
0
  6
Continuous
 62
     7
370
    15
100
AcDbSpline
210
0.0
220
0.0
230
1.0
 70
     8
 71
     3
 72
    10
 73
     6
 74
     0
 42
0.00000001
 43
0.00000001
 12
1.0
 22
0.0
 32
0.0
 13
1.0
 23
0.0
 33
0.0
 40
0.0
 40
0.0
 40
0.0
 40
0.0
 40
0.5
 40
0.5
 40
1.0
 40
1.0
 40
1.0
 40
1.0
 10
163.9451470866202
 20
193.7244909679373
 30
0.0
 10
163.6518111172705
 20
194.0516647290492
 30
0.0
 10
163.3563325091797
 20
194.3212072729679
 30
0.0
 10
162.7591979993152
 20
194.6941397812266
 30
0.0
 10
162.4574959216253
 20
194.7962877376629
 30
0.0
 10
162.1519961422829
 20
194.7962877376629
 30
0.0
  0
LINE
  5
34D
330
1F
100
AcDbEntity
  8
0
  6
Continuous
 62
     7
370
    15
100
AcDbLine
 10
170.6372776017
 20
194.7962872608
 30
0.0
 11
162.1519976243
 21
194.7962872608
 31
0.0
  0
SPLINE
  5
34E
330
1F
100
AcDbEntity
  8
0
  6
Continuous
 62
     7
370
    15
100
AcDbSpline
210
0.0
220
0.0
230
1.0
 70
    24
 71
     3
 72
    10
 73
     6
 74
     0
 42
0.00000001
 43
0.00000001
 12
1.0
 22
0.0
 32
0.0
 13
1.0
 23
0.0
 33
0.0
 40
0.0
 40
0.0
 40
0.0
 40
0.0
 40
0.5
 40
0.5
 40
1.0
 40
1.0
 40
1.0
 40
1.0
 10
-32.27159576961152
 20
193.7244909679381
 30
0.0
 10
-32.27159576961153
 20
194.0497747646756
 30
0.0
 10
-32.27159576961157
 20
194.3226017218749
 30
0.0
 10
-32.27159576961154
 20
194.6956546844176
 30
0.0
 10
-32.27159576961158
 20
194.7962877376626
 30
0.0
 10
-32.27159576961158
 20
194.7962877376627
 30
0.0
  0
LINE
  5
34F
330
1F
100
AcDbEntity
  8
0
  6
Continuous
 62
     7
370
    15
100
AcDbLine
 10
-26.2715986982
 20
194.7962872608
 30
0.0
 11
-32.2715959564
 21
194.7962872608
 31
0.0
  0
SPLINE
  5
350
330
1F
100
AcDbEntity
  8
0
  6
Continuous
 62
     7
370
    15
100
AcDbSpline
210
0.0
220
0.0
230
1.0
 70
    24
 71
     3
 72
    10
 73
     6
 74
     0
 42
0.00000001
 43
0.00000001
 12
1.0
 22
0.0
 32
0.0
 13
1.0
 23
0.0
 33
0.0
 40
0.0
 40
0.0
 40
0.0
 40
0.0
 40
0.5
 40
0.5
 40
1.0
 40
1.0
 40
1.0
 40
1.0
 10
-8.271595769611048
 20
193.7244909679371
 30
0.0
 10
-8.271595769611034
 20
194.0497747646744
 30
0.0
 10
-8.271595769611077
 20
194.3226017218733
 30
0.0
 10
-8.271595769611077
 20
194.6956546844155
 30
0.0
 10
-8.271595769611103
 20
194.7962877376604
 30
0.0
 10
-8.271595769611118
 20
194.7962877376602
 30
0.0
  0
LINE
  5
351
330
1F
100
AcDbEntity
  8
0
  6
Continuous
 62
     7
370
    15
100
AcDbLine
 10
-8.2715994731
 20
194.7962872608
 30
0.0
 11
-14.2715967312
 21
194.7962872608
 31
0.0
  0
SPLINE
  5
352
330
1F
100
AcDbEntity
  8
0
  6
Continuous
 62
     7
370
    15
100
AcDbSpline
210
0.0
220
0.0
230
1.0
 70
    24
 71
     3
 72
    10
 73
     6
 74
     0
 42
0.00000001
 43
0.00000001
 12
1.0
 22
0.0
 32
0.0
 13
1.0
 23
0.0
 33
0.0
 40
0.0
 40
0.0
 40
0.0
 40
0.0
 40
0.5
 40
0.5
 40
1.0
 40
1.0
 40
1.0
 40
1.0
 10
-8.271595769615406
 20
-30.13191549261493
 30
0.0
 10
-8.271595769615406
 20
-30.45719928935251
 30
0.0
 10
-8.27159576961546
 20
-30.73002624655166
 30
0.0
 10
-8.271595769615448
 20
-31.10307920909447
 30
0.0
 10
-8.27159576961546
 20
-31.20371226233953
 30
0.0
 10
-8.271595769615475
 20
-31.20371226233958
 30
0.0
  0
LINE
  5
353
330
1F
100
AcDbEntity
  8
0
  6
Continuous
 62
     7
370
    15
100
AcDbLine
 10
-14.2715967312
 20
-31.2037125306
 30
0.0
 11
-8.2715994731
 21
-31.2037125306
 31
0.0
  0
SPLINE
  5
354
330
1F
100
AcDbEntity
  8
0
  6
Continuous
 62
     7
370
    15
100
AcDbSpline
210
0.0
220
0.0
230
1.0
 70
    24
 71
     3
 72
    10
 73
     6
 74
     0
 42
0.00000001
 43
0.00000001
 12
1.0
 22
0.0
 32
0.0
 13
1.0
 23
0.0
 33
0.0
 40
0.0
 40
0.0
 40
0.0
 40
0.0
 40
0.5
 40
0.5
 40
1.0
 40
1.0
 40
1.0
 40
1.0
 10
-32.27159576961587
 20
-30.13191549261393
 30
0.0
 10
-32.27159576961589
 20
-30.45719928935131
 30
0.0
 10
-32.2715957696159
 20
-30.73002624655014
 30
0.0
 10
-32.27159576961591
 20
-31.10307920909247
 30
0.0
 10
-32.27159576961593
 20
-31.20371226233727
 30
0.0
 10
-32.27159576961594
 20
-31.20371226233706
 30
0.0
  0
LINE
  5
355
330
1F
100
AcDbEntity
  8
0
  6
Continuous
 62
     7
370
    15
100
AcDbLine
 10
-32.2715959564
 20
-31.2037125306
 30
0.0
 11
-26.2715986982
 21
-31.2037125306
 31
0.0
  0
SPLINE
  5
356
330
1F
100
AcDbEntity
  8
0
  6
Continuous
 62
     7
370
    15
100
AcDbSpline
210
0.0
220
0.0
230
1.0
 70
     8
 71
     3
 72
    12
 73
     8
 74
     0
 42
0.00000001
 43
0.00000001
 12
1.0
 22
0.0
 32
0.0
 13
1.0
 23
0.0
 33
0.0
 40
0.0
 40
0.0
 40
0.0
 40
0.0
 40
0.2499999999999996
 40
0.2499999999999996
 40
0.4999999999999992
 40
0.4999999999999992
 40
1.0
 40
1.0
 40
1.0
 40
1.0
 10
162.1519961422829
 20
194.7962877376629
 30
0.0
 10
161.9998174122575
 20
194.7962877376628
 30
0.0
 10
161.8469559334405
 20
194.7709544843696
 30
0.0
 10
161.5445640874134
 20
194.6729175972929
 30
0.0
 10
161.3943795417407
 20
194.600308228364
 30
0.0
 10
160.9464933064137
 20
194.3202615294299
 30
0.0
 10
160.6514486395601
 20
194.0508477005241
 30
0.0
 10
160.3588451979468
 20
193.7244909679384
 30
0.0
  0
LINE
  5
357
330
1F
100
AcDbEntity
  8
0
  6
Continuous
 62
     7
370
    15
100
AcDbLine
 10
160.3588440403
 20
193.7244914396
 30
0.0
 11
160.3588440403
 21
183.796294771
 31
0.0
  0
SPLINE
  5
358
330
1F
100
AcDbEntity
  8
0
  6
Continuous
 62
     7
370
    15
100
AcDbSpline
210
0.0
220
0.0
230
1.0
 70
     8
 71
     3
 72
    10
 73
     6
 74
     0
 42
0.00000001
 43
0.00000001
 12
1.0
 22
0.0
 32
0.0
 13
1.0
 23
0.0
 33
0.0
 40
0.0
 40
0.0
 40
0.0
 40
0.0
 40
0.5
 40
0.5
 40
1.0
 40
1.0
 40
1.0
 40
1.0
 10
160.3588451979439
 20
-30.1319154926141
 30
0.0
 10
160.6521811672935
 20
-30.45908925372548
 30
0.0
 10
160.947659775384
 20
-30.72863179764361
 30
0.0
 10
161.5447942852479
 20
-31.10156430590172
 30
0.0
 10
161.8464963629376
 20
-31.20371226233777
 30
0.0
 10
162.1519961422797
 20
-31.20371226233777
 30
0.0
  0
LINE
  5
359
330
1F
100
AcDbEntity
  8
0
  6
Continuous
 62
     7
370
    15
100
AcDbLine
 10
160.3588440403
 20
-30.131915778
 30
0.0
 11
160.3588440403
 21
-20.2037123573
 31
0.0
  0
SPLINE
  5
35A
330
1F
100
AcDbEntity
  8
0
  6
Continuous
 62
     7
370
    15
100
AcDbSpline
210
0.0
220
0.0
230
1.0
 70
     8
 71
     3
 72
    11
 73
     7
 74
     0
 42
0.00000001
 43
0.00000001
 12
1.0
 22
0.0
 32
0.0
 13
1.0
 23
0.0
 33
0.0
 40
0.0
 40
0.0
 40
0.0
 40
0.0
 40
0.3051758569726388
 40
0.6104375385689759
 40
0.9155398764883682
 40
1.0
 40
1.0
 40
1.0
 40
1.0
 10
187.1273645147757
 20
-30.13191577804688
 30
0.0
 10
187.0308476246342
 20
-30.2360643067463
 30
0.0
 10
186.8377867009007
 20
-30.44439065384183
 30
0.0
 10
186.5446031375942
 20
-30.701148679355
 30
0.0
 10
186.3207348361685
 20
-30.87431879008227
 30
0.0
 10
186.1939263773785
 20
-30.93917253565809
 30
0.0
 10
186.1664333328681
 20
-30.95323332411651
 30
0.0
  0
LINE
  5
35B
330
1F
100
AcDbEntity
  8
0
  6
Continuous
 62
     7
370
    15
100
AcDbLine
 10
182.2283842549
 20
-31.2037125306
 30
0.0
 11
185.7431062445
 21
-31.2037125306
 31
0.0
  0
SPLINE
  5
35C
330
1F
100
AcDbEntity
  8
0
  6
Continuous
 62
     7
370
    15
100
AcDbSpline
210
0.0
220
0.0
230
1.0
 70
     8
 71
     3
 72
    11
 73
     7
 74
     0
 42
0.00000001
 43
0.00000001
 12
1.0
 22
0.0
 32
0.0
 13
1.0
 23
0.0
 33
0.0
 40
0.0
 40
0.0
 40
0.0
 40
0.0
 40
0.1328495724120808
 40
0.4218371537659604
 40
0.710955257916741
 40
0.9999999999999999
 40
0.9999999999999999
 40
0.9999999999999999
 40
0.9999999999999999
 10
186.1664258822875
 20
194.5455901248991
 30
0.0
 10
186.2096180625801
 20
194.5220189626878
 30
0.0
 10
186.3467661622601
 20
194.4471734679101
 30
0.0
 10
186.5757009338277
 20
194.2684891220044
 30
0.0
 10
186.8531285982418
 20
194.0207385960516
 30
0.0
 10
187.0359602756612
 20
193.8232321380244
 30
0.0
 10
187.1273645147757
 20
193.7244914396345
 30
0.0
  0
LINE
  5
35D
330
1F
100
AcDbEntity
  8
0
  6
Continuous
 62
     7
370
    15
100
AcDbLine
 10
185.7431062445
 20
194.7962872608
 30
0.0
 11
182.2283842549
 21
194.7962872608
 31
0.0
  0
LINE
  5
35E
330
1F
100
AcDbEntity
  8
0
  6
Continuous
 62
     7
370
    15
100
AcDbLine
 10
-19.2529059067
 20
246.7962734325
 30
0.0
 11
-28.2715953007
 21
246.7962734325
 31
0.0
  0
LINE
  5
35F
330
1F
100
AcDbEntity
  8
0
  6
Continuous
 62
     7
370
    15
100
AcDbLine
 10
-12.2715926781
 20
246.7962734325
 30
0.0
 11
-19.2529059067
 21
246.7962734325
 31
0.0
  0
LINE
  5
360
330
1F
100
AcDbEntity
  8
0
  6
Continuous
 62
     7
370
    15
100
AcDbLine
 10
-19.2529059067
 20
-83.2037098782
 30
0.0
 11
-28.2715953007
 21
-83.2037098782
 31
0.0
  0
LINE
  5
361
330
1F
100
AcDbEntity
  8
0
  6
Continuous
 62
     7
370
    15
100
AcDbLine
 10
-12.2715926781
 20
-83.2037098782
 30
0.0
 11
-19.2529059067
 21
-83.2037098782
 31
0.0
  0
LINE
  5
362
330
1F
100
AcDbEntity
  8
0
  6
Continuous
 62
     7
370
    15
100
AcDbLine
 10
181.7431055889
 20
246.7962734325
 30
0.0
 11
165.7431029663
 21
246.7962734325
 31
0.0
  0
LINE
  5
363
330
1F
100
AcDbEntity
  8
0
  6
Continuous
 62
     7
370
    15
100
AcDbLine
 10
181.7431055889
 20
-83.2037098782
 30
0.0
 11
165.7431029663
 21
-83.2037098782
 31
0.0
  0
LINE
  5
364
330
1F
100
AcDbEntity
  8
0
  6
Continuous
 62
     7
370
    15
100
AcDbLine
 10
162.1519976243
 20
194.7962872608
 30
0.0
 11
161.7431097612
 21
194.7962872608
 31
0.0
  0
LINE
  5
365
330
1F
100
AcDbEntity
  8
0
  6
Continuous
 62
     7
370
    15
100
AcDbLine
 10
161.7431097612
 20
-31.2037125306
 30
0.0
 11
162.1519976243
 21
-31.2037125306
 31
0.0
  0
LINE
  5
366
330
1F
100
AcDbEntity
  8
0
  6
Continuous
 62
     7
370
    15
100
AcDbLine
 10
-46.8796885624
 20
-3.5751408042
 30
0.0
 11
-44.6183255926
 21
-3.5751408042
 31
0.0
  0
SPLINE
  5
367
330
1F
100
AcDbEntity
  8
0
  6
Continuous
 62
     7
370
    15
100
AcDbSpline
210
0.0
220
0.0
230
1.0
 70
     8
 71
     3
 72
    11
 73
     7
 74
     0
 42
0.00000001
 43
0.00000001
 12
1.0
 22
0.0
 32
0.0
 13
1.0
 23
0.0
 33
0.0
 40
0.0
 40
0.0
 40
0.0
 40
0.0
 40
0.2541318708066133
 40
0.5055090742003151
 40
0.7541317394076001
 40
1.0
 40
1.0
 40
1.0
 40
1.0
 10
-47.87333670610531
 20
-12.63228369091023
 30
0.0
 10
-47.79341806274774
 20
-11.86465242281129
 30
0.0
 10
-47.63444705573941
 20
-10.33771064084486
 30
0.0
 10
-47.38771689045197
 20
-8.060648551798568
 30
0.0
 10
-47.13741844417142
 20
-5.809127743542961
 30
0.0
 10
-46.96527832824804
 20
-4.317032723256037
 30
0.0
 10
-46.87968769620196
 20
-3.575140833767365
 30
0.0
  0
LINE
  5
368
330
1F
100
AcDbEntity
  8
0
  6
Continuous
 62
     7
370
    15
100
AcDbLine
 10
-48.4545624867
 20
-12.632283576
 30
0.0
 11
-47.8733352438
 21
-12.632283576
 31
0.0
  0
SPLINE
  5
369
330
1F
100
AcDbEntity
  8
0
  6
Continuous
 62
     7
370
    15
100
AcDbSpline
210
0.0
220
0.0
230
1.0
 70
     8
 71
     3
 72
    11
 73
     7
 74
     0
 42
0.00000001
 43
0.00000001
 12
1.0
 22
0.0
 32
0.0
 13
1.0
 23
0.0
 33
0.0
 40
0.0
 40
0.0
 40
0.0
 40
0.0
 40
0.2547886910202167
 40
0.5063848672461834
 40
0.7547886090633751
 40
1.0
 40
1.0
 40
1.0
 40
1.0
 10
-49.25574119635228
 20
-3.57514083376731
 30
0.0
 10
-49.1918262172978
 20
-4.344668374299254
 30
0.0
 10
-49.06479711701108
 20
-5.874081237539825
 30
0.0
 10
-48.86615071217267
 20
-8.153060506031803
 30
0.0
 10
-48.66395807376507
 20
-10.40266265084276
 30
0.0
 10
-48.52405667037805
 20
-11.89228795582799
 30
0.0
 10
-48.45455835996944
 20
-12.63228369091011
 30
0.0
  0
LINE
  5
36A
330
1F
100
AcDbEntity
  8
0
  6
Continuous
 62
     7
370
    15
100
AcDbLine
 10
-50.4821783915
 20
-3.5751408042
 30
0.0
 11
-49.2557383194
 21
-3.5751408042
 31
0.0
  0
LINE
  5
36B
330
1F
100
AcDbEntity
  8
0
  6
Continuous
 62
     7
370
    15
100
AcDbLine
 10
-50.4821783915
 20
-1.2037113385
 30
0.0
 11
-50.4821783915
 21
-3.5751408042
 31
0.0
  0
LINE
  5
36C
330
1F
100
AcDbEntity
  8
0
  6
Continuous
 62
     7
370
    15
100
AcDbLine
 10
-48.9166474953
 20
-1.2037113385
 30
0.0
 11
-50.4821783915
 21
-1.2037113385
 31
0.0
  0
SPLINE
  5
36D
330
1F
100
AcDbEntity
  8
0
  6
Continuous
 62
     7
370
    15
100
AcDbSpline
210
0.0
220
0.0
230
1.0
 70
     8
 71
     3
 72
    10
 73
     6
 74
     0
 42
0.00000001
 43
0.00000001
 12
1.0
 22
0.0
 32
0.0
 13
1.0
 23
0.0
 33
0.0
 40
0.0
 40
0.0
 40
0.0
 40
0.0
 40
0.3285120519388914
 40
0.6618453285564034
 40
1.0
 40
1.0
 40
1.0
 40
1.0
 10
-48.17007940195414
 20
-9.203712262338792
 30
0.0
 10
-48.25577168921001
 20
-8.327998959489074
 30
0.0
 10
-48.42841387898324
 20
-6.563720433861054
 30
0.0
 10
-48.67739202516609
 20
-3.897042109435298
 30
0.0
 10
-48.83651619712963
 20
-2.105776073770327
 30
0.0
 10
-48.91664955208326
 20
-1.203712262338771
 30
0.0
  0
SPLINE
  5
36E
330
1F
100
AcDbEntity
  8
0
  6
Continuous
 62
     7
370
    15
100
AcDbSpline
210
0.0
220
0.0
230
1.0
 70
     8
 71
     3
 72
    11
 73
     7
 74
     0
 42
0.00000001
 43
0.00000001
 12
1.0
 22
0.0
 32
0.0
 13
1.0
 23
0.0
 33
0.0
 40
0.0
 40
0.0
 40
0.0
 40
0.0
 40
0.246240264720443
 40
0.4949869575480704
 40
0.7462401722969086
 40
1.0
 40
1.0
 40
1.0
 40
1.0
 10
-47.3324399514778
 20
-1.203712262338827
 30
0.0
 10
-47.40441177020316
 20
-1.860060481077924
 30
0.0
 10
-47.54908799373025
 20
-3.179437749676162
 30
0.0
 10
-47.75996109882789
 20
-5.169196465897211
 30
0.0
 10
-47.96805428122282
 20
-7.179445386609751
 30
0.0
 10
-48.10251523111341
 20
-8.526727575860482
 30
0.0
 10
-48.17007940195413
 20
-9.203712262338653
 30
0.0
  0
LINE
  5
36F
330
1F
100
AcDbEntity
  8
0
  6
Continuous
 62
     7
370
    15
100
AcDbLine
 10
-44.6183255926
 20
-1.2037113385
 30
0.0
 11
-47.3324379936
 21
-1.2037113385
 31
0.0
  0
LINE
  5
370
330
1F
100
AcDbEntity
  8
0
  6
Continuous
 62
     7
370
    15
100
AcDbLine
 10
-44.6183255926
 20
-1.2037113385
 30
0.0
 11
-44.6183255926
 21
-3.5751408042
 31
0.0
  0
LINE
  5
371
330
1F
100
AcDbEntity
  8
0
  6
Continuous
 62
     7
370
    15
100
AcDbLine
 10
-43.1183225527
 20
-3.5751408042
 30
0.0
 11
-44.6183255926
 21
-3.5751408042
 31
0.0
  0
LINE
  5
372
330
1F
100
AcDbEntity
  8
0
  6
Continuous
 62
     7
370
    15
100
AcDbLine
 10
-43.1183225527
 20
-1.2037113385
 30
0.0
 11
-44.6183255926
 21
-1.2037113385
 31
0.0
  0
LINE
  5
373
330
1F
100
AcDbEntity
  8
0
  6
Continuous
 62
     7
370
    15
100
AcDbLine
 10
-44.8564163461
 20
-6.7751409562
 30
0.0
 11
-44.6183255926
 21
-6.7751409562
 31
0.0
  0
SPLINE
  5
374
330
1F
100
AcDbEntity
  8
0
  6
Continuous
 62
     7
370
    15
100
AcDbSpline
210
0.0
220
0.0
230
1.0
 70
     8
 71
     3
 72
    20
 73
    16
 74
     0
 42
0.00000001
 43
0.00000001
 12
1.0
 22
0.0
 32
0.0
 13
1.0
 23
0.0
 33
0.0
 40
0.0
 40
0.0
 40
0.0
 40
0.0
 40
0.0419016017859196
 40
0.0838414792280272
 40
0.1258876723608698
 40
0.1885282286207199
 40
0.2512739508982971
 40
0.3762244317801485
 40
0.500859543865133
 40
0.6252692736263579
 40
0.7496376957938198
 40
0.8121566331750367
 40
0.8743767771071488
 40
0.9372853198614853
 40
0.9999999999999999
 40
0.9999999999999999
 40
0.9999999999999999
 40
0.9999999999999999
 10
-45.72431102264596
 20
-9.01087377326977
 30
0.0
 10
-45.70892733336559
 20
-9.000056372142213
 30
0.0
 10
-45.67814590233961
 20
-8.978411688567306
 30
0.0
 10
-45.63226734745245
 20
-8.93819407302035
 30
0.0
 10
-45.57923858228424
 20
-8.884884245007662
 30
0.0
 10
-45.51940511849886
 20
-8.814115670143979
 30
0.0
 10
-45.43160452943956
 20
-8.691364526715844
 30
0.0
 10
-45.3256707732663
 20
-8.50722350270422
 30
0.0
 10
-45.20677787514793
 20
-8.240460747123175
 30
0.0
 10
-45.09804971161577
 20
-7.931059361957218
 30
0.0
 10
-45.01755398049859
 20
-7.640002192073572
 30
0.0
 10
-44.96037627118729
 20
-7.38965579505721
 30
0.0
 10
-44.92130315506449
 20
-7.192679907995353
 30
0.0
 10
-44.88604057994763
 20
-6.988374503544447
 30
0.0
 10
-44.86628132257862
 20
-6.84614556080107
 30
0.0
 10
-44.85641694020463
 20
-6.775140833767457
 30
0.0
  0
SPLINE
  5
375
330
1F
100
AcDbEntity
  8
0
  6
Continuous
 62
     7
370
    15
100
AcDbSpline
210
0.0
220
0.0
230
1.0
 70
     8
 71
     3
 72
    10
 73
     6
 74
     0
 42
0.00000001
 43
0.00000001
 12
1.0
 22
0.0
 32
0.0
 13
1.0
 23
0.0
 33
0.0
 40
0.0
 40
0.0
 40
0.0
 40
0.0
 40
0.3302985632438524
 40
0.6636317307222682
 40
1.0
 40
1.0
 40
1.0
 40
1.0
 10
-44.81703936479775
 20
-12.6322836909103
 30
0.0
 10
-44.91984430456335
 20
-12.23403713293009
 30
0.0
 10
-45.1263987001787
 20
-11.43388514337551
 30
0.0
 10
-45.42887597278422
 20
-10.22673734871718
 30
0.0
 10
-45.62553558411523
 20
-9.417384300421356
 30
0.0
 10
-45.72431102264596
 20
-9.010873773269756
 30
0.0
  0
LINE
  5
376
330
1F
100
AcDbEntity
  8
0
  6
Continuous
 62
     7
370
    15
100
AcDbLine
 10
-45.8009711519
 20
-12.632283576
 30
0.0
 11
-44.8170400277
 21
-12.632283576
 31
0.0
  0
SPLINE
  5
377
330
1F
100
AcDbEntity
  8
0
  6
Continuous
 62
     7
370
    15
100
AcDbSpline
210
0.0
220
0.0
230
1.0
 70
     8
 71
     3
 72
     9
 73
     5
 74
     0
 42
0.00000001
 43
0.00000001
 12
1.0
 22
0.0
 32
0.0
 13
1.0
 23
0.0
 33
0.0
 40
0.0
 40
0.0
 40
0.0
 40
0.0
 40
0.5031676464430976
 40
1.0
 40
1.0
 40
1.0
 40
1.0
 10
-46.54128156030792
 20
-9.430552915769983
 30
0.0
 10
-46.42029816120347
 20
-9.968024838514985
 30
0.0
 10
-46.17985464310427
 20
-11.03620147217656
 30
0.0
 10
-45.92672889234599
 20
-12.10250807287303
 30
0.0
 10
-45.80096782985095
 20
-12.63228369091031
 30
0.0
  0
SPLINE
  5
378
330
1F
100
AcDbEntity
  8
0
  6
Continuous
 62
     7
370
    15
100
AcDbSpline
210
0.0
220
0.0
230
1.0
 70
     8
 71
     3
 72
     9
 73
     5
 74
     0
 42
0.00000001
 43
0.00000001
 12
1.0
 22
0.0
 32
0.0
 13
1.0
 23
0.0
 33
0.0
 40
0.0
 40
0.0
 40
0.0
 40
0.0
 40
0.5018623825891427
 40
1.0
 40
1.0
 40
1.0
 40
1.0
 10
-46.91957708369035
 20
-12.63228369091028
 30
0.0
 10
-46.8572282104784
 20
-12.09657951284468
 30
0.0
 10
-46.73299321025721
 20
-11.02914709182548
 30
0.0
 10
-46.60502656171886
 20
-9.962092798897274
 30
0.0
 10
-46.5412815603079
 20
-9.430552915769997
 30
0.0
  0
LINE
  5
379
330
1F
100
AcDbEntity
  8
0
  6
Continuous
 62
     7
370
    15
100
AcDbLine
 10
-47.6189724222
 20
-12.632283576
 30
0.0
 11
-46.919578971
 21
-12.632283576
 31
0.0
  0
SPLINE
  5
37A
330
1F
100
AcDbEntity
  8
0
  6
Continuous
 62
     7
370
    15
100
AcDbSpline
210
0.0
220
0.0
230
1.0
 70
     8
 71
     3
 72
    11
 73
     7
 74
     0
 42
0.00000001
 43
0.00000001
 12
1.0
 22
0.0
 32
0.0
 13
1.0
 23
0.0
 33
0.0
 40
0.0
 40
0.0
 40
0.0
 40
0.0
 40
0.2463436930914157
 40
0.4951248485667943
 40
0.7463435805817604
 40
1.0
 40
1.0
 40
1.0
 40
1.0
 10
-46.70235698771193
 20
-4.489426548052886
 30
0.0
 10
-46.78100416833411
 20
-5.157743652867502
 30
0.0
 10
-46.93907670880427
 20
-6.500990566005019
 30
0.0
 10
-47.16974689991119
 20
-8.526537541665311
 30
0.0
 10
-47.39753001039798
 20
-10.57242764018368
 30
0.0
 10
-47.5449218225385
 20
-11.94345842585526
 30
0.0
 10
-47.61897355436372
 20
-12.63228369091019
 30
0.0
  0
LINE
  5
37B
330
1F
100
AcDbEntity
  8
0
  6
Continuous
 62
     7
370
    15
100
AcDbLine
 10
-45.927631022
 20
-4.4894266949
 30
0.0
 11
-46.7023572937
 21
-4.4894266949
 31
0.0
  0
SPLINE
  5
37C
330
1F
100
AcDbEntity
  8
0
  6
Continuous
 62
     7
370
    15
100
AcDbSpline
210
0.0
220
0.0
230
1.0
 70
     8
 71
     3
 72
     9
 73
     5
 74
     0
 42
0.00000001
 43
0.00000001
 12
1.0
 22
0.0
 32
0.0
 13
1.0
 23
0.0
 33
0.0
 40
0.0
 40
0.0
 40
0.0
 40
0.0
 40
0.5016695610270353
 40
1.0
 40
1.0
 40
1.0
 40
1.0
 10
-46.30078842051158
 20
-7.458949137428631
 30
0.0
 10
-46.23920356152919
 20
-6.962288239364761
 30
0.0
 10
-46.11644375354662
 20
-5.972272227536019
 30
0.0
 10
-45.99042984522682
 20
-4.982606903444154
 30
0.0
 10
-45.92763327897714
 20
-4.489426548053135
 30
0.0
  0
SPLINE
  5
37D
330
1F
100
AcDbEntity
  8
0
  6
Continuous
 62
     7
370
    15
100
AcDbSpline
210
0.0
220
0.0
230
1.0
 70
     8
 71
     3
 72
    26
 73
    22
 74
     0
 42
0.00000001
 43
0.00000001
 12
1.0
 22
0.0
 32
0.0
 13
1.0
 23
0.0
 33
0.0
 40
0.0
 40
0.0
 40
0.0
 40
0.0
 40
0.0210112334427494
 40
0.0419792184780036
 40
0.0838079111092957
 40
0.1255412990305901
 40
0.1880208728367642
 40
0.2504332194753431
 40
0.3128068451959789
 40
0.3751449305691373
 40
0.4374423431877174
 40
0.4997027061239226
 40
0.5619379285150974
 40
0.6242018441983672
 40
0.6865504854824585
 40
0.7490078769162226
 40
0.8115785283256131
 40
0.8742598897372007
 40
0.9370547062633848
 40
0.968557382762386
 40
1.0
 40
1.0
 40
1.0
 40
1.0
 10
-45.39498517615164
 20
-4.489426548053149
 30
0.0
 10
-45.39509245385823
 20
-4.522106453633712
 30
0.0
 10
-45.39530678845666
 20
-4.587398998212089
 30
0.0
 10
-45.39758370313223
 20
-4.717574408679856
 30
0.0
 10
-45.40299240523329
 20
-4.879360315256168
 30
0.0
 10
-45.41549771354914
 20
-5.103108139733678
 30
0.0
 10
-45.43648427839107
 20
-5.353858791611738
 30
0.0
 10
-45.46864829917942
 20
-5.626673230361757
 30
0.0
 10
-45.50882559960391
 20
-5.887872941864755
 30
0.0
 10
-45.55648900350016
 20
-6.135127181932779
 30
0.0
 10
-45.61109540081006
 20
-6.366146671794998
 30
0.0
 10
-45.67213469667891
 20
-6.578498061128313
 30
0.0
 10
-45.73894172665967
 20
-6.770133818746249
 30
0.0
 10
-45.81058433889372
 20
-6.940354621153139
 30
0.0
 10
-45.88632014334258
 20
-7.088211737962674
 30
0.0
 10
-45.96540053991617
 20
-7.21292243892889
 30
0.0
 10
-46.04710309350542
 20
-7.31362466100699
 30
0.0
 10
-46.13071532261453
 20
-7.389604149553753
 30
0.0
 10
-46.2014057439539
 20
-7.431241337268038
 30
0.0
 10
-46.2581882323668
 20
-7.451943150429005
 30
0.0
 10
-46.28659739333171
 20
-7.45661529440439
 30
0.0
 10
-46.30078842051158
 20
-7.458949137428658
 30
0.0
  0
LINE
  5
37E
330
1F
100
AcDbEntity
  8
0
  6
Continuous
 62
     7
370
    15
100
AcDbLine
 10
-44.6183255926
 20
-4.4894266949
 30
0.0
 11
-45.3949815646
 21
-4.4894266949
 31
0.0
  0
LINE
  5
37F
330
1F
100
AcDbEntity
  8
0
  6
Continuous
 62
     7
370
    15
100
AcDbLine
 10
-44.6183255926
 20
-4.4894266949
 30
0.0
 11
-44.6183255926
 21
-6.7751409562
 31
0.0
  0
LINE
  5
380
330
1F
100
AcDbEntity
  8
0
  6
Continuous
 62
     7
370
    15
100
AcDbLine
 10
-43.1183225527
 20
-4.4894266949
 30
0.0
 11
-44.6183255926
 21
-4.4894266949
 31
0.0
  0
LINE
  5
381
330
1F
100
AcDbEntity
  8
0
  6
Continuous
 62
     7
370
    15
100
AcDbLine
 10
-43.1183225527
 20
-6.7751409562
 30
0.0
 11
-44.6183255926
 21
-6.7751409562
 31
0.0
  0
LINE
  5
382
330
1F
100
AcDbEntity
  8
0
  6
Continuous
 62
     7
370
    15
100
AcDbLine
 10
-44.2243090883
 20
-9.0108739288
 30
0.0
 11
-45.7243121281
 21
-9.0108739288
 31
0.0
  0
LINE
  5
383
330
1F
100
AcDbEntity
  8
0
  6
Continuous
 62
     7
370
    15
100
AcDbLine
 10
-43.3170369878
 20
-12.632283576
 30
0.0
 11
-44.8170400277
 21
-12.632283576
 31
0.0
  0
LINE
  5
384
330
1F
100
AcDbEntity
  8
0
  6
Continuous
 62
     7
370
    15
100
AcDbLine
 10
-45.3949815646
 20
-4.4894266949
 30
0.0
 11
-45.927631022
 21
-4.4894266949
 31
0.0
  0
LINE
  5
385
330
1F
100
AcDbEntity
  8
0
  6
Continuous
 62
     7
370
    15
100
AcDbLine
 10
-45.8009711519
 20
-12.632283576
 30
0.0
 11
-46.919578971
 21
-12.632283576
 31
0.0
  0
LINE
  5
386
330
1F
100
AcDbEntity
  8
0
  6
Continuous
 62
     7
370
    15
100
AcDbLine
 10
-47.6189724222
 20
-12.632283576
 30
0.0
 11
-47.8733352438
 21
-12.632283576
 31
0.0
  0
LINE
  5
387
330
1F
100
AcDbEntity
  8
0
  6
Continuous
 62
     7
370
    15
100
AcDbLine
 10
-47.4166519061
 20
-1.2037113385
 30
0.0
 11
-48.9166474953
 21
-1.2037113385
 31
0.0
  0
LINE
  5
388
330
1F
100
AcDbEntity
  8
0
  6
Continuous
 62
     7
370
    15
100
AcDbLine
 10
-50.4821783915
 20
-12.632283576
 30
0.0
 11
-50.0922299042
 21
-12.632283576
 31
0.0
  0
SPLINE
  5
389
330
1F
100
AcDbEntity
  8
0
  6
Continuous
 62
     7
370
    15
100
AcDbSpline
210
0.0
220
0.0
230
1.0
 70
     8
 71
     3
 72
     9
 73
     5
 74
     0
 42
0.00000001
 43
0.00000001
 12
1.0
 22
0.0
 32
0.0
 13
1.0
 23
0.0
 33
0.0
 40
0.0
 40
0.0
 40
0.0
 40
0.0
 40
0.4948066281810017
 40
0.9999999999999999
 40
0.9999999999999999
 40
0.9999999999999999
 40
0.9999999999999999
 10
-50.13969885065845
 20
-6.775140833767152
 30
0.0
 10
-50.19873602207502
 20
-7.741061984118406
 30
0.0
 10
-50.31804964492122
 20
-9.693180438760274
 30
0.0
 10
-50.42709441797942
 20
-11.64582207748729
 30
0.0
 10
-50.48218311455997
 20
-12.63228369090996
 30
0.0
  0
LINE
  5
38A
330
1F
100
AcDbEntity
  8
0
  6
Continuous
 62
     7
370
    15
100
AcDbLine
 10
-50.4821783915
 20
-6.7751409562
 30
0.0
 11
-50.1397050038
 21
-6.7751409562
 31
0.0
  0
LINE
  5
38B
330
1F
100
AcDbEntity
  8
0
  6
Continuous
 62
     7
370
    15
100
AcDbLine
 10
-50.4821783915
 20
-4.4894266949
 30
0.0
 11
-50.4821783915
 21
-6.7751409562
 31
0.0
  0
LINE
  5
38C
330
1F
100
AcDbEntity
  8
0
  6
Continuous
 62
     7
370
    15
100
AcDbLine
 10
-49.3782258645
 20
-4.4894266949
 30
0.0
 11
-50.4821783915
 21
-4.4894266949
 31
0.0
  0
SPLINE
  5
38D
330
1F
100
AcDbEntity
  8
0
  6
Continuous
 62
     7
370
    15
100
AcDbSpline
210
0.0
220
0.0
230
1.0
 70
     8
 71
     3
 72
    11
 73
     7
 74
     0
 42
0.00000001
 43
0.00000001
 12
1.0
 22
0.0
 32
0.0
 13
1.0
 23
0.0
 33
0.0
 40
0.0
 40
0.0
 40
0.0
 40
0.0
 40
0.2455919697490634
 40
0.4941225846964375
 40
0.745591907841859
 40
1.0
 40
1.0
 40
1.0
 40
1.0
 10
-48.68029994115235
 20
-12.63228369091017
 30
0.0
 10
-48.74066915601201
 20
-11.96591809662301
 30
0.0
 10
-48.86212993713211
 20
-10.62521347123001
 30
0.0
 10
-49.03813636608457
 20
-8.601640932322976
 30
0.0
 10
-49.2112781452234
 20
-6.553777762097993
 30
0.0
 10
-49.32236153826959
 20
-5.180203432203961
 30
0.0
 10
-49.37822589046327
 20
-4.489426548052982
 30
0.0
  0
LINE
  5
38E
330
1F
100
AcDbEntity
  8
0
  6
Continuous
 62
     7
370
    15
100
AcDbLine
 10
-49.2274261132
 20
-12.632283576
 30
0.0
 11
-48.6803001776
 21
-12.632283576
 31
0.0
  0
LINE
  5
38F
330
1F
100
AcDbEntity
  8
0
  6
Continuous
 62
     7
370
    15
100
AcDbLine
 10
-49.3301994219
 20
-11.3751410582
 30
0.0
 11
-49.2274261132
 21
-12.632283576
 31
0.0
  0
LINE
  5
390
330
1F
100
AcDbEntity
  8
0
  6
Continuous
 62
     7
370
    15
100
AcDbLine
 10
-50.0121808663
 20
-11.3751410582
 30
0.0
 11
-49.3301994219
 21
-11.3751410582
 31
0.0
  0
LINE
  5
391
330
1F
100
AcDbEntity
  8
0
  6
Continuous
 62
     7
370
    15
100
AcDbLine
 10
-50.0922299042
 20
-12.632283576
 30
0.0
 11
-50.0121808663
 21
-11.3751410582
 31
0.0
  0
SPLINE
  5
392
330
1F
100
AcDbEntity
  8
0
  6
Continuous
 62
     7
370
    15
100
AcDbSpline
210
0.0
220
0.0
230
1.0
 70
     8
 71
     3
 72
     9
 73
     5
 74
     0
 42
0.00000001
 43
0.00000001
 12
1.0
 22
0.0
 32
0.0
 13
1.0
 23
0.0
 33
0.0
 40
0.0
 40
0.0
 40
0.0
 40
0.0
 40
0.5001677311395186
 40
1.0
 40
1.0
 40
1.0
 40
1.0
 10
-49.91194439550474
 20
-9.203712262338474
 30
0.0
 10
-49.88030508435175
 20
-8.72950436514755
 30
0.0
 10
-49.8170476825179
 20
-7.781406621795453
 30
0.0
 10
-49.75134429084761
 20
-6.833453878057866
 30
0.0
 10
-49.71850361551723
 20
-6.359636507382999
 30
0.0
  0
LINE
  5
393
330
1F
100
AcDbEntity
  8
0
  6
Continuous
 62
     7
370
    15
100
AcDbLine
 10
-49.9119407549
 20
-9.2037126498
 30
0.0
 11
-49.5025611535
 21
-9.2037126498
 31
0.0
  0
SPLINE
  5
394
330
1F
100
AcDbEntity
  8
0
  6
Continuous
 62
     7
370
    15
100
AcDbSpline
210
0.0
220
0.0
230
1.0
 70
     8
 71
     3
 72
     9
 73
     5
 74
     0
 42
0.00000001
 43
0.00000001
 12
1.0
 22
0.0
 32
0.0
 13
1.0
 23
0.0
 33
0.0
 40
0.0
 40
0.0
 40
0.0
 40
0.0
 40
0.5001844188452235
 40
1.0
 40
1.0
 40
1.0
 40
1.0
 10
-49.71850361551721
 20
-6.359636507383179
 30
0.0
 10
-49.68319102970824
 20
-6.83386896212676
 30
0.0
 10
-49.6125918977111
 20
-7.781984170990033
 30
0.0
 10
-49.53923006011691
 20
-8.729919443307976
 30
0.0
 10
-49.50256267062521
 20
-9.203712262338682
 30
0.0
  0
LINE
  5
395
330
1F
100
AcDbEntity
  8
0
  6
Continuous
 62
     7
370
    15
100
AcDbLine
 10
-49.1786844149
 20
-4.4894266949
 30
0.0
 11
-49.3782258645
 21
-4.4894266949
 31
0.0
  0
LINE
  5
396
330
1F
100
AcDbEntity
  8
0
  6
Continuous
 62
     7
370
    15
100
AcDbLine
 10
-48.4545624867
 20
-12.632283576
 30
0.0
 11
-48.6803001776
 21
-12.632283576
 31
0.0
  0
LINE
  5
397
330
1F
100
AcDbEntity
  8
0
  6
Continuous
 62
     7
370
    15
100
AcDbLine
 10
-49.2274261132
 20
-12.632283576
 30
0.0
 11
-50.0922299042
 21
-12.632283576
 31
0.0
  0
LINE
  5
398
330
1F
100
AcDbEntity
  8
0
  6
Continuous
 62
     7
370
    15
100
AcDbLine
 10
-50.264248909
 20
172.497697912
 30
0.0
 11
-50.4821783915
 21
176.2248657568
 31
0.0
  0
LINE
  5
399
330
1F
100
AcDbEntity
  8
0
  6
Continuous
 62
     7
370
    15
100
AcDbLine
 10
-50.264248909
 20
176.2248657568
 30
0.0
 11
-50.4821783915
 21
176.2248657568
 31
0.0
  0
LINE
  5
39A
330
1F
100
AcDbEntity
  8
0
  6
Continuous
 62
     7
370
    15
100
AcDbLine
 10
-50.264248909
 20
170.3677110298
 30
0.0
 11
-50.4821783915
 21
170.3677110298
 31
0.0
  0
LINE
  5
39B
330
1F
100
AcDbEntity
  8
0
  6
Continuous
 62
     7
370
    15
100
AcDbLine
 10
-50.264248909
 20
168.0820070131
 30
0.0
 11
-50.4821783915
 21
168.0820070131
 31
0.0
  0
LINE
  5
39C
330
1F
100
AcDbEntity
  8
0
  6
Continuous
 62
     7
370
    15
100
AcDbLine
 10
-50.4821783915
 20
168.0820070131
 30
0.0
 11
-50.4821783915
 21
170.3677110298
 31
0.0
  0
LINE
  5
39D
330
1F
100
AcDbEntity
  8
0
  6
Continuous
 62
     7
370
    15
100
AcDbLine
 10
-50.264248909
 20
164.7962860687
 30
0.0
 11
-50.4821783915
 21
164.7962860687
 31
0.0
  0
LINE
  5
39E
330
1F
100
AcDbEntity
  8
0
  6
Continuous
 62
     7
370
    15
100
AcDbLine
 10
-50.264248909
 20
167.1677164658
 30
0.0
 11
-50.4821783915
 21
167.1677164658
 31
0.0
  0
LINE
  5
39F
330
1F
100
AcDbEntity
  8
0
  6
Continuous
 62
     7
370
    15
100
AcDbLine
 10
-50.4821783915
 20
164.7962860687
 30
0.0
 11
-50.4821783915
 21
167.1677164658
 31
0.0
  0
SPLINE
  5
3A0
330
1F
100
AcDbEntity
  8
0
  6
Continuous
 62
     7
370
    15
100
AcDbSpline
210
0.0
220
0.0
230
1.0
 70
     8
 71
     3
 72
     9
 73
     5
 74
     0
 42
0.00000001
 43
0.00000001
 12
1.0
 22
0.0
 32
0.0
 13
1.0
 23
0.0
 33
0.0
 40
0.0
 40
0.0
 40
0.0
 40
0.0
 40
0.6343528820446835
 40
1.0
 40
1.0
 40
1.0
 40
1.0
 10
-6.887333752207292
 20
193.7244914396345
 30
0.0
 10
-7.177986638709374
 20
193.8406766315526
 30
0.0
 10
-7.636174651610442
 20
194.0238320884077
 30
0.0
 10
-8.101466756054332
 20
194.1662108384895
 30
0.0
 10
-8.27159947305156
 20
194.2182712181151
 30
0.0
  0
LINE
  5
3A1
330
1F
100
AcDbEntity
  8
0
  6
Continuous
 62
     7
370
    15
100
AcDbLine
 10
-6.8873337522
 20
193.7244914396
 30
0.0
 11
-6.8873337522
 21
183.796294771
 31
0.0
  0
SPLINE
  5
3A2
330
1F
100
AcDbEntity
  8
0
  6
Continuous
 62
     7
370
    15
100
AcDbSpline
210
0.0
220
0.0
230
1.0
 70
     8
 71
     3
 72
     9
 73
     5
 74
     0
 42
0.00000001
 43
0.00000001
 12
1.0
 22
0.0
 32
0.0
 13
1.0
 23
0.0
 33
0.0
 40
0.0
 40
0.0
 40
0.0
 40
0.0
 40
0.3597492907880677
 40
1.0
 40
1.0
 40
1.0
 40
1.0
 10
-8.27159947305156
 20
-30.62548600894813
 30
0.0
 10
-8.104193653343028
 20
-30.57440875372674
 30
0.0
 10
-7.638853417808955
 20
-30.43242861219683
 30
0.0
 10
-7.180679760952116
 20
-30.24921708699388
 30
0.0
 10
-6.887333752207292
 20
-30.13191577804688
 30
0.0
  0
LINE
  5
3A3
330
1F
100
AcDbEntity
  8
0
  6
Continuous
 62
     7
370
    15
100
AcDbLine
 10
-6.8873337522
 20
-30.131915778
 30
0.0
 11
-6.8873337522
 21
-20.2037123573
 31
0.0
  0
SPLINE
  5
3A4
330
1F
100
AcDbEntity
  8
0
  6
Continuous
 62
     7
370
    15
100
AcDbSpline
210
0.0
220
0.0
230
1.0
 70
     8
 71
     3
 72
    12
 73
     8
 74
     0
 42
0.00000001
 43
0.00000001
 12
1.0
 22
0.0
 32
0.0
 13
1.0
 23
0.0
 33
0.0
 40
0.0
 40
0.0
 40
0.0
 40
0.0
 40
0.1966724793665861
 40
0.3947866337183347
 40
0.5964807589363555
 40
0.7982659803918638
 40
1.0
 40
1.0
 40
1.0
 40
1.0
 10
-32.27159595637752
 20
194.7360120637953
 30
0.0
 10
-32.3637602509613
 20
194.7040582393743
 30
0.0
 10
-32.54876443520175
 20
194.639916358323
 30
0.0
 10
-32.82636988928093
 20
194.4780649574225
 30
0.0
 10
-33.1042604533199
 20
194.2703873795372
 30
0.0
 10
-33.38160086008433
 20
194.0202640828929
 30
0.0
 10
-33.56444417134438
 20
193.8230739803522
 30
0.0
 10
-33.65585422664119
 20
193.7244914396345
 30
0.0
  0
LINE
  5
3A5
330
1F
100
AcDbEntity
  8
0
  6
Continuous
 62
     7
370
    15
100
AcDbLine
 10
-33.6558542266
 20
193.7244914396
 30
0.0
 11
-33.6558542266
 21
183.796294771
 31
0.0
  0
SPLINE
  5
3A6
330
1F
100
AcDbEntity
  8
0
  6
Continuous
 62
     7
370
    15
100
AcDbSpline
210
0.0
220
0.0
230
1.0
 70
     8
 71
     3
 72
    12
 73
     8
 74
     0
 42
0.00000001
 43
0.00000001
 12
1.0
 22
0.0
 32
0.0
 13
1.0
 23
0.0
 33
0.0
 40
0.0
 40
0.0
 40
0.0
 40
0.0
 40
0.2130174770298025
 40
0.4260948609768447
 40
0.6390610205682642
 40
0.8560494120817189
 40
1.0
 40
1.0
 40
1.0
 40
1.0
 10
-33.65585422664119
 20
-30.13191577804688
 30
0.0
 10
-33.55932797596367
 20
-30.23579839409043
 30
0.0
 10
-33.36624832852568
 20
-30.44359284109158
 30
0.0
 10
-33.073205198839
 20
-30.7043402831074
 30
0.0
 10
-32.77585388446197
 20
-30.91868850468311
 30
0.0
 10
-32.50844174185584
 20
-31.06749220435826
 30
0.0
 10
-32.33912377289495
 20
-31.11664049209043
 30
0.0
 10
-32.27159595637752
 20
-31.13624193531875
 30
0.0
  0
LINE
  5
3A7
330
1F
100
AcDbEntity
  8
0
  6
Continuous
 62
     7
370
    15
100
AcDbLine
 10
-33.6558542266
 20
-30.131915778
 30
0.0
 11
-33.6558542266
 21
-20.2037123573
 31
0.0
  0
SPLINE
  5
3A8
330
1F
100
AcDbEntity
  8
0
  6
Continuous
 62
     7
370
    15
100
AcDbSpline
210
0.0
220
0.0
230
1.0
 70
     8
 71
     3
 72
    11
 73
     7
 74
     0
 42
0.00000001
 43
0.00000001
 12
1.0
 22
0.0
 32
0.0
 13
1.0
 23
0.0
 33
0.0
 40
0.0
 40
0.0
 40
0.0
 40
0.0
 40
0.3051749368685897
 40
0.610436611137248
 40
0.9155389417327867
 40
1.0
 40
1.0
 40
1.0
 40
1.0
 10
-6.887333752207292
 20
-30.13191577804688
 30
0.0
 10
-6.983850753071883
 20
-30.23606439022839
 30
0.0
 10
-7.176912187046359
 20
-30.44439121590773
 30
0.0
 10
-7.47009467923751
 20
-30.70114841763689
 30
0.0
 10
-7.693964740743339
 20
-30.87431952248414
 30
0.0
 10
-7.820771926735456
 20
-30.93917256577775
 30
0.0
 10
-7.848264934114946
 20
-30.95323332411651
 30
0.0
  0
SPLINE
  5
3A9
330
1F
100
AcDbEntity
  8
0
  6
Continuous
 62
     7
370
    15
100
AcDbSpline
210
0.0
220
0.0
230
1.0
 70
     8
 71
     3
 72
    11
 73
     7
 74
     0
 42
0.00000001
 43
0.00000001
 12
1.0
 22
0.0
 32
0.0
 13
1.0
 23
0.0
 33
0.0
 40
0.0
 40
0.0
 40
0.0
 40
0.0
 40
0.1328504419502803
 40
0.4218369515066653
 40
0.7109549122530702
 40
0.9999999999999999
 40
0.9999999999999999
 40
0.9999999999999999
 40
0.9999999999999999
 10
-7.84827983527614
 20
194.5455901248991
 30
0.0
 10
-7.805087749593959
 20
194.5220190286578
 30
0.0
 10
-7.667940913754265
 20
194.4471742691211
 30
0.0
 10
-7.439003419658779
 20
194.2684885387359
 30
0.0
 10
-7.161578977063668
 20
194.0207384070706
 30
0.0
 10
-6.978741145392556
 20
193.8232321307316
 30
0.0
 10
-6.887333752207292
 20
193.7244914396345
 30
0.0
  0
SPLINE
  5
3AA
330
1F
100
AcDbEntity
  8
0
  6
Continuous
 62
     7
370
    15
100
AcDbSpline
210
0.0
220
0.0
230
1.0
 70
     8
 71
     3
 72
     9
 73
     5
 74
     0
 42
0.00000001
 43
0.00000001
 12
1.0
 22
0.0
 32
0.0
 13
1.0
 23
0.0
 33
0.0
 40
0.0
 40
0.0
 40
0.0
 40
0.0
 40
0.5749482630540486
 40
1.0
 40
1.0
 40
1.0
 40
1.0
 10
50.41040079147385
 20
193.7244914396345
 30
0.0
 10
50.22405770482964
 20
193.829559310781
 30
0.0
 10
49.89995360952483
 20
194.0123024859464
 30
0.0
 10
49.57128284492815
 20
194.1586247739917
 30
0.0
 10
49.43158076555298
 20
194.2208193166792
 30
0.0
  0
LINE
  5
3AB
330
1F
100
AcDbEntity
  8
0
  6
Continuous
 62
     7
370
    15
100
AcDbLine
 10
50.4104007915
 20
193.7244914396
 30
0.0
 11
50.4104007915
 21
183.796294771
 31
0.0
  0
SPLINE
  5
3AC
330
1F
100
AcDbEntity
  8
0
  6
Continuous
 62
     7
370
    15
100
AcDbSpline
210
0.0
220
0.0
230
1.0
 70
     8
 71
     3
 72
     9
 73
     5
 74
     0
 42
0.00000001
 43
0.00000001
 12
1.0
 22
0.0
 32
0.0
 13
1.0
 23
0.0
 33
0.0
 40
0.0
 40
0.0
 40
0.0
 40
0.0
 40
0.4577681462206278
 40
1.0
 40
1.0
 40
1.0
 40
1.0
 10
23.68044265956448
 20
194.2244104965269
 30
0.0
 10
23.52944586321955
 20
194.1562208035243
 30
0.0
 10
23.19959155249136
 20
194.0072596021702
 30
0.0
 10
22.87408705262594
 20
193.8239096331998
 30
0.0
 10
22.69758814425038
 20
193.7244914396345
 30
0.0
  0
LINE
  5
3AD
330
1F
100
AcDbEntity
  8
0
  6
Continuous
 62
     7
370
    15
100
AcDbLine
 10
22.6975881443
 20
193.7244914396
 30
0.0
 11
22.6975881443
 21
183.796294771
 31
0.0
  0
SPLINE
  5
3AE
330
1F
100
AcDbEntity
  8
0
  6
Continuous
 62
     7
370
    15
100
AcDbSpline
210
0.0
220
0.0
230
1.0
 70
     8
 71
     3
 72
     9
 73
     5
 74
     0
 42
0.00000001
 43
0.00000001
 12
1.0
 22
0.0
 32
0.0
 13
1.0
 23
0.0
 33
0.0
 40
0.0
 40
0.0
 40
0.0
 40
0.0
 40
0.4555434160728625
 40
1.0
 40
1.0
 40
1.0
 40
1.0
 10
49.43158076555299
 20
-30.62994704408053
 30
0.0
 10
49.58122774232194
 20
-30.56235340861672
 30
0.0
 10
49.90972985976894
 20
-30.41397318166375
 30
0.0
 10
50.23390273514485
 20
-30.23134752125208
 30
0.0
 10
50.41040079147385
 20
-30.13191577804688
 30
0.0
  0
LINE
  5
3AF
330
1F
100
AcDbEntity
  8
0
  6
Continuous
 62
     7
370
    15
100
AcDbLine
 10
50.4104007915
 20
-30.131915778
 30
0.0
 11
50.4104007915
 21
-20.2037123573
 31
0.0
  0
SPLINE
  5
3B0
330
1F
100
AcDbEntity
  8
0
  6
Continuous
 62
     7
370
    15
100
AcDbSpline
210
0.0
220
0.0
230
1.0
 70
     8
 71
     3
 72
     9
 73
     5
 74
     0
 42
0.00000001
 43
0.00000001
 12
1.0
 22
0.0
 32
0.0
 13
1.0
 23
0.0
 33
0.0
 40
0.0
 40
0.0
 40
0.0
 40
0.0
 40
0.5772120775508441
 40
1.0
 40
1.0
 40
1.0
 40
1.0
 10
22.69758814425038
 20
-30.13191577804688
 30
0.0
 10
22.88392979093516
 20
-30.23700073544937
 30
0.0
 10
23.20676026162706
 20
-30.41905679679923
 30
0.0
 10
23.53414020753178
 20
-30.56482604018165
 30
0.0
 10
23.67255249471234
 20
-30.6264555157483
 30
0.0
  0
LINE
  5
3B1
330
1F
100
AcDbEntity
  8
0
  6
Continuous
 62
     7
370
    15
100
AcDbLine
 10
22.6975881443
 20
-30.131915778
 30
0.0
 11
22.6975881443
 21
-20.2037123573
 31
0.0
  0
LINE
  5
3B2
330
1F
100
AcDbEntity
  8
0
  6
Continuous
 62
     8
370
    15
100
AcDbLine
 10
22.572209774
 20
87.6198120339
 30
0.0
 11
28.5539940879
 21
87.6198120339
 31
0.0
  0
LINE
  5
3B3
330
1F
100
AcDbEntity
  8
0
  6
Continuous
 62
     8
370
    15
100
AcDbLine
 10
44.5539929852
 20
87.6198120339
 30
0.0
 11
108.9175173029
 21
87.6198120339
 31
0.0
  0
LINE
  5
3B4
330
1F
100
AcDbEntity
  8
0
  6
Continuous
 62
     8
370
    15
100
AcDbLine
 10
124.9175162003
 20
87.6198120339
 30
0.0
 11
165.2357556805
 21
87.6198120339
 31
0.0
  0
LINE
  5
3B5
330
1F
100
AcDbEntity
  8
0
  6
Continuous
 62
     8
370
    15
100
AcDbLine
 10
-11.7642453924
 20
87.6198120339
 30
0.0
 11
22.572209774
 21
87.6198120339
 31
0.0
  0
LINE
  5
3B6
330
1F
100
AcDbEntity
  8
0
  6
Continuous
 62
     8
370
    15
100
AcDbLine
 10
-8.6025095597
 20
105.025724314
 30
0.0
 11
28.5539940879
 21
105.025724314
 31
0.0
  0
LINE
  5
3B7
330
1F
100
AcDbEntity
  8
0
  6
Continuous
 62
     8
370
    15
100
AcDbLine
 10
44.5539929852
 20
105.025724314
 30
0.0
 11
108.9175173029
 21
105.025724314
 31
0.0
  0
LINE
  5
3B8
330
1F
100
AcDbEntity
  8
0
  6
Continuous
 62
     8
370
    15
100
AcDbLine
 10
124.9175162003
 20
105.025724314
 30
0.0
 11
162.0740198478
 21
105.025724314
 31
0.0
  0
LINE
  5
3B9
330
1F
100
AcDbEntity
  8
0
  6
Continuous
 62
     8
370
    15
100
AcDbLine
 10
-8.750537695
 20
102.2011719568
 30
0.0
 11
28.5539940879
 21
102.2011719568
 31
0.0
  0
LINE
  5
3BA
330
1F
100
AcDbEntity
  8
0
  6
Continuous
 62
     8
370
    15
100
AcDbLine
 10
44.5539929852
 20
102.2011719568
 30
0.0
 11
108.9175173029
 21
102.2011719568
 31
0.0
  0
LINE
  5
3BB
330
1F
100
AcDbEntity
  8
0
  6
Continuous
 62
     8
370
    15
100
AcDbLine
 10
124.9175162003
 20
102.2011719568
 30
0.0
 11
162.2220479831
 21
102.2011719568
 31
0.0
  0
LINE
  5
3BC
330
1F
100
AcDbEntity
  8
FORMAT
  6
CENTERX2
370
     0
100
AcDbLine
 10
76.7357551441
 20
209.0040611135
 30
0.0
 11
76.7357551441
 21
-41.7935364553
 31
0.0
  0
ENDSEC
  0
SECTION
  2
OBJECTS
  0
DICTIONARY
  5
C
330
0
100
AcDbDictionary
281
     1
  3
ACAD_GROUP
350
D
  3
ACAD_LAYOUT
350
1A
  3
ACAD_MLINESTYLE
350
17
  3
ACAD_PLOTSETTINGS
350
19
  3
ACAD_PLOTSTYLENAME
350
E
  0
DICTIONARY
  5
D
102
{ACAD_REACTORS
330
C
102
}
330
C
100
AcDbDictionary
281
     1
  0
DICTIONARY
  5
1A
102
{ACAD_REACTORS
330
C
102
}
330
C
100
AcDbDictionary
281
     1
  3
Layout1
350
1E
  3
Layout2
350
26
  3
Model
350
22
  0
DICTIONARY
  5
17
102
{ACAD_REACTORS
330
C
102
}
330
C
100
AcDbDictionary
281
     1
  3
Standard
350
18
  0
DICTIONARY
  5
19
102
{ACAD_REACTORS
330
C
102
}
330
C
100
AcDbDictionary
281
     1
  0
ACDBDICTIONARYWDFLT
  5
E
102
{ACAD_REACTORS
330
C
102
}
330
C
100
AcDbDictionary
281
     1
  3
Normal
350
F
100
AcDbDictionaryWithDefault
340
F
  0
LAYOUT
  5
1E
102
{ACAD_REACTORS
330
1A
102
}
330
1A
100
AcDbPlotSettings
  1

  2
none_device
  4

  6

 40
0.0
 41
0.0
 42
0.0
 43
0.0
 44
0.0
 45
0.0
 46
0.0
 47
0.0
 48
0.0
 49
0.0
140
0.0
141
0.0
142
1.0
143
1.0
 70
   688
 72
     0
 73
     0
 74
     5
  7

 75
    16
147
1.0
148
0.0
149
0.0
100
AcDbLayout
  1
Layout1
 70
     1
 71
     1
 10
0.0
 20
0.0
 11
420.0
 21
297.0
 12
0.0
 22
0.0
 32
0.0
 14
1.0000000000E+20
 24
1.0000000000E+20
 34
1.0000000000E+20
 15
-1.0000000000E+20
 25
-1.0000000000E+20
 35
-1.0000000000E+20
146
0.0
 13
0.0
 23
0.0
 33
0.0
 16
1.0
 26
0.0
 36
0.0
 17
0.0
 27
1.0
 37
0.0
 76
     0
330
1B
  0
LAYOUT
  5
26
102
{ACAD_REACTORS
330
1A
102
}
330
1A
100
AcDbPlotSettings
  1

  2
none_device
  4

  6

 40
0.0
 41
0.0
 42
0.0
 43
0.0
 44
0.0
 45
0.0
 46
0.0
 47
0.0
 48
0.0
 49
0.0
140
0.0
141
0.0
142
1.0
143
1.0
 70
   688
 72
     0
 73
     0
 74
     5
  7

 75
    16
147
1.0
148
0.0
149
0.0
100
AcDbLayout
  1
Layout2
 70
     1
 71
     2
 10
0.0
 20
0.0
 11
0.0
 21
0.0
 12
0.0
 22
0.0
 32
0.0
 14
0.0
 24
0.0
 34
0.0
 15
0.0
 25
0.0
 35
0.0
146
0.0
 13
0.0
 23
0.0
 33
0.0
 16
1.0
 26
0.0
 36
0.0
 17
0.0
 27
1.0
 37
0.0
 76
     0
330
23
  0
LAYOUT
  5
22
102
{ACAD_REACTORS
330
1A
102
}
330
1A
100
AcDbPlotSettings
  1

  2
none_device
  4

  6

 40
0.0
 41
0.0
 42
0.0
 43
0.0
 44
0.0
 45
0.0
 46
0.0
 47
0.0
 48
0.0
 49
0.0
140
0.0
141
0.0
142
1.0
143
1.0
 70
  1712
 72
     0
 73
     0
 74
     0
  7

 75
     0
147
1.0
148
0.0
149
0.0
100
AcDbLayout
  1
Model
 70
     1
 71
     0
 10
0.0
 20
0.0
 11
594.0
 21
420.0
 12
0.0
 22
0.0
 32
0.0
 14
0.0
 24
0.0
 34
0.0
 15
594.0
 25
420.0
 35
0.0
146
0.0
 13
0.0
 23
0.0
 33
0.0
 16
1.0
 26
0.0
 36
0.0
 17
0.0
 27
1.0
 37
0.0
 76
     0
330
1F
331
29
  0
MLINESTYLE
  5
18
102
{ACAD_REACTORS
330
17
102
}
330
17
100
AcDbMlineStyle
  2
Standard
 70
     0
  3

 62
   256
 51
90.0
 52
90.0
 71
     2
 49
0.5
 62
   256
  6
BYLAYER
 49
-0.5
 62
   256
  6
BYLAYER
  0
ACDBPLACEHOLDER
  5
F
102
{ACAD_REACTORS
330
E
102
}
330
E
  0
ENDSEC
  0
EOF
