  0
SECTION
  2
HEADER
  9
$ACADVER
  1
AC1015
  9
$ACADMAINTVER
 70
     6
  9
$DWGCODEPAGE
  3
ANSI_1252
  9
$INSBASE
 10
0.0
 20
0.0
 30
0.0
  9
$EXTMIN
 10
0.0
 20
0.0
 30
0.0
  9
$EXTMAX
 10
841.0
 20
594.0
 30
0.0
  9
$LIMMIN
 10
0.0
 20
0.0
  9
$LIMMAX
 10
841.0
 20
594.0
  9
$ORTHOMODE
 70
     0
  9
$REGENMODE
 70
     1
  9
$FILLMODE
 70
     1
  9
$QTEXTMODE
 70
     0
  9
$MIRRTEXT
 70
     1
  9
$LTSCALE
 40
1.0
  9
$ATTMODE
 70
     1
  9
$TEXTSIZE
 40
2.5
  9
$TRACEWID
 40
1.0
  9
$TEXTSTYLE
  7
Standard
  9
$CLAYER
  8
0
  9
$CELTYPE
  6
ByLayer
  9
$CECOLOR
 62
   256
  9
$CELTSCALE
 40
1.0
  9
$DISPSILH
 70
     0
  9
$DIMSCALE
 40
1.0
  9
$DIMASZ
 40
2.5
  9
$DIMEXO
 40
1.0
  9
$DIMDLI
 40
3.75
  9
$DIMRND
 40
0.0
  9
$DIMDLE
 40
0.0
  9
$DIMEXE
 40
1.0
  9
$DIMTP
 40
0.0
  9
$DIMTM
 40
0.0
  9
$DIMTXT
 40
2.5
  9
$DIMCEN
 40
2.5
  9
$DIMTSZ
 40
0.0
  9
$DIMTOL
 70
     0
  9
$DIMLIM
 70
     0
  9
$DIMTIH
 70
     1
  9
$DIMTOH
 70
     1
  9
$DIMSE1
 70
     0
  9
$DIMSE2
 70
     0
  9
$DIMTAD
 70
     1
  9
$DIMZIN
 70
     0
  9
$DIMBLK
  1

  9
$DIMASO
 70
     1
  9
$DIMSHO
 70
     1
  9
$DIMPOST
  1

  9
$DIMAPOST
  1

  9
$DIMALT
 70
     0
  9
$DIMALTD
 70
     3
  9
$DIMALTF
 40
0.0393700787
  9
$DIMLFAC
 40
1.0
  9
$DIMTOFL
 70
     1
  9
$DIMTVP
 40
0.0
  9
$DIMTIX
 70
     0
  9
$DIMSOXD
 70
     0
  9
$DIMSAH
 70
     0
  9
$DIMBLK1
  1

  9
$DIMBLK2
  1

  9
$DIMSTYLE
  2
ISO-25
  9
$DIMCLRD
 70
     0
  9
$DIMCLRE
 70
     0
  9
$DIMCLRT
 70
     0
  9
$DIMTFAC
 40
1.0
  9
$DIMGAP
 40
1.524
  9
$DIMJUST
 70
     0
  9
$DIMSD1
 70
     0
  9
$DIMSD2
 70
     0
  9
$DIMTOLJ
 70
     0
  9
$DIMTZIN
 70
     0
  9
$DIMALTZ
 70
     0
  9
$DIMALTTZ
 70
     0
  9
$DIMUPT
 70
     0
  9
$DIMDEC
 70
     2
  9
$DIMTDEC
 70
     2
  9
$DIMALTU
 70
     2
  9
$DIMALTTD
 70
     3
  9
$DIMTXSTY
  7
Standard
  9
$DIMAUNIT
 70
     0
  9
$DIMADEC
 70
     2
  9
$DIMALTRND
 40
0.0
  9
$DIMAZIN
 70
     0
  9
$DIMDSEP
 70
    44
  9
$DIMATFIT
 70
     3
  9
$DIMFRAC
 70
     0
  9
$DIMLDRBLK
  1

  9
$DIMLUNIT
 70
     2
  9
$DIMLWD
 70
    -2
  9
$DIMLWE
 70
    -2
  9
$DIMTMOVE
 70
     0
  9
$LUNITS
 70
     2
  9
$LUPREC
 70
     2
  9
$SKETCHINC
 40
1.0
  9
$FILLETRAD
 40
10.0
  9
$AUNITS
 70
     0
  9
$AUPREC
 70
     2
  9
$MENU
  1
.
  9
$ELEVATION
 40
0.0
  9
$PELEVATION
 40
0.0
  9
$THICKNESS
 40
0.0
  9
$LIMCHECK
 70
     0
  9
$CHAMFERA
 40
10.0
  9
$CHAMFERB
 40
10.0
  9
$CHAMFERC
 40
20.0
  9
$CHAMFERD
 40
0.0
  9
$SKPOLY
 70
     0
  9
$TDCREATE
 40
2457189.565570498
  9
$TDUCREATE
 40
2457189.232237164
  9
$TDUPDATE
 40
2457189.565571227
  9
$TDUUPDATE
 40
2457189.232237894
  9
$TDINDWG
 40
0.0000000116
  9
$TDUSRTIMER
 40
0.0000000116
  9
$USRTIMER
 70
     1
  9
$ANGBASE
 50
0.0
  9
$ANGDIR
 70
     0
  9
$PDMODE
 70
     0
  9
$PDSIZE
 40
-1.0
  9
$PLINEWID
 40
0.0
  9
$SPLFRAME
 70
     0
  9
$SPLINETYPE
 70
     6
  9
$SPLINESEGS
 70
     8
  9
$HANDSEED
  5
313
  9
$SURFTAB1
 70
     6
  9
$SURFTAB2
 70
     6
  9
$SURFTYPE
 70
     6
  9
$SURFU
 70
     6
  9
$SURFV
 70
     6
  9
$UCSBASE
  2

  9
$UCSNAME
  2

  9
$UCSORG
 10
0.0
 20
0.0
 30
0.0
  9
$UCSXDIR
 10
1.0
 20
0.0
 30
0.0
  9
$UCSYDIR
 10
0.0
 20
1.0
 30
0.0
  9
$UCSORTHOREF
  2

  9
$UCSORTHOVIEW
 70
     0
  9
$UCSORGTOP
 10
0.0
 20
0.0
 30
0.0
  9
$UCSORGBOTTOM
 10
0.0
 20
0.0
 30
0.0
  9
$UCSORGLEFT
 10
0.0
 20
0.0
 30
0.0
  9
$UCSORGRIGHT
 10
0.0
 20
0.0
 30
0.0
  9
$UCSORGFRONT
 10
0.0
 20
0.0
 30
0.0
  9
$UCSORGBACK
 10
0.0
 20
0.0
 30
0.0
  9
$PUCSBASE
  2

  9
$PUCSNAME
  2

  9
$PUCSORG
 10
0.0
 20
0.0
 30
0.0
  9
$PUCSXDIR
 10
1.0
 20
0.0
 30
0.0
  9
$PUCSYDIR
 10
0.0
 20
1.0
 30
0.0
  9
$PUCSORTHOREF
  2

  9
$PUCSORTHOVIEW
 70
     0
  9
$PUCSORGTOP
 10
0.0
 20
0.0
 30
0.0
  9
$PUCSORGBOTTOM
 10
0.0
 20
0.0
 30
0.0
  9
$PUCSORGLEFT
 10
0.0
 20
0.0
 30
0.0
  9
$PUCSORGRIGHT
 10
0.0
 20
0.0
 30
0.0
  9
$PUCSORGFRONT
 10
0.0
 20
0.0
 30
0.0
  9
$PUCSORGBACK
 10
0.0
 20
0.0
 30
0.0
  9
$USERI1
 70
     0
  9
$USERI2
 70
     0
  9
$USERI3
 70
     0
  9
$USERI4
 70
     0
  9
$USERI5
 70
     0
  9
$USERR1
 40
0.0
  9
$USERR2
 40
0.0
  9
$USERR3
 40
0.0
  9
$USERR4
 40
0.0
  9
$USERR5
 40
0.0
  9
$WORLDVIEW
 70
     1
  9
$SHADEDGE
 70
     3
  9
$SHADEDIF
 70
    70
  9
$TILEMODE
 70
     1
  9
$MAXACTVP
 70
    64
  9
$PINSBASE
 10
0.0
 20
0.0
 30
0.0
  9
$PLIMCHECK
 70
     0
  9
$PEXTMIN
 10
1.0000000000E+20
 20
1.0000000000E+20
 30
1.0000000000E+20
  9
$PEXTMAX
 10
-1.0000000000E+20
 20
-1.0000000000E+20
 30
-1.0000000000E+20
  9
$PLIMMIN
 10
0.0
 20
0.0
  9
$PLIMMAX
 10
420.0
 20
297.0
  9
$UNITMODE
 70
     0
  9
$VISRETAIN
 70
     1
  9
$PLINEGEN
 70
     0
  9
$PSLTSCALE
 70
     1
  9
$TREEDEPTH
 70
  3020
  9
$CMLSTYLE
  2
Standard
  9
$CMLJUST
 70
     0
  9
$CMLSCALE
 40
20.0
  9
$PROXYGRAPHICS
 70
     1
  9
$MEASUREMENT
 70
     1
  9
$CELWEIGHT
370
    -1
  9
$ENDCAPS
280
     0
  9
$JOINSTYLE
280
     0
  9
$LWDISPLAY
290
     1
  9
$INSUNITS
 70
     4
  9
$HYPERLINKBASE
  1

  9
$STYLESHEET
  1

  9
$XEDIT
290
     1
  9
$CEPSNTYPE
380
     0
  9
$PSTYLEMODE
290
     1
  9
$FINGERPRINTGUID
  2
{5F9480C3-8252-4C7F-A8AF-F760702E6DCB}
  9
$VERSIONGUID
  2
{FAEB1C32-E019-11D5-929B-00C0DF256EC4}
  9
$EXTNAMES
290
     1
  9
$PSVPSCALE
 40
0.0
  9
$OLESTARTUP
290
     0
  0
ENDSEC
  0
SECTION
  2
CLASSES
  0
CLASS
  1
ACDBDICTIONARYWDFLT
  2
AcDbDictionaryWithDefault
  3
ObjectDBX Classes
 90
        0
280
     0
281
     0
  0
CLASS
  1
VISUALSTYLE
  2
AcDbVisualStyle
  3
ObjectDBX Classes
 90
     4095
280
     0
281
     0
  0
CLASS
  1
MATERIAL
  2
AcDbMaterial
  3
ObjectDBX Classes
 90
     1153
280
     0
281
     0
  0
CLASS
  1
ACDBPLACEHOLDER
  2
AcDbPlaceHolder
  3
ObjectDBX Classes
 90
        0
280
     0
281
     0
  0
CLASS
  1
LAYOUT
  2
AcDbLayout
  3
ObjectDBX Classes
 90
        0
280
     0
281
     0
  0
ENDSEC
  0
SECTION
  2
TABLES
  0
TABLE
  2
VPORT
  5
8
330
0
100
AcDbSymbolTable
 70
     1
  0
VPORT
  5
29
330
8
100
AcDbSymbolTableRecord
100
AcDbViewportTableRecord
  2
*Active
 70
     0
 10
0.0
 20
0.0
 11
1.0
 21
1.0
 12
420.5
 22
297.0
 13
0.0
 23
0.0
 14
10.0
 24
10.0
 15
10.0
 25
10.0
 16
0.0
 26
0.0
 36
1.0
 17
0.0
 27
0.0
 37
0.0
 40
594.0
 41
1.4158249158
 42
50.0
 43
0.0
 44
0.0
 50
0.0
 51
0.0
 71
     0
 72
  2000
 73
     1
 74
     3
 75
     0
 76
     0
 77
     0
 78
     0
281
     0
 65
     1
110
0.0
120
0.0
130
0.0
111
1.0
121
0.0
131
0.0
112
0.0
122
1.0
132
0.0
 79
     0
146
0.0
  0
ENDTAB
  0
TABLE
  2
LTYPE
  5
5
330
0
100
AcDbSymbolTable
 70
     6
  0
LTYPE
  5
14
330
5
100
AcDbSymbolTableRecord
100
AcDbLinetypeTableRecord
  2
ByBlock
 70
     0
  3

 72
    65
 73
     0
 40
0.0
  0
LTYPE
  5
15
330
5
100
AcDbSymbolTableRecord
100
AcDbLinetypeTableRecord
  2
ByLayer
 70
     0
  3

 72
    65
 73
     0
 40
0.0
  0
LTYPE
  5
16
330
5
100
AcDbSymbolTableRecord
100
AcDbLinetypeTableRecord
  2
Continuous
 70
     0
  3
Solid line
 72
    65
 73
     0
 40
0.0
  0
LTYPE
  5
3F
330
5
100
AcDbSymbolTableRecord
100
AcDbLinetypeTableRecord
  2
HIDDEN
 70
     0
  3
Hidden __ __ __ __ __ __ __ __ __ __ __ __ __ __
 72
    65
 73
     2
 40
1.905
 49
1.27
 74
     0
 49
-0.635
 74
     0
  0
LTYPE
  5
40
330
5
100
AcDbSymbolTableRecord
100
AcDbLinetypeTableRecord
  2
PHANTOM
 70
     0
  3
Phantom ______  __  __  ______  __  __  ______
 72
    65
 73
     6
 40
12.7
 49
6.35
 74
     0
 49
-1.27
 74
     0
 49
1.27
 74
     0
 49
-1.27
 74
     0
 49
1.27
 74
     0
 49
-1.27
 74
     0
  0
LTYPE
  5
41
330
5
100
AcDbSymbolTableRecord
100
AcDbLinetypeTableRecord
  2
CENTER
 70
     0
  3
Center ____ _ ____ _ ____ _ ____ _ ____ _ ____
 72
    65
 73
     4
 40
10.16
 49
6.35
 74
     0
 49
-1.27
 74
     0
 49
1.27
 74
     0
 49
-1.27
 74
     0
  0
LTYPE
  5
42
330
5
100
AcDbSymbolTableRecord
100
AcDbLinetypeTableRecord
  2
CENTERX2
 70
     0
  3
Center (2x) ________  __  ________  __  _____
 72
    65
 73
     4
 40
20.32
 49
12.7
 74
     0
 49
-2.54
 74
     0
 49
2.54
 74
     0
 49
-2.54
 74
     0
  0
LTYPE
  5
43
330
5
100
AcDbSymbolTableRecord
100
AcDbLinetypeTableRecord
  2
DOT2
 70
     0
  3
Dot (.5x) ........................................
 72
    65
 73
     2
 40
0.635
 49
0.0
 74
     0
 49
-0.635
 74
     0
  0
ENDTAB
  0
TABLE
  2
LAYER
  5
2
330
0
100
AcDbSymbolTable
 70
     3
  0
LAYER
  5
10
330
2
100
AcDbSymbolTableRecord
100
AcDbLayerTableRecord
  2
0
 70
     0
 62
     7
  6
Continuous
370
    -3
390
F
  0
LAYER
  5
44
330
2
100
AcDbSymbolTableRecord
100
AcDbLayerTableRecord
  2
FORMAT
 70
     0
 62
     7
  6
Continuous
370
    -3
390
F
  0
LAYER
  5
45
330
2
100
AcDbSymbolTableRecord
100
AcDbLayerTableRecord
  2
PROTOTYPE
 70
     0
 62
     7
  6
Continuous
370
    -3
390
F
  0
ENDTAB
  0
TABLE
  2
STYLE
  5
3
330
0
100
AcDbSymbolTable
 70
     1
  0
STYLE
  5
11
330
3
100
AcDbSymbolTableRecord
100
AcDbTextStyleTableRecord
  2
Standard
 70
     0
 40
0.0
 41
1.0
 50
0.0
 71
     0
 42
2.5
  3
txt
  4

  0
ENDTAB
  0
TABLE
  2
VIEW
  5
6
330
0
100
AcDbSymbolTable
 70
     0
  0
ENDTAB
  0
TABLE
  2
UCS
  5
7
330
0
100
AcDbSymbolTable
 70
     0
  0
ENDTAB
  0
TABLE
  2
APPID
  5
9
330
0
100
AcDbSymbolTable
 70
     1
  0
APPID
  5
12
330
9
100
AcDbSymbolTableRecord
100
AcDbRegAppTableRecord
  2
ACAD
 70
     0
  0
ENDTAB
  0
TABLE
  2
DIMSTYLE
  5
A
330
0
100
AcDbSymbolTable
 70
     1
100
AcDbDimStyleTable
  0
DIMSTYLE
105
27
330
A
100
AcDbSymbolTableRecord
100
AcDbDimStyleTableRecord
  2
ISO-25
 70
     0
 41
2.5
 42
0.625
 43
3.75
 44
1.25
 73
     0
 74
     0
 77
     1
 78
     8
140
2.5
141
2.5
143
0.0393700787
147
0.625
171
     3
172
     1
178
     0
271
     2
272
     2
274
     3
278
    44
283
     0
284
     8
340
11
  0
ENDTAB
  0
TABLE
  2
BLOCK_RECORD
  5
1
330
0
100
AcDbSymbolTable
 70
     2
  0
BLOCK_RECORD
  5
1F
330
1
100
AcDbSymbolTableRecord
100
AcDbBlockTableRecord
  2
*Model_Space
340
22
  0
BLOCK_RECORD
  5
1B
330
1
100
AcDbSymbolTableRecord
100
AcDbBlockTableRecord
  2
*Paper_Space
340
1E
  0
BLOCK_RECORD
  5
23
330
1
100
AcDbSymbolTableRecord
100
AcDbBlockTableRecord
  2
*Paper_Space0
340
26
  0
BLOCK_RECORD
  5
90
330
1
100
AcDbSymbolTableRecord
100
AcDbBlockTableRecord
  2
SW_CENTERMARKSYMBOL_0
340
0
102
{BLKREFS
331
143
102
}
  0
ENDTAB
  0
ENDSEC
  0
SECTION
  2
BLOCKS
  0
BLOCK
  5
20
330
1F
100
AcDbEntity
  8
0
100
AcDbBlockBegin
  2
*Model_Space
 70
     0
 10
0.0
 20
0.0
 30
0.0
  3
*Model_Space
  1

  0
ENDBLK
  5
21
330
1F
100
AcDbEntity
  8
0
100
AcDbBlockEnd
  0
BLOCK
  5
1C
330
1B
100
AcDbEntity
 67
     1
  8
0
100
AcDbBlockBegin
  2
*Paper_Space
 70
     0
 10
0.0
 20
0.0
 30
0.0
  3
*Paper_Space
  1

  0
ENDBLK
  5
1D
330
1B
100
AcDbEntity
 67
     1
  8
0
100
AcDbBlockEnd
  0
BLOCK
  5
24
330
23
100
AcDbEntity
  8
0
100
AcDbBlockBegin
  2
*Paper_Space0
 70
     0
 10
0.0
 20
0.0
 30
0.0
  3
*Paper_Space0
  1

  0
ENDBLK
  5
25
330
23
100
AcDbEntity
  8
0
100
AcDbBlockEnd
  0
BLOCK
  5
91
330
90
100
AcDbEntity
  8
0
100
AcDbBlockBegin
  2
SW_CENTERMARKSYMBOL_0
 70
     0
 10
0.0
 20
0.0
 30
0.0
  3
SW_CENTERMARKSYMBOL_0
  1

  0
ARC
  5
93
330
90
100
AcDbEntity
  8
FORMAT
 62
     0
100
AcDbCircle
 10
-61.9999413045
 20
-470.9363091526
 30
0.0
 40
474.999999999999
100
AcDbArc
 50
82.5
 51
82.8015567343
  0
ARC
  5
94
330
90
100
AcDbEntity
  8
FORMAT
 62
     0
100
AcDbCircle
 10
-61.9999413045
 20
-470.9363091526
 30
0.0
 40
474.999999999999
100
AcDbArc
 50
82.1984432657
 51
82.5
  0
ARC
  5
95
330
90
100
AcDbEntity
  8
FORMAT
 62
     0
100
AcDbCircle
 10
-61.9999413045
 20
-470.9363091526
 30
0.0
 40
474.9999999999991
100
AcDbArc
 50
67.5
 51
67.8015567343
  0
ARC
  5
96
330
90
100
AcDbEntity
  8
FORMAT
 62
     0
100
AcDbCircle
 10
-61.9999413045
 20
-470.9363091526
 30
0.0
 40
474.9999999999991
100
AcDbArc
 50
67.1984432657
 51
67.5
  0
ARC
  5
97
330
90
100
AcDbEntity
  8
FORMAT
 62
     0
100
AcDbCircle
 10
-61.9999413045
 20
-470.9363091526
 30
0.0
 40
474.999999999999
100
AcDbArc
 50
52.5
 51
52.8015567343
  0
ARC
  5
98
330
90
100
AcDbEntity
  8
FORMAT
 62
     0
100
AcDbCircle
 10
-61.9999413045
 20
-470.9363091526
 30
0.0
 40
474.9999999999992
100
AcDbArc
 50
52.1984432657
 51
52.5
  0
ARC
  5
99
330
90
100
AcDbEntity
  8
FORMAT
 62
     0
100
AcDbCircle
 10
-61.9999413045
 20
-470.9363091526
 30
0.0
 40
474.9999999999995
100
AcDbArc
 50
37.5
 51
37.8015567343
  0
ARC
  5
9A
330
90
100
AcDbEntity
  8
FORMAT
 62
     0
100
AcDbCircle
 10
-61.9999413045
 20
-470.9363091526
 30
0.0
 40
474.9999999999995
100
AcDbArc
 50
37.1984432657
 51
37.5
  0
ARC
  5
9B
330
90
100
AcDbEntity
  8
FORMAT
 62
     0
100
AcDbCircle
 10
-61.9999413045
 20
-470.9363091526
 30
0.0
 40
474.9999999999999
100
AcDbArc
 50
22.5
 51
22.8015567343
  0
ARC
  5
9C
330
90
100
AcDbEntity
  8
FORMAT
 62
     0
100
AcDbCircle
 10
-61.9999413045
 20
-470.9363091526
 30
0.0
 40
474.9999999999998
100
AcDbArc
 50
22.1984432657
 51
22.5
  0
ARC
  5
9D
330
90
100
AcDbEntity
  8
FORMAT
 62
     0
100
AcDbCircle
 10
-61.9999413045
 20
-470.9363091526
 30
0.0
 40
475.0000000000003
100
AcDbArc
 50
7.5
 51
7.8015567343
  0
ARC
  5
9E
330
90
100
AcDbEntity
  8
FORMAT
 62
     0
100
AcDbCircle
 10
-61.9999413045
 20
-470.9363091526
 30
0.0
 40
475.0000000000003
100
AcDbArc
 50
7.1984432657
 51
7.5
  0
ARC
  5
9F
330
90
100
AcDbEntity
  8
FORMAT
 62
     0
100
AcDbCircle
 10
-61.9999413045
 20
-470.9363091526
 30
0.0
 40
475.000000000001
100
AcDbArc
 50
352.5
 51
352.8015567343
  0
ARC
  5
A0
330
90
100
AcDbEntity
  8
FORMAT
 62
     0
100
AcDbCircle
 10
-61.9999413045
 20
-470.9363091526
 30
0.0
 40
475.000000000001
100
AcDbArc
 50
352.1984432657
 51
352.5
  0
ARC
  5
A1
330
90
100
AcDbEntity
  8
FORMAT
 62
     0
100
AcDbCircle
 10
-61.9999413045
 20
-470.9363091526
 30
0.0
 40
475.0000000000015
100
AcDbArc
 50
337.5
 51
337.8015567343
  0
ARC
  5
A2
330
90
100
AcDbEntity
  8
FORMAT
 62
     0
100
AcDbCircle
 10
-61.9999413045
 20
-470.9363091526
 30
0.0
 40
475.0000000000015
100
AcDbArc
 50
337.1984432657
 51
337.5
  0
ARC
  5
A3
330
90
100
AcDbEntity
  8
FORMAT
 62
     0
100
AcDbCircle
 10
-61.9999413045
 20
-470.9363091526
 30
0.0
 40
475.0000000000019
100
AcDbArc
 50
322.5
 51
322.8015567343
  0
ARC
  5
A4
330
90
100
AcDbEntity
  8
FORMAT
 62
     0
100
AcDbCircle
 10
-61.9999413045
 20
-470.9363091526
 30
0.0
 40
475.0000000000019
100
AcDbArc
 50
322.1984432657
 51
322.5
  0
ARC
  5
A5
330
90
100
AcDbEntity
  8
FORMAT
 62
     0
100
AcDbCircle
 10
-61.9999413045
 20
-470.9363091526
 30
0.0
 40
475.0000000000025
100
AcDbArc
 50
307.5
 51
307.8015567343
  0
ARC
  5
A6
330
90
100
AcDbEntity
  8
FORMAT
 62
     0
100
AcDbCircle
 10
-61.9999413045
 20
-470.9363091526
 30
0.0
 40
475.0000000000025
100
AcDbArc
 50
307.1984432657
 51
307.5
  0
ARC
  5
A7
330
90
100
AcDbEntity
  8
FORMAT
 62
     0
100
AcDbCircle
 10
-61.9999413045
 20
-470.9363091526
 30
0.0
 40
475.000000000003
100
AcDbArc
 50
292.5
 51
292.8015567343
  0
ARC
  5
A8
330
90
100
AcDbEntity
  8
FORMAT
 62
     0
100
AcDbCircle
 10
-61.9999413045
 20
-470.9363091526
 30
0.0
 40
475.0000000000031
100
AcDbArc
 50
292.1984432657
 51
292.5
  0
ARC
  5
A9
330
90
100
AcDbEntity
  8
FORMAT
 62
     0
100
AcDbCircle
 10
-61.9999413045
 20
-470.9363091526
 30
0.0
 40
475.0000000000033
100
AcDbArc
 50
277.5
 51
277.8015567343
  0
ARC
  5
AA
330
90
100
AcDbEntity
  8
FORMAT
 62
     0
100
AcDbCircle
 10
-61.9999413045
 20
-470.9363091526
 30
0.0
 40
475.0000000000033
100
AcDbArc
 50
277.1984432657
 51
277.5
  0
ARC
  5
AB
330
90
100
AcDbEntity
  8
FORMAT
 62
     0
100
AcDbCircle
 10
-61.9999413045
 20
-470.9363091526
 30
0.0
 40
475.0000000000036
100
AcDbArc
 50
262.5
 51
262.8015567343
  0
ARC
  5
AC
330
90
100
AcDbEntity
  8
FORMAT
 62
     0
100
AcDbCircle
 10
-61.9999413045
 20
-470.9363091526
 30
0.0
 40
475.0000000000035
100
AcDbArc
 50
262.1984432657
 51
262.5
  0
ARC
  5
AD
330
90
100
AcDbEntity
  8
FORMAT
 62
     0
100
AcDbCircle
 10
-61.9999413045
 20
-470.9363091526
 30
0.0
 40
475.0000000000035
100
AcDbArc
 50
247.5
 51
247.8015567343
  0
ARC
  5
AE
330
90
100
AcDbEntity
  8
FORMAT
 62
     0
100
AcDbCircle
 10
-61.9999413045
 20
-470.9363091526
 30
0.0
 40
475.0000000000036
100
AcDbArc
 50
247.1984432657
 51
247.5
  0
ARC
  5
AF
330
90
100
AcDbEntity
  8
FORMAT
 62
     0
100
AcDbCircle
 10
-61.9999413045
 20
-470.9363091526
 30
0.0
 40
475.0000000000034
100
AcDbArc
 50
232.5
 51
232.8015567343
  0
ARC
  5
B0
330
90
100
AcDbEntity
  8
FORMAT
 62
     0
100
AcDbCircle
 10
-61.9999413045
 20
-470.9363091526
 30
0.0
 40
475.0000000000034
100
AcDbArc
 50
232.1984432657
 51
232.5
  0
ARC
  5
B1
330
90
100
AcDbEntity
  8
FORMAT
 62
     0
100
AcDbCircle
 10
-61.9999413045
 20
-470.9363091526
 30
0.0
 40
475.0000000000032
100
AcDbArc
 50
217.5
 51
217.8015567343
  0
ARC
  5
B2
330
90
100
AcDbEntity
  8
FORMAT
 62
     0
100
AcDbCircle
 10
-61.9999413045
 20
-470.9363091526
 30
0.0
 40
475.0000000000032
100
AcDbArc
 50
217.1984432657
 51
217.5
  0
ARC
  5
B3
330
90
100
AcDbEntity
  8
FORMAT
 62
     0
100
AcDbCircle
 10
-61.9999413045
 20
-470.9363091526
 30
0.0
 40
475.0000000000028
100
AcDbArc
 50
202.5
 51
202.8015567343
  0
ARC
  5
B4
330
90
100
AcDbEntity
  8
FORMAT
 62
     0
100
AcDbCircle
 10
-61.9999413045
 20
-470.9363091526
 30
0.0
 40
475.0000000000028
100
AcDbArc
 50
202.1984432657
 51
202.5
  0
ARC
  5
B5
330
90
100
AcDbEntity
  8
FORMAT
 62
     0
100
AcDbCircle
 10
-61.9999413045
 20
-470.9363091526
 30
0.0
 40
475.0000000000022
100
AcDbArc
 50
187.5
 51
187.8015567343
  0
ARC
  5
B6
330
90
100
AcDbEntity
  8
FORMAT
 62
     0
100
AcDbCircle
 10
-61.9999413045
 20
-470.9363091526
 30
0.0
 40
475.0000000000022
100
AcDbArc
 50
187.1984432657
 51
187.5
  0
ARC
  5
B7
330
90
100
AcDbEntity
  8
FORMAT
 62
     0
100
AcDbCircle
 10
-61.9999413045
 20
-470.9363091526
 30
0.0
 40
475.0000000000017
100
AcDbArc
 50
172.5
 51
172.8015567343
  0
ARC
  5
B8
330
90
100
AcDbEntity
  8
FORMAT
 62
     0
100
AcDbCircle
 10
-61.9999413045
 20
-470.9363091526
 30
0.0
 40
475.0000000000017
100
AcDbArc
 50
172.1984432657
 51
172.5
  0
ARC
  5
B9
330
90
100
AcDbEntity
  8
FORMAT
 62
     0
100
AcDbCircle
 10
-61.9999413045
 20
-470.9363091526
 30
0.0
 40
475.0000000000011
100
AcDbArc
 50
157.5
 51
157.8015567343
  0
ARC
  5
BA
330
90
100
AcDbEntity
  8
FORMAT
 62
     0
100
AcDbCircle
 10
-61.9999413045
 20
-470.9363091526
 30
0.0
 40
475.0000000000011
100
AcDbArc
 50
157.1984432657
 51
157.5
  0
ARC
  5
BB
330
90
100
AcDbEntity
  8
FORMAT
 62
     0
100
AcDbCircle
 10
-61.9999413045
 20
-470.9363091526
 30
0.0
 40
475.0000000000005
100
AcDbArc
 50
142.5
 51
142.8015567343
  0
ARC
  5
BC
330
90
100
AcDbEntity
  8
FORMAT
 62
     0
100
AcDbCircle
 10
-61.9999413045
 20
-470.9363091526
 30
0.0
 40
475.0000000000005
100
AcDbArc
 50
142.1984432657
 51
142.5
  0
ARC
  5
BD
330
90
100
AcDbEntity
  8
FORMAT
 62
     0
100
AcDbCircle
 10
-61.9999413045
 20
-470.9363091526
 30
0.0
 40
475.0000000000001
100
AcDbArc
 50
127.5
 51
127.8015567343
  0
ARC
  5
BE
330
90
100
AcDbEntity
  8
FORMAT
 62
     0
100
AcDbCircle
 10
-61.9999413045
 20
-470.9363091526
 30
0.0
 40
475.0000000000001
100
AcDbArc
 50
127.1984432657
 51
127.5
  0
ARC
  5
BF
330
90
100
AcDbEntity
  8
FORMAT
 62
     0
100
AcDbCircle
 10
-61.9999413045
 20
-470.9363091526
 30
0.0
 40
474.9999999999995
100
AcDbArc
 50
112.5
 51
112.8015567343
  0
ARC
  5
C0
330
90
100
AcDbEntity
  8
FORMAT
 62
     0
100
AcDbCircle
 10
-61.9999413045
 20
-470.9363091526
 30
0.0
 40
474.9999999999995
100
AcDbArc
 50
112.1984432657
 51
112.5
  0
ARC
  5
C1
330
90
100
AcDbEntity
  8
FORMAT
 62
     0
100
AcDbCircle
 10
-61.9999413045
 20
-470.9363091526
 30
0.0
 40
474.9999999999992
100
AcDbArc
 50
97.5
 51
97.8015567343
  0
ARC
  5
C2
330
90
100
AcDbEntity
  8
FORMAT
 62
     0
100
AcDbCircle
 10
-61.9999413045
 20
-470.9363091526
 30
0.0
 40
474.9999999999992
100
AcDbArc
 50
97.1984432657
 51
97.5
  0
ARC
  5
C3
330
90
100
AcDbEntity
  8
FORMAT
 62
     0
100
AcDbCircle
 10
-61.9999413045
 20
-470.9363091526
 30
0.0
 40
474.9999999999991
100
AcDbArc
 50
53.1031134686
 51
66.8968865314
  0
ARC
  5
C4
330
90
100
AcDbEntity
  8
FORMAT
 62
     0
100
AcDbCircle
 10
-61.9999413045
 20
-470.9363091526
 30
0.0
 40
474.999999999999
100
AcDbArc
 50
68.1031134686
 51
81.8968865314
  0
ARC
  5
C5
330
90
100
AcDbEntity
  8
FORMAT
 62
     0
100
AcDbCircle
 10
-61.9999413045
 20
-470.9363091526
 30
0.0
 40
474.9999999999995
100
AcDbArc
 50
38.1031134686
 51
51.8968865314
  0
ARC
  5
C6
330
90
100
AcDbEntity
  8
FORMAT
 62
     0
100
AcDbCircle
 10
-61.9999413045
 20
-470.9363091526
 30
0.0
 40
474.9999999999998
100
AcDbArc
 50
23.1031134686
 51
36.8968865314
  0
ARC
  5
C7
330
90
100
AcDbEntity
  8
FORMAT
 62
     0
100
AcDbCircle
 10
-61.9999413045
 20
-470.9363091526
 30
0.0
 40
475.0000000000003
100
AcDbArc
 50
8.1031134686
 51
21.8968865314
  0
ARC
  5
C8
330
90
100
AcDbEntity
  8
FORMAT
 62
     0
100
AcDbCircle
 10
-61.9999413045
 20
-470.9363091526
 30
0.0
 40
475.0000000000009
100
AcDbArc
 50
353.1031134686
 51
6.8968865314
  0
ARC
  5
C9
330
90
100
AcDbEntity
  8
FORMAT
 62
     0
100
AcDbCircle
 10
-61.9999413045
 20
-470.9363091526
 30
0.0
 40
475.0000000000015
100
AcDbArc
 50
338.1031134686
 51
351.8968865314
  0
ARC
  5
CA
330
90
100
AcDbEntity
  8
FORMAT
 62
     0
100
AcDbCircle
 10
-61.9999413045
 20
-470.9363091526
 30
0.0
 40
475.0000000000021
100
AcDbArc
 50
323.1031134686
 51
336.8968865314
  0
ARC
  5
CB
330
90
100
AcDbEntity
  8
FORMAT
 62
     0
100
AcDbCircle
 10
-61.9999413045
 20
-470.9363091526
 30
0.0
 40
475.0000000000025
100
AcDbArc
 50
308.1031134686
 51
321.8968865314
  0
ARC
  5
CC
330
90
100
AcDbEntity
  8
FORMAT
 62
     0
100
AcDbCircle
 10
-61.9999413045
 20
-470.9363091526
 30
0.0
 40
475.000000000003
100
AcDbArc
 50
293.1031134686
 51
306.8968865314
  0
ARC
  5
CD
330
90
100
AcDbEntity
  8
FORMAT
 62
     0
100
AcDbCircle
 10
-61.9999413045
 20
-470.9363091526
 30
0.0
 40
475.0000000000032
100
AcDbArc
 50
278.1031134686
 51
291.8968865314
  0
ARC
  5
CE
330
90
100
AcDbEntity
  8
FORMAT
 62
     0
100
AcDbCircle
 10
-61.9999413045
 20
-470.9363091526
 30
0.0
 40
475.0000000000035
100
AcDbArc
 50
263.1031134686
 51
276.8968865314
  0
ARC
  5
CF
330
90
100
AcDbEntity
  8
FORMAT
 62
     0
100
AcDbCircle
 10
-61.9999413045
 20
-470.9363091526
 30
0.0
 40
475.0000000000035
100
AcDbArc
 50
248.1031134686
 51
261.8968865314
  0
ARC
  5
D0
330
90
100
AcDbEntity
  8
FORMAT
 62
     0
100
AcDbCircle
 10
-61.9999413045
 20
-470.9363091526
 30
0.0
 40
475.0000000000036
100
AcDbArc
 50
233.1031134686
 51
246.8968865314
  0
ARC
  5
D1
330
90
100
AcDbEntity
  8
FORMAT
 62
     0
100
AcDbCircle
 10
-61.9999413045
 20
-470.9363091526
 30
0.0
 40
475.0000000000034
100
AcDbArc
 50
218.1031134686
 51
231.8968865314
  0
ARC
  5
D2
330
90
100
AcDbEntity
  8
FORMAT
 62
     0
100
AcDbCircle
 10
-61.9999413045
 20
-470.9363091526
 30
0.0
 40
475.0000000000032
100
AcDbArc
 50
203.1031134686
 51
216.8968865314
  0
ARC
  5
D3
330
90
100
AcDbEntity
  8
FORMAT
 62
     0
100
AcDbCircle
 10
-61.9999413045
 20
-470.9363091526
 30
0.0
 40
475.0000000000027
100
AcDbArc
 50
188.1031134686
 51
201.8968865314
  0
ARC
  5
D4
330
90
100
AcDbEntity
  8
FORMAT
 62
     0
100
AcDbCircle
 10
-61.9999413045
 20
-470.9363091526
 30
0.0
 40
475.0000000000022
100
AcDbArc
 50
173.1031134686
 51
186.8968865314
  0
ARC
  5
D5
330
90
100
AcDbEntity
  8
FORMAT
 62
     0
100
AcDbCircle
 10
-61.9999413045
 20
-470.9363091526
 30
0.0
 40
475.0000000000017
100
AcDbArc
 50
158.1031134686
 51
171.8968865314
  0
ARC
  5
D6
330
90
100
AcDbEntity
  8
FORMAT
 62
     0
100
AcDbCircle
 10
-61.9999413045
 20
-470.9363091526
 30
0.0
 40
475.0000000000011
100
AcDbArc
 50
143.1031134686
 51
156.8968865314
  0
ARC
  5
D7
330
90
100
AcDbEntity
  8
FORMAT
 62
     0
100
AcDbCircle
 10
-61.9999413045
 20
-470.9363091526
 30
0.0
 40
475.0000000000006
100
AcDbArc
 50
128.1031134686
 51
141.8968865314
  0
ARC
  5
D8
330
90
100
AcDbEntity
  8
FORMAT
 62
     0
100
AcDbCircle
 10
-61.9999413045
 20
-470.9363091526
 30
0.0
 40
475.0000000000001
100
AcDbArc
 50
113.1031134686
 51
126.8968865314
  0
ARC
  5
D9
330
90
100
AcDbEntity
  8
FORMAT
 62
     0
100
AcDbCircle
 10
-61.9999413045
 20
-470.9363091526
 30
0.0
 40
474.9999999999993
100
AcDbArc
 50
83.1031134686
 51
96.8968865314
  0
ARC
  5
DA
330
90
100
AcDbEntity
  8
FORMAT
 62
     0
100
AcDbCircle
 10
-61.9999413045
 20
-470.9363091526
 30
0.0
 40
474.9999999999995
100
AcDbArc
 50
98.1031134686
 51
111.8968865314
  0
LINE
  5
DB
330
90
100
AcDbEntity
  8
FORMAT
 62
     0
100
AcDbLine
 10
0.0
 20
0.0
 30
0.0
 11
0.3263154806
 21
2.4786121534
 31
0.0
  0
LINE
  5
DC
330
90
100
AcDbEntity
  8
FORMAT
 62
     0
100
AcDbLine
 10
0.0
 20
0.0
 30
0.0
 11
-0.3263154806
 21
-2.4786121534
 31
0.0
  0
LINE
  5
DD
330
90
100
AcDbEntity
  8
FORMAT
 62
     0
100
AcDbLine
 10
0.6526309611
 20
4.9572243069
 30
0.0
 11
2.936839325
 21
22.3075093809
 31
0.0
  0
LINE
  5
DE
330
90
100
AcDbEntity
  8
FORMAT
 62
     0
100
AcDbLine
 10
-0.6526309611
 20
-4.9572243069
 30
0.0
 11
-2.936839325
 21
-22.3075093809
 31
0.0
  0
LINE
  5
DF
330
90
100
AcDbEntity
  8
FORMAT
 62
     0
100
AcDbLine
 10
119.7746890689
 20
-32.0935312097
 30
0.0
 11
120.7313976498
 21
-29.7838323784
 31
0.0
  0
LINE
  5
E0
330
90
100
AcDbEntity
  8
FORMAT
 62
     0
100
AcDbLine
 10
119.7746890689
 20
-32.0935312097
 30
0.0
 11
118.817980488
 21
-34.403230041
 31
0.0
  0
LINE
  5
E1
330
90
100
AcDbEntity
  8
FORMAT
 62
     0
100
AcDbLine
 10
121.6881062307
 20
-27.4741335471
 30
0.0
 11
128.3850662971
 21
-11.3062417282
 31
0.0
  0
LINE
  5
E2
330
90
100
AcDbEntity
  8
FORMAT
 62
     0
100
AcDbLine
 10
117.8612719071
 20
-36.7129288723
 30
0.0
 11
111.1643118407
 21
-52.8808206912
 31
0.0
  0
LINE
  5
E3
330
90
100
AcDbEntity
  8
FORMAT
 62
     0
100
AcDbLine
 10
227.1617374746
 20
-94.0934725142
 30
0.0
 11
228.6836410471
 21
-92.1100891635
 31
0.0
  0
LINE
  5
E4
330
90
100
AcDbEntity
  8
FORMAT
 62
     0
100
AcDbLine
 10
227.1617374746
 20
-94.0934725142
 30
0.0
 11
225.6398339021
 21
-96.076855865
 31
0.0
  0
LINE
  5
E5
330
90
100
AcDbEntity
  8
FORMAT
 62
     0
100
AcDbLine
 10
230.2055446197
 20
-90.1267058128
 30
0.0
 11
240.8588696273
 21
-76.2430223577
 31
0.0
  0
LINE
  5
E6
330
90
100
AcDbEntity
  8
FORMAT
 62
     0
100
AcDbLine
 10
224.1179303296
 20
-98.0602392157
 30
0.0
 11
213.4646053219
 21
-111.9439226708
 31
0.0
  0
LINE
  5
E7
330
90
100
AcDbEntity
  8
FORMAT
 62
     0
100
AcDbLine
 10
-61.9999413045
 20
-470.9363091526
 30
0.0
 11
-61.9999413045
 21
-468.4363091526
 31
0.0
  0
LINE
  5
E8
330
90
100
AcDbEntity
  8
FORMAT
 62
     0
100
AcDbLine
 10
-61.9999413045
 20
-470.9363091526
 30
0.0
 11
-64.4999413045
 21
-470.9363091526
 31
0.0
  0
LINE
  5
E9
330
90
100
AcDbEntity
  8
FORMAT
 62
     0
100
AcDbLine
 10
-61.9999413045
 20
-470.9363091526
 30
0.0
 11
-61.9999413045
 21
-473.4363091526
 31
0.0
  0
LINE
  5
EA
330
90
100
AcDbEntity
  8
FORMAT
 62
     0
100
AcDbLine
 10
-61.9999413045
 20
-470.9363091526
 30
0.0
 11
-59.4999413045
 21
-470.9363091526
 31
0.0
  0
LINE
  5
EB
330
90
100
AcDbEntity
  8
FORMAT
 62
     0
100
AcDbLine
 10
-61.9999413045
 20
-465.9363091526
 30
0.0
 11
-61.9999413045
 21
46.8736271535
 31
0.0
  0
LINE
  5
EC
330
90
100
AcDbEntity
  8
FORMAT
 62
     0
100
AcDbLine
 10
-66.9999413045
 20
-470.9363091526
 30
0.0
 11
-585.9071295269
 21
-470.9363091526
 31
0.0
  0
LINE
  5
ED
330
90
100
AcDbEntity
  8
FORMAT
 62
     0
100
AcDbLine
 10
-61.9999413045
 20
-475.9363091526
 30
0.0
 11
-61.9999413045
 21
-993.8274697299
 31
0.0
  0
LINE
  5
EE
330
90
100
AcDbEntity
  8
FORMAT
 62
     0
100
AcDbLine
 10
-56.9999413045
 20
-470.9363091526
 30
0.0
 11
460.9157385147
 21
-470.9363091526
 31
0.0
  0
LINE
  5
EF
330
90
100
AcDbEntity
  8
FORMAT
 62
     0
100
AcDbLine
 10
314.8428953338
 20
-181.7746303734
 30
0.0
 11
316.8262786845
 21
-180.2527268009
 31
0.0
  0
LINE
  5
F0
330
90
100
AcDbEntity
  8
FORMAT
 62
     0
100
AcDbLine
 10
314.8428953338
 20
-181.7746303734
 30
0.0
 11
312.8595119831
 21
-183.2965339459
 31
0.0
  0
LINE
  5
F1
330
90
100
AcDbEntity
  8
FORMAT
 62
     0
100
AcDbLine
 10
318.8096620353
 20
-178.7308232284
 30
0.0
 11
332.6933454904
 21
-168.0774982207
 31
0.0
  0
LINE
  5
F2
330
90
100
AcDbEntity
  8
FORMAT
 62
     0
100
AcDbLine
 10
310.8761286324
 20
-184.8184375185
 30
0.0
 11
296.9924451773
 21
-195.4717625261
 31
0.0
  0
LINE
  5
F3
330
90
100
AcDbEntity
  8
FORMAT
 62
     0
100
AcDbLine
 10
376.8428366383
 20
-289.1616787792
 30
0.0
 11
379.1525354696
 21
-288.2049701982
 31
0.0
  0
LINE
  5
F4
330
90
100
AcDbEntity
  8
FORMAT
 62
     0
100
AcDbLine
 10
376.8428366383
 20
-289.1616787792
 30
0.0
 11
374.5331378071
 21
-290.1183873601
 31
0.0
  0
LINE
  5
F5
330
90
100
AcDbEntity
  8
FORMAT
 62
     0
100
AcDbLine
 10
381.4622343009
 20
-287.2482616173
 30
0.0
 11
397.6301261198
 21
-280.5513015509
 31
0.0
  0
LINE
  5
F6
330
90
100
AcDbEntity
  8
FORMAT
 62
     0
100
AcDbLine
 10
372.2234389758
 20
-291.075095941
 30
0.0
 11
356.0555471568
 21
-297.7720560074
 31
0.0
  0
LINE
  5
F7
330
90
100
AcDbEntity
  8
FORMAT
 62
     0
100
AcDbLine
 10
408.936367848
 20
-408.936367848
 30
0.0
 11
411.4149800015
 21
-408.6100523675
 31
0.0
  0
LINE
  5
F8
330
90
100
AcDbEntity
  8
FORMAT
 62
     0
100
AcDbLine
 10
408.936367848
 20
-408.936367848
 30
0.0
 11
406.4577556946
 21
-409.2626833286
 31
0.0
  0
LINE
  5
F9
330
90
100
AcDbEntity
  8
FORMAT
 62
     0
100
AcDbLine
 10
413.8935921549
 20
-408.2837368869
 30
0.0
 11
431.2438772289
 21
-405.9995285231
 31
0.0
  0
LINE
  5
FA
330
90
100
AcDbEntity
  8
FORMAT
 62
     0
100
AcDbLine
 10
403.9791435412
 20
-409.5889988091
 30
0.0
 11
386.6288584671
 21
-411.873207173
 31
0.0
  0
LINE
  5
FB
330
90
100
AcDbEntity
  8
FORMAT
 62
     0
100
AcDbLine
 10
408.936367848
 20
-532.9362504571
 30
0.0
 11
411.4149800015
 21
-533.2625659376
 31
0.0
  0
LINE
  5
FC
330
90
100
AcDbEntity
  8
FORMAT
 62
     0
100
AcDbLine
 10
408.936367848
 20
-532.9362504571
 30
0.0
 11
406.4577556946
 21
-532.6099349765
 31
0.0
  0
LINE
  5
FD
330
90
100
AcDbEntity
  8
FORMAT
 62
     0
100
AcDbLine
 10
413.8935921549
 20
-533.5888814182
 30
0.0
 11
431.2438772289
 21
-535.873089782
 31
0.0
  0
LINE
  5
FE
330
90
100
AcDbEntity
  8
FORMAT
 62
     0
100
AcDbLine
 10
403.9791435412
 20
-532.283619496
 30
0.0
 11
386.6288584671
 21
-529.9994111321
 31
0.0
  0
LINE
  5
FF
330
90
100
AcDbEntity
  8
FORMAT
 62
     0
100
AcDbLine
 10
376.8428366383
 20
-652.710939526
 30
0.0
 11
379.1525354696
 21
-653.6676481069
 31
0.0
  0
LINE
  5
100
330
90
100
AcDbEntity
  8
FORMAT
 62
     0
100
AcDbLine
 10
376.8428366383
 20
-652.710939526
 30
0.0
 11
374.533137807
 21
-651.7542309451
 31
0.0
  0
LINE
  5
101
330
90
100
AcDbEntity
  8
FORMAT
 62
     0
100
AcDbLine
 10
381.4622343009
 20
-654.6243566878
 30
0.0
 11
397.6301261198
 21
-661.3213167542
 31
0.0
  0
LINE
  5
102
330
90
100
AcDbEntity
  8
FORMAT
 62
     0
100
AcDbLine
 10
372.2234389758
 20
-650.7975223642
 30
0.0
 11
356.0555471568
 21
-644.1005622978
 31
0.0
  0
LINE
  5
103
330
90
100
AcDbEntity
  8
FORMAT
 62
     0
100
AcDbLine
 10
314.8428953338
 20
-760.0979879317
 30
0.0
 11
316.8262786845
 21
-761.6198915042
 31
0.0
  0
LINE
  5
104
330
90
100
AcDbEntity
  8
FORMAT
 62
     0
100
AcDbLine
 10
314.8428953338
 20
-760.0979879317
 30
0.0
 11
312.8595119831
 21
-758.5760843592
 31
0.0
  0
LINE
  5
105
330
90
100
AcDbEntity
  8
FORMAT
 62
     0
100
AcDbLine
 10
318.8096620353
 20
-763.1417950768
 30
0.0
 11
332.6933454904
 21
-773.7951200844
 31
0.0
  0
LINE
  5
106
330
90
100
AcDbEntity
  8
FORMAT
 62
     0
100
AcDbLine
 10
310.8761286323
 20
-757.0541807867
 30
0.0
 11
296.9924451772
 21
-746.400855779
 31
0.0
  0
LINE
  5
107
330
90
100
AcDbEntity
  8
FORMAT
 62
     0
100
AcDbLine
 10
227.1617374746
 20
-847.7791457909
 30
0.0
 11
228.6836410471
 21
-849.7625291416
 31
0.0
  0
LINE
  5
108
330
90
100
AcDbEntity
  8
FORMAT
 62
     0
100
AcDbLine
 10
227.1617374746
 20
-847.7791457909
 30
0.0
 11
225.6398339021
 21
-845.7957624402
 31
0.0
  0
LINE
  5
109
330
90
100
AcDbEntity
  8
FORMAT
 62
     0
100
AcDbLine
 10
230.2055446196
 20
-851.7459124924
 30
0.0
 11
240.8588696273
 21
-865.6295959475
 31
0.0
  0
LINE
  5
10A
330
90
100
AcDbEntity
  8
FORMAT
 62
     0
100
AcDbLine
 10
224.1179303296
 20
-843.8123790894
 30
0.0
 11
213.4646053219
 21
-829.9286956343
 31
0.0
  0
LINE
  5
10B
330
90
100
AcDbEntity
  8
FORMAT
 62
     0
100
AcDbLine
 10
119.7746890689
 20
-909.7790870954
 30
0.0
 11
120.7313976498
 21
-912.0887859267
 31
0.0
  0
LINE
  5
10C
330
90
100
AcDbEntity
  8
FORMAT
 62
     0
100
AcDbLine
 10
119.7746890689
 20
-909.7790870954
 30
0.0
 11
118.817980488
 21
-907.4693882641
 31
0.0
  0
LINE
  5
10D
330
90
100
AcDbEntity
  8
FORMAT
 62
     0
100
AcDbLine
 10
121.6881062307
 20
-914.398484758
 30
0.0
 11
128.3850662971
 21
-930.5663765769
 31
0.0
  0
LINE
  5
10E
330
90
100
AcDbEntity
  8
FORMAT
 62
     0
100
AcDbLine
 10
117.8612719071
 20
-905.1596894329
 30
0.0
 11
111.1643118407
 21
-888.9917976139
 31
0.0
  0
LINE
  5
10F
330
90
100
AcDbEntity
  8
FORMAT
 62
     0
100
AcDbLine
 10
0.0
 20
-941.8726183051
 30
0.0
 11
0.3263154805
 21
-944.3512304586
 31
0.0
  0
LINE
  5
110
330
90
100
AcDbEntity
  8
FORMAT
 62
     0
100
AcDbLine
 10
0.0
 20
-941.8726183051
 30
0.0
 11
-0.3263154806
 21
-939.3940061517
 31
0.0
  0
LINE
  5
111
330
90
100
AcDbEntity
  8
FORMAT
 62
     0
100
AcDbLine
 10
0.6526309611
 20
-946.829842612
 30
0.0
 11
2.9368393249
 21
-964.180127686
 31
0.0
  0
LINE
  5
112
330
90
100
AcDbEntity
  8
FORMAT
 62
     0
100
AcDbLine
 10
-0.6526309611
 20
-936.9153939983
 30
0.0
 11
-2.936839325
 21
-919.5651089242
 31
0.0
  0
LINE
  5
113
330
90
100
AcDbEntity
  8
FORMAT
 62
     0
100
AcDbLine
 10
-123.9998826091
 20
-941.8726183051
 30
0.0
 11
-124.3261980896
 21
-944.3512304586
 31
0.0
  0
LINE
  5
114
330
90
100
AcDbEntity
  8
FORMAT
 62
     0
100
AcDbLine
 10
-123.9998826091
 20
-941.8726183051
 30
0.0
 11
-123.6735671285
 21
-939.3940061517
 31
0.0
  0
LINE
  5
115
330
90
100
AcDbEntity
  8
FORMAT
 62
     0
100
AcDbLine
 10
-124.6525135702
 20
-946.829842612
 30
0.0
 11
-126.936721934
 21
-964.180127686
 31
0.0
  0
LINE
  5
116
330
90
100
AcDbEntity
  8
FORMAT
 62
     0
100
AcDbLine
 10
-123.347251648
 20
-936.9153939983
 30
0.0
 11
-121.0630432841
 21
-919.5651089242
 31
0.0
  0
LINE
  5
117
330
90
100
AcDbEntity
  8
FORMAT
 62
     0
100
AcDbLine
 10
-243.774571678
 20
-909.7790870954
 30
0.0
 11
-244.7312802589
 21
-912.0887859267
 31
0.0
  0
LINE
  5
118
330
90
100
AcDbEntity
  8
FORMAT
 62
     0
100
AcDbLine
 10
-243.774571678
 20
-909.7790870954
 30
0.0
 11
-242.817863097
 21
-907.4693882641
 31
0.0
  0
LINE
  5
119
330
90
100
AcDbEntity
  8
FORMAT
 62
     0
100
AcDbLine
 10
-245.6879888398
 20
-914.398484758
 30
0.0
 11
-252.3849489062
 21
-930.5663765769
 31
0.0
  0
LINE
  5
11A
330
90
100
AcDbEntity
  8
FORMAT
 62
     0
100
AcDbLine
 10
-241.8611545161
 20
-905.1596894329
 30
0.0
 11
-235.1641944497
 21
-888.9917976139
 31
0.0
  0
LINE
  5
11B
330
90
100
AcDbEntity
  8
FORMAT
 62
     0
100
AcDbLine
 10
-351.1616200837
 20
-847.7791457909
 30
0.0
 11
-352.6835236562
 21
-849.7625291416
 31
0.0
  0
LINE
  5
11C
330
90
100
AcDbEntity
  8
FORMAT
 62
     0
100
AcDbLine
 10
-351.1616200837
 20
-847.7791457909
 30
0.0
 11
-349.6397165112
 21
-845.7957624402
 31
0.0
  0
LINE
  5
11D
330
90
100
AcDbEntity
  8
FORMAT
 62
     0
100
AcDbLine
 10
-354.2054272287
 20
-851.7459124923
 30
0.0
 11
-364.8587522364
 21
-865.6295959474
 31
0.0
  0
LINE
  5
11E
330
90
100
AcDbEntity
  8
FORMAT
 62
     0
100
AcDbLine
 10
-348.1178129386
 20
-843.8123790894
 30
0.0
 11
-337.464487931
 21
-829.9286956343
 31
0.0
  0
LINE
  5
11F
330
90
100
AcDbEntity
  8
FORMAT
 62
     0
100
AcDbLine
 10
-438.8427779429
 20
-760.0979879317
 30
0.0
 11
-440.8261612936
 21
-761.6198915042
 31
0.0
  0
LINE
  5
120
330
90
100
AcDbEntity
  8
FORMAT
 62
     0
100
AcDbLine
 10
-438.8427779429
 20
-760.0979879317
 30
0.0
 11
-436.8593945921
 21
-758.5760843592
 31
0.0
  0
LINE
  5
121
330
90
100
AcDbEntity
  8
FORMAT
 62
     0
100
AcDbLine
 10
-442.8095446443
 20
-763.1417950767
 30
0.0
 11
-456.6932280994
 21
-773.7951200844
 31
0.0
  0
LINE
  5
122
330
90
100
AcDbEntity
  8
FORMAT
 62
     0
100
AcDbLine
 10
-434.8760112414
 20
-757.0541807867
 30
0.0
 11
-420.9923277863
 21
-746.400855779
 31
0.0
  0
LINE
  5
123
330
90
100
AcDbEntity
  8
FORMAT
 62
     0
100
AcDbLine
 10
-500.8427192474
 20
-652.710939526
 30
0.0
 11
-503.1524180787
 21
-653.6676481069
 31
0.0
  0
LINE
  5
124
330
90
100
AcDbEntity
  8
FORMAT
 62
     0
100
AcDbLine
 10
-500.8427192474
 20
-652.710939526
 30
0.0
 11
-498.5330204161
 21
-651.7542309451
 31
0.0
  0
LINE
  5
125
330
90
100
AcDbEntity
  8
FORMAT
 62
     0
100
AcDbLine
 10
-505.46211691
 20
-654.6243566878
 30
0.0
 11
-521.6300087289
 21
-661.3213167542
 31
0.0
  0
LINE
  5
126
330
90
100
AcDbEntity
  8
FORMAT
 62
     0
100
AcDbLine
 10
-496.2233215848
 20
-650.7975223641
 30
0.0
 11
-480.0554297659
 21
-644.1005622978
 31
0.0
  0
LINE
  5
127
330
90
100
AcDbEntity
  8
FORMAT
 62
     0
100
AcDbLine
 10
-532.9362504571
 20
-532.9362504571
 30
0.0
 11
-535.4148626105
 21
-533.2625659376
 31
0.0
  0
LINE
  5
128
330
90
100
AcDbEntity
  8
FORMAT
 62
     0
100
AcDbLine
 10
-532.9362504571
 20
-532.9362504571
 30
0.0
 11
-530.4576383037
 21
-532.6099349765
 31
0.0
  0
LINE
  5
129
330
90
100
AcDbEntity
  8
FORMAT
 62
     0
100
AcDbLine
 10
-537.893474764
 20
-533.5888814182
 30
0.0
 11
-555.243759838
 21
-535.873089782
 31
0.0
  0
LINE
  5
12A
330
90
100
AcDbEntity
  8
FORMAT
 62
     0
100
AcDbLine
 10
-527.9790261502
 20
-532.283619496
 30
0.0
 11
-510.6287410762
 21
-529.9994111321
 31
0.0
  0
LINE
  5
12B
330
90
100
AcDbEntity
  8
FORMAT
 62
     0
100
AcDbLine
 10
-532.9362504571
 20
-408.936367848
 30
0.0
 11
-535.4148626105
 21
-408.6100523675
 31
0.0
  0
LINE
  5
12C
330
90
100
AcDbEntity
  8
FORMAT
 62
     0
100
AcDbLine
 10
-532.9362504571
 20
-408.936367848
 30
0.0
 11
-530.4576383037
 21
-409.2626833286
 31
0.0
  0
LINE
  5
12D
330
90
100
AcDbEntity
  8
FORMAT
 62
     0
100
AcDbLine
 10
-537.893474764
 20
-408.2837368869
 30
0.0
 11
-555.243759838
 21
-405.9995285231
 31
0.0
  0
LINE
  5
12E
330
90
100
AcDbEntity
  8
FORMAT
 62
     0
100
AcDbLine
 10
-527.9790261502
 20
-409.5889988091
 30
0.0
 11
-510.6287410762
 21
-411.873207173
 31
0.0
  0
LINE
  5
12F
330
90
100
AcDbEntity
  8
FORMAT
 62
     0
100
AcDbLine
 10
-500.8427192474
 20
-289.1616787791
 30
0.0
 11
-503.1524180787
 21
-288.2049701982
 31
0.0
  0
LINE
  5
130
330
90
100
AcDbEntity
  8
FORMAT
 62
     0
100
AcDbLine
 10
-500.8427192474
 20
-289.1616787791
 30
0.0
 11
-498.5330204161
 21
-290.11838736
 31
0.0
  0
LINE
  5
131
330
90
100
AcDbEntity
  8
FORMAT
 62
     0
100
AcDbLine
 10
-505.4621169099
 20
-287.2482616173
 30
0.0
 11
-521.6300087289
 21
-280.5513015509
 31
0.0
  0
LINE
  5
132
330
90
100
AcDbEntity
  8
FORMAT
 62
     0
100
AcDbLine
 10
-496.2233215848
 20
-291.075095941
 30
0.0
 11
-480.0554297659
 21
-297.7720560073
 31
0.0
  0
LINE
  5
133
330
90
100
AcDbEntity
  8
FORMAT
 62
     0
100
AcDbLine
 10
-438.8427779429
 20
-181.7746303734
 30
0.0
 11
-440.8261612936
 21
-180.2527268009
 31
0.0
  0
LINE
  5
134
330
90
100
AcDbEntity
  8
FORMAT
 62
     0
100
AcDbLine
 10
-438.8427779429
 20
-181.7746303734
 30
0.0
 11
-436.8593945921
 21
-183.2965339459
 31
0.0
  0
LINE
  5
135
330
90
100
AcDbEntity
  8
FORMAT
 62
     0
100
AcDbLine
 10
-442.8095446443
 20
-178.7308232284
 30
0.0
 11
-456.6932280994
 21
-168.0774982207
 31
0.0
  0
LINE
  5
136
330
90
100
AcDbEntity
  8
FORMAT
 62
     0
100
AcDbLine
 10
-434.8760112414
 20
-184.8184375185
 30
0.0
 11
-420.9923277863
 21
-195.4717625261
 31
0.0
  0
LINE
  5
137
330
90
100
AcDbEntity
  8
FORMAT
 62
     0
100
AcDbLine
 10
-351.1616200837
 20
-94.0934725142
 30
0.0
 11
-352.6835236562
 21
-92.1100891635
 31
0.0
  0
LINE
  5
138
330
90
100
AcDbEntity
  8
FORMAT
 62
     0
100
AcDbLine
 10
-351.1616200837
 20
-94.0934725142
 30
0.0
 11
-349.6397165111
 21
-96.0768558649
 31
0.0
  0
LINE
  5
139
330
90
100
AcDbEntity
  8
FORMAT
 62
     0
100
AcDbLine
 10
-354.2054272287
 20
-90.1267058128
 30
0.0
 11
-364.8587522364
 21
-76.2430223577
 31
0.0
  0
LINE
  5
13A
330
90
100
AcDbEntity
  8
FORMAT
 62
     0
100
AcDbLine
 10
-348.1178129386
 20
-98.0602392157
 30
0.0
 11
-337.464487931
 21
-111.9439226708
 31
0.0
  0
LINE
  5
13B
330
90
100
AcDbEntity
  8
FORMAT
 62
     0
100
AcDbLine
 10
-243.7745716779
 20
-32.0935312097
 30
0.0
 11
-244.7312802589
 21
-29.7838323784
 31
0.0
  0
LINE
  5
13C
330
90
100
AcDbEntity
  8
FORMAT
 62
     0
100
AcDbLine
 10
-243.7745716779
 20
-32.0935312097
 30
0.0
 11
-242.817863097
 21
-34.403230041
 31
0.0
  0
LINE
  5
13D
330
90
100
AcDbEntity
  8
FORMAT
 62
     0
100
AcDbLine
 10
-245.6879888398
 20
-27.4741335471
 30
0.0
 11
-252.3849489062
 21
-11.3062417282
 31
0.0
  0
LINE
  5
13E
330
90
100
AcDbEntity
  8
FORMAT
 62
     0
100
AcDbLine
 10
-241.8611545161
 20
-36.7129288723
 30
0.0
 11
-235.1641944497
 21
-52.8808206912
 31
0.0
  0
LINE
  5
13F
330
90
100
AcDbEntity
  8
FORMAT
 62
     0
100
AcDbLine
 10
-123.999882609
 20
0.0
 30
0.0
 11
-124.3261980896
 21
2.4786121534
 31
0.0
  0
LINE
  5
140
330
90
100
AcDbEntity
  8
FORMAT
 62
     0
100
AcDbLine
 10
-123.999882609
 20
0.0
 30
0.0
 11
-123.6735671285
 21
-2.4786121534
 31
0.0
  0
LINE
  5
141
330
90
100
AcDbEntity
  8
FORMAT
 62
     0
100
AcDbLine
 10
-124.6525135701
 20
4.9572243069
 30
0.0
 11
-126.936721934
 21
22.3075093809
 31
0.0
  0
LINE
  5
142
330
90
100
AcDbEntity
  8
FORMAT
 62
     0
100
AcDbLine
 10
-123.3472516479
 20
-4.9572243069
 30
0.0
 11
-121.0630432841
 21
-22.3075093809
 31
0.0
  0
ENDBLK
  5
92
330
90
100
AcDbEntity
  8
0
100
AcDbBlockEnd
  0
ENDSEC
  0
SECTION
  2
ENTITIES
  0
CIRCLE
  5
46
330
1F
100
AcDbEntity
  8
0
  6
Continuous
 62
     7
370
    15
100
AcDbCircle
 10
182.8116958665
 20
1112.2825701781
 30
0.0
 40
20.0
  0
CIRCLE
  5
47
330
1F
100
AcDbEntity
  8
0
  6
Continuous
 62
     7
370
    15
100
AcDbCircle
 10
409.9734333411
 20
1018.1890976638
 30
0.0
 40
20.00000000000006
  0
CIRCLE
  5
48
330
1F
100
AcDbEntity
  8
0
  6
Continuous
 62
     7
370
    15
100
AcDbCircle
 10
559.6545325048
 20
823.1208913989
 30
0.0
 40
20.00000000000011
  0
CIRCLE
  5
49
330
1F
100
AcDbEntity
  8
0
  6
Continuous
 62
     7
370
    15
100
AcDbCircle
 10
591.7480637145
 20
579.346319721
 30
0.0
 40
20.0
  0
CIRCLE
  5
4A
330
1F
100
AcDbEntity
  8
0
  6
Continuous
 62
     7
370
    15
100
AcDbCircle
 10
497.6545912003
 20
352.1845822464
 30
0.0
 40
20.00000000000006
  0
CIRCLE
  5
4B
330
1F
100
AcDbEntity
  8
0
  6
Continuous
 62
     7
370
    15
100
AcDbCircle
 10
302.5863849354
 20
202.5034830826
 30
0.0
 40
19.99999999999994
  0
CIRCLE
  5
4C
330
1F
100
AcDbEntity
  8
0
  6
Continuous
 62
     7
370
    15
100
AcDbCircle
 10
-60.9628758114
 20
202.5034830827
 30
0.0
 40
19.99999999999999
  0
CIRCLE
  5
4D
330
1F
100
AcDbEntity
  8
0
  6
Continuous
 62
     7
370
    15
100
AcDbCircle
 10
-256.0310820764
 20
352.1845822464
 30
0.0
 40
20.00000000000006
  0
CIRCLE
  5
4E
330
1F
100
AcDbEntity
  8
0
  6
Continuous
 62
     7
370
    15
100
AcDbCircle
 10
-350.1245545906
 20
579.346319721
 30
0.0
 40
20.00000000000006
  0
CIRCLE
  5
4F
330
1F
100
AcDbEntity
  8
0
  6
Continuous
 62
     7
370
    15
100
AcDbCircle
 10
-318.0310233809
 20
823.1208913989
 30
0.0
 40
20.00000000000006
  0
CIRCLE
  5
50
330
1F
100
AcDbEntity
  8
0
  6
Continuous
 62
     7
370
    15
100
AcDbCircle
 10
-168.3499242172
 20
1018.1890976639
 30
0.0
 40
20.00000000000003
  0
CIRCLE
  5
51
330
1F
100
AcDbEntity
  8
0
  6
Continuous
 62
     7
370
    15
100
AcDbCircle
 10
182.8116958665
 20
170.4099518729
 30
0.0
 40
20.0
  0
CIRCLE
  5
52
330
1F
100
AcDbEntity
  8
0
  6
Continuous
 62
     7
370
    15
100
AcDbCircle
 10
120.811754562
 20
641.3462610255
 30
0.0
 40
400.0
  0
CIRCLE
  5
53
330
1F
100
AcDbEntity
  8
0
  6
Continuous
 62
     7
370
    15
100
AcDbCircle
 10
120.811754562
 20
641.3462610255
 30
0.0
 40
512.5
  0
CIRCLE
  5
54
330
1F
100
AcDbEntity
  8
0
  6
Continuous
 62
     7
370
    15
100
AcDbCircle
 10
58.8118132575
 20
1112.2825701781
 30
0.0
 40
19.99999999999999
  0
CIRCLE
  5
55
330
1F
100
AcDbEntity
  8
0
  6
Continuous
 62
     7
370
    15
100
AcDbCircle
 10
-60.9628758114
 20
1080.1890389684
 30
0.0
 40
19.99999999999999
  0
CIRCLE
  5
56
330
1F
100
AcDbEntity
  8
0
  6
Continuous
 62
     7
370
    15
100
AcDbCircle
 10
-256.0310820764
 20
930.5079398047
 30
0.0
 40
20.0
  0
CIRCLE
  5
57
330
1F
100
AcDbEntity
  8
0
  6
Continuous
 62
     7
370
    15
100
AcDbCircle
 10
-350.1245545906
 20
703.34620233
 30
0.0
 40
20.00000000000006
  0
CIRCLE
  5
58
330
1F
100
AcDbEntity
  8
0
  6
Continuous
 62
     7
370
    15
100
AcDbCircle
 10
-318.0310233809
 20
459.5716306521
 30
0.0
 40
20.0
  0
CIRCLE
  5
59
330
1F
100
AcDbEntity
  8
0
  6
Continuous
 62
     7
370
    15
100
AcDbCircle
 10
-168.3499242172
 20
264.5034243872
 30
0.0
 40
20.00000000000003
  0
CIRCLE
  5
5A
330
1F
100
AcDbEntity
  8
0
  6
Continuous
 62
     7
370
    15
100
AcDbCircle
 10
58.8118132574
 20
170.409951873
 30
0.0
 40
20.0
  0
CIRCLE
  5
5B
330
1F
100
AcDbEntity
  8
0
  6
Continuous
 62
     7
370
    15
100
AcDbCircle
 10
409.9734333411
 20
264.5034243872
 30
0.0
 40
20.00000000000006
  0
CIRCLE
  5
5C
330
1F
100
AcDbEntity
  8
0
  6
Continuous
 62
     7
370
    15
100
AcDbCircle
 10
559.6545325048
 20
459.5716306521
 30
0.0
 40
20.0
  0
CIRCLE
  5
5D
330
1F
100
AcDbEntity
  8
0
  6
Continuous
 62
     7
370
    15
100
AcDbCircle
 10
591.7480637145
 20
703.34620233
 30
0.0
 40
20.00000000000011
  0
CIRCLE
  5
5E
330
1F
100
AcDbEntity
  8
0
  6
Continuous
 62
     7
370
    15
100
AcDbCircle
 10
497.6545912003
 20
930.5079398046
 30
0.0
 40
20.0
  0
CIRCLE
  5
5F
330
1F
100
AcDbEntity
  8
0
  6
Continuous
 62
     7
370
    15
100
AcDbCircle
 10
302.5863849354
 20
1080.1890389684
 30
0.0
 40
20.00000000000006
  0
ARC
  5
60
330
1F
100
AcDbEntity
  8
0
  6
Continuous
 62
     7
370
    15
100
AcDbCircle
 10
120.811754562
 20
641.3462610255
 30
0.0
 40
461.0
100
AcDbArc
 50
170.7511308851
 51
174.2488691149
  0
ARC
  5
61
330
1F
100
AcDbEntity
  8
0
  6
Continuous
 62
     7
370
    15
100
AcDbCircle
 10
120.811754562
 20
641.3462610255
 30
0.0
 40
461.0000000000001
100
AcDbArc
 50
155.7511308851
 51
159.2488691149
  0
ARC
  5
62
330
1F
100
AcDbEntity
  8
0
  6
Continuous
 62
     7
370
    15
100
AcDbCircle
 10
120.811754562
 20
641.3462610255
 30
0.0
 40
461.0
100
AcDbArc
 50
140.7511308851
 51
144.2488691149
  0
ARC
  5
63
330
1F
100
AcDbEntity
  8
0
  6
Continuous
 62
     7
370
    15
100
AcDbCircle
 10
120.811754562
 20
641.3462610255
 30
0.0
 40
460.9999999999999
100
AcDbArc
 50
125.7511308851
 51
129.2488691149
  0
ARC
  5
64
330
1F
100
AcDbEntity
  8
0
  6
Continuous
 62
     7
370
    15
100
AcDbCircle
 10
120.811754562
 20
641.3462610255
 30
0.0
 40
461.0000000000001
100
AcDbArc
 50
110.7511308851
 51
114.2488691149
  0
ARC
  5
65
330
1F
100
AcDbEntity
  8
0
  6
Continuous
 62
     7
370
    15
100
AcDbCircle
 10
120.811754562
 20
641.3462610255
 30
0.0
 40
461.0000000000001
100
AcDbArc
 50
95.7511308851
 51
99.2488691149
  0
ARC
  5
66
330
1F
100
AcDbEntity
  8
0
  6
Continuous
 62
     7
370
    15
100
AcDbCircle
 10
120.811754562
 20
641.3462610255
 30
0.0
 40
461.0000000000001
100
AcDbArc
 50
80.7511308851
 51
84.2488691149
  0
ARC
  5
67
330
1F
100
AcDbEntity
  8
0
  6
Continuous
 62
     7
370
    15
100
AcDbCircle
 10
120.811754562
 20
641.3462610255
 30
0.0
 40
461.0000000000002
100
AcDbArc
 50
65.7511308851
 51
69.2488691149
  0
ARC
  5
68
330
1F
100
AcDbEntity
  8
0
  6
Continuous
 62
     7
370
    15
100
AcDbCircle
 10
120.811754562
 20
641.3462610255
 30
0.0
 40
461.0
100
AcDbArc
 50
50.7511308851
 51
54.2488691149
  0
ARC
  5
69
330
1F
100
AcDbEntity
  8
0
  6
Continuous
 62
     7
370
    15
100
AcDbCircle
 10
120.811754562
 20
641.3462610255
 30
0.0
 40
460.9999999999999
100
AcDbArc
 50
35.7511308851
 51
39.2488691149
  0
ARC
  5
6A
330
1F
100
AcDbEntity
  8
0
  6
Continuous
 62
     7
370
    15
100
AcDbCircle
 10
120.811754562
 20
641.3462610255
 30
0.0
 40
461.0
100
AcDbArc
 50
20.7511308851
 51
24.2488691149
  0
ARC
  5
6B
330
1F
100
AcDbEntity
  8
0
  6
Continuous
 62
     7
370
    15
100
AcDbCircle
 10
120.811754562
 20
641.3462610255
 30
0.0
 40
460.9999999999999
100
AcDbArc
 50
5.7511308851
 51
9.2488691149
  0
ARC
  5
6C
330
1F
100
AcDbEntity
  8
0
  6
Continuous
 62
     7
370
    15
100
AcDbCircle
 10
120.811754562
 20
641.3462610255
 30
0.0
 40
461.0000000000001
100
AcDbArc
 50
350.7511308851
 51
354.2488691149
  0
ARC
  5
6D
330
1F
100
AcDbEntity
  8
0
  6
Continuous
 62
     7
370
    15
100
AcDbCircle
 10
120.811754562
 20
641.3462610255
 30
0.0
 40
461.0000000000001
100
AcDbArc
 50
335.7511308851
 51
339.2488691149
  0
ARC
  5
6E
330
1F
100
AcDbEntity
  8
0
  6
Continuous
 62
     7
370
    15
100
AcDbCircle
 10
120.811754562
 20
641.3462610255
 30
0.0
 40
460.9999999999999
100
AcDbArc
 50
320.7511308851
 51
324.2488691149
  0
ARC
  5
6F
330
1F
100
AcDbEntity
  8
0
  6
Continuous
 62
     7
370
    15
100
AcDbCircle
 10
120.811754562
 20
641.3462610255
 30
0.0
 40
460.9999999999999
100
AcDbArc
 50
305.7511308851
 51
309.2488691149
  0
ARC
  5
70
330
1F
100
AcDbEntity
  8
0
  6
Continuous
 62
     7
370
    15
100
AcDbCircle
 10
120.811754562
 20
641.3462610255
 30
0.0
 40
461.0
100
AcDbArc
 50
290.7511308851
 51
294.2488691149
  0
ARC
  5
71
330
1F
100
AcDbEntity
  8
0
  6
Continuous
 62
     7
370
    15
100
AcDbCircle
 10
120.811754562
 20
641.3462610255
 30
0.0
 40
461.0
100
AcDbArc
 50
275.7511308851
 51
279.2488691149
  0
ARC
  5
72
330
1F
100
AcDbEntity
  8
0
  6
Continuous
 62
     7
370
    15
100
AcDbCircle
 10
120.811754562
 20
641.3462610255
 30
0.0
 40
460.9999999999999
100
AcDbArc
 50
260.7511308851
 51
264.2488691149
  0
ARC
  5
73
330
1F
100
AcDbEntity
  8
0
  6
Continuous
 62
     7
370
    15
100
AcDbCircle
 10
120.811754562
 20
641.3462610255
 30
0.0
 40
461.0000000000001
100
AcDbArc
 50
245.7511308851
 51
249.2488691149
  0
ARC
  5
74
330
1F
100
AcDbEntity
  8
0
  6
Continuous
 62
     7
370
    15
100
AcDbCircle
 10
120.811754562
 20
641.3462610255
 30
0.0
 40
461.0
100
AcDbArc
 50
230.7511308851
 51
234.2488691149
  0
ARC
  5
75
330
1F
100
AcDbEntity
  8
0
  6
Continuous
 62
     7
370
    15
100
AcDbCircle
 10
120.811754562
 20
641.3462610255
 30
0.0
 40
460.9999999999999
100
AcDbArc
 50
215.7511308851
 51
219.2488691149
  0
ARC
  5
76
330
1F
100
AcDbEntity
  8
0
  6
Continuous
 62
     7
370
    15
100
AcDbCircle
 10
120.811754562
 20
641.3462610255
 30
0.0
 40
460.9999999999999
100
AcDbArc
 50
200.7511308851
 51
204.2488691149
  0
ARC
  5
77
330
1F
100
AcDbEntity
  8
0
  6
Continuous
 62
     7
370
    15
100
AcDbCircle
 10
120.811754562
 20
641.3462610255
 30
0.0
 40
461.0000000000001
100
AcDbArc
 50
185.7511308851
 51
189.2488691149
  0
LWPOLYLINE
  5
78
330
1F
100
AcDbEntity
  8
0
  6
Continuous
 62
     7
370
     0
100
AcDbPolyline
 90
        3
 70
   128
 43
0.0
 10
-334.8074614033
 20
690.4859357785
 10
-333.5292099937
 20
701.1613847028
 10
-332.0008872971
 20
711.8039132367
  0
LWPOLYLINE
  5
79
330
1F
100
AcDbEntity
  8
0
  6
Continuous
 62
     7
370
     0
100
AcDbPolyline
 90
        3
 70
   128
 43
0.0
 10
-306.5643369183
 20
806.7344726334
 10
-302.5666235909
 20
816.7153300057
 10
-298.3358859047
 20
826.5996576558
  0
LWPOLYLINE
  5
7A
330
1F
100
AcDbEntity
  8
0
  6
Continuous
 62
     7
370
     0
100
AcDbPolyline
 90
        3
 70
   128
 43
0.0
 10
-249.1962074265
 20
911.7120654593
 10
-242.7515148148
 20
920.3181715022
 10
-236.1066698059
 20
928.7707061778
  0
LWPOLYLINE
  5
7B
330
1F
100
AcDbEntity
  8
0
  6
Continuous
 62
     7
370
     0
100
AcDbPolyline
 90
        3
 70
   128
 43
0.0
 10
-166.6126905903
 20
998.2646853934
 10
-158.1601559147
 20
1004.9095304023
 10
-149.5540498718
 20
1011.354223014
  0
LWPOLYLINE
  5
7C
330
1F
100
AcDbEntity
  8
0
  6
Continuous
 62
     7
370
     0
100
AcDbPolyline
 90
        3
 70
   128
 43
0.0
 10
-64.4416420683
 20
1060.4939014922
 10
-54.5573144182
 20
1064.7246391784
 10
-44.5764570459
 20
1068.7223525058
  0
LWPOLYLINE
  5
7D
330
1F
100
AcDbEntity
  8
0
  6
Continuous
 62
     7
370
     0
100
AcDbPolyline
 90
        3
 70
   128
 43
0.0
 10
50.3541023508
 20
1094.1589028846
 10
60.9966308847
 20
1095.6872255813
 10
71.672079809
 20
1096.9654769908
  0
LWPOLYLINE
  5
7E
330
1F
100
AcDbEntity
  8
0
  6
Continuous
 62
     7
370
     0
100
AcDbPolyline
 90
        3
 70
   128
 43
0.0
 10
169.9514293149
 20
1096.9654769908
 10
180.6268782392
 20
1095.6872255813
 10
191.2694067732
 20
1094.1589028846
  0
LWPOLYLINE
  5
7F
330
1F
100
AcDbEntity
  8
0
  6
Continuous
 62
     7
370
     0
100
AcDbPolyline
 90
        3
 70
   128
 43
0.0
 10
286.1999661699
 20
1068.7223525058
 10
296.1808235422
 20
1064.7246391784
 10
306.0651511923
 20
1060.4939014922
  0
LWPOLYLINE
  5
80
330
1F
100
AcDbEntity
  8
0
  6
Continuous
 62
     7
370
     0
100
AcDbPolyline
 90
        3
 70
   128
 43
0.0
 10
391.1775589958
 20
1011.354223014
 10
399.7836650387
 20
1004.9095304023
 10
408.2361997143
 20
998.2646853934
  0
LWPOLYLINE
  5
81
330
1F
100
AcDbEntity
  8
0
  6
Continuous
 62
     7
370
     0
100
AcDbPolyline
 90
        3
 70
   128
 43
0.0
 10
477.7301789299
 20
928.7707061778
 10
484.3750239387
 20
920.3181715022
 10
490.8197165504
 20
911.7120654593
  0
LWPOLYLINE
  5
82
330
1F
100
AcDbEntity
  8
0
  6
Continuous
 62
     7
370
     0
100
AcDbPolyline
 90
        3
 70
   128
 43
0.0
 10
539.9593950287
 20
826.5996576558
 10
544.1901327148
 20
816.7153300057
 10
548.1878460422
 20
806.7344726334
  0
LWPOLYLINE
  5
83
330
1F
100
AcDbEntity
  8
0
  6
Continuous
 62
     7
370
     0
100
AcDbPolyline
 90
        3
 70
   128
 43
0.0
 10
573.624396421
 20
711.8039132367
 10
575.1527191177
 20
701.1613847028
 10
576.4309705273
 20
690.4859357785
  0
LWPOLYLINE
  5
84
330
1F
100
AcDbEntity
  8
0
  6
Continuous
 62
     7
370
     0
100
AcDbPolyline
 90
        3
 70
   128
 43
0.0
 10
576.4309705273
 20
592.2065862726
 10
575.1527191177
 20
581.5311373483
 10
573.624396421
 20
570.8886088143
  0
LWPOLYLINE
  5
85
330
1F
100
AcDbEntity
  8
0
  6
Continuous
 62
     7
370
     0
100
AcDbPolyline
 90
        3
 70
   128
 43
0.0
 10
548.1878460422
 20
475.9580494176
 10
544.1901327148
 20
465.9771920453
 10
539.9593950287
 20
456.0928643952
  0
LWPOLYLINE
  5
86
330
1F
100
AcDbEntity
  8
0
  6
Continuous
 62
     7
370
     0
100
AcDbPolyline
 90
        3
 70
   128
 43
0.0
 10
490.8197165504
 20
370.9804565917
 10
484.3750239387
 20
362.3743505488
 10
477.7301789299
 20
353.9218158732
  0
LWPOLYLINE
  5
87
330
1F
100
AcDbEntity
  8
0
  6
Continuous
 62
     7
370
     0
100
AcDbPolyline
 90
        3
 70
   128
 43
0.0
 10
408.2361997143
 20
284.4278366576
 10
399.7836650387
 20
277.7829916488
 10
391.1775589958
 20
271.3382990371
  0
LWPOLYLINE
  5
88
330
1F
100
AcDbEntity
  8
0
  6
Continuous
 62
     7
370
     0
100
AcDbPolyline
 90
        3
 70
   128
 43
0.0
 10
306.0651511923
 20
222.1986205588
 10
296.1808235422
 20
217.9678828727
 10
286.1999661699
 20
213.9701695453
  0
LWPOLYLINE
  5
89
330
1F
100
AcDbEntity
  8
0
  6
Continuous
 62
     7
370
     0
100
AcDbPolyline
 90
        3
 70
   128
 43
0.0
 10
191.2694067732
 20
188.5336191665
 10
180.6268782392
 20
187.0052964698
 10
169.9514293149
 20
185.7270450602
  0
LWPOLYLINE
  5
8A
330
1F
100
AcDbEntity
  8
0
  6
Continuous
 62
     7
370
     0
100
AcDbPolyline
 90
        3
 70
   128
 43
0.0
 10
71.672079809
 20
185.7270450602
 10
60.9966308847
 20
187.0052964698
 10
50.3541023508
 20
188.5336191665
  0
LWPOLYLINE
  5
8B
330
1F
100
AcDbEntity
  8
0
  6
Continuous
 62
     7
370
     0
100
AcDbPolyline
 90
        3
 70
   128
 43
0.0
 10
-44.5764570459
 20
213.9701695453
 10
-54.5573144182
 20
217.9678828727
 10
-64.4416420683
 20
222.1986205588
  0
LWPOLYLINE
  5
8C
330
1F
100
AcDbEntity
  8
0
  6
Continuous
 62
     7
370
     0
100
AcDbPolyline
 90
        3
 70
   128
 43
0.0
 10
-149.5540498718
 20
271.3382990371
 10
-158.1601559147
 20
277.7829916488
 10
-166.6126905903
 20
284.4278366576
  0
LWPOLYLINE
  5
8D
330
1F
100
AcDbEntity
  8
0
  6
Continuous
 62
     7
370
     0
100
AcDbPolyline
 90
        3
 70
   128
 43
0.0
 10
-236.1066698059
 20
353.9218158732
 10
-242.7515148148
 20
362.3743505488
 10
-249.1962074265
 20
370.9804565917
  0
LWPOLYLINE
  5
8E
330
1F
100
AcDbEntity
  8
0
  6
Continuous
 62
     7
370
     0
100
AcDbPolyline
 90
        3
 70
   128
 43
0.0
 10
-298.3358859047
 20
456.0928643952
 10
-302.5666235909
 20
465.9771920453
 10
-306.5643369183
 20
475.9580494176
  0
LWPOLYLINE
  5
8F
330
1F
100
AcDbEntity
  8
0
  6
Continuous
 62
     7
370
     0
100
AcDbPolyline
 90
        3
 70
   128
 43
0.0
 10
-332.0008872971
 20
570.8886088143
 10
-333.5292099937
 20
581.5311373483
 10
-334.8074614033
 20
592.2065862726
  0
INSERT
  5
143
330
1F
100
AcDbEntity
  8
FORMAT
100
AcDbBlockReference
  2
SW_CENTERMARKSYMBOL_0
 10
182.8116958665
 20
1112.2825701781
 30
0.0
  0
LINE
  5
144
330
1F
100
AcDbEntity
  8
0
  6
Continuous
 62
     7
370
    15
100
AcDbLine
 10
923.9209440437
 20
1153.8462491046
 30
0.0
 11
898.9209436712
 21
1153.8462491046
 31
0.0
  0
LINE
  5
145
330
1F
100
AcDbEntity
  8
0
  6
Continuous
 62
     7
370
    15
100
AcDbLine
 10
898.9209436712
 20
128.8462729464
 30
0.0
 11
923.9209440437
 21
128.8462729464
 31
0.0
  0
LINE
  5
146
330
1F
100
AcDbEntity
  8
0
  6
Continuous
 62
     7
370
    15
100
AcDbLine
 10
793.9209488121
 20
180.3462655555
 30
0.0
 11
797.1719500509
 21
180.3462655555
 31
0.0
  0
LINE
  5
147
330
1F
100
AcDbEntity
  8
0
  6
Continuous
 62
     7
370
    15
100
AcDbLine
 10
797.1719500509
 20
1102.3462564956
 30
0.0
 11
793.9209488121
 21
1102.3462564956
 31
0.0
  0
ARC
  5
148
330
1F
100
AcDbEntity
  8
0
  6
Continuous
 62
     7
370
    15
100
AcDbCircle
 10
797.1719505217
 20
183.3462610255
 30
0.0
 40
3.00000000000007
100
AcDbArc
 50
270.0
 51
355.0
  0
ARC
  5
149
330
1F
100
AcDbEntity
  8
0
  6
Continuous
 62
     7
370
    15
100
AcDbCircle
 10
797.1719505217
 20
1099.3462610255
 30
0.0
 40
3.000000000000067
100
AcDbArc
 50
5.0
 51
90.0
  0
LINE
  5
14A
330
1F
100
AcDbEntity
  8
0
  6
Continuous
 62
     7
370
    15
100
AcDbLine
 10
791.4209511963
 20
629.3462609212
 30
0.0
 11
793.9209488121
 21
629.3462609212
 31
0.0
  0
LINE
  5
14B
330
1F
100
AcDbEntity
  8
0
  6
Continuous
 62
     7
370
    15
100
AcDbLine
 10
793.9209488121
 20
653.3462611298
 30
0.0
 11
791.4209511963
 21
653.3462611298
 31
0.0
  0
LINE
  5
14C
330
1F
100
AcDbEntity
  8
0
  6
Continuous
 62
     7
370
    15
100
AcDbLine
 10
800.1605343905
 20
183.0848009597
 30
0.0
 11
800.6218668905
 21
188.3578748713
 31
0.0
  0
LINE
  5
14D
330
1F
100
AcDbEntity
  8
0
  6
Continuous
 62
     7
370
    15
100
AcDbLine
 10
800.6218668905
 20
1094.3346471797
 30
0.0
 11
800.1605343905
 21
1099.6077210914
 31
0.0
  0
LINE
  5
14E
330
1F
100
AcDbEntity
  8
0
  6
Continuous
 62
     7
370
    15
100
AcDbLine
 10
781.4539519039
 20
650.3462606381
 30
0.0
 11
781.0209390608
 21
649.5962609808
 31
0.0
  0
LINE
  5
14F
330
1F
100
AcDbEntity
  8
0
  6
Continuous
 62
     7
370
    15
100
AcDbLine
 10
781.0209390608
 20
633.0962610702
 30
0.0
 11
781.4539519039
 21
632.3462614129
 31
0.0
  0
LINE
  5
150
330
1F
100
AcDbEntity
  8
0
  6
Continuous
 62
     7
370
    15
100
AcDbLine
 10
790.9879383532
 20
632.3462614129
 30
0.0
 11
791.4209511963
 21
633.0962610702
 31
0.0
  0
LINE
  5
151
330
1F
100
AcDbEntity
  8
0
  6
Continuous
 62
     7
370
    15
100
AcDbLine
 10
791.4209511963
 20
649.5962609808
 30
0.0
 11
790.9879383532
 21
650.3462606381
 31
0.0
  0
LINE
  5
152
330
1F
100
AcDbEntity
  8
0
  6
Continuous
 62
     7
370
    15
100
AcDbLine
 10
781.0209390608
 20
647.3462610777
 30
0.0
 11
745.9209409443
 21
647.3462610777
 31
0.0
  0
LINE
  5
153
330
1F
100
AcDbEntity
  8
0
  6
Continuous
 62
     7
370
    15
100
AcDbLine
 10
745.9209409443
 20
635.3462609734
 30
0.0
 11
781.0209390608
 21
635.3462609734
 31
0.0
  0
LINE
  5
154
330
1F
100
AcDbEntity
  8
0
  6
Continuous
 62
     7
370
    15
100
AcDbLine
 10
898.9209436712
 20
647.3462610777
 30
0.0
 11
801.1422154394
 21
647.3462610777
 31
0.0
  0
LINE
  5
155
330
1F
100
AcDbEntity
  8
0
  6
Continuous
 62
     7
370
    15
100
AcDbLine
 10
801.1422824946
 20
635.3462609734
 30
0.0
 11
898.9209436712
 21
635.3462609734
 31
0.0
  0
ARC
  5
156
330
1F
100
AcDbEntity
  8
0
  6
Continuous
 62
     7
370
    15
100
AcDbCircle
 10
806.5637812186
 20
198.9056711444
 30
0.0
 40
5.000000000000002
100
AcDbArc
 50
93.0
 51
163.5236590001
  0
ARC
  5
157
330
1F
100
AcDbEntity
  8
0
  6
Continuous
 62
     7
370
    15
100
AcDbCircle
 10
806.5637812186
 20
1083.7868509067
 30
0.0
 40
4.999999999999965
100
AcDbArc
 50
196.4872263568
 51
267.0
  0
LINE
  5
158
330
1F
100
AcDbEntity
  8
0
  6
Continuous
 62
     7
370
    15
100
AcDbLine
 10
806.3021001307
 20
203.8988323222
 30
0.0
 11
831.5517824975
 21
205.2220852385
 31
0.0
  0
LINE
  5
159
330
1F
100
AcDbEntity
  8
0
  6
Continuous
 62
     7
370
    15
100
AcDbLine
 10
831.5517824975
 20
1077.4704368125
 30
0.0
 11
806.3021001307
 21
1078.7936897288
 31
0.0
  0
ARC
  5
15A
330
1F
100
AcDbEntity
  8
0
  6
Continuous
 62
     7
370
    15
100
AcDbCircle
 10
831.4209440437
 20
207.7186724423
 30
0.0
 40
2.500000000000015
100
AcDbArc
 50
273.0
 51
0.0
  0
ARC
  5
15B
330
1F
100
AcDbEntity
  8
0
  6
Continuous
 62
     7
370
    15
100
AcDbCircle
 10
831.4209440437
 20
1074.9738496087
 30
0.0
 40
2.500000000000242
100
AcDbArc
 50
0.0
 51
87.0
  0
LINE
  5
15C
330
1F
100
AcDbEntity
  8
0
  6
Continuous
 62
     7
370
    15
100
AcDbLine
 10
898.9209436712
 20
1058.8462502967
 30
0.0
 11
833.9209404675
 21
1058.8462502967
 31
0.0
  0
LINE
  5
15D
330
1F
100
AcDbEntity
  8
0
  6
Continuous
 62
     7
370
    15
100
AcDbLine
 10
833.9209404675
 20
223.8462717543
 30
0.0
 11
898.9209436712
 21
223.8462717543
 31
0.0
  0
LINE
  5
15E
330
1F
100
AcDbEntity
  8
0
  6
Continuous
 62
     7
370
    15
100
AcDbLine
 10
791.4209511963
 20
852.8462649594
 30
0.0
 11
793.9209488121
 21
852.8462649594
 31
0.0
  0
LINE
  5
15F
330
1F
100
AcDbEntity
  8
0
  6
Continuous
 62
     7
370
    15
100
AcDbLine
 10
793.9209488121
 20
876.8462539922
 30
0.0
 11
791.4209511963
 21
876.8462539922
 31
0.0
  0
LINE
  5
160
330
1F
100
AcDbEntity
  8
0
  6
Continuous
 62
     7
370
    15
100
AcDbLine
 10
791.4209511963
 20
405.8462680589
 30
0.0
 11
793.9209488121
 21
405.8462680589
 31
0.0
  0
LINE
  5
161
330
1F
100
AcDbEntity
  8
0
  6
Continuous
 62
     7
370
    15
100
AcDbLine
 10
793.9209488121
 20
429.8462570916
 30
0.0
 11
791.4209511963
 21
429.8462570916
 31
0.0
  0
LINE
  5
162
330
1F
100
AcDbEntity
  8
0
  6
Continuous
 62
     7
370
    15
100
AcDbLine
 10
782.2578099457
 20
875.238567711
 30
0.0
 11
781.0209390608
 21
873.0962575684
 31
0.0
  0
LINE
  5
163
330
1F
100
AcDbEntity
  8
0
  6
Continuous
 62
     7
370
    15
100
AcDbLine
 10
781.0209390608
 20
856.5962613831
 30
0.0
 11
782.2578099457
 21
854.4539512406
 31
0.0
  0
LINE
  5
164
330
1F
100
AcDbEntity
  8
0
  6
Continuous
 62
     7
370
    15
100
AcDbLine
 10
790.1840803114
 20
854.4539512406
 30
0.0
 11
791.4209511963
 21
856.5962613831
 31
0.0
  0
LINE
  5
165
330
1F
100
AcDbEntity
  8
0
  6
Continuous
 62
     7
370
    15
100
AcDbLine
 10
791.4209511963
 20
873.0962575684
 30
0.0
 11
790.1840803114
 21
875.238567711
 31
0.0
  0
LINE
  5
166
330
1F
100
AcDbEntity
  8
0
  6
Continuous
 62
     7
370
    15
100
AcDbLine
 10
782.2578099457
 20
428.2385708104
 30
0.0
 11
781.0209390608
 21
426.0962606679
 31
0.0
  0
LINE
  5
167
330
1F
100
AcDbEntity
  8
0
  6
Continuous
 62
     7
370
    15
100
AcDbLine
 10
781.0209390608
 20
409.5962644826
 30
0.0
 11
782.2578099457
 21
407.4539543401
 31
0.0
  0
LINE
  5
168
330
1F
100
AcDbEntity
  8
0
  6
Continuous
 62
     7
370
    15
100
AcDbLine
 10
790.1840803114
 20
407.4539543401
 30
0.0
 11
791.4209511963
 21
409.5962644826
 31
0.0
  0
LINE
  5
169
330
1F
100
AcDbEntity
  8
0
  6
Continuous
 62
     7
370
    15
100
AcDbLine
 10
791.4209511963
 20
426.0962606679
 30
0.0
 11
790.1840803114
 21
428.2385708104
 31
0.0
  0
LINE
  5
16A
330
1F
100
AcDbEntity
  8
0
  6
Continuous
 62
     7
370
    15
100
AcDbLine
 10
781.0209390608
 20
870.846256734
 30
0.0
 11
745.9209409443
 21
870.846256734
 31
0.0
  0
LINE
  5
16B
330
1F
100
AcDbEntity
  8
0
  6
Continuous
 62
     7
370
    15
100
AcDbLine
 10
745.9209409443
 20
858.8462622176
 30
0.0
 11
781.0209390608
 21
858.8462622176
 31
0.0
  0
LINE
  5
16C
330
1F
100
AcDbEntity
  8
0
  6
Continuous
 62
     7
370
    15
100
AcDbLine
 10
898.9209436712
 20
870.846256734
 30
0.0
 11
800.8807000605
 21
870.846256734
 31
0.0
  0
LINE
  5
16D
330
1F
100
AcDbEntity
  8
0
  6
Continuous
 62
     7
370
    15
100
AcDbLine
 10
801.4047366467
 20
858.8462622176
 30
0.0
 11
898.9209436712
 21
858.8462622176
 31
0.0
  0
LINE
  5
16E
330
1F
100
AcDbEntity
  8
0
  6
Continuous
 62
     7
370
    15
100
AcDbLine
 10
781.0209390608
 20
423.8462598334
 30
0.0
 11
745.9209409443
 21
423.8462598334
 31
0.0
  0
LINE
  5
16F
330
1F
100
AcDbEntity
  8
0
  6
Continuous
 62
     7
370
    15
100
AcDbLine
 10
745.9209409443
 20
411.846265317
 30
0.0
 11
781.0209390608
 21
411.846265317
 31
0.0
  0
LINE
  5
170
330
1F
100
AcDbEntity
  8
0
  6
Continuous
 62
     7
370
    15
100
AcDbLine
 10
898.9209436712
 20
423.8462598334
 30
0.0
 11
801.4046919433
 21
423.8462598334
 31
0.0
  0
LINE
  5
171
330
1F
100
AcDbEntity
  8
0
  6
Continuous
 62
     7
370
    15
100
AcDbLine
 10
800.8808937756
 20
411.846265317
 30
0.0
 11
898.9209436712
 21
411.846265317
 31
0.0
  0
LINE
  5
172
330
1F
100
AcDbEntity
  8
0
  6
Continuous
 62
     7
370
    15
100
AcDbLine
 10
791.4209511963
 20
1016.4596290599
 30
0.0
 11
793.9209488121
 21
1016.4596290599
 31
0.0
  0
LINE
  5
173
330
1F
100
AcDbEntity
  8
0
  6
Continuous
 62
     7
370
    15
100
AcDbLine
 10
793.9209488121
 20
1040.4596180926
 30
0.0
 11
791.4209511963
 21
1040.4596180926
 31
0.0
  0
LINE
  5
174
330
1F
100
AcDbEntity
  8
0
  6
Continuous
 62
     7
370
    15
100
AcDbLine
 10
791.4209511963
 20
242.2329039584
 30
0.0
 11
793.9209488121
 21
242.2329039584
 31
0.0
  0
LINE
  5
175
330
1F
100
AcDbEntity
  8
0
  6
Continuous
 62
     7
370
    15
100
AcDbLine
 10
793.9209488121
 20
266.2328929912
 30
0.0
 11
791.4209511963
 21
266.2328929912
 31
0.0
  0
LINE
  5
176
330
1F
100
AcDbEntity
  8
0
  6
Continuous
 62
     7
370
    15
100
AcDbLine
 10
781.4539519039
 20
1037.4596269141
 30
0.0
 11
781.0209390608
 21
1036.7096216689
 31
0.0
  0
LINE
  5
177
330
1F
100
AcDbEntity
  8
0
  6
Continuous
 62
     7
370
    15
100
AcDbLine
 10
781.0209390608
 20
1020.2096254836
 30
0.0
 11
781.4539519039
 21
1019.4596202384
 31
0.0
  0
LINE
  5
178
330
1F
100
AcDbEntity
  8
0
  6
Continuous
 62
     7
370
    15
100
AcDbLine
 10
790.9879383532
 20
1019.4596202384
 30
0.0
 11
791.4209511963
 21
1020.2096254836
 31
0.0
  0
LINE
  5
179
330
1F
100
AcDbEntity
  8
0
  6
Continuous
 62
     7
370
    15
100
AcDbLine
 10
791.4209511963
 20
1036.7096216689
 30
0.0
 11
790.9879383532
 21
1037.4596269141
 31
0.0
  0
LINE
  5
17A
330
1F
100
AcDbEntity
  8
0
  6
Continuous
 62
     7
370
    15
100
AcDbLine
 10
790.9879383532
 20
245.2328951369
 30
0.0
 11
791.4209511963
 21
245.9829003821
 31
0.0
  0
LINE
  5
17B
330
1F
100
AcDbEntity
  8
0
  6
Continuous
 62
     7
370
    15
100
AcDbLine
 10
791.4209511963
 20
262.4828965674
 30
0.0
 11
790.9879383532
 21
263.2329018126
 31
0.0
  0
LINE
  5
17C
330
1F
100
AcDbEntity
  8
0
  6
Continuous
 62
     7
370
    15
100
AcDbLine
 10
781.4539519039
 20
263.2329018126
 30
0.0
 11
781.0209390608
 21
262.4828965674
 31
0.0
  0
LINE
  5
17D
330
1F
100
AcDbEntity
  8
0
  6
Continuous
 62
     7
370
    15
100
AcDbLine
 10
781.0209390608
 20
245.9829003821
 30
0.0
 11
781.4539519039
 21
245.2328951369
 31
0.0
  0
LINE
  5
17E
330
1F
100
AcDbEntity
  8
0
  6
Continuous
 62
     7
370
    15
100
AcDbLine
 10
781.0209390608
 20
1034.4596059333
 30
0.0
 11
745.9209409443
 21
1034.4596059333
 31
0.0
  0
LINE
  5
17F
330
1F
100
AcDbEntity
  8
0
  6
Continuous
 62
     7
370
    15
100
AcDbLine
 10
745.9209409443
 20
1022.4596114169
 30
0.0
 11
781.0209390608
 21
1022.4596114169
 31
0.0
  0
LINE
  5
180
330
1F
100
AcDbEntity
  8
0
  6
Continuous
 62
     7
370
    15
100
AcDbLine
 10
898.9209436712
 20
1034.4596059333
 30
0.0
 11
800.6915819732
 21
1034.4596059333
 31
0.0
  0
LINE
  5
181
330
1F
100
AcDbEntity
  8
0
  6
Continuous
 62
     7
370
    15
100
AcDbLine
 10
801.6066026774
 20
1022.4596114169
 30
0.0
 11
898.9209436712
 21
1022.4596114169
 31
0.0
  0
LINE
  5
182
330
1F
100
AcDbEntity
  8
0
  6
Continuous
 62
     7
370
    15
100
AcDbLine
 10
781.0209390608
 20
260.2329106341
 30
0.0
 11
745.9209409443
 21
260.2329106341
 31
0.0
  0
LINE
  5
183
330
1F
100
AcDbEntity
  8
0
  6
Continuous
 62
     7
370
    15
100
AcDbLine
 10
745.9209409443
 20
248.2329161178
 30
0.0
 11
781.0209390608
 21
248.2329161178
 31
0.0
  0
LINE
  5
184
330
1F
100
AcDbEntity
  8
0
  6
Continuous
 62
     7
370
    15
100
AcDbLine
 10
898.9209436712
 20
260.2329106341
 30
0.0
 11
801.6066697327
 21
260.2329106341
 31
0.0
  0
LINE
  5
185
330
1F
100
AcDbEntity
  8
0
  6
Continuous
 62
     7
370
    15
100
AcDbLine
 10
800.6916788307
 20
248.2329161178
 30
0.0
 11
898.9209436712
 21
248.2329161178
 31
0.0
  0
LINE
  5
186
330
1F
100
AcDbEntity
  8
0
  6
Continuous
 62
     7
370
    15
100
AcDbLine
 10
791.4209511963
 20
1076.3462634097
 30
0.0
 11
793.9209488121
 21
1076.3462634097
 31
0.0
  0
LINE
  5
187
330
1F
100
AcDbEntity
  8
0
  6
Continuous
 62
     7
370
    15
100
AcDbLine
 10
793.9209488121
 20
1100.3462524424
 30
0.0
 11
791.4209511963
 21
1100.3462524424
 31
0.0
  0
LINE
  5
188
330
1F
100
AcDbEntity
  8
0
  6
Continuous
 62
     7
370
    15
100
AcDbLine
 10
791.4209511963
 20
182.3462696086
 30
0.0
 11
793.9209488121
 21
182.3462696086
 31
0.0
  0
LINE
  5
189
330
1F
100
AcDbEntity
  8
0
  6
Continuous
 62
     7
370
    15
100
AcDbLine
 10
793.9209488121
 20
206.3462586413
 30
0.0
 11
791.4209511963
 21
206.3462586413
 31
0.0
  0
LINE
  5
18A
330
1F
100
AcDbEntity
  8
0
  6
Continuous
 62
     7
370
    15
100
AcDbLine
 10
782.2578099457
 20
1098.7385661612
 30
0.0
 11
781.0209390608
 21
1096.5962560187
 31
0.0
  0
LINE
  5
18B
330
1F
100
AcDbEntity
  8
0
  6
Continuous
 62
     7
370
    15
100
AcDbLine
 10
781.0209390608
 20
1080.0962598334
 30
0.0
 11
782.2578099457
 21
1077.9539496909
 31
0.0
  0
LINE
  5
18C
330
1F
100
AcDbEntity
  8
0
  6
Continuous
 62
     7
370
    15
100
AcDbLine
 10
790.1840803114
 20
1077.9539496909
 30
0.0
 11
791.4209511963
 21
1080.0962598334
 31
0.0
  0
LINE
  5
18D
330
1F
100
AcDbEntity
  8
0
  6
Continuous
 62
     7
370
    15
100
AcDbLine
 10
791.4209511963
 20
1096.5962560187
 30
0.0
 11
790.1840803114
 21
1098.7385661612
 31
0.0
  0
LINE
  5
18E
330
1F
100
AcDbEntity
  8
0
  6
Continuous
 62
     7
370
    15
100
AcDbLine
 10
782.2578099457
 20
204.7385723601
 30
0.0
 11
781.0209390608
 21
202.5962622176
 31
0.0
  0
LINE
  5
18F
330
1F
100
AcDbEntity
  8
0
  6
Continuous
 62
     7
370
    15
100
AcDbLine
 10
781.0209390608
 20
186.0962660323
 30
0.0
 11
782.2578099457
 21
183.9539558898
 31
0.0
  0
LINE
  5
190
330
1F
100
AcDbEntity
  8
0
  6
Continuous
 62
     7
370
    15
100
AcDbLine
 10
790.1840803114
 20
183.9539558898
 30
0.0
 11
791.4209511963
 21
186.0962660323
 31
0.0
  0
LINE
  5
191
330
1F
100
AcDbEntity
  8
0
  6
Continuous
 62
     7
370
    15
100
AcDbLine
 10
791.4209511963
 20
202.5962622176
 30
0.0
 11
790.1840803114
 21
204.7385723601
 31
0.0
  0
LINE
  5
192
330
1F
100
AcDbEntity
  8
0
  6
Continuous
 62
     7
370
    15
100
AcDbLine
 10
781.0209390608
 20
1094.3462700854
 30
0.0
 11
745.9209409443
 21
1094.3462700854
 31
0.0
  0
LINE
  5
193
330
1F
100
AcDbEntity
  8
0
  6
Continuous
 62
     7
370
    15
100
AcDbLine
 10
745.9209409443
 20
1082.346275569
 30
0.0
 11
781.0209390608
 21
1082.346275569
 31
0.0
  0
LINE
  5
194
330
1F
100
AcDbEntity
  8
0
  6
Continuous
 62
     7
370
    15
100
AcDbLine
 10
898.9209436712
 20
1094.3462700854
 30
0.0
 11
800.6208536116
 21
1094.3462700854
 31
0.0
  0
LINE
  5
195
330
1F
100
AcDbEntity
  8
0
  6
Continuous
 62
     7
370
    15
100
AcDbLine
 10
801.7758053628
 20
1082.346275569
 30
0.0
 11
898.9209436712
 21
1082.346275569
 31
0.0
  0
LINE
  5
196
330
1F
100
AcDbEntity
  8
0
  6
Continuous
 62
     7
370
    15
100
AcDbLine
 10
781.0209390608
 20
200.346246482
 30
0.0
 11
745.9209409443
 21
200.346246482
 31
0.0
  0
LINE
  5
197
330
1F
100
AcDbEntity
  8
0
  6
Continuous
 62
     7
370
    15
100
AcDbLine
 10
745.9209409443
 20
188.3462519656
 30
0.0
 11
781.0209390608
 21
188.3462519656
 31
0.0
  0
LINE
  5
198
330
1F
100
AcDbEntity
  8
0
  6
Continuous
 62
     7
370
    15
100
AcDbLine
 10
898.9209436712
 20
200.346246482
 30
0.0
 11
801.7758053628
 21
200.346246482
 31
0.0
  0
LINE
  5
199
330
1F
100
AcDbEntity
  8
0
  6
Continuous
 62
     7
370
    15
100
AcDbLine
 10
800.6208536116
 20
188.3462519656
 30
0.0
 11
898.9209436712
 21
188.3462519656
 31
0.0
  0
LINE
  5
19A
330
1F
100
AcDbEntity
  8
0
  6
Continuous
 62
     7
370
    15
100
AcDbLine
 10
923.9209440437
 20
641.3462610255
 30
0.0
 11
923.9209440437
 21
1153.8462491046
 31
0.0
  0
LINE
  5
19B
330
1F
100
AcDbEntity
  8
0
  6
Continuous
 62
     7
370
    15
100
AcDbLine
 10
923.9209440437
 20
128.8462729464
 30
0.0
 11
923.9209440437
 21
641.3462610255
 31
0.0
  0
LINE
  5
19C
330
1F
100
AcDbEntity
  8
0
  6
Continuous
 62
     7
370
    15
100
AcDbLine
 10
898.9209436712
 20
641.3462610255
 30
0.0
 11
898.9209436712
 21
1153.8462491046
 31
0.0
  0
LINE
  5
19D
330
1F
100
AcDbEntity
  8
0
  6
Continuous
 62
     7
370
    15
100
AcDbLine
 10
898.9209436712
 20
128.8462729464
 30
0.0
 11
898.9209436712
 21
641.3462610255
 31
0.0
  0
LINE
  5
19E
330
1F
100
AcDbEntity
  8
0
  6
Continuous
 62
     7
370
    15
100
AcDbLine
 10
793.9209488121
 20
641.3462610255
 30
0.0
 11
793.9209488121
 21
1102.3462564956
 31
0.0
  0
LINE
  5
19F
330
1F
100
AcDbEntity
  8
0
  6
Continuous
 62
     7
370
    15
100
AcDbLine
 10
793.9209488121
 20
180.3462655555
 30
0.0
 11
793.9209488121
 21
641.3462610255
 31
0.0
  0
LINE
  5
1A0
330
1F
100
AcDbEntity
  8
0
  6
Continuous
 62
     7
370
    15
100
AcDbLine
 10
791.4209511963
 20
629.3462609212
 30
0.0
 11
791.4209511963
 21
653.3462611298
 31
0.0
  0
SPLINE
  5
1A1
330
1F
100
AcDbEntity
  8
0
  6
Continuous
 62
     7
370
    15
100
AcDbSpline
210
0.0
220
0.0
230
1.0
 70
     8
 71
     3
 72
    27
 73
    23
 74
     0
 42
0.00000001
 43
0.00000001
 12
1.0
 22
0.0
 32
0.0
 13
1.0
 23
0.0
 33
0.0
 40
0.0
 40
0.0
 40
0.0
 40
0.0
 40
0.0078320637187612
 40
0.0618195821552147
 40
0.1158071897690505
 40
0.1697846405919936
 40
0.223760809511259
 40
0.2776051262239886
 40
0.3314489327743764
 40
0.3850979888435823
 40
0.4387465205098177
 40
0.4922226637002387
 40
0.5456987703335384
 40
0.5990977251622088
 40
0.6524972636655382
 40
0.7059463100946778
 40
0.7593960086594563
 40
0.8130006051411053
 40
0.8666068283510626
 40
0.9204079284477727
 40
0.9742099805670401
 40
1.0
 40
1.0
 40
1.0
 40
1.0
 10
801.1422154394169
 20
647.3355550590109
 30
0.0
 10
801.137928739037
 20
647.3389941833713
 30
0.0
 10
801.1040932091142
 20
647.3661396763822
 30
0.0
 10
801.0407553716924
 20
647.2505584421513
 30
0.0
 10
800.9552966010128
 20
646.9850502772725
 30
0.0
 10
800.8754099766177
 20
646.5382819532714
 30
0.0
 10
800.8031473863945
 20
645.9505402921764
 30
0.0
 10
800.7408781438495
 20
645.2273498502717
 30
0.0
 10
800.6899242435878
 20
644.3970224859897
 30
0.0
 10
800.6521530296326
 20
643.4784602521011
 30
0.0
 10
800.6280020480901
 20
642.5023442416959
 30
0.0
 10
800.6186642927825
 20
641.4936280224287
 30
0.0
 10
800.6237217408925
 20
640.4823703624502
 30
0.0
 10
800.6436255271284
 20
639.4966799903143
 30
0.0
 10
800.6771924026365
 20
638.562530079094
 30
0.0
 10
800.7240938112614
 20
637.708632197679
 30
0.0
 10
800.782571409173
 20
636.9543820550423
 30
0.0
 10
800.85147586554
 20
636.3269477668536
 30
0.0
 10
800.9286547749716
 20
635.8350918321671
 30
0.0
 10
801.0122208207542
 20
635.5114501542116
 30
0.0
 10
801.0844582650847
 20
635.3492498511982
 30
0.0
 10
801.1281312475941
 20
635.3633806311557
 30
0.0
 10
801.1422824946422
 20
635.3679593923639
 30
0.0
  0
SPLINE
  5
1A2
330
1F
100
AcDbEntity
  8
0
  6
Continuous
 62
     7
370
    15
100
AcDbSpline
210
0.0
220
0.0
230
1.0
 70
     8
 71
     3
 72
    27
 73
    23
 74
     0
 42
0.00000001
 43
0.00000001
 12
1.0
 22
0.0
 32
0.0
 13
1.0
 23
0.0
 33
0.0
 40
0.0
 40
0.0
 40
0.0
 40
0.0
 40
0.0299848404127677
 40
0.0837903923336158
 40
0.137595464985383
 40
0.1915543164736385
 40
0.2455119894975847
 40
0.2995082132932194
 40
0.3535029473879416
 40
0.4074031507746348
 40
0.4613033291270011
 40
0.5150202981182556
 40
0.5687375068195573
 40
0.6222644776154884
 40
0.6757918377776001
 40
0.7292023885716129
 40
0.7826141701027517
 40
0.8360304638321582
 40
0.8894478030993687
 40
0.9429906630207199
 40
0.99653237181906
 40
1.0
 40
1.0
 40
1.0
 40
1.0
 10
801.4046919432659
 20
423.8250256787192
 30
0.0
 10
801.390466065383
 20
423.8281982776541
 30
0.0
 10
801.3507129143675
 20
423.8370638679261
 30
0.0
 10
801.278180760598
 20
423.6615497845136
 30
0.0
 10
801.1906876249685
 20
423.323520045133
 30
0.0
 10
801.1015869757637
 20
422.8179519755108
 30
0.0
 10
801.0137736973875
 20
422.1747695847915
 30
0.0
 10
800.9298491420769
 20
421.404340455005
 30
0.0
 10
800.8520046345459
 20
420.5341919816252
 30
0.0
 10
800.782751140856
 20
419.5855255080869
 30
0.0
 10
800.7236849840065
 20
418.5891954612612
 30
0.0
 10
800.676850339771
 20
417.5717719966734
 30
0.0
 10
800.6430387422231
 20
416.5638149393334
 30
0.0
 10
800.6236344244327
 20
415.593866979873
 30
0.0
 10
800.6185511969788
 20
414.6880009454247
 30
0.0
 10
800.6284771405981
 20
413.873981098601
 30
0.0
 10
800.6524695275664
 20
413.1700437476296
 30
0.0
 10
800.6905314450398
 20
412.6021149041851
 30
0.0
 10
800.740839854491
 20
412.1737154156744
 30
0.0
 10
800.8034700456924
 20
411.9271255914424
 30
0.0
 10
800.8511495848467
 20
411.8216825290872
 30
0.0
 10
800.8791883031766
 20
411.8497300143445
 30
0.0
 10
800.8808937755604
 20
411.851436019982
 30
0.0
  0
SPLINE
  5
1A3
330
1F
100
AcDbEntity
  8
0
  6
Continuous
 62
     7
370
    15
100
AcDbSpline
210
0.0
220
0.0
230
1.0
 70
     8
 71
     3
 72
    26
 73
    22
 74
     0
 42
0.00000001
 43
0.00000001
 12
1.0
 22
0.0
 32
0.0
 13
1.0
 23
0.0
 33
0.0
 40
0.0
 40
0.0
 40
0.0
 40
0.0
 40
0.0520670133915786
 40
0.1066705221845139
 40
0.1612750928951401
 40
0.2160868495447332
 40
0.2708979412722083
 40
0.3258813358194717
 40
0.3808640418299889
 40
0.4359095580591915
 40
0.4909540603225065
 40
0.5459247139489745
 40
0.6008949233793799
 40
0.6556897694657183
 40
0.7104840429107376
 40
0.7650802526411186
 40
0.8196752029300423
 40
0.8741345167237488
 40
0.9285931487520835
 40
0.9830343803071541
 40
1.0
 40
1.0
 40
1.0
 40
1.0
 10
801.582805523016
 20
260.2221817980658
 30
0.0
 10
801.5660650742111
 20
260.1881408219909
 30
0.0
 10
801.5317686492906
 20
260.1184005304506
 30
0.0
 10
801.4661383095806
 20
259.8088390876853
 30
0.0
 10
801.3914123651656
 20
259.351384693845
 30
0.0
 10
801.3093486100544
 20
258.7426106774395
 30
0.0
 10
801.2227015929997
 20
258.0080732292915
 30
0.0
 10
801.1338180439267
 20
257.1630014486121
 30
0.0
 10
801.0452610184267
 20
256.2348323856967
 30
0.0
 10
800.9596469325666
 20
255.2476606194205
 30
0.0
 10
800.8793116710931
 20
254.231684590355
 30
0.0
 10
800.806742255441
 20
253.2156335212872
 30
0.0
 10
800.743726169534
 20
252.2289563214975
 30
0.0
 10
800.6923718065235
 20
251.3011240297285
 30
0.0
 10
800.6536365403765
 20
250.4566858116823
 30
0.0
 10
800.6290249765274
 20
249.7222216692186
 30
0.0
 10
800.6186798927657
 20
249.1151043489893
 30
0.0
 10
800.6230930893987
 20
248.6528380022471
 30
0.0
 10
800.6426735516561
 20
248.3574304399627
 30
0.0
 10
800.6661652739333
 20
248.2251445918378
 30
0.0
 10
800.6867807748348
 20
248.2464024808157
 30
0.0
 10
800.6916788307209
 20
248.2514531622778
 30
0.0
  0
SPLINE
  5
1A4
330
1F
100
AcDbEntity
  8
0
  6
Continuous
 62
     7
370
    15
100
AcDbSpline
210
0.0
220
0.0
230
1.0
 70
     8
 71
     3
 72
    23
 73
    19
 74
     0
 42
0.00000001
 43
0.00000001
 12
1.0
 22
0.0
 32
0.0
 13
1.0
 23
0.0
 33
0.0
 40
0.0
 40
0.0
 40
0.0
 40
0.0
 40
0.064888339304893
 40
0.1316554462335597
 40
0.1966697247287888
 40
0.2635599824159354
 40
0.3287463857322468
 40
0.3958137094583845
 40
0.461140099138505
 40
0.5283595060347235
 40
0.5936682566352433
 40
0.6608789597642066
 40
0.7260247395312099
 40
0.7930726397550847
 40
0.8579822810511756
 40
0.9247867526473521
 40
0.989490945313326
 40
0.9999999999999999
 40
0.9999999999999999
 40
0.9999999999999999
 40
0.9999999999999999
 10
801.582805523016
 20
199.3537993441473
 30
0.0
 10
801.5654335990392
 20
199.1573992702639
 30
0.0
 10
801.5301867669027
 20
198.7589125830653
 30
0.0
 10
801.4633702382928
 20
198.0020509365699
 30
0.0
 10
801.3877897704228
 20
197.1444550490969
 30
0.0
 10
801.3057895410228
 20
196.2120360143166
 30
0.0
 10
801.2185816591152
 20
195.2181448802089
 30
0.0
 10
801.1300310705766
 20
194.206868502351
 30
0.0
 10
801.041185728755
 20
193.1896222746292
 30
0.0
 10
800.956094193426
 20
192.2135269224637
 30
0.0
 10
800.8757382716719
 20
191.289430608072
 30
0.0
 10
800.8038241958152
 20
190.461143748402
 30
0.0
 10
800.7410689378767
 20
189.7367191556217
 30
0.0
 10
800.6904564419704
 20
189.1519893248658
 30
0.0
 10
800.6519703799944
 20
188.7066218340613
 30
0.0
 10
800.6290964964498
 20
188.4417317694685
 30
0.0
 10
800.6192455246975
 20
188.3275665154281
 30
0.0
 10
800.6215324519872
 20
188.3541592435248
 30
0.0
 10
800.6218519893665
 20
188.3578748713385
 30
0.0
  0
SPLINE
  5
1A5
330
1F
100
AcDbEntity
  8
0
  6
Continuous
 62
     7
370
    15
100
AcDbSpline
210
0.0
220
0.0
230
1.0
 70
     8
 71
     3
 72
    23
 73
    19
 74
     0
 42
0.00000001
 43
0.00000001
 12
1.0
 22
0.0
 32
0.0
 13
1.0
 23
0.0
 33
0.0
 40
0.0
 40
0.0
 40
0.0
 40
0.0
 40
0.0560791610488998
 40
0.1206970039831663
 40
0.1871855547075328
 40
0.2518678906622638
 40
0.3184149220574226
 40
0.3832865102274836
 40
0.4500274081116182
 40
0.5151365341658779
 40
0.5821214369996822
 40
0.6474120683030301
 40
0.7145933784149071
 40
0.7799296700088519
 40
0.8471674472834935
 40
0.9123914558480026
 40
0.9795184800607646
 40
1.0
 40
1.0
 40
1.0
 40
1.0
 10
800.6218519893665
 20
1094.334647179688
 30
0.0
 10
800.6224801670148
 20
1094.327383074075
 30
0.0
 10
800.6238321694112
 20
1094.311748821213
 30
0.0
 10
800.6436490287432
 20
1094.082229547967
 30
0.0
 10
800.6767908592199
 20
1093.698662166461
 30
0.0
 10
800.723774065238
 20
1093.155506896763
 30
0.0
 10
800.7820006066116
 20
1092.483250960964
 30
0.0
 10
800.851066408877
 20
1091.687092196822
 30
0.0
 10
800.9279189787142
 20
1090.802869094832
 30
0.0
 10
801.0117723762131
 20
1089.840022531723
 30
0.0
 10
801.0989068069554
 20
1088.841818106161
 30
0.0
 10
801.1883316495887
 20
1087.819511508146
 30
0.0
 10
801.2759712743422
 20
1086.820038407709
 30
0.0
 10
801.3607977056583
 20
1085.854816218899
 30
0.0
 10
801.4388322108878
 20
1084.968731240672
 30
0.0
 10
801.5090395032445
 20
1084.173038967945
 30
0.0
 10
801.5552029139052
 20
1083.650813653685
 30
0.0
 10
801.5775752236945
 20
1083.397859474015
 30
0.0
 10
801.582805523016
 20
1083.338722706879
 30
0.0
  0
SPLINE
  5
1A6
330
1F
100
AcDbEntity
  8
0
  6
Continuous
 62
     7
370
    15
100
AcDbSpline
210
0.0
220
0.0
230
1.0
 70
     8
 71
     3
 72
    26
 73
    22
 74
     0
 42
0.00000001
 43
0.00000001
 12
1.0
 22
0.0
 32
0.0
 13
1.0
 23
0.0
 33
0.0
 40
0.0
 40
0.0
 40
0.0
 40
0.0
 40
0.0147607328107591
 40
0.0695189842097246
 40
0.1240833108814055
 40
0.1786480344652066
 40
0.2330936849084118
 40
0.2875405899405015
 40
0.3419920946175297
 40
0.3964446650949466
 40
0.4510251888242426
 40
0.5056045391216951
 40
0.5603805068391504
 40
0.6151557100110403
 40
0.670112230500259
 40
0.7250678862475415
 40
0.780112304174714
 40
0.835155669226845
 40
0.8901524425153781
 40
0.9451482109933386
 40
1.0
 40
1.0
 40
1.0
 40
1.0
 10
800.6915819731731
 20
1034.442320586289
 30
0.0
 10
800.687282358893
 20
1034.447231114052
 30
0.0
 10
800.6670323603944
 20
1034.470358346716
 30
0.0
 10
800.643647303389
 20
1034.342544126256
 30
0.0
 10
800.6234714314332
 20
1034.052395939786
 30
0.0
 10
800.6185953651939
 20
1033.594600432139
 30
0.0
 10
800.6284630817619
 20
1032.992652806527
 30
0.0
 10
800.6524816369893
 20
1032.265162928277
 30
0.0
 10
800.6904970640801
 20
1031.428840615934
 30
0.0
 10
800.7409653953505
 20
1030.51030549318
 30
0.0
 10
800.8030010803675
 20
1029.532672870721
 30
0.0
 10
800.874581465654
 20
1028.524047879954
 30
0.0
 10
800.9540465712968
 20
1027.512912179482
 30
0.0
 10
801.03904432104
 20
1026.526218444213
 30
0.0
 10
801.1273196313573
 20
1025.594778988329
 30
0.0
 10
801.2163305016506
 20
1024.741859330559
 30
0.0
 10
801.30345669566
 20
1023.996888457714
 30
0.0
 10
801.3863362804067
 20
1023.375737723537
 30
0.0
 10
801.4620243679075
 20
1022.906036488321
 30
0.0
 10
801.5296704859219
 20
1022.580439093777
 30
0.0
 10
801.5651093274594
 20
1022.507007783919
 30
0.0
 10
801.582805523016
 20
1022.470340252961
 30
0.0
  0
SPLINE
  5
1A7
330
1F
100
AcDbEntity
  8
0
  6
Continuous
 62
     7
370
    15
100
AcDbSpline
210
0.0
220
0.0
230
1.0
 70
     8
 71
     3
 72
    27
 73
    23
 74
     0
 42
0.00000001
 43
0.00000001
 12
1.0
 22
0.0
 32
0.0
 13
1.0
 23
0.0
 33
0.0
 40
0.0
 40
0.0
 40
0.0
 40
0.0
 40
0.0000938247174664
 40
0.054019166552264
 40
0.1079440726377492
 40
0.1616969500561139
 40
0.2154492657224011
 40
0.2690072840170483
 40
0.3225640668195444
 40
0.375987792365353
 40
0.4294108491101141
 40
0.4828168362657952
 40
0.5362232004387487
 40
0.589734491884106
 40
0.6432470908346878
 40
0.6969433947193369
 40
0.7506409289682403
 40
0.8045247659334335
 40
0.8584090314558234
 40
0.9123993131107282
 40
0.9663894799764343
 40
1.0
 40
1.0
 40
1.0
 40
1.0
 10
800.8807000604648
 20
870.8461077223669
 30
0.0
 10
800.8806553552889
 20
870.8461574723879
 30
0.0
 10
800.8549165477261
 20
870.8748008270703
 30
0.0
 10
800.8068469274165
 20
870.7740909070252
 30
0.0
 10
800.743698026188
 20
870.5363285306187
 30
0.0
 10
800.6923800667968
 20
870.1116682524636
 30
0.0
 10
800.6536316194549
 20
869.546569281431
 30
0.0
 10
800.629036386382
 20
868.8440997828593
 30
0.0
 10
800.6186391986927
 20
868.032370404968
 30
0.0
 10
800.623244049776
 20
867.129310966953
 30
0.0
 10
800.6421103289475
 20
866.1641889165284
 30
0.0
 10
800.6752610624234
 20
865.1616479289847
 30
0.0
 10
800.7212490455099
 20
864.150367013003
 30
0.0
 10
800.7793739608351
 20
863.1590367654262
 30
0.0
 10
800.8476213020859
 20
862.2131822899352
 30
0.0
 10
800.9245305233869
 20
861.3427363318541
 30
0.0
 10
801.007760169425
 20
860.5678520488253
 30
0.0
 10
801.0951347499838
 20
859.9168434682906
 30
0.0
 10
801.1842376268481
 20
859.4004102614537
 30
0.0
 10
801.2720869497431
 20
859.0494238173243
 30
0.0
 10
801.3469373960952
 20
858.860734674926
 30
0.0
 10
801.3887095571681
 20
858.8651475824673
 30
0.0
 10
801.4047366467495
 20
858.8668407212149
 30
0.0
  0
LINE
  5
1A8
330
1F
100
AcDbEntity
  8
0
  6
Continuous
 62
     7
370
    15
100
AcDbLine
 10
782.2578099457
 20
641.3462610255
 30
0.0
 11
790.1840803114
 21
641.3462610255
 31
0.0
  0
SPLINE
  5
1A9
330
1F
100
AcDbEntity
  8
0
  6
Continuous
 62
     7
370
    15
100
AcDbSpline
210
0.0
220
0.0
230
1.0
 70
     8
 71
     3
 72
    16
 73
    12
 74
     0
 42
0.00000001
 43
0.00000001
 12
1.0
 22
0.0
 32
0.0
 13
1.0
 23
0.0
 33
0.0
 40
0.0
 40
0.0
 40
0.0
 40
0.0
 40
0.2500000000000021
 40
0.2500000000000021
 40
0.5000000000000041
 40
0.5000000000000041
 40
0.625000000000005
 40
0.625000000000005
 40
0.7500000000000059
 40
0.7500000000000059
 40
1.0
 40
1.0
 40
1.0
 40
1.0
 10
790.1840837645484
 20
641.3462610255117
 30
0.0
 10
790.4290052791308
 20
640.6114964817647
 30
0.0
 10
790.6308649991673
 20
639.8713748803484
 30
0.0
 10
790.9105062707645
 20
638.375695862288
 30
0.0
 10
790.9873654054927
 20
637.6200236933394
 30
0.0
 10
790.9882095666618
 20
636.4722780860834
 30
0.0
 10
790.9694204799918
 20
636.0878960746359
 30
0.0
 10
790.8961529879109
 20
635.327547907463
 30
0.0
 10
790.8417489362475
 20
634.949922988791
 30
0.0
 10
790.6316698778954
 20
633.8237713284957
 30
0.0
 10
790.4293105847282
 20
633.0819414860517
 30
0.0
 10
790.1840837645482
 20
632.3462610255117
 30
0.0
  0
LINE
  5
1AA
330
1F
100
AcDbEntity
  8
0
  6
Continuous
 62
     7
370
    15
100
AcDbLine
 10
782.2578099457
 20
632.3462614129
 30
0.0
 11
790.1840803114
 21
632.3462614129
 31
0.0
  0
SPLINE
  5
1AB
330
1F
100
AcDbEntity
  8
0
  6
Continuous
 62
     7
370
    15
100
AcDbSpline
210
0.0
220
0.0
230
1.0
 70
     8
 71
     3
 72
    16
 73
    12
 74
     0
 42
0.00000001
 43
0.00000001
 12
1.0
 22
0.0
 32
0.0
 13
1.0
 23
0.0
 33
0.0
 40
0.0
 40
0.0
 40
0.0
 40
0.0
 40
0.2500000000000019
 40
0.2500000000000019
 40
0.5000000000000039
 40
0.5000000000000039
 40
0.6250000000000049
 40
0.6250000000000049
 40
0.7500000000000058
 40
0.7500000000000058
 40
1.0
 40
1.0
 40
1.0
 40
1.0
 10
782.2578043229187
 20
632.3462610255117
 30
0.0
 10
782.0128828083364
 20
633.0810255692589
 30
0.0
 10
781.8110230882999
 20
633.8211471706751
 30
0.0
 10
781.5313818167028
 20
635.3168261887354
 30
0.0
 10
781.4545226819745
 20
636.0724983576841
 30
0.0
 10
781.4536785208053
 20
637.22024396494
 30
0.0
 10
781.4724676074754
 20
637.6046259763876
 30
0.0
 10
781.5457350995563
 20
638.3649741435604
 30
0.0
 10
781.6001391512195
 20
638.7425990622326
 30
0.0
 10
781.8102182095716
 20
639.8687507225278
 30
0.0
 10
782.012577502739
 20
640.6105805649718
 30
0.0
 10
782.2578043229189
 20
641.3462610255117
 30
0.0
  0
SPLINE
  5
1AC
330
1F
100
AcDbEntity
  8
0
  6
Continuous
 62
     7
370
    15
100
AcDbSpline
210
0.0
220
0.0
230
1.0
 70
    24
 71
     3
 72
    11
 73
     7
 74
     0
 42
0.00000001
 43
0.00000001
 12
1.0
 22
0.0
 32
0.0
 13
1.0
 23
0.0
 33
0.0
 40
0.0
 40
0.0
 40
0.0
 40
0.0
 40
0.0202051909010074
 40
0.2756674694438765
 40
0.6360693577644612
 40
1.0
 40
1.0
 40
1.0
 40
1.0
 10
781.4586606708546
 20
632.3462614129435
 30
0.0
 10
781.4572895264597
 20
632.3462614129435
 30
0.0
 10
781.4385824572001
 20
632.3462614129435
 30
0.0
 10
781.5237255025168
 20
632.3462614129435
 30
0.0
 10
781.7612800468679
 20
632.3462614129435
 30
0.0
 10
782.0917633041311
 20
632.3462614129435
 30
0.0
 10
782.2578099456806
 20
632.3462614129435
 30
0.0
  0
SPLINE
  5
1AD
330
1F
100
AcDbEntity
  8
0
  6
Continuous
 62
     7
370
    15
100
AcDbSpline
210
0.0
220
0.0
230
1.0
 70
    24
 71
     3
 72
    11
 73
     7
 74
     0
 42
0.00000001
 43
0.00000001
 12
1.0
 22
0.0
 32
0.0
 13
1.0
 23
0.0
 33
0.0
 40
0.0
 40
0.0
 40
0.0
 40
0.0
 40
0.3606693061071048
 40
0.7243271250404844
 40
0.9733738621217747
 40
1.0
 40
1.0
 40
1.0
 40
1.0
 10
782.2578099456806
 20
650.3462606380831
 30
0.0
 10
782.0932183448768
 20
650.3462606380831
 30
0.0
 10
781.7626713340907
 20
650.3462606380831
 30
0.0
 10
781.5250382908579
 20
650.3462606380831
 30
0.0
 10
781.440424540294
 20
650.3462606380831
 30
0.0
 10
781.4579513073268
 20
650.3462606380831
 30
0.0
 10
781.4596441474933
 20
650.3462606380831
 30
0.0
  0
SPLINE
  5
1AE
330
1F
100
AcDbEntity
  8
0
  6
Continuous
 62
     7
370
    15
100
AcDbSpline
210
0.0
220
0.0
230
1.0
 70
     8
 71
     3
 72
    16
 73
    12
 74
     0
 42
0.00000001
 43
0.00000001
 12
1.0
 22
0.0
 32
0.0
 13
1.0
 23
0.0
 33
0.0
 40
0.0
 40
0.0
 40
0.0
 40
0.0
 40
0.2500000000000019
 40
0.2500000000000019
 40
0.5000000000000039
 40
0.5000000000000039
 40
0.6250000000000049
 40
0.6250000000000049
 40
0.7500000000000058
 40
0.7500000000000058
 40
1.0
 40
1.0
 40
1.0
 40
1.0
 10
782.2578043229188
 20
641.3462610255116
 30
0.0
 10
782.0128828083364
 20
642.0810255692588
 30
0.0
 10
781.8110230882999
 20
642.8211471706751
 30
0.0
 10
781.531381816703
 20
644.3168261887353
 30
0.0
 10
781.4545226819745
 20
645.0724983576841
 30
0.0
 10
781.4536785208053
 20
646.2202439649401
 30
0.0
 10
781.4724676074754
 20
646.6046259763875
 30
0.0
 10
781.5457350995563
 20
647.3649741435604
 30
0.0
 10
781.6001391512195
 20
647.7425990622326
 30
0.0
 10
781.8102182095716
 20
648.8687507225279
 30
0.0
 10
782.012577502739
 20
649.6105805649718
 30
0.0
 10
782.257804322919
 20
650.3462610255118
 30
0.0
  0
LINE
  5
1AF
330
1F
100
AcDbEntity
  8
0
  6
Continuous
 62
     7
370
    15
100
AcDbLine
 10
781.0209390608
 20
633.0962610702
 30
0.0
 11
781.0209390608
 21
649.5962609808
 31
0.0
  0
LINE
  5
1B0
330
1F
100
AcDbEntity
  8
0
  6
Continuous
 62
     7
370
    15
100
AcDbLine
 10
782.2578099457
 20
650.3462606381
 30
0.0
 11
790.1840803114
 21
650.3462606381
 31
0.0
  0
SPLINE
  5
1B1
330
1F
100
AcDbEntity
  8
0
  6
Continuous
 62
     7
370
    15
100
AcDbSpline
210
0.0
220
0.0
230
1.0
 70
     8
 71
     3
 72
    16
 73
    12
 74
     0
 42
0.00000001
 43
0.00000001
 12
1.0
 22
0.0
 32
0.0
 13
1.0
 23
0.0
 33
0.0
 40
0.0
 40
0.0
 40
0.0
 40
0.0
 40
0.2500000000000019
 40
0.2500000000000019
 40
0.5000000000000039
 40
0.5000000000000039
 40
0.6250000000000049
 40
0.6250000000000049
 40
0.7500000000000058
 40
0.7500000000000058
 40
1.0
 40
1.0
 40
1.0
 40
1.0
 10
790.1840837645484
 20
650.3462610255117
 30
0.0
 10
790.4290052791308
 20
649.6114964817647
 30
0.0
 10
790.6308649991673
 20
648.8713748803484
 30
0.0
 10
790.9105062707645
 20
647.3756958622881
 30
0.0
 10
790.9873654054927
 20
646.6200236933394
 30
0.0
 10
790.9882095666619
 20
645.4722780860834
 30
0.0
 10
790.9694204799919
 20
645.0878960746359
 30
0.0
 10
790.896152987911
 20
644.3275479074631
 30
0.0
 10
790.8417489362475
 20
643.949922988791
 30
0.0
 10
790.6316698778957
 20
642.8237713284957
 30
0.0
 10
790.4293105847283
 20
642.0819414860517
 30
0.0
 10
790.1840837645483
 20
641.3462610255117
 30
0.0
  0
SPLINE
  5
1B2
330
1F
100
AcDbEntity
  8
0
  6
Continuous
 62
     7
370
    15
100
AcDbSpline
210
0.0
220
0.0
230
1.0
 70
    24
 71
     3
 72
    11
 73
     7
 74
     0
 42
0.00000001
 43
0.00000001
 12
1.0
 22
0.0
 32
0.0
 13
1.0
 23
0.0
 33
0.0
 40
0.0
 40
0.0
 40
0.0
 40
0.0
 40
0.0202051909010074
 40
0.2756674694438765
 40
0.6360693577644612
 40
1.0
 40
1.0
 40
1.0
 40
1.0
 10
790.9832295862217
 20
650.3462606380831
 30
0.0
 10
790.9846007306166
 20
650.3462606380831
 30
0.0
 10
791.0033077998763
 20
650.3462606380831
 30
0.0
 10
790.9181647545596
 20
650.3462606380831
 30
0.0
 10
790.6806102102083
 20
650.3462606380831
 30
0.0
 10
790.3501269529452
 20
650.3462606380831
 30
0.0
 10
790.1840803113956
 20
650.3462606380831
 30
0.0
  0
SPLINE
  5
1B3
330
1F
100
AcDbEntity
  8
0
  6
Continuous
 62
     7
370
    15
100
AcDbSpline
210
0.0
220
0.0
230
1.0
 70
    24
 71
     3
 72
    11
 73
     7
 74
     0
 42
0.00000001
 43
0.00000001
 12
1.0
 22
0.0
 32
0.0
 13
1.0
 23
0.0
 33
0.0
 40
0.0
 40
0.0
 40
0.0
 40
0.0
 40
0.3606693061071048
 40
0.7243271250404844
 40
0.9733738621217747
 40
1.0
 40
1.0
 40
1.0
 40
1.0
 10
790.1840803113956
 20
632.3462614129435
 30
0.0
 10
790.3486719121995
 20
632.3462614129435
 30
0.0
 10
790.6792189229857
 20
632.3462614129435
 30
0.0
 10
790.9168519662184
 20
632.3462614129435
 30
0.0
 10
791.0014657167826
 20
632.3462614129435
 30
0.0
 10
790.9839389497495
 20
632.3462614129435
 30
0.0
 10
790.9822461095829
 20
632.3462614129435
 30
0.0
  0
LINE
  5
1B4
330
1F
100
AcDbEntity
  8
0
  6
Continuous
 62
     7
370
    15
100
AcDbLine
 10
745.9209409443
 20
641.3462610255
 30
0.0
 11
745.9209409443
 21
647.3462610777
 31
0.0
  0
LINE
  5
1B5
330
1F
100
AcDbEntity
  8
0
  6
Continuous
 62
     7
370
    15
100
AcDbLine
 10
745.9209409443
 20
635.3462609734
 30
0.0
 11
745.9209409443
 21
641.3462610255
 31
0.0
  0
LINE
  5
1B6
330
1F
100
AcDbEntity
  8
0
  6
Continuous
 62
     7
370
    15
100
AcDbLine
 10
801.582805523
 20
1022.470340253
 30
0.0
 11
801.6066026774
 21
1022.4785656939
 31
0.0
  0
SPLINE
  5
1B7
330
1F
100
AcDbEntity
  8
0
  6
Continuous
 62
     7
370
    15
100
AcDbSpline
210
0.0
220
0.0
230
1.0
 70
     8
 71
     3
 72
    11
 73
     7
 74
     0
 42
0.00000001
 43
0.00000001
 12
1.0
 22
0.0
 32
0.0
 13
1.0
 23
0.0
 33
0.0
 40
0.0
 40
0.0
 40
0.0
 40
0.0
 40
0.2837886594359222
 40
0.5757357394889073
 40
0.8600873672572162
 40
1.0
 40
1.0
 40
1.0
 40
1.0
 10
801.582805523016
 20
1083.338722706879
 30
0.0
 10
801.6038486432093
 20
1083.169157095752
 30
0.0
 10
801.6465398359784
 20
1082.825151162926
 30
0.0
 10
801.7271705524007
 20
1082.511899690501
 30
0.0
 10
801.7746525398172
 20
1082.349533964473
 30
0.0
 10
801.7705273038088
 20
1082.363578509237
 30
0.0
 10
801.7691668954868
 20
1082.368210078324
 30
0.0
  0
SPLINE
  5
1B8
330
1F
100
AcDbEntity
  8
0
  6
Continuous
 62
     7
370
    15
100
AcDbSpline
210
0.0
220
0.0
230
1.0
 70
     8
 71
     3
 72
    11
 73
     7
 74
     0
 42
0.00000001
 43
0.00000001
 12
1.0
 22
0.0
 32
0.0
 13
1.0
 23
0.0
 33
0.0
 40
0.0
 40
0.0
 40
0.0
 40
0.0
 40
0.1532596164051307
 40
0.4282230088974106
 40
0.7108225882963709
 40
1.0
 40
1.0
 40
1.0
 40
1.0
 10
801.7691668954868
 20
200.3243119727026
 30
0.0
 10
801.770313571287
 20
200.3282772236337
 30
0.0
 10
801.7735175004946
 20
200.3393565394022
 30
0.0
 10
801.7260490572037
 20
200.1761678585034
 30
0.0
 10
801.6468341748154
 20
199.8675231899004
 30
0.0
 10
801.6043114700695
 20
199.5263489374371
 30
0.0
 10
801.582805523016
 20
199.3537993441473
 30
0.0
  0
LINE
  5
1B9
330
1F
100
AcDbEntity
  8
0
  6
Continuous
 62
     7
370
    15
100
AcDbLine
 10
801.6066697327
 20
260.213390113
 30
0.0
 11
801.582805523
 21
260.2221817981
 31
0.0
  0
LINE
  5
1BA
330
1F
100
AcDbEntity
  8
0
  6
Continuous
 62
     7
370
    15
100
AcDbLine
 10
833.9209404675
 20
647.3462610777
 30
0.0
 11
833.9209404675
 21
858.8462622176
 31
0.0
  0
LINE
  5
1BB
330
1F
100
AcDbEntity
  8
0
  6
Continuous
 62
     7
370
    15
100
AcDbLine
 10
833.9209404675
 20
870.846256734
 30
0.0
 11
833.9209404675
 21
1022.4596114169
 31
0.0
  0
LINE
  5
1BC
330
1F
100
AcDbEntity
  8
0
  6
Continuous
 62
     7
370
    15
100
AcDbLine
 10
833.9209404675
 20
1034.4596059333
 30
0.0
 11
833.9209404675
 21
1074.9738366614
 31
0.0
  0
LINE
  5
1BD
330
1F
100
AcDbEntity
  8
0
  6
Continuous
 62
     7
370
    15
100
AcDbLine
 10
833.9209404675
 20
207.7186853896
 30
0.0
 11
833.9209404675
 21
248.2329161178
 31
0.0
  0
LINE
  5
1BE
330
1F
100
AcDbEntity
  8
0
  6
Continuous
 62
     7
370
    15
100
AcDbLine
 10
833.9209404675
 20
260.2329106341
 30
0.0
 11
833.9209404675
 21
411.846265317
 31
0.0
  0
LINE
  5
1BF
330
1F
100
AcDbEntity
  8
0
  6
Continuous
 62
     7
370
    15
100
AcDbLine
 10
833.9209404675
 20
423.8462598334
 30
0.0
 11
833.9209404675
 21
635.3462609734
 31
0.0
  0
LINE
  5
1C0
330
1F
100
AcDbEntity
  8
0
  6
Continuous
 62
     7
370
    15
100
AcDbLine
 10
791.4209511963
 20
852.8462649594
 30
0.0
 11
791.4209511963
 21
876.8462539922
 31
0.0
  0
LINE
  5
1C1
330
1F
100
AcDbEntity
  8
0
  6
Continuous
 62
     7
370
    15
100
AcDbLine
 10
791.4209511963
 20
405.8462680589
 30
0.0
 11
791.4209511963
 21
429.8462570916
 31
0.0
  0
SPLINE
  5
1C2
330
1F
100
AcDbEntity
  8
0
  6
Continuous
 62
     7
370
    15
100
AcDbSpline
210
0.0
220
0.0
230
1.0
 70
     8
 71
     3
 72
    16
 73
    12
 74
     0
 42
0.00000001
 43
0.00000001
 12
1.0
 22
0.0
 32
0.0
 13
1.0
 23
0.0
 33
0.0
 40
0.0
 40
0.0
 40
0.0
 40
0.0
 40
0.2500000000000027
 40
0.2500000000000027
 40
0.5000000000000053
 40
0.5000000000000053
 40
0.6250000000000047
 40
0.6250000000000047
 40
0.750000000000004
 40
0.750000000000004
 40
1.0
 40
1.0
 40
1.0
 40
1.0
 10
782.2578043229191
 20
854.4539561800992
 30
0.0
 10
782.0138288262498
 20
854.8765341361321
 30
0.0
 10
781.809134737255
 20
855.3094484460923
 30
0.0
 10
781.5292809435026
 20
856.1773918362541
 30
0.0
 10
781.4538724811478
 20
856.6137122683898
 30
0.0
 10
781.4539989857022
 20
857.2723152903392
 30
0.0
 10
781.4726906055341
 20
857.4925285479292
 30
0.0
 10
781.5468658236508
 20
857.9342944428342
 30
0.0
 10
781.6020422666185
 20
858.1538480734048
 30
0.0
 10
781.8133799326656
 20
858.8046501073478
 30
0.0
 10
782.0153434592598
 20
859.2301545692712
 30
0.0
 10
782.2578067096974
 20
859.6501127368248
 30
0.0
  0
SPLINE
  5
1C3
330
1F
100
AcDbEntity
  8
0
  6
Continuous
 62
     7
370
    15
100
AcDbSpline
210
0.0
220
0.0
230
1.0
 70
     8
 71
     3
 72
    16
 73
    12
 74
     0
 42
0.00000001
 43
0.00000001
 12
1.0
 22
0.0
 32
0.0
 13
1.0
 23
0.0
 33
0.0
 40
0.0
 40
0.0
 40
0.0
 40
0.0
 40
0.2499999999999942
 40
0.2499999999999942
 40
0.4999999999999885
 40
0.4999999999999885
 40
0.6249999999999923
 40
0.6249999999999923
 40
0.7499999999999962
 40
0.7499999999999962
 40
1.0
 40
1.0
 40
1.0
 40
1.0
 10
782.2578070224281
 20
870.042408772535
 30
0.0
 10
782.0128849654657
 20
870.4666256465002
 30
0.0
 10
781.8110247143057
 20
870.893935419961
 30
0.0
 10
781.5313825023393
 20
871.7574668477137
 30
0.0
 10
781.4545229615445
 20
872.1937547545077
 30
0.0
 10
781.4536783856736
 20
872.8564065687292
 30
0.0
 10
781.4724673686541
 20
873.0783298439807
 30
0.0
 10
781.5457347327166
 20
873.5173174823591
 30
0.0
 10
781.6001387582324
 20
873.7353395373631
 30
0.0
 10
781.8102178378083
 20
874.3855241129961
 30
0.0
 10
782.0125772774996
 20
874.8138201688695
 30
0.0
 10
782.257804322919
 20
875.2385658709258
 30
0.0
  0
SPLINE
  5
1C4
330
1F
100
AcDbEntity
  8
0
  6
Continuous
 62
     7
370
    15
100
AcDbSpline
210
0.0
220
0.0
230
1.0
 70
     8
 71
     3
 72
    15
 73
    11
 74
     0
 42
0.00000001
 43
0.00000001
 12
1.0
 22
0.0
 32
0.0
 13
1.0
 23
0.0
 33
0.0
 40
0.0
 40
0.0
 40
0.0
 40
0.0
 40
0.1323059603570759
 40
0.2645736583046869
 40
0.3998010630601099
 40
0.5350025905282485
 40
0.6501939860318874
 40
0.7654020732068783
 40
0.8826896498569685
 40
1.0
 40
1.0
 40
1.0
 40
1.0
 10
782.2578099456806
 20
859.6501053582083
 30
0.0
 10
782.1354369804981
 20
860.09909606074
 30
0.0
 10
781.8907264399558
 20
860.9969476193015
 30
0.0
 10
781.6274560313052
 20
862.3795673771513
 30
0.0
 10
781.469125629066
 20
863.788238227706
 30
0.0
 10
781.4377855723144
 20
865.1458872367119
 30
0.0
 10
781.5191180625789
 20
866.4301843393221
 30
0.0
 10
781.6857977852776
 20
867.6422450626873
 30
0.0
 10
781.9302799540657
 20
868.8488251117996
 30
0.0
 10
782.1486262165191
 20
869.6445250187754
 30
0.0
 10
782.2578099456806
 20
870.0424135933768
 30
0.0
  0
LINE
  5
1C5
330
1F
100
AcDbEntity
  8
0
  6
Continuous
 62
     7
370
    15
100
AcDbLine
 10
781.0209390608
 20
857.7015550147
 30
0.0
 11
781.0209390608
 21
873.0962575684
 31
0.0
  0
LINE
  5
1C6
330
1F
100
AcDbEntity
  8
0
  6
Continuous
 62
     7
370
    15
100
AcDbLine
 10
781.0209390608
 20
856.5962613831
 30
0.0
 11
781.0209390608
 21
857.7015550147
 31
0.0
  0
LINE
  5
1C7
330
1F
100
AcDbEntity
  8
0
  6
Continuous
 62
     7
370
    15
100
AcDbLine
 10
782.2578099457
 20
859.6501053582
 30
0.0
 11
790.1840803114
 21
859.6501053582
 31
0.0
  0
SPLINE
  5
1C8
330
1F
100
AcDbEntity
  8
0
  6
Continuous
 62
     7
370
    15
100
AcDbSpline
210
0.0
220
0.0
230
1.0
 70
     8
 71
     3
 72
    16
 73
    12
 74
     0
 42
0.00000001
 43
0.00000001
 12
1.0
 22
0.0
 32
0.0
 13
1.0
 23
0.0
 33
0.0
 40
0.0
 40
0.0
 40
0.0
 40
0.0
 40
0.2500000000000068
 40
0.2500000000000068
 40
0.5000000000000135
 40
0.5000000000000135
 40
0.625000000000008
 40
0.625000000000008
 40
0.7500000000000026
 40
0.7500000000000026
 40
1.0
 40
1.0
 40
1.0
 40
1.0
 10
790.1840837645481
 20
854.4539561800992
 30
0.0
 10
790.428059247887
 20
854.8765341130434
 30
0.0
 10
790.6327533279898
 20
855.3094483989219
 30
0.0
 10
790.9126071203149
 20
856.1773917411558
 30
0.0
 10
790.9880155901253
 20
856.6137121490303
 30
0.0
 10
790.9878891099036
 20
857.2723151341092
 30
0.0
 10
790.9691975003047
 20
857.4925283793318
 30
0.0
 10
790.8950223062367
 20
857.9342942493715
 30
0.0
 10
790.8398458762338
 20
858.1538478705295
 30
0.0
 10
790.6285082518798
 20
858.8046498730422
 30
0.0
 10
790.4265447560725
 20
859.2301543144216
 30
0.0
 10
790.184081536743
 20
859.6501124614753
 30
0.0
  0
LINE
  5
1C9
330
1F
100
AcDbEntity
  8
0
  6
Continuous
 62
     7
370
    15
100
AcDbLine
 10
782.2578099457
 20
854.4539512406
 30
0.0
 11
790.1840803114
 21
854.4539512406
 31
0.0
  0
LINE
  5
1CA
330
1F
100
AcDbEntity
  8
0
  6
Continuous
 62
     7
370
    15
100
AcDbLine
 10
782.2578099457
 20
875.238567711
 30
0.0
 11
790.1840803114
 21
875.238567711
 31
0.0
  0
SPLINE
  5
1CB
330
1F
100
AcDbEntity
  8
0
  6
Continuous
 62
     7
370
    15
100
AcDbSpline
210
0.0
220
0.0
230
1.0
 70
     8
 71
     3
 72
    16
 73
    12
 74
     0
 42
0.00000001
 43
0.00000001
 12
1.0
 22
0.0
 32
0.0
 13
1.0
 23
0.0
 33
0.0
 40
0.0
 40
0.0
 40
0.0
 40
0.0
 40
0.2499999999999983
 40
0.2499999999999983
 40
0.4999999999999966
 40
0.4999999999999966
 40
0.6249999999999937
 40
0.6249999999999937
 40
0.7499999999999909
 40
0.7499999999999909
 40
1.0
 40
1.0
 40
1.0
 40
1.0
 10
790.1840837645484
 20
875.2385658709258
 30
0.0
 10
790.4290054970435
 20
874.8143489863667
 30
0.0
 10
790.6308653583225
 20
874.3870391976136
 30
0.0
 10
790.9105066580196
 20
873.5235077297592
 30
0.0
 10
790.987365675303
 20
873.087219798075
 30
0.0
 10
790.9882094362621
 20
872.424567944389
 30
0.0
 10
790.9694201813394
 20
872.2026447039399
 30
0.0
 10
790.8961523087436
 20
871.7636571204833
 30
0.0
 10
790.8417480434293
 20
871.5456350917419
 30
0.0
 10
790.6316682991053
 20
870.8954505903705
 30
0.0
 10
790.429308491078
 20
870.4671545778076
 30
0.0
 10
790.1840811463362
 20
870.0424089133458
 30
0.0
  0
LINE
  5
1CC
330
1F
100
AcDbEntity
  8
0
  6
Continuous
 62
     7
370
    15
100
AcDbLine
 10
782.2578099457
 20
870.0424135934
 30
0.0
 11
790.1840803114
 21
870.0424135934
 31
0.0
  0
SPLINE
  5
1CD
330
1F
100
AcDbEntity
  8
0
  6
Continuous
 62
     7
370
    15
100
AcDbSpline
210
0.0
220
0.0
230
1.0
 70
     8
 71
     3
 72
    15
 73
    11
 74
     0
 42
0.00000001
 43
0.00000001
 12
1.0
 22
0.0
 32
0.0
 13
1.0
 23
0.0
 33
0.0
 40
0.0
 40
0.0
 40
0.0
 40
0.0
 40
0.1323059603570759
 40
0.2645736583046869
 40
0.3998010630601099
 40
0.5350025905282485
 40
0.6501939860318874
 40
0.7654020732068783
 40
0.8826896498569685
 40
1.0
 40
1.0
 40
1.0
 40
1.0
 10
790.1840803113956
 20
870.0424135933768
 30
0.0
 10
790.3064532765782
 20
869.5934228908451
 30
0.0
 10
790.5511638171206
 20
868.6955713322835
 30
0.0
 10
790.814434225771
 20
867.3129515744339
 30
0.0
 10
790.9727646280104
 20
865.904280723879
 30
0.0
 10
791.004104684762
 20
864.5466317148731
 30
0.0
 10
790.9227721944974
 20
863.262334612263
 30
0.0
 10
790.7560924717988
 20
862.0502738888978
 30
0.0
 10
790.5116103030106
 20
860.8436938397856
 30
0.0
 10
790.2932640405571
 20
860.0479939328096
 30
0.0
 10
790.1840803113956
 20
859.6501053582083
 30
0.0
  0
LINE
  5
1CE
330
1F
100
AcDbEntity
  8
0
  6
Continuous
 62
     7
370
    15
100
AcDbLine
 10
782.2578099457
 20
423.0424166928
 30
0.0
 11
790.1840803114
 21
423.0424166928
 31
0.0
  0
SPLINE
  5
1CF
330
1F
100
AcDbEntity
  8
0
  6
Continuous
 62
     7
370
    15
100
AcDbSpline
210
0.0
220
0.0
230
1.0
 70
     8
 71
     3
 72
    15
 73
    11
 74
     0
 42
0.00000001
 43
0.00000001
 12
1.0
 22
0.0
 32
0.0
 13
1.0
 23
0.0
 33
0.0
 40
0.0
 40
0.0
 40
0.0
 40
0.0
 40
0.1323059603570759
 40
0.2645736583046869
 40
0.3998010630601099
 40
0.5350025905282485
 40
0.6501939860318874
 40
0.7654020732068783
 40
0.8826896498569685
 40
1.0
 40
1.0
 40
1.0
 40
1.0
 10
790.1840803113956
 20
423.0424166928183
 30
0.0
 10
790.3064532765782
 20
422.5934259902866
 30
0.0
 10
790.5511638171206
 20
421.695574431725
 30
0.0
 10
790.814434225771
 20
420.3129546738753
 30
0.0
 10
790.9727646280104
 20
418.9042838233206
 30
0.0
 10
791.004104684762
 20
417.5466348143146
 30
0.0
 10
790.9227721944974
 20
416.2623377117045
 30
0.0
 10
790.7560924717988
 20
415.0502769883392
 30
0.0
 10
790.5116103030106
 20
413.8436969392271
 30
0.0
 10
790.2932640405571
 20
413.0479970322511
 30
0.0
 10
790.1840803113956
 20
412.6501084576498
 30
0.0
  0
LINE
  5
1D0
330
1F
100
AcDbEntity
  8
0
  6
Continuous
 62
     7
370
    15
100
AcDbLine
 10
782.2578099457
 20
412.6501084576
 30
0.0
 11
790.1840803114
 21
412.6501084576
 31
0.0
  0
SPLINE
  5
1D1
330
1F
100
AcDbEntity
  8
0
  6
Continuous
 62
     7
370
    15
100
AcDbSpline
210
0.0
220
0.0
230
1.0
 70
     8
 71
     3
 72
    15
 73
    11
 74
     0
 42
0.00000001
 43
0.00000001
 12
1.0
 22
0.0
 32
0.0
 13
1.0
 23
0.0
 33
0.0
 40
0.0
 40
0.0
 40
0.0
 40
0.0
 40
0.1323059603570759
 40
0.2645736583046869
 40
0.3998010630601099
 40
0.5350025905282485
 40
0.6501939860318874
 40
0.7654020732068783
 40
0.8826896498569685
 40
1.0
 40
1.0
 40
1.0
 40
1.0
 10
782.2578099456806
 20
412.6501084576498
 30
0.0
 10
782.1354369804981
 20
413.0990991601815
 30
0.0
 10
781.8907264399558
 20
413.9969507187431
 30
0.0
 10
781.6274560313052
 20
415.3795704765927
 30
0.0
 10
781.469125629066
 20
416.7882413271477
 30
0.0
 10
781.4377855723144
 20
418.1458903361535
 30
0.0
 10
781.5191180625789
 20
419.4301874387636
 30
0.0
 10
781.6857977852776
 20
420.6422481621289
 30
0.0
 10
781.9302799540657
 20
421.8488282112409
 30
0.0
 10
782.1486262165191
 20
422.644528118217
 30
0.0
 10
782.2578099456806
 20
423.0424166928183
 30
0.0
  0
LINE
  5
1D2
330
1F
100
AcDbEntity
  8
0
  6
Continuous
 62
     7
370
    15
100
AcDbLine
 10
782.2578099457
 20
428.2385708104
 30
0.0
 11
790.1840803114
 21
428.2385708104
 31
0.0
  0
SPLINE
  5
1D3
330
1F
100
AcDbEntity
  8
0
  6
Continuous
 62
     7
370
    15
100
AcDbSpline
210
0.0
220
0.0
230
1.0
 70
     8
 71
     3
 72
    16
 73
    12
 74
     0
 42
0.00000001
 43
0.00000001
 12
1.0
 22
0.0
 32
0.0
 13
1.0
 23
0.0
 33
0.0
 40
0.0
 40
0.0
 40
0.0
 40
0.0
 40
0.2500000000000063
 40
0.2500000000000063
 40
0.5000000000000127
 40
0.5000000000000127
 40
0.6250000000000138
 40
0.6250000000000138
 40
0.750000000000015
 40
0.750000000000015
 40
1.0
 40
1.0
 40
1.0
 40
1.0
 10
790.1840837645482
 20
428.2385658709247
 30
0.0
 10
790.4280592478871
 20
427.8159879379806
 30
0.0
 10
790.6327533279898
 20
427.3830736521021
 30
0.0
 10
790.912607120315
 20
426.515130309868
 30
0.0
 10
790.9880155901254
 20
426.0788099019936
 30
0.0
 10
790.9878891099036
 20
425.4202069169145
 30
0.0
 10
790.9691975003049
 20
425.1999936716922
 30
0.0
 10
790.8950223062367
 20
424.7582278016524
 30
0.0
 10
790.8398458762338
 20
424.5386741804944
 30
0.0
 10
790.62850825188
 20
423.8878721779819
 30
0.0
 10
790.4265447560726
 20
423.4623677366023
 30
0.0
 10
790.1840815367431
 20
423.0424095895486
 30
0.0
  0
SPLINE
  5
1D4
330
1F
100
AcDbEntity
  8
0
  6
Continuous
 62
     7
370
    15
100
AcDbSpline
210
0.0
220
0.0
230
1.0
 70
     8
 71
     3
 72
    16
 73
    12
 74
     0
 42
0.00000001
 43
0.00000001
 12
1.0
 22
0.0
 32
0.0
 13
1.0
 23
0.0
 33
0.0
 40
0.0
 40
0.0
 40
0.0
 40
0.0
 40
0.2500000000000056
 40
0.2500000000000056
 40
0.5000000000000111
 40
0.5000000000000111
 40
0.625000000000009
 40
0.625000000000009
 40
0.7500000000000069
 40
0.7500000000000069
 40
1.0
 40
1.0
 40
1.0
 40
1.0
 10
782.2578043229191
 20
428.2385658709247
 30
0.0
 10
782.0138288262499
 20
427.8159879148916
 30
0.0
 10
781.8091347372551
 20
427.3830736049316
 30
0.0
 10
781.5292809435027
 20
426.5151302147699
 30
0.0
 10
781.4538724811479
 20
426.0788097826343
 30
0.0
 10
781.4539989857022
 20
425.4202067606846
 30
0.0
 10
781.4726906055341
 20
425.1999935030948
 30
0.0
 10
781.5468658236508
 20
424.7582276081898
 30
0.0
 10
781.6020422666184
 20
424.538673977619
 30
0.0
 10
781.8133799326656
 20
423.887871943676
 30
0.0
 10
782.0153434592597
 20
423.4623674817527
 30
0.0
 10
782.2578067096974
 20
423.0424093141992
 30
0.0
  0
SPLINE
  5
1D5
330
1F
100
AcDbEntity
  8
0
  6
Continuous
 62
     7
370
    15
100
AcDbSpline
210
0.0
220
0.0
230
1.0
 70
     8
 71
     3
 72
    16
 73
    12
 74
     0
 42
0.00000001
 43
0.00000001
 12
1.0
 22
0.0
 32
0.0
 13
1.0
 23
0.0
 33
0.0
 40
0.0
 40
0.0
 40
0.0
 40
0.0
 40
0.2499999999999953
 40
0.2499999999999953
 40
0.4999999999999907
 40
0.4999999999999907
 40
0.6249999999999883
 40
0.6249999999999883
 40
0.749999999999986
 40
0.749999999999986
 40
1.0
 40
1.0
 40
1.0
 40
1.0
 10
782.2578043229187
 20
407.4539561800981
 30
0.0
 10
782.0128825821832
 20
407.8781730789305
 30
0.0
 10
781.8110227155628
 20
408.3054828821648
 30
0.0
 10
781.5313814148031
 20
409.1690143796729
 30
0.0
 10
781.4545224019611
 20
409.6053023265412
 30
0.0
 10
781.4536786561363
 20
410.2679542036117
 30
0.0
 10
781.4724679174218
 20
410.4898774509684
 30
0.0
 10
781.5457358044071
 20
410.9288650482076
 30
0.0
 10
781.6001400778009
 20
411.1468870837671
 30
0.0
 10
781.8102198480658
 20
411.7970716054514
 30
0.0
 10
782.0125796755628
 20
412.225367631376
 30
0.0
 10
782.2578070401415
 20
412.6501133091692
 30
0.0
  0
LINE
  5
1D6
330
1F
100
AcDbEntity
  8
0
  6
Continuous
 62
     7
370
    15
100
AcDbLine
 10
781.0209390608
 20
409.5962644826
 30
0.0
 11
781.0209390608
 21
426.0962606679
 31
0.0
  0
SPLINE
  5
1D7
330
1F
100
AcDbEntity
  8
0
  6
Continuous
 62
     7
370
    15
100
AcDbSpline
210
0.0
220
0.0
230
1.0
 70
     8
 71
     3
 72
    16
 73
    12
 74
     0
 42
0.00000001
 43
0.00000001
 12
1.0
 22
0.0
 32
0.0
 13
1.0
 23
0.0
 33
0.0
 40
0.0
 40
0.0
 40
0.0
 40
0.0
 40
0.2499999999999987
 40
0.2499999999999987
 40
0.4999999999999974
 40
0.4999999999999974
 40
0.6249999999999968
 40
0.6249999999999968
 40
0.7499999999999962
 40
0.7499999999999962
 40
1.0
 40
1.0
 40
1.0
 40
1.0
 10
790.1840811514256
 20
412.6501131288633
 30
0.0
 10
790.4290031910313
 20
412.2258962666374
 30
0.0
 10
790.630863425195
 20
411.7985865049416
 30
0.0
 10
790.9105056070688
 20
410.9350551009994
 30
0.0
 10
790.9873651348692
 20
410.4987672062579
 30
0.0
 10
790.9882096974693
 20
409.8361154105619
 30
0.0
 10
790.9694207111708
 20
409.6141921422698
 30
0.0
 10
790.8961533430114
 20
409.1752045173118
 30
0.0
 10
790.8417493166589
 20
408.9571824689179
 30
0.0
 10
790.6316702377621
 20
408.3069979128504
 30
0.0
 10
790.4293108027598
 20
407.8787018696701
 30
0.0
 10
790.1840837645482
 20
407.4539561800981
 30
0.0
  0
LINE
  5
1D8
330
1F
100
AcDbEntity
  8
0
  6
Continuous
 62
     7
370
    15
100
AcDbLine
 10
782.2578099457
 20
407.4539543401
 30
0.0
 11
790.1840803114
 21
407.4539543401
 31
0.0
  0
LINE
  5
1D9
330
1F
100
AcDbEntity
  8
0
  6
Continuous
 62
     7
370
    15
100
AcDbLine
 10
745.9209409443
 20
867.8462655555
 30
0.0
 11
745.9209409443
 21
870.846256734
 31
0.0
  0
LINE
  5
1DA
330
1F
100
AcDbEntity
  8
0
  6
Continuous
 62
     7
370
    15
100
AcDbLine
 10
745.9209409443
 20
858.8462622176
 30
0.0
 11
745.9209409443
 21
867.8462655555
 31
0.0
  0
LINE
  5
1DB
330
1F
100
AcDbEntity
  8
0
  6
Continuous
 62
     7
370
    15
100
AcDbLine
 10
745.9209409443
 20
414.8462564956
 30
0.0
 11
745.9209409443
 21
423.8462598334
 31
0.0
  0
LINE
  5
1DC
330
1F
100
AcDbEntity
  8
0
  6
Continuous
 62
     7
370
    15
100
AcDbLine
 10
745.9209409443
 20
411.846265317
 30
0.0
 11
745.9209409443
 21
414.8462564956
 31
0.0
  0
LINE
  5
1DD
330
1F
100
AcDbEntity
  8
0
  6
Continuous
 62
     7
370
    15
100
AcDbLine
 10
791.4209511963
 20
1016.4596290599
 30
0.0
 11
791.4209511963
 21
1040.4596180926
 31
0.0
  0
LINE
  5
1DE
330
1F
100
AcDbEntity
  8
0
  6
Continuous
 62
     7
370
    15
100
AcDbLine
 10
791.4209511963
 20
242.2329039584
 30
0.0
 11
791.4209511963
 21
266.2328929912
 31
0.0
  0
SPLINE
  5
1DF
330
1F
100
AcDbEntity
  8
0
  6
Continuous
 62
     7
370
    15
100
AcDbSpline
210
0.0
220
0.0
230
1.0
 70
     8
 71
     3
 72
    16
 73
    12
 74
     0
 42
0.00000001
 43
0.00000001
 12
1.0
 22
0.0
 32
0.0
 13
1.0
 23
0.0
 33
0.0
 40
0.0
 40
0.0
 40
0.0
 40
0.0
 40
0.2500000000000069
 40
0.2500000000000069
 40
0.5000000000000138
 40
0.5000000000000138
 40
0.6250000000000103
 40
0.6250000000000103
 40
0.7500000000000069
 40
0.7500000000000069
 40
1.0
 40
1.0
 40
1.0
 40
1.0
 10
782.2578043229191
 20
1019.459616517157
 30
0.0
 10
782.0138290263886
 20
1020.191542406749
 30
0.0
 10
781.8091350708977
 20
1020.941371360691
 30
0.0
 10
781.5292812985722
 20
1022.44469216421
 30
0.0
 10
781.453872724281
 20
1023.200420690149
 30
0.0
 10
781.4539988635138
 20
1024.341153627385
 30
0.0
 10
781.4726903297073
 20
1024.722573856421
 30
0.0
 10
781.5468651867644
 20
1025.487734184839
 30
0.0
 10
781.6020414350851
 20
1025.868011983197
 30
0.0
 10
781.8133784751607
 20
1026.995233354326
 30
0.0
 10
782.0153415395301
 20
1027.732228166991
 30
0.0
 10
782.2578043229191
 20
1028.459616517157
 30
0.0
  0
SPLINE
  5
1E0
330
1F
100
AcDbEntity
  8
0
  6
Continuous
 62
     7
370
    15
100
AcDbSpline
210
0.0
220
0.0
230
1.0
 70
    24
 71
     3
 72
    12
 73
     8
 74
     0
 42
0.00000001
 43
0.00000001
 12
1.0
 22
0.0
 32
0.0
 13
1.0
 23
0.0
 33
0.0
 40
0.0
 40
0.0
 40
0.0
 40
0.0
 40
0.0699904009232902
 40
0.3003768533362772
 40
0.5307966896225201
 40
0.7653755709563864
 40
1.0
 40
1.0
 40
1.0
 40
1.0
 10
781.4665880886097
 20
1019.459620238389
 30
0.0
 10
781.4627365984319
 20
1019.459620238389
 30
0.0
 10
781.4462072103303
 20
1019.459620238389
 30
0.0
 10
781.5243797030855
 20
1019.459620238389
 30
0.0
 10
781.6843662941588
 20
1019.459620238389
 30
0.0
 10
781.930640571903
 20
1019.459620238389
 30
0.0
 10
782.1487464302439
 20
1019.459620238389
 30
0.0
 10
782.2578099456806
 20
1019.459620238389
 30
0.0
  0
SPLINE
  5
1E1
330
1F
100
AcDbEntity
  8
0
  6
Continuous
 62
     7
370
    15
100
AcDbSpline
210
0.0
220
0.0
230
1.0
 70
    24
 71
     3
 72
    11
 73
     7
 74
     0
 42
0.00000001
 43
0.00000001
 12
1.0
 22
0.0
 32
0.0
 13
1.0
 23
0.0
 33
0.0
 40
0.0
 40
0.0
 40
0.0
 40
0.0
 40
0.2646077154460737
 40
0.5291389072893661
 40
0.7995894186757211
 40
1.0
 40
1.0
 40
1.0
 40
1.0
 10
782.2578099456806
 20
1037.459626914109
 30
0.0
 10
782.1352155754524
 20
1037.459626914109
 30
0.0
 10
781.8900622888483
 20
1037.459626914109
 30
0.0
 10
781.6301364994774
 20
1037.459626914109
 30
0.0
 10
781.4737103666298
 20
1037.459626914109
 30
0.0
 10
781.4687144704213
 20
1037.459626914109
 30
0.0
 10
781.4665880886097
 20
1037.459626914109
 30
0.0
  0
SPLINE
  5
1E2
330
1F
100
AcDbEntity
  8
0
  6
Continuous
 62
     7
370
    15
100
AcDbSpline
210
0.0
220
0.0
230
1.0
 70
     8
 71
     3
 72
    16
 73
    12
 74
     0
 42
0.00000001
 43
0.00000001
 12
1.0
 22
0.0
 32
0.0
 13
1.0
 23
0.0
 33
0.0
 40
0.0
 40
0.0
 40
0.0
 40
0.0
 40
0.2499999999999919
 40
0.2499999999999919
 40
0.4999999999999838
 40
0.4999999999999838
 40
0.6249999999999865
 40
0.6249999999999865
 40
0.7499999999999892
 40
0.7499999999999892
 40
1.0
 40
1.0
 40
1.0
 40
1.0
 10
782.2578043229187
 20
1028.459616517157
 30
0.0
 10
782.0128825821832
 20
1029.194381739364
 30
0.0
 10
781.8110227155629
 20
1029.934504029138
 30
0.0
 10
781.5313814148033
 20
1031.430184456758
 30
0.0
 10
781.4545224019612
 20
1032.185857347464
 30
0.0
 10
781.4536786561363
 20
1033.33360406628
 30
0.0
 10
781.4724679174217
 20
1033.717986406083
 30
0.0
 10
781.5457358044071
 20
1034.478335228394
 30
0.0
 10
781.6001400778008
 20
1034.855960471152
 30
0.0
 10
781.8102198480656
 20
1035.982113097004
 30
0.0
 10
782.0125796755626
 20
1036.723943574586
 30
0.0
 10
782.2578070401413
 20
1037.459624668818
 30
0.0
  0
LINE
  5
1E3
330
1F
100
AcDbEntity
  8
0
  6
Continuous
 62
     7
370
    15
100
AcDbLine
 10
781.0209390608
 20
1024.3346245299
 30
0.0
 11
781.0209390608
 21
1036.7096216689
 31
0.0
  0
LINE
  5
1E4
330
1F
100
AcDbEntity
  8
0
  6
Continuous
 62
     7
370
    15
100
AcDbLine
 10
781.0209390608
 20
1020.2096254836
 30
0.0
 11
781.0209390608
 21
1024.3346245299
 31
0.0
  0
LINE
  5
1E5
330
1F
100
AcDbEntity
  8
0
  6
Continuous
 62
     7
370
    15
100
AcDbLine
 10
782.2578099457
 20
1028.4596235762
 30
0.0
 11
790.1840803114
 21
1028.4596235762
 31
0.0
  0
SPLINE
  5
1E6
330
1F
100
AcDbEntity
  8
0
  6
Continuous
 62
     7
370
    15
100
AcDbSpline
210
0.0
220
0.0
230
1.0
 70
     8
 71
     3
 72
    16
 73
    12
 74
     0
 42
0.00000001
 43
0.00000001
 12
1.0
 22
0.0
 32
0.0
 13
1.0
 23
0.0
 33
0.0
 40
0.0
 40
0.0
 40
0.0
 40
0.0
 40
0.25
 40
0.25
 40
0.5
 40
0.5
 40
0.625
 40
0.625
 40
0.75
 40
0.75
 40
1.0
 40
1.0
 40
1.0
 40
1.0
 10
790.1840837645481
 20
1019.459616517157
 30
0.0
 10
790.4280590610784
 20
1020.191542406748
 30
0.0
 10
790.6327530165695
 20
1020.941371360691
 30
0.0
 10
790.9126067888951
 20
1022.44469216421
 30
0.0
 10
790.988015363186
 20
1023.200420690149
 30
0.0
 10
790.9878892239534
 20
1024.341153627385
 30
0.0
 10
790.9691977577598
 20
1024.722573856421
 30
0.0
 10
790.8950229007028
 20
1025.487734184839
 30
0.0
 10
790.839846652382
 20
1025.868011983197
 30
0.0
 10
790.6285096123065
 20
1026.995233354326
 30
0.0
 10
790.4265465479369
 20
1027.732228166991
 30
0.0
 10
790.184083764548
 20
1028.459616517157
 30
0.0
  0
LINE
  5
1E7
330
1F
100
AcDbEntity
  8
0
  6
Continuous
 62
     7
370
    15
100
AcDbLine
 10
782.2578099457
 20
1019.4596202384
 30
0.0
 11
790.1840803114
 21
1019.4596202384
 31
0.0
  0
SPLINE
  5
1E8
330
1F
100
AcDbEntity
  8
0
  6
Continuous
 62
     7
370
    15
100
AcDbSpline
210
0.0
220
0.0
230
1.0
 70
    24
 71
     3
 72
    12
 73
     8
 74
     0
 42
0.00000001
 43
0.00000001
 12
1.0
 22
0.0
 32
0.0
 13
1.0
 23
0.0
 33
0.0
 40
0.0
 40
0.0
 40
0.0
 40
0.0
 40
0.0699904009232902
 40
0.3003768533362772
 40
0.5307966896225201
 40
0.7653755709563864
 40
1.0
 40
1.0
 40
1.0
 40
1.0
 10
790.9753021684666
 20
1037.459626914109
 30
0.0
 10
790.9791536586443
 20
1037.459626914109
 30
0.0
 10
790.995683046746
 20
1037.459626914109
 30
0.0
 10
790.9175105539907
 20
1037.459626914109
 30
0.0
 10
790.7575239629174
 20
1037.459626914109
 30
0.0
 10
790.5112496851732
 20
1037.459626914109
 30
0.0
 10
790.2931438268323
 20
1037.459626914109
 30
0.0
 10
790.1840803113956
 20
1037.459626914109
 30
0.0
  0
SPLINE
  5
1E9
330
1F
100
AcDbEntity
  8
0
  6
Continuous
 62
     7
370
    15
100
AcDbSpline
210
0.0
220
0.0
230
1.0
 70
    24
 71
     3
 72
    11
 73
     7
 74
     0
 42
0.00000001
 43
0.00000001
 12
1.0
 22
0.0
 32
0.0
 13
1.0
 23
0.0
 33
0.0
 40
0.0
 40
0.0
 40
0.0
 40
0.0
 40
0.2646077154460737
 40
0.5291389072893661
 40
0.7995894186757211
 40
1.0
 40
1.0
 40
1.0
 40
1.0
 10
790.1840803113956
 20
1019.459620238389
 30
0.0
 10
790.3066746816238
 20
1019.459620238389
 30
0.0
 10
790.5518279682278
 20
1019.459620238389
 30
0.0
 10
790.811753757599
 20
1019.459620238389
 30
0.0
 10
790.9681798904465
 20
1019.459620238389
 30
0.0
 10
790.9731757866549
 20
1019.459620238389
 30
0.0
 10
790.9753021684666
 20
1019.459620238389
 30
0.0
  0
SPLINE
  5
1EA
330
1F
100
AcDbEntity
  8
0
  6
Continuous
 62
     7
370
    15
100
AcDbSpline
210
0.0
220
0.0
230
1.0
 70
     8
 71
     3
 72
    16
 73
    12
 74
     0
 42
0.00000001
 43
0.00000001
 12
1.0
 22
0.0
 32
0.0
 13
1.0
 23
0.0
 33
0.0
 40
0.0
 40
0.0
 40
0.0
 40
0.0
 40
0.2500000000000007
 40
0.2500000000000007
 40
0.5000000000000013
 40
0.5000000000000013
 40
0.6250000000000017
 40
0.6250000000000017
 40
0.750000000000002
 40
0.750000000000002
 40
1.0
 40
1.0
 40
1.0
 40
1.0
 10
790.184081151426
 20
1037.459624356519
 30
0.0
 10
790.4290031910316
 20
1036.724859197717
 30
0.0
 10
790.6308634251952
 20
1035.984736979889
 30
0.0
 10
790.9105056070689
 20
1034.48905671433
 30
0.0
 10
790.9873651348693
 20
1033.733383913911
 30
0.0
 10
790.9882096974693
 20
1032.585637336039
 30
0.0
 10
790.9694207111706
 20
1032.201254959975
 30
0.0
 10
790.8961533430114
 20
1031.440906089655
 30
0.0
 10
790.8417493166588
 20
1031.063280824666
 30
0.0
 10
790.6316702377621
 20
1029.937128139261
 30
0.0
 10
790.4293108027597
 20
1029.195297631792
 30
0.0
 10
790.1840837645482
 20
1028.459616517157
 30
0.0
  0
LINE
  5
1EB
330
1F
100
AcDbEntity
  8
0
  6
Continuous
 62
     7
370
    15
100
AcDbLine
 10
782.2578099457
 20
263.2329018126
 30
0.0
 11
790.1840803114
 21
263.2329018126
 31
0.0
  0
SPLINE
  5
1EC
330
1F
100
AcDbEntity
  8
0
  6
Continuous
 62
     7
370
    15
100
AcDbSpline
210
0.0
220
0.0
230
1.0
 70
     8
 71
     3
 72
    16
 73
    12
 74
     0
 42
0.00000001
 43
0.00000001
 12
1.0
 22
0.0
 32
0.0
 13
1.0
 23
0.0
 33
0.0
 40
0.0
 40
0.0
 40
0.0
 40
0.0
 40
0.2500000000000059
 40
0.2500000000000059
 40
0.5000000000000118
 40
0.5000000000000118
 40
0.6250000000000078
 40
0.6250000000000078
 40
0.7500000000000039
 40
0.7500000000000039
 40
1.0
 40
1.0
 40
1.0
 40
1.0
 10
790.1840837645482
 20
263.2329055338678
 30
0.0
 10
790.4280590610786
 20
262.5009796442765
 30
0.0
 10
790.6327530165695
 20
261.7511506903336
 30
0.0
 10
790.9126067888951
 20
260.2478298868149
 30
0.0
 10
790.988015363186
 20
259.4921013608762
 30
0.0
 10
790.9878892239535
 20
258.3513684236405
 30
0.0
 10
790.9691977577597
 20
257.9699481946034
 30
0.0
 10
790.8950229007028
 20
257.2047878661858
 30
0.0
 10
790.839846652382
 20
256.8245100678286
 30
0.0
 10
790.6285096123065
 20
255.6972886966996
 30
0.0
 10
790.4265465479369
 20
254.9602938840346
 30
0.0
 10
790.1840837645481
 20
254.2329055338678
 30
0.0
  0
LINE
  5
1ED
330
1F
100
AcDbEntity
  8
0
  6
Continuous
 62
     7
370
    15
100
AcDbLine
 10
782.2578099457
 20
254.2328984748
 30
0.0
 11
790.1840803114
 21
254.2328984748
 31
0.0
  0
SPLINE
  5
1EE
330
1F
100
AcDbEntity
  8
0
  6
Continuous
 62
     7
370
    15
100
AcDbSpline
210
0.0
220
0.0
230
1.0
 70
     8
 71
     3
 72
    16
 73
    12
 74
     0
 42
0.00000001
 43
0.00000001
 12
1.0
 22
0.0
 32
0.0
 13
1.0
 23
0.0
 33
0.0
 40
0.0
 40
0.0
 40
0.0
 40
0.0
 40
0.2499999999999922
 40
0.2499999999999922
 40
0.4999999999999843
 40
0.4999999999999843
 40
0.6249999999999873
 40
0.6249999999999873
 40
0.7499999999999902
 40
0.7499999999999902
 40
1.0
 40
1.0
 40
1.0
 40
1.0
 10
782.2578043229191
 20
263.2329055338679
 30
0.0
 10
782.0138290263887
 20
262.5009796442766
 30
0.0
 10
781.8091350708978
 20
261.7511506903338
 30
0.0
 10
781.5292812985722
 20
260.2478298868149
 30
0.0
 10
781.4538727242812
 20
259.4921013608763
 30
0.0
 10
781.4539988635138
 20
258.3513684236405
 30
0.0
 10
781.4726903297073
 20
257.9699481946035
 30
0.0
 10
781.5468651867645
 20
257.2047878661858
 30
0.0
 10
781.6020414350852
 20
256.8245100678284
 30
0.0
 10
781.8133784751608
 20
255.6972886966994
 30
0.0
 10
782.0153415395303
 20
254.9602938840345
 30
0.0
 10
782.2578043229191
 20
254.2329055338678
 30
0.0
  0
SPLINE
  5
1EF
330
1F
100
AcDbEntity
  8
0
  6
Continuous
 62
     7
370
    15
100
AcDbSpline
210
0.0
220
0.0
230
1.0
 70
     8
 71
     3
 72
    16
 73
    12
 74
     0
 42
0.00000001
 43
0.00000001
 12
1.0
 22
0.0
 32
0.0
 13
1.0
 23
0.0
 33
0.0
 40
0.0
 40
0.0
 40
0.0
 40
0.0
 40
0.2499999999999947
 40
0.2499999999999947
 40
0.4999999999999893
 40
0.4999999999999893
 40
0.6249999999999887
 40
0.6249999999999887
 40
0.749999999999988
 40
0.749999999999988
 40
1.0
 40
1.0
 40
1.0
 40
1.0
 10
790.1840837645484
 20
254.2329055338679
 30
0.0
 10
790.4290054970435
 20
253.4981403363832
 30
0.0
 10
790.6308653583225
 20
252.7580180716913
 30
0.0
 10
790.9105066580196
 20
251.2623376954333
 30
0.0
 10
790.987365675303
 20
250.5066648310272
 30
0.0
 10
790.9882094362622
 20
249.3589181527134
 30
0.0
 10
790.9694201813394
 20
248.9745358248755
 30
0.0
 10
790.8961523087437
 20
248.2141870264367
 30
0.0
 10
790.8417480434294
 20
247.8365617954873
 30
0.0
 10
790.6316682991055
 20
246.7104092048185
 30
0.0
 10
790.4293084910784
 20
245.9685787503803
 30
0.0
 10
790.1840811463366
 20
245.232897679238
 30
0.0
  0
SPLINE
  5
1F0
330
1F
100
AcDbEntity
  8
0
  6
Continuous
 62
     7
370
    15
100
AcDbSpline
210
0.0
220
0.0
230
1.0
 70
    24
 71
     3
 72
    12
 73
     8
 74
     0
 42
0.00000001
 43
0.00000001
 12
1.0
 22
0.0
 32
0.0
 13
1.0
 23
0.0
 33
0.0
 40
0.0
 40
0.0
 40
0.0
 40
0.0
 40
0.0699904009232902
 40
0.3003768533362772
 40
0.5307966896225201
 40
0.7653755709563864
 40
1.0
 40
1.0
 40
1.0
 40
1.0
 10
790.9753021684666
 20
263.2329018126379
 30
0.0
 10
790.9791536586443
 20
263.2329018126379
 30
0.0
 10
790.995683046746
 20
263.2329018126379
 30
0.0
 10
790.9175105539907
 20
263.232901812638
 30
0.0
 10
790.7575239629174
 20
263.2329018126377
 30
0.0
 10
790.5112496851732
 20
263.2329018126379
 30
0.0
 10
790.2931438268323
 20
263.2329018126379
 30
0.0
 10
790.1840803113956
 20
263.2329018126379
 30
0.0
  0
SPLINE
  5
1F1
330
1F
100
AcDbEntity
  8
0
  6
Continuous
 62
     7
370
    15
100
AcDbSpline
210
0.0
220
0.0
230
1.0
 70
    24
 71
     3
 72
    11
 73
     7
 74
     0
 42
0.00000001
 43
0.00000001
 12
1.0
 22
0.0
 32
0.0
 13
1.0
 23
0.0
 33
0.0
 40
0.0
 40
0.0
 40
0.0
 40
0.0
 40
0.2646077154460737
 40
0.5291389072893661
 40
0.7995894186757211
 40
1.0
 40
1.0
 40
1.0
 40
1.0
 10
790.1840803113956
 20
245.2328951369177
 30
0.0
 10
790.3066746816238
 20
245.2328951369176
 30
0.0
 10
790.5518279682278
 20
245.2328951369176
 30
0.0
 10
790.811753757599
 20
245.2328951369179
 30
0.0
 10
790.9681798904465
 20
245.2328951369177
 30
0.0
 10
790.9731757866549
 20
245.2328951369177
 30
0.0
 10
790.9753021684666
 20
245.2328951369177
 30
0.0
  0
SPLINE
  5
1F2
330
1F
100
AcDbEntity
  8
0
  6
Continuous
 62
     7
370
    15
100
AcDbSpline
210
0.0
220
0.0
230
1.0
 70
    24
 71
     3
 72
    11
 73
     7
 74
     0
 42
0.00000001
 43
0.00000001
 12
1.0
 22
0.0
 32
0.0
 13
1.0
 23
0.0
 33
0.0
 40
0.0
 40
0.0
 40
0.0
 40
0.0
 40
0.2646077154460737
 40
0.5291389072893661
 40
0.7995894186757211
 40
1.0
 40
1.0
 40
1.0
 40
1.0
 10
782.2578099456806
 20
263.2329018126379
 30
0.0
 10
782.1352155754524
 20
263.2329018126379
 30
0.0
 10
781.8900622888483
 20
263.2329018126378
 30
0.0
 10
781.6301364994774
 20
263.2329018126381
 30
0.0
 10
781.4737103666298
 20
263.2329018126379
 30
0.0
 10
781.4687144704213
 20
263.2329018126379
 30
0.0
 10
781.4665880886097
 20
263.2329018126379
 30
0.0
  0
SPLINE
  5
1F3
330
1F
100
AcDbEntity
  8
0
  6
Continuous
 62
     7
370
    15
100
AcDbSpline
210
0.0
220
0.0
230
1.0
 70
     8
 71
     3
 72
    16
 73
    12
 74
     0
 42
0.00000001
 43
0.00000001
 12
1.0
 22
0.0
 32
0.0
 13
1.0
 23
0.0
 33
0.0
 40
0.0
 40
0.0
 40
0.0
 40
0.0
 40
0.2499999999999937
 40
0.2499999999999937
 40
0.4999999999999873
 40
0.4999999999999873
 40
0.6249999999999861
 40
0.6249999999999861
 40
0.749999999999985
 40
0.749999999999985
 40
1.0
 40
1.0
 40
1.0
 40
1.0
 10
782.2578070224276
 20
245.2328974353468
 30
0.0
 10
782.0128849654656
 20
245.9676626144824
 30
0.0
 10
781.8110247143055
 20
246.7077848526872
 30
0.0
 10
781.5313825023393
 20
248.203465159487
 30
0.0
 10
781.4545229615444
 20
248.9591379807818
 30
0.0
 10
781.4536783856736
 20
250.1068845907412
 30
0.0
 10
781.4724673686542
 20
250.4912669788589
 30
0.0
 10
781.5457347327166
 20
251.2516158724247
 30
0.0
 10
781.6001387582324
 20
251.6292411488621
 30
0.0
 10
781.8102178378083
 20
252.755393868156
 30
0.0
 10
782.0125772774996
 20
253.4972243976098
 30
0.0
 10
782.257804322919
 20
254.2329055338679
 30
0.0
  0
SPLINE
  5
1F4
330
1F
100
AcDbEntity
  8
0
  6
Continuous
 62
     7
370
    15
100
AcDbSpline
210
0.0
220
0.0
230
1.0
 70
    24
 71
     3
 72
    12
 73
     8
 74
     0
 42
0.00000001
 43
0.00000001
 12
1.0
 22
0.0
 32
0.0
 13
1.0
 23
0.0
 33
0.0
 40
0.0
 40
0.0
 40
0.0
 40
0.0
 40
0.0699904009232902
 40
0.3003768533362772
 40
0.5307966896225201
 40
0.7653755709563864
 40
1.0
 40
1.0
 40
1.0
 40
1.0
 10
781.4665880886097
 20
245.2328951369177
 30
0.0
 10
781.4627365984319
 20
245.2328951369177
 30
0.0
 10
781.4462072103303
 20
245.2328951369177
 30
0.0
 10
781.5243797030855
 20
245.2328951369177
 30
0.0
 10
781.6843662941588
 20
245.2328951369176
 30
0.0
 10
781.930640571903
 20
245.2328951369176
 30
0.0
 10
782.1487464302439
 20
245.2328951369177
 30
0.0
 10
782.2578099456806
 20
245.2328951369176
 30
0.0
  0
LINE
  5
1F5
330
1F
100
AcDbEntity
  8
0
  6
Continuous
 62
     7
370
    15
100
AcDbLine
 10
781.0209390608
 20
245.9829003821
 30
0.0
 11
781.0209390608
 21
262.4828965674
 31
0.0
  0
LINE
  5
1F6
330
1F
100
AcDbEntity
  8
0
  6
Continuous
 62
     7
370
    15
100
AcDbLine
 10
782.2578099457
 20
1037.4596269141
 30
0.0
 11
790.1840803114
 21
1037.4596269141
 31
0.0
  0
LINE
  5
1F7
330
1F
100
AcDbEntity
  8
0
  6
Continuous
 62
     7
370
    15
100
AcDbLine
 10
782.2578099457
 20
245.2328951369
 30
0.0
 11
790.1840803114
 21
245.2328951369
 31
0.0
  0
LINE
  5
1F8
330
1F
100
AcDbEntity
  8
0
  6
Continuous
 62
     7
370
    15
100
AcDbLine
 10
745.9209409443
 20
1033.6557776938
 30
0.0
 11
745.9209409443
 21
1034.4596059333
 31
0.0
  0
LINE
  5
1F9
330
1F
100
AcDbEntity
  8
0
  6
Continuous
 62
     7
370
    15
100
AcDbLine
 10
745.9209409443
 20
1022.4596114169
 30
0.0
 11
745.9209409443
 21
1033.6557776938
 31
0.0
  0
LINE
  5
1FA
330
1F
100
AcDbEntity
  8
0
  6
Continuous
 62
     7
370
    15
100
AcDbLine
 10
745.9209409443
 20
249.0367443572
 30
0.0
 11
745.9209409443
 21
260.2329106341
 31
0.0
  0
LINE
  5
1FB
330
1F
100
AcDbEntity
  8
0
  6
Continuous
 62
     7
370
    15
100
AcDbLine
 10
745.9209409443
 20
248.2329161178
 30
0.0
 11
745.9209409443
 21
249.0367443572
 31
0.0
  0
LINE
  5
1FC
330
1F
100
AcDbEntity
  8
0
  6
Continuous
 62
     7
370
    15
100
AcDbLine
 10
791.4209511963
 20
1076.3462634097
 30
0.0
 11
791.4209511963
 21
1100.3462524424
 31
0.0
  0
LINE
  5
1FD
330
1F
100
AcDbEntity
  8
0
  6
Continuous
 62
     7
370
    15
100
AcDbLine
 10
791.4209511963
 20
182.3462696086
 30
0.0
 11
791.4209511963
 21
206.3462586413
 31
0.0
  0
SPLINE
  5
1FE
330
1F
100
AcDbEntity
  8
0
  6
Continuous
 62
     7
370
    15
100
AcDbSpline
210
0.0
220
0.0
230
1.0
 70
     8
 71
     3
 72
    16
 73
    12
 74
     0
 42
0.00000001
 43
0.00000001
 12
1.0
 22
0.0
 32
0.0
 13
1.0
 23
0.0
 33
0.0
 40
0.0
 40
0.0
 40
0.0
 40
0.0
 40
0.25
 40
0.25
 40
0.5
 40
0.5
 40
0.625
 40
0.625
 40
0.75
 40
0.75
 40
1.0
 40
1.0
 40
1.0
 40
1.0
 10
782.2578043229191
 20
1083.150108602807
 30
0.0
 10
782.0138290263887
 20
1083.995263821572
 30
0.0
 10
781.8091350708978
 20
1084.861091718382
 30
0.0
 10
781.5292812985722
 20
1086.596977059562
 30
0.0
 10
781.4538727242812
 20
1087.469617195331
 30
0.0
 10
781.4539988635138
 20
1088.786822132105
 30
0.0
 10
781.4726903297073
 20
1089.227248275922
 30
0.0
 10
781.5468651867644
 20
1090.110779319092
 30
0.0
 10
781.6020414350852
 20
1090.54988629759
 30
0.0
 10
781.8133784751607
 20
1091.851489421705
 30
0.0
 10
782.0153415395301
 20
1092.702497728671
 30
0.0
 10
782.2578043229191
 20
1093.54241344822
 30
0.0
  0
SPLINE
  5
1FF
330
1F
100
AcDbEntity
  8
0
  6
Continuous
 62
     7
370
    15
100
AcDbSpline
210
0.0
220
0.0
230
1.0
 70
     8
 71
     3
 72
    16
 73
    12
 74
     0
 42
0.00000001
 43
0.00000001
 12
1.0
 22
0.0
 32
0.0
 13
1.0
 23
0.0
 33
0.0
 40
0.0
 40
0.0
 40
0.0
 40
0.0
 40
0.249999999999998
 40
0.249999999999998
 40
0.499999999999996
 40
0.499999999999996
 40
0.6249999999999951
 40
0.6249999999999951
 40
0.7499999999999942
 40
0.7499999999999942
 40
1.0
 40
1.0
 40
1.0
 40
1.0
 10
782.2578043229188
 20
1077.9539561801
 30
0.0
 10
782.0128828083365
 20
1078.378172687223
 30
0.0
 10
781.8110230882999
 20
1078.805482093034
 30
0.0
 10
781.531381816703
 20
1079.669012776733
 30
0.0
 10
781.4545226819745
 20
1080.105300306894
 30
0.0
 10
781.4536785208053
 20
1080.767951542205
 30
0.0
 10
781.4724676074753
 20
1080.989874599986
 30
0.0
 10
781.5457350995563
 20
1081.428861818981
 30
0.0
 10
781.6001391512195
 20
1081.646883667429
 30
0.0
 10
781.8102182095716
 20
1082.297067631649
 30
0.0
 10
782.0125775027388
 20
1082.725363290876
 30
0.0
 10
782.2578043229189
 20
1083.150108602807
 30
0.0
  0
SPLINE
  5
200
330
1F
100
AcDbEntity
  8
0
  6
Continuous
 62
     7
370
    15
100
AcDbSpline
210
0.0
220
0.0
230
1.0
 70
     8
 71
     3
 72
    16
 73
    12
 74
     0
 42
0.00000001
 43
0.00000001
 12
1.0
 22
0.0
 32
0.0
 13
1.0
 23
0.0
 33
0.0
 40
0.0
 40
0.0
 40
0.0
 40
0.0
 40
0.2499999999999979
 40
0.2499999999999979
 40
0.4999999999999959
 40
0.4999999999999959
 40
0.624999999999995
 40
0.624999999999995
 40
0.749999999999994
 40
0.749999999999994
 40
1.0
 40
1.0
 40
1.0
 40
1.0
 10
782.2578043229188
 20
1093.54241344822
 30
0.0
 10
782.0128828083364
 20
1093.966629955343
 30
0.0
 10
781.8110230882999
 20
1094.393939361154
 30
0.0
 10
781.531381816703
 20
1095.257470044852
 30
0.0
 10
781.4545226819745
 20
1095.693757575014
 30
0.0
 10
781.4536785208053
 20
1096.356408810325
 30
0.0
 10
781.4724676074754
 20
1096.578331868106
 30
0.0
 10
781.5457350995563
 20
1097.017319087101
 30
0.0
 10
781.6001391512197
 20
1097.235340935549
 30
0.0
 10
781.8102182095716
 20
1097.885524899769
 30
0.0
 10
782.0125775027388
 20
1098.313820558996
 30
0.0
 10
782.257804322919
 20
1098.738565870927
 30
0.0
  0
LINE
  5
201
330
1F
100
AcDbEntity
  8
0
  6
Continuous
 62
     7
370
    15
100
AcDbLine
 10
781.0209390608
 20
1088.3462579261
 30
0.0
 11
781.0209390608
 21
1096.5962560187
 31
0.0
  0
LINE
  5
202
330
1F
100
AcDbEntity
  8
0
  6
Continuous
 62
     7
370
    15
100
AcDbLine
 10
781.0209390608
 20
1080.0962598334
 30
0.0
 11
781.0209390608
 21
1088.3462579261
 31
0.0
  0
LINE
  5
203
330
1F
100
AcDbEntity
  8
0
  6
Continuous
 62
     7
370
    15
100
AcDbLine
 10
782.2578099457
 20
1093.5424120437
 30
0.0
 11
790.1840803114
 21
1093.5424120437
 31
0.0
  0
SPLINE
  5
204
330
1F
100
AcDbEntity
  8
0
  6
Continuous
 62
     7
370
    15
100
AcDbSpline
210
0.0
220
0.0
230
1.0
 70
     8
 71
     3
 72
    16
 73
    12
 74
     0
 42
0.00000001
 43
0.00000001
 12
1.0
 22
0.0
 32
0.0
 13
1.0
 23
0.0
 33
0.0
 40
0.0
 40
0.0
 40
0.0
 40
0.0
 40
0.25
 40
0.25
 40
0.5
 40
0.5
 40
0.625
 40
0.625
 40
0.75
 40
0.75
 40
1.0
 40
1.0
 40
1.0
 40
1.0
 10
790.1840837645481
 20
1083.150108602807
 30
0.0
 10
790.4280590610784
 20
1083.995263821572
 30
0.0
 10
790.6327530165694
 20
1084.861091718382
 30
0.0
 10
790.9126067888951
 20
1086.596977059562
 30
0.0
 10
790.988015363186
 20
1087.469617195331
 30
0.0
 10
790.9878892239534
 20
1088.786822132105
 30
0.0
 10
790.9691977577597
 20
1089.227248275922
 30
0.0
 10
790.8950229007028
 20
1090.110779319092
 30
0.0
 10
790.839846652382
 20
1090.54988629759
 30
0.0
 10
790.6285096123065
 20
1091.851489421705
 30
0.0
 10
790.4265465479369
 20
1092.702497728672
 30
0.0
 10
790.184083764548
 20
1093.54241344822
 30
0.0
  0
LINE
  5
205
330
1F
100
AcDbEntity
  8
0
  6
Continuous
 62
     7
370
    15
100
AcDbLine
 10
782.2578099457
 20
1083.1501038085
 30
0.0
 11
790.1840803114
 21
1083.1501038085
 31
0.0
  0
SPLINE
  5
206
330
1F
100
AcDbEntity
  8
0
  6
Continuous
 62
     7
370
    15
100
AcDbSpline
210
0.0
220
0.0
230
1.0
 70
     8
 71
     3
 72
    16
 73
    12
 74
     0
 42
0.00000001
 43
0.00000001
 12
1.0
 22
0.0
 32
0.0
 13
1.0
 23
0.0
 33
0.0
 40
0.0
 40
0.0
 40
0.0
 40
0.0
 40
0.2500000000000019
 40
0.2500000000000019
 40
0.5000000000000039
 40
0.5000000000000039
 40
0.6250000000000049
 40
0.6250000000000049
 40
0.7500000000000058
 40
0.7500000000000058
 40
1.0
 40
1.0
 40
1.0
 40
1.0
 10
790.1840837645484
 20
1083.150108602807
 30
0.0
 10
790.4290052791308
 20
1082.725892095684
 30
0.0
 10
790.6308649991673
 20
1082.298582689873
 30
0.0
 10
790.9105062707645
 20
1081.435052006174
 30
0.0
 10
790.9873654054926
 20
1080.998764476013
 30
0.0
 10
790.9882095666618
 20
1080.336113240702
 30
0.0
 10
790.9694204799919
 20
1080.114190182921
 30
0.0
 10
790.8961529879109
 20
1079.675202963926
 30
0.0
 10
790.8417489362475
 20
1079.457181115478
 30
0.0
 10
790.6316698778955
 20
1078.806997151258
 30
0.0
 10
790.4293105847282
 20
1078.37870149203
 30
0.0
 10
790.1840837645482
 20
1077.9539561801
 30
0.0
  0
LINE
  5
207
330
1F
100
AcDbEntity
  8
0
  6
Continuous
 62
     7
370
    15
100
AcDbLine
 10
782.2578099457
 20
1077.9539496909
 30
0.0
 11
790.1840803114
 21
1077.9539496909
 31
0.0
  0
LINE
  5
208
330
1F
100
AcDbEntity
  8
0
  6
Continuous
 62
     7
370
    15
100
AcDbLine
 10
782.2578099457
 20
1098.7385661612
 30
0.0
 11
790.1840803114
 21
1098.7385661612
 31
0.0
  0
SPLINE
  5
209
330
1F
100
AcDbEntity
  8
0
  6
Continuous
 62
     7
370
    15
100
AcDbSpline
210
0.0
220
0.0
230
1.0
 70
     8
 71
     3
 72
    16
 73
    12
 74
     0
 42
0.00000001
 43
0.00000001
 12
1.0
 22
0.0
 32
0.0
 13
1.0
 23
0.0
 33
0.0
 40
0.0
 40
0.0
 40
0.0
 40
0.0
 40
0.249999999999998
 40
0.249999999999998
 40
0.499999999999996
 40
0.499999999999996
 40
0.624999999999995
 40
0.624999999999995
 40
0.749999999999994
 40
0.749999999999994
 40
1.0
 40
1.0
 40
1.0
 40
1.0
 10
790.1840837645484
 20
1098.738565870927
 30
0.0
 10
790.4290052791308
 20
1098.314349363803
 30
0.0
 10
790.6308649991673
 20
1097.887039957993
 30
0.0
 10
790.9105062707645
 20
1097.023509274294
 30
0.0
 10
790.9873654054927
 20
1096.587221744133
 30
0.0
 10
790.9882095666618
 20
1095.924570508822
 30
0.0
 10
790.9694204799918
 20
1095.702647451041
 30
0.0
 10
790.8961529879109
 20
1095.263660232046
 30
0.0
 10
790.8417489362475
 20
1095.045638383598
 30
0.0
 10
790.6316698778954
 20
1094.395454419378
 30
0.0
 10
790.4293105847282
 20
1093.96715876015
 30
0.0
 10
790.1840837645482
 20
1093.54241344822
 30
0.0
  0
SPLINE
  5
20A
330
1F
100
AcDbEntity
  8
0
  6
Continuous
 62
     7
370
    15
100
AcDbSpline
210
0.0
220
0.0
230
1.0
 70
     8
 71
     3
 72
    16
 73
    12
 74
     0
 42
0.00000001
 43
0.00000001
 12
1.0
 22
0.0
 32
0.0
 13
1.0
 23
0.0
 33
0.0
 40
0.0
 40
0.0
 40
0.0
 40
0.0
 40
0.2499999999999981
 40
0.2499999999999981
 40
0.4999999999999961
 40
0.4999999999999961
 40
0.6249999999999951
 40
0.6249999999999951
 40
0.7499999999999942
 40
0.7499999999999942
 40
1.0
 40
1.0
 40
1.0
 40
1.0
 10
782.2578043229188
 20
199.5424134482197
 30
0.0
 10
782.0128828083364
 20
199.966629955343
 30
0.0
 10
781.8110230882999
 20
200.3939393611539
 30
0.0
 10
781.5313818167028
 20
201.2574700448522
 30
0.0
 10
781.4545226819745
 20
201.6937575750139
 30
0.0
 10
781.4536785208053
 20
202.3564088103244
 30
0.0
 10
781.4724676074753
 20
202.5783318681052
 30
0.0
 10
781.5457350995562
 20
203.0173190871002
 30
0.0
 10
781.6001391512197
 20
203.2353409355485
 30
0.0
 10
781.8102182095716
 20
203.8855248997683
 30
0.0
 10
782.0125775027388
 20
204.313820558996
 30
0.0
 10
782.2578043229189
 20
204.7385658709265
 30
0.0
  0
SPLINE
  5
20B
330
1F
100
AcDbEntity
  8
0
  6
Continuous
 62
     7
370
    15
100
AcDbSpline
210
0.0
220
0.0
230
1.0
 70
     8
 71
     3
 72
    16
 73
    12
 74
     0
 42
0.00000001
 43
0.00000001
 12
1.0
 22
0.0
 32
0.0
 13
1.0
 23
0.0
 33
0.0
 40
0.0
 40
0.0
 40
0.0
 40
0.0
 40
0.25
 40
0.25
 40
0.5
 40
0.5
 40
0.625
 40
0.625
 40
0.75
 40
0.75
 40
1.0
 40
1.0
 40
1.0
 40
1.0
 10
782.2578043229191
 20
199.5424134482198
 30
0.0
 10
782.0138290263887
 20
198.6972582294551
 30
0.0
 10
781.8091350708977
 20
197.8314303326447
 30
0.0
 10
781.5292812985722
 20
196.0955449914649
 30
0.0
 10
781.4538727242812
 20
195.2229048556952
 30
0.0
 10
781.4539988635138
 20
193.905699918922
 30
0.0
 10
781.4726903297073
 20
193.4652737751043
 30
0.0
 10
781.5468651867644
 20
192.5817427319341
 30
0.0
 10
781.6020414350852
 20
192.1426357534369
 30
0.0
 10
781.8133784751608
 20
190.8410326293218
 30
0.0
 10
782.0153415395303
 20
189.990024322355
 30
0.0
 10
782.2578043229191
 20
189.1501086028065
 30
0.0
  0
SPLINE
  5
20C
330
1F
100
AcDbEntity
  8
0
  6
Continuous
 62
     7
370
    15
100
AcDbSpline
210
0.0
220
0.0
230
1.0
 70
     8
 71
     3
 72
    16
 73
    12
 74
     0
 42
0.00000001
 43
0.00000001
 12
1.0
 22
0.0
 32
0.0
 13
1.0
 23
0.0
 33
0.0
 40
0.0
 40
0.0
 40
0.0
 40
0.0
 40
0.249999999999998
 40
0.249999999999998
 40
0.499999999999996
 40
0.499999999999996
 40
0.6249999999999951
 40
0.6249999999999951
 40
0.7499999999999942
 40
0.7499999999999942
 40
1.0
 40
1.0
 40
1.0
 40
1.0
 10
782.2578043229188
 20
183.9539561801
 30
0.0
 10
782.0128828083364
 20
184.3781726872234
 30
0.0
 10
781.8110230882999
 20
184.805482093034
 30
0.0
 10
781.531381816703
 20
185.6690127767324
 30
0.0
 10
781.4545226819745
 20
186.1053003068942
 30
0.0
 10
781.4536785208053
 20
186.7679515422047
 30
0.0
 10
781.4724676074753
 20
186.9898745999855
 30
0.0
 10
781.5457350995563
 20
187.4288618189806
 30
0.0
 10
781.6001391512195
 20
187.6468836674285
 30
0.0
 10
781.8102182095716
 20
188.2970676316484
 30
0.0
 10
782.012577502739
 20
188.7253632908761
 30
0.0
 10
782.257804322919
 20
189.1501086028066
 30
0.0
  0
LINE
  5
20D
330
1F
100
AcDbEntity
  8
0
  6
Continuous
 62
     7
370
    15
100
AcDbLine
 10
781.0209390608
 20
186.0962660323
 30
0.0
 11
781.0209390608
 21
202.5962622176
 31
0.0
  0
LINE
  5
20E
330
1F
100
AcDbEntity
  8
0
  6
Continuous
 62
     7
370
    15
100
AcDbLine
 10
782.2578099457
 20
199.5424182425
 30
0.0
 11
790.1840803114
 21
199.5424182425
 31
0.0
  0
SPLINE
  5
20F
330
1F
100
AcDbEntity
  8
0
  6
Continuous
 62
     7
370
    15
100
AcDbSpline
210
0.0
220
0.0
230
1.0
 70
     8
 71
     3
 72
    16
 73
    12
 74
     0
 42
0.00000001
 43
0.00000001
 12
1.0
 22
0.0
 32
0.0
 13
1.0
 23
0.0
 33
0.0
 40
0.0
 40
0.0
 40
0.0
 40
0.0
 40
0.25
 40
0.25
 40
0.5
 40
0.5
 40
0.625
 40
0.625
 40
0.75
 40
0.75
 40
1.0
 40
1.0
 40
1.0
 40
1.0
 10
790.1840837645482
 20
199.5424134482198
 30
0.0
 10
790.4280590610786
 20
198.697258229455
 30
0.0
 10
790.6327530165695
 20
197.8314303326448
 30
0.0
 10
790.9126067888951
 20
196.0955449914649
 30
0.0
 10
790.9880153631862
 20
195.2229048556952
 30
0.0
 10
790.9878892239534
 20
193.9056999189219
 30
0.0
 10
790.9691977577598
 20
193.4652737751044
 30
0.0
 10
790.8950229007028
 20
192.581742731934
 30
0.0
 10
790.839846652382
 20
192.142635753437
 30
0.0
 10
790.6285096123065
 20
190.8410326293218
 30
0.0
 10
790.4265465479369
 20
189.9900243223551
 30
0.0
 10
790.1840837645481
 20
189.1501086028066
 30
0.0
  0
LINE
  5
210
330
1F
100
AcDbEntity
  8
0
  6
Continuous
 62
     7
370
    15
100
AcDbLine
 10
782.2578099457
 20
189.1501100074
 30
0.0
 11
790.1840803114
 21
189.1501100074
 31
0.0
  0
LINE
  5
211
330
1F
100
AcDbEntity
  8
0
  6
Continuous
 62
     7
370
    15
100
AcDbLine
 10
782.2578099457
 20
204.7385723601
 30
0.0
 11
790.1840803114
 21
204.7385723601
 31
0.0
  0
SPLINE
  5
212
330
1F
100
AcDbEntity
  8
0
  6
Continuous
 62
     7
370
    15
100
AcDbSpline
210
0.0
220
0.0
230
1.0
 70
     8
 71
     3
 72
    16
 73
    12
 74
     0
 42
0.00000001
 43
0.00000001
 12
1.0
 22
0.0
 32
0.0
 13
1.0
 23
0.0
 33
0.0
 40
0.0
 40
0.0
 40
0.0
 40
0.0
 40
0.249999999999998
 40
0.249999999999998
 40
0.499999999999996
 40
0.499999999999996
 40
0.624999999999995
 40
0.624999999999995
 40
0.749999999999994
 40
0.749999999999994
 40
1.0
 40
1.0
 40
1.0
 40
1.0
 10
790.1840837645484
 20
204.7385658709265
 30
0.0
 10
790.4290052791308
 20
204.3143493638032
 30
0.0
 10
790.6308649991673
 20
203.8870399579924
 30
0.0
 10
790.9105062707645
 20
203.023509274294
 30
0.0
 10
790.9873654054927
 20
202.5872217441324
 30
0.0
 10
790.9882095666619
 20
201.9245705088219
 30
0.0
 10
790.9694204799919
 20
201.7026474510409
 30
0.0
 10
790.8961529879109
 20
201.2636602320459
 30
0.0
 10
790.8417489362477
 20
201.0456383835978
 30
0.0
 10
790.6316698778955
 20
200.3954544193778
 30
0.0
 10
790.4293105847282
 20
199.9671587601501
 30
0.0
 10
790.1840837645483
 20
199.5424134482198
 30
0.0
  0
SPLINE
  5
213
330
1F
100
AcDbEntity
  8
0
  6
Continuous
 62
     7
370
    15
100
AcDbSpline
210
0.0
220
0.0
230
1.0
 70
     8
 71
     3
 72
    16
 73
    12
 74
     0
 42
0.00000001
 43
0.00000001
 12
1.0
 22
0.0
 32
0.0
 13
1.0
 23
0.0
 33
0.0
 40
0.0
 40
0.0
 40
0.0
 40
0.0
 40
0.2500000000000021
 40
0.2500000000000021
 40
0.5000000000000041
 40
0.5000000000000041
 40
0.625000000000005
 40
0.625000000000005
 40
0.7500000000000059
 40
0.7500000000000059
 40
1.0
 40
1.0
 40
1.0
 40
1.0
 10
790.1840837645484
 20
189.1501086028066
 30
0.0
 10
790.4290052791308
 20
188.7258920956831
 30
0.0
 10
790.6308649991673
 20
188.2985826898724
 30
0.0
 10
790.9105062707645
 20
187.4350520061742
 30
0.0
 10
790.9873654054927
 20
186.9987644760126
 30
0.0
 10
790.9882095666619
 20
186.3361132407019
 30
0.0
 10
790.9694204799919
 20
186.1141901829211
 30
0.0
 10
790.8961529879109
 20
185.675202963926
 30
0.0
 10
790.8417489362477
 20
185.457181115478
 30
0.0
 10
790.6316698778955
 20
184.806997151258
 30
0.0
 10
790.4293105847283
 20
184.3787014920303
 30
0.0
 10
790.1840837645483
 20
183.9539561801
 30
0.0
  0
LINE
  5
214
330
1F
100
AcDbEntity
  8
0
  6
Continuous
 62
     7
370
    15
100
AcDbLine
 10
782.2578099457
 20
183.9539558898
 30
0.0
 11
790.1840803114
 21
183.9539558898
 31
0.0
  0
LINE
  5
215
330
1F
100
AcDbEntity
  8
0
  6
Continuous
 62
     7
370
    15
100
AcDbLine
 10
745.9209409443
 20
1082.346275569
 30
0.0
 11
745.9209409443
 21
1094.3462700854
 31
0.0
  0
LINE
  5
216
330
1F
100
AcDbEntity
  8
0
  6
Continuous
 62
     7
370
    15
100
AcDbLine
 10
745.9209409443
 20
188.3462519656
 30
0.0
 11
745.9209409443
 21
200.346246482
 31
0.0
  0
LINE
  5
217
330
1F
100
AcDbEntity
  8
0
  6
Continuous
 62
     7
370
     0
100
AcDbLine
 10
797.1719500509
 20
641.3462610255
 30
0.0
 11
797.1719500509
 21
1102.3462564956
 31
0.0
  0
LINE
  5
218
330
1F
100
AcDbEntity
  8
0
  6
Continuous
 62
     7
370
     0
100
AcDbLine
 10
797.1719500509
 20
180.3462655555
 30
0.0
 11
797.1719500509
 21
641.3462610255
 31
0.0
  0
LINE
  5
219
330
1F
100
AcDbEntity
  8
0
  6
Continuous
 62
     7
370
     0
100
AcDbLine
 10
800.1605343905
 20
641.3462610255
 30
0.0
 11
800.1605343905
 21
1099.6077210914
 31
0.0
  0
LINE
  5
21A
330
1F
100
AcDbEntity
  8
0
  6
Continuous
 62
     7
370
     0
100
AcDbLine
 10
800.1605343905
 20
183.0848009597
 30
0.0
 11
800.1605343905
 21
641.3462610255
 31
0.0
  0
LINE
  5
21B
330
1F
100
AcDbEntity
  8
0
  6
Continuous
 62
     7
370
     0
100
AcDbLine
 10
801.582805523
 20
647.3462610777
 30
0.0
 11
801.582805523
 21
858.8462622176
 31
0.0
  0
LINE
  5
21C
330
1F
100
AcDbEntity
  8
0
  6
Continuous
 62
     7
370
     0
100
AcDbLine
 10
801.582805523
 20
423.8462598334
 30
0.0
 11
801.582805523
 21
635.3462609734
 31
0.0
  0
LINE
  5
21D
330
1F
100
AcDbEntity
  8
0
  6
Continuous
 62
     7
370
     0
100
AcDbLine
 10
801.582805523
 20
260.2221817981
 30
0.0
 11
801.582805523
 21
411.846265317
 31
0.0
  0
LINE
  5
21E
330
1F
100
AcDbEntity
  8
0
  6
Continuous
 62
     7
370
     0
100
AcDbLine
 10
801.582805523
 20
199.3537993441
 30
0.0
 11
801.582805523
 21
248.2329161178
 31
0.0
  0
LINE
  5
21F
330
1F
100
AcDbEntity
  8
0
  6
Continuous
 62
     7
370
     0
100
AcDbLine
 10
801.582805523
 20
1034.4596059333
 30
0.0
 11
801.582805523
 21
1083.3387227069
 31
0.0
  0
LINE
  5
220
330
1F
100
AcDbEntity
  8
0
  6
Continuous
 62
     7
370
     0
100
AcDbLine
 10
801.582805523
 20
870.846256734
 30
0.0
 11
801.582805523
 21
1022.470340253
 31
0.0
  0
LINE
  5
221
330
1F
100
AcDbEntity
  8
0
  6
Continuous
 62
     7
370
     0
100
AcDbLine
 10
806.3021001307
 20
647.3462610777
 30
0.0
 11
806.3021001307
 21
858.8462622176
 31
0.0
  0
LINE
  5
222
330
1F
100
AcDbEntity
  8
0
  6
Continuous
 62
     7
370
     0
100
AcDbLine
 10
806.3021001307
 20
870.846256734
 30
0.0
 11
806.3021001307
 21
1022.4596114169
 31
0.0
  0
LINE
  5
223
330
1F
100
AcDbEntity
  8
0
  6
Continuous
 62
     7
370
     0
100
AcDbLine
 10
806.3021001307
 20
1034.4596059333
 30
0.0
 11
806.3021001307
 21
1078.7936897288
 31
0.0
  0
LINE
  5
224
330
1F
100
AcDbEntity
  8
0
  6
Continuous
 62
     7
370
     0
100
AcDbLine
 10
806.3021001307
 20
203.8988323222
 30
0.0
 11
806.3021001307
 21
248.2329161178
 31
0.0
  0
LINE
  5
225
330
1F
100
AcDbEntity
  8
0
  6
Continuous
 62
     7
370
     0
100
AcDbLine
 10
806.3021001307
 20
260.2329106341
 30
0.0
 11
806.3021001307
 21
411.846265317
 31
0.0
  0
LINE
  5
226
330
1F
100
AcDbEntity
  8
0
  6
Continuous
 62
     7
370
     0
100
AcDbLine
 10
806.3021001307
 20
423.8462598334
 30
0.0
 11
806.3021001307
 21
635.3462609734
 31
0.0
  0
LINE
  5
227
330
1F
100
AcDbEntity
  8
0
  6
Continuous
 62
     7
370
     0
100
AcDbLine
 10
831.5517824975
 20
647.3462610777
 30
0.0
 11
831.5517824975
 21
858.8462622176
 31
0.0
  0
LINE
  5
228
330
1F
100
AcDbEntity
  8
0
  6
Continuous
 62
     7
370
     0
100
AcDbLine
 10
831.5517824975
 20
870.846256734
 30
0.0
 11
831.5517824975
 21
1022.4596114169
 31
0.0
  0
LINE
  5
229
330
1F
100
AcDbEntity
  8
0
  6
Continuous
 62
     7
370
     0
100
AcDbLine
 10
831.5517824975
 20
1034.4596059333
 30
0.0
 11
831.5517824975
 21
1077.4704368125
 31
0.0
  0
LINE
  5
22A
330
1F
100
AcDbEntity
  8
0
  6
Continuous
 62
     7
370
     0
100
AcDbLine
 10
831.5517824975
 20
205.2220852385
 30
0.0
 11
831.5517824975
 21
248.2329161178
 31
0.0
  0
LINE
  5
22B
330
1F
100
AcDbEntity
  8
0
  6
Continuous
 62
     7
370
     0
100
AcDbLine
 10
831.5517824975
 20
260.2329106341
 30
0.0
 11
831.5517824975
 21
411.846265317
 31
0.0
  0
LINE
  5
22C
330
1F
100
AcDbEntity
  8
0
  6
Continuous
 62
     7
370
     0
100
AcDbLine
 10
831.5517824975
 20
423.8462598334
 30
0.0
 11
831.5517824975
 21
635.3462609734
 31
0.0
  0
LINE
  5
22D
330
1F
100
AcDbEntity
  8
FORMAT
  6
CENTERX2
370
     0
100
AcDbLine
 10
740.7982744716
 20
641.3462610255
 30
0.0
 11
925.9209440437
 21
641.3462610255
 31
0.0
  0
LINE
  5
22E
330
1F
100
AcDbEntity
  8
0
  6
Continuous
 62
     7
370
    15
100
AcDbLine
 10
633.3117426411
 20
-209.1198174454
 30
0.0
 11
633.3117426411
 21
-184.1198170729
 31
0.0
  0
LINE
  5
22F
330
1F
100
AcDbEntity
  8
0
  6
Continuous
 62
     7
370
    15
100
AcDbLine
 10
-391.6882335171
 20
-184.1198170729
 30
0.0
 11
-391.6882335171
 21
-209.1198174454
 31
0.0
  0
LINE
  5
230
330
1F
100
AcDbEntity
  8
0
  6
Continuous
 62
     7
370
    15
100
AcDbLine
 10
-340.1882409081
 20
-79.1198222138
 30
0.0
 11
-340.1882409081
 21
-82.3708234526
 31
0.0
  0
LINE
  5
231
330
1F
100
AcDbEntity
  8
0
  6
Continuous
 62
     7
370
    15
100
AcDbLine
 10
581.811750032
 20
-82.3708234526
 30
0.0
 11
581.811750032
 21
-79.1198222138
 31
0.0
  0
ARC
  5
232
330
1F
100
AcDbEntity
  8
0
  6
Continuous
 62
     7
370
    15
100
AcDbCircle
 10
-337.188245438
 20
-82.3708239233
 30
0.0
 40
3.0
100
AcDbArc
 50
180.0
 51
265.0
  0
ARC
  5
233
330
1F
100
AcDbEntity
  8
0
  6
Continuous
 62
     7
370
    15
100
AcDbCircle
 10
578.811754562
 20
-82.3708239233
 30
0.0
 40
3.000000000000114
100
AcDbArc
 50
275.0
 51
0.0
  0
LINE
  5
234
330
1F
100
AcDbEntity
  8
0
  6
Continuous
 62
     7
370
    15
100
AcDbLine
 10
108.8117544577
 20
-76.619824598
 30
0.0
 11
108.8117544577
 21
-79.1198222138
 31
0.0
  0
LINE
  5
235
330
1F
100
AcDbEntity
  8
0
  6
Continuous
 62
     7
370
    15
100
AcDbLine
 10
132.8117546663
 20
-79.1198222138
 30
0.0
 11
132.8117546663
 21
-76.619824598
 31
0.0
  0
LINE
  5
236
330
1F
100
AcDbEntity
  8
0
  6
Continuous
 62
     7
370
    15
100
AcDbLine
 10
-337.4497055039
 20
-85.3594077922
 30
0.0
 11
-332.1766315922
 21
-85.8207402922
 31
0.0
  0
LINE
  5
237
330
1F
100
AcDbEntity
  8
0
  6
Continuous
 62
     7
370
    15
100
AcDbLine
 10
573.8001407162
 20
-85.8207402922
 30
0.0
 11
579.0732146278
 21
-85.3594077922
 31
0.0
  0
LINE
  5
238
330
1F
100
AcDbEntity
  8
0
  6
Continuous
 62
     7
370
    15
100
AcDbLine
 10
129.8117541746
 20
-66.6528253056
 30
0.0
 11
129.0617545173
 21
-66.2198124625
 31
0.0
  0
LINE
  5
239
330
1F
100
AcDbEntity
  8
0
  6
Continuous
 62
     7
370
    15
100
AcDbLine
 10
112.5617546067
 20
-66.2198124625
 30
0.0
 11
111.8117549494
 21
-66.6528253056
 31
0.0
  0
LINE
  5
23A
330
1F
100
AcDbEntity
  8
0
  6
Continuous
 62
     7
370
    15
100
AcDbLine
 10
111.8117549494
 20
-76.1868117548
 30
0.0
 11
112.5617546067
 21
-76.619824598
 31
0.0
  0
LINE
  5
23B
330
1F
100
AcDbEntity
  8
0
  6
Continuous
 62
     7
370
    15
100
AcDbLine
 10
129.0617545173
 20
-76.619824598
 30
0.0
 11
129.8117541746
 21
-76.1868117548
 31
0.0
  0
LINE
  5
23C
330
1F
100
AcDbEntity
  8
0
  6
Continuous
 62
     7
370
    15
100
AcDbLine
 10
126.8117546141
 20
-66.2198124625
 30
0.0
 11
126.8117546141
 21
-31.119814346
 31
0.0
  0
LINE
  5
23D
330
1F
100
AcDbEntity
  8
0
  6
Continuous
 62
     7
370
    15
100
AcDbLine
 10
114.8117545098
 20
-31.119814346
 30
0.0
 11
114.8117545098
 21
-66.2198124625
 31
0.0
  0
LINE
  5
23E
330
1F
100
AcDbEntity
  8
0
  6
Continuous
 62
     7
370
    15
100
AcDbLine
 10
126.8117546141
 20
-184.1198170729
 30
0.0
 11
126.8117546141
 21
-86.3410888411
 31
0.0
  0
LINE
  5
23F
330
1F
100
AcDbEntity
  8
0
  6
Continuous
 62
     7
370
    15
100
AcDbLine
 10
114.8117545098
 20
-86.3411558963
 30
0.0
 11
114.8117545098
 21
-184.1198170729
 31
0.0
  0
ARC
  5
240
330
1F
100
AcDbEntity
  8
0
  6
Continuous
 62
     7
370
    15
100
AcDbCircle
 10
-321.6288353191
 20
-91.7626546202
 30
0.0
 40
5.000000000000038
100
AcDbArc
 50
3.0
 51
73.5236590001
  0
ARC
  5
241
330
1F
100
AcDbEntity
  8
0
  6
Continuous
 62
     7
370
    15
100
AcDbCircle
 10
563.2523444431
 20
-91.7626546202
 30
0.0
 40
5.000000000000003
100
AcDbArc
 50
106.4872263568
 51
177.0
  0
LINE
  5
242
330
1F
100
AcDbEntity
  8
0
  6
Continuous
 62
     7
370
    15
100
AcDbLine
 10
-316.6356741413
 20
-91.5009735323
 30
0.0
 11
-315.312421225
 21
-116.7506558992
 31
0.0
  0
LINE
  5
243
330
1F
100
AcDbEntity
  8
0
  6
Continuous
 62
     7
370
    15
100
AcDbLine
 10
556.935930349
 20
-116.7506558992
 30
0.0
 11
558.2591832653
 21
-91.5009735323
 31
0.0
  0
ARC
  5
244
330
1F
100
AcDbEntity
  8
0
  6
Continuous
 62
     7
370
    15
100
AcDbCircle
 10
-312.8158340212
 20
-116.6198174454
 30
0.0
 40
2.500000000000019
100
AcDbArc
 50
183.0
 51
270.0
  0
ARC
  5
245
330
1F
100
AcDbEntity
  8
0
  6
Continuous
 62
     7
370
    15
100
AcDbCircle
 10
554.4393431452
 20
-116.6198174454
 30
0.0
 40
2.500000000000132
100
AcDbArc
 50
270.0
 51
357.0
  0
LINE
  5
246
330
1F
100
AcDbEntity
  8
0
  6
Continuous
 62
     7
370
    15
100
AcDbLine
 10
538.3117438332
 20
-184.1198170729
 30
0.0
 11
538.3117438332
 21
-119.1198138691
 31
0.0
  0
LINE
  5
247
330
1F
100
AcDbEntity
  8
0
  6
Continuous
 62
     7
370
    15
100
AcDbLine
 10
-296.6882347092
 20
-119.1198138691
 30
0.0
 11
-296.6882347092
 21
-184.1198170729
 31
0.0
  0
LINE
  5
248
330
1F
100
AcDbEntity
  8
0
  6
Continuous
 62
     7
370
    15
100
AcDbLine
 10
332.3117584959
 20
-76.619824598
 30
0.0
 11
332.3117584959
 21
-79.1198222138
 31
0.0
  0
LINE
  5
249
330
1F
100
AcDbEntity
  8
0
  6
Continuous
 62
     7
370
    15
100
AcDbLine
 10
356.3117475286
 20
-79.1198222138
 30
0.0
 11
356.3117475286
 21
-76.619824598
 31
0.0
  0
LINE
  5
24A
330
1F
100
AcDbEntity
  8
0
  6
Continuous
 62
     7
370
    15
100
AcDbLine
 10
-114.6882384047
 20
-76.619824598
 30
0.0
 11
-114.6882384047
 21
-79.1198222138
 31
0.0
  0
LINE
  5
24B
330
1F
100
AcDbEntity
  8
0
  6
Continuous
 62
     7
370
    15
100
AcDbLine
 10
-90.6882493719
 20
-79.1198222138
 30
0.0
 11
-90.6882493719
 21
-76.619824598
 31
0.0
  0
LINE
  5
24C
330
1F
100
AcDbEntity
  8
0
  6
Continuous
 62
     7
370
    15
100
AcDbLine
 10
354.7040612474
 20
-67.4566833473
 30
0.0
 11
352.5617511049
 21
-66.2198124625
 31
0.0
  0
LINE
  5
24D
330
1F
100
AcDbEntity
  8
0
  6
Continuous
 62
     7
370
    15
100
AcDbLine
 10
336.0617549196
 20
-66.2198124625
 30
0.0
 11
333.9194447771
 21
-67.4566833473
 31
0.0
  0
LINE
  5
24E
330
1F
100
AcDbEntity
  8
0
  6
Continuous
 62
     7
370
    15
100
AcDbLine
 10
333.9194447771
 20
-75.3829537131
 30
0.0
 11
336.0617549196
 21
-76.619824598
 31
0.0
  0
LINE
  5
24F
330
1F
100
AcDbEntity
  8
0
  6
Continuous
 62
     7
370
    15
100
AcDbLine
 10
352.5617511049
 20
-76.619824598
 30
0.0
 11
354.7040612474
 21
-75.3829537131
 31
0.0
  0
LINE
  5
250
330
1F
100
AcDbEntity
  8
0
  6
Continuous
 62
     7
370
    15
100
AcDbLine
 10
-92.2959356531
 20
-67.4566833473
 30
0.0
 11
-94.4382457956
 21
-66.2198124625
 31
0.0
  0
LINE
  5
251
330
1F
100
AcDbEntity
  8
0
  6
Continuous
 62
     7
370
    15
100
AcDbLine
 10
-110.9382419809
 20
-66.2198124625
 30
0.0
 11
-113.0805521235
 21
-67.4566833473
 31
0.0
  0
LINE
  5
252
330
1F
100
AcDbEntity
  8
0
  6
Continuous
 62
     7
370
    15
100
AcDbLine
 10
-113.0805521235
 20
-75.3829537131
 30
0.0
 11
-110.9382419809
 21
-76.619824598
 31
0.0
  0
LINE
  5
253
330
1F
100
AcDbEntity
  8
0
  6
Continuous
 62
     7
370
    15
100
AcDbLine
 10
-94.4382457956
 20
-76.619824598
 30
0.0
 11
-92.2959356531
 21
-75.3829537131
 31
0.0
  0
LINE
  5
254
330
1F
100
AcDbEntity
  8
0
  6
Continuous
 62
     7
370
    15
100
AcDbLine
 10
350.3117502705
 20
-66.2198124625
 30
0.0
 11
350.3117502705
 21
-31.119814346
 31
0.0
  0
LINE
  5
255
330
1F
100
AcDbEntity
  8
0
  6
Continuous
 62
     7
370
    15
100
AcDbLine
 10
338.3117557541
 20
-31.119814346
 30
0.0
 11
338.3117557541
 21
-66.2198124625
 31
0.0
  0
LINE
  5
256
330
1F
100
AcDbEntity
  8
0
  6
Continuous
 62
     7
370
    15
100
AcDbLine
 10
350.3117502705
 20
-184.1198170729
 30
0.0
 11
350.3117502705
 21
-86.0802663661
 31
0.0
  0
LINE
  5
257
330
1F
100
AcDbEntity
  8
0
  6
Continuous
 62
     7
370
    15
100
AcDbLine
 10
338.3117557541
 20
-86.603990028
 30
0.0
 11
338.3117557541
 21
-184.1198170729
 31
0.0
  0
LINE
  5
258
330
1F
100
AcDbEntity
  8
0
  6
Continuous
 62
     7
370
    15
100
AcDbLine
 10
-96.6882466301
 20
-66.2198124625
 30
0.0
 11
-96.6882466301
 21
-31.119814346
 31
0.0
  0
LINE
  5
259
330
1F
100
AcDbEntity
  8
0
  6
Continuous
 62
     7
370
    15
100
AcDbLine
 10
-108.6882411465
 20
-31.119814346
 30
0.0
 11
-108.6882411465
 21
-66.2198124625
 31
0.0
  0
LINE
  5
25A
330
1F
100
AcDbEntity
  8
0
  6
Continuous
 62
     7
370
    15
100
AcDbLine
 10
-96.6882466301
 20
-184.1198170729
 30
0.0
 11
-96.6882466301
 21
-86.6035653449
 31
0.0
  0
LINE
  5
25B
330
1F
100
AcDbEntity
  8
0
  6
Continuous
 62
     7
370
    15
100
AcDbLine
 10
-108.6882411465
 20
-86.0797671772
 30
0.0
 11
-108.6882411465
 21
-184.1198170729
 31
0.0
  0
LINE
  5
25C
330
1F
100
AcDbEntity
  8
0
  6
Continuous
 62
     7
370
    15
100
AcDbLine
 10
495.9251225964
 20
-76.619824598
 30
0.0
 11
495.9251225964
 21
-79.1198222138
 31
0.0
  0
LINE
  5
25D
330
1F
100
AcDbEntity
  8
0
  6
Continuous
 62
     7
370
    15
100
AcDbLine
 10
519.9251116291
 20
-79.1198222138
 30
0.0
 11
519.9251116291
 21
-76.619824598
 31
0.0
  0
LINE
  5
25E
330
1F
100
AcDbEntity
  8
0
  6
Continuous
 62
     7
370
    15
100
AcDbLine
 10
-278.3016025051
 20
-76.619824598
 30
0.0
 11
-278.3016025051
 21
-79.1198222138
 31
0.0
  0
LINE
  5
25F
330
1F
100
AcDbEntity
  8
0
  6
Continuous
 62
     7
370
    15
100
AcDbLine
 10
-254.3016134724
 20
-79.1198222138
 30
0.0
 11
-254.3016134724
 21
-76.619824598
 31
0.0
  0
LINE
  5
260
330
1F
100
AcDbEntity
  8
0
  6
Continuous
 62
     7
370
    15
100
AcDbLine
 10
516.9251204506
 20
-66.6528253056
 30
0.0
 11
516.1751152054
 21
-66.2198124625
 31
0.0
  0
LINE
  5
261
330
1F
100
AcDbEntity
  8
0
  6
Continuous
 62
     7
370
    15
100
AcDbLine
 10
499.6751190201
 20
-66.2198124625
 30
0.0
 11
498.9251137749
 21
-66.6528253056
 31
0.0
  0
LINE
  5
262
330
1F
100
AcDbEntity
  8
0
  6
Continuous
 62
     7
370
    15
100
AcDbLine
 10
498.9251137749
 20
-76.1868117548
 30
0.0
 11
499.6751190201
 21
-76.619824598
 31
0.0
  0
LINE
  5
263
330
1F
100
AcDbEntity
  8
0
  6
Continuous
 62
     7
370
    15
100
AcDbLine
 10
516.1751152054
 20
-76.619824598
 30
0.0
 11
516.9251204506
 21
-76.1868117548
 31
0.0
  0
LINE
  5
264
330
1F
100
AcDbEntity
  8
0
  6
Continuous
 62
     7
370
    15
100
AcDbLine
 10
-275.3016113266
 20
-76.1868117548
 30
0.0
 11
-274.5516060814
 21
-76.619824598
 31
0.0
  0
LINE
  5
265
330
1F
100
AcDbEntity
  8
0
  6
Continuous
 62
     7
370
    15
100
AcDbLine
 10
-258.0516098961
 20
-76.619824598
 30
0.0
 11
-257.3016046509
 21
-76.1868117548
 31
0.0
  0
LINE
  5
266
330
1F
100
AcDbEntity
  8
0
  6
Continuous
 62
     7
370
    15
100
AcDbLine
 10
-257.3016046509
 20
-66.6528253056
 30
0.0
 11
-258.0516098961
 21
-66.2198124625
 31
0.0
  0
LINE
  5
267
330
1F
100
AcDbEntity
  8
0
  6
Continuous
 62
     7
370
    15
100
AcDbLine
 10
-274.5516060814
 20
-66.2198124625
 30
0.0
 11
-275.3016113266
 21
-66.6528253056
 31
0.0
  0
LINE
  5
268
330
1F
100
AcDbEntity
  8
0
  6
Continuous
 62
     7
370
    15
100
AcDbLine
 10
513.9250994698
 20
-66.2198124625
 30
0.0
 11
513.9250994698
 21
-31.119814346
 31
0.0
  0
LINE
  5
269
330
1F
100
AcDbEntity
  8
0
  6
Continuous
 62
     7
370
    15
100
AcDbLine
 10
501.9251049534
 20
-31.119814346
 30
0.0
 11
501.9251049534
 21
-66.2198124625
 31
0.0
  0
LINE
  5
26A
330
1F
100
AcDbEntity
  8
0
  6
Continuous
 62
     7
370
    15
100
AcDbLine
 10
513.9250994698
 20
-184.1198170729
 30
0.0
 11
513.9250994698
 21
-85.8904553748
 31
0.0
  0
LINE
  5
26B
330
1F
100
AcDbEntity
  8
0
  6
Continuous
 62
     7
370
    15
100
AcDbLine
 10
501.9251049534
 20
-86.8054760791
 30
0.0
 11
501.9251049534
 21
-184.1198170729
 31
0.0
  0
LINE
  5
26C
330
1F
100
AcDbEntity
  8
0
  6
Continuous
 62
     7
370
    15
100
AcDbLine
 10
-260.3015958294
 20
-66.2198124625
 30
0.0
 11
-260.3015958294
 21
-31.119814346
 31
0.0
  0
LINE
  5
26D
330
1F
100
AcDbEntity
  8
0
  6
Continuous
 62
     7
370
    15
100
AcDbLine
 10
-272.3015903458
 20
-31.119814346
 30
0.0
 11
-272.3015903458
 21
-66.2198124625
 31
0.0
  0
LINE
  5
26E
330
1F
100
AcDbEntity
  8
0
  6
Continuous
 62
     7
370
    15
100
AcDbLine
 10
-260.3015958294
 20
-184.1198170729
 30
0.0
 11
-260.3015958294
 21
-86.8055431343
 31
0.0
  0
LINE
  5
26F
330
1F
100
AcDbEntity
  8
0
  6
Continuous
 62
     7
370
    15
100
AcDbLine
 10
-272.3015903458
 20
-85.8905522324
 30
0.0
 11
-272.3015903458
 21
-184.1198170729
 31
0.0
  0
LINE
  5
270
330
1F
100
AcDbEntity
  8
0
  6
Continuous
 62
     7
370
    15
100
AcDbLine
 10
555.8117569462
 20
-76.619824598
 30
0.0
 11
555.8117569462
 21
-79.1198222138
 31
0.0
  0
LINE
  5
271
330
1F
100
AcDbEntity
  8
0
  6
Continuous
 62
     7
370
    15
100
AcDbLine
 10
579.8117459789
 20
-79.1198222138
 30
0.0
 11
579.8117459789
 21
-76.619824598
 31
0.0
  0
LINE
  5
272
330
1F
100
AcDbEntity
  8
0
  6
Continuous
 62
     7
370
    15
100
AcDbLine
 10
-338.1882368549
 20
-76.619824598
 30
0.0
 11
-338.1882368549
 21
-79.1198222138
 31
0.0
  0
LINE
  5
273
330
1F
100
AcDbEntity
  8
0
  6
Continuous
 62
     7
370
    15
100
AcDbLine
 10
-314.1882478222
 20
-79.1198222138
 30
0.0
 11
-314.1882478222
 21
-76.619824598
 31
0.0
  0
LINE
  5
274
330
1F
100
AcDbEntity
  8
0
  6
Continuous
 62
     7
370
    15
100
AcDbLine
 10
578.2040596977
 20
-67.4566833473
 30
0.0
 11
576.0617495552
 21
-66.2198124625
 31
0.0
  0
LINE
  5
275
330
1F
100
AcDbEntity
  8
0
  6
Continuous
 62
     7
370
    15
100
AcDbLine
 10
559.5617533699
 20
-66.2198124625
 30
0.0
 11
557.4194432274
 21
-67.4566833473
 31
0.0
  0
LINE
  5
276
330
1F
100
AcDbEntity
  8
0
  6
Continuous
 62
     7
370
    15
100
AcDbLine
 10
557.4194432274
 20
-75.3829537131
 30
0.0
 11
559.5617533699
 21
-76.619824598
 31
0.0
  0
LINE
  5
277
330
1F
100
AcDbEntity
  8
0
  6
Continuous
 62
     7
370
    15
100
AcDbLine
 10
576.0617495552
 20
-76.619824598
 30
0.0
 11
578.2040596977
 21
-75.3829537131
 31
0.0
  0
LINE
  5
278
330
1F
100
AcDbEntity
  8
0
  6
Continuous
 62
     7
370
    15
100
AcDbLine
 10
-315.7959341034
 20
-67.4566833473
 30
0.0
 11
-317.9382442459
 21
-66.2198124625
 31
0.0
  0
LINE
  5
279
330
1F
100
AcDbEntity
  8
0
  6
Continuous
 62
     7
370
    15
100
AcDbLine
 10
-334.4382404312
 20
-66.2198124625
 30
0.0
 11
-336.5805505737
 21
-67.4566833473
 31
0.0
  0
LINE
  5
27A
330
1F
100
AcDbEntity
  8
0
  6
Continuous
 62
     7
370
    15
100
AcDbLine
 10
-336.5805505737
 20
-75.3829537131
 30
0.0
 11
-334.4382404312
 21
-76.619824598
 31
0.0
  0
LINE
  5
27B
330
1F
100
AcDbEntity
  8
0
  6
Continuous
 62
     7
370
    15
100
AcDbLine
 10
-317.9382442459
 20
-76.619824598
 30
0.0
 11
-315.7959341034
 21
-75.3829537131
 31
0.0
  0
LINE
  5
27C
330
1F
100
AcDbEntity
  8
0
  6
Continuous
 62
     7
370
    15
100
AcDbLine
 10
573.8117636219
 20
-66.2198124625
 30
0.0
 11
573.8117636219
 21
-31.119814346
 31
0.0
  0
LINE
  5
27D
330
1F
100
AcDbEntity
  8
0
  6
Continuous
 62
     7
370
    15
100
AcDbLine
 10
561.8117691055
 20
-31.119814346
 30
0.0
 11
561.8117691055
 21
-66.2198124625
 31
0.0
  0
LINE
  5
27E
330
1F
100
AcDbEntity
  8
0
  6
Continuous
 62
     7
370
    15
100
AcDbLine
 10
573.8117636219
 20
-184.1198170729
 30
0.0
 11
573.8117636219
 21
-85.8197270132
 31
0.0
  0
LINE
  5
27F
330
1F
100
AcDbEntity
  8
0
  6
Continuous
 62
     7
370
    15
100
AcDbLine
 10
561.8117691055
 20
-86.9746787645
 30
0.0
 11
561.8117691055
 21
-184.1198170729
 31
0.0
  0
LINE
  5
280
330
1F
100
AcDbEntity
  8
0
  6
Continuous
 62
     7
370
    15
100
AcDbLine
 10
-320.1882599815
 20
-66.2198124625
 30
0.0
 11
-320.1882599815
 21
-31.119814346
 31
0.0
  0
LINE
  5
281
330
1F
100
AcDbEntity
  8
0
  6
Continuous
 62
     7
370
    15
100
AcDbLine
 10
-332.1882544979
 20
-31.119814346
 30
0.0
 11
-332.1882544979
 21
-66.2198124625
 31
0.0
  0
LINE
  5
282
330
1F
100
AcDbEntity
  8
0
  6
Continuous
 62
     7
370
    15
100
AcDbLine
 10
-320.1882599815
 20
-184.1198170729
 30
0.0
 11
-320.1882599815
 21
-86.9746787645
 31
0.0
  0
LINE
  5
283
330
1F
100
AcDbEntity
  8
0
  6
Continuous
 62
     7
370
    15
100
AcDbLine
 10
-332.1882544979
 20
-85.8197270132
 30
0.0
 11
-332.1882544979
 21
-184.1198170729
 31
0.0
  0
LINE
  5
284
330
1F
100
AcDbEntity
  8
0
  6
Continuous
 62
     7
370
    15
100
AcDbLine
 10
-391.6882335171
 20
-209.1198174454
 30
0.0
 11
633.3117426411
 21
-209.1198174454
 31
0.0
  0
LINE
  5
285
330
1F
100
AcDbEntity
  8
0
  6
Continuous
 62
     7
370
    15
100
AcDbLine
 10
-391.6882335171
 20
-184.1198170729
 30
0.0
 11
633.3117426411
 21
-184.1198170729
 31
0.0
  0
LINE
  5
286
330
1F
100
AcDbEntity
  8
0
  6
Continuous
 62
     7
370
    15
100
AcDbLine
 10
-340.1882409081
 20
-79.1198222138
 30
0.0
 11
581.811750032
 21
-79.1198222138
 31
0.0
  0
LINE
  5
287
330
1F
100
AcDbEntity
  8
0
  6
Continuous
 62
     7
370
    15
100
AcDbLine
 10
108.8117544577
 20
-76.619824598
 30
0.0
 11
132.8117546663
 21
-76.619824598
 31
0.0
  0
SPLINE
  5
288
330
1F
100
AcDbEntity
  8
0
  6
Continuous
 62
     7
370
    15
100
AcDbSpline
210
0.0
220
0.0
230
1.0
 70
     8
 71
     3
 72
    23
 73
    19
 74
     0
 42
0.00000001
 43
0.00000001
 12
1.0
 22
0.0
 32
0.0
 13
1.0
 23
0.0
 33
0.0
 40
0.0
 40
0.0
 40
0.0
 40
0.0
 40
0.064888339304893
 40
0.1316554462335597
 40
0.1966697247287888
 40
0.2635599824159354
 40
0.3287463857322468
 40
0.3958137094583845
 40
0.461140099138505
 40
0.5283595060347235
 40
0.5936682566352433
 40
0.6608789597642066
 40
0.7260247395312099
 40
0.7930726397550847
 40
0.8579822810511756
 40
0.9247867526473521
 40
0.989490945313326
 40
0.9999999999999999
 40
0.9999999999999999
 40
0.9999999999999999
 40
0.9999999999999999
 10
-321.1807071193755
 20
-86.78167892468123
 30
0.0
 10
-321.3771071932589
 20
-86.76430700070445
 30
0.0
 10
-321.7755938804575
 20
-86.72906016856787
 30
0.0
 10
-322.5324555269529
 20
-86.66224363995812
 30
0.0
 10
-323.3900514144258
 20
-86.58666317208801
 30
0.0
 10
-324.3224704492062
 20
-86.50466294268807
 30
0.0
 10
-325.3163615833139
 20
-86.4174550607804
 30
0.0
 10
-326.3276379611718
 20
-86.32890447224185
 30
0.0
 10
-327.3448841888936
 20
-86.24005913042019
 30
0.0
 10
-328.3209795410591
 20
-86.15496759509118
 30
0.0
 10
-329.2450758554508
 20
-86.07461167333715
 30
0.0
 10
-330.0733627151208
 20
-86.00269759748042
 30
0.0
 10
-330.797787307901
 20
-85.93994233954191
 30
0.0
 10
-331.382517138657
 20
-85.88932984363555
 30
0.0
 10
-331.8278846294615
 20
-85.85084378165955
 30
0.0
 10
-332.0927746940543
 20
-85.82796989811513
 30
0.0
 10
-332.2069399480947
 20
-85.81811892636264
 30
0.0
 10
-332.180347219998
 20
-85.82040585365245
 30
0.0
 10
-332.1766315921843
 20
-85.82072539103179
 30
0.0
  0
SPLINE
  5
289
330
1F
100
AcDbEntity
  8
0
  6
Continuous
 62
     7
370
    15
100
AcDbSpline
210
0.0
220
0.0
230
1.0
 70
     8
 71
     3
 72
    23
 73
    19
 74
     0
 42
0.00000001
 43
0.00000001
 12
1.0
 22
0.0
 32
0.0
 13
1.0
 23
0.0
 33
0.0
 40
0.0
 40
0.0
 40
0.0
 40
0.0
 40
0.0560791610489
 40
0.1206970039831664
 40
0.1871855547075329
 40
0.2518678906622639
 40
0.3184149220574227
 40
0.3832865102274836
 40
0.4500274081116182
 40
0.5151365341658779
 40
0.5821214369996822
 40
0.6474120683030301
 40
0.7145933784149071
 40
0.7799296700088519
 40
0.8471674472834934
 40
0.9123914558480025
 40
0.9795184800607645
 40
0.9999999999999999
 40
0.9999999999999999
 40
0.9999999999999999
 40
0.9999999999999999
 10
573.8001407161653
 20
-85.82072539103179
 30
0.0
 10
573.7928766105521
 20
-85.82135356868014
 30
0.0
 10
573.7772423576903
 20
-85.82270557107648
 30
0.0
 10
573.5477230844446
 20
-85.84252243040844
 30
0.0
 10
573.1641557029382
 20
-85.87566426088517
 30
0.0
 10
572.6210004332403
 20
-85.92264746690321
 30
0.0
 10
571.9487444974405
 20
-85.98087400827694
 30
0.0
 10
571.1525857332991
 20
-86.0499398105423
 30
0.0
 10
570.2683626313085
 20
-86.12679238037938
 30
0.0
 10
569.3055160682003
 20
-86.2106457778784
 30
0.0
 10
568.3073116426386
 20
-86.29778020862061
 30
0.0
 10
567.2850050446227
 20
-86.38720505125399
 30
0.0
 10
566.2855319441858
 20
-86.4748446760074
 30
0.0
 10
565.3203097553763
 20
-86.55967110732361
 30
0.0
 10
564.434224777149
 20
-86.63770561255292
 30
0.0
 10
563.6385325044224
 20
-86.70791290490963
 30
0.0
 10
563.1163071901622
 20
-86.75407631557033
 30
0.0
 10
562.8633530104921
 20
-86.7764486253597
 30
0.0
 10
562.8042162433564
 20
-86.78167892468123
 30
0.0
  0
SPLINE
  5
28A
330
1F
100
AcDbEntity
  8
0
  6
Continuous
 62
     7
370
    15
100
AcDbSpline
210
0.0
220
0.0
230
1.0
 70
     8
 71
     3
 72
    26
 73
    22
 74
     0
 42
0.00000001
 43
0.00000001
 12
1.0
 22
0.0
 32
0.0
 13
1.0
 23
0.0
 33
0.0
 40
0.0
 40
0.0
 40
0.0
 40
0.0
 40
0.0147607328107591
 40
0.0695189842097246
 40
0.1240833108814055
 40
0.1786480344652066
 40
0.2330936849084118
 40
0.2875405899405015
 40
0.3419920946175297
 40
0.3964446650949466
 40
0.4510251888242426
 40
0.5056045391216951
 40
0.5603805068391504
 40
0.6151557100110403
 40
0.670112230500259
 40
0.7250678862475415
 40
0.780112304174714
 40
0.835155669226845
 40
0.8901524425153781
 40
0.9451482109933386
 40
1.0
 40
1.0
 40
1.0
 40
1.0
 10
513.9078141227664
 20
-85.89045537483838
 30
0.0
 10
513.9127246505292
 20
-85.88615576055817
 30
0.0
 10
513.9358518831933
 20
-85.86590576205958
 30
0.0
 10
513.8080376627331
 20
-85.84252070505421
 30
0.0
 10
513.5178894762633
 20
-85.82234483309844
 30
0.0
 10
513.0600939686166
 20
-85.81746876685911
 30
0.0
 10
512.4581463430045
 20
-85.82733648342705
 30
0.0
 10
511.7306564647546
 20
-85.85135503865445
 30
0.0
 10
510.8943341524111
 20
-85.88937046574537
 30
0.0
 10
509.9757990296574
 20
-85.93983879701568
 30
0.0
 10
508.9981664071985
 20
-86.00187448203276
 30
0.0
 10
507.9895414164309
 20
-86.07345486731928
 30
0.0
 10
506.9784057159595
 20
-86.15291997296205
 30
0.0
 10
505.9917119806902
 20
-86.23791772270526
 30
0.0
 10
505.0602725248066
 20
-86.32619303302248
 30
0.0
 10
504.2073528670368
 20
-86.41520390331583
 30
0.0
 10
503.4623819941908
 20
-86.5023300973252
 30
0.0
 10
502.8412312600146
 20
-86.58520968207192
 30
0.0
 10
502.3715300247983
 20
-86.66089776957267
 30
0.0
 10
502.045932630254
 20
-86.72854388758711
 30
0.0
 10
501.9725013203966
 20
-86.76398272912468
 30
0.0
 10
501.9358337894379
 20
-86.78167892468123
 30
0.0
  0
SPLINE
  5
28B
330
1F
100
AcDbEntity
  8
0
  6
Continuous
 62
     7
370
    15
100
AcDbSpline
210
0.0
220
0.0
230
1.0
 70
     8
 71
     3
 72
    26
 73
    22
 74
     0
 42
0.00000001
 43
0.00000001
 12
1.0
 22
0.0
 32
0.0
 13
1.0
 23
0.0
 33
0.0
 40
0.0
 40
0.0
 40
0.0
 40
0.0
 40
0.0428979114458227
 40
0.0967625557465212
 40
0.1506256425333324
 40
0.2042988724538483
 40
0.257970072619773
 40
0.3114617079415318
 40
0.364953768475388
 40
0.4183537048755879
 40
0.4717534662686975
 40
0.5251866683648047
 40
0.5786206040717384
 40
0.6321986270413185
 40
0.685777493038547
 40
0.7395527969804643
 40
0.7933263677367968
 40
0.8472654964781833
 40
0.9012031783572738
 40
0.9552010064706966
 40
1.0
 40
1.0
 40
1.0
 40
1.0
 10
350.2972216382921
 20
-86.08026636612563
 30
0.0
 10
350.2926516774813
 20
-86.06018490952796
 30
0.0
 10
350.282343457971
 20
-86.01488822728841
 30
0.0
 10
350.0600053705688
 20
-85.95499069309633
 30
0.0
 10
349.68008633813
 20
-85.90073380830552
 30
0.0
 10
349.139128083874
 20
-85.85954238841559
 30
0.0
 10
348.4661578754751
 20
-85.83171369382232
 30
0.0
 10
347.6731850077727
 20
-85.81858184193062
 30
0.0
 10
346.788528881372
 20
-85.81984504512045
 30
0.0
 10
345.8331302653132
 20
-85.83601119234862
 30
0.0
 10
344.8364255600021
 20
-85.86604896105942
 30
0.0
 10
343.8249129540695
 20
-85.90967572296842
 30
0.0
 10
342.8263225414583
 20
-85.96522238125462
 30
0.0
 10
341.870178426648
 20
-86.03165557376006
 30
0.0
 10
340.9802108728368
 20
-86.1068450457679
 30
0.0
 10
340.1857842986743
 20
-86.1889941987632
 30
0.0
 10
339.5049988738455
 20
-86.27569792410387
 30
0.0
 10
338.9619760333927
 20
-86.36462213931587
 30
0.0
 10
338.5726387408184
 20
-86.45301268284415
 30
0.0
 10
338.345851371382
 20
-86.53426946671
 30
0.0
 10
338.3308202884452
 20
-86.58223862133217
 30
0.0
 10
338.3240045085848
 20
-86.60399002802518
 30
0.0
  0
SPLINE
  5
28C
330
1F
100
AcDbEntity
  8
0
  6
Continuous
 62
     7
370
    15
100
AcDbSpline
210
0.0
220
0.0
230
1.0
 70
     8
 71
     3
 72
    27
 73
    23
 74
     0
 42
0.00000001
 43
0.00000001
 12
1.0
 22
0.0
 32
0.0
 13
1.0
 23
0.0
 33
0.0
 40
0.0
 40
0.0
 40
0.0
 40
0.0
 40
0.0078320637187612
 40
0.0618195821552147
 40
0.1158071897690505
 40
0.1697846405919936
 40
0.223760809511259
 40
0.2776051262239886
 40
0.3314489327743764
 40
0.3850979888435823
 40
0.4387465205098177
 40
0.4922226637002387
 40
0.5456987703335384
 40
0.5990977251622088
 40
0.6524972636655382
 40
0.7059463100946778
 40
0.7593960086594563
 40
0.8130006051411053
 40
0.8666068283510626
 40
0.9204079284477727
 40
0.9742099805670401
 40
1.0
 40
1.0
 40
1.0
 40
1.0
 10
126.8010485954881
 20
-86.34108884108214
 30
0.0
 10
126.8044877198485
 20
-86.33680214070219
 30
0.0
 10
126.8316332128594
 20
-86.30296661077949
 30
0.0
 10
126.7160519786285
 20
-86.23962877335758
 30
0.0
 10
126.4505438137498
 20
-86.15417000267807
 30
0.0
 10
126.0037754897486
 20
-86.07428337828286
 30
0.0
 10
125.4160338286535
 20
-86.00202078805971
 30
0.0
 10
124.6928433867489
 20
-85.93975154551474
 30
0.0
 10
123.862516022467
 20
-85.88879764525316
 30
0.0
 10
122.9439537885783
 20
-85.8510264312978
 30
0.0
 10
121.9678377781732
 20
-85.82687544975539
 30
0.0
 10
120.9591215589058
 20
-85.81753769444771
 30
0.0
 10
119.9478638989274
 20
-85.82259514255767
 30
0.0
 10
118.9621735267915
 20
-85.84249892879369
 30
0.0
 10
118.0280236155713
 20
-85.87606580430172
 30
0.0
 10
117.1741257341562
 20
-85.9229672129265
 30
0.0
 10
116.4198755915195
 20
-85.98144481083818
 30
0.0
 10
115.7924413033307
 20
-86.0503492672053
 30
0.0
 10
115.3005853686443
 20
-86.12752817663686
 30
0.0
 10
114.9769436906888
 20
-86.21109422241943
 30
0.0
 10
114.8147433876755
 20
-86.28333166674994
 30
0.0
 10
114.8288741676329
 20
-86.32700464925934
 30
0.0
 10
114.8334529288411
 20
-86.34115589630751
 30
0.0
  0
SPLINE
  5
28D
330
1F
100
AcDbEntity
  8
0
  6
Continuous
 62
     7
370
    15
100
AcDbSpline
210
0.0
220
0.0
230
1.0
 70
     8
 71
     3
 72
    27
 73
    23
 74
     0
 42
0.00000001
 43
0.00000001
 12
1.0
 22
0.0
 32
0.0
 13
1.0
 23
0.0
 33
0.0
 40
0.0
 40
0.0
 40
0.0
 40
0.0
 40
0.0299848404127677
 40
0.0837903923336158
 40
0.137595464985383
 40
0.1915543164736385
 40
0.2455119894975847
 40
0.2995082132932194
 40
0.3535029473879416
 40
0.4074031507746348
 40
0.4613033291270011
 40
0.5150202981182556
 40
0.5687375068195573
 40
0.6222644776154884
 40
0.6757918377776001
 40
0.7292023885716129
 40
0.7826141701027517
 40
0.8360304638321582
 40
0.8894478030993687
 40
0.9429906630207199
 40
0.99653237181906
 40
1.0
 40
1.0
 40
1.0
 40
1.0
 10
-96.70948078480363
 20
-86.60356534493117
 30
0.0
 10
-96.70630818586872
 20
-86.58933946704818
 30
0.0
 10
-96.69744259559666
 20
-86.54958631603266
 30
0.0
 10
-96.87295667900919
 20
-86.47705416226334
 30
0.0
 10
-97.21098641838985
 20
-86.38956102663369
 30
0.0
 10
-97.71655448801204
 20
-86.3004603774288
 30
0.0
 10
-98.35973687873125
 20
-86.21264709905265
 30
0.0
 10
-99.13016600851776
 20
-86.12872254374207
 30
0.0
 10
-100.0003144818976
 20
-86.0508780362111
 30
0.0
 10
-100.9489809554359
 20
-85.9816245425213
 30
0.0
 10
-101.9453110022616
 20
-85.92255838567169
 30
0.0
 10
-102.9627344668493
 20
-85.87572374143626
 30
0.0
 10
-103.9706915241894
 20
-85.84191214388834
 30
0.0
 10
-104.9406394836498
 20
-85.82250782609786
 30
0.0
 10
-105.8465055180981
 20
-85.81742459864417
 30
0.0
 10
-106.6605253649219
 20
-85.82735054226328
 30
0.0
 10
-107.3644627158932
 20
-85.85134292923168
 30
0.0
 10
-107.9323915593377
 20
-85.88940484670513
 30
0.0
 10
-108.3607910478484
 20
-85.93971325615631
 30
0.0
 10
-108.6073808720804
 20
-86.00234344735765
 30
0.0
 10
-108.7128239344356
 20
-86.050022986512
 30
0.0
 10
-108.6847764491784
 20
-86.07806170484182
 30
0.0
 10
-108.6830704435408
 20
-86.07976717722563
 30
0.0
  0
SPLINE
  5
28E
330
1F
100
AcDbEntity
  8
0
  6
Continuous
 62
     7
370
    15
100
AcDbSpline
210
0.0
220
0.0
230
1.0
 70
     8
 71
     3
 72
    26
 73
    22
 74
     0
 42
0.00000001
 43
0.00000001
 12
1.0
 22
0.0
 32
0.0
 13
1.0
 23
0.0
 33
0.0
 40
0.0
 40
0.0
 40
0.0
 40
0.0
 40
0.0520670133915786
 40
0.1066705221845139
 40
0.1612750928951401
 40
0.2160868495447332
 40
0.2708979412722083
 40
0.3258813358194717
 40
0.3808640418299889
 40
0.4359095580591915
 40
0.4909540603225065
 40
0.5459247139489745
 40
0.6008949233793799
 40
0.6556897694657183
 40
0.7104840429107376
 40
0.7650802526411186
 40
0.8196752029300423
 40
0.8741345167237488
 40
0.9285931487520835
 40
0.9830343803071541
 40
1.0
 40
1.0
 40
1.0
 40
1.0
 10
-260.312324665457
 20
-86.78167892468123
 30
0.0
 10
-260.3463656415319
 20
-86.76493847587635
 30
0.0
 10
-260.4161059330722
 20
-86.73064205095588
 30
0.0
 10
-260.7256673758375
 20
-86.6650117112458
 30
0.0
 10
-261.1831217696778
 20
-86.59028576683085
 30
0.0
 10
-261.7918957860833
 20
-86.5082220117196
 30
0.0
 10
-262.5264332342313
 20
-86.42157499466497
 30
0.0
 10
-263.3715050149107
 20
-86.33269144559196
 30
0.0
 10
-264.2996740778261
 20
-86.2441344200919
 30
0.0
 10
-265.2868458441023
 20
-86.15852033423184
 30
0.0
 10
-266.3028218731678
 20
-86.0781850727583
 30
0.0
 10
-267.3188729422356
 20
-86.00561565710629
 30
0.0
 10
-268.3055501420253
 20
-85.94259957119922
 30
0.0
 10
-269.2333824337942
 20
-85.89124520818882
 30
0.0
 10
-270.0778206518405
 20
-85.85250994204175
 30
0.0
 10
-270.8122847943042
 20
-85.8278983781925
 30
0.0
 10
-271.4194021145335
 20
-85.81755329443092
 30
0.0
 10
-271.8816684612756
 20
-85.82196649106395
 30
0.0
 10
-272.1770760235601
 20
-85.84154695332131
 30
0.0
 10
-272.309361871685
 20
-85.86503867559857
 30
0.0
 10
-272.2881039827071
 20
-85.88565417649997
 30
0.0
 10
-272.283053301245
 20
-85.89055223238616
 30
0.0
  0
LINE
  5
28F
330
1F
100
AcDbEntity
  8
0
  6
Continuous
 62
     7
370
    15
100
AcDbLine
 10
120.811754562
 20
-67.4566833473
 30
0.0
 11
120.811754562
 21
-75.3829537131
 31
0.0
  0
SPLINE
  5
290
330
1F
100
AcDbEntity
  8
0
  6
Continuous
 62
     7
370
    15
100
AcDbSpline
210
0.0
220
0.0
230
1.0
 70
     8
 71
     3
 72
    16
 73
    12
 74
     0
 42
0.00000001
 43
0.00000001
 12
1.0
 22
0.0
 32
0.0
 13
1.0
 23
0.0
 33
0.0
 40
0.0
 40
0.0
 40
0.0
 40
0.0
 40
0.249999999999998
 40
0.249999999999998
 40
0.499999999999996
 40
0.499999999999996
 40
0.624999999999995
 40
0.624999999999995
 40
0.749999999999994
 40
0.749999999999994
 40
1.0
 40
1.0
 40
1.0
 40
1.0
 10
120.8117545619906
 20
-75.38295716621364
 30
0.0
 10
120.0769900182434
 20
-75.62787868079612
 30
0.0
 10
119.3368684168272
 20
-75.82973840083253
 30
0.0
 10
117.8411893987669
 20
-76.10937967242965
 30
0.0
 10
117.0855172298182
 20
-76.18623880715795
 30
0.0
 10
115.9377716225622
 20
-76.18708296832709
 30
0.0
 10
115.5533896111147
 20
-76.16829388165701
 30
0.0
 10
114.7930414439419
 20
-76.09502638957615
 30
0.0
 10
114.4154165252698
 20
-76.04062233791288
 30
0.0
 10
113.2892648649744
 20
-75.83054327956073
 30
0.0
 10
112.5474350225305
 20
-75.62818398639344
 30
0.0
 10
111.8117545619905
 20
-75.38295716621344
 30
0.0
  0
LINE
  5
291
330
1F
100
AcDbEntity
  8
0
  6
Continuous
 62
     7
370
    15
100
AcDbLine
 10
111.8117549494
 20
-67.4566833473
 30
0.0
 11
111.8117549494
 21
-75.3829537131
 31
0.0
  0
SPLINE
  5
292
330
1F
100
AcDbEntity
  8
0
  6
Continuous
 62
     7
370
    15
100
AcDbSpline
210
0.0
220
0.0
230
1.0
 70
     8
 71
     3
 72
    16
 73
    12
 74
     0
 42
0.00000001
 43
0.00000001
 12
1.0
 22
0.0
 32
0.0
 13
1.0
 23
0.0
 33
0.0
 40
0.0
 40
0.0
 40
0.0
 40
0.0
 40
0.2499999999999979
 40
0.2499999999999979
 40
0.4999999999999959
 40
0.4999999999999959
 40
0.624999999999995
 40
0.624999999999995
 40
0.749999999999994
 40
0.749999999999994
 40
1.0
 40
1.0
 40
1.0
 40
1.0
 10
111.8117545619905
 20
-67.45667772458401
 30
0.0
 10
112.5465191057377
 20
-67.2117562100016
 30
0.0
 10
113.2866407071539
 20
-67.0098964899651
 30
0.0
 10
114.7823197252142
 20
-66.73025521836807
 30
0.0
 10
115.5379918941629
 20
-66.65339608363969
 30
0.0
 10
116.6857375014188
 20
-66.65255192247051
 30
0.0
 10
117.0701195128664
 20
-66.67134100914068
 30
0.0
 10
117.8304676800393
 20
-66.74460850122145
 30
0.0
 10
118.2080925987113
 20
-66.79901255288483
 30
0.0
 10
119.3342442590067
 20
-67.0090916112369
 30
0.0
 10
120.0760741014506
 20
-67.21145090440419
 30
0.0
 10
120.8117545619906
 20
-67.45667772458424
 30
0.0
  0
LINE
  5
293
330
1F
100
AcDbEntity
  8
0
  6
Continuous
 62
     7
370
    15
100
AcDbLine
 10
129.8117541746
 20
-67.4566833473
 30
0.0
 11
129.8117541746
 21
-75.3829537131
 31
0.0
  0
SPLINE
  5
294
330
1F
100
AcDbEntity
  8
0
  6
Continuous
 62
     7
370
    15
100
AcDbSpline
210
0.0
220
0.0
230
1.0
 70
     8
 71
     3
 72
    16
 73
    12
 74
     0
 42
0.00000001
 43
0.00000001
 12
1.0
 22
0.0
 32
0.0
 13
1.0
 23
0.0
 33
0.0
 40
0.0
 40
0.0
 40
0.0
 40
0.0
 40
0.2499999999999979
 40
0.2499999999999979
 40
0.4999999999999959
 40
0.4999999999999959
 40
0.624999999999995
 40
0.624999999999995
 40
0.749999999999994
 40
0.749999999999994
 40
1.0
 40
1.0
 40
1.0
 40
1.0
 10
129.8117545619906
 20
-75.3829571662137
 30
0.0
 10
129.0769900182434
 20
-75.62787868079606
 30
0.0
 10
128.3368684168272
 20
-75.82973840083258
 30
0.0
 10
126.8411893987669
 20
-76.10937967242965
 30
0.0
 10
126.0855172298182
 20
-76.18623880715798
 30
0.0
 10
124.9377716225623
 20
-76.1870829683272
 30
0.0
 10
124.5533896111147
 20
-76.16829388165709
 30
0.0
 10
123.7930414439419
 20
-76.09502638957626
 30
0.0
 10
123.4154165252698
 20
-76.04062233791291
 30
0.0
 10
122.2892648649745
 20
-75.83054327956083
 30
0.0
 10
121.5474350225305
 20
-75.62818398639347
 30
0.0
 10
120.8117545619905
 20
-75.3829571662135
 30
0.0
  0
SPLINE
  5
295
330
1F
100
AcDbEntity
  8
0
  6
Continuous
 62
     7
370
    15
100
AcDbSpline
210
0.0
220
0.0
230
1.0
 70
     8
 71
     3
 72
    16
 73
    12
 74
     0
 42
0.00000001
 43
0.00000001
 12
1.0
 22
0.0
 32
0.0
 13
1.0
 23
0.0
 33
0.0
 40
0.0
 40
0.0
 40
0.0
 40
0.0
 40
0.2500000000000021
 40
0.2500000000000021
 40
0.5000000000000041
 40
0.5000000000000041
 40
0.625000000000005
 40
0.625000000000005
 40
0.7500000000000059
 40
0.7500000000000059
 40
1.0
 40
1.0
 40
1.0
 40
1.0
 10
120.8117545619905
 20
-67.45667772458401
 30
0.0
 10
121.5465191057376
 20
-67.21175621000165
 30
0.0
 10
122.2866407071539
 20
-67.0098964899651
 30
0.0
 10
123.7823197252142
 20
-66.73025521836804
 30
0.0
 10
124.5379918941629
 20
-66.65339608363975
 30
0.0
 10
125.6857375014188
 20
-66.65255192247051
 30
0.0
 10
126.0701195128664
 20
-66.67134100914059
 30
0.0
 10
126.8304676800392
 20
-66.74460850122139
 30
0.0
 10
127.2080925987113
 20
-66.7990125528848
 30
0.0
 10
128.3342442590067
 20
-67.00909161123681
 30
0.0
 10
129.0760741014506
 20
-67.21145090440424
 30
0.0
 10
129.8117545619906
 20
-67.45667772458424
 30
0.0
  0
SPLINE
  5
296
330
1F
100
AcDbEntity
  8
0
  6
Continuous
 62
     7
370
    15
100
AcDbSpline
210
0.0
220
0.0
230
1.0
 70
    24
 71
     3
 72
    11
 73
     7
 74
     0
 42
0.00000001
 43
0.00000001
 12
1.0
 22
0.0
 32
0.0
 13
1.0
 23
0.0
 33
0.0
 40
0.0
 40
0.0
 40
0.0
 40
0.0
 40
0.0202051909010074
 40
0.2756674694438765
 40
0.6360693577644612
 40
1.0
 40
1.0
 40
1.0
 40
1.0
 10
111.8117549494207
 20
-66.65753407251982
 30
0.0
 10
111.8117549494207
 20
-66.65616292812489
 30
0.0
 10
111.8117549494207
 20
-66.63745585886537
 30
0.0
 10
111.8117549494207
 20
-66.72259890418191
 30
0.0
 10
111.8117549494207
 20
-66.96015344853316
 30
0.0
 10
111.8117549494207
 20
-67.29063670579639
 30
0.0
 10
111.8117549494207
 20
-67.45668334734587
 30
0.0
  0
SPLINE
  5
297
330
1F
100
AcDbEntity
  8
0
  6
Continuous
 62
     7
370
    15
100
AcDbSpline
210
0.0
220
0.0
230
1.0
 70
    24
 71
     3
 72
    11
 73
     7
 74
     0
 42
0.00000001
 43
0.00000001
 12
1.0
 22
0.0
 32
0.0
 13
1.0
 23
0.0
 33
0.0
 40
0.0
 40
0.0
 40
0.0
 40
0.0
 40
0.3606693061071048
 40
0.7243271250404844
 40
0.9733738621217747
 40
1.0
 40
1.0
 40
1.0
 40
1.0
 10
129.8117541745603
 20
-67.45668334734587
 30
0.0
 10
129.8117541745603
 20
-67.29209174654208
 30
0.0
 10
129.8117541745603
 20
-66.96154473575598
 30
0.0
 10
129.8117541745603
 20
-66.72391169252302
 30
0.0
 10
129.8117541745603
 20
-66.6392979419592
 30
0.0
 10
129.8117541745603
 20
-66.65682470899199
 30
0.0
 10
129.8117541745603
 20
-66.65851754915862
 30
0.0
  0
LINE
  5
298
330
1F
100
AcDbEntity
  8
0
  6
Continuous
 62
     7
370
    15
100
AcDbLine
 10
112.5617546067
 20
-66.2198124625
 30
0.0
 11
129.0617545173
 21
-66.2198124625
 31
0.0
  0
SPLINE
  5
299
330
1F
100
AcDbEntity
  8
0
  6
Continuous
 62
     7
370
    15
100
AcDbSpline
210
0.0
220
0.0
230
1.0
 70
    24
 71
     3
 72
    11
 73
     7
 74
     0
 42
0.00000001
 43
0.00000001
 12
1.0
 22
0.0
 32
0.0
 13
1.0
 23
0.0
 33
0.0
 40
0.0
 40
0.0
 40
0.0
 40
0.0
 40
0.0202051909010074
 40
0.2756674694438765
 40
0.6360693577644612
 40
1.0
 40
1.0
 40
1.0
 40
1.0
 10
129.8117541745603
 20
-76.18210298788695
 30
0.0
 10
129.8117541745603
 20
-76.18347413228184
 30
0.0
 10
129.8117541745603
 20
-76.20218120154158
 30
0.0
 10
129.8117541745603
 20
-76.11703815622477
 30
0.0
 10
129.8117541745603
 20
-75.87948361187357
 30
0.0
 10
129.8117541745603
 20
-75.54900035461038
 30
0.0
 10
129.8117541745603
 20
-75.3829537130609
 30
0.0
  0
SPLINE
  5
29A
330
1F
100
AcDbEntity
  8
0
  6
Continuous
 62
     7
370
    15
100
AcDbSpline
210
0.0
220
0.0
230
1.0
 70
    24
 71
     3
 72
    11
 73
     7
 74
     0
 42
0.00000001
 43
0.00000001
 12
1.0
 22
0.0
 32
0.0
 13
1.0
 23
0.0
 33
0.0
 40
0.0
 40
0.0
 40
0.0
 40
0.0
 40
0.3606693061071048
 40
0.7243271250404844
 40
0.9733738621217747
 40
1.0
 40
1.0
 40
1.0
 40
1.0
 10
111.8117549494207
 20
-75.3829537130609
 30
0.0
 10
111.8117549494207
 20
-75.54754531386472
 30
0.0
 10
111.8117549494207
 20
-75.87809232465085
 30
0.0
 10
111.8117549494207
 20
-76.1157253678836
 30
0.0
 10
111.8117549494207
 20
-76.20033911844786
 30
0.0
 10
111.8117549494207
 20
-76.18281235141478
 30
0.0
 10
111.8117549494207
 20
-76.18111951124816
 30
0.0
  0
LINE
  5
29B
330
1F
100
AcDbEntity
  8
0
  6
Continuous
 62
     7
370
    15
100
AcDbLine
 10
120.811754562
 20
-31.119814346
 30
0.0
 11
126.8117546141
 21
-31.119814346
 31
0.0
  0
LINE
  5
29C
330
1F
100
AcDbEntity
  8
0
  6
Continuous
 62
     7
370
    15
100
AcDbLine
 10
114.8117545098
 20
-31.119814346
 30
0.0
 11
120.811754562
 21
-31.119814346
 31
0.0
  0
LINE
  5
29D
330
1F
100
AcDbEntity
  8
0
  6
Continuous
 62
     7
370
    15
100
AcDbLine
 10
501.9358337894
 20
-86.7816789247
 30
0.0
 11
501.9440592304
 21
-86.8054760791
 31
0.0
  0
SPLINE
  5
29E
330
1F
100
AcDbEntity
  8
0
  6
Continuous
 62
     7
370
    15
100
AcDbSpline
210
0.0
220
0.0
230
1.0
 70
     8
 71
     3
 72
    11
 73
     7
 74
     0
 42
0.00000001
 43
0.00000001
 12
1.0
 22
0.0
 32
0.0
 13
1.0
 23
0.0
 33
0.0
 40
0.0
 40
0.0
 40
0.0
 40
0.0
 40
0.2837886594359222
 40
0.5757357394889073
 40
0.8600873672572162
 40
1.0
 40
1.0
 40
1.0
 40
1.0
 10
562.8042162433564
 20
-86.78167892468123
 30
0.0
 10
562.6346506322288
 20
-86.80272204487454
 30
0.0
 10
562.2906446994036
 20
-86.84541323764358
 30
0.0
 10
561.9773932269777
 20
-86.92604395406602
 30
0.0
 10
561.8150275009502
 20
-86.97352594148256
 30
0.0
 10
561.8290720457144
 20
-86.9694007054739
 30
0.0
 10
561.8337036148013
 20
-86.96804029715207
 30
0.0
  0
SPLINE
  5
29F
330
1F
100
AcDbEntity
  8
0
  6
Continuous
 62
     7
370
    15
100
AcDbSpline
210
0.0
220
0.0
230
1.0
 70
     8
 71
     3
 72
    11
 73
     7
 74
     0
 42
0.00000001
 43
0.00000001
 12
1.0
 22
0.0
 32
0.0
 13
1.0
 23
0.0
 33
0.0
 40
0.0
 40
0.0
 40
0.0
 40
0.0
 40
0.1532596164051307
 40
0.4282230088974106
 40
0.7108225882963709
 40
1.0
 40
1.0
 40
1.0
 40
1.0
 10
-320.2101944908202
 20
-86.96804029715209
 30
0.0
 10
-320.2062292398891
 20
-86.96918697295222
 30
0.0
 10
-320.1951499241206
 20
-86.97239090215979
 30
0.0
 10
-320.3583386050194
 20
-86.92492245886893
 30
0.0
 10
-320.6669832736223
 20
-86.84570757648056
 30
0.0
 10
-321.0081575260857
 20
-86.8031848717347
 30
0.0
 10
-321.1807071193755
 20
-86.78167892468122
 30
0.0
  0
LINE
  5
2A0
330
1F
100
AcDbEntity
  8
0
  6
Continuous
 62
     7
370
    15
100
AcDbLine
 10
-260.3211163506
 20
-86.8055431343
 30
0.0
 11
-260.3123246655
 21
-86.7816789247
 31
0.0
  0
LINE
  5
2A1
330
1F
100
AcDbEntity
  8
0
  6
Continuous
 62
     7
370
    15
100
AcDbLine
 10
-312.8158210739
 20
-119.1198138691
 30
0.0
 11
-272.3015903458
 21
-119.1198138691
 31
0.0
  0
LINE
  5
2A2
330
1F
100
AcDbEntity
  8
0
  6
Continuous
 62
     7
370
    15
100
AcDbLine
 10
-260.3015958294
 20
-119.1198138691
 30
0.0
 11
-108.6882411465
 21
-119.1198138691
 31
0.0
  0
LINE
  5
2A3
330
1F
100
AcDbEntity
  8
0
  6
Continuous
 62
     7
370
    15
100
AcDbLine
 10
-96.6882466301
 20
-119.1198138691
 30
0.0
 11
114.8117545098
 21
-119.1198138691
 31
0.0
  0
LINE
  5
2A4
330
1F
100
AcDbEntity
  8
0
  6
Continuous
 62
     7
370
    15
100
AcDbLine
 10
126.8117546141
 20
-119.1198138691
 30
0.0
 11
338.3117557541
 21
-119.1198138691
 31
0.0
  0
LINE
  5
2A5
330
1F
100
AcDbEntity
  8
0
  6
Continuous
 62
     7
370
    15
100
AcDbLine
 10
350.3117502705
 20
-119.1198138691
 30
0.0
 11
501.9251049534
 21
-119.1198138691
 31
0.0
  0
LINE
  5
2A6
330
1F
100
AcDbEntity
  8
0
  6
Continuous
 62
     7
370
    15
100
AcDbLine
 10
513.9250994698
 20
-119.1198138691
 30
0.0
 11
554.4393301979
 21
-119.1198138691
 31
0.0
  0
LINE
  5
2A7
330
1F
100
AcDbEntity
  8
0
  6
Continuous
 62
     7
370
    15
100
AcDbLine
 10
332.3117584959
 20
-76.619824598
 30
0.0
 11
356.3117475286
 21
-76.619824598
 31
0.0
  0
LINE
  5
2A8
330
1F
100
AcDbEntity
  8
0
  6
Continuous
 62
     7
370
    15
100
AcDbLine
 10
-114.6882384047
 20
-76.619824598
 30
0.0
 11
-90.6882493719
 21
-76.619824598
 31
0.0
  0
LINE
  5
2A9
330
1F
100
AcDbEntity
  8
0
  6
Continuous
 62
     7
370
    15
100
AcDbLine
 10
354.7040612474
 20
-67.4566833473
 30
0.0
 11
354.7040612474
 21
-75.3829537131
 31
0.0
  0
SPLINE
  5
2AA
330
1F
100
AcDbEntity
  8
0
  6
Continuous
 62
     7
370
    15
100
AcDbSpline
210
0.0
220
0.0
230
1.0
 70
     8
 71
     3
 72
    16
 73
    12
 74
     0
 42
0.00000001
 43
0.00000001
 12
1.0
 22
0.0
 32
0.0
 13
1.0
 23
0.0
 33
0.0
 40
0.0
 40
0.0
 40
0.0
 40
0.0
 40
0.2499999999999997
 40
0.2499999999999997
 40
0.4999999999999993
 40
0.4999999999999993
 40
0.6249999999999991
 40
0.6249999999999991
 40
0.749999999999999
 40
0.749999999999999
 40
1.0
 40
1.0
 40
1.0
 40
1.0
 10
354.7040594073989
 20
-75.3829571662137
 30
0.0
 10
354.2798425228399
 20
-75.62787889870857
 30
0.0
 10
353.852532734087
 20
-75.82973875998768
 30
0.0
 10
352.9890012662329
 20
-76.10938005968467
 30
0.0
 10
352.552713334549
 20
-76.18623907696802
 30
0.0
 10
351.8900614808631
 20
-76.1870828379275
 30
0.0
 10
351.6681382404142
 20
-76.16829358300483
 30
0.0
 10
351.2291506569577
 20
-76.09502571040909
 30
0.0
 10
351.0111286282165
 20
-76.0406214450949
 30
0.0
 10
350.3609441268453
 20
-75.83054170077112
 30
0.0
 10
349.9326481142824
 20
-75.6281818927443
 30
0.0
 10
349.5079024498208
 20
-75.38295454800257
 30
0.0
  0
LINE
  5
2AB
330
1F
100
AcDbEntity
  8
0
  6
Continuous
 62
     7
370
    15
100
AcDbLine
 10
349.5079071299
 20
-67.4566833473
 30
0.0
 11
349.5079071299
 21
-75.3829537131
 31
0.0
  0
SPLINE
  5
2AC
330
1F
100
AcDbEntity
  8
0
  6
Continuous
 62
     7
370
    15
100
AcDbSpline
210
0.0
220
0.0
230
1.0
 70
     8
 71
     3
 72
    16
 73
    12
 74
     0
 42
0.00000001
 43
0.00000001
 12
1.0
 22
0.0
 32
0.0
 13
1.0
 23
0.0
 33
0.0
 40
0.0
 40
0.0
 40
0.0
 40
0.0
 40
0.2500000000000004
 40
0.2500000000000004
 40
0.5000000000000009
 40
0.5000000000000009
 40
0.6250000000000031
 40
0.6250000000000031
 40
0.7500000000000053
 40
0.7500000000000053
 40
1.0
 40
1.0
 40
1.0
 40
1.0
 10
349.5079023090101
 20
-67.45668042409213
 30
0.0
 10
349.932119182975
 20
-67.21175836713005
 30
0.0
 10
350.3594289564358
 20
-67.00989811597034
 30
0.0
 10
351.2229603841881
 20
-66.73025590400432
 30
0.0
 10
351.659248290982
 20
-66.65339636320957
 30
0.0
 10
352.3219001052033
 20
-66.65255178733891
 30
0.0
 10
352.5438233804546
 20
-66.67134077031943
 30
0.0
 10
352.9828110188329
 20
-66.74460813438195
 30
0.0
 10
353.2008330738369
 20
-66.79901215989777
 30
0.0
 10
353.8510176494696
 20
-67.00909123947372
 30
0.0
 10
354.2793137053427
 20
-67.21145067916497
 30
0.0
 10
354.7040594073989
 20
-67.45667772458424
 30
0.0
  0
SPLINE
  5
2AD
330
1F
100
AcDbEntity
  8
0
  6
Continuous
 62
     7
370
    15
100
AcDbSpline
210
0.0
220
0.0
230
1.0
 70
     8
 71
     3
 72
    16
 73
    12
 74
     0
 42
0.00000001
 43
0.00000001
 12
1.0
 22
0.0
 32
0.0
 13
1.0
 23
0.0
 33
0.0
 40
0.0
 40
0.0
 40
0.0
 40
0.0
 40
0.2500000000000094
 40
0.2500000000000094
 40
0.5000000000000189
 40
0.5000000000000189
 40
0.6250000000000148
 40
0.6250000000000148
 40
0.7500000000000108
 40
0.7500000000000108
 40
1.0
 40
1.0
 40
1.0
 40
1.0
 10
333.9194497165723
 20
-67.45667772458434
 30
0.0
 10
334.3420276726055
 20
-67.21270222791507
 30
0.0
 10
334.7749419825655
 20
-67.00800813892023
 30
0.0
 10
335.6428853727272
 20
-66.72815434516787
 30
0.0
 10
336.0792058048629
 20
-66.652745882813
 30
0.0
 10
336.7378088268123
 20
-66.65287238736747
 30
0.0
 10
336.9580220844023
 20
-66.67156400719938
 30
0.0
 10
337.3997879793072
 20
-66.74573922531614
 30
0.0
 10
337.6193416098779
 20
-66.80091566828365
 30
0.0
 10
338.2701436438209
 20
-67.01225333433088
 30
0.0
 10
338.6956481057443
 20
-67.21421686092506
 30
0.0
 10
339.1156062732978
 20
-67.45668011136279
 30
0.0
  0
SPLINE
  5
2AE
330
1F
100
AcDbEntity
  8
0
  6
Continuous
 62
     7
370
    15
100
AcDbSpline
210
0.0
220
0.0
230
1.0
 70
     8
 71
     3
 72
    15
 73
    11
 74
     0
 42
0.00000001
 43
0.00000001
 12
1.0
 22
0.0
 32
0.0
 13
1.0
 23
0.0
 33
0.0
 40
0.0
 40
0.0
 40
0.0
 40
0.0
 40
0.1323059603570759
 40
0.2645736583046869
 40
0.3998010630601099
 40
0.5350025905282485
 40
0.6501939860318874
 40
0.7654020732068783
 40
0.8826896498569685
 40
1.0
 40
1.0
 40
1.0
 40
1.0
 10
339.1155988946855
 20
-67.45668334734587
 30
0.0
 10
339.5645895972172
 20
-67.3343103821633
 30
0.0
 10
340.4624411557787
 20
-67.08959984162095
 30
0.0
 10
341.8450609136285
 20
-66.82632943297041
 30
0.0
 10
343.2537317641832
 20
-66.6679990307313
 30
0.0
 10
344.6113807731892
 20
-66.63665897397959
 30
0.0
 10
345.8956778757992
 20
-66.7179914642442
 30
0.0
 10
347.1077385991646
 20
-66.88467118694278
 30
0.0
 10
348.3143186482766
 20
-67.12915335573092
 30
0.0
 10
349.1100185552527
 20
-67.34749961818436
 30
0.0
 10
349.5079071298539
 20
-67.45668334734587
 30
0.0
  0
LINE
  5
2AF
330
1F
100
AcDbEntity
  8
0
  6
Continuous
 62
     7
370
    15
100
AcDbLine
 10
337.1670485512
 20
-66.2198124625
 30
0.0
 11
352.5617511049
 21
-66.2198124625
 31
0.0
  0
LINE
  5
2B0
330
1F
100
AcDbEntity
  8
0
  6
Continuous
 62
     7
370
    15
100
AcDbLine
 10
336.0617549196
 20
-66.2198124625
 30
0.0
 11
337.1670485512
 21
-66.2198124625
 31
0.0
  0
SPLINE
  5
2B1
330
1F
100
AcDbEntity
  8
0
  6
Continuous
 62
     7
370
    15
100
AcDbSpline
210
0.0
220
0.0
230
1.0
 70
     8
 71
     3
 72
    15
 73
    11
 74
     0
 42
0.00000001
 43
0.00000001
 12
1.0
 22
0.0
 32
0.0
 13
1.0
 23
0.0
 33
0.0
 40
0.0
 40
0.0
 40
0.0
 40
0.0
 40
0.1323059603570759
 40
0.2645736583046869
 40
0.3998010630601099
 40
0.5350025905282485
 40
0.6501939860318874
 40
0.7654020732068783
 40
0.8826896498569685
 40
1.0
 40
1.0
 40
1.0
 40
1.0
 10
349.5079071298539
 20
-75.3829537130609
 30
0.0
 10
349.0589164273223
 20
-75.50532667824352
 30
0.0
 10
348.1610648687607
 20
-75.75003721878586
 30
0.0
 10
346.7784451109112
 20
-76.01330762743629
 30
0.0
 10
345.3697742603562
 20
-76.17163802967556
 30
0.0
 10
344.0121252513503
 20
-76.20297808642714
 30
0.0
 10
342.7278281487402
 20
-76.1216455961626
 30
0.0
 10
341.5157674253749
 20
-75.95496587346399
 30
0.0
 10
340.3091873762629
 20
-75.71048370467577
 30
0.0
 10
339.5134874692868
 20
-75.49213744222237
 30
0.0
 10
339.1155988946855
 20
-75.3829537130609
 30
0.0
  0
LINE
  5
2B2
330
1F
100
AcDbEntity
  8
0
  6
Continuous
 62
     7
370
    15
100
AcDbLine
 10
339.1155988947
 20
-67.4566833473
 30
0.0
 11
339.1155988947
 21
-75.3829537131
 31
0.0
  0
SPLINE
  5
2B3
330
1F
100
AcDbEntity
  8
0
  6
Continuous
 62
     7
370
    15
100
AcDbSpline
210
0.0
220
0.0
230
1.0
 70
     8
 71
     3
 72
    16
 73
    12
 74
     0
 42
0.00000001
 43
0.00000001
 12
1.0
 22
0.0
 32
0.0
 13
1.0
 23
0.0
 33
0.0
 40
0.0
 40
0.0
 40
0.0
 40
0.0
 40
0.2500000000000027
 40
0.2500000000000027
 40
0.5000000000000054
 40
0.5000000000000054
 40
0.6250000000000068
 40
0.6250000000000068
 40
0.7500000000000082
 40
0.7500000000000082
 40
1.0
 40
1.0
 40
1.0
 40
1.0
 10
333.9194497165723
 20
-75.3829571662133
 30
0.0
 10
334.3420276495165
 20
-75.62693264955222
 30
0.0
 10
334.7749419353949
 20
-75.83162672965489
 30
0.0
 10
335.642885277629
 20
-76.11148052198013
 30
0.0
 10
336.0792056855034
 20
-76.18688899179058
 30
0.0
 10
336.7378086705825
 20
-76.18676251156872
 30
0.0
 10
336.9580219158049
 20
-76.16807090196994
 30
0.0
 10
337.3997877858446
 20
-76.09389570790188
 30
0.0
 10
337.6193414070024
 20
-76.03871927789908
 30
0.0
 10
338.2701434095152
 20
-75.827381653545
 30
0.0
 10
338.6956478508948
 20
-75.62541815773776
 30
0.0
 10
339.1156059979483
 20
-75.38295493840818
 30
0.0
  0
LINE
  5
2B4
330
1F
100
AcDbEntity
  8
0
  6
Continuous
 62
     7
370
    15
100
AcDbLine
 10
333.9194447771
 20
-67.4566833473
 30
0.0
 11
333.9194447771
 21
-75.3829537131
 31
0.0
  0
LINE
  5
2B5
330
1F
100
AcDbEntity
  8
0
  6
Continuous
 62
     7
370
    15
100
AcDbLine
 10
-92.2959356531
 20
-67.4566833473
 30
0.0
 11
-92.2959356531
 21
-75.3829537131
 31
0.0
  0
SPLINE
  5
2B6
330
1F
100
AcDbEntity
  8
0
  6
Continuous
 62
     7
370
    15
100
AcDbSpline
210
0.0
220
0.0
230
1.0
 70
     8
 71
     3
 72
    16
 73
    12
 74
     0
 42
0.00000001
 43
0.00000001
 12
1.0
 22
0.0
 32
0.0
 13
1.0
 23
0.0
 33
0.0
 40
0.0
 40
0.0
 40
0.0
 40
0.0
 40
0.2500000000000135
 40
0.2500000000000135
 40
0.5000000000000271
 40
0.5000000000000271
 40
0.625000000000025
 40
0.625000000000025
 40
0.7500000000000229
 40
0.7500000000000229
 40
1.0
 40
1.0
 40
1.0
 40
1.0
 10
-92.29594059259671
 20
-75.38295716621336
 30
0.0
 10
-92.71851852554086
 20
-75.62693264955222
 30
0.0
 10
-93.15143281141933
 20
-75.83162672965494
 30
0.0
 10
-94.01937615365335
 20
-76.11148052198016
 30
0.0
 10
-94.4556965615278
 20
-76.18688899179067
 30
0.0
 10
-95.11429954660689
 20
-76.18676251156879
 30
0.0
 10
-95.33451279182931
 20
-76.16807090196998
 30
0.0
 10
-95.77627866186906
 20
-76.09389570790191
 30
0.0
 10
-95.99583228302697
 20
-76.03871927789908
 30
0.0
 10
-96.6466342855396
 20
-75.82738165354512
 30
0.0
 10
-97.0721387269191
 20
-75.62541815773784
 30
0.0
 10
-97.49209687397276
 20
-75.38295493840826
 30
0.0
  0
LINE
  5
2B7
330
1F
100
AcDbEntity
  8
0
  6
Continuous
 62
     7
370
    15
100
AcDbLine
 10
-97.4920897707
 20
-67.4566833473
 30
0.0
 11
-97.4920897707
 21
-75.3829537131
 31
0.0
  0
SPLINE
  5
2B8
330
1F
100
AcDbEntity
  8
0
  6
Continuous
 62
     7
370
    15
100
AcDbSpline
210
0.0
220
0.0
230
1.0
 70
     8
 71
     3
 72
    16
 73
    12
 74
     0
 42
0.00000001
 43
0.00000001
 12
1.0
 22
0.0
 32
0.0
 13
1.0
 23
0.0
 33
0.0
 40
0.0
 40
0.0
 40
0.0
 40
0.0
 40
0.2499999999999925
 40
0.2499999999999925
 40
0.4999999999999849
 40
0.4999999999999849
 40
0.62499999999999
 40
0.62499999999999
 40
0.7499999999999951
 40
0.7499999999999951
 40
1.0
 40
1.0
 40
1.0
 40
1.0
 10
-92.29594059259666
 20
-67.4566777245844
 30
0.0
 10
-92.7185185486297
 20
-67.2127022279151
 30
0.0
 10
-93.15143285858984
 20
-67.00800813892029
 30
0.0
 10
-94.01937624875154
 20
-66.72815434516795
 30
0.0
 10
-94.45569668088721
 20
-66.65274588281302
 30
0.0
 10
-95.11429970283675
 20
-66.65287238736748
 30
0.0
 10
-95.33451296042658
 20
-66.67156400719941
 30
0.0
 10
-95.77627885533158
 20
-66.74573922531617
 30
0.0
 10
-95.9958324859023
 20
-66.80091566828365
 30
0.0
 10
-96.64663451984524
 20
-67.01225333433088
 30
0.0
 10
-97.07213898176867
 20
-67.21421686092506
 30
0.0
 10
-97.49209714932222
 20
-67.45668011136276
 30
0.0
  0
SPLINE
  5
2B9
330
1F
100
AcDbEntity
  8
0
  6
Continuous
 62
     7
370
    15
100
AcDbSpline
210
0.0
220
0.0
230
1.0
 70
     8
 71
     3
 72
    15
 73
    11
 74
     0
 42
0.00000001
 43
0.00000001
 12
1.0
 22
0.0
 32
0.0
 13
1.0
 23
0.0
 33
0.0
 40
0.0
 40
0.0
 40
0.0
 40
0.0
 40
0.1323059603570759
 40
0.2645736583046869
 40
0.3998010630601099
 40
0.5350025905282485
 40
0.6501939860318874
 40
0.7654020732068783
 40
0.8826896498569685
 40
1.0
 40
1.0
 40
1.0
 40
1.0
 10
-97.49208977070451
 20
-75.3829537130609
 30
0.0
 10
-97.94108047323616
 20
-75.50532667824352
 30
0.0
 10
-98.83893203179773
 20
-75.75003721878586
 30
0.0
 10
-100.2215517896475
 20
-76.01330762743629
 30
0.0
 10
-101.6302226402022
 20
-76.17163802967556
 30
0.0
 10
-102.9878716492082
 20
-76.20297808642714
 30
0.0
 10
-104.2721687518182
 20
-76.1216455961626
 30
0.0
 10
-105.4842294751835
 20
-75.95496587346399
 30
0.0
 10
-106.6908095242957
 20
-75.71048370467577
 30
0.0
 10
-107.4865094312717
 20
-75.49213744222237
 30
0.0
 10
-107.884398005873
 20
-75.3829537130609
 30
0.0
  0
LINE
  5
2BA
330
1F
100
AcDbEntity
  8
0
  6
Continuous
 62
     7
370
    15
100
AcDbLine
 10
-107.8843980059
 20
-67.4566833473
 30
0.0
 11
-107.8843980059
 21
-75.3829537131
 31
0.0
  0
SPLINE
  5
2BB
330
1F
100
AcDbEntity
  8
0
  6
Continuous
 62
     7
370
    15
100
AcDbSpline
210
0.0
220
0.0
230
1.0
 70
     8
 71
     3
 72
    15
 73
    11
 74
     0
 42
0.00000001
 43
0.00000001
 12
1.0
 22
0.0
 32
0.0
 13
1.0
 23
0.0
 33
0.0
 40
0.0
 40
0.0
 40
0.0
 40
0.0
 40
0.1323059603570759
 40
0.2645736583046869
 40
0.3998010630601099
 40
0.5350025905282485
 40
0.6501939860318874
 40
0.7654020732068783
 40
0.8826896498569685
 40
1.0
 40
1.0
 40
1.0
 40
1.0
 10
-107.884398005873
 20
-67.45668334734587
 30
0.0
 10
-107.4354073033413
 20
-67.3343103821633
 30
0.0
 10
-106.5375557447797
 20
-67.08959984162095
 30
0.0
 10
-105.1549359869301
 20
-66.82632943297041
 30
0.0
 10
-103.7462651363751
 20
-66.6679990307313
 30
0.0
 10
-102.3886161273693
 20
-66.63665897397959
 30
0.0
 10
-101.1043190247592
 20
-66.7179914642442
 30
0.0
 10
-99.89225830139392
 20
-66.88467118694278
 30
0.0
 10
-98.68567825228186
 20
-67.12915335573092
 30
0.0
 10
-97.88997834530583
 20
-67.34749961818436
 30
0.0
 10
-97.49208977070451
 20
-67.45668334734587
 30
0.0
  0
SPLINE
  5
2BC
330
1F
100
AcDbEntity
  8
0
  6
Continuous
 62
     7
370
    15
100
AcDbSpline
210
0.0
220
0.0
230
1.0
 70
     8
 71
     3
 72
    16
 73
    12
 74
     0
 42
0.00000001
 43
0.00000001
 12
1.0
 22
0.0
 32
0.0
 13
1.0
 23
0.0
 33
0.0
 40
0.0
 40
0.0
 40
0.0
 40
0.0
 40
0.2500000000000007
 40
0.2500000000000007
 40
0.5000000000000013
 40
0.5000000000000013
 40
0.6250000000000017
 40
0.6250000000000017
 40
0.750000000000002
 40
0.750000000000002
 40
1.0
 40
1.0
 40
1.0
 40
1.0
 10
-107.8843933346587
 20
-75.3829545530912
 30
0.0
 10
-108.3086101968845
 20
-75.62787659269684
 30
0.0
 10
-108.7359199585802
 20
-75.82973682686038
 30
0.0
 10
-109.5994513625224
 20
-76.10937900873408
 30
0.0
 10
-110.0357392572639
 20
-76.18623853653446
 30
0.0
 10
-110.6983910529597
 20
-76.18708309913454
 30
0.0
 10
-110.920314321252
 20
-76.1682941128359
 30
0.0
 10
-111.3593019462098
 20
-76.09502674467664
 30
0.0
 10
-111.5773239946037
 20
-76.04062271832412
 30
0.0
 10
-112.227508550671
 20
-75.83054363942736
 30
0.0
 10
-112.6558045938512
 20
-75.62818420442495
 30
0.0
 10
-113.0805502834232
 20
-75.38295716621344
 30
0.0
  0
LINE
  5
2BD
330
1F
100
AcDbEntity
  8
0
  6
Continuous
 62
     7
370
    15
100
AcDbLine
 10
-113.0805521235
 20
-67.4566833473
 30
0.0
 11
-113.0805521235
 21
-75.3829537131
 31
0.0
  0
SPLINE
  5
2BE
330
1F
100
AcDbEntity
  8
0
  6
Continuous
 62
     7
370
    15
100
AcDbSpline
210
0.0
220
0.0
230
1.0
 70
     8
 71
     3
 72
    16
 73
    12
 74
     0
 42
0.00000001
 43
0.00000001
 12
1.0
 22
0.0
 32
0.0
 13
1.0
 23
0.0
 33
0.0
 40
0.0
 40
0.0
 40
0.0
 40
0.0
 40
0.2499999999999919
 40
0.2499999999999919
 40
0.4999999999999838
 40
0.4999999999999838
 40
0.6249999999999865
 40
0.6249999999999865
 40
0.7499999999999892
 40
0.7499999999999892
 40
1.0
 40
1.0
 40
1.0
 40
1.0
 10
-113.0805502834232
 20
-67.45667772458398
 30
0.0
 10
-112.6563333845912
 20
-67.21175598384848
 30
0.0
 10
-112.2290235813566
 20
-67.00989611722811
 30
0.0
 10
-111.3654920838486
 20
-66.7302548164685
 30
0.0
 10
-110.9292041369805
 20
-66.6533958036265
 30
0.0
 10
-110.26655225991
 20
-66.6525520578015
 30
0.0
 10
-110.0446290125534
 20
-66.67134131908688
 30
0.0
 10
-109.6056414153142
 20
-66.74460920607227
 30
0.0
 10
-109.3876193797548
 20
-66.79901347946597
 30
0.0
 10
-108.7374348580706
 20
-67.00909324973074
 30
0.0
 10
-108.309138832146
 20
-67.21145307722777
 30
0.0
 10
-107.8843931543528
 20
-67.45668044180648
 30
0.0
  0
LINE
  5
2BF
330
1F
100
AcDbEntity
  8
0
  6
Continuous
 62
     7
370
    15
100
AcDbLine
 10
-110.9382419809
 20
-66.2198124625
 30
0.0
 11
-94.4382457956
 21
-66.2198124625
 31
0.0
  0
LINE
  5
2C0
330
1F
100
AcDbEntity
  8
0
  6
Continuous
 62
     7
370
    15
100
AcDbLine
 10
347.3117590919
 20
-31.119814346
 30
0.0
 11
350.3117502705
 21
-31.119814346
 31
0.0
  0
LINE
  5
2C1
330
1F
100
AcDbEntity
  8
0
  6
Continuous
 62
     7
370
    15
100
AcDbLine
 10
338.3117557541
 20
-31.119814346
 30
0.0
 11
347.3117590919
 21
-31.119814346
 31
0.0
  0
LINE
  5
2C2
330
1F
100
AcDbEntity
  8
0
  6
Continuous
 62
     7
370
    15
100
AcDbLine
 10
-105.688249968
 20
-31.119814346
 30
0.0
 11
-96.6882466301
 21
-31.119814346
 31
0.0
  0
LINE
  5
2C3
330
1F
100
AcDbEntity
  8
0
  6
Continuous
 62
     7
370
    15
100
AcDbLine
 10
-108.6882411465
 20
-31.119814346
 30
0.0
 11
-105.688249968
 21
-31.119814346
 31
0.0
  0
LINE
  5
2C4
330
1F
100
AcDbEntity
  8
0
  6
Continuous
 62
     7
370
    15
100
AcDbLine
 10
495.9251225964
 20
-76.619824598
 30
0.0
 11
519.9251116291
 21
-76.619824598
 31
0.0
  0
LINE
  5
2C5
330
1F
100
AcDbEntity
  8
0
  6
Continuous
 62
     7
370
    15
100
AcDbLine
 10
-278.3016025051
 20
-76.619824598
 30
0.0
 11
-254.3016134724
 21
-76.619824598
 31
0.0
  0
LINE
  5
2C6
330
1F
100
AcDbEntity
  8
0
  6
Continuous
 62
     7
370
    15
100
AcDbLine
 10
507.9251171127
 20
-67.4566833473
 30
0.0
 11
507.9251171127
 21
-75.3829537131
 31
0.0
  0
SPLINE
  5
2C7
330
1F
100
AcDbEntity
  8
0
  6
Continuous
 62
     7
370
    15
100
AcDbSpline
210
0.0
220
0.0
230
1.0
 70
     8
 71
     3
 72
    16
 73
    12
 74
     0
 42
0.00000001
 43
0.00000001
 12
1.0
 22
0.0
 32
0.0
 13
1.0
 23
0.0
 33
0.0
 40
0.0
 40
0.0
 40
0.0
 40
0.0
 40
0.2499999999999911
 40
0.2499999999999911
 40
0.4999999999999822
 40
0.4999999999999822
 40
0.6249999999999867
 40
0.6249999999999867
 40
0.7499999999999911
 40
0.7499999999999911
 40
1.0
 40
1.0
 40
1.0
 40
1.0
 10
498.925110053632
 20
-75.3829571662133
 30
0.0
 10
499.6570359432234
 20
-75.62693246274375
 30
0.0
 10
500.4068648971663
 20
-75.83162641823469
 30
0.0
 10
501.9101857006851
 20
-76.11148019056026
 30
0.0
 10
502.6659142266237
 20
-76.18688876485129
 30
0.0
 10
503.8066471638593
 20
-76.1867626256187
 30
0.0
 10
504.1880673928962
 20
-76.16807115942507
 30
0.0
 10
504.9532277213138
 20
-76.093896302368
 30
0.0
 10
505.3335055196713
 20
-76.03872005404729
 30
0.0
 10
506.4607268908002
 20
-75.82738301397173
 30
0.0
 10
507.1977217034651
 20
-75.62541994960222
 30
0.0
 10
507.925110053632
 20
-75.38295716621327
 30
0.0
  0
LINE
  5
2C8
330
1F
100
AcDbEntity
  8
0
  6
Continuous
 62
     7
370
    15
100
AcDbLine
 10
498.9251137749
 20
-67.4566833473
 30
0.0
 11
498.9251137749
 21
-75.3829537131
 31
0.0
  0
SPLINE
  5
2C9
330
1F
100
AcDbEntity
  8
0
  6
Continuous
 62
     7
370
    15
100
AcDbSpline
210
0.0
220
0.0
230
1.0
 70
     8
 71
     3
 72
    16
 73
    12
 74
     0
 42
0.00000001
 43
0.00000001
 12
1.0
 22
0.0
 32
0.0
 13
1.0
 23
0.0
 33
0.0
 40
0.0
 40
0.0
 40
0.0
 40
0.0
 40
0.2499999999999911
 40
0.2499999999999911
 40
0.4999999999999822
 40
0.4999999999999822
 40
0.6249999999999867
 40
0.6249999999999867
 40
0.7499999999999911
 40
0.7499999999999911
 40
1.0
 40
1.0
 40
1.0
 40
1.0
 10
498.9251100536321
 20
-67.45667772458431
 30
0.0
 10
499.6570359432234
 20
-67.21270242805382
 30
0.0
 10
500.4068648971663
 20
-67.00800847256292
 30
0.0
 10
501.910185700685
 20
-66.72815470023737
 30
0.0
 10
502.6659142266237
 20
-66.65274612594628
 30
0.0
 10
503.8066471638593
 20
-66.652872265179
 30
0.0
 10
504.1880673928962
 20
-66.6715637313726
 30
0.0
 10
504.9532277213138
 20
-66.74573858842967
 30
0.0
 10
505.3335055196713
 20
-66.8009148367504
 30
0.0
 10
506.4607268908001
 20
-67.01225187682596
 30
0.0
 10
507.1977217034651
 20
-67.21421494119544
 30
0.0
 10
507.925110053632
 20
-67.45667772458437
 30
0.0
  0
SPLINE
  5
2CA
330
1F
100
AcDbEntity
  8
0
  6
Continuous
 62
     7
370
    15
100
AcDbSpline
210
0.0
220
0.0
230
1.0
 70
    24
 71
     3
 72
    12
 73
     8
 74
     0
 42
0.00000001
 43
0.00000001
 12
1.0
 22
0.0
 32
0.0
 13
1.0
 23
0.0
 33
0.0
 40
0.0
 40
0.0
 40
0.0
 40
0.0
 40
0.0699904009232902
 40
0.3003768533362772
 40
0.5307966896225201
 40
0.7653755709563864
 40
1.0
 40
1.0
 40
1.0
 40
1.0
 10
498.9251137748658
 20
-66.66546149027495
 30
0.0
 10
498.9251137748658
 20
-66.6616100000972
 30
0.0
 10
498.9251137748658
 20
-66.6450806119956
 30
0.0
 10
498.9251137748658
 20
-66.72325310475078
 30
0.0
 10
498.925113774866
 20
-66.88323969582406
 30
0.0
 10
498.9251137748659
 20
-67.1295139735683
 30
0.0
 10
498.9251137748659
 20
-67.34761983190918
 30
0.0
 10
498.9251137748659
 20
-67.45668334734584
 30
0.0
  0
SPLINE
  5
2CB
330
1F
100
AcDbEntity
  8
0
  6
Continuous
 62
     7
370
    15
100
AcDbSpline
210
0.0
220
0.0
230
1.0
 70
    24
 71
     3
 72
    11
 73
     7
 74
     0
 42
0.00000001
 43
0.00000001
 12
1.0
 22
0.0
 32
0.0
 13
1.0
 23
0.0
 33
0.0
 40
0.0
 40
0.0
 40
0.0
 40
0.0
 40
0.2646077154460737
 40
0.5291389072893661
 40
0.7995894186757211
 40
1.0
 40
1.0
 40
1.0
 40
1.0
 10
516.9251204505861
 20
-67.45668334734587
 30
0.0
 10
516.9251204505862
 20
-67.33408897711763
 30
0.0
 10
516.9251204505863
 20
-67.08893569051357
 30
0.0
 10
516.925120450586
 20
-66.82900990114267
 30
0.0
 10
516.9251204505861
 20
-66.672583768295
 30
0.0
 10
516.9251204505861
 20
-66.66758787208661
 30
0.0
 10
516.9251204505861
 20
-66.66546149027495
 30
0.0
  0
SPLINE
  5
2CC
330
1F
100
AcDbEntity
  8
0
  6
Continuous
 62
     7
370
    15
100
AcDbSpline
210
0.0
220
0.0
230
1.0
 70
     8
 71
     3
 72
    16
 73
    12
 74
     0
 42
0.00000001
 43
0.00000001
 12
1.0
 22
0.0
 32
0.0
 13
1.0
 23
0.0
 33
0.0
 40
0.0
 40
0.0
 40
0.0
 40
0.0
 40
0.2499999999999946
 40
0.2499999999999946
 40
0.4999999999999892
 40
0.4999999999999892
 40
0.6249999999999953
 40
0.6249999999999953
 40
0.7500000000000013
 40
0.7500000000000013
 40
1.0
 40
1.0
 40
1.0
 40
1.0
 10
507.925110053632
 20
-67.45667772458398
 30
0.0
 10
508.6598752758389
 20
-67.2117559838483
 30
0.0
 10
509.3999975656136
 20
-67.0098961172279
 30
0.0
 10
510.8956779932339
 20
-66.73025481646832
 30
0.0
 10
511.6513508839398
 20
-66.65339580362627
 30
0.0
 10
512.7990976027572
 20
-66.65255205780156
 30
0.0
 10
513.1834799425599
 20
-66.67134131908708
 30
0.0
 10
513.943828764871
 20
-66.74460920607257
 30
0.0
 10
514.3214540076295
 20
-66.79901347946634
 30
0.0
 10
515.4476066334819
 20
-67.00909324973146
 30
0.0
 10
516.1894371110636
 20
-67.21145307722868
 30
0.0
 10
516.9251182052967
 20
-67.45668044180762
 30
0.0
  0
LINE
  5
2CD
330
1F
100
AcDbEntity
  8
0
  6
Continuous
 62
     7
370
    15
100
AcDbLine
 10
503.8001180664
 20
-66.2198124625
 30
0.0
 11
516.1751152054
 21
-66.2198124625
 31
0.0
  0
LINE
  5
2CE
330
1F
100
AcDbEntity
  8
0
  6
Continuous
 62
     7
370
    15
100
AcDbLine
 10
499.6751190201
 20
-66.2198124625
 30
0.0
 11
503.8001180664
 21
-66.2198124625
 31
0.0
  0
SPLINE
  5
2CF
330
1F
100
AcDbEntity
  8
0
  6
Continuous
 62
     7
370
    15
100
AcDbSpline
210
0.0
220
0.0
230
1.0
 70
    24
 71
     3
 72
    12
 73
     8
 74
     0
 42
0.00000001
 43
0.00000001
 12
1.0
 22
0.0
 32
0.0
 13
1.0
 23
0.0
 33
0.0
 40
0.0
 40
0.0
 40
0.0
 40
0.0
 40
0.0699904009232902
 40
0.3003768533362772
 40
0.5307966896225201
 40
0.7653755709563864
 40
1.0
 40
1.0
 40
1.0
 40
1.0
 10
516.9251204505861
 20
-76.17417557013182
 30
0.0
 10
516.9251204505861
 20
-76.17802706030959
 30
0.0
 10
516.9251204505861
 20
-76.19455644841123
 30
0.0
 10
516.9251204505861
 20
-76.11638395565602
 30
0.0
 10
516.9251204505862
 20
-75.95639736458267
 30
0.0
 10
516.9251204505863
 20
-75.71012308683844
 30
0.0
 10
516.9251204505861
 20
-75.49201722849759
 30
0.0
 10
516.9251204505862
 20
-75.38295371306087
 30
0.0
  0
SPLINE
  5
2D0
330
1F
100
AcDbEntity
  8
0
  6
Continuous
 62
     7
370
    15
100
AcDbSpline
210
0.0
220
0.0
230
1.0
 70
    24
 71
     3
 72
    11
 73
     7
 74
     0
 42
0.00000001
 43
0.00000001
 12
1.0
 22
0.0
 32
0.0
 13
1.0
 23
0.0
 33
0.0
 40
0.0
 40
0.0
 40
0.0
 40
0.0
 40
0.2646077154460737
 40
0.5291389072893661
 40
0.7995894186757211
 40
1.0
 40
1.0
 40
1.0
 40
1.0
 10
498.9251137748658
 20
-75.3829537130609
 30
0.0
 10
498.9251137748658
 20
-75.50554808328911
 30
0.0
 10
498.925113774866
 20
-75.75070136989314
 30
0.0
 10
498.9251137748657
 20
-76.01062715926427
 30
0.0
 10
498.9251137748658
 20
-76.16705329211177
 30
0.0
 10
498.9251137748658
 20
-76.17204918832017
 30
0.0
 10
498.9251137748658
 20
-76.17417557013182
 30
0.0
  0
SPLINE
  5
2D1
330
1F
100
AcDbEntity
  8
0
  6
Continuous
 62
     7
370
    15
100
AcDbSpline
210
0.0
220
0.0
230
1.0
 70
     8
 71
     3
 72
    16
 73
    12
 74
     0
 42
0.00000001
 43
0.00000001
 12
1.0
 22
0.0
 32
0.0
 13
1.0
 23
0.0
 33
0.0
 40
0.0
 40
0.0
 40
0.0
 40
0.0
 40
0.2499999999999939
 40
0.2499999999999939
 40
0.4999999999999878
 40
0.4999999999999878
 40
0.6249999999999915
 40
0.6249999999999915
 40
0.7499999999999952
 40
0.7499999999999952
 40
1.0
 40
1.0
 40
1.0
 40
1.0
 10
516.9251178929978
 20
-75.38295455309003
 30
0.0
 10
516.1903527341949
 20
-75.62787659269591
 30
0.0
 10
515.4502305163674
 20
-75.82973682685969
 30
0.0
 10
513.9545502508078
 20
-76.10937900873378
 30
0.0
 10
513.198877450388
 20
-76.18623853653435
 30
0.0
 10
512.0511308725156
 20
-76.18708309913457
 30
0.0
 10
511.6667484964516
 20
-76.16829411283595
 30
0.0
 10
510.9063996261305
 20
-76.09502674467682
 30
0.0
 10
510.5287743611416
 20
-76.04062271832427
 30
0.0
 10
509.4026216757362
 20
-75.83054363942755
 30
0.0
 10
508.6607911682669
 20
-75.62818420442504
 30
0.0
 10
507.925110053632
 20
-75.38295716621344
 30
0.0
  0
LINE
  5
2D2
330
1F
100
AcDbEntity
  8
0
  6
Continuous
 62
     7
370
    15
100
AcDbLine
 10
-257.3016046509
 20
-67.4566833473
 30
0.0
 11
-257.3016046509
 21
-75.3829537131
 31
0.0
  0
SPLINE
  5
2D3
330
1F
100
AcDbEntity
  8
0
  6
Continuous
 62
     7
370
    15
100
AcDbSpline
210
0.0
220
0.0
230
1.0
 70
     8
 71
     3
 72
    16
 73
    12
 74
     0
 42
0.00000001
 43
0.00000001
 12
1.0
 22
0.0
 32
0.0
 13
1.0
 23
0.0
 33
0.0
 40
0.0
 40
0.0
 40
0.0
 40
0.0
 40
0.2499999999999931
 40
0.2499999999999931
 40
0.4999999999999862
 40
0.4999999999999862
 40
0.6249999999999897
 40
0.6249999999999897
 40
0.7499999999999931
 40
0.7499999999999931
 40
1.0
 40
1.0
 40
1.0
 40
1.0
 10
-257.3016009296542
 20
-75.38295716621336
 30
0.0
 10
-258.0335268192455
 20
-75.62693246274378
 30
0.0
 10
-258.7833557731884
 20
-75.83162641823478
 30
0.0
 10
-260.2866765767071
 20
-76.11148019056034
 30
0.0
 10
-261.0424051026458
 20
-76.18688876485135
 30
0.0
 10
-262.1831380398816
 20
-76.18676262561867
 30
0.0
 10
-262.5645582689184
 20
-76.1680711594251
 30
0.0
 10
-263.329718597336
 20
-76.09389630236802
 30
0.0
 10
-263.7099963956935
 20
-76.03872005404735
 30
0.0
 10
-264.8372177668222
 20
-75.82738301397178
 30
0.0
 10
-265.5742125794872
 20
-75.62541994960227
 30
0.0
 10
-266.3016009296542
 20
-75.3829571662133
 30
0.0
  0
LINE
  5
2D4
330
1F
100
AcDbEntity
  8
0
  6
Continuous
 62
     7
370
    15
100
AcDbLine
 10
-266.3016079887
 20
-67.4566833473
 30
0.0
 11
-266.3016079887
 21
-75.3829537131
 31
0.0
  0
SPLINE
  5
2D5
330
1F
100
AcDbEntity
  8
0
  6
Continuous
 62
     7
370
    15
100
AcDbSpline
210
0.0
220
0.0
230
1.0
 70
     8
 71
     3
 72
    16
 73
    12
 74
     0
 42
0.00000001
 43
0.00000001
 12
1.0
 22
0.0
 32
0.0
 13
1.0
 23
0.0
 33
0.0
 40
0.0
 40
0.0
 40
0.0
 40
0.0
 40
0.2499999999999931
 40
0.2499999999999931
 40
0.4999999999999862
 40
0.4999999999999862
 40
0.6249999999999897
 40
0.6249999999999897
 40
0.7499999999999931
 40
0.7499999999999931
 40
1.0
 40
1.0
 40
1.0
 40
1.0
 10
-257.3016009296541
 20
-67.45667772458437
 30
0.0
 10
-258.0335268192454
 20
-67.21270242805387
 30
0.0
 10
-258.7833557731884
 20
-67.0080084725629
 30
0.0
 10
-260.2866765767071
 20
-66.72815470023743
 30
0.0
 10
-261.0424051026458
 20
-66.65274612594631
 30
0.0
 10
-262.1831380398815
 20
-66.652872265179
 30
0.0
 10
-262.5645582689183
 20
-66.67156373137263
 30
0.0
 10
-263.3297185973361
 20
-66.74573858842967
 30
0.0
 10
-263.7099963956935
 20
-66.80091483675042
 30
0.0
 10
-264.8372177668224
 20
-67.01225187682596
 30
0.0
 10
-265.5742125794872
 20
-67.21421494119552
 30
0.0
 10
-266.3016009296542
 20
-67.45667772458442
 30
0.0
  0
SPLINE
  5
2D6
330
1F
100
AcDbEntity
  8
0
  6
Continuous
 62
     7
370
    15
100
AcDbSpline
210
0.0
220
0.0
230
1.0
 70
     8
 71
     3
 72
    16
 73
    12
 74
     0
 42
0.00000001
 43
0.00000001
 12
1.0
 22
0.0
 32
0.0
 13
1.0
 23
0.0
 33
0.0
 40
0.0
 40
0.0
 40
0.0
 40
0.0
 40
0.2499999999999983
 40
0.2499999999999983
 40
0.4999999999999966
 40
0.4999999999999966
 40
0.6249999999999937
 40
0.6249999999999937
 40
0.7499999999999909
 40
0.7499999999999909
 40
1.0
 40
1.0
 40
1.0
 40
1.0
 10
-266.3016009296542
 20
-75.3829571662137
 30
0.0
 10
-267.0363661271392
 20
-75.62787889870863
 30
0.0
 10
-267.776488391831
 20
-75.82973875998776
 30
0.0
 10
-269.2721687680892
 20
-76.10938005968482
 30
0.0
 10
-270.0278416324954
 20
-76.18623907696814
 30
0.0
 10
-271.1755883108093
 20
-76.18708283792736
 30
0.0
 10
-271.5599706386471
 20
-76.16829358300468
 30
0.0
 10
-272.3203194370863
 20
-76.09502571040879
 30
0.0
 10
-272.6979446680355
 20
-76.04062144509453
 30
0.0
 10
-273.8240972587045
 20
-75.83054170077042
 30
0.0
 10
-274.5659277131427
 20
-75.6281818927433
 30
0.0
 10
-275.3016087842851
 20
-75.38295454800141
 30
0.0
  0
SPLINE
  5
2D7
330
1F
100
AcDbEntity
  8
0
  6
Continuous
 62
     7
370
    15
100
AcDbSpline
210
0.0
220
0.0
230
1.0
 70
    24
 71
     3
 72
    12
 73
     8
 74
     0
 42
0.00000001
 43
0.00000001
 12
1.0
 22
0.0
 32
0.0
 13
1.0
 23
0.0
 33
0.0
 40
0.0
 40
0.0
 40
0.0
 40
0.0
 40
0.0699904009232902
 40
0.3003768533362772
 40
0.5307966896225201
 40
0.7653755709563864
 40
1.0
 40
1.0
 40
1.0
 40
1.0
 10
-257.3016046508849
 20
-76.17417557013182
 30
0.0
 10
-257.3016046508849
 20
-76.17802706030959
 30
0.0
 10
-257.3016046508849
 20
-76.19455644841123
 30
0.0
 10
-257.3016046508848
 20
-76.11638395565602
 30
0.0
 10
-257.3016046508851
 20
-75.95639736458267
 30
0.0
 10
-257.3016046508849
 20
-75.71012308683844
 30
0.0
 10
-257.3016046508849
 20
-75.49201722849759
 30
0.0
 10
-257.3016046508849
 20
-75.38295371306087
 30
0.0
  0
SPLINE
  5
2D8
330
1F
100
AcDbEntity
  8
0
  6
Continuous
 62
     7
370
    15
100
AcDbSpline
210
0.0
220
0.0
230
1.0
 70
    24
 71
     3
 72
    11
 73
     7
 74
     0
 42
0.00000001
 43
0.00000001
 12
1.0
 22
0.0
 32
0.0
 13
1.0
 23
0.0
 33
0.0
 40
0.0
 40
0.0
 40
0.0
 40
0.0
 40
0.2646077154460737
 40
0.5291389072893661
 40
0.7995894186757211
 40
1.0
 40
1.0
 40
1.0
 40
1.0
 10
-275.3016113266051
 20
-75.3829537130609
 30
0.0
 10
-275.3016113266052
 20
-75.50554808328911
 30
0.0
 10
-275.3016113266052
 20
-75.75070136989314
 30
0.0
 10
-275.3016113266049
 20
-76.01062715926427
 30
0.0
 10
-275.3016113266051
 20
-76.16705329211177
 30
0.0
 10
-275.3016113266051
 20
-76.17204918832017
 30
0.0
 10
-275.3016113266051
 20
-76.17417557013182
 30
0.0
  0
SPLINE
  5
2D9
330
1F
100
AcDbEntity
  8
0
  6
Continuous
 62
     7
370
    15
100
AcDbSpline
210
0.0
220
0.0
230
1.0
 70
    24
 71
     3
 72
    11
 73
     7
 74
     0
 42
0.00000001
 43
0.00000001
 12
1.0
 22
0.0
 32
0.0
 13
1.0
 23
0.0
 33
0.0
 40
0.0
 40
0.0
 40
0.0
 40
0.0
 40
0.2646077154460737
 40
0.5291389072893661
 40
0.7995894186757211
 40
1.0
 40
1.0
 40
1.0
 40
1.0
 10
-257.3016046508849
 20
-67.45668334734587
 30
0.0
 10
-257.3016046508849
 20
-67.33408897711763
 30
0.0
 10
-257.301604650885
 20
-67.08893569051357
 30
0.0
 10
-257.3016046508847
 20
-66.82900990114267
 30
0.0
 10
-257.3016046508849
 20
-66.672583768295
 30
0.0
 10
-257.3016046508849
 20
-66.66758787208661
 30
0.0
 10
-257.3016046508849
 20
-66.66546149027495
 30
0.0
  0
SPLINE
  5
2DA
330
1F
100
AcDbEntity
  8
0
  6
Continuous
 62
     7
370
    15
100
AcDbSpline
210
0.0
220
0.0
230
1.0
 70
     8
 71
     3
 72
    16
 73
    12
 74
     0
 42
0.00000001
 43
0.00000001
 12
1.0
 22
0.0
 32
0.0
 13
1.0
 23
0.0
 33
0.0
 40
0.0
 40
0.0
 40
0.0
 40
0.0
 40
0.2499999999999942
 40
0.2499999999999942
 40
0.4999999999999885
 40
0.4999999999999885
 40
0.6249999999999923
 40
0.6249999999999923
 40
0.7499999999999962
 40
0.7499999999999962
 40
1.0
 40
1.0
 40
1.0
 40
1.0
 10
-275.3016090281764
 20
-67.45668042409329
 30
0.0
 10
-274.5668438490409
 20
-67.21175836713093
 30
0.0
 10
-273.8267216108358
 20
-67.00989811597104
 30
0.0
 10
-272.3310413040358
 20
-66.7302559040046
 30
0.0
 10
-271.5753684827407
 20
-66.65339636320974
 30
0.0
 10
-270.4276218727813
 20
-66.6525517873388
 30
0.0
 10
-270.0432394846637
 20
-66.67134077031929
 30
0.0
 10
-269.2828905910977
 20
-66.74460813438178
 30
0.0
 10
-268.9052653146601
 20
-66.79901215989763
 30
0.0
 10
-267.7791125953661
 20
-67.00909123947353
 30
0.0
 10
-267.0372820659123
 20
-67.21145067916486
 30
0.0
 10
-266.3016009296541
 20
-67.45667772458424
 30
0.0
  0
SPLINE
  5
2DB
330
1F
100
AcDbEntity
  8
0
  6
Continuous
 62
     7
370
    15
100
AcDbSpline
210
0.0
220
0.0
230
1.0
 70
    24
 71
     3
 72
    12
 73
     8
 74
     0
 42
0.00000001
 43
0.00000001
 12
1.0
 22
0.0
 32
0.0
 13
1.0
 23
0.0
 33
0.0
 40
0.0
 40
0.0
 40
0.0
 40
0.0
 40
0.0699904009232902
 40
0.3003768533362772
 40
0.5307966896225201
 40
0.7653755709563864
 40
1.0
 40
1.0
 40
1.0
 40
1.0
 10
-275.3016113266051
 20
-66.66546149027495
 30
0.0
 10
-275.3016113266051
 20
-66.6616100000972
 30
0.0
 10
-275.3016113266051
 20
-66.6450806119956
 30
0.0
 10
-275.3016113266051
 20
-66.72325310475078
 30
0.0
 10
-275.3016113266052
 20
-66.88323969582406
 30
0.0
 10
-275.3016113266052
 20
-67.1295139735683
 30
0.0
 10
-275.3016113266051
 20
-67.34761983190918
 30
0.0
 10
-275.3016113266052
 20
-67.45668334734584
 30
0.0
  0
LINE
  5
2DC
330
1F
100
AcDbEntity
  8
0
  6
Continuous
 62
     7
370
    15
100
AcDbLine
 10
-274.5516060814
 20
-66.2198124625
 30
0.0
 11
-258.0516098961
 21
-66.2198124625
 31
0.0
  0
LINE
  5
2DD
330
1F
100
AcDbEntity
  8
0
  6
Continuous
 62
     7
370
    15
100
AcDbLine
 10
516.9251204506
 20
-67.4566833473
 30
0.0
 11
516.9251204506
 21
-75.3829537131
 31
0.0
  0
LINE
  5
2DE
330
1F
100
AcDbEntity
  8
0
  6
Continuous
 62
     7
370
    15
100
AcDbLine
 10
-275.3016113266
 20
-67.4566833473
 30
0.0
 11
-275.3016113266
 21
-75.3829537131
 31
0.0
  0
LINE
  5
2DF
330
1F
100
AcDbEntity
  8
0
  6
Continuous
 62
     7
370
    15
100
AcDbLine
 10
513.1212712303
 20
-31.119814346
 30
0.0
 11
513.9250994698
 21
-31.119814346
 31
0.0
  0
LINE
  5
2E0
330
1F
100
AcDbEntity
  8
0
  6
Continuous
 62
     7
370
    15
100
AcDbLine
 10
501.9251049534
 20
-31.119814346
 30
0.0
 11
513.1212712303
 21
-31.119814346
 31
0.0
  0
LINE
  5
2E1
330
1F
100
AcDbEntity
  8
0
  6
Continuous
 62
     7
370
    15
100
AcDbLine
 10
-271.4977621063
 20
-31.119814346
 30
0.0
 11
-260.3015958294
 21
-31.119814346
 31
0.0
  0
LINE
  5
2E2
330
1F
100
AcDbEntity
  8
0
  6
Continuous
 62
     7
370
    15
100
AcDbLine
 10
-272.3015903458
 20
-31.119814346
 30
0.0
 11
-271.4977621063
 21
-31.119814346
 31
0.0
  0
LINE
  5
2E3
330
1F
100
AcDbEntity
  8
0
  6
Continuous
 62
     7
370
    15
100
AcDbLine
 10
555.8117569462
 20
-76.619824598
 30
0.0
 11
579.8117459789
 21
-76.619824598
 31
0.0
  0
LINE
  5
2E4
330
1F
100
AcDbEntity
  8
0
  6
Continuous
 62
     7
370
    15
100
AcDbLine
 10
-338.1882368549
 20
-76.619824598
 30
0.0
 11
-314.1882478222
 21
-76.619824598
 31
0.0
  0
SPLINE
  5
2E5
330
1F
100
AcDbEntity
  8
0
  6
Continuous
 62
     7
370
    15
100
AcDbSpline
210
0.0
220
0.0
230
1.0
 70
     8
 71
     3
 72
    16
 73
    12
 74
     0
 42
0.00000001
 43
0.00000001
 12
1.0
 22
0.0
 32
0.0
 13
1.0
 23
0.0
 33
0.0
 40
0.0
 40
0.0
 40
0.0
 40
0.0
 40
0.25
 40
0.25
 40
0.5
 40
0.5
 40
0.625
 40
0.625
 40
0.75
 40
0.75
 40
1.0
 40
1.0
 40
1.0
 40
1.0
 10
562.6156021392839
 20
-67.45667772458434
 30
0.0
 10
563.4607573580488
 20
-67.2127024280539
 30
0.0
 10
564.3265852548589
 20
-67.00800847256295
 30
0.0
 10
566.0624705960387
 20
-66.72815470023743
 30
0.0
 10
566.9351107318084
 20
-66.65274612594634
 30
0.0
 10
568.2523156685817
 20
-66.65287226517898
 30
0.0
 10
568.6927418123994
 20
-66.67156373137257
 30
0.0
 10
569.5762728555695
 20
-66.74573858842965
 30
0.0
 10
570.0153798340667
 20
-66.80091483675037
 30
0.0
 10
571.3169829581818
 20
-67.0122518768259
 30
0.0
 10
572.1679912651488
 20
-67.21421494119541
 30
0.0
 10
573.0079069846971
 20
-67.45667772458437
 30
0.0
  0
SPLINE
  5
2E6
330
1F
100
AcDbEntity
  8
0
  6
Continuous
 62
     7
370
    15
100
AcDbSpline
210
0.0
220
0.0
230
1.0
 70
     8
 71
     3
 72
    16
 73
    12
 74
     0
 42
0.00000001
 43
0.00000001
 12
1.0
 22
0.0
 32
0.0
 13
1.0
 23
0.0
 33
0.0
 40
0.0
 40
0.0
 40
0.0
 40
0.0
 40
0.2500000000000019
 40
0.2500000000000019
 40
0.5000000000000039
 40
0.5000000000000039
 40
0.6250000000000049
 40
0.6250000000000049
 40
0.7500000000000058
 40
0.7500000000000058
 40
1.0
 40
1.0
 40
1.0
 40
1.0
 10
557.4194497165772
 20
-67.45667772458404
 30
0.0
 10
557.8436662237008
 20
-67.2117562100016
 30
0.0
 10
558.2709756295113
 20
-67.00989648996513
 30
0.0
 10
559.1345063132096
 20
-66.73025521836807
 30
0.0
 10
559.5707938433715
 20
-66.65339608363966
 30
0.0
 10
560.2334450786819
 20
-66.65255192247051
 30
0.0
 10
560.4553681364627
 20
-66.67134100914068
 30
0.0
 10
560.8943553554577
 20
-66.74460850122145
 30
0.0
 10
561.1123772039059
 20
-66.79901255288478
 30
0.0
 10
561.7625611681257
 20
-67.00909161123687
 30
0.0
 10
562.1908568273535
 20
-67.21145090440419
 30
0.0
 10
562.6156021392839
 20
-67.45667772458418
 30
0.0
  0
SPLINE
  5
2E7
330
1F
100
AcDbEntity
  8
0
  6
Continuous
 62
     7
370
    15
100
AcDbSpline
210
0.0
220
0.0
230
1.0
 70
     8
 71
     3
 72
    16
 73
    12
 74
     0
 42
0.00000001
 43
0.00000001
 12
1.0
 22
0.0
 32
0.0
 13
1.0
 23
0.0
 33
0.0
 40
0.0
 40
0.0
 40
0.0
 40
0.0
 40
0.2500000000000018
 40
0.2500000000000018
 40
0.5000000000000037
 40
0.5000000000000037
 40
0.6250000000000047
 40
0.6250000000000047
 40
0.7500000000000058
 40
0.7500000000000058
 40
1.0
 40
1.0
 40
1.0
 40
1.0
 10
573.0079069846971
 20
-67.45667772458401
 30
0.0
 10
573.4321234918204
 20
-67.2117562100016
 30
0.0
 10
573.8594328976313
 20
-67.0098964899651
 30
0.0
 10
574.7229635813297
 20
-66.73025521836807
 30
0.0
 10
575.1592511114911
 20
-66.65339608363972
 30
0.0
 10
575.8219023468016
 20
-66.65255192247051
 30
0.0
 10
576.0438254045828
 20
-66.67134100914065
 30
0.0
 10
576.4828126235777
 20
-66.74460850122145
 30
0.0
 10
576.7008344720257
 20
-66.79901255288483
 30
0.0
 10
577.3510184362457
 20
-67.00909161123687
 30
0.0
 10
577.7793140954734
 20
-67.21145090440426
 30
0.0
 10
578.2040594074039
 20
-67.45667772458424
 30
0.0
  0
LINE
  5
2E8
330
1F
100
AcDbEntity
  8
0
  6
Continuous
 62
     7
370
    15
100
AcDbLine
 10
567.8117514625
 20
-66.2198124625
 30
0.0
 11
576.0617495552
 21
-66.2198124625
 31
0.0
  0
LINE
  5
2E9
330
1F
100
AcDbEntity
  8
0
  6
Continuous
 62
     7
370
    15
100
AcDbLine
 10
559.5617533699
 20
-66.2198124625
 30
0.0
 11
567.8117514625
 21
-66.2198124625
 31
0.0
  0
LINE
  5
2EA
330
1F
100
AcDbEntity
  8
0
  6
Continuous
 62
     7
370
    15
100
AcDbLine
 10
578.2040596977
 20
-67.4566833473
 30
0.0
 11
578.2040596977
 21
-75.3829537131
 31
0.0
  0
SPLINE
  5
2EB
330
1F
100
AcDbEntity
  8
0
  6
Continuous
 62
     7
370
    15
100
AcDbSpline
210
0.0
220
0.0
230
1.0
 70
     8
 71
     3
 72
    16
 73
    12
 74
     0
 42
0.00000001
 43
0.00000001
 12
1.0
 22
0.0
 32
0.0
 13
1.0
 23
0.0
 33
0.0
 40
0.0
 40
0.0
 40
0.0
 40
0.0
 40
0.2500000000000017
 40
0.2500000000000017
 40
0.5000000000000034
 40
0.5000000000000034
 40
0.6250000000000046
 40
0.6250000000000046
 40
0.7500000000000057
 40
0.7500000000000057
 40
1.0
 40
1.0
 40
1.0
 40
1.0
 10
578.2040594074039
 20
-75.38295716621364
 30
0.0
 10
577.7798429002805
 20
-75.62787868079606
 30
0.0
 10
577.3525334944696
 20
-75.82973840083255
 30
0.0
 10
576.4890028107712
 20
-76.1093796724296
 30
0.0
 10
576.0527152806096
 20
-76.18623880715795
 30
0.0
 10
575.3900640452991
 20
-76.18708296832718
 30
0.0
 10
575.1681409875182
 20
-76.16829388165704
 30
0.0
 10
574.7291537685231
 20
-76.0950263895762
 30
0.0
 10
574.5111319200753
 20
-76.04062233791285
 30
0.0
 10
573.8609479558554
 20
-75.83054327956074
 30
0.0
 10
573.4326522966276
 20
-75.62818398639344
 30
0.0
 10
573.0079069846971
 20
-75.38295716621347
 30
0.0
  0
LINE
  5
2EC
330
1F
100
AcDbEntity
  8
0
  6
Continuous
 62
     7
370
    15
100
AcDbLine
 10
573.0079055801
 20
-67.4566833473
 30
0.0
 11
573.0079055801
 21
-75.3829537131
 31
0.0
  0
SPLINE
  5
2ED
330
1F
100
AcDbEntity
  8
0
  6
Continuous
 62
     7
370
    15
100
AcDbSpline
210
0.0
220
0.0
230
1.0
 70
     8
 71
     3
 72
    16
 73
    12
 74
     0
 42
0.00000001
 43
0.00000001
 12
1.0
 22
0.0
 32
0.0
 13
1.0
 23
0.0
 33
0.0
 40
0.0
 40
0.0
 40
0.0
 40
0.0
 40
0.25
 40
0.25
 40
0.5
 40
0.5
 40
0.625
 40
0.625
 40
0.75
 40
0.75
 40
1.0
 40
1.0
 40
1.0
 40
1.0
 10
562.6156021392839
 20
-75.38295716621327
 30
0.0
 10
563.4607573580486
 20
-75.6269324627437
 30
0.0
 10
564.3265852548589
 20
-75.83162641823472
 30
0.0
 10
566.0624705960387
 20
-76.11148019056029
 30
0.0
 10
566.9351107318084
 20
-76.18688876485135
 30
0.0
 10
568.2523156685817
 20
-76.18676262561858
 30
0.0
 10
568.6927418123994
 20
-76.16807115942503
 30
0.0
 10
569.5762728555695
 20
-76.09389630236797
 30
0.0
 10
570.0153798340668
 20
-76.03872005404726
 30
0.0
 10
571.3169829581818
 20
-75.82738301397173
 30
0.0
 10
572.1679912651487
 20
-75.62541994960222
 30
0.0
 10
573.0079069846971
 20
-75.38295716621325
 30
0.0
  0
LINE
  5
2EE
330
1F
100
AcDbEntity
  8
0
  6
Continuous
 62
     7
370
    15
100
AcDbLine
 10
562.615597345
 20
-67.4566833473
 30
0.0
 11
562.615597345
 21
-75.3829537131
 31
0.0
  0
SPLINE
  5
2EF
330
1F
100
AcDbEntity
  8
0
  6
Continuous
 62
     7
370
    15
100
AcDbSpline
210
0.0
220
0.0
230
1.0
 70
     8
 71
     3
 72
    16
 73
    12
 74
     0
 42
0.00000001
 43
0.00000001
 12
1.0
 22
0.0
 32
0.0
 13
1.0
 23
0.0
 33
0.0
 40
0.0
 40
0.0
 40
0.0
 40
0.0
 40
0.2499999999999982
 40
0.2499999999999982
 40
0.4999999999999963
 40
0.4999999999999963
 40
0.6249999999999953
 40
0.6249999999999953
 40
0.7499999999999943
 40
0.7499999999999943
 40
1.0
 40
1.0
 40
1.0
 40
1.0
 10
562.6156021392839
 20
-75.38295716621364
 30
0.0
 10
562.1913856321605
 20
-75.62787868079609
 30
0.0
 10
561.7640762263496
 20
-75.82973840083255
 30
0.0
 10
560.9005455426513
 20
-76.10937967242968
 30
0.0
 10
560.4642580124898
 20
-76.18623880715795
 30
0.0
 10
559.8016067771792
 20
-76.18708296832712
 30
0.0
 10
559.5796837193985
 20
-76.16829388165706
 30
0.0
 10
559.1406965004034
 20
-76.09502638957623
 30
0.0
 10
558.9226746519553
 20
-76.04062233791288
 30
0.0
 10
558.2724906877353
 20
-75.83054327956083
 30
0.0
 10
557.8441950285076
 20
-75.62818398639344
 30
0.0
 10
557.4194497165772
 20
-75.38295716621347
 30
0.0
  0
LINE
  5
2F0
330
1F
100
AcDbEntity
  8
0
  6
Continuous
 62
     7
370
    15
100
AcDbLine
 10
557.4194432274
 20
-67.4566833473
 30
0.0
 11
557.4194432274
 21
-75.3829537131
 31
0.0
  0
SPLINE
  5
2F1
330
1F
100
AcDbEntity
  8
0
  6
Continuous
 62
     7
370
    15
100
AcDbSpline
210
0.0
220
0.0
230
1.0
 70
     8
 71
     3
 72
    16
 73
    12
 74
     0
 42
0.00000001
 43
0.00000001
 12
1.0
 22
0.0
 32
0.0
 13
1.0
 23
0.0
 33
0.0
 40
0.0
 40
0.0
 40
0.0
 40
0.0
 40
0.2499999999999981
 40
0.2499999999999981
 40
0.4999999999999962
 40
0.4999999999999962
 40
0.6249999999999952
 40
0.6249999999999952
 40
0.7499999999999941
 40
0.7499999999999941
 40
1.0
 40
1.0
 40
1.0
 40
1.0
 10
-320.992093015303
 20
-67.45667772458404
 30
0.0
 10
-320.5678765081797
 20
-67.21175621000165
 30
0.0
 10
-320.1405671023689
 20
-67.00989648996516
 30
0.0
 10
-319.2770364186705
 20
-66.73025521836807
 30
0.0
 10
-318.8407488885089
 20
-66.65339608363972
 30
0.0
 10
-318.1780976531986
 20
-66.65255192247048
 30
0.0
 10
-317.9561745954176
 20
-66.67134100914062
 30
0.0
 10
-317.5171873764224
 20
-66.74460850122142
 30
0.0
 10
-317.2991655279745
 20
-66.79901255288475
 30
0.0
 10
-316.6489815637543
 20
-67.00909161123687
 30
0.0
 10
-316.2206859045266
 20
-67.21145090440422
 30
0.0
 10
-315.7959405925963
 20
-67.45667772458421
 30
0.0
  0
SPLINE
  5
2F2
330
1F
100
AcDbEntity
  8
0
  6
Continuous
 62
     7
370
    15
100
AcDbSpline
210
0.0
220
0.0
230
1.0
 70
     8
 71
     3
 72
    16
 73
    12
 74
     0
 42
0.00000001
 43
0.00000001
 12
1.0
 22
0.0
 32
0.0
 13
1.0
 23
0.0
 33
0.0
 40
0.0
 40
0.0
 40
0.0
 40
0.0
 40
0.25
 40
0.25
 40
0.5
 40
0.5
 40
0.625
 40
0.625
 40
0.75
 40
0.75
 40
1.0
 40
1.0
 40
1.0
 40
1.0
 10
-320.9920930153029
 20
-67.4566777245844
 30
0.0
 10
-321.8372482340678
 20
-67.21270242805393
 30
0.0
 10
-322.7030761308779
 20
-67.00800847256292
 30
0.0
 10
-324.4389614720577
 20
-66.72815470023743
 30
0.0
 10
-325.3116016078275
 20
-66.65274612594634
 30
0.0
 10
-326.6288065446008
 20
-66.65287226517898
 30
0.0
 10
-327.0692326884184
 20
-66.6715637313726
 30
0.0
 10
-327.9527637315887
 20
-66.74573858842965
 30
0.0
 10
-328.3918707100858
 20
-66.80091483675042
 30
0.0
 10
-329.693473834201
 20
-67.01225187682599
 30
0.0
 10
-330.5444821411678
 20
-67.21421494119546
 30
0.0
 10
-331.3843978607163
 20
-67.4566777245844
 30
0.0
  0
SPLINE
  5
2F3
330
1F
100
AcDbEntity
  8
0
  6
Continuous
 62
     7
370
    15
100
AcDbSpline
210
0.0
220
0.0
230
1.0
 70
     8
 71
     3
 72
    16
 73
    12
 74
     0
 42
0.00000001
 43
0.00000001
 12
1.0
 22
0.0
 32
0.0
 13
1.0
 23
0.0
 33
0.0
 40
0.0
 40
0.0
 40
0.0
 40
0.0
 40
0.2500000000000019
 40
0.2500000000000019
 40
0.5000000000000039
 40
0.5000000000000039
 40
0.6250000000000049
 40
0.6250000000000049
 40
0.7500000000000058
 40
0.7500000000000058
 40
1.0
 40
1.0
 40
1.0
 40
1.0
 10
-336.5805502834228
 20
-67.45667772458401
 30
0.0
 10
-336.1563337762994
 20
-67.2117562100016
 30
0.0
 10
-335.7290243704887
 20
-67.00989648996513
 30
0.0
 10
-334.8654936867903
 20
-66.73025521836807
 30
0.0
 10
-334.4292061566288
 20
-66.65339608363966
 30
0.0
 10
-333.7665549213183
 20
-66.65255192247051
 30
0.0
 10
-333.5446318635374
 20
-66.67134100914068
 30
0.0
 10
-333.1056446445423
 20
-66.74460850122145
 30
0.0
 10
-332.8876227960944
 20
-66.79901255288478
 30
0.0
 10
-332.2374388318743
 20
-67.00909161123687
 30
0.0
 10
-331.8091431726464
 20
-67.21145090440426
 30
0.0
 10
-331.3843978607161
 20
-67.45667772458424
 30
0.0
  0
LINE
  5
2F4
330
1F
100
AcDbEntity
  8
0
  6
Continuous
 62
     7
370
    15
100
AcDbLine
 10
-334.4382404312
 20
-66.2198124625
 30
0.0
 11
-317.9382442459
 21
-66.2198124625
 31
0.0
  0
LINE
  5
2F5
330
1F
100
AcDbEntity
  8
0
  6
Continuous
 62
     7
370
    15
100
AcDbLine
 10
-315.7959341034
 20
-67.4566833473
 30
0.0
 11
-315.7959341034
 21
-75.3829537131
 31
0.0
  0
SPLINE
  5
2F6
330
1F
100
AcDbEntity
  8
0
  6
Continuous
 62
     7
370
    15
100
AcDbSpline
210
0.0
220
0.0
230
1.0
 70
     8
 71
     3
 72
    16
 73
    12
 74
     0
 42
0.00000001
 43
0.00000001
 12
1.0
 22
0.0
 32
0.0
 13
1.0
 23
0.0
 33
0.0
 40
0.0
 40
0.0
 40
0.0
 40
0.0
 40
0.2500000000000018
 40
0.2500000000000018
 40
0.5000000000000037
 40
0.5000000000000037
 40
0.6250000000000047
 40
0.6250000000000047
 40
0.7500000000000058
 40
0.7500000000000058
 40
1.0
 40
1.0
 40
1.0
 40
1.0
 10
-315.7959405925963
 20
-75.38295716621367
 30
0.0
 10
-316.2201570997198
 20
-75.62787868079603
 30
0.0
 10
-316.6474665055304
 20
-75.8297384008325
 30
0.0
 10
-317.5109971892289
 20
-76.10937967242963
 30
0.0
 10
-317.9472847193904
 20
-76.186238807158
 30
0.0
 10
-318.6099359547009
 20
-76.18708296832715
 30
0.0
 10
-318.8318590124819
 20
-76.16829388165709
 30
0.0
 10
-319.2708462314768
 20
-76.0950263895762
 30
0.0
 10
-319.4888680799248
 20
-76.04062233791294
 30
0.0
 10
-320.1390520441447
 20
-75.83054327956083
 30
0.0
 10
-320.5673477033725
 20
-75.62818398639352
 30
0.0
 10
-320.9920930153029
 20
-75.3829571662135
 30
0.0
  0
LINE
  5
2F7
330
1F
100
AcDbEntity
  8
0
  6
Continuous
 62
     7
370
    15
100
AcDbLine
 10
-320.992088221
 20
-67.4566833473
 30
0.0
 11
-320.992088221
 21
-75.3829537131
 31
0.0
  0
SPLINE
  5
2F8
330
1F
100
AcDbEntity
  8
0
  6
Continuous
 62
     7
370
    15
100
AcDbSpline
210
0.0
220
0.0
230
1.0
 70
     8
 71
     3
 72
    16
 73
    12
 74
     0
 42
0.00000001
 43
0.00000001
 12
1.0
 22
0.0
 32
0.0
 13
1.0
 23
0.0
 33
0.0
 40
0.0
 40
0.0
 40
0.0
 40
0.0
 40
0.25
 40
0.25
 40
0.5
 40
0.5
 40
0.625
 40
0.625
 40
0.75
 40
0.75
 40
1.0
 40
1.0
 40
1.0
 40
1.0
 10
-320.992093015303
 20
-75.38295716621336
 30
0.0
 10
-321.8372482340678
 20
-75.62693246274381
 30
0.0
 10
-322.703076130878
 20
-75.83162641823475
 30
0.0
 10
-324.4389614720579
 20
-76.11148019056034
 30
0.0
 10
-325.3116016078276
 20
-76.1868887648514
 30
0.0
 10
-326.6288065446008
 20
-76.18676262561861
 30
0.0
 10
-327.0692326884184
 20
-76.16807115942507
 30
0.0
 10
-327.9527637315888
 20
-76.09389630236805
 30
0.0
 10
-328.3918707100856
 20
-76.03872005404732
 30
0.0
 10
-329.6934738342007
 20
-75.82738301397175
 30
0.0
 10
-330.5444821411676
 20
-75.62541994960227
 30
0.0
 10
-331.3843978607161
 20
-75.38295716621333
 30
0.0
  0
LINE
  5
2F9
330
1F
100
AcDbEntity
  8
0
  6
Continuous
 62
     7
370
    15
100
AcDbLine
 10
-331.3843964562
 20
-67.4566833473
 30
0.0
 11
-331.3843964562
 21
-75.3829537131
 31
0.0
  0
SPLINE
  5
2FA
330
1F
100
AcDbEntity
  8
0
  6
Continuous
 62
     7
370
    15
100
AcDbSpline
210
0.0
220
0.0
230
1.0
 70
     8
 71
     3
 72
    16
 73
    12
 74
     0
 42
0.00000001
 43
0.00000001
 12
1.0
 22
0.0
 32
0.0
 13
1.0
 23
0.0
 33
0.0
 40
0.0
 40
0.0
 40
0.0
 40
0.0
 40
0.2500000000000019
 40
0.2500000000000019
 40
0.5000000000000039
 40
0.5000000000000039
 40
0.6250000000000049
 40
0.6250000000000049
 40
0.7500000000000058
 40
0.7500000000000058
 40
1.0
 40
1.0
 40
1.0
 40
1.0
 10
-331.3843978607161
 20
-75.3829571662137
 30
0.0
 10
-331.8086143678397
 20
-75.62787868079609
 30
0.0
 10
-332.2359237736503
 20
-75.82973840083258
 30
0.0
 10
-333.0994544573487
 20
-76.10937967242968
 30
0.0
 10
-333.5357419875104
 20
-76.18623880715795
 30
0.0
 10
-334.1983932228208
 20
-76.18708296832715
 30
0.0
 10
-334.4203162806016
 20
-76.16829388165709
 30
0.0
 10
-334.8593034995968
 20
-76.09502638957626
 30
0.0
 10
-335.077325348045
 20
-76.04062233791288
 30
0.0
 10
-335.7275093122647
 20
-75.83054327956086
 30
0.0
 10
-336.1558049714924
 20
-75.62818398639352
 30
0.0
 10
-336.5805502834228
 20
-75.3829571662135
 30
0.0
  0
LINE
  5
2FB
330
1F
100
AcDbEntity
  8
0
  6
Continuous
 62
     7
370
    15
100
AcDbLine
 10
-336.5805505737
 20
-67.4566833473
 30
0.0
 11
-336.5805505737
 21
-75.3829537131
 31
0.0
  0
LINE
  5
2FC
330
1F
100
AcDbEntity
  8
0
  6
Continuous
 62
     7
370
    15
100
AcDbLine
 10
561.8117691055
 20
-31.119814346
 30
0.0
 11
573.8117636219
 21
-31.119814346
 31
0.0
  0
LINE
  5
2FD
330
1F
100
AcDbEntity
  8
0
  6
Continuous
 62
     7
370
    15
100
AcDbLine
 10
-332.1882544979
 20
-31.119814346
 30
0.0
 11
-320.1882599815
 21
-31.119814346
 31
0.0
  0
LINE
  5
2FE
330
1F
100
AcDbEntity
  8
0
  6
Continuous
 62
     7
370
     0
100
AcDbLine
 10
-340.1882409081
 20
-82.3708234526
 30
0.0
 11
581.811750032
 21
-82.3708234526
 31
0.0
  0
LINE
  5
2FF
330
1F
100
AcDbEntity
  8
0
  6
Continuous
 62
     7
370
     0
100
AcDbLine
 10
-337.4497055039
 20
-85.3594077922
 30
0.0
 11
579.0732146278
 21
-85.3594077922
 31
0.0
  0
LINE
  5
300
330
1F
100
AcDbEntity
  8
0
  6
Continuous
 62
     7
370
     0
100
AcDbLine
 10
-321.1807071194
 20
-86.7816789247
 30
0.0
 11
-272.3015903458
 21
-86.7816789247
 31
0.0
  0
LINE
  5
301
330
1F
100
AcDbEntity
  8
0
  6
Continuous
 62
     7
370
     0
100
AcDbLine
 10
513.9250994698
 20
-86.7816789247
 30
0.0
 11
562.8042162434
 21
-86.7816789247
 31
0.0
  0
LINE
  5
302
330
1F
100
AcDbEntity
  8
0
  6
Continuous
 62
     7
370
     0
100
AcDbLine
 10
350.3117502705
 20
-86.7816789247
 30
0.0
 11
501.9358337894
 21
-86.7816789247
 31
0.0
  0
LINE
  5
303
330
1F
100
AcDbEntity
  8
0
  6
Continuous
 62
     7
370
     0
100
AcDbLine
 10
126.8117546141
 20
-86.7816789247
 30
0.0
 11
338.3117557541
 21
-86.7816789247
 31
0.0
  0
LINE
  5
304
330
1F
100
AcDbEntity
  8
0
  6
Continuous
 62
     7
370
     0
100
AcDbLine
 10
-96.6882466301
 20
-86.7816789247
 30
0.0
 11
114.8117545098
 21
-86.7816789247
 31
0.0
  0
LINE
  5
305
330
1F
100
AcDbEntity
  8
0
  6
Continuous
 62
     7
370
     0
100
AcDbLine
 10
-260.3123246655
 20
-86.7816789247
 30
0.0
 11
-108.6882411465
 21
-86.7816789247
 31
0.0
  0
LINE
  5
306
330
1F
100
AcDbEntity
  8
0
  6
Continuous
 62
     7
370
     0
100
AcDbLine
 10
-316.6356741413
 20
-91.5009735323
 30
0.0
 11
-272.3015903458
 21
-91.5009735323
 31
0.0
  0
LINE
  5
307
330
1F
100
AcDbEntity
  8
0
  6
Continuous
 62
     7
370
     0
100
AcDbLine
 10
-260.3015958294
 20
-91.5009735323
 30
0.0
 11
-108.6882411465
 21
-91.5009735323
 31
0.0
  0
LINE
  5
308
330
1F
100
AcDbEntity
  8
0
  6
Continuous
 62
     7
370
     0
100
AcDbLine
 10
-96.6882466301
 20
-91.5009735323
 30
0.0
 11
114.8117545098
 21
-91.5009735323
 31
0.0
  0
LINE
  5
309
330
1F
100
AcDbEntity
  8
0
  6
Continuous
 62
     7
370
     0
100
AcDbLine
 10
126.8117546141
 20
-91.5009735323
 30
0.0
 11
338.3117557541
 21
-91.5009735323
 31
0.0
  0
LINE
  5
30A
330
1F
100
AcDbEntity
  8
0
  6
Continuous
 62
     7
370
     0
100
AcDbLine
 10
350.3117502705
 20
-91.5009735323
 30
0.0
 11
501.9251049534
 21
-91.5009735323
 31
0.0
  0
LINE
  5
30B
330
1F
100
AcDbEntity
  8
0
  6
Continuous
 62
     7
370
     0
100
AcDbLine
 10
513.9250994698
 20
-91.5009735323
 30
0.0
 11
558.2591832653
 21
-91.5009735323
 31
0.0
  0
LINE
  5
30C
330
1F
100
AcDbEntity
  8
0
  6
Continuous
 62
     7
370
     0
100
AcDbLine
 10
-315.312421225
 20
-116.7506558992
 30
0.0
 11
-272.3015903458
 21
-116.7506558992
 31
0.0
  0
LINE
  5
30D
330
1F
100
AcDbEntity
  8
0
  6
Continuous
 62
     7
370
     0
100
AcDbLine
 10
-260.3015958294
 20
-116.7506558992
 30
0.0
 11
-108.6882411465
 21
-116.7506558992
 31
0.0
  0
LINE
  5
30E
330
1F
100
AcDbEntity
  8
0
  6
Continuous
 62
     7
370
     0
100
AcDbLine
 10
-96.6882466301
 20
-116.7506558992
 30
0.0
 11
114.8117545098
 21
-116.7506558992
 31
0.0
  0
LINE
  5
30F
330
1F
100
AcDbEntity
  8
0
  6
Continuous
 62
     7
370
     0
100
AcDbLine
 10
126.8117546141
 20
-116.7506558992
 30
0.0
 11
338.3117557541
 21
-116.7506558992
 31
0.0
  0
LINE
  5
310
330
1F
100
AcDbEntity
  8
0
  6
Continuous
 62
     7
370
     0
100
AcDbLine
 10
350.3117502705
 20
-116.7506558992
 30
0.0
 11
501.9251049534
 21
-116.7506558992
 31
0.0
  0
LINE
  5
311
330
1F
100
AcDbEntity
  8
0
  6
Continuous
 62
     7
370
     0
100
AcDbLine
 10
513.9250994698
 20
-116.7506558992
 30
0.0
 11
556.935930349
 21
-116.7506558992
 31
0.0
  0
LINE
  5
312
330
1F
100
AcDbEntity
  8
FORMAT
  6
CENTERX2
370
     0
100
AcDbLine
 10
120.811754562
 20
-22.3193361381
 30
0.0
 11
120.811754562
 21
-211.1198174454
 31
0.0
  0
ENDSEC
  0
SECTION
  2
OBJECTS
  0
DICTIONARY
  5
C
330
0
100
AcDbDictionary
281
     1
  3
ACAD_GROUP
350
D
  3
ACAD_LAYOUT
350
1A
  3
ACAD_MLINESTYLE
350
17
  3
ACAD_PLOTSETTINGS
350
19
  3
ACAD_PLOTSTYLENAME
350
E
  0
DICTIONARY
  5
D
102
{ACAD_REACTORS
330
C
102
}
330
C
100
AcDbDictionary
281
     1
  0
DICTIONARY
  5
1A
102
{ACAD_REACTORS
330
C
102
}
330
C
100
AcDbDictionary
281
     1
  3
Layout1
350
1E
  3
Layout2
350
26
  3
Model
350
22
  0
DICTIONARY
  5
17
102
{ACAD_REACTORS
330
C
102
}
330
C
100
AcDbDictionary
281
     1
  3
Standard
350
18
  0
DICTIONARY
  5
19
102
{ACAD_REACTORS
330
C
102
}
330
C
100
AcDbDictionary
281
     1
  0
ACDBDICTIONARYWDFLT
  5
E
102
{ACAD_REACTORS
330
C
102
}
330
C
100
AcDbDictionary
281
     1
  3
Normal
350
F
100
AcDbDictionaryWithDefault
340
F
  0
LAYOUT
  5
1E
102
{ACAD_REACTORS
330
1A
102
}
330
1A
100
AcDbPlotSettings
  1

  2
none_device
  4

  6

 40
0.0
 41
0.0
 42
0.0
 43
0.0
 44
0.0
 45
0.0
 46
0.0
 47
0.0
 48
0.0
 49
0.0
140
0.0
141
0.0
142
1.0
143
1.0
 70
   688
 72
     0
 73
     0
 74
     5
  7

 75
    16
147
1.0
148
0.0
149
0.0
100
AcDbLayout
  1
Layout1
 70
     1
 71
     1
 10
0.0
 20
0.0
 11
420.0
 21
297.0
 12
0.0
 22
0.0
 32
0.0
 14
1.0000000000E+20
 24
1.0000000000E+20
 34
1.0000000000E+20
 15
-1.0000000000E+20
 25
-1.0000000000E+20
 35
-1.0000000000E+20
146
0.0
 13
0.0
 23
0.0
 33
0.0
 16
1.0
 26
0.0
 36
0.0
 17
0.0
 27
1.0
 37
0.0
 76
     0
330
1B
  0
LAYOUT
  5
26
102
{ACAD_REACTORS
330
1A
102
}
330
1A
100
AcDbPlotSettings
  1

  2
none_device
  4

  6

 40
0.0
 41
0.0
 42
0.0
 43
0.0
 44
0.0
 45
0.0
 46
0.0
 47
0.0
 48
0.0
 49
0.0
140
0.0
141
0.0
142
1.0
143
1.0
 70
   688
 72
     0
 73
     0
 74
     5
  7

 75
    16
147
1.0
148
0.0
149
0.0
100
AcDbLayout
  1
Layout2
 70
     1
 71
     2
 10
0.0
 20
0.0
 11
0.0
 21
0.0
 12
0.0
 22
0.0
 32
0.0
 14
0.0
 24
0.0
 34
0.0
 15
0.0
 25
0.0
 35
0.0
146
0.0
 13
0.0
 23
0.0
 33
0.0
 16
1.0
 26
0.0
 36
0.0
 17
0.0
 27
1.0
 37
0.0
 76
     0
330
23
  0
LAYOUT
  5
22
102
{ACAD_REACTORS
330
1A
102
}
330
1A
100
AcDbPlotSettings
  1

  2
none_device
  4

  6

 40
0.0
 41
0.0
 42
0.0
 43
0.0
 44
0.0
 45
0.0
 46
0.0
 47
0.0
 48
0.0
 49
0.0
140
0.0
141
0.0
142
1.0
143
1.0
 70
  1712
 72
     0
 73
     0
 74
     0
  7

 75
     0
147
1.0
148
0.0
149
0.0
100
AcDbLayout
  1
Model
 70
     1
 71
     0
 10
0.0
 20
0.0
 11
841.0
 21
594.0
 12
0.0
 22
0.0
 32
0.0
 14
0.0
 24
0.0
 34
0.0
 15
841.0
 25
594.0
 35
0.0
146
0.0
 13
0.0
 23
0.0
 33
0.0
 16
1.0
 26
0.0
 36
0.0
 17
0.0
 27
1.0
 37
0.0
 76
     0
330
1F
331
29
  0
MLINESTYLE
  5
18
102
{ACAD_REACTORS
330
17
102
}
330
17
100
AcDbMlineStyle
  2
Standard
 70
     0
  3

 62
   256
 51
90.0
 52
90.0
 71
     2
 49
0.5
 62
   256
  6
BYLAYER
 49
-0.5
 62
   256
  6
BYLAYER
  0
ACDBPLACEHOLDER
  5
F
102
{ACAD_REACTORS
330
E
102
}
330
E
  0
ENDSEC
  0
EOF
